  0
SECTION
  2
HEADER
  9
$ACADVER
  1
AC1024
  9
$ACADMAINTVER
 70
     6
  9
$DWGCODEPAGE
  3
UNDEFINED
  9
$INSBASE
 10
0.0
 20
0.0
 30
0.0
  9
$EXTMIN
 10
1.000000000000000E+20
 20
1.000000000000000E+20
 30
1.000000000000000E+20
  9
$EXTMAX
 10
-1.000000000000000E+20
 20
-1.000000000000000E+20
 30
-1.000000000000000E+20
  9
$LIMMIN
 10
0.0
 20
0.0
  9
$LIMMAX
 10
12.0
 20
9.0
  9
$ORTHOMODE
 70
     0
  9
$REGENMODE
 70
     1
  9
$FILLMODE
 70
     1
  9
$QTEXTMODE
 70
     0
  9
$MIRRTEXT
 70
     1
  9
$LTSCALE
 40
1.0
  9
$ATTMODE
 70
     1
  9
$TEXTSIZE
 40
0.2
  9
$TRACEWID
 40
0.05
  9
$TEXTSTYLE
  7
Standard
  9
$CLAYER
  8
0
  9
$CELTYPE
  6
ByLayer
  9
$CECOLOR
 62
   256
  9
$CELTSCALE
 40
1.0
  9
$DISPSILH
 70
     0
  9
$DIMSCALE
 40
1.0
  9
$DIMASZ
 40
0.18
  9
$DIMEXO
 40
0.0625
  9
$DIMDLI
 40
0.38
  9
$DIMRND
 40
0.0
  9
$DIMDLE
 40
0.0
  9
$DIMEXE
 40
0.18
  9
$DIMTP
 40
0.0
  9
$DIMTM
 40
0.0
  9
$DIMTXT
 40
0.18
  9
$DIMCEN
 40
0.09
  9
$DIMTSZ
 40
0.0
  9
$DIMTOL
 70
     0
  9
$DIMLIM
 70
     0
  9
$DIMTIH
 70
     1
  9
$DIMTOH
 70
     1
  9
$DIMSE1
 70
     0
  9
$DIMSE2
 70
     0
  9
$DIMTAD
 70
     0
  9
$DIMZIN
 70
     0
  9
$DIMBLK
  1

  9
$DIMASO
 70
     1
  9
$DIMSHO
 70
     1
  9
$DIMPOST
  1

  9
$DIMAPOST
  1

  9
$DIMALT
 70
     0
  9
$DIMALTD
 70
     2
  9
$DIMALTF
 40
25.4
  9
$DIMLFAC
 40
1.0
  9
$DIMTOFL
 70
     0
  9
$DIMTVP
 40
0.0
  9
$DIMTIX
 70
     0
  9
$DIMSOXD
 70
     0
  9
$DIMSAH
 70
     0
  9
$DIMBLK1
  1

  9
$DIMBLK2
  1

  9
$DIMSTYLE
  2
Standard
  9
$DIMCLRD
 70
     0
  9
$DIMCLRE
 70
     0
  9
$DIMCLRT
 70
     0
  9
$DIMTFAC
 40
1.0
  9
$DIMGAP
 40
0.09
  9
$DIMJUST
 70
     0
  9
$DIMSD1
 70
     0
  9
$DIMSD2
 70
     0
  9
$DIMTOLJ
 70
     1
  9
$DIMTZIN
 70
     0
  9
$DIMALTZ
 70
     0
  9
$DIMALTTZ
 70
     0
  9
$DIMUPT
 70
     0
  9
$DIMDEC
 70
     4
  9
$DIMTDEC
 70
     4
  9
$DIMALTU
 70
     2
  9
$DIMALTTD
 70
     2
  9
$DIMTXSTY
  7
Standard
  9
$DIMAUNIT
 70
     0
  9
$DIMADEC
 70
     0
  9
$DIMALTRND
 40
0.0
  9
$DIMAZIN
 70
     0
  9
$DIMDSEP
 70
    46
  9
$DIMATFIT
 70
     3
  9
$DIMFRAC
 70
     0
  9
$DIMLDRBLK
  1

  9
$DIMLUNIT
 70
     2
  9
$DIMLWD
 70
    -2
  9
$DIMLWE
 70
    -2
  9
$DIMTMOVE
 70
     0
  9
$DIMFXL
 40
1.0
  9
$DIMFXLON
 70
     0
  9
$DIMJOGANG
 40
0.7853981633974483
  9
$DIMTFILL
 70
     0
  9
$DIMTFILLCLR
 70
     0
  9
$DIMARCSYM
 70
     0
  9
$DIMLTYPE
  6

  9
$DIMLTEX1
  6

  9
$DIMLTEX2
  6

  9
$DIMTXTDIRECTION
 70
     0
  9
$LUNITS
 70
     2
  9
$LUPREC
 70
     4
  9
$SKETCHINC
 40
0.1
  9
$FILLETRAD
 40
0.5
  9
$AUNITS
 70
     0
  9
$AUPREC
 70
     0
  9
$MENU
  1
.
  9
$ELEVATION
 40
0.0
  9
$PELEVATION
 40
0.0
  9
$THICKNESS
 40
0.0
  9
$LIMCHECK
 70
     0
  9
$CHAMFERA
 40
0.5
  9
$CHAMFERB
 40
0.5
  9
$CHAMFERC
 40
1.0
  9
$CHAMFERD
 40
0.0
  9
$SKPOLY
 70
     0
  9
$TDCREATE
 40
2458270.588009248
  9
$TDUCREATE
 40
2458270.213009259
  9
$TDUPDATE
 40
2458270.588009248
  9
$TDUUPDATE
 40
2458270.213009259
  9
$TDINDWG
 40
0.0000000116
  9
$TDUSRTIMER
 40
0.0000000116
  9
$USRTIMER
 70
     1
  9
$ANGBASE
 50
0.0
  9
$ANGDIR
 70
     0
  9
$PDMODE
 70
     0
  9
$PDSIZE
 40
0.0
  9
$PLINEWID
 40
0.0
  9
$SPLFRAME
 70
     0
  9
$SPLINETYPE
 70
     6
  9
$SPLINESEGS
 70
     8
  9
$HANDSEED
  5
1E9
  9
$SURFTAB1
 70
     6
  9
$SURFTAB2
 70
     6
  9
$SURFTYPE
 70
     6
  9
$SURFU
 70
     6
  9
$SURFV
 70
     6
  9
$UCSBASE
  2

  9
$UCSNAME
  2

  9
$UCSORG
 10
0.0
 20
0.0
 30
0.0
  9
$UCSXDIR
 10
1.0
 20
0.0
 30
0.0
  9
$UCSYDIR
 10
0.0
 20
1.0
 30
0.0
  9
$UCSORTHOREF
  2

  9
$UCSORTHOVIEW
 70
     0
  9
$UCSORGTOP
 10
0.0
 20
0.0
 30
0.0
  9
$UCSORGBOTTOM
 10
0.0
 20
0.0
 30
0.0
  9
$UCSORGLEFT
 10
0.0
 20
0.0
 30
0.0
  9
$UCSORGRIGHT
 10
0.0
 20
0.0
 30
0.0
  9
$UCSORGFRONT
 10
0.0
 20
0.0
 30
0.0
  9
$UCSORGBACK
 10
0.0
 20
0.0
 30
0.0
  9
$PUCSBASE
  2

  9
$PUCSNAME
  2

  9
$PUCSORG
 10
0.0
 20
0.0
 30
0.0
  9
$PUCSXDIR
 10
1.0
 20
0.0
 30
0.0
  9
$PUCSYDIR
 10
0.0
 20
1.0
 30
0.0
  9
$PUCSORTHOREF
  2

  9
$PUCSORTHOVIEW
 70
     0
  9
$PUCSORGTOP
 10
0.0
 20
0.0
 30
0.0
  9
$PUCSORGBOTTOM
 10
0.0
 20
0.0
 30
0.0
  9
$PUCSORGLEFT
 10
0.0
 20
0.0
 30
0.0
  9
$PUCSORGRIGHT
 10
0.0
 20
0.0
 30
0.0
  9
$PUCSORGFRONT
 10
0.0
 20
0.0
 30
0.0
  9
$PUCSORGBACK
 10
0.0
 20
0.0
 30
0.0
  9
$USERI1
 70
     0
  9
$USERI2
 70
     0
  9
$USERI3
 70
     0
  9
$USERI4
 70
     0
  9
$USERI5
 70
     0
  9
$USERR1
 40
0.0
  9
$USERR2
 40
0.0
  9
$USERR3
 40
0.0
  9
$USERR4
 40
0.0
  9
$USERR5
 40
0.0
  9
$WORLDVIEW
 70
     1
  9
$SHADEDGE
 70
     3
  9
$SHADEDIF
 70
    70
  9
$TILEMODE
 70
     1
  9
$MAXACTVP
 70
    64
  9
$PINSBASE
 10
0.0
 20
0.0
 30
0.0
  9
$PLIMCHECK
 70
     0
  9
$PEXTMIN
 10
1.000000000000000E+20
 20
1.000000000000000E+20
 30
1.000000000000000E+20
  9
$PEXTMAX
 10
-1.000000000000000E+20
 20
-1.000000000000000E+20
 30
-1.000000000000000E+20
  9
$PLIMMIN
 10
0.0
 20
0.0
  9
$PLIMMAX
 10
12.0
 20
9.0
  9
$UNITMODE
 70
     0
  9
$VISRETAIN
 70
     1
  9
$PLINEGEN
 70
     0
  9
$PSLTSCALE
 70
     1
  9
$TREEDEPTH
 70
  3020
  9
$CMLSTYLE
  2
Standard
  9
$CMLJUST
 70
     0
  9
$CMLSCALE
 40
1.0
  9
$PROXYGRAPHICS
 70
     1
  9
$MEASUREMENT
 70
     0
  9
$CELWEIGHT
370
    -1
  9
$ENDCAPS
280
     0
  9
$JOINSTYLE
280
     0
  9
$LWDISPLAY
290
     1
  9
$INSUNITS
 70
     1
  9
$HYPERLINKBASE
  1

  9
$STYLESHEET
  1

  9
$XEDIT
290
     1
  9
$CEPSNTYPE
380
     0
  9
$PSTYLEMODE
290
     1
  9
$FINGERPRINTGUID
  2
{F3AF08FC-F725-D094-15CB-59F187CB0D32}
  9
$VERSIONGUID
  2
{FAEB1C32-E019-11D5-929B-00C0DF256EC4}
  9
$EXTNAMES
290
     1
  9
$PSVPSCALE
 40
0.0
  9
$OLESTARTUP
290
     0
  9
$SORTENTS
280
   127
  9
$INDEXCTL
280
     0
  9
$HIDETEXT
280
     1
  9
$XCLIPFRAME
280
     2
  9
$HALOGAP
280
     0
  9
$OBSCOLOR
 70
   257
  9
$OBSLTYPE
280
     0
  9
$INTERSECTIONDISPLAY
280
     0
  9
$INTERSECTIONCOLOR
 70
   257
  9
$DIMASSOC
280
     2
  9
$PROJECTNAME
  1

  9
$CAMERADISPLAY
290
     0
  9
$LENSLENGTH
 40
50.0
  9
$CAMERAHEIGHT
 40
0.0
  9
$STEPSPERSEC
 40
2.0
  9
$STEPSIZE
 40
6.0
  9
$3DDWFPREC
 40
2.0
  9
$PSOLWIDTH
 40
0.25
  9
$PSOLHEIGHT
 40
4.0
  9
$LOFTANG1
 40
1.570796326794897
  9
$LOFTANG2
 40
1.570796326794897
  9
$LOFTMAG1
 40
0.0
  9
$LOFTMAG2
 40
0.0
  9
$LOFTPARAM
 70
     7
  9
$LOFTNORMALS
280
     1
  9
$LATITUDE
 40
37.795
  9
$LONGITUDE
 40
-122.394
  9
$NORTHDIRECTION
 40
0.0
  9
$TIMEZONE
 70
 -8000
  9
$LIGHTGLYPHDISPLAY
280
     1
  9
$TILEMODELIGHTSYNCH
280
     1
  9
$CMATERIAL
347
3C
  9
$SOLIDHIST
280
     1
  9
$SHOWHIST
280
     1
  9
$DWFFRAME
280
     2
  9
$DGNFRAME
280
     2
  9
$REALWORLDSCALE
290
     1
  9
$INTERFERECOLOR
 62
   256
  9
$CSHADOW
280
     0
  9
$SHADOWPLANELOCATION
 40
0.0
  0
ENDSEC
  0
SECTION
  2
CLASSES
  0
CLASS
  1
ACDBDICTIONARYWDFLT
  2
AcDbDictionaryWithDefault
  3
ObjectDBX Classes
 90
        0
 91
        4
280
     0
281
     0
  0
CLASS
  1
VISUALSTYLE
  2
AcDbVisualStyle
  3
ObjectDBX Classes
 90
     4095
 91
        4
280
     0
281
     0
  0
CLASS
  1
MATERIAL
  2
AcDbMaterial
  3
ObjectDBX Classes
 90
     1153
 91
        4
280
     0
281
     0
  0
CLASS
  1
SUN
  2
AcDbSun
  3
SCENEOE
 90
     1024
 91
        4
280
     0
281
     0
  0
ENDSEC
  0
SECTION
  2
TABLES
  0
TABLE
  2
VPORT
  5
8
330
0
100
AcDbSymbolTable
 70
     1
  0
VPORT
  5
29
330
8
100
AcDbSymbolTableRecord
100
AcDbViewportTableRecord
  2
*Active
 70
     0
 10
0.0
 20
0.0
 11
1.0
 21
1.0
 12
0.0
 22
0.0
 13
0.0
 23
0.0
 14
0.5
 24
0.5
 15
0.5
 25
0.5
 16
0.0
 26
0.0
 36
1.0
 17
105.0007777515277
 27
-148.5000416295416
 37
0.0
 40
297.0000832590831
 41
0.7070757462376333
 42
50.0
 43
0.0
 44
0.0
 50
0.0
 51
0.0
 71
     0
 72
   100
 73
     1
 74
     3
 75
     0
 76
     0
 77
     0
 78
     0
281
     0
 65
     1
110
0.0
120
0.0
130
0.0
111
1.0
121
0.0
131
0.0
112
0.0
122
1.0
132
0.0
 79
     0
146
0.0
 60
     3
 61
     5
292
     1
282
     1
141
0.0
142
0.0
 63
   250
361
3F
  0
ENDTAB
  0
TABLE
  2
LTYPE
  5
5
330
0
100
AcDbSymbolTable
 70
     1
  0
LTYPE
  5
14
330
5
100
AcDbSymbolTableRecord
100
AcDbLinetypeTableRecord
  2
ByBlock
 70
     0
  3

 72
    65
 73
     0
 40
0.0
  0
LTYPE
  5
15
330
5
100
AcDbSymbolTableRecord
100
AcDbLinetypeTableRecord
  2
ByLayer
 70
     0
  3

 72
    65
 73
     0
 40
0.0
  0
LTYPE
  5
16
330
5
100
AcDbSymbolTableRecord
100
AcDbLinetypeTableRecord
  2
Continuous
 70
     0
  3
Solid line
 72
    65
 73
     0
 40
0.0
  0
ENDTAB
  0
TABLE
  2
LAYER
  5
2
330
0
100
AcDbSymbolTable
 70
     2
  0
LAYER
  5
10
330
2
100
AcDbSymbolTableRecord
100
AcDbLayerTableRecord
  2
0
 70
     0
 62
     7
  6
Continuous
370
    -3
390
F
347
3E
  0
LAYER
  5
40
330
2
100
AcDbSymbolTableRecord
100
AcDbLayerTableRecord
  2
_U+30EC_U+30A4_U+30E4_U+30FC 1
 70
     0
 62
     7
  6
Continuous
370
    -3
390
F
347
3E
  0
ENDTAB
  0
TABLE
  2
STYLE
  5
3
330
0
100
AcDbSymbolTable
 70
     1
  0
STYLE
  5
11
330
3
100
AcDbSymbolTableRecord
100
AcDbTextStyleTableRecord
  2
Standard
 70
     0
 40
0.0
 41
1.0
 50
0.0
 71
     0
 42
0.2
  3
txt
  4

  0
ENDTAB
  0
TABLE
  2
VIEW
  5
6
330
0
100
AcDbSymbolTable
 70
     0
  0
ENDTAB
  0
TABLE
  2
UCS
  5
7
330
0
100
AcDbSymbolTable
 70
     0
  0
ENDTAB
  0
TABLE
  2
APPID
  5
9
330
0
100
AcDbSymbolTable
 70
     1
  0
APPID
  5
12
330
9
100
AcDbSymbolTableRecord
100
AcDbRegAppTableRecord
  2
ACAD
 70
     0
  0
ENDTAB
  0
TABLE
  2
DIMSTYLE
  5
A
330
0
100
AcDbSymbolTable
 70
     1
100
AcDbDimStyleTable
  0
DIMSTYLE
105
27
330
A
100
AcDbSymbolTableRecord
100
AcDbDimStyleTableRecord
  2
Standard
 70
     0
178
     0
340
11
  0
ENDTAB
  0
TABLE
  2
BLOCK_RECORD
  5
1
330
0
100
AcDbSymbolTable
 70
     6
  0
BLOCK_RECORD
  5
1F
330
1
100
AcDbSymbolTableRecord
100
AcDbBlockTableRecord
  2
*Model_Space
340
22
 70
     0
280
     1
281
     0
  0
BLOCK_RECORD
  5
1B
330
1
100
AcDbSymbolTableRecord
100
AcDbBlockTableRecord
  2
*Paper_Space
340
1E
 70
     0
280
     1
281
     0
  0
BLOCK_RECORD
  5
23
330
1
100
AcDbSymbolTableRecord
100
AcDbBlockTableRecord
  2
*Paper_Space0
340
26
 70
     0
280
     1
281
     0
  0
BLOCK_RECORD
  5
4F
330
1
100
AcDbSymbolTableRecord
100
AcDbBlockTableRecord
  2
block 2
340
0
102
{BLKREFS
331
50
102
}
 70
     0
280
     1
281
     0
  0
BLOCK_RECORD
  5
E2
330
1
100
AcDbSymbolTableRecord
100
AcDbBlockTableRecord
  2
block 3
340
0
102
{BLKREFS
331
E3
102
}
 70
     0
280
     1
281
     0
  0
BLOCK_RECORD
  5
F9
330
1
100
AcDbSymbolTableRecord
100
AcDbBlockTableRecord
  2
block 4
340
0
102
{BLKREFS
331
FA
102
}
 70
     0
280
     1
281
     0
  0
BLOCK_RECORD
  5
10C
330
1
100
AcDbSymbolTableRecord
100
AcDbBlockTableRecord
  2
block 5
340
0
102
{BLKREFS
331
10D
102
}
 70
     0
280
     1
281
     0
  0
BLOCK_RECORD
  5
131
330
1
100
AcDbSymbolTableRecord
100
AcDbBlockTableRecord
  2
block 6
340
0
102
{BLKREFS
331
132
102
}
 70
     0
280
     1
281
     0
  0
ENDTAB
  0
ENDSEC
  0
SECTION
  2
BLOCKS
  0
BLOCK
  5
20
330
1F
100
AcDbEntity
  8
0
100
AcDbBlockBegin
  2
*Model_Space
 70
     0
 10
0.0
 20
0.0
 30
0.0
  3
*Model_Space
  1

  0
ENDBLK
  5
21
330
1F
100
AcDbEntity
  8
0
100
AcDbBlockEnd
  0
BLOCK
  5
1C
330
1B
100
AcDbEntity
 67
     1
  8
0
100
AcDbBlockBegin
  2
*Paper_Space
 70
     0
 10
0.0
 20
0.0
 30
0.0
  3
*Paper_Space
  1

  0
ENDBLK
  5
1D
330
1B
100
AcDbEntity
 67
     1
  8
0
100
AcDbBlockEnd
  0
BLOCK
  5
24
330
23
100
AcDbEntity
  8
0
100
AcDbBlockBegin
  2
*Paper_Space0
 70
     0
 10
0.0
 20
0.0
 30
0.0
  3
*Paper_Space0
  1

  0
ENDBLK
  5
25
330
23
100
AcDbEntity
  8
0
100
AcDbBlockEnd
  0
BLOCK
  5
51
330
4F
100
AcDbEntity
  8
0
100
AcDbBlockBegin
  2
block 2
 70
     0
 10
0.0
 20
0.0
 30
0.0
  3
block 2
  1

  0
SPLINE
  5
53
330
4F
100
AcDbEntity
  8
_U+30EC_U+30A4_U+30E4_U+30FC 1
370
     0
100
AcDbSpline
210
0.0
220
0.0
230
1.0
 70
    11
 71
     3
 72
    32
 73
    28
 74
     0
 42
0.0000000001
 43
0.0000000001
 12
1.0
 22
0.0
 32
0.0
 13
1.0
 23
0.0
 33
0.0
 40
0.0
 40
0.0
 40
0.0
 40
0.0
 40
1.0
 40
1.0
 40
1.0
 40
2.0
 40
2.0
 40
2.0
 40
3.0
 40
3.0
 40
3.0
 40
4.0
 40
4.0
 40
4.0
 40
5.0
 40
5.0
 40
5.0
 40
6.0
 40
6.0
 40
6.0
 40
7.0
 40
7.0
 40
7.0
 40
8.0
 40
8.0
 40
8.0
 40
9.0
 40
9.0
 40
9.0
 40
9.0
 10
92.8808078109812
 20
-163.0195067951826
 30
0.0
 10
92.36473250729077
 20
-163.0195067951826
 30
0.0
 10
92.35611976857764
 20
-162.4651909316059
 30
0.0
 10
92.35611976857764
 20
-162.2515950115204
 30
0.0
 10
92.35611976857764
 20
-162.0207736140087
 30
0.0
 10
92.37541230329504
 20
-161.3734401723302
 30
0.0
 10
92.91904837086746
 20
-161.3734401723302
 30
0.0
 10
93.09233667377553
 20
-161.3734401723302
 30
0.0
 10
93.33797198187385
 20
-161.4433756106808
 30
0.0
 10
93.3758680322116
 20
-161.7754828154589
 30
0.0
 10
93.3758680322116
 20
-161.7754828154589
 30
0.0
 10
93.1622721121261
 20
-161.7754828154589
 30
0.0
 10
93.1622721121261
 20
-161.7754828154589
 30
0.0
 10
93.15159231612184
 20
-161.7182942304038
 30
0.0
 10
93.11989743765753
 20
-161.570155124538
 30
0.0
 10
92.91698131357631
 20
-161.570155124538
 30
0.0
 10
92.62483721642712
 20
-161.570155124538
 30
0.0
 10
92.58487410879823
 20
-161.8981282147338
 30
0.0
 10
92.5721272555028
 20
-162.1034559056547
 30
0.0
 10
92.66514483360456
 20
-162.0252522381395
 30
0.0
 10
92.73301321466397
 20
-161.9659965957932
 30
0.0
 10
92.91491425628516
 20
-161.9659965957932
 30
0.0
 10
93.0947482406152
 20
-161.9659965957932
 30
0.0
 10
93.39722762422014
 20
-162.0738280844816
 30
0.0
 10
93.39722762422014
 20
-162.4800048421925
 30
0.0
 10
93.39722762422014
 20
-162.7993651936752
 30
0.0
 10
93.1981011051727
 20
-163.0195067951826
 30
0.0
 10
92.8808078109812
 20
-163.0195067951826
 30
0.0
  0
SPLINE
  5
54
330
4F
100
AcDbEntity
  8
_U+30EC_U+30A4_U+30E4_U+30FC 1
370
     0
100
AcDbSpline
210
0.0
220
0.0
230
1.0
 70
    11
 71
     3
 72
    17
 73
    13
 74
     0
 42
0.0000000001
 43
0.0000000001
 12
1.0
 22
0.0
 32
0.0
 13
1.0
 23
0.0
 33
0.0
 40
0.0
 40
0.0
 40
0.0
 40
0.0
 40
1.0
 40
1.0
 40
1.0
 40
2.0
 40
2.0
 40
2.0
 40
3.0
 40
3.0
 40
3.0
 40
4.0
 40
4.0
 40
4.0
 40
4.0
 10
92.89768877885892
 20
-162.1606444907098
 30
0.0
 10
92.63551701243141
 20
-162.1606444907098
 30
0.0
 10
92.59762096209366
 20
-162.3721733535042
 30
0.0
 10
92.59762096209366
 20
-162.4882730713571
 30
0.0
 10
92.59762096209366
 20
-162.6639729411048
 30
0.0
 10
92.69270559748655
 20
-162.8269259575572
 30
0.0
 10
92.8766736963989
 20
-162.8269259575572
 30
0.0
 10
92.99725203838264
 20
-162.8269259575572
 30
0.0
 10
93.17295190813037
 20
-162.7676703152109
 30
0.0
 10
93.17295190813037
 20
-162.4820718994837
 30
0.0
 10
93.17295190813037
 20
-162.2577961833939
 30
0.0
 10
93.03342554097776
 20
-162.1606444907098
 30
0.0
 10
92.89768877885892
 20
-162.1606444907098
 30
0.0
  0
HATCH
  5
55
330
4F
100
AcDbEntity
  8
_U+30EC_U+30A4_U+30E4_U+30FC 1
 62
   179
420
  2234388
100
AcDbHatch
 10
0.0
 20
0.0
 30
0.0
210
0.0
220
0.0
230
1.0
  2
SOLID
 70
     1
 71
     0
 91
        2
 92
        1
 93
        1
 72
     4
 94
        3
 73
     0
 74
     1
 95
       32
 96
       28
 40
0.0
 40
0.0
 40
0.0
 40
0.0
 40
1.0
 40
1.0
 40
1.0
 40
2.0
 40
2.0
 40
2.0
 40
3.0
 40
3.0
 40
3.0
 40
4.0
 40
4.0
 40
4.0
 40
5.0
 40
5.0
 40
5.0
 40
6.0
 40
6.0
 40
6.0
 40
7.0
 40
7.0
 40
7.0
 40
8.0
 40
8.0
 40
8.0
 40
9.0
 40
9.0
 40
9.0
 40
9.0
 10
92.8808078109812
 20
-163.0195067951826
 10
92.36473250729077
 20
-163.0195067951826
 10
92.35611976857764
 20
-162.4651909316059
 10
92.35611976857764
 20
-162.2515950115204
 10
92.35611976857764
 20
-162.0207736140087
 10
92.37541230329504
 20
-161.3734401723302
 10
92.91904837086746
 20
-161.3734401723302
 10
93.09233667377553
 20
-161.3734401723302
 10
93.33797198187385
 20
-161.4433756106808
 10
93.3758680322116
 20
-161.7754828154589
 10
93.3758680322116
 20
-161.7754828154589
 10
93.1622721121261
 20
-161.7754828154589
 10
93.1622721121261
 20
-161.7754828154589
 10
93.15159231612184
 20
-161.7182942304038
 10
93.11989743765753
 20
-161.570155124538
 10
92.91698131357631
 20
-161.570155124538
 10
92.62483721642712
 20
-161.570155124538
 10
92.58487410879823
 20
-161.8981282147338
 10
92.5721272555028
 20
-162.1034559056547
 10
92.66514483360456
 20
-162.0252522381395
 10
92.73301321466397
 20
-161.9659965957932
 10
92.91491425628516
 20
-161.9659965957932
 10
93.0947482406152
 20
-161.9659965957932
 10
93.39722762422014
 20
-162.0738280844816
 10
93.39722762422014
 20
-162.4800048421925
 10
93.39722762422014
 20
-162.7993651936752
 10
93.1981011051727
 20
-163.0195067951826
 10
92.8808078109812
 20
-163.0195067951826
 97
        0
 97
        0
 92
        1
 93
        1
 72
     4
 94
        3
 73
     0
 74
     1
 95
       17
 96
       13
 40
0.0
 40
0.0
 40
0.0
 40
0.0
 40
1.0
 40
1.0
 40
1.0
 40
2.0
 40
2.0
 40
2.0
 40
3.0
 40
3.0
 40
3.0
 40
4.0
 40
4.0
 40
4.0
 40
4.0
 10
92.89768877885892
 20
-162.1606444907098
 10
92.63551701243141
 20
-162.1606444907098
 10
92.59762096209366
 20
-162.3721733535042
 10
92.59762096209366
 20
-162.4882730713571
 10
92.59762096209366
 20
-162.6639729411048
 10
92.69270559748655
 20
-162.8269259575572
 10
92.8766736963989
 20
-162.8269259575572
 10
92.99725203838264
 20
-162.8269259575572
 10
93.17295190813037
 20
-162.7676703152109
 10
93.17295190813037
 20
-162.4820718994837
 10
93.17295190813037
 20
-162.2577961833939
 10
93.03342554097776
 20
-162.1606444907098
 10
92.89768877885892
 20
-162.1606444907098
 97
        0
 97
        0
 75
     2
 76
     1
 98
        0
  0
ENDBLK
  5
52
330
4F
100
AcDbEntity
  8
0
100
AcDbBlockEnd
  0
BLOCK
  5
E4
330
E2
100
AcDbEntity
  8
0
100
AcDbBlockBegin
  2
block 3
 70
     0
 10
0.0
 20
0.0
 30
0.0
  3
block 3
  1

  0
SPLINE
  5
E6
330
E2
100
AcDbEntity
  8
_U+30EC_U+30A4_U+30E4_U+30FC 1
370
     0
100
AcDbSpline
210
0.0
220
0.0
230
1.0
 70
    11
 71
     3
 72
    44
 73
    40
 74
     0
 42
0.0000000001
 43
0.0000000001
 12
1.0
 22
0.0
 32
0.0
 13
1.0
 23
0.0
 33
0.0
 40
0.0
 40
0.0
 40
0.0
 40
0.0
 40
1.0
 40
1.0
 40
1.0
 40
2.0
 40
2.0
 40
2.0
 40
3.0
 40
3.0
 40
3.0
 40
4.0
 40
4.0
 40
4.0
 40
5.0
 40
5.0
 40
5.0
 40
6.0
 40
6.0
 40
6.0
 40
7.0
 40
7.0
 40
7.0
 40
8.0
 40
8.0
 40
8.0
 40
9.0
 40
9.0
 40
9.0
 40
10.0
 40
10.0
 40
10.0
 40
11.0
 40
11.0
 40
11.0
 40
12.0
 40
12.0
 40
12.0
 40
13.0
 40
13.0
 40
13.0
 40
13.0
 10
109.5840087616665
 20
-132.2303439339563
 30
0.0
 10
109.3662787269987
 20
-132.3889905810521
 30
0.0
 10
109.273261148897
 20
-132.4630601339849
 30
0.0
 10
109.2243407930064
 20
-132.6068928704941
 30
0.0
 10
109.2243407930064
 20
-132.6068928704941
 30
0.0
 10
110.0029323726729
 20
-132.6068928704941
 30
0.0
 10
110.0029323726729
 20
-132.6068928704941
 30
0.0
 10
110.0029323726729
 20
-132.6068928704941
 30
0.0
 10
110.0029323726729
 20
-132.8120483066407
 30
0.0
 10
110.0029323726729
 20
-132.8120483066407
 30
0.0
 10
110.0029323726729
 20
-132.8120483066407
 30
0.0
 10
108.9749158798743
 20
-132.8120483066407
 30
0.0
 10
108.9749158798743
 20
-132.8120483066407
 30
0.0
 10
109.0066107583386
 20
-132.4544473952718
 30
0.0
 10
109.0720675725584
 20
-132.3762437277566
 30
0.0
 10
109.4572292478093
 20
-132.077898458734
 30
0.0
 10
109.7131998423634
 20
-131.8791164492351
 30
0.0
 10
109.7786566565831
 20
-131.8114203229499
 30
0.0
 10
109.7786566565831
 20
-131.6739610130885
 30
0.0
 10
109.7786566565831
 20
-131.5554497283959
 30
0.0
 10
109.7066541609414
 20
-131.4243638451821
 30
0.0
 10
109.5099392087336
 20
-131.4243638451821
 30
0.0
 10
109.2498344995973
 20
-131.4243638451821
 30
0.0
 10
109.2412217608841
 20
-131.6548407331453
 30
0.0
 10
109.2370876463018
 20
-131.7712849605468
 30
0.0
 10
109.2370876463018
 20
-131.7712849605468
 30
0.0
 10
109.0128119302121
 20
-131.7712849605468
 30
0.0
 10
109.0128119302121
 20
-131.7712849605468
 30
0.0
 10
109.0214246689252
 20
-131.6443331919153
 30
0.0
 10
109.0321044649295
 20
-131.5321953338704
 30
0.0
 10
109.1123751897358
 20
-131.4136840491778
 30
0.0
 10
109.2222737357153
 20
-131.2529703447909
 30
0.0
 10
109.4086534014673
 20
-131.2190361542612
 30
0.0
 10
109.5247531193202
 20
-131.2190361542612
 30
0.0
 10
109.8020833058828
 20
-131.2190361542612
 30
0.0
 10
110.0094780540949
 20
-131.4031765079478
 30
0.0
 10
110.0094780540949
 20
-131.6760280703796
 30
0.0
 10
110.0094780540949
 20
-131.9044379010517
 30
0.0
 10
109.8930338266934
 20
-132.0040011605754
 30
0.0
 10
109.5840087616665
 20
-132.2303439339563
 30
0.0
  0
HATCH
  5
E7
330
E2
100
AcDbEntity
  8
_U+30EC_U+30A4_U+30E4_U+30FC 1
 62
   179
420
  2234388
100
AcDbHatch
 10
0.0
 20
0.0
 30
0.0
210
0.0
220
0.0
230
1.0
  2
SOLID
 70
     1
 71
     0
 91
        1
 92
        1
 93
        1
 72
     4
 94
        3
 73
     0
 74
     1
 95
       44
 96
       40
 40
0.0
 40
0.0
 40
0.0
 40
0.0
 40
1.0
 40
1.0
 40
1.0
 40
2.0
 40
2.0
 40
2.0
 40
3.0
 40
3.0
 40
3.0
 40
4.0
 40
4.0
 40
4.0
 40
5.0
 40
5.0
 40
5.0
 40
6.0
 40
6.0
 40
6.0
 40
7.0
 40
7.0
 40
7.0
 40
8.0
 40
8.0
 40
8.0
 40
9.0
 40
9.0
 40
9.0
 40
10.0
 40
10.0
 40
10.0
 40
11.0
 40
11.0
 40
11.0
 40
12.0
 40
12.0
 40
12.0
 40
13.0
 40
13.0
 40
13.0
 40
13.0
 10
109.5840087616665
 20
-132.2303439339563
 10
109.3662787269987
 20
-132.3889905810521
 10
109.273261148897
 20
-132.4630601339849
 10
109.2243407930064
 20
-132.6068928704941
 10
109.2243407930064
 20
-132.6068928704941
 10
110.0029323726729
 20
-132.6068928704941
 10
110.0029323726729
 20
-132.6068928704941
 10
110.0029323726729
 20
-132.6068928704941
 10
110.0029323726729
 20
-132.8120483066407
 10
110.0029323726729
 20
-132.8120483066407
 10
110.0029323726729
 20
-132.8120483066407
 10
108.9749158798743
 20
-132.8120483066407
 10
108.9749158798743
 20
-132.8120483066407
 10
109.0066107583386
 20
-132.4544473952718
 10
109.0720675725584
 20
-132.3762437277566
 10
109.4572292478093
 20
-132.077898458734
 10
109.7131998423634
 20
-131.8791164492351
 10
109.7786566565831
 20
-131.8114203229499
 10
109.7786566565831
 20
-131.6739610130885
 10
109.7786566565831
 20
-131.5554497283959
 10
109.7066541609414
 20
-131.4243638451821
 10
109.5099392087336
 20
-131.4243638451821
 10
109.2498344995973
 20
-131.4243638451821
 10
109.2412217608841
 20
-131.6548407331453
 10
109.2370876463018
 20
-131.7712849605468
 10
109.2370876463018
 20
-131.7712849605468
 10
109.0128119302121
 20
-131.7712849605468
 10
109.0128119302121
 20
-131.7712849605468
 10
109.0214246689252
 20
-131.6443331919153
 10
109.0321044649295
 20
-131.5321953338704
 10
109.1123751897358
 20
-131.4136840491778
 10
109.2222737357153
 20
-131.2529703447909
 10
109.4086534014673
 20
-131.2190361542612
 10
109.5247531193202
 20
-131.2190361542612
 10
109.8020833058828
 20
-131.2190361542612
 10
110.0094780540949
 20
-131.4031765079478
 10
110.0094780540949
 20
-131.6760280703796
 10
110.0094780540949
 20
-131.9044379010517
 10
109.8930338266934
 20
-132.0040011605754
 10
109.5840087616665
 20
-132.2303439339563
 97
        0
 97
        0
 75
     2
 76
     1
 98
        0
  0
SPLINE
  5
E8
330
E2
100
AcDbEntity
  8
_U+30EC_U+30A4_U+30E4_U+30FC 1
370
     0
100
AcDbSpline
210
0.0
220
0.0
230
1.0
 70
    11
 71
     3
 72
    32
 73
    28
 74
     0
 42
0.0000000001
 43
0.0000000001
 12
1.0
 22
0.0
 32
0.0
 13
1.0
 23
0.0
 33
0.0
 40
0.0
 40
0.0
 40
0.0
 40
0.0
 40
1.0
 40
1.0
 40
1.0
 40
2.0
 40
2.0
 40
2.0
 40
3.0
 40
3.0
 40
3.0
 40
4.0
 40
4.0
 40
4.0
 40
5.0
 40
5.0
 40
5.0
 40
6.0
 40
6.0
 40
6.0
 40
7.0
 40
7.0
 40
7.0
 40
8.0
 40
8.0
 40
8.0
 40
9.0
 40
9.0
 40
9.0
 40
9.0
 10
110.6719699159084
 20
-132.8628634650482
 30
0.0
 10
110.155894612218
 20
-132.8628634650482
 30
0.0
 10
110.1472818735049
 20
-132.3085476014715
 30
0.0
 10
110.1472818735049
 20
-132.094951681386
 30
0.0
 10
110.1472818735049
 20
-131.8643025386485
 30
0.0
 10
110.1665744082222
 20
-131.2169690969701
 30
0.0
 10
110.7102104757947
 20
-131.2169690969701
 30
0.0
 10
110.8834987787027
 20
-131.2169690969701
 30
0.0
 10
111.1291340868011
 20
-131.2867322805464
 30
0.0
 10
111.1670301371388
 20
-131.6188394853245
 30
0.0
 10
111.1670301371388
 20
-131.6188394853245
 30
0.0
 10
110.9534342170533
 20
-131.6188394853245
 30
0.0
 10
110.9534342170533
 20
-131.6188394853245
 30
0.0
 10
110.942754421049
 20
-131.5618231550436
 30
0.0
 10
110.9110595425847
 20
-131.4136840491778
 30
0.0
 10
110.7081434185035
 20
-131.4136840491778
 30
0.0
 10
110.4159993213543
 20
-131.4136840491778
 30
0.0
 10
110.3760362137254
 20
-131.7416571393736
 30
0.0
 10
110.36328936043
 20
-131.9468125755203
 30
0.0
 10
110.4563069385318
 20
-131.8686089080051
 30
0.0
 10
110.5241753195912
 20
-131.8093532656588
 30
0.0
 10
110.7060763612124
 20
-131.8093532656588
 30
0.0
 10
110.8859103455424
 20
-131.8093532656588
 30
0.0
 10
111.1883897291473
 20
-131.9171847543471
 30
0.0
 10
111.1883897291473
 20
-132.3233615120581
 30
0.0
 10
111.1883897291473
 20
-132.642894118315
 30
0.0
 10
110.9892632100999
 20
-132.8628634650482
 30
0.0
 10
110.6719699159084
 20
-132.8628634650482
 30
0.0
  0
SPLINE
  5
E9
330
E2
100
AcDbEntity
  8
_U+30EC_U+30A4_U+30E4_U+30FC 1
370
     0
100
AcDbSpline
210
0.0
220
0.0
230
1.0
 70
    11
 71
     3
 72
    17
 73
    13
 74
     0
 42
0.0000000001
 43
0.0000000001
 12
1.0
 22
0.0
 32
0.0
 13
1.0
 23
0.0
 33
0.0
 40
0.0
 40
0.0
 40
0.0
 40
0.0
 40
1.0
 40
1.0
 40
1.0
 40
2.0
 40
2.0
 40
2.0
 40
3.0
 40
3.0
 40
3.0
 40
4.0
 40
4.0
 40
4.0
 40
4.0
 10
110.6888508837861
 20
-132.0040011605754
 30
0.0
 10
110.4266791173586
 20
-132.0040011605754
 30
0.0
 10
110.3887830670209
 20
-132.2155300233697
 30
0.0
 10
110.3887830670209
 20
-132.3318019959969
 30
0.0
 10
110.3887830670209
 20
-132.5075018657447
 30
0.0
 10
110.4838677024138
 20
-132.6702826274227
 30
0.0
 10
110.6678358013261
 20
-132.6702826274227
 30
0.0
 10
110.7884141433099
 20
-132.6702826274227
 30
0.0
 10
110.9641140130576
 20
-132.6110269850764
 30
0.0
 10
110.9641140130576
 20
-132.3254285693492
 30
0.0
 10
110.9641140130576
 20
-132.1013251080337
 30
0.0
 10
110.824587645905
 20
-132.0040011605754
 30
0.0
 10
110.6888508837861
 20
-132.0040011605754
 30
0.0
  0
HATCH
  5
EA
330
E2
100
AcDbEntity
  8
_U+30EC_U+30A4_U+30E4_U+30FC 1
 62
   179
420
  2234388
100
AcDbHatch
 10
0.0
 20
0.0
 30
0.0
210
0.0
220
0.0
230
1.0
  2
SOLID
 70
     1
 71
     0
 91
        2
 92
        1
 93
        1
 72
     4
 94
        3
 73
     0
 74
     1
 95
       32
 96
       28
 40
0.0
 40
0.0
 40
0.0
 40
0.0
 40
1.0
 40
1.0
 40
1.0
 40
2.0
 40
2.0
 40
2.0
 40
3.0
 40
3.0
 40
3.0
 40
4.0
 40
4.0
 40
4.0
 40
5.0
 40
5.0
 40
5.0
 40
6.0
 40
6.0
 40
6.0
 40
7.0
 40
7.0
 40
7.0
 40
8.0
 40
8.0
 40
8.0
 40
9.0
 40
9.0
 40
9.0
 40
9.0
 10
110.6719699159084
 20
-132.8628634650482
 10
110.155894612218
 20
-132.8628634650482
 10
110.1472818735049
 20
-132.3085476014715
 10
110.1472818735049
 20
-132.094951681386
 10
110.1472818735049
 20
-131.8643025386485
 10
110.1665744082222
 20
-131.2169690969701
 10
110.7102104757947
 20
-131.2169690969701
 10
110.8834987787027
 20
-131.2169690969701
 10
111.1291340868011
 20
-131.2867322805464
 10
111.1670301371388
 20
-131.6188394853245
 10
111.1670301371388
 20
-131.6188394853245
 10
110.9534342170533
 20
-131.6188394853245
 10
110.9534342170533
 20
-131.6188394853245
 10
110.942754421049
 20
-131.5618231550436
 10
110.9110595425847
 20
-131.4136840491778
 10
110.7081434185035
 20
-131.4136840491778
 10
110.4159993213543
 20
-131.4136840491778
 10
110.3760362137254
 20
-131.7416571393736
 10
110.36328936043
 20
-131.9468125755203
 10
110.4563069385318
 20
-131.8686089080051
 10
110.5241753195912
 20
-131.8093532656588
 10
110.7060763612124
 20
-131.8093532656588
 10
110.8859103455424
 20
-131.8093532656588
 10
111.1883897291473
 20
-131.9171847543471
 10
111.1883897291473
 20
-132.3233615120581
 10
111.1883897291473
 20
-132.642894118315
 10
110.9892632100999
 20
-132.8628634650482
 10
110.6719699159084
 20
-132.8628634650482
 97
        0
 97
        0
 92
        1
 93
        1
 72
     4
 94
        3
 73
     0
 74
     1
 95
       17
 96
       13
 40
0.0
 40
0.0
 40
0.0
 40
0.0
 40
1.0
 40
1.0
 40
1.0
 40
2.0
 40
2.0
 40
2.0
 40
3.0
 40
3.0
 40
3.0
 40
4.0
 40
4.0
 40
4.0
 40
4.0
 10
110.6888508837861
 20
-132.0040011605754
 10
110.4266791173586
 20
-132.0040011605754
 10
110.3887830670209
 20
-132.2155300233697
 10
110.3887830670209
 20
-132.3318019959969
 10
110.3887830670209
 20
-132.5075018657447
 10
110.4838677024138
 20
-132.6702826274227
 10
110.6678358013261
 20
-132.6702826274227
 10
110.7884141433099
 20
-132.6702826274227
 10
110.9641140130576
 20
-132.6110269850764
 10
110.9641140130576
 20
-132.3254285693492
 10
110.9641140130576
 20
-132.1013251080337
 10
110.824587645905
 20
-132.0040011605754
 10
110.6888508837861
 20
-132.0040011605754
 97
        0
 97
        0
 75
     2
 76
     1
 98
        0
  0
ENDBLK
  5
E5
330
E2
100
AcDbEntity
  8
0
100
AcDbBlockEnd
  0
BLOCK
  5
FB
330
F9
100
AcDbEntity
  8
0
100
AcDbBlockBegin
  2
block 4
 70
     0
 10
0.0
 20
0.0
 30
0.0
  3
block 4
  1

  0
SPLINE
  5
FD
330
F9
100
AcDbEntity
  8
_U+30EC_U+30A4_U+30E4_U+30FC 1
370
     0
100
AcDbSpline
210
0.0
220
0.0
230
1.0
 70
    11
 71
     3
 72
    32
 73
    28
 74
     0
 42
0.0000000001
 43
0.0000000001
 12
1.0
 22
0.0
 32
0.0
 13
1.0
 23
0.0
 33
0.0
 40
0.0
 40
0.0
 40
0.0
 40
0.0
 40
1.0
 40
1.0
 40
1.0
 40
2.0
 40
2.0
 40
2.0
 40
3.0
 40
3.0
 40
3.0
 40
4.0
 40
4.0
 40
4.0
 40
5.0
 40
5.0
 40
5.0
 40
6.0
 40
6.0
 40
6.0
 40
7.0
 40
7.0
 40
7.0
 40
8.0
 40
8.0
 40
8.0
 40
9.0
 40
9.0
 40
9.0
 40
9.0
 10
128.3160264436154
 20
-140.6759955160463
 30
0.0
 10
128.3160264436154
 20
-141.1920708197367
 30
0.0
 10
127.7617105800387
 20
-141.2006835584498
 30
0.0
 10
127.5481146599533
 20
-141.2006835584498
 30
0.0
 10
127.31763777199
 20
-141.2006835584498
 30
0.0
 10
126.6699598207631
 20
-141.1813910237324
 30
0.0
 10
126.6699598207631
 20
-140.63775495616
 30
0.0
 10
126.6699598207631
 20
-140.4644666532519
 30
0.0
 10
126.7398952591136
 20
-140.2188313451536
 30
0.0
 10
127.0720024638917
 20
-140.1809352948159
 30
0.0
 10
127.0720024638917
 20
-140.1809352948159
 30
0.0
 10
127.0720024638917
 20
-140.3945312149014
 30
0.0
 10
127.0720024638917
 20
-140.3945312149014
 30
0.0
 10
127.0151583883851
 20
-140.4052110109056
 30
0.0
 10
126.8670192825194
 20
-140.4369058893699
 30
0.0
 10
126.8670192825194
 20
-140.6398220134512
 30
0.0
 10
126.8670192825194
 20
-140.9319661106003
 30
0.0
 10
127.1949923727151
 20
-140.9719292182292
 30
0.0
 10
127.3999755540875
 20
-140.9846760715247
 30
0.0
 10
127.3217718865723
 20
-140.8916584934229
 30
0.0
 10
127.262516244226
 20
-140.8237901123635
 30
0.0
 10
127.262516244226
 20
-140.6418890707423
 30
0.0
 10
127.262516244226
 20
-140.4620550864123
 30
0.0
 10
127.3703477329144
 20
-140.1595757028073
 30
0.0
 10
127.7765244906253
 20
-140.1595757028073
 30
0.0
 10
128.0962293516565
 20
-140.1595757028073
 30
0.0
 10
128.3160264436154
 20
-140.3587022218548
 30
0.0
 10
128.3160264436154
 20
-140.6759955160463
 30
0.0
  0
SPLINE
  5
FE
330
F9
100
AcDbEntity
  8
_U+30EC_U+30A4_U+30E4_U+30FC 1
370
     0
100
AcDbSpline
210
0.0
220
0.0
230
1.0
 70
    11
 71
     3
 72
    17
 73
    13
 74
     0
 42
0.0000000001
 43
0.0000000001
 12
1.0
 22
0.0
 32
0.0
 13
1.0
 23
0.0
 33
0.0
 40
0.0
 40
0.0
 40
0.0
 40
0.0
 40
1.0
 40
1.0
 40
1.0
 40
2.0
 40
2.0
 40
2.0
 40
3.0
 40
3.0
 40
3.0
 40
4.0
 40
4.0
 40
4.0
 40
4.0
 10
127.4571641391427
 20
-140.6591145481686
 30
0.0
 10
127.4571641391427
 20
-140.9212863145961
 30
0.0
 10
127.668693001937
 20
-140.9591823649338
 30
0.0
 10
127.7847927197899
 20
-140.9591823649338
 30
0.0
 10
127.9604925895377
 20
-140.9591823649338
 30
0.0
 10
128.12344560599
 20
-140.8640977295409
 30
0.0
 10
128.12344560599
 20
-140.6801296306286
 30
0.0
 10
128.12344560599
 20
-140.5595512886449
 30
0.0
 10
128.0641899636437
 20
-140.3838514188971
 30
0.0
 10
127.7785915479165
 20
-140.3838514188971
 30
0.0
 10
127.5546603413752
 20
-140.3838514188971
 30
0.0
 10
127.4571641391427
 20
-140.5233777860497
 30
0.0
 10
127.4571641391427
 20
-140.6591145481686
 30
0.0
  0
HATCH
  5
FF
330
F9
100
AcDbEntity
  8
_U+30EC_U+30A4_U+30E4_U+30FC 1
 62
   179
420
  2234388
100
AcDbHatch
 10
0.0
 20
0.0
 30
0.0
210
0.0
220
0.0
230
1.0
  2
SOLID
 70
     1
 71
     0
 91
        2
 92
        1
 93
        1
 72
     4
 94
        3
 73
     0
 74
     1
 95
       32
 96
       28
 40
0.0
 40
0.0
 40
0.0
 40
0.0
 40
1.0
 40
1.0
 40
1.0
 40
2.0
 40
2.0
 40
2.0
 40
3.0
 40
3.0
 40
3.0
 40
4.0
 40
4.0
 40
4.0
 40
5.0
 40
5.0
 40
5.0
 40
6.0
 40
6.0
 40
6.0
 40
7.0
 40
7.0
 40
7.0
 40
8.0
 40
8.0
 40
8.0
 40
9.0
 40
9.0
 40
9.0
 40
9.0
 10
128.3160264436154
 20
-140.6759955160463
 10
128.3160264436154
 20
-141.1920708197367
 10
127.7617105800387
 20
-141.2006835584498
 10
127.5481146599533
 20
-141.2006835584498
 10
127.31763777199
 20
-141.2006835584498
 10
126.6699598207631
 20
-141.1813910237324
 10
126.6699598207631
 20
-140.63775495616
 10
126.6699598207631
 20
-140.4644666532519
 10
126.7398952591136
 20
-140.2188313451536
 10
127.0720024638917
 20
-140.1809352948159
 10
127.0720024638917
 20
-140.1809352948159
 10
127.0720024638917
 20
-140.3945312149014
 10
127.0720024638917
 20
-140.3945312149014
 10
127.0151583883851
 20
-140.4052110109056
 10
126.8670192825194
 20
-140.4369058893699
 10
126.8670192825194
 20
-140.6398220134512
 10
126.8670192825194
 20
-140.9319661106003
 10
127.1949923727151
 20
-140.9719292182292
 10
127.3999755540875
 20
-140.9846760715247
 10
127.3217718865723
 20
-140.8916584934229
 10
127.262516244226
 20
-140.8237901123635
 10
127.262516244226
 20
-140.6418890707423
 10
127.262516244226
 20
-140.4620550864123
 10
127.3703477329144
 20
-140.1595757028073
 10
127.7765244906253
 20
-140.1595757028073
 10
128.0962293516565
 20
-140.1595757028073
 10
128.3160264436154
 20
-140.3587022218548
 10
128.3160264436154
 20
-140.6759955160463
 97
        0
 97
        0
 92
        1
 93
        1
 72
     4
 94
        3
 73
     0
 74
     1
 95
       17
 96
       13
 40
0.0
 40
0.0
 40
0.0
 40
0.0
 40
1.0
 40
1.0
 40
1.0
 40
2.0
 40
2.0
 40
2.0
 40
3.0
 40
3.0
 40
3.0
 40
4.0
 40
4.0
 40
4.0
 40
4.0
 10
127.4571641391427
 20
-140.6591145481686
 10
127.4571641391427
 20
-140.9212863145961
 10
127.668693001937
 20
-140.9591823649338
 10
127.7847927197899
 20
-140.9591823649338
 10
127.9604925895377
 20
-140.9591823649338
 10
128.12344560599
 20
-140.8640977295409
 10
128.12344560599
 20
-140.6801296306286
 10
128.12344560599
 20
-140.5595512886449
 10
128.0641899636437
 20
-140.3838514188971
 10
127.7785915479165
 20
-140.3838514188971
 10
127.5546603413752
 20
-140.3838514188971
 10
127.4571641391427
 20
-140.5233777860497
 10
127.4571641391427
 20
-140.6591145481686
 97
        0
 97
        0
 75
     2
 76
     1
 98
        0
  0
ENDBLK
  5
FC
330
F9
100
AcDbEntity
  8
0
100
AcDbBlockEnd
  0
BLOCK
  5
10E
330
10C
100
AcDbEntity
  8
0
100
AcDbBlockBegin
  2
block 5
 70
     0
 10
0.0
 20
0.0
 30
0.0
  3
block 5
  1

  0
SPLINE
  5
110
330
10C
100
AcDbEntity
  8
_U+30EC_U+30A4_U+30E4_U+30FC 1
370
     0
100
AcDbSpline
210
0.0
220
0.0
230
1.0
 70
    11
 71
     3
 72
    44
 73
    40
 74
     0
 42
0.0000000001
 43
0.0000000001
 12
1.0
 22
0.0
 32
0.0
 13
1.0
 23
0.0
 33
0.0
 40
0.0
 40
0.0
 40
0.0
 40
0.0
 40
1.0
 40
1.0
 40
1.0
 40
2.0
 40
2.0
 40
2.0
 40
3.0
 40
3.0
 40
3.0
 40
4.0
 40
4.0
 40
4.0
 40
5.0
 40
5.0
 40
5.0
 40
6.0
 40
6.0
 40
6.0
 40
7.0
 40
7.0
 40
7.0
 40
8.0
 40
8.0
 40
8.0
 40
9.0
 40
9.0
 40
9.0
 40
10.0
 40
10.0
 40
10.0
 40
11.0
 40
11.0
 40
11.0
 40
12.0
 40
12.0
 40
12.0
 40
13.0
 40
13.0
 40
13.0
 40
13.0
 10
82.6285481564262
 20
-151.1642442113409
 30
0.0
 10
82.78719480352196
 20
-151.3819742460087
 30
0.0
 10
82.86126435645483
 20
-151.4749918241104
 30
0.0
 10
83.00509709296401
 20
-151.523912180001
 30
0.0
 10
83.00509709296401
 20
-151.523912180001
 30
0.0
 10
83.00509709296401
 20
-150.7453206003345
 30
0.0
 10
83.00509709296401
 20
-150.7453206003345
 30
0.0
 10
83.00509709296401
 20
-150.7453206003345
 30
0.0
 10
83.21025252911063
 20
-150.7453206003345
 30
0.0
 10
83.21025252911063
 20
-150.7453206003345
 30
0.0
 10
83.21025252911063
 20
-150.7453206003345
 30
0.0
 10
83.21025252911063
 20
-151.7733370931331
 30
0.0
 10
83.21025252911063
 20
-151.7733370931331
 30
0.0
 10
82.8526516177417
 20
-151.7416422146688
 30
0.0
 10
82.77444795022653
 20
-151.676185400449
 30
0.0
 10
82.4761026812039
 20
-151.2910237251981
 30
0.0
 10
82.27732067170498
 20
-151.035053130644
 30
0.0
 10
82.20962454541981
 20
-150.9695963164243
 30
0.0
 10
82.07216523555834
 20
-150.9695963164243
 30
0.0
 10
81.95365395086576
 20
-150.9695963164243
 30
0.0
 10
81.822568067652
 20
-151.041598812066
 30
0.0
 10
81.822568067652
 20
-151.2383137642738
 30
0.0
 10
81.822568067652
 20
-151.4984184734101
 30
0.0
 10
82.05304495561522
 20
-151.5070312121233
 30
0.0
 10
82.16948918301667
 20
-151.5111653267055
 30
0.0
 10
82.16948918301667
 20
-151.5111653267055
 30
0.0
 10
82.16948918301667
 20
-151.7354410427953
 30
0.0
 10
82.16948918301667
 20
-151.7354410427953
 30
0.0
 10
82.04253741438521
 20
-151.7268283040822
 30
0.0
 10
81.93039955634032
 20
-151.7161485080779
 30
0.0
 10
81.81188827164773
 20
-151.6358777832716
 30
0.0
 10
81.65117456726082
 20
-151.5259792372921
 30
0.0
 10
81.6172403767311
 20
-151.3395995715401
 30
0.0
 10
81.6172403767311
 20
-151.2234998536872
 30
0.0
 10
81.6172403767311
 20
-150.9461696671246
 30
0.0
 10
81.80138073041772
 20
-150.7387749189125
 30
0.0
 10
82.0742322928495
 20
-150.7387749189125
 30
0.0
 10
82.30264212352157
 20
-150.7387749189125
 30
0.0
 10
82.40220538304528
 20
-150.855219146314
 30
0.0
 10
82.6285481564262
 20
-151.1642442113409
 30
0.0
  0
HATCH
  5
111
330
10C
100
AcDbEntity
  8
_U+30EC_U+30A4_U+30E4_U+30FC 1
 62
   179
420
  2234388
100
AcDbHatch
 10
0.0
 20
0.0
 30
0.0
210
0.0
220
0.0
230
1.0
  2
SOLID
 70
     1
 71
     0
 91
        1
 92
        1
 93
        1
 72
     4
 94
        3
 73
     0
 74
     1
 95
       44
 96
       40
 40
0.0
 40
0.0
 40
0.0
 40
0.0
 40
1.0
 40
1.0
 40
1.0
 40
2.0
 40
2.0
 40
2.0
 40
3.0
 40
3.0
 40
3.0
 40
4.0
 40
4.0
 40
4.0
 40
5.0
 40
5.0
 40
5.0
 40
6.0
 40
6.0
 40
6.0
 40
7.0
 40
7.0
 40
7.0
 40
8.0
 40
8.0
 40
8.0
 40
9.0
 40
9.0
 40
9.0
 40
10.0
 40
10.0
 40
10.0
 40
11.0
 40
11.0
 40
11.0
 40
12.0
 40
12.0
 40
12.0
 40
13.0
 40
13.0
 40
13.0
 40
13.0
 10
82.6285481564262
 20
-151.1642442113409
 10
82.78719480352196
 20
-151.3819742460087
 10
82.86126435645483
 20
-151.4749918241104
 10
83.00509709296401
 20
-151.523912180001
 10
83.00509709296401
 20
-151.523912180001
 10
83.00509709296401
 20
-150.7453206003345
 10
83.00509709296401
 20
-150.7453206003345
 10
83.00509709296401
 20
-150.7453206003345
 10
83.21025252911063
 20
-150.7453206003345
 10
83.21025252911063
 20
-150.7453206003345
 10
83.21025252911063
 20
-150.7453206003345
 10
83.21025252911063
 20
-151.7733370931331
 10
83.21025252911063
 20
-151.7733370931331
 10
82.8526516177417
 20
-151.7416422146688
 10
82.77444795022653
 20
-151.676185400449
 10
82.4761026812039
 20
-151.2910237251981
 10
82.27732067170498
 20
-151.035053130644
 10
82.20962454541981
 20
-150.9695963164243
 10
82.07216523555834
 20
-150.9695963164243
 10
81.95365395086576
 20
-150.9695963164243
 10
81.822568067652
 20
-151.041598812066
 10
81.822568067652
 20
-151.2383137642738
 10
81.822568067652
 20
-151.4984184734101
 10
82.05304495561522
 20
-151.5070312121233
 10
82.16948918301667
 20
-151.5111653267055
 10
82.16948918301667
 20
-151.5111653267055
 10
82.16948918301667
 20
-151.7354410427953
 10
82.16948918301667
 20
-151.7354410427953
 10
82.04253741438521
 20
-151.7268283040822
 10
81.93039955634032
 20
-151.7161485080779
 10
81.81188827164773
 20
-151.6358777832716
 10
81.65117456726082
 20
-151.5259792372921
 10
81.6172403767311
 20
-151.3395995715401
 10
81.6172403767311
 20
-151.2234998536872
 10
81.6172403767311
 20
-150.9461696671246
 10
81.80138073041772
 20
-150.7387749189125
 10
82.0742322928495
 20
-150.7387749189125
 10
82.30264212352157
 20
-150.7387749189125
 10
82.40220538304528
 20
-150.855219146314
 10
82.6285481564262
 20
-151.1642442113409
 97
        0
 97
        0
 75
     2
 76
     1
 98
        0
  0
SPLINE
  5
112
330
10C
100
AcDbEntity
  8
_U+30EC_U+30A4_U+30E4_U+30FC 1
370
     0
100
AcDbSpline
210
0.0
220
0.0
230
1.0
 70
    11
 71
     3
 72
    32
 73
    28
 74
     0
 42
0.0000000001
 43
0.0000000001
 12
1.0
 22
0.0
 32
0.0
 13
1.0
 23
0.0
 33
0.0
 40
0.0
 40
0.0
 40
0.0
 40
0.0
 40
1.0
 40
1.0
 40
1.0
 40
2.0
 40
2.0
 40
2.0
 40
3.0
 40
3.0
 40
3.0
 40
4.0
 40
4.0
 40
4.0
 40
5.0
 40
5.0
 40
5.0
 40
6.0
 40
6.0
 40
6.0
 40
7.0
 40
7.0
 40
7.0
 40
8.0
 40
8.0
 40
8.0
 40
9.0
 40
9.0
 40
9.0
 40
9.0
 10
83.26106768751806
 20
-150.076283057099
 30
0.0
 10
83.26106768751806
 20
-150.5923583607894
 30
0.0
 10
82.70675182394137
 20
-150.6009710995025
 30
0.0
 10
82.49315590385588
 20
-150.6009710995025
 30
0.0
 10
82.2625067611184
 20
-150.6009710995025
 30
0.0
 10
81.61517331943996
 20
-150.5816785647851
 30
0.0
 10
81.61517331943996
 20
-150.0380424972127
 30
0.0
 10
81.61517331943996
 20
-149.8647541943047
 30
0.0
 10
81.68493650301627
 20
-149.6191188862063
 30
0.0
 10
82.01704370779436
 20
-149.5812228358686
 30
0.0
 10
82.01704370779436
 20
-149.5812228358686
 30
0.0
 10
82.01704370779436
 20
-149.7948187559541
 30
0.0
 10
82.01704370779436
 20
-149.7948187559541
 30
0.0
 10
81.96002737751347
 20
-149.8054985519584
 30
0.0
 10
81.81188827164773
 20
-149.8371934304226
 30
0.0
 10
81.81188827164773
 20
-150.0401095545039
 30
0.0
 10
81.81188827164773
 20
-150.332253651653
 30
0.0
 10
82.13986136184351
 20
-150.3722167592819
 30
0.0
 10
82.34501679799014
 20
-150.3849636125774
 30
0.0
 10
82.26681313047497
 20
-150.2919460344756
 30
0.0
 10
82.20755748812867
 20
-150.2240776534162
 30
0.0
 10
82.20755748812867
 20
-150.042176611795
 30
0.0
 10
82.20755748812867
 20
-149.862342627465
 30
0.0
 10
82.31538897681699
 20
-149.55986324386
 30
0.0
 10
82.72156573452794
 20
-149.55986324386
 30
0.0
 10
83.04109834078487
 20
-149.55986324386
 30
0.0
 10
83.26106768751806
 20
-149.7589897629075
 30
0.0
 10
83.26106768751806
 20
-150.076283057099
 30
0.0
  0
SPLINE
  5
113
330
10C
100
AcDbEntity
  8
_U+30EC_U+30A4_U+30E4_U+30FC 1
370
     0
100
AcDbSpline
210
0.0
220
0.0
230
1.0
 70
    11
 71
     3
 72
    17
 73
    13
 74
     0
 42
0.0000000001
 43
0.0000000001
 12
1.0
 22
0.0
 32
0.0
 13
1.0
 23
0.0
 33
0.0
 40
0.0
 40
0.0
 40
0.0
 40
0.0
 40
1.0
 40
1.0
 40
1.0
 40
2.0
 40
2.0
 40
2.0
 40
3.0
 40
3.0
 40
3.0
 40
4.0
 40
4.0
 40
4.0
 40
4.0
 10
82.40220538304528
 20
-150.0594020892213
 30
0.0
 10
82.40220538304528
 20
-150.3215738556488
 30
0.0
 10
82.61373424583962
 20
-150.3594699059865
 30
0.0
 10
82.73000621846681
 20
-150.3594699059865
 30
0.0
 10
82.90570608821454
 20
-150.3594699059865
 30
0.0
 10
83.06848684989261
 20
-150.2643852705936
 30
0.0
 10
83.06848684989261
 20
-150.0804171716813
 30
0.0
 10
83.06848684989261
 20
-149.9598388296976
 30
0.0
 10
83.0092312075463
 20
-149.7841389599498
 30
0.0
 10
82.7236327918191
 20
-149.7841389599498
 30
0.0
 10
82.49952933050359
 20
-149.7841389599498
 30
0.0
 10
82.40220538304528
 20
-149.9236653271024
 30
0.0
 10
82.40220538304528
 20
-150.0594020892213
 30
0.0
  0
HATCH
  5
114
330
10C
100
AcDbEntity
  8
_U+30EC_U+30A4_U+30E4_U+30FC 1
 62
   179
420
  2234388
100
AcDbHatch
 10
0.0
 20
0.0
 30
0.0
210
0.0
220
0.0
230
1.0
  2
SOLID
 70
     1
 71
     0
 91
        2
 92
        1
 93
        1
 72
     4
 94
        3
 73
     0
 74
     1
 95
       32
 96
       28
 40
0.0
 40
0.0
 40
0.0
 40
0.0
 40
1.0
 40
1.0
 40
1.0
 40
2.0
 40
2.0
 40
2.0
 40
3.0
 40
3.0
 40
3.0
 40
4.0
 40
4.0
 40
4.0
 40
5.0
 40
5.0
 40
5.0
 40
6.0
 40
6.0
 40
6.0
 40
7.0
 40
7.0
 40
7.0
 40
8.0
 40
8.0
 40
8.0
 40
9.0
 40
9.0
 40
9.0
 40
9.0
 10
83.26106768751806
 20
-150.076283057099
 10
83.26106768751806
 20
-150.5923583607894
 10
82.70675182394137
 20
-150.6009710995025
 10
82.49315590385588
 20
-150.6009710995025
 10
82.2625067611184
 20
-150.6009710995025
 10
81.61517331943996
 20
-150.5816785647851
 10
81.61517331943996
 20
-150.0380424972127
 10
81.61517331943996
 20
-149.8647541943047
 10
81.68493650301627
 20
-149.6191188862063
 10
82.01704370779436
 20
-149.5812228358686
 10
82.01704370779436
 20
-149.5812228358686
 10
82.01704370779436
 20
-149.7948187559541
 10
82.01704370779436
 20
-149.7948187559541
 10
81.96002737751347
 20
-149.8054985519584
 10
81.81188827164773
 20
-149.8371934304226
 10
81.81188827164773
 20
-150.0401095545039
 10
81.81188827164773
 20
-150.332253651653
 10
82.13986136184351
 20
-150.3722167592819
 10
82.34501679799014
 20
-150.3849636125774
 10
82.26681313047497
 20
-150.2919460344756
 10
82.20755748812867
 20
-150.2240776534162
 10
82.20755748812867
 20
-150.042176611795
 10
82.20755748812867
 20
-149.862342627465
 10
82.31538897681699
 20
-149.55986324386
 10
82.72156573452794
 20
-149.55986324386
 10
83.04109834078487
 20
-149.55986324386
 10
83.26106768751806
 20
-149.7589897629075
 10
83.26106768751806
 20
-150.076283057099
 97
        0
 97
        0
 92
        1
 93
        1
 72
     4
 94
        3
 73
     0
 74
     1
 95
       17
 96
       13
 40
0.0
 40
0.0
 40
0.0
 40
0.0
 40
1.0
 40
1.0
 40
1.0
 40
2.0
 40
2.0
 40
2.0
 40
3.0
 40
3.0
 40
3.0
 40
4.0
 40
4.0
 40
4.0
 40
4.0
 10
82.40220538304528
 20
-150.0594020892213
 10
82.40220538304528
 20
-150.3215738556488
 10
82.61373424583962
 20
-150.3594699059865
 10
82.73000621846681
 20
-150.3594699059865
 10
82.90570608821454
 20
-150.3594699059865
 10
83.06848684989261
 20
-150.2643852705936
 10
83.06848684989261
 20
-150.0804171716813
 10
83.06848684989261
 20
-149.9598388296976
 10
83.0092312075463
 20
-149.7841389599498
 10
82.7236327918191
 20
-149.7841389599498
 10
82.49952933050359
 20
-149.7841389599498
 10
82.40220538304528
 20
-149.9236653271024
 10
82.40220538304528
 20
-150.0594020892213
 97
        0
 97
        0
 75
     2
 76
     1
 98
        0
  0
ENDBLK
  5
10F
330
10C
100
AcDbEntity
  8
0
100
AcDbBlockEnd
  0
BLOCK
  5
133
330
131
100
AcDbEntity
  8
0
100
AcDbBlockBegin
  2
block 6
 70
     0
 10
0.0
 20
0.0
 30
0.0
  3
block 6
  1

  0
POLYLINE
  5
135
330
131
100
AcDbEntity
  8
_U+30EC_U+30A4_U+30E4_U+30FC 1
370
     0
100
AcDb2dPolyline
 66
     1
 10
0.0
 20
0.0
 30
0.0
  0
VERTEX
  5
136
330
135
100
AcDbEntity
  8
_U+30EC_U+30A4_U+30E4_U+30FC 1
370
     0
100
AcDbVertex
100
AcDb2dVertex
 10
87.22327200510391
 20
-132.8461547519447
 30
0.0
  0
VERTEX
  5
137
330
135
100
AcDbEntity
  8
_U+30EC_U+30A4_U+30E4_U+30FC 1
370
     0
100
AcDbVertex
100
AcDb2dVertex
 10
87.22327200510391
 20
-132.6854410475578
 30
0.0
  0
VERTEX
  5
138
330
135
100
AcDbEntity
  8
_U+30EC_U+30A4_U+30E4_U+30FC 1
370
     0
100
AcDbVertex
100
AcDb2dVertex
 10
87.37795679239163
 20
-132.6854410475578
 30
0.0
  0
VERTEX
  5
139
330
135
100
AcDbEntity
  8
_U+30EC_U+30A4_U+30E4_U+30FC 1
370
     0
100
AcDbVertex
100
AcDb2dVertex
 10
87.37795679239163
 20
-132.8461547519447
 30
0.0
  0
VERTEX
  5
13A
330
135
100
AcDbEntity
  8
_U+30EC_U+30A4_U+30E4_U+30FC 1
370
     0
100
AcDbVertex
100
AcDb2dVertex
 10
87.77138669680716
 20
-132.8461547519447
 30
0.0
  0
VERTEX
  5
13B
330
135
100
AcDbEntity
  8
_U+30EC_U+30A4_U+30E4_U+30FC 1
370
     0
100
AcDbVertex
100
AcDb2dVertex
 10
87.77138669680716
 20
-133.0006672844582
 30
0.0
  0
VERTEX
  5
13C
330
135
100
AcDbEntity
  8
_U+30EC_U+30A4_U+30E4_U+30FC 1
370
     0
100
AcDbVertex
100
AcDb2dVertex
 10
87.37795679239163
 20
-133.0006672844582
 30
0.0
  0
VERTEX
  5
13D
330
135
100
AcDbEntity
  8
_U+30EC_U+30A4_U+30E4_U+30FC 1
370
     0
100
AcDbVertex
100
AcDb2dVertex
 10
87.37795679239163
 20
-133.1550075621974
 30
0.0
  0
VERTEX
  5
13E
330
135
100
AcDbEntity
  8
_U+30EC_U+30A4_U+30E4_U+30FC 1
370
     0
100
AcDbVertex
100
AcDb2dVertex
 10
87.73314613692088
 20
-133.1550075621974
 30
0.0
  0
VERTEX
  5
13F
330
135
100
AcDbEntity
  8
_U+30EC_U+30A4_U+30E4_U+30FC 1
370
     0
100
AcDbVertex
100
AcDb2dVertex
 10
87.73314613692088
 20
-133.9673610776193
 30
0.0
  0
VERTEX
  5
140
330
135
100
AcDbEntity
  8
_U+30EC_U+30A4_U+30E4_U+30FC 1
370
     0
100
AcDbVertex
100
AcDb2dVertex
 10
87.37795679239163
 20
-133.9673610776193
 30
0.0
  0
VERTEX
  5
141
330
135
100
AcDbEntity
  8
_U+30EC_U+30A4_U+30E4_U+30FC 1
370
     0
100
AcDbVertex
100
AcDb2dVertex
 10
87.37795679239163
 20
-134.1366875207193
 30
0.0
  0
VERTEX
  5
142
330
135
100
AcDbEntity
  8
_U+30EC_U+30A4_U+30E4_U+30FC 1
370
     0
100
AcDbVertex
100
AcDb2dVertex
 10
87.78620060739374
 20
-134.1366875207193
 30
0.0
  0
VERTEX
  5
143
330
135
100
AcDbEntity
  8
_U+30EC_U+30A4_U+30E4_U+30FC 1
370
     0
100
AcDbVertex
100
AcDb2dVertex
 10
87.78620060739374
 20
-134.2910277984585
 30
0.0
  0
VERTEX
  5
144
330
135
100
AcDbEntity
  8
_U+30EC_U+30A4_U+30E4_U+30FC 1
370
     0
100
AcDbVertex
100
AcDb2dVertex
 10
87.37795679239163
 20
-134.2910277984585
 30
0.0
  0
VERTEX
  5
145
330
135
100
AcDbEntity
  8
_U+30EC_U+30A4_U+30E4_U+30FC 1
370
     0
100
AcDbVertex
100
AcDb2dVertex
 10
87.37795679239163
 20
-134.6443223404709
 30
0.0
  0
VERTEX
  5
146
330
135
100
AcDbEntity
  8
_U+30EC_U+30A4_U+30E4_U+30FC 1
370
     0
100
AcDbVertex
100
AcDb2dVertex
 10
87.22327200510391
 20
-134.6443223404709
 30
0.0
  0
VERTEX
  5
147
330
135
100
AcDbEntity
  8
_U+30EC_U+30A4_U+30E4_U+30FC 1
370
     0
100
AcDbVertex
100
AcDb2dVertex
 10
87.22327200510391
 20
-134.2910277984585
 30
0.0
  0
VERTEX
  5
148
330
135
100
AcDbEntity
  8
_U+30EC_U+30A4_U+30E4_U+30FC 1
370
     0
100
AcDbVertex
100
AcDb2dVertex
 10
86.81296113281066
 20
-134.2910277984585
 30
0.0
  0
VERTEX
  5
149
330
135
100
AcDbEntity
  8
_U+30EC_U+30A4_U+30E4_U+30FC 1
370
     0
100
AcDbVertex
100
AcDb2dVertex
 10
86.81296113281066
 20
-134.1366875207193
 30
0.0
  0
VERTEX
  5
14A
330
135
100
AcDbEntity
  8
_U+30EC_U+30A4_U+30E4_U+30FC 1
370
     0
100
AcDbVertex
100
AcDb2dVertex
 10
87.22327200510391
 20
-134.1366875207193
 30
0.0
  0
VERTEX
  5
14B
330
135
100
AcDbEntity
  8
_U+30EC_U+30A4_U+30E4_U+30FC 1
370
     0
100
AcDbVertex
100
AcDb2dVertex
 10
87.22327200510391
 20
-133.9673610776193
 30
0.0
  0
VERTEX
  5
14C
330
135
100
AcDbEntity
  8
_U+30EC_U+30A4_U+30E4_U+30FC 1
370
     0
100
AcDbVertex
100
AcDb2dVertex
 10
86.8742838324481
 20
-133.9673610776193
 30
0.0
  0
VERTEX
  5
14D
330
135
100
AcDbEntity
  8
_U+30EC_U+30A4_U+30E4_U+30FC 1
370
     0
100
AcDbVertex
100
AcDb2dVertex
 10
86.8742838324481
 20
-133.1550075621974
 30
0.0
  0
VERTEX
  5
14E
330
135
100
AcDbEntity
  8
_U+30EC_U+30A4_U+30E4_U+30FC 1
370
     0
100
AcDbVertex
100
AcDb2dVertex
 10
87.22327200510391
 20
-133.1550075621974
 30
0.0
  0
VERTEX
  5
14F
330
135
100
AcDbEntity
  8
_U+30EC_U+30A4_U+30E4_U+30FC 1
370
     0
100
AcDbVertex
100
AcDb2dVertex
 10
87.22327200510391
 20
-133.0006672844582
 30
0.0
  0
VERTEX
  5
150
330
135
100
AcDbEntity
  8
_U+30EC_U+30A4_U+30E4_U+30FC 1
370
     0
100
AcDbVertex
100
AcDb2dVertex
 10
86.83397621527068
 20
-133.0006672844582
 30
0.0
  0
VERTEX
  5
151
330
135
100
AcDbEntity
  8
_U+30EC_U+30A4_U+30E4_U+30FC 1
370
     0
100
AcDbVertex
100
AcDb2dVertex
 10
86.83397621527068
 20
-132.8461547519447
 30
0.0
  0
VERTEX
  5
152
330
135
100
AcDbEntity
  8
_U+30EC_U+30A4_U+30E4_U+30FC 1
370
     0
100
AcDbVertex
100
AcDb2dVertex
 10
87.22327200510391
 20
-132.8461547519447
 30
0.0
  0
SEQEND
  5
153
330
135
100
AcDbEntity
  8
_U+30EC_U+30A4_U+30E4_U+30FC 1
370
     0
  0
POLYLINE
  5
154
330
131
100
AcDbEntity
  8
_U+30EC_U+30A4_U+30E4_U+30FC 1
370
     0
100
AcDb2dPolyline
 66
     1
 10
0.0
 20
0.0
 30
0.0
  0
VERTEX
  5
155
330
154
100
AcDbEntity
  8
_U+30EC_U+30A4_U+30E4_U+30FC 1
370
     0
100
AcDbVertex
100
AcDb2dVertex
 10
87.22327200510391
 20
-133.2947061841242
 30
0.0
  0
VERTEX
  5
156
330
154
100
AcDbEntity
  8
_U+30EC_U+30A4_U+30E4_U+30FC 1
370
     0
100
AcDbVertex
100
AcDb2dVertex
 10
87.0162217664404
 20
-133.2947061841242
 30
0.0
  0
VERTEX
  5
157
330
154
100
AcDbEntity
  8
_U+30EC_U+30A4_U+30E4_U+30FC 1
370
     0
100
AcDbVertex
100
AcDb2dVertex
 10
87.0162217664404
 20
-133.4977945629797
 30
0.0
  0
VERTEX
  5
158
330
154
100
AcDbEntity
  8
_U+30EC_U+30A4_U+30E4_U+30FC 1
370
     0
100
AcDbVertex
100
AcDb2dVertex
 10
87.22327200510391
 20
-133.4977945629797
 30
0.0
  0
VERTEX
  5
159
330
154
100
AcDbEntity
  8
_U+30EC_U+30A4_U+30E4_U+30FC 1
370
     0
100
AcDbVertex
100
AcDb2dVertex
 10
87.22327200510391
 20
-133.2947061841242
 30
0.0
  0
SEQEND
  5
15A
330
154
100
AcDbEntity
  8
_U+30EC_U+30A4_U+30E4_U+30FC 1
370
     0
  0
POLYLINE
  5
15B
330
131
100
AcDbEntity
  8
_U+30EC_U+30A4_U+30E4_U+30FC 1
370
     0
100
AcDb2dPolyline
 66
     1
 10
0.0
 20
0.0
 30
0.0
  0
VERTEX
  5
15C
330
15B
100
AcDbEntity
  8
_U+30EC_U+30A4_U+30E4_U+30FC 1
370
     0
100
AcDbVertex
100
AcDb2dVertex
 10
87.22327200510391
 20
-133.6204399622546
 30
0.0
  0
VERTEX
  5
15D
330
15B
100
AcDbEntity
  8
_U+30EC_U+30A4_U+30E4_U+30FC 1
370
     0
100
AcDbVertex
100
AcDb2dVertex
 10
87.0162217664404
 20
-133.6204399622546
 30
0.0
  0
VERTEX
  5
15E
330
15B
100
AcDbEntity
  8
_U+30EC_U+30A4_U+30E4_U+30FC 1
370
     0
100
AcDbVertex
100
AcDb2dVertex
 10
87.0162217664404
 20
-133.8278347104666
 30
0.0
  0
VERTEX
  5
15F
330
15B
100
AcDbEntity
  8
_U+30EC_U+30A4_U+30E4_U+30FC 1
370
     0
100
AcDbVertex
100
AcDb2dVertex
 10
87.22327200510391
 20
-133.8278347104666
 30
0.0
  0
VERTEX
  5
160
330
15B
100
AcDbEntity
  8
_U+30EC_U+30A4_U+30E4_U+30FC 1
370
     0
100
AcDbVertex
100
AcDb2dVertex
 10
87.22327200510391
 20
-133.6204399622546
 30
0.0
  0
SEQEND
  5
161
330
15B
100
AcDbEntity
  8
_U+30EC_U+30A4_U+30E4_U+30FC 1
370
     0
  0
POLYLINE
  5
162
330
131
100
AcDbEntity
  8
_U+30EC_U+30A4_U+30E4_U+30FC 1
370
     0
100
AcDb2dPolyline
 66
     1
 10
0.0
 20
0.0
 30
0.0
  0
VERTEX
  5
163
330
162
100
AcDbEntity
  8
_U+30EC_U+30A4_U+30E4_U+30FC 1
370
     0
100
AcDbVertex
100
AcDb2dVertex
 10
87.58948565518597
 20
-133.2947061841242
 30
0.0
  0
VERTEX
  5
164
330
162
100
AcDbEntity
  8
_U+30EC_U+30A4_U+30E4_U+30FC 1
370
     0
100
AcDbVertex
100
AcDb2dVertex
 10
87.37795679239163
 20
-133.2947061841242
 30
0.0
  0
VERTEX
  5
165
330
162
100
AcDbEntity
  8
_U+30EC_U+30A4_U+30E4_U+30FC 1
370
     0
100
AcDbVertex
100
AcDb2dVertex
 10
87.37795679239163
 20
-133.4977945629797
 30
0.0
  0
VERTEX
  5
166
330
162
100
AcDbEntity
  8
_U+30EC_U+30A4_U+30E4_U+30FC 1
370
     0
100
AcDbVertex
100
AcDb2dVertex
 10
87.58948565518597
 20
-133.4977945629797
 30
0.0
  0
VERTEX
  5
167
330
162
100
AcDbEntity
  8
_U+30EC_U+30A4_U+30E4_U+30FC 1
370
     0
100
AcDbVertex
100
AcDb2dVertex
 10
87.58948565518597
 20
-133.2947061841242
 30
0.0
  0
SEQEND
  5
168
330
162
100
AcDbEntity
  8
_U+30EC_U+30A4_U+30E4_U+30FC 1
370
     0
  0
POLYLINE
  5
169
330
131
100
AcDbEntity
  8
_U+30EC_U+30A4_U+30E4_U+30FC 1
370
     0
100
AcDb2dPolyline
 66
     1
 10
0.0
 20
0.0
 30
0.0
  0
VERTEX
  5
16A
330
169
100
AcDbEntity
  8
_U+30EC_U+30A4_U+30E4_U+30FC 1
370
     0
100
AcDbVertex
100
AcDb2dVertex
 10
87.58948565518597
 20
-133.6204399622546
 30
0.0
  0
VERTEX
  5
16B
330
169
100
AcDbEntity
  8
_U+30EC_U+30A4_U+30E4_U+30FC 1
370
     0
100
AcDbVertex
100
AcDb2dVertex
 10
87.37795679239163
 20
-133.6204399622546
 30
0.0
  0
VERTEX
  5
16C
330
169
100
AcDbEntity
  8
_U+30EC_U+30A4_U+30E4_U+30FC 1
370
     0
100
AcDbVertex
100
AcDb2dVertex
 10
87.37795679239163
 20
-133.8278347104666
 30
0.0
  0
VERTEX
  5
16D
330
169
100
AcDbEntity
  8
_U+30EC_U+30A4_U+30E4_U+30FC 1
370
     0
100
AcDbVertex
100
AcDb2dVertex
 10
87.58948565518597
 20
-133.8278347104666
 30
0.0
  0
VERTEX
  5
16E
330
169
100
AcDbEntity
  8
_U+30EC_U+30A4_U+30E4_U+30FC 1
370
     0
100
AcDbVertex
100
AcDb2dVertex
 10
87.58948565518597
 20
-133.6204399622546
 30
0.0
  0
SEQEND
  5
16F
330
169
100
AcDbEntity
  8
_U+30EC_U+30A4_U+30E4_U+30FC 1
370
     0
  0
SPLINE
  5
170
330
131
100
AcDbEntity
  8
_U+30EC_U+30A4_U+30E4_U+30FC 1
370
     0
100
AcDbSpline
210
0.0
220
0.0
230
1.0
 70
    11
 71
     3
 72
    38
 73
    34
 74
     0
 42
0.0000000001
 43
0.0000000001
 12
1.0
 22
0.0
 32
0.0
 13
1.0
 23
0.0
 33
0.0
 40
0.0
 40
0.0
 40
0.0
 40
0.0
 40
1.0
 40
1.0
 40
1.0
 40
2.0
 40
2.0
 40
2.0
 40
3.0
 40
3.0
 40
3.0
 40
4.0
 40
4.0
 40
4.0
 40
5.0
 40
5.0
 40
5.0
 40
6.0
 40
6.0
 40
6.0
 40
7.0
 40
7.0
 40
7.0
 40
8.0
 40
8.0
 40
8.0
 40
9.0
 40
9.0
 40
9.0
 40
10.0
 40
10.0
 40
10.0
 40
11.0
 40
11.0
 40
11.0
 40
11.0
 10
87.63151582010602
 20
-134.5089300879006
 30
0.0
 10
87.71419811175201
 20
-134.456047872202
 30
0.0
 10
87.87921818549547
 20
-134.3482163835137
 30
0.0
 10
87.98498261689265
 20
-134.1408216353016
 30
0.0
 10
88.13312172275839
 20
-133.8490220477009
 30
0.0
 10
88.13312172275839
 20
-133.62267927432
 30
0.0
 10
88.13312172275839
 20
-133.5379299253829
 30
0.0
 10
88.13312172275839
 20
-133.5379299253829
 30
0.0
 10
88.13312172275839
 20
-133.3031466680631
 30
0.0
 10
88.13312172275839
 20
-133.3031466680631
 30
0.0
 10
88.13312172275839
 20
-133.3031466680631
 30
0.0
 10
88.29814179650185
 20
-133.3031466680631
 30
0.0
 10
88.29814179650185
 20
-133.3031466680631
 30
0.0
 10
88.29814179650185
 20
-133.3031466680631
 30
0.0
 10
88.29814179650185
 20
-133.529489441444
 30
0.0
 10
88.29814179650185
 20
-133.529489441444
 30
0.0
 10
88.29814179650185
 20
-133.7284437057172
 30
0.0
 10
88.36359861072161
 20
-133.9652940203281
 30
0.0
 10
88.46522892753647
 20
-134.1387545780105
 30
0.0
 10
88.58167315493792
 20
-134.3377088422836
 30
0.0
 10
88.71051972608626
 20
-134.4370998470331
 30
0.0
 10
88.79526907502341
 20
-134.4984225466705
 30
0.0
 10
88.79526907502341
 20
-134.4984225466705
 30
0.0
 10
88.6874375863351
 20
-134.6486287098274
 30
0.0
 10
88.6874375863351
 20
-134.6486287098274
 30
0.0
 10
88.50967065929619
 20
-134.5196098839048
 30
0.0
 10
88.31088864979728
 20
-134.2805202572285
 30
0.0
 10
88.23234047273358
 20
-133.9272257152161
 30
0.0
 10
88.16688365851384
 20
-134.1663153418924
 30
0.0
 10
88.06525334169896
 20
-134.4350327897419
 30
0.0
 10
87.75657278622059
 20
-134.6443223404709
 30
0.0
 10
87.75657278622059
 20
-134.6443223404709
 30
0.0
 10
87.63151582010602
 20
-134.5089300879006
 30
0.0
 10
87.63151582010602
 20
-134.5089300879006
 30
0.0
  0
SPLINE
  5
171
330
131
100
AcDbEntity
  8
_U+30EC_U+30A4_U+30E4_U+30FC 1
370
     0
100
AcDbSpline
210
0.0
220
0.0
230
1.0
 70
    11
 71
     3
 72
    38
 73
    34
 74
     0
 42
0.0000000001
 43
0.0000000001
 12
1.0
 22
0.0
 32
0.0
 13
1.0
 23
0.0
 33
0.0
 40
0.0
 40
0.0
 40
0.0
 40
0.0
 40
1.0
 40
1.0
 40
1.0
 40
2.0
 40
2.0
 40
2.0
 40
3.0
 40
3.0
 40
3.0
 40
4.0
 40
4.0
 40
4.0
 40
5.0
 40
5.0
 40
5.0
 40
6.0
 40
6.0
 40
6.0
 40
7.0
 40
7.0
 40
7.0
 40
8.0
 40
8.0
 40
8.0
 40
9.0
 40
9.0
 40
9.0
 40
10.0
 40
10.0
 40
10.0
 40
11.0
 40
11.0
 40
11.0
 40
11.0
 10
87.7458929902163
 20
-133.4364718633423
 30
0.0
 10
87.83891056831806
 20
-133.3136542092931
 30
0.0
 10
87.96396753443263
 20
-133.1339924797373
 30
0.0
 10
88.05905216982552
 20
-132.6854410475578
 30
0.0
 10
88.05905216982552
 20
-132.6854410475578
 30
0.0
 10
88.22613930086014
 20
-132.7043890727267
 30
0.0
 10
88.22613930086014
 20
-132.7043890727267
 30
0.0
 10
88.20064559426929
 20
-132.8249674147104
 30
0.0
 10
88.17756345451811
 20
-132.9160901902953
 30
0.0
 10
88.13932289463185
 20
-133.0239216789836
 30
0.0
 10
88.13932289463185
 20
-133.0239216789836
 30
0.0
 10
88.7677083111414
 20
-133.0239216789836
 30
0.0
 10
88.7677083111414
 20
-133.0239216789836
 30
0.0
 10
88.7677083111414
 20
-133.0239216789836
 30
0.0
 10
88.7677083111414
 20
-133.1761948994317
 30
0.0
 10
88.7677083111414
 20
-133.1761948994317
 30
0.0
 10
88.73394637538597
 20
-133.3179605786497
 30
0.0
 10
88.63851723044453
 20
-133.5759982304949
 30
0.0
 10
88.56444767751167
 20
-133.6945095151875
 30
0.0
 10
88.56444767751167
 20
-133.6945095151875
 30
0.0
 10
88.41217445706363
 20
-133.6163058476723
 30
0.0
 10
88.41217445706363
 20
-133.6163058476723
 30
0.0
 10
88.50760360200505
 20
-133.480913595102
 30
0.0
 10
88.57306041622479
 20
-133.2926391268331
 30
0.0
 10
88.6006211801068
 20
-133.1825683260794
 30
0.0
 10
88.6006211801068
 20
-133.1825683260794
 30
0.0
 10
88.08213430957669
 20
-133.1825683260794
 30
0.0
 10
88.08213430957669
 20
-133.1825683260794
 30
0.0
 10
87.9829155596015
 20
-133.4237250100469
 30
0.0
 10
87.90884600666863
 20
-133.5126084735663
 30
0.0
 10
87.87060544678235
 20
-133.557050205326
 30
0.0
 10
87.87060544678235
 20
-133.557050205326
 30
0.0
 10
87.7458929902163
 20
-133.4364718633423
 30
0.0
 10
87.7458929902163
 20
-133.4364718633423
 30
0.0
  0
HATCH
  5
172
330
131
100
AcDbEntity
  8
_U+30EC_U+30A4_U+30E4_U+30FC 1
 62
    12
420
 15007761
100
AcDbHatch
 10
0.0
 20
0.0
 30
0.0
210
0.0
220
0.0
230
1.0
  2
SOLID
 70
     1
 71
     0
 91
        7
 92
        1
 93
       28
 72
     1
 10
87.22327200510391
 20
-132.8461547519447
 11
87.22327200510391
 21
-132.6854410475578
 72
     1
 10
87.22327200510391
 20
-132.6854410475578
 11
87.37795679239163
 21
-132.6854410475578
 72
     1
 10
87.37795679239163
 20
-132.6854410475578
 11
87.37795679239163
 21
-132.8461547519447
 72
     1
 10
87.37795679239163
 20
-132.8461547519447
 11
87.77138669680716
 21
-132.8461547519447
 72
     1
 10
87.77138669680716
 20
-132.8461547519447
 11
87.77138669680716
 21
-133.0006672844582
 72
     1
 10
87.77138669680716
 20
-133.0006672844582
 11
87.37795679239163
 21
-133.0006672844582
 72
     1
 10
87.37795679239163
 20
-133.0006672844582
 11
87.37795679239163
 21
-133.1550075621974
 72
     1
 10
87.37795679239163
 20
-133.1550075621974
 11
87.73314613692088
 21
-133.1550075621974
 72
     1
 10
87.73314613692088
 20
-133.1550075621974
 11
87.73314613692088
 21
-133.9673610776193
 72
     1
 10
87.73314613692088
 20
-133.9673610776193
 11
87.37795679239163
 21
-133.9673610776193
 72
     1
 10
87.37795679239163
 20
-133.9673610776193
 11
87.37795679239163
 21
-134.1366875207193
 72
     1
 10
87.37795679239163
 20
-134.1366875207193
 11
87.78620060739374
 21
-134.1366875207193
 72
     1
 10
87.78620060739374
 20
-134.1366875207193
 11
87.78620060739374
 21
-134.2910277984585
 72
     1
 10
87.78620060739374
 20
-134.2910277984585
 11
87.37795679239163
 21
-134.2910277984585
 72
     1
 10
87.37795679239163
 20
-134.2910277984585
 11
87.37795679239163
 21
-134.6443223404709
 72
     1
 10
87.37795679239163
 20
-134.6443223404709
 11
87.22327200510391
 21
-134.6443223404709
 72
     1
 10
87.22327200510391
 20
-134.6443223404709
 11
87.22327200510391
 21
-134.2910277984585
 72
     1
 10
87.22327200510391
 20
-134.2910277984585
 11
86.81296113281066
 21
-134.2910277984585
 72
     1
 10
86.81296113281066
 20
-134.2910277984585
 11
86.81296113281066
 21
-134.1366875207193
 72
     1
 10
86.81296113281066
 20
-134.1366875207193
 11
87.22327200510391
 21
-134.1366875207193
 72
     1
 10
87.22327200510391
 20
-134.1366875207193
 11
87.22327200510391
 21
-133.9673610776193
 72
     1
 10
87.22327200510391
 20
-133.9673610776193
 11
86.8742838324481
 21
-133.9673610776193
 72
     1
 10
86.8742838324481
 20
-133.9673610776193
 11
86.8742838324481
 21
-133.1550075621974
 72
     1
 10
86.8742838324481
 20
-133.1550075621974
 11
87.22327200510391
 21
-133.1550075621974
 72
     1
 10
87.22327200510391
 20
-133.1550075621974
 11
87.22327200510391
 21
-133.0006672844582
 72
     1
 10
87.22327200510391
 20
-133.0006672844582
 11
86.83397621527068
 21
-133.0006672844582
 72
     1
 10
86.83397621527068
 20
-133.0006672844582
 11
86.83397621527068
 21
-132.8461547519447
 72
     1
 10
86.83397621527068
 20
-132.8461547519447
 11
87.22327200510391
 21
-132.8461547519447
 97
        0
 92
        1
 93
        4
 72
     1
 10
87.22327200510391
 20
-133.2947061841242
 11
87.0162217664404
 21
-133.2947061841242
 72
     1
 10
87.0162217664404
 20
-133.2947061841242
 11
87.0162217664404
 21
-133.4977945629797
 72
     1
 10
87.0162217664404
 20
-133.4977945629797
 11
87.22327200510391
 21
-133.4977945629797
 72
     1
 10
87.22327200510391
 20
-133.4977945629797
 11
87.22327200510391
 21
-133.2947061841242
 97
        0
 92
        1
 93
        4
 72
     1
 10
87.22327200510391
 20
-133.6204399622546
 11
87.0162217664404
 21
-133.6204399622546
 72
     1
 10
87.0162217664404
 20
-133.6204399622546
 11
87.0162217664404
 21
-133.8278347104666
 72
     1
 10
87.0162217664404
 20
-133.8278347104666
 11
87.22327200510391
 21
-133.8278347104666
 72
     1
 10
87.22327200510391
 20
-133.8278347104666
 11
87.22327200510391
 21
-133.6204399622546
 97
        0
 92
        1
 93
        4
 72
     1
 10
87.58948565518597
 20
-133.2947061841242
 11
87.37795679239163
 21
-133.2947061841242
 72
     1
 10
87.37795679239163
 20
-133.2947061841242
 11
87.37795679239163
 21
-133.4977945629797
 72
     1
 10
87.37795679239163
 20
-133.4977945629797
 11
87.58948565518597
 21
-133.4977945629797
 72
     1
 10
87.58948565518597
 20
-133.4977945629797
 11
87.58948565518597
 21
-133.2947061841242
 97
        0
 92
        1
 93
        4
 72
     1
 10
87.58948565518597
 20
-133.6204399622546
 11
87.37795679239163
 21
-133.6204399622546
 72
     1
 10
87.37795679239163
 20
-133.6204399622546
 11
87.37795679239163
 21
-133.8278347104666
 72
     1
 10
87.37795679239163
 20
-133.8278347104666
 11
87.58948565518597
 21
-133.8278347104666
 72
     1
 10
87.58948565518597
 20
-133.8278347104666
 11
87.58948565518597
 21
-133.6204399622546
 97
        0
 92
        1
 93
        1
 72
     4
 94
        3
 73
     0
 74
     1
 95
       38
 96
       34
 40
0.0
 40
0.0
 40
0.0
 40
0.0
 40
1.0
 40
1.0
 40
1.0
 40
2.0
 40
2.0
 40
2.0
 40
3.0
 40
3.0
 40
3.0
 40
4.0
 40
4.0
 40
4.0
 40
5.0
 40
5.0
 40
5.0
 40
6.0
 40
6.0
 40
6.0
 40
7.0
 40
7.0
 40
7.0
 40
8.0
 40
8.0
 40
8.0
 40
9.0
 40
9.0
 40
9.0
 40
10.0
 40
10.0
 40
10.0
 40
11.0
 40
11.0
 40
11.0
 40
11.0
 10
87.63151582010602
 20
-134.5089300879006
 10
87.71419811175201
 20
-134.456047872202
 10
87.87921818549547
 20
-134.3482163835137
 10
87.98498261689265
 20
-134.1408216353016
 10
88.13312172275839
 20
-133.8490220477009
 10
88.13312172275839
 20
-133.62267927432
 10
88.13312172275839
 20
-133.5379299253829
 10
88.13312172275839
 20
-133.5379299253829
 10
88.13312172275839
 20
-133.3031466680631
 10
88.13312172275839
 20
-133.3031466680631
 10
88.13312172275839
 20
-133.3031466680631
 10
88.29814179650185
 20
-133.3031466680631
 10
88.29814179650185
 20
-133.3031466680631
 10
88.29814179650185
 20
-133.3031466680631
 10
88.29814179650185
 20
-133.529489441444
 10
88.29814179650185
 20
-133.529489441444
 10
88.29814179650185
 20
-133.7284437057172
 10
88.36359861072161
 20
-133.9652940203281
 10
88.46522892753647
 20
-134.1387545780105
 10
88.58167315493792
 20
-134.3377088422836
 10
88.71051972608626
 20
-134.4370998470331
 10
88.79526907502341
 20
-134.4984225466705
 10
88.79526907502341
 20
-134.4984225466705
 10
88.6874375863351
 20
-134.6486287098274
 10
88.6874375863351
 20
-134.6486287098274
 10
88.50967065929619
 20
-134.5196098839048
 10
88.31088864979728
 20
-134.2805202572285
 10
88.23234047273358
 20
-133.9272257152161
 10
88.16688365851384
 20
-134.1663153418924
 10
88.06525334169896
 20
-134.4350327897419
 10
87.75657278622059
 20
-134.6443223404709
 10
87.75657278622059
 20
-134.6443223404709
 10
87.63151582010602
 20
-134.5089300879006
 10
87.63151582010602
 20
-134.5089300879006
 97
        0
 97
        0
 92
        1
 93
        1
 72
     4
 94
        3
 73
     0
 74
     1
 95
       38
 96
       34
 40
0.0
 40
0.0
 40
0.0
 40
0.0
 40
1.0
 40
1.0
 40
1.0
 40
2.0
 40
2.0
 40
2.0
 40
3.0
 40
3.0
 40
3.0
 40
4.0
 40
4.0
 40
4.0
 40
5.0
 40
5.0
 40
5.0
 40
6.0
 40
6.0
 40
6.0
 40
7.0
 40
7.0
 40
7.0
 40
8.0
 40
8.0
 40
8.0
 40
9.0
 40
9.0
 40
9.0
 40
10.0
 40
10.0
 40
10.0
 40
11.0
 40
11.0
 40
11.0
 40
11.0
 10
87.7458929902163
 20
-133.4364718633423
 10
87.83891056831806
 20
-133.3136542092931
 10
87.96396753443263
 20
-133.1339924797373
 10
88.05905216982552
 20
-132.6854410475578
 10
88.05905216982552
 20
-132.6854410475578
 10
88.22613930086014
 20
-132.7043890727267
 10
88.22613930086014
 20
-132.7043890727267
 10
88.20064559426929
 20
-132.8249674147104
 10
88.17756345451811
 20
-132.9160901902953
 10
88.13932289463185
 20
-133.0239216789836
 10
88.13932289463185
 20
-133.0239216789836
 10
88.7677083111414
 20
-133.0239216789836
 10
88.7677083111414
 20
-133.0239216789836
 10
88.7677083111414
 20
-133.0239216789836
 10
88.7677083111414
 20
-133.1761948994317
 10
88.7677083111414
 20
-133.1761948994317
 10
88.73394637538597
 20
-133.3179605786497
 10
88.63851723044453
 20
-133.5759982304949
 10
88.56444767751167
 20
-133.6945095151875
 10
88.56444767751167
 20
-133.6945095151875
 10
88.41217445706363
 20
-133.6163058476723
 10
88.41217445706363
 20
-133.6163058476723
 10
88.50760360200505
 20
-133.480913595102
 10
88.57306041622479
 20
-133.2926391268331
 10
88.6006211801068
 20
-133.1825683260794
 10
88.6006211801068
 20
-133.1825683260794
 10
88.08213430957669
 20
-133.1825683260794
 10
88.08213430957669
 20
-133.1825683260794
 10
87.9829155596015
 20
-133.4237250100469
 10
87.90884600666863
 20
-133.5126084735663
 10
87.87060544678235
 20
-133.557050205326
 10
87.87060544678235
 20
-133.557050205326
 10
87.7458929902163
 20
-133.4364718633423
 10
87.7458929902163
 20
-133.4364718633423
 97
        0
 97
        0
 75
     2
 76
     1
 98
        0
  0
SPLINE
  5
173
330
131
100
AcDbEntity
  8
_U+30EC_U+30A4_U+30E4_U+30FC 1
370
     0
100
AcDbSpline
210
0.0
220
0.0
230
1.0
 70
    11
 71
     3
 72
    50
 73
    46
 74
     0
 42
0.0000000001
 43
0.0000000001
 12
1.0
 22
0.0
 32
0.0
 13
1.0
 23
0.0
 33
0.0
 40
0.0
 40
0.0
 40
0.0
 40
0.0
 40
1.0
 40
1.0
 40
1.0
 40
2.0
 40
2.0
 40
2.0
 40
3.0
 40
3.0
 40
3.0
 40
4.0
 40
4.0
 40
4.0
 40
5.0
 40
5.0
 40
5.0
 40
6.0
 40
6.0
 40
6.0
 40
7.0
 40
7.0
 40
7.0
 40
8.0
 40
8.0
 40
8.0
 40
9.0
 40
9.0
 40
9.0
 40
10.0
 40
10.0
 40
10.0
 40
11.0
 40
11.0
 40
11.0
 40
12.0
 40
12.0
 40
12.0
 40
13.0
 40
13.0
 40
13.0
 40
14.0
 40
14.0
 40
14.0
 40
15.0
 40
15.0
 40
15.0
 40
15.0
 10
89.24071992126622
 20
-132.9837863165804
 30
0.0
 10
89.24071992126622
 20
-132.9837863165804
 30
0.0
 10
89.89218747752696
 20
-132.9837863165804
 30
0.0
 10
89.89218747752696
 20
-132.9837863165804
 30
0.0
 10
89.89218747752696
 20
-132.9837863165804
 30
0.0
 10
89.89218747752696
 20
-133.1084987731465
 30
0.0
 10
89.89218747752696
 20
-133.1084987731465
 30
0.0
 10
89.89218747752696
 20
-133.1084987731465
 30
0.0
 10
89.61520180051286
 20
-133.1084987731465
 30
0.0
 10
89.61520180051286
 20
-133.1084987731465
 30
0.0
 10
89.61520180051286
 20
-133.1084987731465
 30
0.0
 10
89.61520180051286
 20
-133.3835896476437
 30
0.0
 10
89.61520180051286
 20
-133.3835896476437
 30
0.0
 10
89.61520180051286
 20
-133.3835896476437
 30
0.0
 10
89.4543158413517
 20
-133.3835896476437
 30
0.0
 10
89.4543158413517
 20
-133.3835896476437
 30
0.0
 10
89.4543158413517
 20
-133.3835896476437
 30
0.0
 10
89.4543158413517
 20
-133.1084987731465
 30
0.0
 10
89.4543158413517
 20
-133.1084987731465
 30
0.0
 10
89.4543158413517
 20
-133.1084987731465
 30
0.0
 10
89.23417423984424
 20
-133.1084987731465
 30
0.0
 10
89.23417423984424
 20
-133.1084987731465
 30
0.0
 10
89.2238389533885
 20
-133.1782619567228
 30
0.0
 10
89.19834524679764
 20
-133.3729098516394
 30
0.0
 10
89.04400496905845
 20
-133.5231160147963
 30
0.0
 10
89.04400496905845
 20
-133.5231160147963
 30
0.0
 10
88.92135956978355
 20
-133.4132174688168
 30
0.0
 10
88.92135956978355
 20
-133.4132174688168
 30
0.0
 10
89.04193791176729
 20
-133.3136542092931
 30
0.0
 10
89.08396807668734
 20
-133.1084987731465
 30
0.0
 10
89.08396807668734
 20
-133.0259887362748
 30
0.0
 10
89.08396807668734
 20
-133.0259887362748
 30
0.0
 10
89.08396807668734
 20
-132.7403903205476
 30
0.0
 10
89.08396807668734
 20
-132.7403903205476
 30
0.0
 10
89.568693011462
 20
-132.7403903205476
 30
0.0
 10
89.7230332892012
 20
-132.6938815314967
 30
0.0
 10
89.81811792459409
 20
-132.6663207676147
 30
0.0
 10
89.81811792459409
 20
-132.6663207676147
 30
0.0
 10
89.87117239506694
 20
-132.8060193895415
 30
0.0
 10
89.87117239506694
 20
-132.8060193895415
 30
0.0
 10
89.66171058956374
 20
-132.8545952358836
 30
0.0
 10
89.49875757311142
 20
-132.8652750318878
 30
0.0
 10
89.24071992126622
 20
-132.8694091464702
 30
0.0
 10
89.24071992126622
 20
-132.8694091464702
 30
0.0
 10
89.24071992126622
 20
-132.9837863165804
 30
0.0
 10
89.24071992126622
 20
-132.9837863165804
 30
0.0
  0
SPLINE
  5
174
330
131
100
AcDbEntity
  8
_U+30EC_U+30A4_U+30E4_U+30FC 1
370
     0
100
AcDbSpline
210
0.0
220
0.0
230
1.0
 70
    11
 71
     3
 72
    32
 73
    28
 74
     0
 42
0.0000000001
 43
0.0000000001
 12
1.0
 22
0.0
 32
0.0
 13
1.0
 23
0.0
 33
0.0
 40
0.0
 40
0.0
 40
0.0
 40
0.0
 40
1.0
 40
1.0
 40
1.0
 40
2.0
 40
2.0
 40
2.0
 40
3.0
 40
3.0
 40
3.0
 40
4.0
 40
4.0
 40
4.0
 40
5.0
 40
5.0
 40
5.0
 40
6.0
 40
6.0
 40
6.0
 40
7.0
 40
7.0
 40
7.0
 40
8.0
 40
8.0
 40
8.0
 40
9.0
 40
9.0
 40
9.0
 40
9.0
 10
89.15597057232907
 20
-134.3290961035705
 30
0.0
 10
89.15597057232907
 20
-134.3290961035705
 30
0.0
 10
89.15597057232907
 20
-133.4300984366946
 30
0.0
 10
89.15597057232907
 20
-133.4300984366946
 30
0.0
 10
89.15597057232907
 20
-133.4300984366946
 30
0.0
 10
90.6538980893157
 20
-133.4300984366946
 30
0.0
 10
90.6538980893157
 20
-133.4300984366946
 30
0.0
 10
90.6538980893157
 20
-133.4300984366946
 30
0.0
 10
90.6538980893157
 20
-134.3290961035705
 30
0.0
 10
90.6538980893157
 20
-134.3290961035705
 30
0.0
 10
90.6538980893157
 20
-134.3290961035705
 30
0.0
 10
89.5094373691157
 20
-134.3290961035705
 30
0.0
 10
89.5094373691157
 20
-134.3290961035705
 30
0.0
 10
89.5094373691157
 20
-134.3290961035705
 30
0.0
 10
89.61520180051286
 20
-134.4391669043243
 30
0.0
 10
89.61520180051286
 20
-134.4391669043243
 30
0.0
 10
89.4501817267694
 20
-134.5344237944914
 30
0.0
 10
89.28516165302594
 20
-134.5957464941289
 30
0.0
 10
88.98888344129445
 20
-134.6465616525363
 30
0.0
 10
88.98888344129445
 20
-134.6465616525363
 30
0.0
 10
88.9234266270747
 20
-134.494116177314
 30
0.0
 10
88.9234266270747
 20
-134.494116177314
 30
0.0
 10
89.30204262090366
 20
-134.4412339616154
 30
0.0
 10
89.42468802017855
 20
-134.3735378353302
 30
0.0
 10
89.50495874498488
 20
-134.3290961035705
 30
0.0
 10
89.50495874498488
 20
-134.3290961035705
 30
0.0
 10
89.15597057232907
 20
-134.3290961035705
 30
0.0
 10
89.15597057232907
 20
-134.3290961035705
 30
0.0
  0
POLYLINE
  5
175
330
131
100
AcDbEntity
  8
_U+30EC_U+30A4_U+30E4_U+30FC 1
370
     0
100
AcDb2dPolyline
 66
     1
 10
0.0
 20
0.0
 30
0.0
  0
VERTEX
  5
176
330
175
100
AcDbEntity
  8
_U+30EC_U+30A4_U+30E4_U+30FC 1
370
     0
100
AcDbVertex
100
AcDb2dVertex
 10
90.4843993914414
 20
-133.5634236319737
 30
0.0
  0
VERTEX
  5
177
330
175
100
AcDbEntity
  8
_U+30EC_U+30A4_U+30E4_U+30FC 1
370
     0
100
AcDbVertex
100
AcDb2dVertex
 10
89.32512476065483
 20
-133.5634236319737
 30
0.0
  0
VERTEX
  5
178
330
175
100
AcDbEntity
  8
_U+30EC_U+30A4_U+30E4_U+30FC 1
370
     0
100
AcDbVertex
100
AcDb2dVertex
 10
89.32512476065483
 20
-133.6924424578963
 30
0.0
  0
VERTEX
  5
179
330
175
100
AcDbEntity
  8
_U+30EC_U+30A4_U+30E4_U+30FC 1
370
     0
100
AcDbVertex
100
AcDb2dVertex
 10
90.4843993914414
 20
-133.6924424578963
 30
0.0
  0
VERTEX
  5
17A
330
175
100
AcDbEntity
  8
_U+30EC_U+30A4_U+30E4_U+30FC 1
370
     0
100
AcDbVertex
100
AcDb2dVertex
 10
90.4843993914414
 20
-133.5634236319737
 30
0.0
  0
SEQEND
  5
17B
330
175
100
AcDbEntity
  8
_U+30EC_U+30A4_U+30E4_U+30FC 1
370
     0
  0
POLYLINE
  5
17C
330
131
100
AcDbEntity
  8
_U+30EC_U+30A4_U+30E4_U+30FC 1
370
     0
100
AcDb2dPolyline
 66
     1
 10
0.0
 20
0.0
 30
0.0
  0
VERTEX
  5
17D
330
17C
100
AcDbEntity
  8
_U+30EC_U+30A4_U+30E4_U+30FC 1
370
     0
100
AcDbVertex
100
AcDb2dVertex
 10
90.4843993914414
 20
-133.8023410038758
 30
0.0
  0
VERTEX
  5
17E
330
17C
100
AcDbEntity
  8
_U+30EC_U+30A4_U+30E4_U+30FC 1
370
     0
100
AcDbVertex
100
AcDb2dVertex
 10
89.32512476065483
 20
-133.8023410038758
 30
0.0
  0
VERTEX
  5
17F
330
17C
100
AcDbEntity
  8
_U+30EC_U+30A4_U+30E4_U+30FC 1
370
     0
100
AcDbVertex
100
AcDb2dVertex
 10
89.32512476065483
 20
-133.9441066830938
 30
0.0
  0
VERTEX
  5
180
330
17C
100
AcDbEntity
  8
_U+30EC_U+30A4_U+30E4_U+30FC 1
370
     0
100
AcDbVertex
100
AcDb2dVertex
 10
90.4843993914414
 20
-133.9441066830938
 30
0.0
  0
VERTEX
  5
181
330
17C
100
AcDbEntity
  8
_U+30EC_U+30A4_U+30E4_U+30FC 1
370
     0
100
AcDbVertex
100
AcDb2dVertex
 10
90.4843993914414
 20
-133.8023410038758
 30
0.0
  0
SEQEND
  5
182
330
17C
100
AcDbEntity
  8
_U+30EC_U+30A4_U+30E4_U+30FC 1
370
     0
  0
POLYLINE
  5
183
330
131
100
AcDbEntity
  8
_U+30EC_U+30A4_U+30E4_U+30FC 1
370
     0
100
AcDb2dPolyline
 66
     1
 10
0.0
 20
0.0
 30
0.0
  0
VERTEX
  5
184
330
183
100
AcDbEntity
  8
_U+30EC_U+30A4_U+30E4_U+30FC 1
370
     0
100
AcDbVertex
100
AcDb2dVertex
 10
90.4843993914414
 20
-134.0541774838476
 30
0.0
  0
VERTEX
  5
185
330
183
100
AcDbEntity
  8
_U+30EC_U+30A4_U+30E4_U+30FC 1
370
     0
100
AcDbVertex
100
AcDb2dVertex
 10
89.32512476065483
 20
-134.0541774838476
 30
0.0
  0
VERTEX
  5
186
330
183
100
AcDbEntity
  8
_U+30EC_U+30A4_U+30E4_U+30FC 1
370
     0
100
AcDbVertex
100
AcDb2dVertex
 10
89.32512476065483
 20
-134.1937038510002
 30
0.0
  0
VERTEX
  5
187
330
183
100
AcDbEntity
  8
_U+30EC_U+30A4_U+30E4_U+30FC 1
370
     0
100
AcDbVertex
100
AcDb2dVertex
 10
90.4843993914414
 20
-134.1937038510002
 30
0.0
  0
VERTEX
  5
188
330
183
100
AcDbEntity
  8
_U+30EC_U+30A4_U+30E4_U+30FC 1
370
     0
100
AcDbVertex
100
AcDb2dVertex
 10
90.4843993914414
 20
-134.0541774838476
 30
0.0
  0
SEQEND
  5
189
330
183
100
AcDbEntity
  8
_U+30EC_U+30A4_U+30E4_U+30FC 1
370
     0
  0
SPLINE
  5
18A
330
131
100
AcDbEntity
  8
_U+30EC_U+30A4_U+30E4_U+30FC 1
370
     0
100
AcDbSpline
210
0.0
220
0.0
230
1.0
 70
    11
 71
     3
 72
    50
 73
    46
 74
     0
 42
0.0000000001
 43
0.0000000001
 12
1.0
 22
0.0
 32
0.0
 13
1.0
 23
0.0
 33
0.0
 40
0.0
 40
0.0
 40
0.0
 40
0.0
 40
1.0
 40
1.0
 40
1.0
 40
2.0
 40
2.0
 40
2.0
 40
3.0
 40
3.0
 40
3.0
 40
4.0
 40
4.0
 40
4.0
 40
5.0
 40
5.0
 40
5.0
 40
6.0
 40
6.0
 40
6.0
 40
7.0
 40
7.0
 40
7.0
 40
8.0
 40
8.0
 40
8.0
 40
9.0
 40
9.0
 40
9.0
 40
10.0
 40
10.0
 40
10.0
 40
11.0
 40
11.0
 40
11.0
 40
12.0
 40
12.0
 40
12.0
 40
13.0
 40
13.0
 40
13.0
 40
14.0
 40
14.0
 40
14.0
 40
15.0
 40
15.0
 40
15.0
 40
15.0
 10
90.14815807208102
 20
-132.9837863165804
 30
0.0
 10
90.14815807208102
 20
-132.9837863165804
 30
0.0
 10
90.88437497727891
 20
-132.9837863165804
 30
0.0
 10
90.88437497727891
 20
-132.9837863165804
 30
0.0
 10
90.88437497727891
 20
-132.9837863165804
 30
0.0
 10
90.88437497727891
 20
-133.1084987731465
 30
0.0
 10
90.88437497727891
 20
-133.1084987731465
 30
0.0
 10
90.88437497727891
 20
-133.1084987731465
 30
0.0
 10
90.55433482979197
 20
-133.1084987731465
 30
0.0
 10
90.55433482979197
 20
-133.1084987731465
 30
0.0
 10
90.55433482979197
 20
-133.1084987731465
 30
0.0
 10
90.55433482979197
 20
-133.3835896476437
 30
0.0
 10
90.55433482979197
 20
-133.3835896476437
 30
0.0
 10
90.55433482979197
 20
-133.3835896476437
 30
0.0
 10
90.39792749476163
 20
-133.3835896476437
 30
0.0
 10
90.39792749476163
 20
-133.3835896476437
 30
0.0
 10
90.39792749476163
 20
-133.3835896476437
 30
0.0
 10
90.39792749476163
 20
-133.1084987731465
 30
0.0
 10
90.39792749476163
 20
-133.1084987731465
 30
0.0
 10
90.39792749476163
 20
-133.1084987731465
 30
0.0
 10
90.13334416149445
 20
-133.1084987731465
 30
0.0
 10
90.13334416149445
 20
-133.1084987731465
 30
0.0
 10
90.1078504549036
 20
-133.2375175990691
 30
0.0
 10
90.05720755127042
 20
-133.3284681198797
 30
0.0
 10
89.96005585858637
 20
-133.4109781567514
 30
0.0
 10
89.96005585858637
 20
-133.4109781567514
 30
0.0
 10
89.83706594976296
 20
-133.3031466680631
 30
0.0
 10
89.83706594976296
 20
-133.3031466680631
 30
0.0
 10
89.97245820233327
 20
-133.1930758673094
 30
0.0
 10
89.99588485163298
 20
-133.0556165574479
 30
0.0
 10
89.99588485163298
 20
-132.981547004515
 30
0.0
 10
89.99588485163298
 20
-132.981547004515
 30
0.0
 10
89.99588485163298
 20
-132.7383232632564
 30
0.0
 10
89.99588485163298
 20
-132.7383232632564
 30
0.0
 10
90.46545136627253
 20
-132.7383232632564
 30
0.0
 10
90.63253849730715
 20
-132.6981879008532
 30
0.0
 10
90.77654348859059
 20
-132.6558132263847
 30
0.0
 10
90.77654348859059
 20
-132.6558132263847
 30
0.0
 10
90.83579913093689
 20
-132.7932725362461
 30
0.0
 10
90.83579913093689
 20
-132.7932725362461
 30
0.0
 10
90.56501462579625
 20
-132.8632079745967
 30
0.0
 10
90.2497883888959
 20
-132.867342089179
 30
0.0
 10
90.14815807208102
 20
-132.867342089179
 30
0.0
 10
90.14815807208102
 20
-132.867342089179
 30
0.0
 10
90.14815807208102
 20
-132.9837863165804
 30
0.0
 10
90.14815807208102
 20
-132.9837863165804
 30
0.0
  0
SPLINE
  5
18B
330
131
100
AcDbEntity
  8
_U+30EC_U+30A4_U+30E4_U+30FC 1
370
     0
100
AcDbSpline
210
0.0
220
0.0
230
1.0
 70
    11
 71
     3
 72
    17
 73
    13
 74
     0
 42
0.0000000001
 43
0.0000000001
 12
1.0
 22
0.0
 32
0.0
 13
1.0
 23
0.0
 33
0.0
 40
0.0
 40
0.0
 40
0.0
 40
0.0
 40
1.0
 40
1.0
 40
1.0
 40
2.0
 40
2.0
 40
2.0
 40
3.0
 40
3.0
 40
3.0
 40
4.0
 40
4.0
 40
4.0
 40
4.0
 10
90.26046818490016
 20
-134.3354695302182
 30
0.0
 10
90.4802652768591
 20
-134.4476073882631
 30
0.0
 10
90.74691566741744
 20
-134.4856756933751
 30
0.0
 10
90.87576223856578
 20
-134.4963554893794
 30
0.0
 10
90.87576223856578
 20
-134.4963554893794
 30
0.0
 10
90.80617130976374
 20
-134.6506957671186
 30
0.0
 10
90.80617130976374
 20
-134.6506957671186
 30
0.0
 10
90.68559296778
 20
-134.635881856532
 30
0.0
 10
90.42307669180396
 20
-134.5957464941289
 30
0.0
 10
90.1588378680853
 20
-134.4496744455543
 30
0.0
 10
90.1588378680853
 20
-134.4496744455543
 30
0.0
 10
90.26046818490016
 20
-134.3354695302182
 30
0.0
 10
90.26046818490016
 20
-134.3354695302182
 30
0.0
  0
HATCH
  5
18C
330
131
100
AcDbEntity
  8
_U+30EC_U+30A4_U+30E4_U+30FC 1
 62
    12
420
 15007761
100
AcDbHatch
 10
0.0
 20
0.0
 30
0.0
210
0.0
220
0.0
230
1.0
  2
SOLID
 70
     1
 71
     0
 91
        7
 92
        1
 93
        1
 72
     4
 94
        3
 73
     0
 74
     1
 95
       50
 96
       46
 40
0.0
 40
0.0
 40
0.0
 40
0.0
 40
1.0
 40
1.0
 40
1.0
 40
2.0
 40
2.0
 40
2.0
 40
3.0
 40
3.0
 40
3.0
 40
4.0
 40
4.0
 40
4.0
 40
5.0
 40
5.0
 40
5.0
 40
6.0
 40
6.0
 40
6.0
 40
7.0
 40
7.0
 40
7.0
 40
8.0
 40
8.0
 40
8.0
 40
9.0
 40
9.0
 40
9.0
 40
10.0
 40
10.0
 40
10.0
 40
11.0
 40
11.0
 40
11.0
 40
12.0
 40
12.0
 40
12.0
 40
13.0
 40
13.0
 40
13.0
 40
14.0
 40
14.0
 40
14.0
 40
15.0
 40
15.0
 40
15.0
 40
15.0
 10
89.24071992126622
 20
-132.9837863165804
 10
89.24071992126622
 20
-132.9837863165804
 10
89.89218747752696
 20
-132.9837863165804
 10
89.89218747752696
 20
-132.9837863165804
 10
89.89218747752696
 20
-132.9837863165804
 10
89.89218747752696
 20
-133.1084987731465
 10
89.89218747752696
 20
-133.1084987731465
 10
89.89218747752696
 20
-133.1084987731465
 10
89.61520180051286
 20
-133.1084987731465
 10
89.61520180051286
 20
-133.1084987731465
 10
89.61520180051286
 20
-133.1084987731465
 10
89.61520180051286
 20
-133.3835896476437
 10
89.61520180051286
 20
-133.3835896476437
 10
89.61520180051286
 20
-133.3835896476437
 10
89.4543158413517
 20
-133.3835896476437
 10
89.4543158413517
 20
-133.3835896476437
 10
89.4543158413517
 20
-133.3835896476437
 10
89.4543158413517
 20
-133.1084987731465
 10
89.4543158413517
 20
-133.1084987731465
 10
89.4543158413517
 20
-133.1084987731465
 10
89.23417423984424
 20
-133.1084987731465
 10
89.23417423984424
 20
-133.1084987731465
 10
89.2238389533885
 20
-133.1782619567228
 10
89.19834524679764
 20
-133.3729098516394
 10
89.04400496905845
 20
-133.5231160147963
 10
89.04400496905845
 20
-133.5231160147963
 10
88.92135956978355
 20
-133.4132174688168
 10
88.92135956978355
 20
-133.4132174688168
 10
89.04193791176729
 20
-133.3136542092931
 10
89.08396807668734
 20
-133.1084987731465
 10
89.08396807668734
 20
-133.0259887362748
 10
89.08396807668734
 20
-133.0259887362748
 10
89.08396807668734
 20
-132.7403903205476
 10
89.08396807668734
 20
-132.7403903205476
 10
89.568693011462
 20
-132.7403903205476
 10
89.7230332892012
 20
-132.6938815314967
 10
89.81811792459409
 20
-132.6663207676147
 10
89.81811792459409
 20
-132.6663207676147
 10
89.87117239506694
 20
-132.8060193895415
 10
89.87117239506694
 20
-132.8060193895415
 10
89.66171058956374
 20
-132.8545952358836
 10
89.49875757311142
 20
-132.8652750318878
 10
89.24071992126622
 20
-132.8694091464702
 10
89.24071992126622
 20
-132.8694091464702
 10
89.24071992126622
 20
-132.9837863165804
 10
89.24071992126622
 20
-132.9837863165804
 97
        0
 97
        0
 92
        1
 93
        1
 72
     4
 94
        3
 73
     0
 74
     1
 95
       32
 96
       28
 40
0.0
 40
0.0
 40
0.0
 40
0.0
 40
1.0
 40
1.0
 40
1.0
 40
2.0
 40
2.0
 40
2.0
 40
3.0
 40
3.0
 40
3.0
 40
4.0
 40
4.0
 40
4.0
 40
5.0
 40
5.0
 40
5.0
 40
6.0
 40
6.0
 40
6.0
 40
7.0
 40
7.0
 40
7.0
 40
8.0
 40
8.0
 40
8.0
 40
9.0
 40
9.0
 40
9.0
 40
9.0
 10
89.15597057232907
 20
-134.3290961035705
 10
89.15597057232907
 20
-134.3290961035705
 10
89.15597057232907
 20
-133.4300984366946
 10
89.15597057232907
 20
-133.4300984366946
 10
89.15597057232907
 20
-133.4300984366946
 10
90.6538980893157
 20
-133.4300984366946
 10
90.6538980893157
 20
-133.4300984366946
 10
90.6538980893157
 20
-133.4300984366946
 10
90.6538980893157
 20
-134.3290961035705
 10
90.6538980893157
 20
-134.3290961035705
 10
90.6538980893157
 20
-134.3290961035705
 10
89.5094373691157
 20
-134.3290961035705
 10
89.5094373691157
 20
-134.3290961035705
 10
89.5094373691157
 20
-134.3290961035705
 10
89.61520180051286
 20
-134.4391669043243
 10
89.61520180051286
 20
-134.4391669043243
 10
89.4501817267694
 20
-134.5344237944914
 10
89.28516165302594
 20
-134.5957464941289
 10
88.98888344129445
 20
-134.6465616525363
 10
88.98888344129445
 20
-134.6465616525363
 10
88.9234266270747
 20
-134.494116177314
 10
88.9234266270747
 20
-134.494116177314
 10
89.30204262090366
 20
-134.4412339616154
 10
89.42468802017855
 20
-134.3735378353302
 10
89.50495874498488
 20
-134.3290961035705
 10
89.50495874498488
 20
-134.3290961035705
 10
89.15597057232907
 20
-134.3290961035705
 10
89.15597057232907
 20
-134.3290961035705
 97
        0
 97
        0
 92
        1
 93
        4
 72
     1
 10
90.4843993914414
 20
-133.5634236319737
 11
89.32512476065483
 21
-133.5634236319737
 72
     1
 10
89.32512476065483
 20
-133.5634236319737
 11
89.32512476065483
 21
-133.6924424578963
 72
     1
 10
89.32512476065483
 20
-133.6924424578963
 11
90.4843993914414
 21
-133.6924424578963
 72
     1
 10
90.4843993914414
 20
-133.6924424578963
 11
90.4843993914414
 21
-133.5634236319737
 97
        0
 92
        1
 93
        4
 72
     1
 10
90.4843993914414
 20
-133.8023410038758
 11
89.32512476065483
 21
-133.8023410038758
 72
     1
 10
89.32512476065483
 20
-133.8023410038758
 11
89.32512476065483
 21
-133.9441066830938
 72
     1
 10
89.32512476065483
 20
-133.9441066830938
 11
90.4843993914414
 21
-133.9441066830938
 72
     1
 10
90.4843993914414
 20
-133.9441066830938
 11
90.4843993914414
 21
-133.8023410038758
 97
        0
 92
        1
 93
        4
 72
     1
 10
90.4843993914414
 20
-134.0541774838476
 11
89.32512476065483
 21
-134.0541774838476
 72
     1
 10
89.32512476065483
 20
-134.0541774838476
 11
89.32512476065483
 21
-134.1937038510002
 72
     1
 10
89.32512476065483
 20
-134.1937038510002
 11
90.4843993914414
 21
-134.1937038510002
 72
     1
 10
90.4843993914414
 20
-134.1937038510002
 11
90.4843993914414
 21
-134.0541774838476
 97
        0
 92
        1
 93
        1
 72
     4
 94
        3
 73
     0
 74
     1
 95
       50
 96
       46
 40
0.0
 40
0.0
 40
0.0
 40
0.0
 40
1.0
 40
1.0
 40
1.0
 40
2.0
 40
2.0
 40
2.0
 40
3.0
 40
3.0
 40
3.0
 40
4.0
 40
4.0
 40
4.0
 40
5.0
 40
5.0
 40
5.0
 40
6.0
 40
6.0
 40
6.0
 40
7.0
 40
7.0
 40
7.0
 40
8.0
 40
8.0
 40
8.0
 40
9.0
 40
9.0
 40
9.0
 40
10.0
 40
10.0
 40
10.0
 40
11.0
 40
11.0
 40
11.0
 40
12.0
 40
12.0
 40
12.0
 40
13.0
 40
13.0
 40
13.0
 40
14.0
 40
14.0
 40
14.0
 40
15.0
 40
15.0
 40
15.0
 40
15.0
 10
90.14815807208102
 20
-132.9837863165804
 10
90.14815807208102
 20
-132.9837863165804
 10
90.88437497727891
 20
-132.9837863165804
 10
90.88437497727891
 20
-132.9837863165804
 10
90.88437497727891
 20
-132.9837863165804
 10
90.88437497727891
 20
-133.1084987731465
 10
90.88437497727891
 20
-133.1084987731465
 10
90.88437497727891
 20
-133.1084987731465
 10
90.55433482979197
 20
-133.1084987731465
 10
90.55433482979197
 20
-133.1084987731465
 10
90.55433482979197
 20
-133.1084987731465
 10
90.55433482979197
 20
-133.3835896476437
 10
90.55433482979197
 20
-133.3835896476437
 10
90.55433482979197
 20
-133.3835896476437
 10
90.39792749476163
 20
-133.3835896476437
 10
90.39792749476163
 20
-133.3835896476437
 10
90.39792749476163
 20
-133.3835896476437
 10
90.39792749476163
 20
-133.1084987731465
 10
90.39792749476163
 20
-133.1084987731465
 10
90.39792749476163
 20
-133.1084987731465
 10
90.13334416149445
 20
-133.1084987731465
 10
90.13334416149445
 20
-133.1084987731465
 10
90.1078504549036
 20
-133.2375175990691
 10
90.05720755127042
 20
-133.3284681198797
 10
89.96005585858637
 20
-133.4109781567514
 10
89.96005585858637
 20
-133.4109781567514
 10
89.83706594976296
 20
-133.3031466680631
 10
89.83706594976296
 20
-133.3031466680631
 10
89.97245820233327
 20
-133.1930758673094
 10
89.99588485163298
 20
-133.0556165574479
 10
89.99588485163298
 20
-132.981547004515
 10
89.99588485163298
 20
-132.981547004515
 10
89.99588485163298
 20
-132.7383232632564
 10
89.99588485163298
 20
-132.7383232632564
 10
90.46545136627253
 20
-132.7383232632564
 10
90.63253849730715
 20
-132.6981879008532
 10
90.77654348859059
 20
-132.6558132263847
 10
90.77654348859059
 20
-132.6558132263847
 10
90.83579913093689
 20
-132.7932725362461
 10
90.83579913093689
 20
-132.7932725362461
 10
90.56501462579625
 20
-132.8632079745967
 10
90.2497883888959
 20
-132.867342089179
 10
90.14815807208102
 20
-132.867342089179
 10
90.14815807208102
 20
-132.867342089179
 10
90.14815807208102
 20
-132.9837863165804
 10
90.14815807208102
 20
-132.9837863165804
 97
        0
 97
        0
 92
        1
 93
        1
 72
     4
 94
        3
 73
     0
 74
     1
 95
       17
 96
       13
 40
0.0
 40
0.0
 40
0.0
 40
0.0
 40
1.0
 40
1.0
 40
1.0
 40
2.0
 40
2.0
 40
2.0
 40
3.0
 40
3.0
 40
3.0
 40
4.0
 40
4.0
 40
4.0
 40
4.0
 10
90.26046818490016
 20
-134.3354695302182
 10
90.4802652768591
 20
-134.4476073882631
 10
90.74691566741744
 20
-134.4856756933751
 10
90.87576223856578
 20
-134.4963554893794
 10
90.87576223856578
 20
-134.4963554893794
 10
90.80617130976374
 20
-134.6506957671186
 10
90.80617130976374
 20
-134.6506957671186
 10
90.68559296778
 20
-134.635881856532
 10
90.42307669180396
 20
-134.5957464941289
 10
90.1588378680853
 20
-134.4496744455543
 10
90.1588378680853
 20
-134.4496744455543
 10
90.26046818490016
 20
-134.3354695302182
 10
90.26046818490016
 20
-134.3354695302182
 97
        0
 97
        0
 75
     2
 76
     1
 98
        0
  0
ENDBLK
  5
134
330
131
100
AcDbEntity
  8
0
100
AcDbBlockEnd
  0
ENDSEC
  0
SECTION
  2
ENTITIES
  0
SPLINE
  5
41
330
1F
100
AcDbEntity
  8
_U+30EC_U+30A4_U+30E4_U+30FC 1
 62
   179
420
  2234388
370
     9
100
AcDbSpline
210
0.0
220
0.0
230
1.0
 70
    11
 71
     3
 72
    17
 73
    13
 74
     0
 42
0.0000000001
 43
0.0000000001
 12
1.0
 22
0.0
 32
0.0
 13
1.0
 23
0.0
 33
0.0
 40
0.0
 40
0.0
 40
0.0
 40
0.0
 40
1.0
 40
1.0
 40
1.0
 40
2.0
 40
2.0
 40
2.0
 40
3.0
 40
3.0
 40
3.0
 40
4.0
 40
4.0
 40
4.0
 40
4.0
 10
95.77722877651175
 20
-163.6404206608586
 30
0.0
 10
95.77722877651175
 20
-163.6954560612354
 30
0.0
 10
95.82202578374307
 20
-163.7402638343905
 30
0.0
 10
95.87706118411994
 20
-163.7402638343905
 30
0.0
 10
95.9320965844968
 20
-163.7402638343905
 30
0.0
 10
95.97689359172844
 20
-163.6954560612354
 30
0.0
 10
95.97689359172844
 20
-163.6404206608586
 30
0.0
 10
95.97689359172844
 20
-163.5854067923285
 30
0.0
 10
95.9320965844968
 20
-163.5405990191734
 30
0.0
 10
95.87706118411994
 20
-163.5405990191734
 30
0.0
 10
95.82202578374307
 20
-163.5405990191734
 30
0.0
 10
95.77722877651175
 20
-163.5854067923285
 30
0.0
 10
95.77722877651175
 20
-163.6404206608586
 30
0.0
  0
SPLINE
  5
42
330
1F
100
AcDbEntity
  8
_U+30EC_U+30A4_U+30E4_U+30FC 1
 62
   179
420
  2234388
370
     9
100
AcDbSpline
210
0.0
220
0.0
230
1.0
 70
    11
 71
     3
 72
    17
 73
    13
 74
     0
 42
0.0000000001
 43
0.0000000001
 12
1.0
 22
0.0
 32
0.0
 13
1.0
 23
0.0
 33
0.0
 40
0.0
 40
0.0
 40
0.0
 40
0.0
 40
1.0
 40
1.0
 40
1.0
 40
2.0
 40
2.0
 40
2.0
 40
3.0
 40
3.0
 40
3.0
 40
4.0
 40
4.0
 40
4.0
 40
4.0
 10
89.77725047940064
 20
-163.6404206608586
 30
0.0
 10
89.77725047940064
 20
-163.6954560612354
 30
0.0
 10
89.82204748663194
 20
-163.7402638343905
 30
0.0
 10
89.87708288700881
 20
-163.7402638343905
 30
0.0
 10
89.93281807240612
 20
-163.7402638343905
 30
0.0
 10
89.97762584556115
 20
-163.6954560612354
 30
0.0
 10
89.97762584556115
 20
-163.6404206608586
 30
0.0
 10
89.97762584556115
 20
-163.5854067923285
 30
0.0
 10
89.93281807240612
 20
-163.5405990191734
 30
0.0
 10
89.87708288700881
 20
-163.5405990191734
 30
0.0
 10
89.82204748663194
 20
-163.5405990191734
 30
0.0
 10
89.77725047940064
 20
-163.5854067923285
 30
0.0
 10
89.77725047940064
 20
-163.6404206608586
 30
0.0
  0
POLYLINE
  5
43
330
1F
100
AcDbEntity
  8
_U+30EC_U+30A4_U+30E4_U+30FC 1
 62
   179
420
  2234388
370
     9
100
AcDb2dPolyline
 66
     1
 10
0.0
 20
0.0
 30
0.0
  0
VERTEX
  5
44
330
43
100
AcDbEntity
  8
_U+30EC_U+30A4_U+30E4_U+30FC 1
 62
   179
420
  2234388
370
     9
100
AcDbVertex
100
AcDb2dVertex
 10
89.87715824847288
 20
-145.9846292766549
 30
0.0
  0
VERTEX
  5
45
330
43
100
AcDbEntity
  8
_U+30EC_U+30A4_U+30E4_U+30FC 1
 62
   179
420
  2234388
370
     9
100
AcDbVertex
100
AcDb2dVertex
 10
89.87715824847288
 20
-164.640596475767
 30
0.0
  0
SEQEND
  5
46
330
43
100
AcDbEntity
  8
_U+30EC_U+30A4_U+30E4_U+30FC 1
 62
   179
420
  2234388
370
     9
  0
POLYLINE
  5
47
330
1F
100
AcDbEntity
  8
_U+30EC_U+30A4_U+30E4_U+30FC 1
 62
   179
420
  2234388
370
     9
100
AcDb2dPolyline
 66
     1
 10
0.0
 20
0.0
 30
0.0
  0
VERTEX
  5
48
330
47
100
AcDbEntity
  8
_U+30EC_U+30A4_U+30E4_U+30FC 1
 62
   179
420
  2234388
370
     9
100
AcDbVertex
100
AcDb2dVertex
 10
89.87715824847288
 20
-163.6404206608586
 30
0.0
  0
VERTEX
  5
49
330
47
100
AcDbEntity
  8
_U+30EC_U+30A4_U+30E4_U+30FC 1
 62
   179
420
  2234388
370
     9
100
AcDbVertex
100
AcDb2dVertex
 10
95.87720114112402
 20
-163.6404206608586
 30
0.0
  0
SEQEND
  5
4A
330
47
100
AcDbEntity
  8
_U+30EC_U+30A4_U+30E4_U+30FC 1
 62
   179
420
  2234388
370
     9
  0
POLYLINE
  5
4B
330
1F
100
AcDbEntity
  8
_U+30EC_U+30A4_U+30E4_U+30FC 1
 62
   179
420
  2234388
370
     9
100
AcDb2dPolyline
 66
     1
 10
0.0
 20
0.0
 30
0.0
  0
VERTEX
  5
4C
330
4B
100
AcDbEntity
  8
_U+30EC_U+30A4_U+30E4_U+30FC 1
 62
   179
420
  2234388
370
     9
100
AcDbVertex
100
AcDb2dVertex
 10
95.877136545584
 20
-145.9846292766549
 30
0.0
  0
VERTEX
  5
4D
330
4B
100
AcDbEntity
  8
_U+30EC_U+30A4_U+30E4_U+30FC 1
 62
   179
420
  2234388
370
     9
100
AcDbVertex
100
AcDb2dVertex
 10
95.877136545584
 20
-164.640596475767
 30
0.0
  0
SEQEND
  5
4E
330
4B
100
AcDbEntity
  8
_U+30EC_U+30A4_U+30E4_U+30FC 1
 62
   179
420
  2234388
370
     9
  0
INSERT
  5
50
330
1F
100
AcDbEntity
  8
_U+30EC_U+30A4_U+30E4_U+30FC 1
100
AcDbBlockReference
  2
block 2
 10
0.0
 20
0.0
 30
0.0
  0
POLYLINE
  5
56
330
1F
100
AcDbEntity
  8
_U+30EC_U+30A4_U+30E4_U+30FC 1
 62
   179
420
  2234388
370
    25
100
AcDb2dPolyline
 66
     1
 10
0.0
 20
0.0
 30
0.0
  0
VERTEX
  5
57
330
56
100
AcDbEntity
  8
_U+30EC_U+30A4_U+30E4_U+30FC 1
 62
   179
420
  2234388
370
    25
100
AcDbVertex
100
AcDb2dVertex
 10
90.07492826117267
 20
-138.5902701137357
 30
0.0
  0
VERTEX
  5
58
330
56
100
AcDbEntity
  8
_U+30EC_U+30A4_U+30E4_U+30FC 1
 62
   179
420
  2234388
370
    25
100
AcDbVertex
100
AcDb2dVertex
 10
89.8621936149585
 20
-139.0742844975665
 30
0.0
  0
VERTEX
  5
59
330
56
100
AcDbEntity
  8
_U+30EC_U+30A4_U+30E4_U+30FC 1
 62
   179
420
  2234388
370
    25
100
AcDbVertex
100
AcDb2dVertex
 10
90.04952068196896
 20
-139.5685265086195
 30
0.0
  0
VERTEX
  5
5A
330
56
100
AcDbEntity
  8
_U+30EC_U+30A4_U+30E4_U+30FC 1
 62
   179
420
  2234388
370
    25
100
AcDbVertex
100
AcDb2dVertex
 10
89.8371520771501
 20
-140.0532514433941
 30
0.0
  0
VERTEX
  5
5B
330
56
100
AcDbEntity
  8
_U+30EC_U+30A4_U+30E4_U+30FC 1
 62
   179
420
  2234388
370
    25
100
AcDbVertex
100
AcDb2dVertex
 10
90.02376859321672
 20
-140.5485485149388
 30
0.0
  0
VERTEX
  5
5C
330
56
100
AcDbEntity
  8
_U+30EC_U+30A4_U+30E4_U+30FC 1
 62
   179
420
  2234388
370
    25
100
AcDbVertex
100
AcDb2dVertex
 10
89.81175526386977
 20
-141.0329074083182
 30
0.0
  0
VERTEX
  5
5D
330
56
100
AcDbEntity
  8
_U+30EC_U+30A4_U+30E4_U+30FC 1
 62
   179
420
  2234388
370
    25
100
AcDbVertex
100
AcDb2dVertex
 10
89.99837177993639
 20
-141.5275154607661
 30
0.0
  0
VERTEX
  5
5E
330
56
100
AcDbEntity
  8
_U+30EC_U+30A4_U+30E4_U+30FC 1
 62
   179
420
  2234388
370
    25
100
AcDbVertex
100
AcDb2dVertex
 10
89.78634768466604
 20
-142.0118743541458
 30
0.0
  0
VERTEX
  5
5F
330
56
100
AcDbEntity
  8
_U+30EC_U+30A4_U+30E4_U+30FC 1
 62
   179
420
  2234388
370
    25
100
AcDbVertex
100
AcDb2dVertex
 10
89.9733194762046
 20
-142.5064608747467
 30
0.0
  0
VERTEX
  5
60
330
56
100
AcDbEntity
  8
_U+30EC_U+30A4_U+30E4_U+30FC 1
 62
   179
420
  2234388
370
    25
100
AcDbVertex
100
AcDb2dVertex
 10
89.7605955959138
 20
-142.9904752585775
 30
0.0
  0
VERTEX
  5
61
330
56
100
AcDbEntity
  8
_U+30EC_U+30A4_U+30E4_U+30FC 1
 62
   179
420
  2234388
370
    25
100
AcDbVertex
100
AcDb2dVertex
 10
89.94792266292427
 20
-143.4850617791787
 30
0.0
  0
VERTEX
  5
62
330
56
100
AcDbEntity
  8
_U+30EC_U+30A4_U+30E4_U+30FC 1
 62
   179
420
  2234388
370
    25
100
AcDbVertex
100
AcDb2dVertex
 10
89.73519878263347
 20
-143.9701312235018
 30
0.0
  0
VERTEX
  5
63
330
56
100
AcDbEntity
  8
_U+30EC_U+30A4_U+30E4_U+30FC 1
 62
   179
420
  2234388
370
    25
100
AcDbVertex
100
AcDb2dVertex
 10
89.92217057417203
 20
-144.4650837854983
 30
0.0
  0
VERTEX
  5
64
330
56
100
AcDbEntity
  8
_U+30EC_U+30A4_U+30E4_U+30FC 1
 62
   179
420
  2234388
370
    25
100
AcDbVertex
100
AcDb2dVertex
 10
89.70980196935315
 20
-144.9494426788777
 30
0.0
  0
VERTEX
  5
65
330
56
100
AcDbEntity
  8
_U+30EC_U+30A4_U+30E4_U+30FC 1
 62
   179
420
  2234388
370
    25
100
AcDbVertex
100
AcDb2dVertex
 10
89.89711827044022
 20
-145.4443952408745
 30
0.0
  0
VERTEX
  5
66
330
56
100
AcDbEntity
  8
_U+30EC_U+30A4_U+30E4_U+30FC 1
 62
   179
420
  2234388
370
    25
100
AcDbVertex
100
AcDb2dVertex
 10
89.68439439014944
 20
-145.9287541342535
 30
0.0
  0
VERTEX
  5
67
330
56
100
AcDbEntity
  8
_U+30EC_U+30A4_U+30E4_U+30FC 1
 62
   179
420
  2234388
370
    25
100
AcDbVertex
100
AcDb2dVertex
 10
89.8717214571599
 20
-146.4219410848141
 30
0.0
  0
VERTEX
  5
68
330
56
100
AcDbEntity
  8
_U+30EC_U+30A4_U+30E4_U+30FC 1
 62
   179
420
  2234388
370
    25
100
AcDbVertex
100
AcDb2dVertex
 10
89.65899757686942
 20
-146.9041898572084
 30
0.0
  0
VERTEX
  5
69
330
56
100
AcDbEntity
  8
_U+30EC_U+30A4_U+30E4_U+30FC 1
 62
   179
420
  2234388
370
    25
100
AcDbVertex
100
AcDb2dVertex
 10
89.8463246438799
 20
-147.3973768077687
 30
0.0
  0
VERTEX
  5
6A
330
56
100
AcDbEntity
  8
_U+30EC_U+30A4_U+30E4_U+30FC 1
 62
   179
420
  2234388
370
    25
100
AcDbVertex
100
AcDb2dVertex
 10
89.6339560390607
 20
-147.880680640656
 30
0.0
  0
VERTEX
  5
6B
330
56
100
AcDbEntity
  8
_U+30EC_U+30A4_U+30E4_U+30FC 1
 62
   179
420
  2234388
370
    25
100
AcDbVertex
100
AcDb2dVertex
 10
89.82057255512764
 20
-148.3745781421598
 30
0.0
  0
VERTEX
  5
6C
330
56
100
AcDbEntity
  8
_U+30EC_U+30A4_U+30E4_U+30FC 1
 62
   179
420
  2234388
370
    25
100
AcDbVertex
100
AcDb2dVertex
 10
89.60854845985698
 20
-148.8589370355392
 30
0.0
  0
VERTEX
  5
6D
330
56
100
AcDbEntity
  8
_U+30EC_U+30A4_U+30E4_U+30FC 1
 62
   179
420
  2234388
370
    25
100
AcDbVertex
100
AcDb2dVertex
 10
89.79516497592392
 20
-149.354944658028
 30
0.0
  0
VERTEX
  5
6E
330
56
100
AcDbEntity
  8
_U+30EC_U+30A4_U+30E4_U+30FC 1
 62
   179
420
  2234388
370
    25
100
AcDbVertex
100
AcDb2dVertex
 10
89.58279637110473
 20
-149.8393035514074
 30
0.0
  0
VERTEX
  5
6F
330
56
100
AcDbEntity
  8
_U+30EC_U+30A4_U+30E4_U+30FC 1
 62
   179
420
  2234388
370
    25
100
AcDbVertex
100
AcDb2dVertex
 10
89.76976816264329
 20
-150.33354556246
 30
0.0
  0
VERTEX
  5
70
330
56
100
AcDbEntity
  8
_U+30EC_U+30A4_U+30E4_U+30FC 1
 62
   179
420
  2234388
370
    25
100
AcDbVertex
100
AcDb2dVertex
 10
89.55739955782441
 20
-150.8172154367423
 30
0.0
  0
VERTEX
  5
71
330
56
100
AcDbEntity
  8
_U+30EC_U+30A4_U+30E4_U+30FC 1
 62
   179
420
  2234388
370
    25
100
AcDbVertex
100
AcDb2dVertex
 10
89.74437134936295
 20
-151.311457447795
 30
0.0
  0
VERTEX
  5
72
330
56
100
AcDbEntity
  8
_U+30EC_U+30A4_U+30E4_U+30FC 1
 62
   179
420
  2234388
370
    25
100
AcDbVertex
100
AcDb2dVertex
 10
89.53200274454409
 20
-151.7958163411743
 30
0.0
  0
VERTEX
  5
73
330
56
100
AcDbEntity
  8
_U+30EC_U+30A4_U+30E4_U+30FC 1
 62
   179
420
  2234388
370
    25
100
AcDbVertex
100
AcDb2dVertex
 10
89.71897453608263
 20
-152.290747371324
 30
0.0
  0
VERTEX
  5
74
330
56
100
AcDbEntity
  8
_U+30EC_U+30A4_U+30E4_U+30FC 1
 62
   179
420
  2234388
370
    25
100
AcDbVertex
100
AcDb2dVertex
 10
89.50659516534037
 20
-152.7761828570425
 30
0.0
  0
VERTEX
  5
75
330
56
100
AcDbEntity
  8
_U+30EC_U+30A4_U+30E4_U+30FC 1
 62
   179
420
  2234388
370
    25
100
AcDbVertex
100
AcDb2dVertex
 10
89.69392223235083
 20
-153.2714799285875
 30
0.0
  0
VERTEX
  5
76
330
56
100
AcDbEntity
  8
_U+30EC_U+30A4_U+30E4_U+30FC 1
 62
   179
420
  2234388
370
    25
100
AcDbVertex
100
AcDb2dVertex
 10
89.48084307658813
 20
-153.7558388219669
 30
0.0
  0
VERTEX
  5
77
330
56
100
AcDbEntity
  8
_U+30EC_U+30A4_U+30E4_U+30FC 1
 62
   179
420
  2234388
370
    25
100
AcDbVertex
100
AcDb2dVertex
 10
89.6685254190705
 20
-154.2507913839634
 30
0.0
  0
VERTEX
  5
78
330
56
100
AcDbEntity
  8
_U+30EC_U+30A4_U+30E4_U+30FC 1
 62
   179
420
  2234388
370
    25
100
AcDbVertex
100
AcDb2dVertex
 10
89.4554462633078
 20
-154.7365713792304
 30
0.0
  0
VERTEX
  5
79
330
56
100
AcDbEntity
  8
_U+30EC_U+30A4_U+30E4_U+30FC 1
 62
   179
420
  2234388
370
    25
100
AcDbVertex
100
AcDb2dVertex
 10
89.64277333031826
 20
-155.2318684507754
 30
0.0
  0
VERTEX
  5
7A
330
56
100
AcDbEntity
  8
_U+30EC_U+30A4_U+30E4_U+30FC 1
 62
   179
420
  2234388
370
    25
100
AcDbVertex
100
AcDb2dVertex
 10
89.43004945002747
 20
-155.7169378950985
 30
0.0
  0
VERTEX
  5
7B
330
56
100
AcDbEntity
  8
_U+30EC_U+30A4_U+30E4_U+30FC 1
 62
   179
420
  2234388
370
    25
100
AcDbVertex
100
AcDb2dVertex
 10
89.61736575111455
 20
-156.2125794761921
 30
0.0
  0
VERTEX
  5
7C
330
56
100
AcDbEntity
  8
_U+30EC_U+30A4_U+30E4_U+30FC 1
 62
   179
420
  2234388
370
    25
100
AcDbVertex
100
AcDb2dVertex
 10
89.40464187082375
 20
-156.6983594714591
 30
0.0
  0
VERTEX
  5
7D
330
56
100
AcDbEntity
  8
_U+30EC_U+30A4_U+30E4_U+30FC 1
 62
   179
420
  2234388
370
    25
100
AcDbVertex
100
AcDb2dVertex
 10
89.59196893783421
 20
-157.1940225843994
 30
0.0
  0
VERTEX
  5
7E
330
56
100
AcDbEntity
  8
_U+30EC_U+30A4_U+30E4_U+30FC 1
 62
   179
420
  2234388
370
    25
100
AcDbVertex
100
AcDb2dVertex
 10
89.37888978207151
 20
-157.6797810478196
 30
0.0
  0
VERTEX
  5
7F
330
56
100
AcDbEntity
  8
_U+30EC_U+30A4_U+30E4_U+30FC 1
 62
   179
420
  2234388
370
    25
100
AcDbVertex
100
AcDb2dVertex
 10
89.56657212455389
 20
-158.1757886703085
 30
0.0
  0
VERTEX
  5
80
330
56
100
AcDbEntity
  8
_U+30EC_U+30A4_U+30E4_U+30FC 1
 62
   179
420
  2234388
370
    25
100
AcDbVertex
100
AcDb2dVertex
 10
89.35349296879119
 20
-158.6615686655755
 30
0.0
  0
VERTEX
  5
81
330
56
100
AcDbEntity
  8
_U+30EC_U+30A4_U+30E4_U+30FC 1
 62
   179
420
  2234388
370
    25
100
AcDbVertex
100
AcDb2dVertex
 10
89.54082003580164
 20
-159.156521227572
 30
0.0
  0
VERTEX
  5
82
330
56
100
AcDbEntity
  8
_U+30EC_U+30A4_U+30E4_U+30FC 1
 62
   179
420
  2234388
370
    25
100
AcDbVertex
100
AcDb2dVertex
 10
89.32809615551118
 20
-159.6412461623466
 30
0.0
  0
VERTEX
  5
83
330
56
100
AcDbEntity
  8
_U+30EC_U+30A4_U+30E4_U+30FC 1
 62
   179
420
  2234388
370
    25
100
AcDbVertex
100
AcDb2dVertex
 10
89.51541245659793
 20
-160.1379428039325
 30
0.0
  0
VERTEX
  5
84
330
56
100
AcDbEntity
  8
_U+30EC_U+30A4_U+30E4_U+30FC 1
 62
   179
420
  2234388
370
    25
100
AcDbVertex
100
AcDb2dVertex
 10
89.30268857630746
 20
-160.6237227991996
 30
0.0
  0
VERTEX
  5
85
330
56
100
AcDbEntity
  8
_U+30EC_U+30A4_U+30E4_U+30FC 1
 62
   179
420
  2234388
370
    25
100
AcDbVertex
100
AcDb2dVertex
 10
89.49001564331793
 20
-161.1200749312369
 30
0.0
  0
VERTEX
  5
86
330
56
100
AcDbEntity
  8
_U+30EC_U+30A4_U+30E4_U+30FC 1
 62
   179
420
  2234388
370
    25
100
AcDbVertex
100
AcDb2dVertex
 10
89.27693648755522
 20
-161.6065654774478
 30
0.0
  0
VERTEX
  5
87
330
56
100
AcDbEntity
  8
_U+30EC_U+30A4_U+30E4_U+30FC 1
 62
   179
420
  2234388
370
    25
100
AcDbVertex
100
AcDb2dVertex
 10
89.46461883003728
 20
-162.1029176094851
 30
0.0
  0
VERTEX
  5
88
330
56
100
AcDbEntity
  8
_U+30EC_U+30A4_U+30E4_U+30FC 1
 62
   179
420
  2234388
370
    25
100
AcDbVertex
100
AcDb2dVertex
 10
89.25153967427458
 20
-162.590097174793
 30
0.0
  0
VERTEX
  5
89
330
56
100
AcDbEntity
  8
_U+30EC_U+30A4_U+30E4_U+30FC 1
 62
   179
420
  2234388
370
    25
100
AcDbVertex
100
AcDb2dVertex
 10
89.43851146581343
 20
-163.0885809596619
 30
0.0
  0
VERTEX
  5
8A
330
56
100
AcDbEntity
  8
_U+30EC_U+30A4_U+30E4_U+30FC 1
 62
   179
420
  2234388
370
    25
100
AcDbVertex
100
AcDb2dVertex
 10
89.22614286099424
 20
-163.5764710759136
 30
0.0
  0
SEQEND
  5
8B
330
56
100
AcDbEntity
  8
_U+30EC_U+30A4_U+30E4_U+30FC 1
 62
   179
420
  2234388
370
    25
  0
POLYLINE
  5
8C
330
1F
100
AcDbEntity
  8
_U+30EC_U+30A4_U+30E4_U+30FC 1
 62
   179
420
  2234388
370
    25
100
AcDb2dPolyline
 66
     1
 10
0.0
 20
0.0
 30
0.0
  0
VERTEX
  5
8D
330
8C
100
AcDbEntity
  8
_U+30EC_U+30A4_U+30E4_U+30FC 1
 62
   179
420
  2234388
370
    25
100
AcDbVertex
100
AcDb2dVertex
 10
89.3259429708329
 20
-163.5790333656808
 30
0.0
  0
VERTEX
  5
8E
330
8C
100
AcDbEntity
  8
_U+30EC_U+30A4_U+30E4_U+30FC 1
 62
   179
420
  2234388
370
    25
100
AcDbVertex
100
AcDb2dVertex
 10
88.92553674805974
 20
-163.5684612289104
 30
0.0
  0
SEQEND
  5
8F
330
8C
100
AcDbEntity
  8
_U+30EC_U+30A4_U+30E4_U+30FC 1
 62
   179
420
  2234388
370
    25
  0
POLYLINE
  5
90
330
1F
100
AcDbEntity
  8
_U+30EC_U+30A4_U+30E4_U+30FC 1
 62
   179
420
  2234388
370
    25
100
AcDb2dPolyline
 66
     1
 10
0.0
 20
0.0
 30
0.0
  0
VERTEX
  5
91
330
90
100
AcDbEntity
  8
_U+30EC_U+30A4_U+30E4_U+30FC 1
 62
   179
420
  2234388
370
    25
100
AcDbVertex
100
AcDb2dVertex
 10
88.92564440729333
 20
-163.5684181652169
 30
0.0
  0
VERTEX
  5
92
330
90
100
AcDbEntity
  8
_U+30EC_U+30A4_U+30E4_U+30FC 1
 62
   179
420
  2234388
370
    25
100
AcDbVertex
100
AcDb2dVertex
 10
88.98032453219828
 20
-137.5683471335767
 30
0.0
  0
SEQEND
  5
93
330
90
100
AcDbEntity
  8
_U+30EC_U+30A4_U+30E4_U+30FC 1
 62
   179
420
  2234388
370
    25
  0
POLYLINE
  5
94
330
1F
100
AcDbEntity
  8
_U+30EC_U+30A4_U+30E4_U+30FC 1
 62
   179
420
  2234388
370
    25
100
AcDb2dPolyline
 66
     1
 10
0.0
 20
0.0
 30
0.0
  0
VERTEX
  5
95
330
94
100
AcDbEntity
  8
_U+30EC_U+30A4_U+30E4_U+30FC 1
 62
   179
420
  2234388
370
    25
100
AcDbVertex
100
AcDb2dVertex
 10
95.9973596120955
 20
-144.727470870394
 30
0.0
  0
VERTEX
  5
96
330
94
100
AcDbEntity
  8
_U+30EC_U+30A4_U+30E4_U+30FC 1
 62
   179
420
  2234388
370
    25
100
AcDbVertex
100
AcDb2dVertex
 10
96.53040201105078
 20
-144.9144534278559
 30
0.0
  0
VERTEX
  5
97
330
94
100
AcDbEntity
  8
_U+30EC_U+30A4_U+30E4_U+30FC 1
 62
   179
420
  2234388
370
    25
100
AcDbVertex
100
AcDb2dVertex
 10
97.05392733372805
 20
-144.7020848230367
 30
0.0
  0
VERTEX
  5
98
330
94
100
AcDbEntity
  8
_U+30EC_U+30A4_U+30E4_U+30FC 1
 62
   179
420
  2234388
370
    25
100
AcDbVertex
100
AcDb2dVertex
 10
97.58802479317569
 20
-144.8890458486522
 30
0.0
  0
VERTEX
  5
99
330
94
100
AcDbEntity
  8
_U+30EC_U+30A4_U+30E4_U+30FC 1
 62
   179
420
  2234388
370
    25
100
AcDbVertex
100
AcDb2dVertex
 10
98.11226066679681
 20
-144.676677243833
 30
0.0
  0
VERTEX
  5
9A
330
94
100
AcDbEntity
  8
_U+30EC_U+30A4_U+30E4_U+30FC 1
 62
   179
420
  2234388
370
    25
100
AcDbVertex
100
AcDb2dVertex
 10
98.64601361669592
 20
-144.8636598012949
 30
0.0
  0
VERTEX
  5
9B
330
94
100
AcDbEntity
  8
_U+30EC_U+30A4_U+30E4_U+30FC 1
 62
   179
420
  2234388
370
    25
100
AcDbVertex
100
AcDb2dVertex
 10
99.16988344892172
 20
-144.6512911964761
 30
0.0
  0
VERTEX
  5
9C
330
94
100
AcDbEntity
  8
_U+30EC_U+30A4_U+30E4_U+30FC 1
 62
   179
420
  2234388
370
    25
100
AcDbVertex
100
AcDb2dVertex
 10
99.70328112334893
 20
-144.8382522220912
 30
0.0
  0
VERTEX
  5
9D
330
94
100
AcDbEntity
  8
_U+30EC_U+30A4_U+30E4_U+30FC 1
 62
   179
420
  2234388
370
    25
100
AcDbVertex
100
AcDb2dVertex
 10
100.2268064460262
 20
-144.6258836172724
 30
0.0
  0
VERTEX
  5
9E
330
94
100
AcDbEntity
  8
_U+30EC_U+30A4_U+30E4_U+30FC 1
 62
   179
420
  2234388
370
    25
100
AcDbVertex
100
AcDb2dVertex
 10
100.7602041204534
 20
-144.8128446428875
 30
0.0
  0
VERTEX
  5
9F
330
94
100
AcDbEntity
  8
_U+30EC_U+30A4_U+30E4_U+30FC 1
 62
   179
420
  2234388
370
    25
100
AcDbVertex
100
AcDb2dVertex
 10
101.2837294431307
 20
-144.6004760380686
 30
0.0
  0
VERTEX
  5
A0
330
94
100
AcDbEntity
  8
_U+30EC_U+30A4_U+30E4_U+30FC 1
 62
   179
420
  2234388
370
    25
100
AcDbVertex
100
AcDb2dVertex
 10
101.8178376685017
 20
-144.7874585955306
 30
0.0
  0
VERTEX
  5
A1
330
94
100
AcDbEntity
  8
_U+30EC_U+30A4_U+30E4_U+30FC 1
 62
   179
420
  2234388
370
    25
100
AcDbVertex
100
AcDb2dVertex
 10
102.3420627761994
 20
-144.5747239493164
 30
0.0
  0
VERTEX
  5
A2
330
94
100
AcDbEntity
  8
_U+30EC_U+30A4_U+30E4_U+30FC 1
 62
   179
420
  2234388
370
    25
100
AcDbVertex
100
AcDb2dVertex
 10
102.8761710015705
 20
-144.7620510163269
 30
0.0
  0
VERTEX
  5
A3
330
94
100
AcDbEntity
  8
_U+30EC_U+30A4_U+30E4_U+30FC 1
 62
   179
420
  2234388
370
    25
100
AcDbVertex
100
AcDb2dVertex
 10
103.3996855583244
 20
-144.549682411508
 30
0.0
  0
VERTEX
  5
A4
330
94
100
AcDbEntity
  8
_U+30EC_U+30A4_U+30E4_U+30FC 1
 62
   179
420
  2234388
370
    25
100
AcDbVertex
100
AcDb2dVertex
 10
103.9334385082235
 20
-144.7366434371231
 30
0.0
  0
VERTEX
  5
A5
330
94
100
AcDbEntity
  8
_U+30EC_U+30A4_U+30E4_U+30FC 1
 62
   179
420
  2234388
370
    25
100
AcDbVertex
100
AcDb2dVertex
 10
104.457319106373
 20
-144.5239303227557
 30
0.0
  0
VERTEX
  5
A6
330
94
100
AcDbEntity
  8
_U+30EC_U+30A4_U+30E4_U+30FC 1
 62
   179
420
  2234388
370
    25
100
AcDbVertex
100
AcDb2dVertex
 10
104.9914273317437
 20
-144.7112573897662
 30
0.0
  0
VERTEX
  5
A7
330
94
100
AcDbEntity
  8
_U+30EC_U+30A4_U+30E4_U+30FC 1
 62
   179
420
  2234388
370
    25
100
AcDbVertex
100
AcDb2dVertex
 10
105.5138868280052
 20
-144.498522743552
 30
0.0
  0
VERTEX
  5
A8
330
94
100
AcDbEntity
  8
_U+30EC_U+30A4_U+30E4_U+30FC 1
 62
   179
420
  2234388
370
    25
100
AcDbVertex
100
AcDb2dVertex
 10
106.0455188909962
 20
-144.6858498105625
 30
0.0
  0
VERTEX
  5
A9
330
94
100
AcDbEntity
  8
_U+30EC_U+30A4_U+30E4_U+30FC 1
 62
   179
420
  2234388
370
    25
100
AcDbVertex
100
AcDb2dVertex
 10
106.5686889382016
 20
-144.4731366961954
 30
0.0
  0
VERTEX
  5
AA
330
94
100
AcDbEntity
  8
_U+30EC_U+30A4_U+30E4_U+30FC 1
 62
   179
420
  2234388
370
    25
100
AcDbVertex
100
AcDb2dVertex
 10
107.1024418881007
 20
-144.6604637632059
 30
0.0
  0
VERTEX
  5
AB
330
94
100
AcDbEntity
  8
_U+30EC_U+30A4_U+30E4_U+30FC 1
 62
   179
420
  2234388
370
    25
100
AcDbVertex
100
AcDb2dVertex
 10
107.6270222712703
 20
-144.4477291169917
 30
0.0
  0
VERTEX
  5
AC
330
94
100
AcDbEntity
  8
_U+30EC_U+30A4_U+30E4_U+30FC 1
 62
   179
420
  2234388
370
    25
100
AcDbVertex
100
AcDb2dVertex
 10
108.1607752211694
 20
-144.6347116744536
 30
0.0
  0
VERTEX
  5
AD
330
94
100
AcDbEntity
  8
_U+30EC_U+30A4_U+30E4_U+30FC 1
 62
   179
420
  2234388
370
    25
100
AcDbVertex
100
AcDb2dVertex
 10
108.6839452683748
 20
-144.422321537788
 30
0.0
  0
VERTEX
  5
AE
330
94
100
AcDbEntity
  8
_U+30EC_U+30A4_U+30E4_U+30FC 1
 62
   179
420
  2234388
370
    25
100
AcDbVertex
100
AcDb2dVertex
 10
109.2169984332535
 20
-144.6096486047984
 30
0.0
  0
VERTEX
  5
AF
330
94
100
AcDbEntity
  8
_U+30EC_U+30A4_U+30E4_U+30FC 1
 62
   179
420
  2234388
370
    25
100
AcDbVertex
100
AcDb2dVertex
 10
109.7401684804588
 20
-144.3969354904307
 30
0.0
  0
VERTEX
  5
B0
330
94
100
AcDbEntity
  8
_U+30EC_U+30A4_U+30E4_U+30FC 1
 62
   179
420
  2234388
370
    25
100
AcDbVertex
100
AcDb2dVertex
 10
110.2732108794141
 20
-144.5842625574412
 30
0.0
  0
VERTEX
  5
B1
330
94
100
AcDbEntity
  8
_U+30EC_U+30A4_U+30E4_U+30FC 1
 62
   179
420
  2234388
370
    25
100
AcDbVertex
100
AcDb2dVertex
 10
110.7974359871118
 20
-144.371527911227
 30
0.0
  0
VERTEX
  5
B2
330
94
100
AcDbEntity
  8
_U+30EC_U+30A4_U+30E4_U+30FC 1
 62
   179
420
  2234388
370
    25
100
AcDbVertex
100
AcDb2dVertex
 10
111.3322547634267
 20
-144.558510468689
 30
0.0
  0
VERTEX
  5
B3
330
94
100
AcDbEntity
  8
_U+30EC_U+30A4_U+30E4_U+30FC 1
 62
   179
420
  2234388
370
    25
100
AcDbVertex
100
AcDb2dVertex
 10
111.8561138297291
 20
-144.3461203320233
 30
0.0
  0
VERTEX
  5
B4
330
94
100
AcDbEntity
  8
_U+30EC_U+30A4_U+30E4_U+30FC 1
 62
   179
420
  2234388
370
    25
100
AcDbVertex
100
AcDb2dVertex
 10
112.3895222700797
 20
-144.5331028894852
 30
0.0
  0
VERTEX
  5
B5
330
94
100
AcDbEntity
  8
_U+30EC_U+30A4_U+30E4_U+30FC 1
 62
   179
420
  2234388
370
    25
100
AcDbVertex
100
AcDb2dVertex
 10
112.9137581437008
 20
-144.3207342846663
 30
0.0
  0
VERTEX
  5
B6
330
94
100
AcDbEntity
  8
_U+30EC_U+30A4_U+30E4_U+30FC 1
 62
   179
420
  2234388
370
    25
100
AcDbVertex
100
AcDb2dVertex
 10
113.4485661540923
 20
-144.5076953102815
 30
0.0
  0
VERTEX
  5
B7
330
94
100
AcDbEntity
  8
_U+30EC_U+30A4_U+30E4_U+30FC 1
 62
   179
420
  2234388
370
    25
100
AcDbVertex
100
AcDb2dVertex
 10
113.9731465372619
 20
-144.2953267054626
 30
0.0
  0
VERTEX
  5
B8
330
94
100
AcDbEntity
  8
_U+30EC_U+30A4_U+30E4_U+30FC 1
 62
   179
420
  2234388
370
    25
100
AcDbVertex
100
AcDb2dVertex
 10
114.5072439967096
 20
-144.4823092629246
 30
0.0
  0
VERTEX
  5
B9
330
94
100
AcDbEntity
  8
_U+30EC_U+30A4_U+30E4_U+30FC 1
 62
   179
420
  2234388
370
    25
100
AcDbVertex
100
AcDb2dVertex
 10
115.0318243798792
 20
-144.2699191262589
 30
0.0
  0
VERTEX
  5
BA
330
94
100
AcDbEntity
  8
_U+30EC_U+30A4_U+30E4_U+30FC 1
 62
   179
420
  2234388
370
    25
100
AcDbVertex
100
AcDb2dVertex
 10
115.566998431666
 20
-144.4569016837208
 30
0.0
  0
VERTEX
  5
BB
330
94
100
AcDbEntity
  8
_U+30EC_U+30A4_U+30E4_U+30FC 1
 62
   179
420
  2234388
370
    25
100
AcDbVertex
100
AcDb2dVertex
 10
116.0915788148356
 20
-144.2441670375067
 30
0.0
  0
VERTEX
  5
BC
330
94
100
AcDbEntity
  8
_U+30EC_U+30A4_U+30E4_U+30FC 1
 62
   179
420
  2234388
370
    25
100
AcDbVertex
100
AcDb2dVertex
 10
116.6270973761709
 20
-144.4314941045171
 30
0.0
  0
VERTEX
  5
BD
330
94
100
AcDbEntity
  8
_U+30EC_U+30A4_U+30E4_U+30FC 1
 62
   179
420
  2234388
370
    25
100
AcDbVertex
100
AcDb2dVertex
 10
117.1520222688891
 20
-144.2187809901497
 30
0.0
  0
VERTEX
  5
BE
330
94
100
AcDbEntity
  8
_U+30EC_U+30A4_U+30E4_U+30FC 1
 62
   179
420
  2234388
370
    25
100
AcDbVertex
100
AcDb2dVertex
 10
117.6868302792806
 20
-144.4057420157649
 30
0.0
  0
VERTEX
  5
BF
330
94
100
AcDbEntity
  8
_U+30EC_U+30A4_U+30E4_U+30FC 1
 62
   179
420
  2234388
370
    25
100
AcDbVertex
100
AcDb2dVertex
 10
118.2110661529017
 20
-144.193373410946
 30
0.0
  0
VERTEX
  5
C0
330
94
100
AcDbEntity
  8
_U+30EC_U+30A4_U+30E4_U+30FC 1
 62
   179
420
  2234388
370
    25
100
AcDbVertex
100
AcDb2dVertex
 10
118.7448191028008
 20
-144.380355968408
 30
0.0
  0
VERTEX
  5
C1
330
94
100
AcDbEntity
  8
_U+30EC_U+30A4_U+30E4_U+30FC 1
 62
   179
420
  2234388
370
    25
100
AcDbVertex
100
AcDb2dVertex
 10
119.2707990560113
 20
-144.1679658317423
 30
0.0
  0
VERTEX
  5
C2
330
94
100
AcDbEntity
  8
_U+30EC_U+30A4_U+30E4_U+30FC 1
 62
   179
420
  2234388
370
    25
100
AcDbVertex
100
AcDb2dVertex
 10
119.8052625568542
 20
-144.3549483892042
 30
0.0
  0
VERTEX
  5
C3
330
94
100
AcDbEntity
  8
_U+30EC_U+30A4_U+30E4_U+30FC 1
 62
   179
420
  2234388
370
    25
100
AcDbVertex
100
AcDb2dVertex
 10
120.3312640419116
 20
-144.1422137429901
 30
0.0
  0
VERTEX
  5
C4
330
94
100
AcDbEntity
  8
_U+30EC_U+30A4_U+30E4_U+30FC 1
 62
   179
420
  2234388
370
    25
100
AcDbVertex
100
AcDb2dVertex
 10
120.8667826032468
 20
-144.3295408100005
 30
0.0
  0
VERTEX
  5
C5
330
94
100
AcDbEntity
  8
_U+30EC_U+30A4_U+30E4_U+30FC 1
 62
   179
420
  2234388
370
    25
100
AcDbVertex
100
AcDb2dVertex
 10
121.3920520055135
 20
-144.1168276956334
 30
0.0
  0
VERTEX
  5
C6
330
94
100
AcDbEntity
  8
_U+30EC_U+30A4_U+30E4_U+30FC 1
 62
   179
420
  2234388
370
    25
100
AcDbVertex
100
AcDb2dVertex
 10
121.9289916687365
 20
-144.3037887212483
 30
0.0
  0
VERTEX
  5
C7
330
94
100
AcDbEntity
  8
_U+30EC_U+30A4_U+30E4_U+30FC 1
 62
   179
420
  2234388
370
    25
100
AcDbVertex
100
AcDb2dVertex
 10
122.4563927238347
 20
-144.0910756068812
 30
0.0
  0
VERTEX
  5
C8
330
94
100
AcDbEntity
  8
_U+30EC_U+30A4_U+30E4_U+30FC 1
 62
   179
420
  2234388
370
    25
100
AcDbVertex
100
AcDb2dVertex
 10
122.9933108552109
 20
-144.2784026738917
 30
0.0
  0
SEQEND
  5
C9
330
94
100
AcDbEntity
  8
_U+30EC_U+30A4_U+30E4_U+30FC 1
 62
   179
420
  2234388
370
    25
  0
POLYLINE
  5
CA
330
1F
100
AcDbEntity
  8
_U+30EC_U+30A4_U+30E4_U+30FC 1
 62
   179
420
  2234388
370
    25
100
AcDb2dPolyline
 66
     1
 10
0.0
 20
0.0
 30
0.0
  0
VERTEX
  5
CB
330
CA
100
AcDbEntity
  8
_U+30EC_U+30A4_U+30E4_U+30FC 1
 62
   179
420
  2234388
370
    25
100
AcDbVertex
100
AcDb2dVertex
 10
122.991416052694
 20
-144.1783872455852
 30
0.0
  0
VERTEX
  5
CC
330
CA
100
AcDbEntity
  8
_U+30EC_U+30A4_U+30E4_U+30FC 1
 62
   179
420
  2234388
370
    25
100
AcDbVertex
100
AcDb2dVertex
 10
122.9811668936254
 20
-143.7780025546591
 30
0.0
  0
SEQEND
  5
CD
330
CA
100
AcDbEntity
  8
_U+30EC_U+30A4_U+30E4_U+30FC 1
 62
   179
420
  2234388
370
    25
  0
POLYLINE
  5
CE
330
1F
100
AcDbEntity
  8
_U+30EC_U+30A4_U+30E4_U+30FC 1
 62
   179
420
  2234388
370
    25
100
AcDb2dPolyline
 66
     1
 10
0.0
 20
0.0
 30
0.0
  0
VERTEX
  5
CF
330
CE
100
AcDbEntity
  8
_U+30EC_U+30A4_U+30E4_U+30FC 1
 62
   179
420
  2234388
370
    25
100
AcDbVertex
100
AcDb2dVertex
 10
122.9810807662382
 20
-143.7780456183524
 30
0.0
  0
VERTEX
  5
D0
330
CE
100
AcDbEntity
  8
_U+30EC_U+30A4_U+30E4_U+30FC 1
 62
   179
420
  2234388
370
    25
100
AcDbVertex
100
AcDb2dVertex
 10
96.02461893012254
 20
-143.8327365091807
 30
0.0
  0
SEQEND
  5
D1
330
CE
100
AcDbEntity
  8
_U+30EC_U+30A4_U+30E4_U+30FC 1
 62
   179
420
  2234388
370
    25
  0
SPLINE
  5
D2
330
1F
100
AcDbEntity
  8
_U+30EC_U+30A4_U+30E4_U+30FC 1
 62
   179
420
  2234388
370
     9
100
AcDbSpline
210
0.0
220
0.0
230
1.0
 70
    11
 71
     3
 72
    17
 73
    13
 74
     0
 42
0.0000000001
 43
0.0000000001
 12
1.0
 22
0.0
 32
0.0
 13
1.0
 23
0.0
 33
0.0
 40
0.0
 40
0.0
 40
0.0
 40
0.0
 40
1.0
 40
1.0
 40
1.0
 40
2.0
 40
2.0
 40
2.0
 40
3.0
 40
3.0
 40
3.0
 40
4.0
 40
4.0
 40
4.0
 40
4.0
 10
96.98026688588406
 20
-133.5688281255162
 30
0.0
 10
96.98026688588406
 20
-133.6238635258931
 30
0.0
 10
97.0250638931157
 20
-133.6686712990481
 30
0.0
 10
97.08009929349257
 20
-133.6686712990481
 30
0.0
 10
97.13513469386943
 20
-133.6686712990481
 30
0.0
 10
97.17993170110107
 20
-133.6238635258931
 30
0.0
 10
97.17993170110107
 20
-133.5688281255162
 30
0.0
 10
97.17993170110107
 20
-133.5138142569861
 30
0.0
 10
97.13513469386943
 20
-133.4690064838311
 30
0.0
 10
97.08009929349257
 20
-133.4690064838311
 30
0.0
 10
97.0250638931157
 20
-133.4690064838311
 30
0.0
 10
96.98026688588406
 20
-133.5138142569861
 30
0.0
 10
96.98026688588406
 20
-133.5688281255162
 30
0.0
  0
SPLINE
  5
D3
330
1F
100
AcDbEntity
  8
_U+30EC_U+30A4_U+30E4_U+30FC 1
 62
   179
420
  2234388
370
     9
100
AcDbSpline
210
0.0
220
0.0
230
1.0
 70
    11
 71
     3
 72
    17
 73
    13
 74
     0
 42
0.0000000001
 43
0.0000000001
 12
1.0
 22
0.0
 32
0.0
 13
1.0
 23
0.0
 33
0.0
 40
0.0
 40
0.0
 40
0.0
 40
0.0
 40
1.0
 40
1.0
 40
1.0
 40
2.0
 40
2.0
 40
2.0
 40
3.0
 40
3.0
 40
3.0
 40
4.0
 40
4.0
 40
4.0
 40
4.0
 10
83.85376406798513
 20
-137.6681903071086
 30
0.0
 10
83.85376406798513
 20
-137.7232257074854
 30
0.0
 10
83.89856107521678
 20
-137.7680334806408
 30
0.0
 10
83.95359647559364
 20
-137.7680334806408
 30
0.0
 10
84.00863187597051
 20
-137.7680334806408
 30
0.0
 10
84.05342888320214
 20
-137.7232257074854
 30
0.0
 10
84.05342888320214
 20
-137.6681903071086
 30
0.0
 10
84.05342888320214
 20
-137.6124658876346
 30
0.0
 10
84.00863187597051
 20
-137.5683686654235
 30
0.0
 10
83.95359647559364
 20
-137.5683686654235
 30
0.0
 10
83.89856107521678
 20
-137.5683686654235
 30
0.0
 10
83.85376406798513
 20
-137.6124658876346
 30
0.0
 10
83.85376406798513
 20
-137.6681903071086
 30
0.0
  0
SPLINE
  5
D4
330
1F
100
AcDbEntity
  8
_U+30EC_U+30A4_U+30E4_U+30FC 1
 62
   179
420
  2234388
370
     9
100
AcDbSpline
210
0.0
220
0.0
230
1.0
 70
    11
 71
     3
 72
    17
 73
    13
 74
     0
 42
0.0000000001
 43
0.0000000001
 12
1.0
 22
0.0
 32
0.0
 13
1.0
 23
0.0
 33
0.0
 40
0.0
 40
0.0
 40
0.0
 40
0.0
 40
1.0
 40
1.0
 40
1.0
 40
2.0
 40
2.0
 40
2.0
 40
3.0
 40
3.0
 40
3.0
 40
4.0
 40
4.0
 40
4.0
 40
4.0
 10
122.980413278988
 20
-133.5688281255162
 30
0.0
 10
122.980413278988
 20
-133.6238635258931
 30
0.0
 10
123.0251995202962
 20
-133.6686712990481
 30
0.0
 10
123.0802349206731
 20
-133.6686712990481
 30
0.0
 10
123.13527032105
 20
-133.6686712990481
 30
0.0
 10
123.180078094205
 20
-133.6238635258931
 30
0.0
 10
123.180078094205
 20
-133.5688281255162
 30
0.0
 10
123.180078094205
 20
-133.5138142569861
 30
0.0
 10
123.13527032105
 20
-133.4690064838311
 30
0.0
 10
123.0802349206731
 20
-133.4690064838311
 30
0.0
 10
123.0251995202962
 20
-133.4690064838311
 30
0.0
 10
122.980413278988
 20
-133.5138142569861
 30
0.0
 10
122.980413278988
 20
-133.5688281255162
 30
0.0
  0
SPLINE
  5
D5
330
1F
100
AcDbEntity
  8
_U+30EC_U+30A4_U+30E4_U+30FC 1
 62
   179
420
  2234388
370
     9
100
AcDbSpline
210
0.0
220
0.0
230
1.0
 70
    11
 71
     3
 72
    17
 73
    13
 74
     0
 42
0.0000000001
 43
0.0000000001
 12
1.0
 22
0.0
 32
0.0
 13
1.0
 23
0.0
 33
0.0
 40
0.0
 40
0.0
 40
0.0
 40
0.0
 40
1.0
 40
1.0
 40
1.0
 40
2.0
 40
2.0
 40
2.0
 40
3.0
 40
3.0
 40
3.0
 40
4.0
 40
4.0
 40
4.0
 40
4.0
 10
83.85376406798513
 20
-163.6679814247406
 30
0.0
 10
83.85376406798513
 20
-163.7230168251174
 30
0.0
 10
83.89856107521678
 20
-163.7678245982725
 30
0.0
 10
83.95359647559364
 20
-163.7678245982725
 30
0.0
 10
84.00863187597051
 20
-163.7678245982725
 30
0.0
 10
84.05342888320214
 20
-163.7230168251174
 30
0.0
 10
84.05342888320214
 20
-163.6679814247406
 30
0.0
 10
84.05342888320214
 20
-163.6129675562105
 30
0.0
 10
84.00863187597051
 20
-163.5681597830554
 30
0.0
 10
83.95359647559364
 20
-163.5681597830554
 30
0.0
 10
83.89856107521678
 20
-163.5681597830554
 30
0.0
 10
83.85376406798513
 20
-163.6129675562105
 30
0.0
 10
83.85376406798513
 20
-163.6679814247406
 30
0.0
  0
POLYLINE
  5
D6
330
1F
100
AcDbEntity
  8
_U+30EC_U+30A4_U+30E4_U+30FC 1
 62
   179
420
  2234388
370
     9
100
AcDb2dPolyline
 66
     1
 10
0.0
 20
0.0
 30
0.0
  0
VERTEX
  5
D7
330
D6
100
AcDbEntity
  8
_U+30EC_U+30A4_U+30E4_U+30FC 1
 62
   179
420
  2234388
370
     9
100
AcDbVertex
100
AcDb2dVertex
 10
123.0802779843667
 20
-133.5688281255162
 30
0.0
  0
VERTEX
  5
D8
330
D6
100
AcDbEntity
  8
_U+30EC_U+30A4_U+30E4_U+30FC 1
 62
   179
420
  2234388
370
     9
100
AcDbVertex
100
AcDb2dVertex
 10
97.0801961868031
 20
-133.5688281255162
 30
0.0
  0
SEQEND
  5
D9
330
D6
100
AcDbEntity
  8
_U+30EC_U+30A4_U+30E4_U+30FC 1
 62
   179
420
  2234388
370
     9
  0
POLYLINE
  5
DA
330
1F
100
AcDbEntity
  8
_U+30EC_U+30A4_U+30E4_U+30FC 1
 62
   179
420
  2234388
370
     9
100
AcDb2dPolyline
 66
     1
 10
0.0
 20
0.0
 30
0.0
  0
VERTEX
  5
DB
330
DA
100
AcDbEntity
  8
_U+30EC_U+30A4_U+30E4_U+30FC 1
 62
   179
420
  2234388
370
     9
100
AcDbVertex
100
AcDb2dVertex
 10
123.0802779843667
 20
-135.8288322956869
 30
0.0
  0
VERTEX
  5
DC
330
DA
100
AcDbEntity
  8
_U+30EC_U+30A4_U+30E4_U+30FC 1
 62
   179
420
  2234388
370
     9
100
AcDbVertex
100
AcDb2dVertex
 10
123.0802779843667
 20
-132.5691690749306
 30
0.0
  0
SEQEND
  5
DD
330
DA
100
AcDbEntity
  8
_U+30EC_U+30A4_U+30E4_U+30FC 1
 62
   179
420
  2234388
370
     9
  0
POLYLINE
  5
DE
330
1F
100
AcDbEntity
  8
_U+30EC_U+30A4_U+30E4_U+30FC 1
 62
   179
420
  2234388
370
     9
100
AcDb2dPolyline
 66
     1
 10
0.0
 20
0.0
 30
0.0
  0
VERTEX
  5
DF
330
DE
100
AcDbEntity
  8
_U+30EC_U+30A4_U+30E4_U+30FC 1
 62
   179
420
  2234388
370
     9
100
AcDbVertex
100
AcDb2dVertex
 10
97.08017465495631
 20
-135.6290167575424
 30
0.0
  0
VERTEX
  5
E0
330
DE
100
AcDbEntity
  8
_U+30EC_U+30A4_U+30E4_U+30FC 1
 62
   179
420
  2234388
370
     9
100
AcDbVertex
100
AcDb2dVertex
 10
97.08017465495631
 20
-132.5690398838503
 30
0.0
  0
SEQEND
  5
E1
330
DE
100
AcDbEntity
  8
_U+30EC_U+30A4_U+30E4_U+30FC 1
 62
   179
420
  2234388
370
     9
  0
INSERT
  5
E3
330
1F
100
AcDbEntity
  8
_U+30EC_U+30A4_U+30E4_U+30FC 1
100
AcDbBlockReference
  2
block 3
 10
0.0
 20
0.0
 30
0.0
  0
SPLINE
  5
EB
330
1F
100
AcDbEntity
  8
_U+30EC_U+30A4_U+30E4_U+30FC 1
 62
   179
420
  2234388
370
     9
100
AcDbSpline
210
0.0
220
0.0
230
1.0
 70
    11
 71
     3
 72
    17
 73
    13
 74
     0
 42
0.0000000001
 43
0.0000000001
 12
1.0
 22
0.0
 32
0.0
 13
1.0
 23
0.0
 33
0.0
 40
0.0
 40
0.0
 40
0.0
 40
0.0
 40
1.0
 40
1.0
 40
1.0
 40
2.0
 40
2.0
 40
2.0
 40
3.0
 40
3.0
 40
3.0
 40
4.0
 40
4.0
 40
4.0
 40
4.0
 10
125.9273479570707
 20
-143.7780456183524
 30
0.0
 10
125.9823618256008
 20
-143.7780456183524
 30
0.0
 10
126.0271695987558
 20
-143.7332593770441
 30
0.0
 10
126.0271695987558
 20
-143.6782239766673
 30
0.0
 10
126.0271695987558
 20
-143.6231885762904
 30
0.0
 10
125.9823618256008
 20
-143.5783808031354
 30
0.0
 10
125.9273479570707
 20
-143.5783808031354
 30
0.0
 10
125.8723125566938
 20
-143.5783808031354
 30
0.0
 10
125.8275047835388
 20
-143.6231885762904
 30
0.0
 10
125.8275047835388
 20
-143.6782239766673
 30
0.0
 10
125.8275047835388
 20
-143.7332593770441
 30
0.0
 10
125.8723125566938
 20
-143.7780456183524
 30
0.0
 10
125.9273479570707
 20
-143.7780456183524
 30
0.0
  0
SPLINE
  5
EC
330
1F
100
AcDbEntity
  8
_U+30EC_U+30A4_U+30E4_U+30FC 1
 62
   179
420
  2234388
370
     9
100
AcDbSpline
210
0.0
220
0.0
230
1.0
 70
    11
 71
     3
 72
    17
 73
    13
 74
     0
 42
0.0000000001
 43
0.0000000001
 12
1.0
 22
0.0
 32
0.0
 13
1.0
 23
0.0
 33
0.0
 40
0.0
 40
0.0
 40
0.0
 40
0.0
 40
1.0
 40
1.0
 40
1.0
 40
2.0
 40
2.0
 40
2.0
 40
3.0
 40
3.0
 40
3.0
 40
4.0
 40
4.0
 40
4.0
 40
4.0
 10
125.9273479570707
 20
-137.7784333626365
 30
0.0
 10
125.9823618256008
 20
-137.7784333626365
 30
0.0
 10
126.0271695987558
 20
-137.7336471213283
 30
0.0
 10
126.0271695987558
 20
-137.6782456795561
 30
0.0
 10
126.0271695987558
 20
-137.623231811026
 30
0.0
 10
125.9823618256008
 20
-137.578424037871
 30
0.0
 10
125.9273479570707
 20
-137.578424037871
 30
0.0
 10
125.8723125566938
 20
-137.578424037871
 30
0.0
 10
125.8275047835388
 20
-137.623231811026
 30
0.0
 10
125.8275047835388
 20
-137.6782456795561
 30
0.0
 10
125.8275047835388
 20
-137.7336471213283
 30
0.0
 10
125.8723125566938
 20
-137.7784333626365
 30
0.0
 10
125.9273479570707
 20
-137.7784333626365
 30
0.0
  0
POLYLINE
  5
ED
330
1F
100
AcDbEntity
  8
_U+30EC_U+30A4_U+30E4_U+30FC 1
 62
   179
420
  2234388
370
     9
100
AcDb2dPolyline
 66
     1
 10
0.0
 20
0.0
 30
0.0
  0
VERTEX
  5
EE
330
ED
100
AcDbEntity
  8
_U+30EC_U+30A4_U+30E4_U+30FC 1
 62
   179
420
  2234388
370
     9
100
AcDbVertex
100
AcDb2dVertex
 10
125.9273479570707
 20
-137.678159552169
 30
0.0
  0
VERTEX
  5
EF
330
ED
100
AcDbEntity
  8
_U+30EC_U+30A4_U+30E4_U+30FC 1
 62
   179
420
  2234388
370
     9
100
AcDbVertex
100
AcDb2dVertex
 10
125.9273479570707
 20
-143.6782239766673
 30
0.0
  0
SEQEND
  5
F0
330
ED
100
AcDbEntity
  8
_U+30EC_U+30A4_U+30E4_U+30FC 1
 62
   179
420
  2234388
370
     9
  0
POLYLINE
  5
F1
330
1F
100
AcDbEntity
  8
_U+30EC_U+30A4_U+30E4_U+30FC 1
 62
   179
420
  2234388
370
     9
100
AcDb2dPolyline
 66
     1
 10
0.0
 20
0.0
 30
0.0
  0
VERTEX
  5
F2
330
F1
100
AcDbEntity
  8
_U+30EC_U+30A4_U+30E4_U+30FC 1
 62
   179
420
  2234388
370
     9
100
AcDbVertex
100
AcDb2dVertex
 10
126.9205474536214
 20
-137.678159552169
 30
0.0
  0
VERTEX
  5
F3
330
F1
100
AcDbEntity
  8
_U+30EC_U+30A4_U+30E4_U+30FC 1
 62
   179
420
  2234388
370
     9
100
AcDbVertex
100
AcDb2dVertex
 10
123.6608627010184
 20
-137.678159552169
 30
0.0
  0
SEQEND
  5
F4
330
F1
100
AcDbEntity
  8
_U+30EC_U+30A4_U+30E4_U+30FC 1
 62
   179
420
  2234388
370
     9
  0
POLYLINE
  5
F5
330
1F
100
AcDbEntity
  8
_U+30EC_U+30A4_U+30E4_U+30FC 1
 62
   179
420
  2234388
370
     9
100
AcDb2dPolyline
 66
     1
 10
0.0
 20
0.0
 30
0.0
  0
VERTEX
  5
F6
330
F5
100
AcDbEntity
  8
_U+30EC_U+30A4_U+30E4_U+30FC 1
 62
   179
420
  2234388
370
     9
100
AcDbVertex
100
AcDb2dVertex
 10
126.9205474536214
 20
-143.6781378492801
 30
0.0
  0
VERTEX
  5
F7
330
F5
100
AcDbEntity
  8
_U+30EC_U+30A4_U+30E4_U+30FC 1
 62
   179
420
  2234388
370
     9
100
AcDbVertex
100
AcDb2dVertex
 10
123.6608627010184
 20
-143.6781378492801
 30
0.0
  0
SEQEND
  5
F8
330
F5
100
AcDbEntity
  8
_U+30EC_U+30A4_U+30E4_U+30FC 1
 62
   179
420
  2234388
370
     9
  0
INSERT
  5
FA
330
1F
100
AcDbEntity
  8
_U+30EC_U+30A4_U+30E4_U+30FC 1
100
AcDbBlockReference
  2
block 4
 10
0.0
 20
0.0
 30
0.0
  0
POLYLINE
  5
100
330
1F
100
AcDbEntity
  8
_U+30EC_U+30A4_U+30E4_U+30FC 1
 62
   179
420
  2234388
370
     9
100
AcDb2dPolyline
 66
     1
 10
0.0
 20
0.0
 30
0.0
  0
VERTEX
  5
101
330
100
100
AcDbEntity
  8
_U+30EC_U+30A4_U+30E4_U+30FC 1
 62
   179
420
  2234388
370
     9
100
AcDbVertex
100
AcDb2dVertex
 10
83.95367183705737
 20
-137.6681903071086
 30
0.0
  0
VERTEX
  5
102
330
100
100
AcDbEntity
  8
_U+30EC_U+30A4_U+30E4_U+30FC 1
 62
   179
420
  2234388
370
     9
100
AcDbVertex
100
AcDb2dVertex
 10
83.95367183705737
 20
-163.6679168292002
 30
0.0
  0
SEQEND
  5
103
330
100
100
AcDbEntity
  8
_U+30EC_U+30A4_U+30E4_U+30FC 1
 62
   179
420
  2234388
370
     9
  0
POLYLINE
  5
104
330
1F
100
AcDbEntity
  8
_U+30EC_U+30A4_U+30E4_U+30FC 1
 62
   179
420
  2234388
370
     9
100
AcDb2dPolyline
 66
     1
 10
0.0
 20
0.0
 30
0.0
  0
VERTEX
  5
105
330
104
100
AcDbEntity
  8
_U+30EC_U+30A4_U+30E4_U+30FC 1
 62
   179
420
  2234388
370
     9
100
AcDbVertex
100
AcDb2dVertex
 10
82.66383885330323
 20
-137.6681903071086
 30
0.0
  0
VERTEX
  5
106
330
104
100
AcDbEntity
  8
_U+30EC_U+30A4_U+30E4_U+30FC 1
 62
   179
420
  2234388
370
     9
100
AcDbVertex
100
AcDb2dVertex
 10
87.02381174243133
 20
-137.6681903071086
 30
0.0
  0
SEQEND
  5
107
330
104
100
AcDbEntity
  8
_U+30EC_U+30A4_U+30E4_U+30FC 1
 62
   179
420
  2234388
370
     9
  0
POLYLINE
  5
108
330
1F
100
AcDbEntity
  8
_U+30EC_U+30A4_U+30E4_U+30FC 1
 62
   179
420
  2234388
370
     9
100
AcDb2dPolyline
 66
     1
 10
0.0
 20
0.0
 30
0.0
  0
VERTEX
  5
109
330
108
100
AcDbEntity
  8
_U+30EC_U+30A4_U+30E4_U+30FC 1
 62
   179
420
  2234388
370
     9
100
AcDbVertex
100
AcDb2dVertex
 10
82.66383885330323
 20
-163.6679814247406
 30
0.0
  0
VERTEX
  5
10A
330
108
100
AcDbEntity
  8
_U+30EC_U+30A4_U+30E4_U+30FC 1
 62
   179
420
  2234388
370
     9
100
AcDbVertex
100
AcDb2dVertex
 10
87.02381174243133
 20
-163.6679814247406
 30
0.0
  0
SEQEND
  5
10B
330
108
100
AcDbEntity
  8
_U+30EC_U+30A4_U+30E4_U+30FC 1
 62
   179
420
  2234388
370
     9
  0
INSERT
  5
10D
330
1F
100
AcDbEntity
  8
_U+30EC_U+30A4_U+30E4_U+30FC 1
100
AcDbBlockReference
  2
block 5
 10
0.0
 20
0.0
 30
0.0
  0
POLYLINE
  5
115
330
1F
100
AcDbEntity
  8
_U+30EC_U+30A4_U+30E4_U+30FC 1
 62
   179
420
  2234388
370
    25
100
AcDb2dPolyline
 66
     1
 10
0.0
 20
0.0
 30
0.0
  0
VERTEX
  5
116
330
115
100
AcDbEntity
  8
_U+30EC_U+30A4_U+30E4_U+30FC 1
 62
   179
420
  2234388
370
    25
100
AcDbVertex
100
AcDb2dVertex
 10
89.97502049210043
 20
-138.5876216965817
 30
0.0
  0
VERTEX
  5
117
330
115
100
AcDbEntity
  8
_U+30EC_U+30A4_U+30E4_U+30FC 1
 62
   179
420
  2234388
370
    25
100
AcDbVertex
100
AcDb2dVertex
 10
95.97506338475222
 20
-138.5876216965817
 30
0.0
  0
SEQEND
  5
118
330
115
100
AcDbEntity
  8
_U+30EC_U+30A4_U+30E4_U+30FC 1
 62
   179
420
  2234388
370
    25
  0
POLYLINE
  5
119
330
1F
100
AcDbEntity
  8
_U+30EC_U+30A4_U+30E4_U+30FC 1
 62
   179
420
  2234388
370
    25
100
AcDb2dPolyline
 66
     1
 10
0.0
 20
0.0
 30
0.0
  0
VERTEX
  5
11A
330
119
100
AcDbEntity
  8
_U+30EC_U+30A4_U+30E4_U+30FC 1
 62
   179
420
  2234388
370
    25
100
AcDbVertex
100
AcDb2dVertex
 10
88.98039989366234
 20
-137.5682825380363
 30
0.0
  0
VERTEX
  5
11B
330
119
100
AcDbEntity
  8
_U+30EC_U+30A4_U+30E4_U+30FC 1
 62
   179
420
  2234388
370
    25
100
AcDbVertex
100
AcDb2dVertex
 10
96.98033148142441
 20
-137.5682825380363
 30
0.0
  0
SEQEND
  5
11C
330
119
100
AcDbEntity
  8
_U+30EC_U+30A4_U+30E4_U+30FC 1
 62
   179
420
  2234388
370
    25
  0
POLYLINE
  5
11D
330
1F
100
AcDbEntity
  8
_U+30EC_U+30A4_U+30E4_U+30FC 1
 62
   179
420
  2234388
370
    25
100
AcDb2dPolyline
 66
     1
 10
0.0
 20
0.0
 30
0.0
  0
VERTEX
  5
11E
330
11D
100
AcDbEntity
  8
_U+30EC_U+30A4_U+30E4_U+30FC 1
 62
   179
420
  2234388
370
    25
100
AcDbVertex
100
AcDb2dVertex
 10
96.98026688588406
 20
-143.7050311259119
 30
0.0
  0
VERTEX
  5
11F
330
11D
100
AcDbEntity
  8
_U+30EC_U+30A4_U+30E4_U+30FC 1
 62
   179
420
  2234388
370
    25
100
AcDbVertex
100
AcDb2dVertex
 10
96.98026688588406
 20
-137.7049882332607
 30
0.0
  0
SEQEND
  5
120
330
11D
100
AcDbEntity
  8
_U+30EC_U+30A4_U+30E4_U+30FC 1
 62
   179
420
  2234388
370
    25
  0
POLYLINE
  5
121
330
1F
100
AcDbEntity
  8
_U+30EC_U+30A4_U+30E4_U+30FC 1
 62
   179
420
  2234388
370
    25
100
AcDb2dPolyline
 66
     1
 10
0.0
 20
0.0
 30
0.0
  0
VERTEX
  5
122
330
121
100
AcDbEntity
  8
_U+30EC_U+30A4_U+30E4_U+30FC 1
 62
   179
420
  2234388
370
    25
100
AcDbVertex
100
AcDb2dVertex
 10
95.97499878921155
 20
-144.7654315162717
 30
0.0
  0
VERTEX
  5
123
330
121
100
AcDbEntity
  8
_U+30EC_U+30A4_U+30E4_U+30FC 1
 62
   179
420
  2234388
370
    25
100
AcDbVertex
100
AcDb2dVertex
 10
95.97499878921155
 20
-138.5876001647346
 30
0.0
  0
SEQEND
  5
124
330
121
100
AcDbEntity
  8
_U+30EC_U+30A4_U+30E4_U+30FC 1
 62
   179
420
  2234388
370
    25
  0
POLYLINE
  5
125
330
1F
100
AcDbEntity
  8
_U+30EC_U+30A4_U+30E4_U+30FC 1
 62
   179
420
  2234388
370
     9
100
AcDb2dPolyline
 66
     1
 10
0.0
 20
0.0
 30
0.0
  0
VERTEX
  5
126
330
125
100
AcDbEntity
  8
_U+30EC_U+30A4_U+30E4_U+30FC 1
 62
   179
420
  2234388
370
     9
100
AcDbVertex
100
AcDb2dVertex
 10
89.55330850693568
 20
-136.5977776079947
 30
0.0
  0
VERTEX
  5
127
330
125
100
AcDbEntity
  8
_U+30EC_U+30A4_U+30E4_U+30FC 1
 62
   179
420
  2234388
370
     9
100
AcDbVertex
100
AcDb2dVertex
 10
90.11033738320701
 20
-137.4285839161094
 30
0.0
  0
SEQEND
  5
128
330
125
100
AcDbEntity
  8
_U+30EC_U+30A4_U+30E4_U+30FC 1
 62
   179
420
  2234388
370
     9
  0
POLYLINE
  5
129
330
1F
100
AcDbEntity
  8
_U+30EC_U+30A4_U+30E4_U+30FC 1
 62
   179
420
  2234388
370
     9
100
AcDb2dPolyline
 66
     1
 10
0.0
 20
0.0
 30
0.0
  0
VERTEX
  5
12A
330
129
100
AcDbEntity
  8
_U+30EC_U+30A4_U+30E4_U+30FC 1
 62
   179
420
  2234388
370
     9
100
AcDbVertex
100
AcDb2dVertex
 10
90.04356712633351
 20
-136.4310565183553
 30
0.0
  0
VERTEX
  5
12B
330
129
100
AcDbEntity
  8
_U+30EC_U+30A4_U+30E4_U+30FC 1
 62
   179
420
  2234388
370
     9
100
AcDbVertex
100
AcDb2dVertex
 10
90.11024048989648
 20
-137.4287131071901
 30
0.0
  0
SEQEND
  5
12C
330
129
100
AcDbEntity
  8
_U+30EC_U+30A4_U+30E4_U+30FC 1
 62
   179
420
  2234388
370
     9
  0
POLYLINE
  5
12D
330
1F
100
AcDbEntity
  8
_U+30EC_U+30A4_U+30E4_U+30FC 1
 62
   179
420
  2234388
370
     9
100
AcDb2dPolyline
 66
     1
 10
0.0
 20
0.0
 30
0.0
  0
VERTEX
  5
12E
330
12D
100
AcDbEntity
  8
_U+30EC_U+30A4_U+30E4_U+30FC 1
 62
   179
420
  2234388
370
     9
100
AcDbVertex
100
AcDb2dVertex
 10
89.33455570954602
 20
-135.068521253939
 30
0.0
  0
VERTEX
  5
12F
330
12D
100
AcDbEntity
  8
_U+30EC_U+30A4_U+30E4_U+30FC 1
 62
   179
420
  2234388
370
     9
100
AcDbVertex
100
AcDb2dVertex
 10
90.11030508543716
 20
-137.4286054479566
 30
0.0
  0
SEQEND
  5
130
330
12D
100
AcDbEntity
  8
_U+30EC_U+30A4_U+30E4_U+30FC 1
 62
   179
420
  2234388
370
     9
  0
INSERT
  5
132
330
1F
100
AcDbEntity
  8
_U+30EC_U+30A4_U+30E4_U+30FC 1
100
AcDbBlockReference
  2
block 6
 10
0.0
 20
0.0
 30
0.0
  0
POLYLINE
  5
18D
330
1F
100
AcDbEntity
  8
_U+30EC_U+30A4_U+30E4_U+30FC 1
 62
   179
420
  2234388
370
    25
100
AcDb2dPolyline
 66
     1
 10
0.0
 20
0.0
 30
0.0
  0
VERTEX
  5
18E
330
18D
100
AcDbEntity
  8
_U+30EC_U+30A4_U+30E4_U+30FC 1
 62
   179
420
  2234388
370
    25
100
AcDbVertex
100
AcDb2dVertex
 10
88.98039989366234
 20
-138.5876216965817
 30
0.0
  0
VERTEX
  5
18F
330
18D
100
AcDbEntity
  8
_U+30EC_U+30A4_U+30E4_U+30FC 1
 62
   179
420
  2234388
370
    25
100
AcDbVertex
100
AcDb2dVertex
 10
89.97486976917295
 20
-138.5876216965817
 30
0.0
  0
SEQEND
  5
190
330
18D
100
AcDbEntity
  8
_U+30EC_U+30A4_U+30E4_U+30FC 1
 62
   179
420
  2234388
370
    25
  0
POLYLINE
  5
191
330
1F
100
AcDbEntity
  8
_U+30EC_U+30A4_U+30E4_U+30FC 1
 62
   179
420
  2234388
370
     9
100
AcDb2dPolyline
 66
     1
 10
0.0
 20
0.0
 30
0.0
  0
VERTEX
  5
192
330
191
100
AcDbEntity
  8
_U+30EC_U+30A4_U+30E4_U+30FC 1
 62
   179
420
  2234388
370
     9
100
AcDbVertex
100
AcDb2dVertex
 10
107.6834787735349
 20
-151.546219173268
 30
0.0
  0
VERTEX
  5
193
330
191
100
AcDbEntity
  8
_U+30EC_U+30A4_U+30E4_U+30FC 1
 62
   179
420
  2234388
370
     9
100
AcDbVertex
100
AcDb2dVertex
 10
107.3444490800161
 20
-159.2455984777125
 30
0.0
  0
VERTEX
  5
194
330
191
100
AcDbEntity
  8
_U+30EC_U+30A4_U+30E4_U+30FC 1
 62
   179
420
  2234388
370
     9
100
AcDbVertex
100
AcDb2dVertex
 10
107.1557224429648
 20
-159.3521380555938
 30
0.0
  0
VERTEX
  5
195
330
191
100
AcDbEntity
  8
_U+30EC_U+30A4_U+30E4_U+30FC 1
 62
   179
420
  2234388
370
     9
100
AcDbVertex
100
AcDb2dVertex
 10
107.3560978091256
 20
-151.4354593534172
 30
0.0
  0
VERTEX
  5
196
330
191
100
AcDbEntity
  8
_U+30EC_U+30A4_U+30E4_U+30FC 1
 62
   179
420
  2234388
370
     9
100
AcDbVertex
100
AcDb2dVertex
 10
108.9845190835395
 20
-150.5767908355654
 30
0.0
  0
VERTEX
  5
197
330
191
100
AcDbEntity
  8
_U+30EC_U+30A4_U+30E4_U+30FC 1
 62
   179
420
  2234388
370
     9
100
AcDbVertex
100
AcDb2dVertex
 10
108.9361908534354
 20
-152.4803783459402
 30
0.0
  0
SEQEND
  5
198
330
191
100
AcDbEntity
  8
_U+30EC_U+30A4_U+30E4_U+30FC 1
 62
   179
420
  2234388
370
     9
  0
POLYLINE
  5
199
330
1F
100
AcDbEntity
  8
_U+30EC_U+30A4_U+30E4_U+30FC 1
 62
   179
420
  2234388
370
     9
100
AcDb2dPolyline
 66
     1
 10
0.0
 20
0.0
 30
0.0
  0
VERTEX
  5
19A
330
199
100
AcDbEntity
  8
_U+30EC_U+30A4_U+30E4_U+30FC 1
 62
   179
420
  2234388
370
     9
100
AcDbVertex
100
AcDb2dVertex
 10
116.2176693095958
 20
-148.3922342565217
 30
0.0
  0
VERTEX
  5
19B
330
199
100
AcDbEntity
  8
_U+30EC_U+30A4_U+30E4_U+30FC 1
 62
   179
420
  2234388
370
     9
100
AcDbVertex
100
AcDb2dVertex
 10
116.2134275357795
 20
-148.5270020855353
 30
0.0
  0
VERTEX
  5
19C
330
199
100
AcDbEntity
  8
_U+30EC_U+30A4_U+30E4_U+30FC 1
 62
   179
420
  2234388
370
     9
100
AcDbVertex
100
AcDb2dVertex
 10
108.5927255994794
 20
-152.9952909299044
 30
0.0
  0
VERTEX
  5
19D
330
199
100
AcDbEntity
  8
_U+30EC_U+30A4_U+30E4_U+30FC 1
 62
   179
420
  2234388
370
     9
100
AcDbVertex
100
AcDb2dVertex
 10
108.6421088900758
 20
-151.052903031627
 30
0.0
  0
SEQEND
  5
19E
330
199
100
AcDbEntity
  8
_U+30EC_U+30A4_U+30E4_U+30FC 1
 62
   179
420
  2234388
370
     9
  0
POLYLINE
  5
19F
330
1F
100
AcDbEntity
  8
_U+30EC_U+30A4_U+30E4_U+30FC 1
 62
   179
420
  2234388
370
     9
100
AcDb2dPolyline
 66
     1
 10
0.0
 20
0.0
 30
0.0
  0
VERTEX
  5
1A0
330
19F
100
AcDbEntity
  8
_U+30EC_U+30A4_U+30E4_U+30FC 1
 62
   179
420
  2234388
370
     9
100
AcDbVertex
100
AcDb2dVertex
 10
108.6422596130033
 20
-151.0528814997802
 30
0.0
  0
VERTEX
  5
1A1
330
19F
100
AcDbEntity
  8
_U+30EC_U+30A4_U+30E4_U+30FC 1
 62
   179
420
  2234388
370
     9
100
AcDbVertex
100
AcDb2dVertex
 10
107.3694367882076
 20
-151.6924850084636
 30
0.0
  0
SEQEND
  5
1A2
330
19F
100
AcDbEntity
  8
_U+30EC_U+30A4_U+30E4_U+30FC 1
 62
   179
420
  2234388
370
     9
  0
POLYLINE
  5
1A3
330
1F
100
AcDbEntity
  8
_U+30EC_U+30A4_U+30E4_U+30FC 1
 62
   179
420
  2234388
370
     9
100
AcDb2dPolyline
 66
     1
 10
0.0
 20
0.0
 30
0.0
  0
VERTEX
  5
1A4
330
1A3
100
AcDbEntity
  8
_U+30EC_U+30A4_U+30E4_U+30FC 1
 62
   179
420
  2234388
370
     9
100
AcDbVertex
100
AcDb2dVertex
 10
108.6108984781641
 20
-152.6772655529223
 30
0.0
  0
VERTEX
  5
1A5
330
1A3
100
AcDbEntity
  8
_U+30EC_U+30A4_U+30E4_U+30FC 1
 62
   179
420
  2234388
370
     9
100
AcDbVertex
100
AcDb2dVertex
 10
116.21784156437
 20
-148.3924280431428
 30
0.0
  0
SEQEND
  5
1A6
330
1A3
100
AcDbEntity
  8
_U+30EC_U+30A4_U+30E4_U+30FC 1
 62
   179
420
  2234388
370
     9
  0
POLYLINE
  5
1A7
330
1F
100
AcDbEntity
  8
_U+30EC_U+30A4_U+30E4_U+30FC 1
 62
   179
420
  2234388
370
     9
100
AcDb2dPolyline
 66
     1
 10
0.0
 20
0.0
 30
0.0
  0
VERTEX
  5
1A8
330
1A7
100
AcDbEntity
  8
_U+30EC_U+30A4_U+30E4_U+30FC 1
 62
   179
420
  2234388
370
     9
100
AcDbVertex
100
AcDb2dVertex
 10
129.141600512962
 20
-156.1905739287801
 30
0.0
  0
VERTEX
  5
1A9
330
1A7
100
AcDbEntity
  8
_U+30EC_U+30A4_U+30E4_U+30FC 1
 62
   179
420
  2234388
370
     9
100
AcDbVertex
100
AcDb2dVertex
 10
116.2136859179409
 20
-148.5268298307611
 30
0.0
  0
VERTEX
  5
1AA
330
1A7
100
AcDbEntity
  8
_U+30EC_U+30A4_U+30E4_U+30FC 1
 62
   179
420
  2234388
370
     9
100
AcDbVertex
100
AcDb2dVertex
 10
116.2175831822086
 20
-148.3924280431428
 30
0.0
  0
VERTEX
  5
1AB
330
1A7
100
AcDbEntity
  8
_U+30EC_U+30A4_U+30E4_U+30FC 1
 62
   179
420
  2234388
370
     9
100
AcDbVertex
100
AcDb2dVertex
 10
129.1557038726047
 20
-156.0462890234884
 30
0.0
  0
SEQEND
  5
1AC
330
1A7
100
AcDbEntity
  8
_U+30EC_U+30A4_U+30E4_U+30FC 1
 62
   179
420
  2234388
370
     9
  0
POLYLINE
  5
1AD
330
1F
100
AcDbEntity
  8
_U+30EC_U+30A4_U+30E4_U+30FC 1
 62
   179
420
  2234388
370
     9
100
AcDb2dPolyline
 66
     1
 10
0.0
 20
0.0
 30
0.0
  0
VERTEX
  5
1AE
330
1AD
100
AcDbEntity
  8
_U+30EC_U+30A4_U+30E4_U+30FC 1
 62
   179
420
  2234388
370
     9
100
AcDbVertex
100
AcDb2dVertex
 10
120.0837554631431
 20
-167.0162697268549
 30
0.0
  0
VERTEX
  5
1AF
330
1AD
100
AcDbEntity
  8
_U+30EC_U+30A4_U+30E4_U+30FC 1
 62
   179
420
  2234388
370
     9
100
AcDbVertex
100
AcDb2dVertex
 10
107.1558516340455
 20
-159.3521811192874
 30
0.0
  0
VERTEX
  5
1B0
330
1AD
100
AcDbEntity
  8
_U+30EC_U+30A4_U+30E4_U+30FC 1
 62
   179
420
  2234388
370
     9
100
AcDbVertex
100
AcDb2dVertex
 10
107.3445890370202
 20
-159.2456415414061
 30
0.0
  0
VERTEX
  5
1B1
330
1AD
100
AcDbEntity
  8
_U+30EC_U+30A4_U+30E4_U+30FC 1
 62
   179
420
  2234388
370
     9
100
AcDbVertex
100
AcDb2dVertex
 10
120.3292831120075
 20
-166.8737504329995
 30
0.0
  0
SEQEND
  5
1B2
330
1AD
100
AcDbEntity
  8
_U+30EC_U+30A4_U+30E4_U+30FC 1
 62
   179
420
  2234388
370
     9
  0
POLYLINE
  5
1B3
330
1F
100
AcDbEntity
  8
_U+30EC_U+30A4_U+30E4_U+30FC 1
 62
   179
420
  2234388
370
     9
100
AcDb2dPolyline
 66
     1
 10
0.0
 20
0.0
 30
0.0
  0
VERTEX
  5
1B4
330
1B3
100
AcDbEntity
  8
_U+30EC_U+30A4_U+30E4_U+30FC 1
 62
   179
420
  2234388
370
     9
100
AcDbVertex
100
AcDb2dVertex
 10
108.5926502380157
 20
-152.9952048025173
 30
0.0
  0
VERTEX
  5
1B5
330
1B3
100
AcDbEntity
  8
_U+30EC_U+30A4_U+30E4_U+30FC 1
 62
   179
420
  2234388
370
     9
100
AcDbVertex
100
AcDb2dVertex
 10
121.5956786805386
 20
-160.6882322121608
 30
0.0
  0
SEQEND
  5
1B6
330
1B3
100
AcDbEntity
  8
_U+30EC_U+30A4_U+30E4_U+30FC 1
 62
   179
420
  2234388
370
     9
  0
POLYLINE
  5
1B7
330
1F
100
AcDbEntity
  8
_U+30EC_U+30A4_U+30E4_U+30FC 1
 62
   179
420
  2234388
370
     9
100
AcDb2dPolyline
 66
     1
 10
0.0
 20
0.0
 30
0.0
  0
VERTEX
  5
1B8
330
1B7
100
AcDbEntity
  8
_U+30EC_U+30A4_U+30E4_U+30FC 1
 62
   179
420
  2234388
370
     9
100
AcDbVertex
100
AcDb2dVertex
 10
108.9847021042371
 20
-150.5767908355654
 30
0.0
  0
VERTEX
  5
1B9
330
1B7
100
AcDbEntity
  8
_U+30EC_U+30A4_U+30E4_U+30FC 1
 62
   179
420
  2234388
370
     9
100
AcDbVertex
100
AcDb2dVertex
 10
110.6064162083781
 20
-151.5427094822424
 30
0.0
  0
SEQEND
  5
1BA
330
1B7
100
AcDbEntity
  8
_U+30EC_U+30A4_U+30E4_U+30FC 1
 62
   179
420
  2234388
370
     9
  0
POLYLINE
  5
1BB
330
1F
100
AcDbEntity
  8
_U+30EC_U+30A4_U+30E4_U+30FC 1
 62
   179
420
  2234388
370
     9
100
AcDb2dPolyline
 66
     1
 10
0.0
 20
0.0
 30
0.0
  0
VERTEX
  5
1BC
330
1BB
100
AcDbEntity
  8
_U+30EC_U+30A4_U+30E4_U+30FC 1
 62
   179
420
  2234388
370
     9
100
AcDbVertex
100
AcDb2dVertex
 10
107.6834787735349
 20
-151.546219173268
 30
0.0
  0
VERTEX
  5
1BD
330
1BB
100
AcDbEntity
  8
_U+30EC_U+30A4_U+30E4_U+30FC 1
 62
   179
420
  2234388
370
     9
100
AcDbVertex
100
AcDb2dVertex
 10
108.615517059299
 20
-152.1092554347917
 30
0.0
  0
SEQEND
  5
1BE
330
1BB
100
AcDbEntity
  8
_U+30EC_U+30A4_U+30E4_U+30FC 1
 62
   179
420
  2234388
370
     9
  0
SPLINE
  5
1BF
330
1F
100
AcDbEntity
  8
_U+30EC_U+30A4_U+30E4_U+30FC 1
 62
   179
420
  2234388
370
     9
100
AcDbSpline
210
0.0
220
0.0
230
1.0
 70
     8
 71
     3
 72
    11
 73
     7
 74
     0
 42
0.0000000001
 43
0.0000000001
 12
1.0
 22
0.0
 32
0.0
 13
1.0
 23
0.0
 33
0.0
 40
0.0
 40
0.0
 40
0.0
 40
0.0
 40
1.0
 40
1.0
 40
1.0
 40
2.0
 40
2.0
 40
2.0
 40
2.0
 10
109.4156835494419
 20
-156.1853416900118
 30
0.0
 10
109.5148054061065
 20
-155.9733391265883
 30
0.0
 10
109.4812910865891
 20
-155.6392509919062
 30
0.0
 10
109.3077228696729
 20
-155.3238740320783
 30
0.0
 10
109.0823059657036
 20
-154.912874140688
 30
0.0
 10
108.702710272846
 20
-154.6846365647902
 30
0.0
 10
108.4406031019589
 20
-154.7943413241486
 30
0.0
  0
SPLINE
  5
1C0
330
1F
100
AcDbEntity
  8
_U+30EC_U+30A4_U+30E4_U+30FC 1
 62
   179
420
  2234388
370
     9
100
AcDbSpline
210
0.0
220
0.0
230
1.0
 70
    11
 71
     3
 72
    17
 73
    13
 74
     0
 42
0.0000000001
 43
0.0000000001
 12
1.0
 22
0.0
 32
0.0
 13
1.0
 23
0.0
 33
0.0
 40
0.0
 40
0.0
 40
0.0
 40
0.0
 40
1.0
 40
1.0
 40
1.0
 40
2.0
 40
2.0
 40
2.0
 40
3.0
 40
3.0
 40
3.0
 40
4.0
 40
4.0
 40
4.0
 40
4.0
 10
109.4484227224751
 20
-156.1709153526674
 30
0.0
 10
109.1866600611365
 20
-156.3145112388619
 30
0.0
 10
108.7837884419067
 20
-156.0841420101326
 30
0.0
 10
108.5488329298127
 20
-155.656218087171
 30
0.0
 10
108.3135329081701
 20
-155.2276051451124
 30
0.0
 10
108.335398498578
 20
-154.7643905252737
 30
0.0
 10
108.5964613748963
 20
-154.6204716613775
 30
0.0
 10
108.8582240362349
 20
-154.4765312656343
 30
0.0
 10
109.2610956554647
 20
-154.7076110453075
 30
0.0
 10
109.4963956771072
 20
-155.1351689268738
 30
0.0
 10
109.7313404232779
 20
-155.5634373593839
 30
0.0
 10
109.7098301083419
 20
-156.026996488771
 30
0.0
 10
109.4484227224751
 20
-156.1709153526674
 30
0.0
  0
SPLINE
  5
1C1
330
1F
100
AcDbEntity
  8
_U+30EC_U+30A4_U+30E4_U+30FC 1
 62
   179
420
  2234388
370
     9
100
AcDbSpline
210
0.0
220
0.0
230
1.0
 70
     8
 71
     3
 72
    11
 73
     7
 74
     0
 42
0.0000000001
 43
0.0000000001
 12
1.0
 22
0.0
 32
0.0
 13
1.0
 23
0.0
 33
0.0
 40
0.0
 40
0.0
 40
0.0
 40
0.0
 40
1.0
 40
1.0
 40
1.0
 40
2.0
 40
2.0
 40
2.0
 40
2.0
 10
109.4156835494419
 20
-159.3467981575917
 30
0.0
 10
109.5148054061065
 20
-159.1344295527728
 30
0.0
 10
109.4812910865891
 20
-158.8003629499375
 30
0.0
 10
109.3077228696729
 20
-158.4849644582629
 30
0.0
 10
109.0823059657036
 20
-158.0739860987194
 30
0.0
 10
108.702710272846
 20
-157.8460930323701
 30
0.0
 10
108.4406031019589
 20
-157.95545328218
 30
0.0
  0
SPLINE
  5
1C2
330
1F
100
AcDbEntity
  8
_U+30EC_U+30A4_U+30E4_U+30FC 1
 62
   179
420
  2234388
370
     9
100
AcDbSpline
210
0.0
220
0.0
230
1.0
 70
    11
 71
     3
 72
    17
 73
    13
 74
     0
 42
0.0000000001
 43
0.0000000001
 12
1.0
 22
0.0
 32
0.0
 13
1.0
 23
0.0
 33
0.0
 40
0.0
 40
0.0
 40
0.0
 40
0.0
 40
1.0
 40
1.0
 40
1.0
 40
2.0
 40
2.0
 40
2.0
 40
3.0
 40
3.0
 40
3.0
 40
4.0
 40
4.0
 40
4.0
 40
4.0
 10
109.4484227224751
 20
-159.3323072247069
 30
0.0
 10
109.1866600611365
 20
-159.4755370695061
 30
0.0
 10
108.7837884419067
 20
-159.2448233312283
 30
0.0
 10
108.5488329298127
 20
-158.8168994082667
 30
0.0
 10
108.3135329081701
 20
-158.3889970171519
 30
0.0
 10
108.335398498578
 20
-157.9250933782162
 30
0.0
 10
108.5964613748963
 20
-157.781863533417
 30
0.0
 10
108.8582240362349
 20
-157.6379231376739
 30
0.0
 10
109.2610956554647
 20
-157.8686368759517
 30
0.0
 10
109.4963956771072
 20
-158.2965607989133
 30
0.0
 10
109.7313404232779
 20
-158.7244847218749
 30
0.0
 10
109.7098301083419
 20
-159.1883883608105
 30
0.0
 10
109.4484227224751
 20
-159.3323072247069
 30
0.0
  0
SPLINE
  5
1C3
330
1F
100
AcDbEntity
  8
_U+30EC_U+30A4_U+30E4_U+30FC 1
 62
   179
420
  2234388
370
     9
100
AcDbSpline
210
0.0
220
0.0
230
1.0
 70
     8
 71
     3
 72
    11
 73
     7
 74
     0
 42
0.0000000001
 43
0.0000000001
 12
1.0
 22
0.0
 32
0.0
 13
1.0
 23
0.0
 33
0.0
 40
0.0
 40
0.0
 40
0.0
 40
0.0
 40
1.0
 40
1.0
 40
1.0
 40
2.0
 40
2.0
 40
2.0
 40
2.0
 10
113.2486860204074
 20
-158.4619253822053
 30
0.0
 10
113.3471080920517
 20
-158.2502673283302
 30
0.0
 10
113.3142935575547
 20
-157.9161791936481
 30
0.0
 10
113.1403808310899
 20
-157.6008022338203
 30
0.0
 10
112.9149423952739
 20
-157.1894578328815
 30
0.0
 10
112.5350129587912
 20
-156.9615647665322
 30
0.0
 10
112.273594807001
 20
-157.0712910577374
 30
0.0
  0
SPLINE
  5
1C4
330
1F
100
AcDbEntity
  8
_U+30EC_U+30A4_U+30E4_U+30FC 1
 62
   179
420
  2234388
370
     9
100
AcDbSpline
210
0.0
220
0.0
230
1.0
 70
    11
 71
     3
 72
    17
 73
    13
 74
     0
 42
0.0000000001
 43
0.0000000001
 12
1.0
 22
0.0
 32
0.0
 13
1.0
 23
0.0
 33
0.0
 40
0.0
 40
0.0
 40
0.0
 40
0.0
 40
1.0
 40
1.0
 40
1.0
 40
2.0
 40
2.0
 40
2.0
 40
3.0
 40
3.0
 40
3.0
 40
4.0
 40
4.0
 40
4.0
 40
4.0
 10
113.2810699179688
 20
-158.447778958869
 30
0.0
 10
113.0193072566302
 20
-158.5913748450635
 30
0.0
 10
112.6167693810255
 20
-158.3606611067857
 30
0.0
 10
112.3814693593829
 20
-157.9327371838241
 30
0.0
 10
112.1461693377404
 20
-157.504468751314
 30
0.0
 10
112.1677011845232
 20
-157.0409096219269
 30
0.0
 10
112.4294638458618
 20
-156.8969692261838
 30
0.0
 10
112.6912049753537
 20
-156.753394871836
 30
0.0
 10
113.0937428509583
 20
-156.9841086101138
 30
0.0
 10
113.3290428726009
 20
-157.4116880235269
 30
0.0
 10
113.5643428942435
 20
-157.8403009655855
 30
0.0
 10
113.5428110474607
 20
-158.3038600949727
 30
0.0
 10
113.2810699179688
 20
-158.447778958869
 30
0.0
  0
SPLINE
  5
1C5
330
1F
100
AcDbEntity
  8
_U+30EC_U+30A4_U+30E4_U+30FC 1
 62
   179
420
  2234388
370
     9
100
AcDbSpline
210
0.0
220
0.0
230
1.0
 70
     8
 71
     3
 72
    11
 73
     7
 74
     0
 42
0.0000000001
 43
0.0000000001
 12
1.0
 22
0.0
 32
0.0
 13
1.0
 23
0.0
 33
0.0
 40
0.0
 40
0.0
 40
0.0
 40
0.0
 40
1.0
 40
1.0
 40
1.0
 40
2.0
 40
2.0
 40
2.0
 40
2.0
 10
113.2486860204074
 20
-161.6233172542448
 30
0.0
 10
113.3471080920517
 20
-161.4116592003697
 30
0.0
 10
113.3142935575547
 20
-161.0775710656876
 30
0.0
 10
113.1403808310899
 20
-160.761483554916
 30
0.0
 10
112.9149423952739
 20
-160.350849704921
 30
0.0
 10
112.5350129587912
 20
-160.1226121290232
 30
0.0
 10
112.273594807001
 20
-160.2323168883816
 30
0.0
  0
SPLINE
  5
1C6
330
1F
100
AcDbEntity
  8
_U+30EC_U+30A4_U+30E4_U+30FC 1
 62
   179
420
  2234388
370
     9
100
AcDbSpline
210
0.0
220
0.0
230
1.0
 70
    11
 71
     3
 72
    17
 73
    13
 74
     0
 42
0.0000000001
 43
0.0000000001
 12
1.0
 22
0.0
 32
0.0
 13
1.0
 23
0.0
 33
0.0
 40
0.0
 40
0.0
 40
0.0
 40
0.0
 40
1.0
 40
1.0
 40
1.0
 40
2.0
 40
2.0
 40
2.0
 40
3.0
 40
3.0
 40
3.0
 40
4.0
 40
4.0
 40
4.0
 40
4.0
 10
113.2810699179688
 20
-161.6088047895132
 30
0.0
 10
113.0193072566302
 20
-161.7527451852563
 30
0.0
 10
112.6167693810255
 20
-161.5220314469784
 30
0.0
 10
112.3814693593829
 20
-161.0941075240168
 30
0.0
 10
112.1461693377404
 20
-160.6654945819582
 30
0.0
 10
112.1677011845232
 20
-160.2019354525711
 30
0.0
 10
112.4294638458618
 20
-160.0583610982233
 30
0.0
 10
112.6912049753537
 20
-159.9144207024802
 30
0.0
 10
113.0937428509583
 20
-160.1455004821533
 30
0.0
 10
113.3290428726009
 20
-160.5730583637196
 30
0.0
 10
113.5643428942435
 20
-161.001692837625
 30
0.0
 10
113.5428110474607
 20
-161.4648859256169
 30
0.0
 10
113.2810699179688
 20
-161.6088047895132
 30
0.0
  0
SPLINE
  5
1C7
330
1F
100
AcDbEntity
  8
_U+30EC_U+30A4_U+30E4_U+30FC 1
 62
   179
420
  2234388
370
     9
100
AcDbSpline
210
0.0
220
0.0
230
1.0
 70
     8
 71
     3
 72
    11
 73
     7
 74
     0
 42
0.0000000001
 43
0.0000000001
 12
1.0
 22
0.0
 32
0.0
 13
1.0
 23
0.0
 33
0.0
 40
0.0
 40
0.0
 40
0.0
 40
0.0
 40
1.0
 40
1.0
 40
1.0
 40
2.0
 40
2.0
 40
2.0
 40
2.0
 10
111.3649293409196
 20
-158.9374992820972
 30
0.0
 10
111.4637066880358
 20
-158.7251306772784
 30
0.0
 10
111.4305368780668
 20
-158.3910640744431
 30
0.0
 10
111.2566241516021
 20
-158.0753210732199
 30
0.0
 10
111.0315517571813
 20
-157.6646872232249
 30
0.0
 10
110.6516115547753
 20
-157.4367941568756
 30
0.0
 10
110.3898488934366
 20
-157.5461544066855
 30
0.0
  0
SPLINE
  5
1C8
330
1F
100
AcDbEntity
  8
_U+30EC_U+30A4_U+30E4_U+30FC 1
 62
   179
420
  2234388
370
     9
100
AcDbSpline
210
0.0
220
0.0
230
1.0
 70
    11
 71
     3
 72
    17
 73
    13
 74
     0
 42
0.0000000001
 43
0.0000000001
 12
1.0
 22
0.0
 32
0.0
 13
1.0
 23
0.0
 33
0.0
 40
0.0
 40
0.0
 40
0.0
 40
0.0
 40
1.0
 40
1.0
 40
1.0
 40
2.0
 40
2.0
 40
2.0
 40
3.0
 40
3.0
 40
3.0
 40
4.0
 40
4.0
 40
4.0
 40
4.0
 10
111.397313238481
 20
-158.923051412906
 30
0.0
 10
111.1358950866909
 20
-159.0662812577052
 30
0.0
 10
110.7330234674611
 20
-158.8355675194274
 30
0.0
 10
110.4980787212904
 20
-158.4076435964658
 30
0.0
 10
110.2627786996479
 20
-157.979741205351
 30
0.0
 10
110.2842890145839
 20
-157.5158375664153
 30
0.0
 10
110.545707166374
 20
-157.3722416802208
 30
0.0
 10
110.8074590617892
 20
-157.2286673258729
 30
0.0
 10
111.2099861714705
 20
-157.4590365546022
 30
0.0
 10
111.445641468585
 20
-157.8873049871124
 30
0.0
 10
111.6805862147556
 20
-158.3155734196225
 30
0.0
 10
111.6590543679728
 20
-158.7791325490097
 30
0.0
 10
111.397313238481
 20
-158.923051412906
 30
0.0
  0
SPLINE
  5
1C9
330
1F
100
AcDbEntity
  8
_U+30EC_U+30A4_U+30E4_U+30FC 1
 62
   179
420
  2234388
370
     9
100
AcDbSpline
210
0.0
220
0.0
230
1.0
 70
     8
 71
     3
 72
    11
 73
     7
 74
     0
 42
0.0000000001
 43
0.0000000001
 12
1.0
 22
0.0
 32
0.0
 13
1.0
 23
0.0
 33
0.0
 40
0.0
 40
0.0
 40
0.0
 40
0.0
 40
1.0
 40
1.0
 40
1.0
 40
2.0
 40
2.0
 40
2.0
 40
2.0
 10
116.9177127121985
 20
-160.6483337000723
 30
0.0
 10
117.0161347838428
 20
-160.4366756461973
 30
0.0
 10
116.9829757397972
 20
-160.1025875115152
 30
0.0
 10
116.809407522881
 20
-159.7872105516873
 30
0.0
 10
116.5836245775164
 20
-159.3765767016923
 30
0.0
 10
116.2040396505822
 20
-159.1483391257945
 30
0.0
 10
115.9422769892436
 20
-159.2580438851529
 30
0.0
  0
SPLINE
  5
1CA
330
1F
100
AcDbEntity
  8
_U+30EC_U+30A4_U+30E4_U+30FC 1
 62
   179
420
  2234388
370
     9
100
AcDbSpline
210
0.0
220
0.0
230
1.0
 70
    11
 71
     3
 72
    17
 73
    13
 74
     0
 42
0.0000000001
 43
0.0000000001
 12
1.0
 22
0.0
 32
0.0
 13
1.0
 23
0.0
 33
0.0
 40
0.0
 40
0.0
 40
0.0
 40
0.0
 40
1.0
 40
1.0
 40
1.0
 40
2.0
 40
2.0
 40
2.0
 40
3.0
 40
3.0
 40
3.0
 40
4.0
 40
4.0
 40
4.0
 40
4.0
 10
116.9500966097599
 20
-160.6345748499781
 30
0.0
 10
116.6883339484212
 20
-160.7778046947773
 30
0.0
 10
116.2854515632681
 20
-160.5470909564995
 30
0.0
 10
116.0501515416255
 20
-160.1191670335379
 30
0.0
 10
115.8151960295314
 20
-159.6912646424231
 30
0.0
 10
115.8367278763143
 20
-159.227705513036
 30
0.0
 10
116.0984905376529
 20
-159.0837651172929
 30
0.0
 10
116.3598871575962
 20
-158.9401907629451
 30
0.0
 10
116.7627695427494
 20
-159.1705599916744
 30
0.0
 10
116.998069564392
 20
-159.5988284241845
 30
0.0
 10
117.2333695860345
 20
-160.0267523471461
 30
0.0
 10
117.2118377392517
 20
-160.4906559860818
 30
0.0
 10
116.9500966097599
 20
-160.6345748499781
 30
0.0
  0
SPLINE
  5
1CB
330
1F
100
AcDbEntity
  8
_U+30EC_U+30A4_U+30E4_U+30FC 1
 62
   179
420
  2234388
370
     9
100
AcDbSpline
210
0.0
220
0.0
230
1.0
 70
     8
 71
     3
 72
    11
 73
     7
 74
     0
 42
0.0000000001
 43
0.0000000001
 12
1.0
 22
0.0
 32
0.0
 13
1.0
 23
0.0
 33
0.0
 40
0.0
 40
0.0
 40
0.0
 40
0.0
 40
1.0
 40
1.0
 40
1.0
 40
2.0
 40
2.0
 40
2.0
 40
2.0
 10
116.9177127121985
 20
-163.8095748491843
 30
0.0
 10
117.0161347838428
 20
-163.5979167953093
 30
0.0
 10
116.9829757397972
 20
-163.2638286606272
 30
0.0
 10
116.809407522881
 20
-162.9484517007994
 30
0.0
 10
116.5836245775164
 20
-162.5371072998605
 30
0.0
 10
116.2040396505822
 20
-162.3095802749066
 30
0.0
 10
115.9422769892436
 20
-162.419285034265
 30
0.0
  0
SPLINE
  5
1CC
330
1F
100
AcDbEntity
  8
_U+30EC_U+30A4_U+30E4_U+30FC 1
 62
   179
420
  2234388
370
     9
100
AcDbSpline
210
0.0
220
0.0
230
1.0
 70
    11
 71
     3
 72
    17
 73
    13
 74
     0
 42
0.0000000001
 43
0.0000000001
 12
1.0
 22
0.0
 32
0.0
 13
1.0
 23
0.0
 33
0.0
 40
0.0
 40
0.0
 40
0.0
 40
0.0
 40
1.0
 40
1.0
 40
1.0
 40
2.0
 40
2.0
 40
2.0
 40
3.0
 40
3.0
 40
3.0
 40
4.0
 40
4.0
 40
4.0
 40
4.0
 10
116.9500966097599
 20
-163.7957944672433
 30
0.0
 10
116.6883339484212
 20
-163.9390243120426
 30
0.0
 10
116.2854515632681
 20
-163.7083105737648
 30
0.0
 10
116.0501515416255
 20
-163.2803866508032
 30
0.0
 10
115.8151960295314
 20
-162.8524842596884
 30
0.0
 10
115.8367278763143
 20
-162.3889251303012
 30
0.0
 10
116.0984905376529
 20
-162.2449847345581
 30
0.0
 10
116.3598871575962
 20
-162.1014103802103
 30
0.0
 10
116.7627695427494
 20
-162.3317796089396
 30
0.0
 10
116.998069564392
 20
-162.7600480414497
 30
0.0
 10
117.2333695860345
 20
-163.1879719644114
 30
0.0
 10
117.2118377392517
 20
-163.651875603347
 30
0.0
 10
116.9500966097599
 20
-163.7957944672433
 30
0.0
  0
SPLINE
  5
1CD
330
1F
100
AcDbEntity
  8
_U+30EC_U+30A4_U+30E4_U+30FC 1
 62
   179
420
  2234388
370
     9
100
AcDbSpline
210
0.0
220
0.0
230
1.0
 70
     8
 71
     3
 72
    11
 73
     7
 74
     0
 42
0.0000000001
 43
0.0000000001
 12
1.0
 22
0.0
 32
0.0
 13
1.0
 23
0.0
 33
0.0
 40
0.0
 40
0.0
 40
0.0
 40
0.0
 40
1.0
 40
1.0
 40
1.0
 40
2.0
 40
2.0
 40
2.0
 40
2.0
 10
115.0339129690171
 20
-161.12373534519
 30
0.0
 10
115.1326795502099
 20
-160.9120772913149
 30
0.0
 10
115.0995205061644
 20
-160.5779891566329
 30
0.0
 10
114.9256077796996
 20
-160.2619016458612
 30
0.0
 10
114.7001693438836
 20
-159.8512677958662
 30
0.0
 10
114.3205844169494
 20
-159.6230302199684
 30
0.0
 10
114.0588217556107
 20
-159.7327349793268
 30
0.0
  0
SPLINE
  5
1CE
330
1F
100
AcDbEntity
  8
_U+30EC_U+30A4_U+30E4_U+30FC 1
 62
   179
420
  2234388
370
     9
100
AcDbSpline
210
0.0
220
0.0
230
1.0
 70
    11
 71
     3
 72
    17
 73
    13
 74
     0
 42
0.0000000001
 43
0.0000000001
 12
1.0
 22
0.0
 32
0.0
 13
1.0
 23
0.0
 33
0.0
 40
0.0
 40
0.0
 40
0.0
 40
0.0
 40
1.0
 40
1.0
 40
1.0
 40
2.0
 40
2.0
 40
2.0
 40
3.0
 40
3.0
 40
3.0
 40
4.0
 40
4.0
 40
4.0
 40
4.0
 10
115.0662968665785
 20
-161.1093090078455
 30
0.0
 10
114.8045342052398
 20
-161.2532494035886
 30
0.0
 10
114.4019963296352
 20
-161.0225356653108
 30
0.0
 10
114.1666963079926
 20
-160.5946117423492
 30
0.0
 10
113.9313962863501
 20
-160.1659988002905
 30
0.0
 10
113.9529281331329
 20
-159.7024396709034
 30
0.0
 10
114.2146907944715
 20
-159.5588653165556
 30
0.0
 10
114.4764319239634
 20
-159.4149249208125
 30
0.0
 10
114.8793143091166
 20
-159.6460047004856
 30
0.0
 10
115.1146143307591
 20
-160.0735625820519
 30
0.0
 10
115.3495698428532
 20
-160.5021970559574
 30
0.0
 10
115.3280379960703
 20
-160.9653901439492
 30
0.0
 10
115.0662968665785
 20
-161.1093090078455
 30
0.0
  0
SPLINE
  5
1CF
330
1F
100
AcDbEntity
  8
_U+30EC_U+30A4_U+30E4_U+30FC 1
 62
   179
420
  2234388
370
     9
100
AcDbSpline
210
0.0
220
0.0
230
1.0
 70
     8
 71
     3
 72
    11
 73
     7
 74
     0
 42
0.0000000001
 43
0.0000000001
 12
1.0
 22
0.0
 32
0.0
 13
1.0
 23
0.0
 33
0.0
 40
0.0
 40
0.0
 40
0.0
 40
0.0
 40
1.0
 40
1.0
 40
1.0
 40
2.0
 40
2.0
 40
2.0
 40
2.0
 10
120.6194893429463
 20
-162.7615768025713
 30
0.0
 10
120.7179114145905
 20
-162.5499187486963
 30
0.0
 10
120.684752370545
 20
-162.2151415949171
 30
0.0
 10
120.5111841536287
 20
-161.9004536541864
 30
0.0
 10
120.2854012082642
 20
-161.4891092532475
 30
0.0
 10
119.90581628133
 20
-161.2608716773497
 30
0.0
 10
119.6440536199913
 20
-161.3705764367081
 30
0.0
  0
SPLINE
  5
1D0
330
1F
100
AcDbEntity
  8
_U+30EC_U+30A4_U+30E4_U+30FC 1
 62
   179
420
  2234388
370
     9
100
AcDbSpline
210
0.0
220
0.0
230
1.0
 70
    11
 71
     3
 72
    17
 73
    13
 74
     0
 42
0.0000000001
 43
0.0000000001
 12
1.0
 22
0.0
 32
0.0
 13
1.0
 23
0.0
 33
0.0
 40
0.0
 40
0.0
 40
0.0
 40
0.0
 40
1.0
 40
1.0
 40
1.0
 40
2.0
 40
2.0
 40
2.0
 40
3.0
 40
3.0
 40
3.0
 40
4.0
 40
4.0
 40
4.0
 40
4.0
 10
120.651830176814
 20
-162.7470428059929
 30
0.0
 10
120.3900675154754
 20
-162.890983201736
 30
0.0
 10
119.9871851303222
 20
-162.6602694634582
 30
0.0
 10
119.7522296182282
 20
-162.2323455404966
 30
0.0
 10
119.5169295965856
 20
-161.804421617535
 30
0.0
 10
119.5380954019731
 20
-161.3408840199947
 30
0.0
 10
119.7998580633118
 20
-161.196599114703
 30
0.0
 10
120.0616207246504
 20
-161.0533692699038
 30
0.0
 10
120.4645031098036
 20
-161.2837384986331
 30
0.0
 10
120.6994370900508
 20
-161.7112963801993
 30
0.0
 10
120.9347371116934
 20
-162.1399308541048
 30
0.0
 10
120.9132267967574
 20
-162.6038344930405
 30
0.0
 10
120.651830176814
 20
-162.7470428059929
 30
0.0
  0
SPLINE
  5
1D1
330
1F
100
AcDbEntity
  8
_U+30EC_U+30A4_U+30E4_U+30FC 1
 62
   179
420
  2234388
370
     9
100
AcDbSpline
210
0.0
220
0.0
230
1.0
 70
     8
 71
     3
 72
    11
 73
     7
 74
     0
 42
0.0000000001
 43
0.0000000001
 12
1.0
 22
0.0
 32
0.0
 13
1.0
 23
0.0
 33
0.0
 40
0.0
 40
0.0
 40
0.0
 40
0.0
 40
1.0
 40
1.0
 40
1.0
 40
2.0
 40
2.0
 40
2.0
 40
2.0
 10
120.6194893429463
 20
-165.9227964198366
 30
0.0
 10
120.7179114145905
 20
-165.7111383659615
 30
0.0
 10
120.684752370545
 20
-165.3763612121824
 30
0.0
 10
120.5111841536287
 20
-165.0616732714516
 30
0.0
 10
120.2854012082642
 20
-164.6503288705128
 30
0.0
 10
119.90581628133
 20
-164.422091294615
 30
0.0
 10
119.6440536199913
 20
-164.5317960539734
 30
0.0
  0
SPLINE
  5
1D2
330
1F
100
AcDbEntity
  8
_U+30EC_U+30A4_U+30E4_U+30FC 1
 62
   179
420
  2234388
370
     9
100
AcDbSpline
210
0.0
220
0.0
230
1.0
 70
    11
 71
     3
 72
    17
 73
    13
 74
     0
 42
0.0000000001
 43
0.0000000001
 12
1.0
 22
0.0
 32
0.0
 13
1.0
 23
0.0
 33
0.0
 40
0.0
 40
0.0
 40
0.0
 40
0.0
 40
1.0
 40
1.0
 40
1.0
 40
2.0
 40
2.0
 40
2.0
 40
3.0
 40
3.0
 40
3.0
 40
4.0
 40
4.0
 40
4.0
 40
4.0
 10
120.651830176814
 20
-165.908283955105
 30
0.0
 10
120.3900675154754
 20
-166.0522243508481
 30
0.0
 10
119.9871851303222
 20
-165.8215106125703
 30
0.0
 10
119.7522296182282
 20
-165.3935866896086
 30
0.0
 10
119.5169295965856
 20
-164.9656627666471
 30
0.0
 10
119.5380954019731
 20
-164.5014146181628
 30
0.0
 10
119.7998580633118
 20
-164.3578402638151
 30
0.0
 10
120.0616207246504
 20
-164.213899868072
 30
0.0
 10
120.4645031098036
 20
-164.4449796477451
 30
0.0
 10
120.6994370900508
 20
-164.8725375293114
 30
0.0
 10
120.9347371116934
 20
-165.3011720032168
 30
0.0
 10
120.9132267967574
 20
-165.7643650912086
 30
0.0
 10
120.651830176814
 20
-165.908283955105
 30
0.0
  0
SPLINE
  5
1D3
330
1F
100
AcDbEntity
  8
_U+30EC_U+30A4_U+30E4_U+30FC 1
 62
   179
420
  2234388
370
     9
100
AcDbSpline
210
0.0
220
0.0
230
1.0
 70
     8
 71
     3
 72
    11
 73
     7
 74
     0
 42
0.0000000001
 43
0.0000000001
 12
1.0
 22
0.0
 32
0.0
 13
1.0
 23
0.0
 33
0.0
 40
0.0
 40
0.0
 40
0.0
 40
0.0
 40
1.0
 40
1.0
 40
1.0
 40
2.0
 40
2.0
 40
2.0
 40
2.0
 10
118.7356895997649
 20
-163.2363109604388
 30
0.0
 10
118.8341116714091
 20
-163.0246529065637
 30
0.0
 10
118.8012971369121
 20
-162.6905647718816
 30
0.0
 10
118.6277289199958
 20
-162.3751878120538
 30
0.0
 10
118.4019459746313
 20
-161.9638434111149
 30
0.0
 10
118.0223610476971
 20
-161.736316386161
 30
0.0
 10
117.7602538768099
 20
-161.8460211455194
 30
0.0
  0
SPLINE
  5
1D4
330
1F
100
AcDbEntity
  8
_U+30EC_U+30A4_U+30E4_U+30FC 1
 62
   179
420
  2234388
370
     9
100
AcDbSpline
210
0.0
220
0.0
230
1.0
 70
    11
 71
     3
 72
    17
 73
    13
 74
     0
 42
0.0000000001
 43
0.0000000001
 12
1.0
 22
0.0
 32
0.0
 13
1.0
 23
0.0
 33
0.0
 40
0.0
 40
0.0
 40
0.0
 40
0.0
 40
1.0
 40
1.0
 40
1.0
 40
2.0
 40
2.0
 40
2.0
 40
3.0
 40
3.0
 40
3.0
 40
4.0
 40
4.0
 40
4.0
 40
4.0
 10
118.7680734973262
 20
-163.2217769638603
 30
0.0
 10
118.5066553455361
 20
-163.3657173596035
 30
0.0
 10
118.1034284508344
 20
-163.1350036213256
 30
0.0
 10
117.8684729387404
 20
-162.707079698364
 30
0.0
 10
117.6331729170978
 20
-162.2791557754024
 30
0.0
 10
117.6550492734291
 20
-161.8156181778621
 30
0.0
 10
117.9164674252192
 20
-161.6713332725705
 30
0.0
 10
118.1778640451626
 20
-161.5281034277712
 30
0.0
 10
118.5810909398643
 20
-161.7584726565005
 30
0.0
 10
118.8160464519583
 20
-162.1867410890106
 30
0.0
 10
119.0513464736009
 20
-162.6146650119722
 30
0.0
 10
119.0298146268181
 20
-163.0785686509079
 30
0.0
 10
118.7680734973262
 20
-163.2217769638603
 30
0.0
  0
SPLINE
  5
1D5
330
1F
100
AcDbEntity
  8
_U+30EC_U+30A4_U+30E4_U+30FC 1
 62
   179
420
  2234388
370
     9
100
AcDbSpline
210
0.0
220
0.0
230
1.0
 70
     8
 71
     3
 72
    11
 73
     7
 74
     0
 42
0.0000000001
 43
0.0000000001
 12
1.0
 22
0.0
 32
0.0
 13
1.0
 23
0.0
 33
0.0
 40
0.0
 40
0.0
 40
0.0
 40
0.0
 40
1.0
 40
1.0
 40
1.0
 40
2.0
 40
2.0
 40
2.0
 40
2.0
 10
112.4910879913542
 20
-152.1157149888265
 30
0.0
 10
112.5891440216031
 20
-152.3489048894844
 30
0.0
 10
112.9345148439995
 20
-152.5210735363598
 30
0.0
 10
113.3465697958821
 20
-152.5210735363598
 30
0.0
 10
113.758603215918
 20
-152.5210735363598
 30
0.0
 10
114.1036295287658
 20
-152.3489048894844
 30
0.0
 10
114.2023961099585
 20
-152.1157149888265
 30
0.0
  0
SPLINE
  5
1D6
330
1F
100
AcDbEntity
  8
_U+30EC_U+30A4_U+30E4_U+30FC 1
 62
   179
420
  2234388
370
     9
100
AcDbSpline
210
0.0
220
0.0
230
1.0
 70
    11
 71
     3
 72
    17
 73
    13
 74
     0
 42
0.0000000001
 43
0.0000000001
 12
1.0
 22
0.0
 32
0.0
 13
1.0
 23
0.0
 33
0.0
 40
0.0
 40
0.0
 40
0.0
 40
0.0
 40
1.0
 40
1.0
 40
1.0
 40
2.0
 40
2.0
 40
2.0
 40
3.0
 40
3.0
 40
3.0
 40
4.0
 40
4.0
 40
4.0
 40
4.0
 10
114.2312487846475
 20
-152.2511072413969
 30
0.0
 10
114.2312487846475
 20
-152.5495601696534
 30
0.0
 10
113.8350628038438
 20
-152.7912120860969
 30
0.0
 10
113.3464621366482
 20
-152.7912120860969
 30
0.0
 10
112.8578830012994
 20
-152.7912120860969
 30
0.0
 10
112.4616970204957
 20
-152.5495601696534
 30
0.0
 10
112.4616970204957
 20
-152.2511072413969
 30
0.0
 10
112.4616970204957
 20
-151.9523098035918
 30
0.0
 10
112.8578830012994
 20
-151.7103133775998
 30
0.0
 10
113.3464621366482
 20
-151.7103133775998
 30
0.0
 10
113.8350628038438
 20
-151.7103133775998
 30
0.0
 10
114.2312487846475
 20
-151.9523098035918
 30
0.0
 10
114.2312487846475
 20
-152.2511072413969
 30
0.0
  0
SPLINE
  5
1D7
330
1F
100
AcDbEntity
  8
_U+30EC_U+30A4_U+30E4_U+30FC 1
 62
   179
420
  2234388
370
     9
100
AcDbSpline
210
0.0
220
0.0
230
1.0
 70
     8
 71
     3
 72
    11
 73
     7
 74
     0
 42
0.0000000001
 43
0.0000000001
 12
1.0
 22
0.0
 32
0.0
 13
1.0
 23
0.0
 33
0.0
 40
0.0
 40
0.0
 40
0.0
 40
0.0
 40
1.0
 40
1.0
 40
1.0
 40
2.0
 40
2.0
 40
2.0
 40
2.0
 10
116.3072417922123
 20
-152.6073301145717
 30
0.0
 10
116.4056638638565
 20
-152.840175505681
 30
0.0
 10
116.7510346862528
 20
-153.0123226207096
 30
0.0
 10
117.1630681062887
 20
-153.0123226207096
 30
0.0
 10
117.5751230581713
 20
-153.0123226207096
 30
0.0
 10
117.9201278391723
 20
-152.840175505681
 30
0.0
 10
118.0185499108165
 20
-152.6073301145717
 30
0.0
  0
SPLINE
  5
1D8
330
1F
100
AcDbEntity
  8
_U+30EC_U+30A4_U+30E4_U+30FC 1
 62
   179
420
  2234388
370
     9
100
AcDbSpline
210
0.0
220
0.0
230
1.0
 70
    11
 71
     3
 72
    17
 73
    13
 74
     0
 42
0.0000000001
 43
0.0000000001
 12
1.0
 22
0.0
 32
0.0
 13
1.0
 23
0.0
 33
0.0
 40
0.0
 40
0.0
 40
0.0
 40
0.0
 40
1.0
 40
1.0
 40
1.0
 40
2.0
 40
2.0
 40
2.0
 40
3.0
 40
3.0
 40
3.0
 40
4.0
 40
4.0
 40
4.0
 40
4.0
 10
118.0473379899652
 20
-152.7423347938999
 30
0.0
 10
118.0473379899652
 20
-153.0407877221565
 30
0.0
 10
117.6515180505567
 20
-153.2828056799953
 30
0.0
 10
117.1629173833612
 20
-153.2828056799953
 30
0.0
 10
116.6743167161656
 20
-153.2828056799953
 30
0.0
 10
116.2781522672087
 20
-153.0407877221565
 30
0.0
 10
116.2781522672087
 20
-152.7423347938999
 30
0.0
 10
116.2781522672087
 20
-152.4435373560949
 30
0.0
 10
116.6743167161656
 20
-152.2015409301028
 30
0.0
 10
117.1629173833612
 20
-152.2015409301028
 30
0.0
 10
117.6515180505567
 20
-152.2015409301028
 30
0.0
 10
118.0473379899652
 20
-152.4435373560949
 30
0.0
 10
118.0473379899652
 20
-152.7423347938999
 30
0.0
  0
SPLINE
  5
1D9
330
1F
100
AcDbEntity
  8
_U+30EC_U+30A4_U+30E4_U+30FC 1
 62
   179
420
  2234388
370
     9
100
AcDbSpline
210
0.0
220
0.0
230
1.0
 70
     8
 71
     3
 72
    11
 73
     7
 74
     0
 42
0.0000000001
 43
0.0000000001
 12
1.0
 22
0.0
 32
0.0
 13
1.0
 23
0.0
 33
0.0
 40
0.0
 40
0.0
 40
0.0
 40
0.0
 40
1.0
 40
1.0
 40
1.0
 40
2.0
 40
2.0
 40
2.0
 40
2.0
 10
124.988171864098
 20
-157.6846472451926
 30
0.0
 10
125.0865939357422
 20
-157.9174926363019
 30
0.0
 10
125.4319647581385
 20
-158.0896397513305
 30
0.0
 10
125.8439981781744
 20
-158.0896397513305
 30
0.0
 10
126.2560531300571
 20
-158.0896397513305
 30
0.0
 10
126.6010579110581
 20
-157.9174926363019
 30
0.0
 10
126.6998460240976
 20
-157.6846472451926
 30
0.0
  0
SPLINE
  5
1DA
330
1F
100
AcDbEntity
  8
_U+30EC_U+30A4_U+30E4_U+30FC 1
 62
   179
420
  2234388
370
     9
100
AcDbSpline
210
0.0
220
0.0
230
1.0
 70
    11
 71
     3
 72
    17
 73
    13
 74
     0
 42
0.0000000001
 43
0.0000000001
 12
1.0
 22
0.0
 32
0.0
 13
1.0
 23
0.0
 33
0.0
 40
0.0
 40
0.0
 40
0.0
 40
0.0
 40
1.0
 40
1.0
 40
1.0
 40
2.0
 40
2.0
 40
2.0
 40
3.0
 40
3.0
 40
3.0
 40
4.0
 40
4.0
 40
4.0
 40
4.0
 10
126.7283326573913
 20
-157.8197595837547
 30
0.0
 10
126.7283326573913
 20
-158.1185785534066
 30
0.0
 10
126.3325127179829
 20
-158.3602304698501
 30
0.0
 10
125.8439120507873
 20
-158.3602304698501
 30
0.0
 10
125.3553113835917
 20
-158.3602304698501
 30
0.0
 10
124.9594914441833
 20
-158.1185785534066
 30
0.0
 10
124.9594914441833
 20
-157.8197595837547
 30
0.0
 10
124.9594914441833
 20
-157.5213281873449
 30
0.0
 10
125.3553113835917
 20
-157.2796762709014
 30
0.0
 10
125.8439120507873
 20
-157.2796762709014
 30
0.0
 10
126.3325127179829
 20
-157.2796762709014
 30
0.0
 10
126.7283326573913
 20
-157.5213281873449
 30
0.0
 10
126.7283326573913
 20
-157.8197595837547
 30
0.0
  0
SPLINE
  5
1DB
330
1F
100
AcDbEntity
  8
_U+30EC_U+30A4_U+30E4_U+30FC 1
 62
   179
420
  2234388
370
     9
100
AcDbSpline
210
0.0
220
0.0
230
1.0
 70
     8
 71
     3
 72
    11
 73
     7
 74
     0
 42
0.0000000001
 43
0.0000000001
 12
1.0
 22
0.0
 32
0.0
 13
1.0
 23
0.0
 33
0.0
 40
0.0
 40
0.0
 40
0.0
 40
0.0
 40
1.0
 40
1.0
 40
1.0
 40
2.0
 40
2.0
 40
2.0
 40
2.0
 10
115.4886871049169
 20
-150.371420080951
 30
0.0
 10
115.5867431351658
 20
-150.6042654720603
 30
0.0
 10
115.9321139575621
 20
-150.7767786284842
 30
0.0
 10
116.3438028680495
 20
-150.7767786284842
 30
0.0
 10
116.7558578199321
 20
-150.7767786284842
 30
0.0
 10
117.1008626009331
 20
-150.6042654720603
 30
0.0
 10
117.1996507139727
 20
-150.371420080951
 30
0.0
  0
SPLINE
  5
1DC
330
1F
100
AcDbEntity
  8
_U+30EC_U+30A4_U+30E4_U+30FC 1
 62
   179
420
  2234388
370
     9
100
AcDbSpline
210
0.0
220
0.0
230
1.0
 70
    11
 71
     3
 72
    17
 73
    13
 74
     0
 42
0.0000000001
 43
0.0000000001
 12
1.0
 22
0.0
 32
0.0
 13
1.0
 23
0.0
 33
0.0
 40
0.0
 40
0.0
 40
0.0
 40
0.0
 40
1.0
 40
1.0
 40
1.0
 40
2.0
 40
2.0
 40
2.0
 40
3.0
 40
3.0
 40
3.0
 40
4.0
 40
4.0
 40
4.0
 40
4.0
 10
117.2284387931213
 20
-150.5064678239728
 30
0.0
 10
117.2284387931213
 20
-150.8049207522293
 30
0.0
 10
116.8326188537129
 20
-151.0469387100681
 30
0.0
 10
116.343652145122
 20
-151.0469387100681
 30
0.0
 10
115.8554175193217
 20
-151.0469387100681
 30
0.0
 10
115.4595975799133
 20
-150.8049207522293
 30
0.0
 10
115.4595975799133
 20
-150.5064678239728
 30
0.0
 10
115.4595975799133
 20
-150.208036427563
 30
0.0
 10
115.8554175193217
 20
-149.9660184697242
 30
0.0
 10
116.343652145122
 20
-149.9660184697242
 30
0.0
 10
116.8326188537129
 20
-149.9660184697242
 30
0.0
 10
117.2284387931213
 20
-150.208036427563
 30
0.0
 10
117.2284387931213
 20
-150.5064678239728
 30
0.0
  0
SPLINE
  5
1DD
330
1F
100
AcDbEntity
  8
_U+30EC_U+30A4_U+30E4_U+30FC 1
 62
   179
420
  2234388
370
     9
100
AcDbSpline
210
0.0
220
0.0
230
1.0
 70
     8
 71
     3
 72
    11
 73
     7
 74
     0
 42
0.0000000001
 43
0.0000000001
 12
1.0
 22
0.0
 32
0.0
 13
1.0
 23
0.0
 33
0.0
 40
0.0
 40
0.0
 40
0.0
 40
0.0
 40
1.0
 40
1.0
 40
1.0
 40
2.0
 40
2.0
 40
2.0
 40
2.0
 10
117.0117638189459
 20
-154.7856639898952
 30
0.0
 10
117.1098198491948
 20
-155.0185093810045
 30
0.0
 10
117.4551906715911
 20
-155.1910225374284
 30
0.0
 10
117.8672456234737
 20
-155.1910225374284
 30
0.0
 10
118.2792790435096
 20
-155.1910225374284
 30
0.0
 10
118.6243053563574
 20
-155.0185093810045
 30
0.0
 10
118.7227274280016
 20
-154.7856639898952
 30
0.0
  0
SPLINE
  5
1DE
330
1F
100
AcDbEntity
  8
_U+30EC_U+30A4_U+30E4_U+30FC 1
 62
   179
420
  2234388
370
     9
100
AcDbSpline
210
0.0
220
0.0
230
1.0
 70
    11
 71
     3
 72
    17
 73
    13
 74
     0
 42
0.0000000001
 43
0.0000000001
 12
1.0
 22
0.0
 32
0.0
 13
1.0
 23
0.0
 33
0.0
 40
0.0
 40
0.0
 40
0.0
 40
0.0
 40
1.0
 40
1.0
 40
1.0
 40
2.0
 40
2.0
 40
2.0
 40
3.0
 40
3.0
 40
3.0
 40
4.0
 40
4.0
 40
4.0
 40
4.0
 10
118.751537038997
 20
-154.9206686692234
 30
0.0
 10
118.751537038997
 20
-155.2194876388753
 30
0.0
 10
118.3557170995886
 20
-155.4611395553187
 30
0.0
 10
117.867116432393
 20
-155.4611395553187
 30
0.0
 10
117.3785157651975
 20
-155.4611395553187
 30
0.0
 10
116.9823513162405
 20
-155.2194876388753
 30
0.0
 10
116.9823513162405
 20
-154.9206686692234
 30
0.0
 10
116.9823513162405
 20
-154.6218712314183
 30
0.0
 10
117.3785157651975
 20
-154.3802193149748
 30
0.0
 10
117.867116432393
 20
-154.3802193149748
 30
0.0
 10
118.3557170995886
 20
-154.3802193149748
 30
0.0
 10
118.751537038997
 20
-154.6218712314183
 30
0.0
 10
118.751537038997
 20
-154.9206686692234
 30
0.0
  0
SPLINE
  5
1DF
330
1F
100
AcDbEntity
  8
_U+30EC_U+30A4_U+30E4_U+30FC 1
 62
   179
420
  2234388
370
     9
100
AcDbSpline
210
0.0
220
0.0
230
1.0
 70
     8
 71
     3
 72
    11
 73
     7
 74
     0
 42
0.0000000001
 43
0.0000000001
 12
1.0
 22
0.0
 32
0.0
 13
1.0
 23
0.0
 33
0.0
 40
0.0
 40
0.0
 40
0.0
 40
0.0
 40
1.0
 40
1.0
 40
1.0
 40
2.0
 40
2.0
 40
2.0
 40
2.0
 10
120.0089968911132
 20
-153.0413906138664
 30
0.0
 10
120.1070529213621
 20
-153.2742360049757
 30
0.0
 10
120.4524237437584
 20
-153.4463831200043
 30
0.0
 10
120.8648232051896
 20
-153.4463831200043
 30
0.0
 10
121.2768781570723
 20
-153.4463831200043
 30
0.0
 10
121.6218829380733
 20
-153.2742360049757
 30
0.0
 10
121.7203050097175
 20
-153.0413906138664
 30
0.0
  0
SPLINE
  5
1E0
330
1F
100
AcDbEntity
  8
_U+30EC_U+30A4_U+30E4_U+30FC 1
 62
   179
420
  2234388
370
     9
100
AcDbSpline
210
0.0
220
0.0
230
1.0
 70
    11
 71
     3
 72
    17
 73
    13
 74
     0
 42
0.0000000001
 43
0.0000000001
 12
1.0
 22
0.0
 32
0.0
 13
1.0
 23
0.0
 33
0.0
 40
0.0
 40
0.0
 40
0.0
 40
0.0
 40
1.0
 40
1.0
 40
1.0
 40
2.0
 40
2.0
 40
2.0
 40
3.0
 40
3.0
 40
3.0
 40
4.0
 40
4.0
 40
4.0
 40
4.0
 10
121.7491146207129
 20
-153.1763952931946
 30
0.0
 10
121.7491146207129
 20
-153.4748482214512
 30
0.0
 10
121.3529286399092
 20
-153.7165001378947
 30
0.0
 10
120.8646940141089
 20
-153.7165001378947
 30
0.0
 10
120.3760933469134
 20
-153.7165001378947
 30
0.0
 10
119.9802734075049
 20
-153.4748482214512
 30
0.0
 10
119.9802734075049
 20
-153.1763952931946
 30
0.0
 10
119.9802734075049
 20
-152.8775978553896
 30
0.0
 10
120.3760933469134
 20
-152.6359459389461
 30
0.0
 10
120.8646940141089
 20
-152.6359459389461
 30
0.0
 10
121.3529286399092
 20
-152.6359459389461
 30
0.0
 10
121.7491146207129
 20
-152.8775978553896
 30
0.0
 10
121.7491146207129
 20
-153.1763952931946
 30
0.0
  0
SPLINE
  5
1E1
330
1F
100
AcDbEntity
  8
_U+30EC_U+30A4_U+30E4_U+30FC 1
 62
   179
420
  2234388
370
     9
100
AcDbSpline
210
0.0
220
0.0
230
1.0
 70
     8
 71
     3
 72
    11
 73
     7
 74
     0
 42
0.0000000001
 43
0.0000000001
 12
1.0
 22
0.0
 32
0.0
 13
1.0
 23
0.0
 33
0.0
 40
0.0
 40
0.0
 40
0.0
 40
0.0
 40
1.0
 40
1.0
 40
1.0
 40
2.0
 40
2.0
 40
2.0
 40
2.0
 10
120.6804460011884
 20
-155.2034894767156
 30
0.0
 10
120.7788680728326
 20
-155.4363348678249
 30
0.0
 10
121.1242388952289
 20
-155.6084819828535
 30
0.0
 10
121.5362723152648
 20
-155.6084819828535
 30
0.0
 10
121.9483272671475
 20
-155.6084819828535
 30
0.0
 10
122.2933320481485
 20
-155.4363348678249
 30
0.0
 10
122.3917541197927
 20
-155.2034894767156
 30
0.0
  0
SPLINE
  5
1E2
330
1F
100
AcDbEntity
  8
_U+30EC_U+30A4_U+30E4_U+30FC 1
 62
   179
420
  2234388
370
     9
100
AcDbSpline
210
0.0
220
0.0
230
1.0
 70
    11
 71
     3
 72
    17
 73
    13
 74
     0
 42
0.0000000001
 43
0.0000000001
 12
1.0
 22
0.0
 32
0.0
 13
1.0
 23
0.0
 33
0.0
 40
0.0
 40
0.0
 40
0.0
 40
0.0
 40
1.0
 40
1.0
 40
1.0
 40
2.0
 40
2.0
 40
2.0
 40
3.0
 40
3.0
 40
3.0
 40
4.0
 40
4.0
 40
4.0
 40
4.0
 10
122.4205637307881
 20
-155.338580283431
 30
0.0
 10
122.4205637307881
 20
-155.6370332116875
 30
0.0
 10
122.0247437913797
 20
-155.878685128131
 30
0.0
 10
121.5361431241841
 20
-155.878685128131
 30
0.0
 10
121.0475424569886
 20
-155.878685128131
 30
0.0
 10
120.6517225175801
 20
-155.6370332116875
 30
0.0
 10
120.6517225175801
 20
-155.338580283431
 30
0.0
 10
120.6517225175801
 20
-155.0397828456259
 30
0.0
 10
121.0475424569886
 20
-154.7977864196339
 30
0.0
 10
121.5361431241841
 20
-154.7977864196339
 30
0.0
 10
122.0247437913797
 20
-154.7977864196339
 30
0.0
 10
122.4205637307881
 20
-155.0397828456259
 30
0.0
 10
122.4205637307881
 20
-155.338580283431
 30
0.0
  0
SPLINE
  5
1E3
330
1F
100
AcDbEntity
  8
_U+30EC_U+30A4_U+30E4_U+30FC 1
 62
   179
420
  2234388
370
     9
100
AcDbSpline
210
0.0
220
0.0
230
1.0
 70
     8
 71
     3
 72
    11
 73
     7
 74
     0
 42
0.0000000001
 43
0.0000000001
 12
1.0
 22
0.0
 32
0.0
 13
1.0
 23
0.0
 33
0.0
 40
0.0
 40
0.0
 40
0.0
 40
0.0
 40
1.0
 40
1.0
 40
1.0
 40
2.0
 40
2.0
 40
2.0
 40
2.0
 10
121.384968027922
 20
-157.3815434380309
 30
0.0
 10
121.4830240581709
 20
-157.6143888291402
 30
0.0
 10
121.8283948805672
 20
-157.7869019855641
 30
0.0
 10
122.2404498324499
 20
-157.7869019855641
 30
0.0
 10
122.6524832524858
 20
-157.7869019855641
 30
0.0
 10
122.9975095653335
 20
-157.6143888291402
 30
0.0
 10
123.0959316369778
 20
-157.3815434380309
 30
0.0
  0
SPLINE
  5
1E4
330
1F
100
AcDbEntity
  8
_U+30EC_U+30A4_U+30E4_U+30FC 1
 62
   179
420
  2234388
370
     9
100
AcDbSpline
210
0.0
220
0.0
230
1.0
 70
    11
 71
     3
 72
    17
 73
    13
 74
     0
 42
0.0000000001
 43
0.0000000001
 12
1.0
 22
0.0
 32
0.0
 13
1.0
 23
0.0
 33
0.0
 40
0.0
 40
0.0
 40
0.0
 40
0.0
 40
1.0
 40
1.0
 40
1.0
 40
2.0
 40
2.0
 40
2.0
 40
3.0
 40
3.0
 40
3.0
 40
4.0
 40
4.0
 40
4.0
 40
4.0
 10
123.1247412479732
 20
-157.5165481173592
 30
0.0
 10
123.1247412479732
 20
-157.815367087011
 30
0.0
 10
122.7289213085647
 20
-158.057363513003
 30
0.0
 10
122.2403206413692
 20
-158.057363513003
 30
0.0
 10
121.7520644837222
 20
-158.057363513003
 30
0.0
 10
121.3559000347652
 20
-157.815367087011
 30
0.0
 10
121.3559000347652
 20
-157.5165481173592
 30
0.0
 10
121.3559000347652
 20
-157.2181167209494
 30
0.0
 10
121.7520644837222
 20
-156.9764648045059
 30
0.0
 10
122.2403206413692
 20
-156.9764648045059
 30
0.0
 10
122.7289213085647
 20
-156.9764648045059
 30
0.0
 10
123.1247412479732
 20
-157.2181167209494
 30
0.0
 10
123.1247412479732
 20
-157.5165481173592
 30
0.0
  0
SPLINE
  5
1E5
330
1F
100
AcDbEntity
  8
_U+30EC_U+30A4_U+30E4_U+30FC 1
 62
   179
420
  2234388
370
     9
100
AcDbSpline
210
0.0
220
0.0
230
1.0
 70
     8
 71
     3
 72
    11
 73
     7
 74
     0
 42
0.0000000001
 43
0.0000000001
 12
1.0
 22
0.0
 32
0.0
 13
1.0
 23
0.0
 33
0.0
 40
0.0
 40
0.0
 40
0.0
 40
0.0
 40
1.0
 40
1.0
 40
1.0
 40
2.0
 40
2.0
 40
2.0
 40
2.0
 10
124.3822226319361
 20
-155.6376361033975
 30
0.0
 10
124.4806447035804
 20
-155.8704814945068
 30
0.0
 10
124.8256494845813
 20
-156.0426286095354
 30
0.0
 10
125.2380489460125
 20
-156.0426286095354
 30
0.0
 10
125.6501038978952
 20
-156.0426286095354
 30
0.0
 10
125.9951086788962
 20
-155.8704814945068
 30
0.0
 10
126.0935307505404
 20
-155.6376361033975
 30
0.0
  0
SPLINE
  5
1E6
330
1F
100
AcDbEntity
  8
_U+30EC_U+30A4_U+30E4_U+30FC 1
 62
   179
420
  2234388
370
     9
100
AcDbSpline
210
0.0
220
0.0
230
1.0
 70
    11
 71
     3
 72
    17
 73
    13
 74
     0
 42
0.0000000001
 43
0.0000000001
 12
1.0
 22
0.0
 32
0.0
 13
1.0
 23
0.0
 33
0.0
 40
0.0
 40
0.0
 40
0.0
 40
0.0
 40
1.0
 40
1.0
 40
1.0
 40
2.0
 40
2.0
 40
2.0
 40
3.0
 40
3.0
 40
3.0
 40
4.0
 40
4.0
 40
4.0
 40
4.0
 10
126.122318829689
 20
-155.7726623145725
 30
0.0
 10
126.122318829689
 20
-156.071115242829
 30
0.0
 10
125.7261328488853
 20
-156.3127671592725
 30
0.0
 10
125.2378982230851
 20
-156.3127671592725
 30
0.0
 10
124.7492975558895
 20
-156.3127671592725
 30
0.0
 10
124.3534776164811
 20
-156.071115242829
 30
0.0
 10
124.3534776164811
 20
-155.7726623145725
 30
0.0
 10
124.3534776164811
 20
-155.4738648767674
 30
0.0
 10
124.7492975558895
 20
-155.2318684507754
 30
0.0
 10
125.2378982230851
 20
-155.2318684507754
 30
0.0
 10
125.7261328488853
 20
-155.2318684507754
 30
0.0
 10
126.122318829689
 20
-155.4738648767674
 30
0.0
 10
126.122318829689
 20
-155.7726623145725
 30
0.0
  0
ENDSEC
  0
SECTION
  2
OBJECTS
  0
DICTIONARY
  5
C
330
0
100
AcDbDictionary
281
     1
  3
ACAD_GROUP
350
D
  3
ACAD_LAYOUT
350
1A
  3
ACAD_MATERIAL
350
3B
  3
ACAD_MLEADERSTYLE
350
1E8
  3
ACAD_MLINESTYLE
350
17
  3
ACAD_PLOTSETTINGS
350
19
  3
ACAD_PLOTSTYLENAME
350
E
  3
ACAD_TABLESTYLE
350
1E7
  3
ACAD_VISUALSTYLE
350
2A
  0
SUN
  5
3F
330
29
100
AcDbSun
 90
        1
290
     0
 63
     7
421
 16777215
 40
1.0
291
     1
 91
  2455826
 92
 54000000
292
     0
 70
     2
 71
   256
280
     1
  0
DICTIONARY
  5
D
102
{ACAD_REACTORS
330
C
102
}
330
C
100
AcDbDictionary
281
     1
  0
DICTIONARY
  5
1A
102
{ACAD_REACTORS
330
C
102
}
330
C
100
AcDbDictionary
281
     1
  3
Layout1
350
1E
  3
Layout2
350
26
  3
Model
350
22
  0
DICTIONARY
  5
3B
102
{ACAD_REACTORS
330
C
102
}
330
C
100
AcDbDictionary
281
     1
  3
ByBlock
350
3D
  3
ByLayer
350
3C
  3
Global
350
3E
  0
DICTIONARY
  5
1E8
102
{ACAD_REACTORS
330
C
102
}
330
C
100
AcDbDictionary
281
     1
  0
DICTIONARY
  5
17
102
{ACAD_REACTORS
330
C
102
}
330
C
100
AcDbDictionary
281
     1
  3
Standard
350
18
  0
DICTIONARY
  5
19
102
{ACAD_REACTORS
330
C
102
}
330
C
100
AcDbDictionary
281
     1
  0
ACDBDICTIONARYWDFLT
  5
E
102
{ACAD_REACTORS
330
C
102
}
330
C
100
AcDbDictionary
281
     1
  3
Normal
350
F
100
AcDbDictionaryWithDefault
340
F
  0
DICTIONARY
  5
1E7
102
{ACAD_REACTORS
330
C
102
}
330
C
100
AcDbDictionary
281
     1
  0
DICTIONARY
  5
2A
102
{ACAD_REACTORS
330
C
102
}
330
C
100
AcDbDictionary
281
     1
  3
2dWireframe
350
2F
  3
3D Hidden
350
31
  3
3dWireframe
350
30
  3
Basic
350
32
  3
Brighten
350
36
  3
ColorChange
350
3A
  3
Conceptual
350
34
  3
Dim
350
35
  3
Facepattern
350
39
  3
Flat
350
2B
  3
FlatWithEdges
350
2C
  3
Gouraud
350
2D
  3
GouraudWithEdges
350
2E
  3
Linepattern
350
38
  3
Realistic
350
33
  3
Thicken
350
37
  0
LAYOUT
  5
1E
102
{ACAD_REACTORS
330
1A
102
}
330
1A
100
AcDbPlotSettings
  1

  2
none_device
  4

  6

 40
0.0
 41
0.0
 42
0.0
 43
0.0
 44
0.0
 45
0.0
 46
0.0
 47
0.0
 48
0.0
 49
0.0
140
0.0
141
0.0
142
1.0
143
1.0
 70
   688
 72
     0
 73
     0
 74
     5
  7

 75
    16
 76
     0
 77
     2
 78
   300
147
1.0
148
0.0
149
0.0
100
AcDbLayout
  1
Layout1
 70
     1
 71
     1
 10
0.0
 20
0.0
 11
12.0
 21
9.0
 12
0.0
 22
0.0
 32
0.0
 14
1.000000000000000E+20
 24
1.000000000000000E+20
 34
1.000000000000000E+20
 15
-1.000000000000000E+20
 25
-1.000000000000000E+20
 35
-1.000000000000000E+20
146
0.0
 13
0.0
 23
0.0
 33
0.0
 16
1.0
 26
0.0
 36
0.0
 17
0.0
 27
1.0
 37
0.0
 76
     0
330
1B
  0
LAYOUT
  5
26
102
{ACAD_REACTORS
330
1A
102
}
330
1A
100
AcDbPlotSettings
  1

  2
none_device
  4

  6

 40
0.0
 41
0.0
 42
0.0
 43
0.0
 44
0.0
 45
0.0
 46
0.0
 47
0.0
 48
0.0
 49
0.0
140
0.0
141
0.0
142
1.0
143
1.0
 70
   688
 72
     0
 73
     0
 74
     5
  7

 75
    16
 76
     0
 77
     2
 78
   300
147
1.0
148
0.0
149
0.0
100
AcDbLayout
  1
Layout2
 70
     1
 71
     2
 10
0.0
 20
0.0
 11
0.0
 21
0.0
 12
0.0
 22
0.0
 32
0.0
 14
0.0
 24
0.0
 34
0.0
 15
0.0
 25
0.0
 35
0.0
146
0.0
 13
0.0
 23
0.0
 33
0.0
 16
1.0
 26
0.0
 36
0.0
 17
0.0
 27
1.0
 37
0.0
 76
     0
330
23
  0
LAYOUT
  5
22
102
{ACAD_REACTORS
330
1A
102
}
330
1A
100
AcDbPlotSettings
  1

  2
none_device
  4

  6

 40
0.0
 41
0.0
 42
0.0
 43
0.0
 44
0.0
 45
0.0
 46
0.0
 47
0.0
 48
0.0
 49
0.0
140
0.0
141
0.0
142
1.0
143
1.0
 70
  1712
 72
     0
 73
     0
 74
     0
  7

 75
     0
 76
     0
 77
     2
 78
   300
147
1.0
148
0.0
149
0.0
100
AcDbLayout
  1
Model
 70
     1
 71
     0
 10
0.0
 20
0.0
 11
12.0
 21
9.0
 12
0.0
 22
0.0
 32
0.0
 14
1.000000000000000E+20
 24
1.000000000000000E+20
 34
1.000000000000000E+20
 15
-1.000000000000000E+20
 25
-1.000000000000000E+20
 35
-1.000000000000000E+20
146
0.0
 13
0.0
 23
0.0
 33
0.0
 16
1.0
 26
0.0
 36
0.0
 17
0.0
 27
1.0
 37
0.0
 76
     0
330
1F
331
29
  0
MATERIAL
  5
3D
102
{ACAD_REACTORS
330
3B
102
}
330
3B
100
AcDbMaterial
  1
ByBlock
 72
     1
 94
      127
  0
MATERIAL
  5
3C
102
{ACAD_REACTORS
330
3B
102
}
330
3B
100
AcDbMaterial
  1
ByLayer
 72
     1
 94
      127
  0
MATERIAL
  5
3E
102
{ACAD_REACTORS
330
3B
102
}
330
3B
100
AcDbMaterial
  1
Global
 72
     1
 94
      127
  0
MLINESTYLE
  5
18
102
{ACAD_REACTORS
330
17
102
}
330
17
100
AcDbMlineStyle
  2
Standard
 70
     0
  3

 62
   256
 51
90.0
 52
90.0
 71
     2
 49
0.5
 62
   256
  6
BYLAYER
 49
-0.5
 62
   256
  6
BYLAYER
  0
ACDBPLACEHOLDER
  5
F
102
{ACAD_REACTORS
330
E
102
}
330
E
  0
VISUALSTYLE
  5
2F
102
{ACAD_REACTORS
330
2A
102
}
330
2A
100
AcDbVisualStyle
  2
2dWireframe
 70
     4
177
     2
291
     0
 71
     0
176
     1
 72
     2
176
     1
 73
     0
176
     1
 90
        0
176
     1
 40
-0.6
176
     1
 41
-30.0
176
     1
 62
     5
 63
     7
421
 16777215
176
     1
 74
     1
176
     1
 91
        4
176
     1
 64
     7
176
     1
 65
   257
176
     1
 75
     1
176
     1
175
     1
176
     1
 42
1.0
176
     1
 92
        0
176
     1
 66
   257
176
     1
 43
1.0
176
     1
 76
     1
176
     1
 77
     6
176
     1
 78
     2
176
     1
 67
     7
176
     1
 79
     5
176
     1
170
     0
176
     1
171
     0
176
     1
290
     0
176
     1
 93
        1
176
     1
 44
0.0
176
     1
173
     0
176
     1
  0
VISUALSTYLE
  5
31
102
{ACAD_REACTORS
330
2A
102
}
330
2A
100
AcDbVisualStyle
  2
3D Hidden
 70
     6
177
     2
291
     0
 71
     1
176
     1
 72
     2
176
     1
 73
     2
176
     1
 90
        0
176
     1
 40
-0.6
176
     1
 41
-30.0
176
     1
 62
     5
 63
     7
421
 16777215
176
     1
 74
     2
176
     1
 91
        2
176
     1
 64
     7
176
     1
 65
   257
176
     1
 75
     2
176
     1
175
     1
176
     1
 42
40.0
176
     1
 92
        0
176
     1
 66
   257
176
     1
 43
1.0
176
     1
 76
     1
176
     1
 77
     6
176
     1
 78
     2
176
     1
 67
     7
176
     1
 79
     3
176
     1
170
     0
176
     1
171
     0
176
     1
290
     0
176
     1
 93
        1
176
     1
 44
0.0
176
     1
173
     0
176
     1
  0
VISUALSTYLE
  5
30
102
{ACAD_REACTORS
330
2A
102
}
330
2A
100
AcDbVisualStyle
  2
3dWireframe
 70
     5
177
     2
291
     0
 71
     0
176
     1
 72
     2
176
     1
 73
     0
176
     1
 90
        0
176
     1
 40
-0.6
176
     1
 41
-30.0
176
     1
 62
     5
 63
     7
421
 16777215
176
     1
 74
     1
176
     1
 91
        4
176
     1
 64
     7
176
     1
 65
   257
176
     1
 75
     1
176
     1
175
     1
176
     1
 42
1.0
176
     1
 92
        0
176
     1
 66
   257
176
     1
 43
1.0
176
     1
 76
     1
176
     1
 77
     6
176
     1
 78
     2
176
     1
 67
     7
176
     1
 79
     5
176
     1
170
     0
176
     1
171
     0
176
     1
290
     0
176
     1
 93
        1
176
     1
 44
0.0
176
     1
173
     0
176
     1
  0
VISUALSTYLE
  5
32
102
{ACAD_REACTORS
330
2A
102
}
330
2A
100
AcDbVisualStyle
  2
Basic
 70
     7
177
     2
291
     1
 71
     1
176
     1
 72
     0
176
     1
 73
     1
176
     1
 90
        0
176
     1
 40
-0.6
176
     1
 41
-30.0
176
     1
 62
     5
 63
     7
421
 16777215
176
     1
 74
     0
176
     1
 91
        4
176
     1
 64
     7
176
     1
 65
   257
176
     1
 75
     1
176
     1
175
     1
176
     1
 42
1.0
176
     1
 92
        8
176
     1
 66
     7
176
     1
 43
1.0
176
     1
 76
     1
176
     1
 77
     6
176
     1
 78
     2
176
     1
 67
     7
176
     1
 79
     5
176
     1
170
     0
176
     1
171
     0
176
     1
290
     0
176
     1
 93
        1
176
     1
 44
0.0
176
     1
173
     0
176
     1
  0
VISUALSTYLE
  5
36
102
{ACAD_REACTORS
330
2A
102
}
330
2A
100
AcDbVisualStyle
  2
Brighten
 70
    12
177
     2
291
     1
 71
     2
176
     1
 72
     2
176
     1
 73
     0
176
     1
 90
        0
176
     1
 40
-0.6
176
     1
 41
-30.0
176
     1
 62
     5
 63
     7
421
 16777215
176
     1
 74
     1
176
     1
 91
        4
176
     1
 64
     7
176
     1
 65
   257
176
     1
 75
     1
176
     1
175
     1
176
     1
 42
1.0
176
     1
 92
        8
176
     1
 66
     7
176
     1
 43
1.0
176
     1
 76
     1
176
     1
 77
     6
176
     1
 78
     2
176
     1
 67
     7
176
     1
 79
     5
176
     1
170
     0
176
     1
171
     0
176
     1
290
     0
176
     1
 93
        1
176
     1
 44
50.0
176
     1
173
     0
176
     1
  0
VISUALSTYLE
  5
3A
102
{ACAD_REACTORS
330
2A
102
}
330
2A
100
AcDbVisualStyle
  2
ColorChange
 70
    16
177
     2
291
     1
 71
     2
176
     1
 72
     2
176
     1
 73
     3
176
     1
 90
        0
176
     1
 40
-0.6
176
     1
 41
-30.0
176
     1
 62
     5
 63
     8
421
  8421504
176
     1
 74
     1
176
     1
 91
        4
176
     1
 64
     7
176
     1
 65
   257
176
     1
 75
     1
176
     1
175
     1
176
     1
 42
1.0
176
     1
 92
        8
176
     1
 66
     8
424
  8421504
176
     1
 43
1.0
176
     1
 76
     1
176
     1
 77
     6
176
     1
 78
     2
176
     1
 67
     7
176
     1
 79
     5
176
     1
170
     0
176
     1
171
     0
176
     1
290
     0
176
     1
 93
        1
176
     1
 44
0.0
176
     1
173
     0
176
     1
  0
VISUALSTYLE
  5
34
102
{ACAD_REACTORS
330
2A
102
}
330
2A
100
AcDbVisualStyle
  2
Conceptual
 70
     9
177
     2
291
     0
 71
     3
176
     1
 72
     2
176
     1
 73
     0
176
     1
 90
        0
176
     1
 40
-0.6
176
     1
 41
-30.0
176
     1
 62
     5
 63
     7
421
 16777215
176
     1
 74
     2
176
     1
 91
        2
176
     1
 64
     7
176
     1
 65
   257
176
     1
 75
     1
176
     1
175
     1
176
     1
 42
40.0
176
     1
 92
        8
176
     1
 66
     7
176
     1
 43
1.0
176
     1
 76
     1
176
     1
 77
     6
176
     1
 78
     2
176
     1
 67
     7
176
     1
 79
     3
176
     1
170
     0
176
     1
171
     0
176
     1
290
     0
176
     1
 93
        1
176
     1
 44
0.0
176
     1
173
     0
176
     1
  0
VISUALSTYLE
  5
35
102
{ACAD_REACTORS
330
2A
102
}
330
2A
100
AcDbVisualStyle
  2
Dim
 70
    11
177
     2
291
     1
 71
     2
176
     1
 72
     2
176
     1
 73
     0
176
     1
 90
        0
176
     1
 40
-0.6
176
     1
 41
-30.0
176
     1
 62
     5
 63
     7
421
 16777215
176
     1
 74
     1
176
     1
 91
        4
176
     1
 64
     7
176
     1
 65
   257
176
     1
 75
     1
176
     1
175
     1
176
     1
 42
1.0
176
     1
 92
        8
176
     1
 66
     7
176
     1
 43
1.0
176
     1
 76
     1
176
     1
 77
     6
176
     1
 78
     2
176
     1
 67
     7
176
     1
 79
     5
176
     1
170
     0
176
     1
171
     0
176
     1
290
     0
176
     1
 93
        1
176
     1
 44
-50.0
176
     1
173
     0
176
     1
  0
VISUALSTYLE
  5
39
102
{ACAD_REACTORS
330
2A
102
}
330
2A
100
AcDbVisualStyle
  2
Facepattern
 70
    15
177
     2
291
     1
 71
     2
176
     1
 72
     2
176
     1
 73
     0
176
     1
 90
        0
176
     1
 40
-0.6
176
     1
 41
-30.0
176
     1
 62
     5
 63
     7
421
 16777215
176
     1
 74
     1
176
     1
 91
        4
176
     1
 64
     7
176
     1
 65
   257
176
     1
 75
     1
176
     1
175
     1
176
     1
 42
1.0
176
     1
 92
        8
176
     1
 66
     7
176
     1
 43
1.0
176
     1
 76
     1
176
     1
 77
     6
176
     1
 78
     2
176
     1
 67
     7
176
     1
 79
     5
176
     1
170
     0
176
     1
171
     0
176
     1
290
     0
176
     1
 93
        1
176
     1
 44
0.0
176
     1
173
     0
176
     1
  0
VISUALSTYLE
  5
2B
102
{ACAD_REACTORS
330
2A
102
}
330
2A
100
AcDbVisualStyle
  2
Flat
 70
     0
177
     2
291
     1
 71
     2
176
     1
 72
     1
176
     1
 73
     1
176
     1
 90
        2
176
     1
 40
-0.6
176
     1
 41
30.0
176
     1
 62
     5
 63
     7
421
 16777215
176
     1
 74
     0
176
     1
 91
        4
176
     1
 64
     7
176
     1
 65
   257
176
     1
 75
     1
176
     1
175
     1
176
     1
 42
1.0
176
     1
 92
        8
176
     1
 66
     7
176
     1
 43
1.0
176
     1
 76
     1
176
     1
 77
     6
176
     1
 78
     2
176
     1
 67
     7
176
     1
 79
     5
176
     1
170
     0
176
     1
171
     0
176
     1
290
     0
176
     1
 93
       13
176
     1
 44
0.0
176
     1
173
     0
176
     1
  0
VISUALSTYLE
  5
2C
102
{ACAD_REACTORS
330
2A
102
}
330
2A
100
AcDbVisualStyle
  2
FlatWithEdges
 70
     1
177
     2
291
     1
 71
     2
176
     1
 72
     1
176
     1
 73
     1
176
     1
 90
        2
176
     1
 40
-0.6
176
     1
 41
30.0
176
     1
 62
     5
 63
     7
421
 16777215
176
     1
 74
     1
176
     1
 91
        4
176
     1
 64
     7
176
     1
 65
   257
176
     1
 75
     1
176
     1
175
     1
176
     1
 42
1.0
176
     1
 92
        0
176
     1
 66
   257
176
     1
 43
1.0
176
     1
 76
     1
176
     1
 77
     6
176
     1
 78
     2
176
     1
 67
     7
176
     1
 79
     5
176
     1
170
     0
176
     1
171
     0
176
     1
290
     0
176
     1
 93
       13
176
     1
 44
0.0
176
     1
173
     0
176
     1
  0
VISUALSTYLE
  5
2D
102
{ACAD_REACTORS
330
2A
102
}
330
2A
100
AcDbVisualStyle
  2
Gouraud
 70
     2
177
     2
291
     1
 71
     2
176
     1
 72
     2
176
     1
 73
     1
176
     1
 90
        2
176
     1
 40
-0.6
176
     1
 41
30.0
176
     1
 62
     5
 63
     7
421
 16777215
176
     1
 74
     0
176
     1
 91
        4
176
     1
 64
     7
176
     1
 65
   257
176
     1
 75
     1
176
     1
175
     1
176
     1
 42
1.0
176
     1
 92
        0
176
     1
 66
     7
176
     1
 43
1.0
176
     1
 76
     1
176
     1
 77
     6
176
     1
 78
     2
176
     1
 67
     7
176
     1
 79
     5
176
     1
170
     0
176
     1
171
     0
176
     1
290
     0
176
     1
 93
       13
176
     1
 44
0.0
176
     1
173
     0
176
     1
  0
VISUALSTYLE
  5
2E
102
{ACAD_REACTORS
330
2A
102
}
330
2A
100
AcDbVisualStyle
  2
GouraudWithEdges
 70
     3
177
     2
291
     1
 71
     2
176
     1
 72
     2
176
     1
 73
     1
176
     1
 90
        2
176
     1
 40
-0.6
176
     1
 41
30.0
176
     1
 62
     5
 63
     7
421
 16777215
176
     1
 74
     1
176
     1
 91
        4
176
     1
 64
     7
176
     1
 65
   257
176
     1
 75
     1
176
     1
175
     1
176
     1
 42
1.0
176
     1
 92
        0
176
     1
 66
   257
176
     1
 43
1.0
176
     1
 76
     1
176
     1
 77
     6
176
     1
 78
     2
176
     1
 67
     7
176
     1
 79
     5
176
     1
170
     0
176
     1
171
     0
176
     1
290
     0
176
     1
 93
       13
176
     1
 44
0.0
176
     1
173
     0
176
     1
  0
VISUALSTYLE
  5
38
102
{ACAD_REACTORS
330
2A
102
}
330
2A
100
AcDbVisualStyle
  2
Linepattern
 70
    14
177
     2
291
     1
 71
     2
176
     1
 72
     2
176
     1
 73
     0
176
     1
 90
        0
176
     1
 40
-0.6
176
     1
 41
-30.0
176
     1
 62
     5
 63
     7
421
 16777215
176
     1
 74
     1
176
     1
 91
        4
176
     1
 64
     7
176
     1
 65
   257
176
     1
 75
     7
176
     1
175
     7
176
     1
 42
1.0
176
     1
 92
        8
176
     1
 66
     7
176
     1
 43
1.0
176
     1
 76
     1
176
     1
 77
     6
176
     1
 78
     2
176
     1
 67
     7
176
     1
 79
     5
176
     1
170
     0
176
     1
171
     0
176
     1
290
     0
176
     1
 93
        1
176
     1
 44
0.0
176
     1
173
     0
176
     1
  0
VISUALSTYLE
  5
33
102
{ACAD_REACTORS
330
2A
102
}
330
2A
100
AcDbVisualStyle
  2
Realistic
 70
     8
177
     2
291
     0
 71
     2
176
     1
 72
     2
176
     1
 73
     0
176
     1
 90
        0
176
     1
 40
-0.6
176
     1
 41
-30.0
176
     1
 62
     5
 63
     7
421
 16777215
176
     1
 74
     1
176
     1
 91
        0
176
     1
 64
     7
176
     1
 65
   257
176
     1
 75
     1
176
     1
175
     1
176
     1
 42
1.0
176
     1
 92
        8
176
     1
 66
     8
424
  7895160
176
     1
 43
1.0
176
     1
 76
     1
176
     1
 77
     6
176
     1
 78
     2
176
     1
 67
     7
176
     1
 79
     5
176
     1
170
     0
176
     1
171
     0
176
     1
290
     0
176
     1
 93
       13
176
     1
 44
0.0
176
     1
173
     0
176
     1
  0
VISUALSTYLE
  5
37
102
{ACAD_REACTORS
330
2A
102
}
330
2A
100
AcDbVisualStyle
  2
Thicken
 70
    13
177
     2
291
     1
 71
     2
176
     1
 72
     2
176
     1
 73
     0
176
     1
 90
        0
176
     1
 40
-0.6
176
     1
 41
-30.0
176
     1
 62
     5
 63
     7
421
 16777215
176
     1
 74
     1
176
     1
 91
        4
176
     1
 64
     7
176
     1
 65
   257
176
     1
 75
     1
176
     1
175
     1
176
     1
 42
1.0
176
     1
 92
       12
176
     1
 66
     7
176
     1
 43
1.0
176
     1
 76
     1
176
     1
 77
     6
176
     1
 78
     2
176
     1
 67
     7
176
     1
 79
     5
176
     1
170
     0
176
     1
171
     0
176
     1
290
     0
176
     1
 93
        1
176
     1
 44
0.0
176
     1
173
     0
176
     1
  0
ENDSEC
  0
EOF
