  0
SECTION
  2
HEADER
  9
$ACADVER
  1
AC1024
  9
$ACADMAINTVER
 70
     6
  9
$DWGCODEPAGE
  3
UNDEFINED
  9
$INSBASE
 10
0.0
 20
0.0
 30
0.0
  9
$EXTMIN
 10
1.000000000000000E+20
 20
1.000000000000000E+20
 30
1.000000000000000E+20
  9
$EXTMAX
 10
-1.000000000000000E+20
 20
-1.000000000000000E+20
 30
-1.000000000000000E+20
  9
$LIMMIN
 10
0.0
 20
0.0
  9
$LIMMAX
 10
12.0
 20
9.0
  9
$ORTHOMODE
 70
     0
  9
$REGENMODE
 70
     1
  9
$FILLMODE
 70
     1
  9
$QTEXTMODE
 70
     0
  9
$MIRRTEXT
 70
     1
  9
$LTSCALE
 40
1.0
  9
$ATTMODE
 70
     1
  9
$TEXTSIZE
 40
0.2
  9
$TRACEWID
 40
0.05
  9
$TEXTSTYLE
  7
Standard
  9
$CLAYER
  8
0
  9
$CELTYPE
  6
ByLayer
  9
$CECOLOR
 62
   256
  9
$CELTSCALE
 40
1.0
  9
$DISPSILH
 70
     0
  9
$DIMSCALE
 40
1.0
  9
$DIMASZ
 40
0.18
  9
$DIMEXO
 40
0.0625
  9
$DIMDLI
 40
0.38
  9
$DIMRND
 40
0.0
  9
$DIMDLE
 40
0.0
  9
$DIMEXE
 40
0.18
  9
$DIMTP
 40
0.0
  9
$DIMTM
 40
0.0
  9
$DIMTXT
 40
0.18
  9
$DIMCEN
 40
0.09
  9
$DIMTSZ
 40
0.0
  9
$DIMTOL
 70
     0
  9
$DIMLIM
 70
     0
  9
$DIMTIH
 70
     1
  9
$DIMTOH
 70
     1
  9
$DIMSE1
 70
     0
  9
$DIMSE2
 70
     0
  9
$DIMTAD
 70
     0
  9
$DIMZIN
 70
     0
  9
$DIMBLK
  1

  9
$DIMASO
 70
     1
  9
$DIMSHO
 70
     1
  9
$DIMPOST
  1

  9
$DIMAPOST
  1

  9
$DIMALT
 70
     0
  9
$DIMALTD
 70
     2
  9
$DIMALTF
 40
25.4
  9
$DIMLFAC
 40
1.0
  9
$DIMTOFL
 70
     0
  9
$DIMTVP
 40
0.0
  9
$DIMTIX
 70
     0
  9
$DIMSOXD
 70
     0
  9
$DIMSAH
 70
     0
  9
$DIMBLK1
  1

  9
$DIMBLK2
  1

  9
$DIMSTYLE
  2
Standard
  9
$DIMCLRD
 70
     0
  9
$DIMCLRE
 70
     0
  9
$DIMCLRT
 70
     0
  9
$DIMTFAC
 40
1.0
  9
$DIMGAP
 40
0.09
  9
$DIMJUST
 70
     0
  9
$DIMSD1
 70
     0
  9
$DIMSD2
 70
     0
  9
$DIMTOLJ
 70
     1
  9
$DIMTZIN
 70
     0
  9
$DIMALTZ
 70
     0
  9
$DIMALTTZ
 70
     0
  9
$DIMUPT
 70
     0
  9
$DIMDEC
 70
     4
  9
$DIMTDEC
 70
     4
  9
$DIMALTU
 70
     2
  9
$DIMALTTD
 70
     2
  9
$DIMTXSTY
  7
Standard
  9
$DIMAUNIT
 70
     0
  9
$DIMADEC
 70
     0
  9
$DIMALTRND
 40
0.0
  9
$DIMAZIN
 70
     0
  9
$DIMDSEP
 70
    46
  9
$DIMATFIT
 70
     3
  9
$DIMFRAC
 70
     0
  9
$DIMLDRBLK
  1

  9
$DIMLUNIT
 70
     2
  9
$DIMLWD
 70
    -2
  9
$DIMLWE
 70
    -2
  9
$DIMTMOVE
 70
     0
  9
$DIMFXL
 40
1.0
  9
$DIMFXLON
 70
     0
  9
$DIMJOGANG
 40
0.7853981633974483
  9
$DIMTFILL
 70
     0
  9
$DIMTFILLCLR
 70
     0
  9
$DIMARCSYM
 70
     0
  9
$DIMLTYPE
  6

  9
$DIMLTEX1
  6

  9
$DIMLTEX2
  6

  9
$DIMTXTDIRECTION
 70
     0
  9
$LUNITS
 70
     2
  9
$LUPREC
 70
     4
  9
$SKETCHINC
 40
0.1
  9
$FILLETRAD
 40
0.5
  9
$AUNITS
 70
     0
  9
$AUPREC
 70
     0
  9
$MENU
  1
.
  9
$ELEVATION
 40
0.0
  9
$PELEVATION
 40
0.0
  9
$THICKNESS
 40
0.0
  9
$LIMCHECK
 70
     0
  9
$CHAMFERA
 40
0.5
  9
$CHAMFERB
 40
0.5
  9
$CHAMFERC
 40
1.0
  9
$CHAMFERD
 40
0.0
  9
$SKPOLY
 70
     0
  9
$TDCREATE
 40
2458270.587928229
  9
$TDUCREATE
 40
2458270.212928241
  9
$TDUPDATE
 40
2458270.587928229
  9
$TDUUPDATE
 40
2458270.212928241
  9
$TDINDWG
 40
0.0000000116
  9
$TDUSRTIMER
 40
0.0000000116
  9
$USRTIMER
 70
     1
  9
$ANGBASE
 50
0.0
  9
$ANGDIR
 70
     0
  9
$PDMODE
 70
     0
  9
$PDSIZE
 40
0.0
  9
$PLINEWID
 40
0.0
  9
$SPLFRAME
 70
     0
  9
$SPLINETYPE
 70
     6
  9
$SPLINESEGS
 70
     8
  9
$HANDSEED
  5
222
  9
$SURFTAB1
 70
     6
  9
$SURFTAB2
 70
     6
  9
$SURFTYPE
 70
     6
  9
$SURFU
 70
     6
  9
$SURFV
 70
     6
  9
$UCSBASE
  2

  9
$UCSNAME
  2

  9
$UCSORG
 10
0.0
 20
0.0
 30
0.0
  9
$UCSXDIR
 10
1.0
 20
0.0
 30
0.0
  9
$UCSYDIR
 10
0.0
 20
1.0
 30
0.0
  9
$UCSORTHOREF
  2

  9
$UCSORTHOVIEW
 70
     0
  9
$UCSORGTOP
 10
0.0
 20
0.0
 30
0.0
  9
$UCSORGBOTTOM
 10
0.0
 20
0.0
 30
0.0
  9
$UCSORGLEFT
 10
0.0
 20
0.0
 30
0.0
  9
$UCSORGRIGHT
 10
0.0
 20
0.0
 30
0.0
  9
$UCSORGFRONT
 10
0.0
 20
0.0
 30
0.0
  9
$UCSORGBACK
 10
0.0
 20
0.0
 30
0.0
  9
$PUCSBASE
  2

  9
$PUCSNAME
  2

  9
$PUCSORG
 10
0.0
 20
0.0
 30
0.0
  9
$PUCSXDIR
 10
1.0
 20
0.0
 30
0.0
  9
$PUCSYDIR
 10
0.0
 20
1.0
 30
0.0
  9
$PUCSORTHOREF
  2

  9
$PUCSORTHOVIEW
 70
     0
  9
$PUCSORGTOP
 10
0.0
 20
0.0
 30
0.0
  9
$PUCSORGBOTTOM
 10
0.0
 20
0.0
 30
0.0
  9
$PUCSORGLEFT
 10
0.0
 20
0.0
 30
0.0
  9
$PUCSORGRIGHT
 10
0.0
 20
0.0
 30
0.0
  9
$PUCSORGFRONT
 10
0.0
 20
0.0
 30
0.0
  9
$PUCSORGBACK
 10
0.0
 20
0.0
 30
0.0
  9
$USERI1
 70
     0
  9
$USERI2
 70
     0
  9
$USERI3
 70
     0
  9
$USERI4
 70
     0
  9
$USERI5
 70
     0
  9
$USERR1
 40
0.0
  9
$USERR2
 40
0.0
  9
$USERR3
 40
0.0
  9
$USERR4
 40
0.0
  9
$USERR5
 40
0.0
  9
$WORLDVIEW
 70
     1
  9
$SHADEDGE
 70
     3
  9
$SHADEDIF
 70
    70
  9
$TILEMODE
 70
     1
  9
$MAXACTVP
 70
    64
  9
$PINSBASE
 10
0.0
 20
0.0
 30
0.0
  9
$PLIMCHECK
 70
     0
  9
$PEXTMIN
 10
1.000000000000000E+20
 20
1.000000000000000E+20
 30
1.000000000000000E+20
  9
$PEXTMAX
 10
-1.000000000000000E+20
 20
-1.000000000000000E+20
 30
-1.000000000000000E+20
  9
$PLIMMIN
 10
0.0
 20
0.0
  9
$PLIMMAX
 10
12.0
 20
9.0
  9
$UNITMODE
 70
     0
  9
$VISRETAIN
 70
     1
  9
$PLINEGEN
 70
     0
  9
$PSLTSCALE
 70
     1
  9
$TREEDEPTH
 70
  3020
  9
$CMLSTYLE
  2
Standard
  9
$CMLJUST
 70
     0
  9
$CMLSCALE
 40
1.0
  9
$PROXYGRAPHICS
 70
     1
  9
$MEASUREMENT
 70
     0
  9
$CELWEIGHT
370
    -1
  9
$ENDCAPS
280
     0
  9
$JOINSTYLE
280
     0
  9
$LWDISPLAY
290
     1
  9
$INSUNITS
 70
     1
  9
$HYPERLINKBASE
  1

  9
$STYLESHEET
  1

  9
$XEDIT
290
     1
  9
$CEPSNTYPE
380
     0
  9
$PSTYLEMODE
290
     1
  9
$FINGERPRINTGUID
  2
{160BD4B5-B3D5-0769-E93D-82516D7AAF33}
  9
$VERSIONGUID
  2
{FAEB1C32-E019-11D5-929B-00C0DF256EC4}
  9
$EXTNAMES
290
     1
  9
$PSVPSCALE
 40
0.0
  9
$OLESTARTUP
290
     0
  9
$SORTENTS
280
   127
  9
$INDEXCTL
280
     0
  9
$HIDETEXT
280
     1
  9
$XCLIPFRAME
280
     2
  9
$HALOGAP
280
     0
  9
$OBSCOLOR
 70
   257
  9
$OBSLTYPE
280
     0
  9
$INTERSECTIONDISPLAY
280
     0
  9
$INTERSECTIONCOLOR
 70
   257
  9
$DIMASSOC
280
     2
  9
$PROJECTNAME
  1

  9
$CAMERADISPLAY
290
     0
  9
$LENSLENGTH
 40
50.0
  9
$CAMERAHEIGHT
 40
0.0
  9
$STEPSPERSEC
 40
2.0
  9
$STEPSIZE
 40
6.0
  9
$3DDWFPREC
 40
2.0
  9
$PSOLWIDTH
 40
0.25
  9
$PSOLHEIGHT
 40
4.0
  9
$LOFTANG1
 40
1.570796326794897
  9
$LOFTANG2
 40
1.570796326794897
  9
$LOFTMAG1
 40
0.0
  9
$LOFTMAG2
 40
0.0
  9
$LOFTPARAM
 70
     7
  9
$LOFTNORMALS
280
     1
  9
$LATITUDE
 40
37.795
  9
$LONGITUDE
 40
-122.394
  9
$NORTHDIRECTION
 40
0.0
  9
$TIMEZONE
 70
 -8000
  9
$LIGHTGLYPHDISPLAY
280
     1
  9
$TILEMODELIGHTSYNCH
280
     1
  9
$CMATERIAL
347
3C
  9
$SOLIDHIST
280
     1
  9
$SHOWHIST
280
     1
  9
$DWFFRAME
280
     2
  9
$DGNFRAME
280
     2
  9
$REALWORLDSCALE
290
     1
  9
$INTERFERECOLOR
 62
   256
  9
$CSHADOW
280
     0
  9
$SHADOWPLANELOCATION
 40
0.0
  0
ENDSEC
  0
SECTION
  2
CLASSES
  0
CLASS
  1
ACDBDICTIONARYWDFLT
  2
AcDbDictionaryWithDefault
  3
ObjectDBX Classes
 90
        0
 91
        4
280
     0
281
     0
  0
CLASS
  1
VISUALSTYLE
  2
AcDbVisualStyle
  3
ObjectDBX Classes
 90
     4095
 91
        4
280
     0
281
     0
  0
CLASS
  1
MATERIAL
  2
AcDbMaterial
  3
ObjectDBX Classes
 90
     1153
 91
        4
280
     0
281
     0
  0
CLASS
  1
SUN
  2
AcDbSun
  3
SCENEOE
 90
     1024
 91
        4
280
     0
281
     0
  0
ENDSEC
  0
SECTION
  2
TABLES
  0
TABLE
  2
VPORT
  5
8
330
0
100
AcDbSymbolTable
 70
     1
  0
VPORT
  5
29
330
8
100
AcDbSymbolTableRecord
100
AcDbViewportTableRecord
  2
*Active
 70
     0
 10
0.0
 20
0.0
 11
1.0
 21
1.0
 12
0.0
 22
0.0
 13
0.0
 23
0.0
 14
0.5
 24
0.5
 15
0.5
 25
0.5
 16
0.0
 26
0.0
 36
1.0
 17
105.0007777515277
 27
-148.5000416295416
 37
0.0
 40
297.0000832590831
 41
0.7070757462376333
 42
50.0
 43
0.0
 44
0.0
 50
0.0
 51
0.0
 71
     0
 72
   100
 73
     1
 74
     3
 75
     0
 76
     0
 77
     0
 78
     0
281
     0
 65
     1
110
0.0
120
0.0
130
0.0
111
1.0
121
0.0
131
0.0
112
0.0
122
1.0
132
0.0
 79
     0
146
0.0
 60
     3
 61
     5
292
     1
282
     1
141
0.0
142
0.0
 63
   250
361
3F
  0
ENDTAB
  0
TABLE
  2
LTYPE
  5
5
330
0
100
AcDbSymbolTable
 70
     3
  0
LTYPE
  5
14
330
5
100
AcDbSymbolTableRecord
100
AcDbLinetypeTableRecord
  2
ByBlock
 70
     0
  3

 72
    65
 73
     0
 40
0.0
  0
LTYPE
  5
15
330
5
100
AcDbSymbolTableRecord
100
AcDbLinetypeTableRecord
  2
ByLayer
 70
     0
  3

 72
    65
 73
     0
 40
0.0
  0
LTYPE
  5
16
330
5
100
AcDbSymbolTableRecord
100
AcDbLinetypeTableRecord
  2
Continuous
 70
     0
  3
Solid line
 72
    65
 73
     0
 40
0.0
  0
LTYPE
  5
193
330
5
100
AcDbSymbolTableRecord
100
AcDbLinetypeTableRecord
  2
AI-Linetype-1
 70
     0
  3
Adobe Illustrator Linetype No. 1
 72
    65
 73
     2
 40
1.411111110758333
 49
0.7055555553791667
 74
     0
 49
-0.7055555553791667
 74
     0
  0
LTYPE
  5
1C4
330
5
100
AcDbSymbolTableRecord
100
AcDbLinetypeTableRecord
  2
AI-Linetype-2
 70
     0
  3
Adobe Illustrator Linetype No. 2
 72
    65
 73
     2
 40
1.411111110758333
 49
0.7055555553791667
 74
     0
 49
-0.7055555553791667
 74
     0
  0
ENDTAB
  0
TABLE
  2
LAYER
  5
2
330
0
100
AcDbSymbolTable
 70
     2
  0
LAYER
  5
10
330
2
100
AcDbSymbolTableRecord
100
AcDbLayerTableRecord
  2
0
 70
     0
 62
     7
  6
Continuous
370
    -3
390
F
347
3E
  0
LAYER
  5
40
330
2
100
AcDbSymbolTableRecord
100
AcDbLayerTableRecord
  2
_U+30EC_U+30A4_U+30E4_U+30FC 1
 70
     0
 62
     7
  6
Continuous
370
    -3
390
F
347
3E
  0
ENDTAB
  0
TABLE
  2
STYLE
  5
3
330
0
100
AcDbSymbolTable
 70
     1
  0
STYLE
  5
11
330
3
100
AcDbSymbolTableRecord
100
AcDbTextStyleTableRecord
  2
Standard
 70
     0
 40
0.0
 41
1.0
 50
0.0
 71
     0
 42
0.2
  3
txt
  4

  0
ENDTAB
  0
TABLE
  2
VIEW
  5
6
330
0
100
AcDbSymbolTable
 70
     0
  0
ENDTAB
  0
TABLE
  2
UCS
  5
7
330
0
100
AcDbSymbolTable
 70
     0
  0
ENDTAB
  0
TABLE
  2
APPID
  5
9
330
0
100
AcDbSymbolTable
 70
     1
  0
APPID
  5
12
330
9
100
AcDbSymbolTableRecord
100
AcDbRegAppTableRecord
  2
ACAD
 70
     0
  0
ENDTAB
  0
TABLE
  2
DIMSTYLE
  5
A
330
0
100
AcDbSymbolTable
 70
     1
100
AcDbDimStyleTable
  0
DIMSTYLE
105
27
330
A
100
AcDbSymbolTableRecord
100
AcDbDimStyleTableRecord
  2
Standard
 70
     0
178
     0
340
11
  0
ENDTAB
  0
TABLE
  2
BLOCK_RECORD
  5
1
330
0
100
AcDbSymbolTable
 70
     7
  0
BLOCK_RECORD
  5
1F
330
1
100
AcDbSymbolTableRecord
100
AcDbBlockTableRecord
  2
*Model_Space
340
22
 70
     0
280
     1
281
     0
  0
BLOCK_RECORD
  5
1B
330
1
100
AcDbSymbolTableRecord
100
AcDbBlockTableRecord
  2
*Paper_Space
340
1E
 70
     0
280
     1
281
     0
  0
BLOCK_RECORD
  5
23
330
1
100
AcDbSymbolTableRecord
100
AcDbBlockTableRecord
  2
*Paper_Space0
340
26
 70
     0
280
     1
281
     0
  0
BLOCK_RECORD
  5
4F
330
1
100
AcDbSymbolTableRecord
100
AcDbBlockTableRecord
  2
block 2
340
0
102
{BLKREFS
331
50
102
}
 70
     0
280
     1
281
     0
  0
BLOCK_RECORD
  5
E1
330
1
100
AcDbSymbolTableRecord
100
AcDbBlockTableRecord
  2
block 3
340
0
102
{BLKREFS
331
E2
102
}
 70
     0
280
     1
281
     0
  0
BLOCK_RECORD
  5
F8
330
1
100
AcDbSymbolTableRecord
100
AcDbBlockTableRecord
  2
block 4
340
0
102
{BLKREFS
331
F9
102
}
 70
     0
280
     1
281
     0
  0
BLOCK_RECORD
  5
10B
330
1
100
AcDbSymbolTableRecord
100
AcDbBlockTableRecord
  2
block 5
340
0
102
{BLKREFS
331
10C
102
}
 70
     0
280
     1
281
     0
  0
BLOCK_RECORD
  5
130
330
1
100
AcDbSymbolTableRecord
100
AcDbBlockTableRecord
  2
block 6
340
0
102
{BLKREFS
331
131
102
}
 70
     0
280
     1
281
     0
  0
BLOCK_RECORD
  5
199
330
1
100
AcDbSymbolTableRecord
100
AcDbBlockTableRecord
  2
block 7
340
0
102
{BLKREFS
331
19A
102
}
 70
     0
280
     1
281
     0
  0
ENDTAB
  0
ENDSEC
  0
SECTION
  2
BLOCKS
  0
BLOCK
  5
20
330
1F
100
AcDbEntity
  8
0
100
AcDbBlockBegin
  2
*Model_Space
 70
     0
 10
0.0
 20
0.0
 30
0.0
  3
*Model_Space
  1

  0
ENDBLK
  5
21
330
1F
100
AcDbEntity
  8
0
100
AcDbBlockEnd
  0
BLOCK
  5
1C
330
1B
100
AcDbEntity
 67
     1
  8
0
100
AcDbBlockBegin
  2
*Paper_Space
 70
     0
 10
0.0
 20
0.0
 30
0.0
  3
*Paper_Space
  1

  0
ENDBLK
  5
1D
330
1B
100
AcDbEntity
 67
     1
  8
0
100
AcDbBlockEnd
  0
BLOCK
  5
24
330
23
100
AcDbEntity
  8
0
100
AcDbBlockBegin
  2
*Paper_Space0
 70
     0
 10
0.0
 20
0.0
 30
0.0
  3
*Paper_Space0
  1

  0
ENDBLK
  5
25
330
23
100
AcDbEntity
  8
0
100
AcDbBlockEnd
  0
BLOCK
  5
51
330
4F
100
AcDbEntity
  8
0
100
AcDbBlockBegin
  2
block 2
 70
     0
 10
0.0
 20
0.0
 30
0.0
  3
block 2
  1

  0
SPLINE
  5
53
330
4F
100
AcDbEntity
  8
_U+30EC_U+30A4_U+30E4_U+30FC 1
370
     0
100
AcDbSpline
210
0.0
220
0.0
230
1.0
 70
    11
 71
     3
 72
    62
 73
    58
 74
     0
 42
0.0000000001
 43
0.0000000001
 12
1.0
 22
0.0
 32
0.0
 13
1.0
 23
0.0
 33
0.0
 40
0.0
 40
0.0
 40
0.0
 40
0.0
 40
1.0
 40
1.0
 40
1.0
 40
2.0
 40
2.0
 40
2.0
 40
3.0
 40
3.0
 40
3.0
 40
4.0
 40
4.0
 40
4.0
 40
5.0
 40
5.0
 40
5.0
 40
6.0
 40
6.0
 40
6.0
 40
7.0
 40
7.0
 40
7.0
 40
8.0
 40
8.0
 40
8.0
 40
9.0
 40
9.0
 40
9.0
 40
10.0
 40
10.0
 40
10.0
 40
11.0
 40
11.0
 40
11.0
 40
12.0
 40
12.0
 40
12.0
 40
13.0
 40
13.0
 40
13.0
 40
14.0
 40
14.0
 40
14.0
 40
15.0
 40
15.0
 40
15.0
 40
16.0
 40
16.0
 40
16.0
 40
17.0
 40
17.0
 40
17.0
 40
18.0
 40
18.0
 40
18.0
 40
19.0
 40
19.0
 40
19.0
 40
19.0
 10
88.53016897743343
 20
-162.8224473334263
 30
0.0
 10
88.43491208726627
 20
-162.8224473334263
 30
0.0
 10
88.21700979782422
 20
-162.8014322509663
 30
0.0
 10
88.09229734125817
 20
-162.6153970947628
 30
0.0
 10
88.0182277883253
 20
-162.5030869819437
 30
0.0
 10
88.01392141896875
 20
-162.4038682319685
 30
0.0
 10
88.00978730438645
 20
-162.3191188830313
 30
0.0
 10
88.00978730438645
 20
-162.3191188830313
 30
0.0
 10
88.22975665111964
 20
-162.3191188830313
 30
0.0
 10
88.22975665111964
 20
-162.3191188830313
 30
0.0
 10
88.2318237084108
 20
-162.3931884359642
 30
0.0
 10
88.24250350441507
 20
-162.6277994385097
 30
0.0
 10
88.52586260807688
 20
-162.6277994385097
 30
0.0
 10
88.6634941727126
 20
-162.6277994385097
 30
0.0
 10
88.81576739316064
 20
-162.5582085097077
 30
0.0
 10
88.81576739316064
 20
-162.3297986790356
 30
0.0
 10
88.81576739316064
 20
-162.2133544516342
 30
0.0
 10
88.77769908804864
 20
-162.1647786052922
 30
0.0
 10
88.74600420958434
 20
-162.1330837268278
 30
0.0
 10
88.67193465665146
 20
-162.059014173895
 30
0.0
 10
88.55549042925001
 20
-162.0462673205996
 30
0.0
 10
88.50054115626028
 20
-162.0462673205996
 30
0.0
 10
88.48159313109142
 20
-162.0462673205996
 30
0.0
 10
88.44559188327055
 20
-162.0483343778907
 30
0.0
 10
88.41803111938856
 20
-162.052468492473
 30
0.0
 10
88.41803111938856
 20
-162.052468492473
 30
0.0
 10
88.41803111938856
 20
-161.8578205975564
 30
0.0
 10
88.41803111938856
 20
-161.8578205975564
 30
0.0
 10
88.45609942450056
 20
-161.8643662789784
 30
0.0
 10
88.49847409896914
 20
-161.8664333362695
 30
0.0
 10
88.50484752561685
 20
-161.8664333362695
 30
0.0
 10
88.5703043398366
 20
-161.8664333362695
 30
0.0
 10
88.76925860410978
 20
-161.845073744261
 30
0.0
 10
88.76925860410978
 20
-161.6083956844243
 30
0.0
 10
88.76925860410978
 20
-161.4306287573854
 30
0.0
 10
88.63800046612175
 20
-161.3755072296214
 30
0.0
 10
88.52810192014229
 20
-161.3755072296214
 30
0.0
 10
88.26369084164936
 20
-161.3755072296214
 30
0.0
 10
88.25507810293624
 20
-161.6083956844243
 30
0.0
 10
88.25094398835394
 20
-161.6800536705175
 30
0.0
 10
88.25094398835394
 20
-161.6800536705175
 30
0.0
 10
88.04785560949846
 20
-161.6800536705175
 30
0.0
 10
88.04785560949846
 20
-161.6800536705175
 30
0.0
 10
88.05629609343733
 20
-161.5553412139514
 30
0.0
 10
88.08385685731932
 20
-161.1787922774136
 30
0.0
 10
88.54067651866345
 20
-161.1787922774136
 30
0.0
 10
88.76495223475321
 20
-161.1787922774136
 30
0.0
 10
89.0061089187207
 20
-161.3059163008193
 30
0.0
 10
89.0061089187207
 20
-161.6018500030023
 30
0.0
 10
89.0061089187207
 20
-161.7882296687543
 30
0.0
 10
88.9110242833278
 20
-161.8705674508518
 30
0.0
 10
88.81146102380409
 20
-161.9318901504893
 30
0.0
 10
88.8729559782158
 20
-161.9594509143712
 30
0.0
 10
89.05485701983699
 20
-162.0397216391776
 30
0.0
 10
89.05485701983699
 20
-162.3170518257402
 30
0.0
 10
89.05485701983699
 20
-162.6553602023917
 30
0.0
 10
88.80732690922179
 20
-162.8224473334263
 30
0.0
 10
88.53016897743343
 20
-162.8224473334263
 30
0.0
  0
HATCH
  5
54
330
4F
100
AcDbEntity
  8
_U+30EC_U+30A4_U+30E4_U+30FC 1
 62
   179
420
  2234388
100
AcDbHatch
 10
0.0
 20
0.0
 30
0.0
210
0.0
220
0.0
230
1.0
  2
SOLID
 70
     1
 71
     0
 91
        1
 92
        1
 93
        1
 72
     4
 94
        3
 73
     0
 74
     1
 95
       62
 96
       58
 40
0.0
 40
0.0
 40
0.0
 40
0.0
 40
1.0
 40
1.0
 40
1.0
 40
2.0
 40
2.0
 40
2.0
 40
3.0
 40
3.0
 40
3.0
 40
4.0
 40
4.0
 40
4.0
 40
5.0
 40
5.0
 40
5.0
 40
6.0
 40
6.0
 40
6.0
 40
7.0
 40
7.0
 40
7.0
 40
8.0
 40
8.0
 40
8.0
 40
9.0
 40
9.0
 40
9.0
 40
10.0
 40
10.0
 40
10.0
 40
11.0
 40
11.0
 40
11.0
 40
12.0
 40
12.0
 40
12.0
 40
13.0
 40
13.0
 40
13.0
 40
14.0
 40
14.0
 40
14.0
 40
15.0
 40
15.0
 40
15.0
 40
16.0
 40
16.0
 40
16.0
 40
17.0
 40
17.0
 40
17.0
 40
18.0
 40
18.0
 40
18.0
 40
19.0
 40
19.0
 40
19.0
 40
19.0
 10
88.53016897743343
 20
-162.8224473334263
 10
88.43491208726627
 20
-162.8224473334263
 10
88.21700979782422
 20
-162.8014322509663
 10
88.09229734125817
 20
-162.6153970947628
 10
88.0182277883253
 20
-162.5030869819437
 10
88.01392141896875
 20
-162.4038682319685
 10
88.00978730438645
 20
-162.3191188830313
 10
88.00978730438645
 20
-162.3191188830313
 10
88.22975665111964
 20
-162.3191188830313
 10
88.22975665111964
 20
-162.3191188830313
 10
88.2318237084108
 20
-162.3931884359642
 10
88.24250350441507
 20
-162.6277994385097
 10
88.52586260807688
 20
-162.6277994385097
 10
88.6634941727126
 20
-162.6277994385097
 10
88.81576739316064
 20
-162.5582085097077
 10
88.81576739316064
 20
-162.3297986790356
 10
88.81576739316064
 20
-162.2133544516342
 10
88.77769908804864
 20
-162.1647786052922
 10
88.74600420958434
 20
-162.1330837268278
 10
88.67193465665146
 20
-162.059014173895
 10
88.55549042925001
 20
-162.0462673205996
 10
88.50054115626028
 20
-162.0462673205996
 10
88.48159313109142
 20
-162.0462673205996
 10
88.44559188327055
 20
-162.0483343778907
 10
88.41803111938856
 20
-162.052468492473
 10
88.41803111938856
 20
-162.052468492473
 10
88.41803111938856
 20
-161.8578205975564
 10
88.41803111938856
 20
-161.8578205975564
 10
88.45609942450056
 20
-161.8643662789784
 10
88.49847409896914
 20
-161.8664333362695
 10
88.50484752561685
 20
-161.8664333362695
 10
88.5703043398366
 20
-161.8664333362695
 10
88.76925860410978
 20
-161.845073744261
 10
88.76925860410978
 20
-161.6083956844243
 10
88.76925860410978
 20
-161.4306287573854
 10
88.63800046612175
 20
-161.3755072296214
 10
88.52810192014229
 20
-161.3755072296214
 10
88.26369084164936
 20
-161.3755072296214
 10
88.25507810293624
 20
-161.6083956844243
 10
88.25094398835394
 20
-161.6800536705175
 10
88.25094398835394
 20
-161.6800536705175
 10
88.04785560949846
 20
-161.6800536705175
 10
88.04785560949846
 20
-161.6800536705175
 10
88.05629609343733
 20
-161.5553412139514
 10
88.08385685731932
 20
-161.1787922774136
 10
88.54067651866345
 20
-161.1787922774136
 10
88.76495223475321
 20
-161.1787922774136
 10
89.0061089187207
 20
-161.3059163008193
 10
89.0061089187207
 20
-161.6018500030023
 10
89.0061089187207
 20
-161.7882296687543
 10
88.9110242833278
 20
-161.8705674508518
 10
88.81146102380409
 20
-161.9318901504893
 10
88.8729559782158
 20
-161.9594509143712
 10
89.05485701983699
 20
-162.0397216391776
 10
89.05485701983699
 20
-162.3170518257402
 10
89.05485701983699
 20
-162.6553602023917
 10
88.80732690922179
 20
-162.8224473334263
 10
88.53016897743343
 20
-162.8224473334263
 97
        0
 97
        0
 75
     2
 76
     1
 98
        0
  0
ENDBLK
  5
52
330
4F
100
AcDbEntity
  8
0
100
AcDbBlockEnd
  0
BLOCK
  5
E3
330
E1
100
AcDbEntity
  8
0
100
AcDbBlockBegin
  2
block 3
 70
     0
 10
0.0
 20
0.0
 30
0.0
  3
block 3
  1

  0
SPLINE
  5
E5
330
E1
100
AcDbEntity
  8
_U+30EC_U+30A4_U+30E4_U+30FC 1
370
     0
100
AcDbSpline
210
0.0
220
0.0
230
1.0
 70
    11
 71
     3
 72
    44
 73
    40
 74
     0
 42
0.0000000001
 43
0.0000000001
 12
1.0
 22
0.0
 32
0.0
 13
1.0
 23
0.0
 33
0.0
 40
0.0
 40
0.0
 40
0.0
 40
0.0
 40
1.0
 40
1.0
 40
1.0
 40
2.0
 40
2.0
 40
2.0
 40
3.0
 40
3.0
 40
3.0
 40
4.0
 40
4.0
 40
4.0
 40
5.0
 40
5.0
 40
5.0
 40
6.0
 40
6.0
 40
6.0
 40
7.0
 40
7.0
 40
7.0
 40
8.0
 40
8.0
 40
8.0
 40
9.0
 40
9.0
 40
9.0
 40
10.0
 40
10.0
 40
10.0
 40
11.0
 40
11.0
 40
11.0
 40
12.0
 40
12.0
 40
12.0
 40
13.0
 40
13.0
 40
13.0
 40
13.0
 10
103.7461222071364
 20
-132.0331122174258
 30
0.0
 10
103.5282199176943
 20
-132.1919311192958
 30
0.0
 10
103.4350300848183
 20
-132.2660006722286
 30
0.0
 10
103.3864542384763
 20
-132.4096611539636
 30
0.0
 10
103.3864542384763
 20
-132.4096611539636
 30
0.0
 10
104.1648735633685
 20
-132.4096611539636
 30
0.0
 10
104.1648735633685
 20
-132.4096611539636
 30
0.0
 10
104.1648735633685
 20
-132.4096611539636
 30
0.0
 10
104.1648735633685
 20
-132.6149888448845
 30
0.0
 10
104.1648735633685
 20
-132.6149888448845
 30
0.0
 10
104.1648735633685
 20
-132.6149888448845
 30
0.0
 10
103.13685707057
 20
-132.6149888448845
 30
0.0
 10
103.13685707057
 20
-132.6149888448845
 30
0.0
 10
103.1685519490343
 20
-132.2573879335155
 30
0.0
 10
103.234008763254
 20
-132.1791842660004
 30
0.0
 10
103.6191704385049
 20
-131.8808389969777
 30
0.0
 10
103.875141033059
 20
-131.6820569874788
 30
0.0
 10
103.9405978472787
 20
-131.6141886064194
 30
0.0
 10
103.9405978472787
 20
-131.4767292965579
 30
0.0
 10
103.9405978472787
 20
-131.3582180118653
 30
0.0
 10
103.8687676064113
 20
-131.2273043834258
 30
0.0
 10
103.6720526542035
 20
-131.2273043834258
 30
0.0
 10
103.4117756902929
 20
-131.2273043834258
 30
0.0
 10
103.403335206354
 20
-131.457781271389
 30
0.0
 10
103.3990288369975
 20
-131.5742254987905
 30
0.0
 10
103.3990288369975
 20
-131.5742254987905
 30
0.0
 10
103.174925375682
 20
-131.5742254987905
 30
0.0
 10
103.174925375682
 20
-131.5742254987905
 30
0.0
 10
103.1833658596208
 20
-131.4471014753848
 30
0.0
 10
103.1938734008508
 20
-131.3351358721141
 30
0.0
 10
103.2743163804314
 20
-131.2166245874215
 30
0.0
 10
103.3842149264109
 20
-131.0557386282604
 30
0.0
 10
103.5704223373886
 20
-131.0219766925049
 30
0.0
 10
103.6868665647901
 20
-131.0219766925049
 30
0.0
 10
103.9640244965784
 20
-131.0219766925049
 30
0.0
 10
104.1712469900162
 20
-131.2059447914173
 30
0.0
 10
104.1712469900162
 20
-131.478796353849
 30
0.0
 10
104.1712469900162
 20
-131.7075506940697
 30
0.0
 10
104.054975017389
 20
-131.8067694440448
 30
0.0
 10
103.7461222071364
 20
-132.0331122174258
 30
0.0
  0
HATCH
  5
E6
330
E1
100
AcDbEntity
  8
_U+30EC_U+30A4_U+30E4_U+30FC 1
 62
   179
420
  2234388
100
AcDbHatch
 10
0.0
 20
0.0
 30
0.0
210
0.0
220
0.0
230
1.0
  2
SOLID
 70
     1
 71
     0
 91
        1
 92
        1
 93
        1
 72
     4
 94
        3
 73
     0
 74
     1
 95
       44
 96
       40
 40
0.0
 40
0.0
 40
0.0
 40
0.0
 40
1.0
 40
1.0
 40
1.0
 40
2.0
 40
2.0
 40
2.0
 40
3.0
 40
3.0
 40
3.0
 40
4.0
 40
4.0
 40
4.0
 40
5.0
 40
5.0
 40
5.0
 40
6.0
 40
6.0
 40
6.0
 40
7.0
 40
7.0
 40
7.0
 40
8.0
 40
8.0
 40
8.0
 40
9.0
 40
9.0
 40
9.0
 40
10.0
 40
10.0
 40
10.0
 40
11.0
 40
11.0
 40
11.0
 40
12.0
 40
12.0
 40
12.0
 40
13.0
 40
13.0
 40
13.0
 40
13.0
 10
103.7461222071364
 20
-132.0331122174258
 10
103.5282199176943
 20
-132.1919311192958
 10
103.4350300848183
 20
-132.2660006722286
 10
103.3864542384763
 20
-132.4096611539636
 10
103.3864542384763
 20
-132.4096611539636
 10
104.1648735633685
 20
-132.4096611539636
 10
104.1648735633685
 20
-132.4096611539636
 10
104.1648735633685
 20
-132.4096611539636
 10
104.1648735633685
 20
-132.6149888448845
 10
104.1648735633685
 20
-132.6149888448845
 10
104.1648735633685
 20
-132.6149888448845
 10
103.13685707057
 20
-132.6149888448845
 10
103.13685707057
 20
-132.6149888448845
 10
103.1685519490343
 20
-132.2573879335155
 10
103.234008763254
 20
-132.1791842660004
 10
103.6191704385049
 20
-131.8808389969777
 10
103.875141033059
 20
-131.6820569874788
 10
103.9405978472787
 20
-131.6141886064194
 10
103.9405978472787
 20
-131.4767292965579
 10
103.9405978472787
 20
-131.3582180118653
 10
103.8687676064113
 20
-131.2273043834258
 10
103.6720526542035
 20
-131.2273043834258
 10
103.4117756902929
 20
-131.2273043834258
 10
103.403335206354
 20
-131.457781271389
 10
103.3990288369975
 20
-131.5742254987905
 10
103.3990288369975
 20
-131.5742254987905
 10
103.174925375682
 20
-131.5742254987905
 10
103.174925375682
 20
-131.5742254987905
 10
103.1833658596208
 20
-131.4471014753848
 10
103.1938734008508
 20
-131.3351358721141
 10
103.2743163804314
 20
-131.2166245874215
 10
103.3842149264109
 20
-131.0557386282604
 10
103.5704223373886
 20
-131.0219766925049
 10
103.6868665647901
 20
-131.0219766925049
 10
103.9640244965784
 20
-131.0219766925049
 10
104.1712469900162
 20
-131.2059447914173
 10
104.1712469900162
 20
-131.478796353849
 10
104.1712469900162
 20
-131.7075506940697
 10
104.054975017389
 20
-131.8067694440448
 10
103.7461222071364
 20
-132.0331122174258
 97
        0
 97
        0
 75
     2
 76
     1
 98
        0
  0
SPLINE
  5
E7
330
E1
100
AcDbEntity
  8
_U+30EC_U+30A4_U+30E4_U+30FC 1
370
     0
100
AcDbSpline
210
0.0
220
0.0
230
1.0
 70
    11
 71
     3
 72
    32
 73
    28
 74
     0
 42
0.0000000001
 43
0.0000000001
 12
1.0
 22
0.0
 32
0.0
 13
1.0
 23
0.0
 33
0.0
 40
0.0
 40
0.0
 40
0.0
 40
0.0
 40
1.0
 40
1.0
 40
1.0
 40
2.0
 40
2.0
 40
2.0
 40
3.0
 40
3.0
 40
3.0
 40
4.0
 40
4.0
 40
4.0
 40
5.0
 40
5.0
 40
5.0
 40
6.0
 40
6.0
 40
6.0
 40
7.0
 40
7.0
 40
7.0
 40
8.0
 40
8.0
 40
8.0
 40
9.0
 40
9.0
 40
9.0
 40
9.0
 10
104.8340833613783
 20
-132.6656317485176
 30
0.0
 10
104.3178358029136
 20
-132.6656317485176
 30
0.0
 10
104.3093953189747
 20
-132.1116603944895
 30
0.0
 10
104.3093953189747
 20
-131.8977199648554
 30
0.0
 10
104.3093953189747
 20
-131.6672430768922
 30
0.0
 10
104.3285155989179
 20
-131.0199096352138
 30
0.0
 10
104.8721516664903
 20
-131.0199096352138
 30
0.0
 10
105.0456122241726
 20
-131.0199096352138
 30
0.0
 10
105.2910752774967
 20
-131.0898450735644
 30
0.0
 10
105.3291435826087
 20
-131.4219522783424
 30
0.0
 10
105.3291435826087
 20
-131.4219522783424
 30
0.0
 10
105.1153754077489
 20
-131.4219522783424
 30
0.0
 10
105.1153754077489
 20
-131.4219522783424
 30
0.0
 10
105.1048678665189
 20
-131.3647636932873
 30
0.0
 10
105.0731729880546
 20
-131.2166245874215
 30
0.0
 10
104.8700846091992
 20
-131.2166245874215
 30
0.0
 10
104.5781127668242
 20
-131.2166245874215
 30
0.0
 10
104.5378051496468
 20
-131.5445976776173
 30
0.0
 10
104.5252305511256
 20
-131.7495808589897
 30
0.0
 10
104.6182481292274
 20
-131.6713771914745
 30
0.0
 10
104.6859442555126
 20
-131.6121215491282
 30
0.0
 10
104.8678452971337
 20
-131.6121215491282
 30
0.0
 10
105.0476792814638
 20
-131.6121215491282
 30
0.0
 10
105.3501586650687
 20
-131.7202975473651
 30
0.0
 10
105.3501586650687
 20
-132.126474305076
 30
0.0
 10
105.3501586650687
 20
-132.4458346565587
 30
0.0
 10
105.1513766555698
 20
-132.6656317485176
 30
0.0
 10
104.8340833613783
 20
-132.6656317485176
 30
0.0
  0
SPLINE
  5
E8
330
E1
100
AcDbEntity
  8
_U+30EC_U+30A4_U+30E4_U+30FC 1
370
     0
100
AcDbSpline
210
0.0
220
0.0
230
1.0
 70
    11
 71
     3
 72
    17
 73
    13
 74
     0
 42
0.0000000001
 43
0.0000000001
 12
1.0
 22
0.0
 32
0.0
 13
1.0
 23
0.0
 33
0.0
 40
0.0
 40
0.0
 40
0.0
 40
0.0
 40
1.0
 40
1.0
 40
1.0
 40
2.0
 40
2.0
 40
2.0
 40
3.0
 40
3.0
 40
3.0
 40
4.0
 40
4.0
 40
4.0
 40
4.0
 10
104.850964329256
 20
-131.8067694440448
 30
0.0
 10
104.5886203080542
 20
-131.8067694440448
 30
0.0
 10
104.5505520029422
 20
-132.0182983068392
 30
0.0
 10
104.5505520029422
 20
-132.1347425342406
 30
0.0
 10
104.5505520029422
 20
-132.3104424039884
 30
0.0
 10
104.6458088931094
 20
-132.4733954204407
 30
0.0
 10
104.8297769920217
 20
-132.4733954204407
 30
0.0
 10
104.9503553340055
 20
-132.4733954204407
 30
0.0
 10
105.1260552037532
 20
-132.4141397780944
 30
0.0
 10
105.1260552037532
 20
-132.1285413623672
 30
0.0
 10
105.1260552037532
 20
-131.9042656462774
 30
0.0
 10
104.9863565818263
 20
-131.8067694440448
 30
0.0
 10
104.850964329256
 20
-131.8067694440448
 30
0.0
  0
HATCH
  5
E9
330
E1
100
AcDbEntity
  8
_U+30EC_U+30A4_U+30E4_U+30FC 1
 62
   179
420
  2234388
100
AcDbHatch
 10
0.0
 20
0.0
 30
0.0
210
0.0
220
0.0
230
1.0
  2
SOLID
 70
     1
 71
     0
 91
        2
 92
        1
 93
        1
 72
     4
 94
        3
 73
     0
 74
     1
 95
       32
 96
       28
 40
0.0
 40
0.0
 40
0.0
 40
0.0
 40
1.0
 40
1.0
 40
1.0
 40
2.0
 40
2.0
 40
2.0
 40
3.0
 40
3.0
 40
3.0
 40
4.0
 40
4.0
 40
4.0
 40
5.0
 40
5.0
 40
5.0
 40
6.0
 40
6.0
 40
6.0
 40
7.0
 40
7.0
 40
7.0
 40
8.0
 40
8.0
 40
8.0
 40
9.0
 40
9.0
 40
9.0
 40
9.0
 10
104.8340833613783
 20
-132.6656317485176
 10
104.3178358029136
 20
-132.6656317485176
 10
104.3093953189747
 20
-132.1116603944895
 10
104.3093953189747
 20
-131.8977199648554
 10
104.3093953189747
 20
-131.6672430768922
 10
104.3285155989179
 20
-131.0199096352138
 10
104.8721516664903
 20
-131.0199096352138
 10
105.0456122241726
 20
-131.0199096352138
 10
105.2910752774967
 20
-131.0898450735644
 10
105.3291435826087
 20
-131.4219522783424
 10
105.3291435826087
 20
-131.4219522783424
 10
105.1153754077489
 20
-131.4219522783424
 10
105.1153754077489
 20
-131.4219522783424
 10
105.1048678665189
 20
-131.3647636932873
 10
105.0731729880546
 20
-131.2166245874215
 10
104.8700846091992
 20
-131.2166245874215
 10
104.5781127668242
 20
-131.2166245874215
 10
104.5378051496468
 20
-131.5445976776173
 10
104.5252305511256
 20
-131.7495808589897
 10
104.6182481292274
 20
-131.6713771914745
 10
104.6859442555126
 20
-131.6121215491282
 10
104.8678452971337
 20
-131.6121215491282
 10
105.0476792814638
 20
-131.6121215491282
 10
105.3501586650687
 20
-131.7202975473651
 10
105.3501586650687
 20
-132.126474305076
 10
105.3501586650687
 20
-132.4458346565587
 10
105.1513766555698
 20
-132.6656317485176
 10
104.8340833613783
 20
-132.6656317485176
 97
        0
 97
        0
 92
        1
 93
        1
 72
     4
 94
        3
 73
     0
 74
     1
 95
       17
 96
       13
 40
0.0
 40
0.0
 40
0.0
 40
0.0
 40
1.0
 40
1.0
 40
1.0
 40
2.0
 40
2.0
 40
2.0
 40
3.0
 40
3.0
 40
3.0
 40
4.0
 40
4.0
 40
4.0
 40
4.0
 10
104.850964329256
 20
-131.8067694440448
 10
104.5886203080542
 20
-131.8067694440448
 10
104.5505520029422
 20
-132.0182983068392
 10
104.5505520029422
 20
-132.1347425342406
 10
104.5505520029422
 20
-132.3104424039884
 10
104.6458088931094
 20
-132.4733954204407
 10
104.8297769920217
 20
-132.4733954204407
 10
104.9503553340055
 20
-132.4733954204407
 10
105.1260552037532
 20
-132.4141397780944
 10
105.1260552037532
 20
-132.1285413623672
 10
105.1260552037532
 20
-131.9042656462774
 10
104.9863565818263
 20
-131.8067694440448
 10
104.850964329256
 20
-131.8067694440448
 97
        0
 97
        0
 75
     2
 76
     1
 98
        0
  0
ENDBLK
  5
E4
330
E1
100
AcDbEntity
  8
0
100
AcDbBlockEnd
  0
BLOCK
  5
FA
330
F8
100
AcDbEntity
  8
0
100
AcDbBlockBegin
  2
block 4
 70
     0
 10
0.0
 20
0.0
 30
0.0
  3
block 4
  1

  0
SPLINE
  5
FC
330
F8
100
AcDbEntity
  8
_U+30EC_U+30A4_U+30E4_U+30FC 1
370
     0
100
AcDbSpline
210
0.0
220
0.0
230
1.0
 70
    11
 71
     3
 72
    32
 73
    28
 74
     0
 42
0.0000000001
 43
0.0000000001
 12
1.0
 22
0.0
 32
0.0
 13
1.0
 23
0.0
 33
0.0
 40
0.0
 40
0.0
 40
0.0
 40
0.0
 40
1.0
 40
1.0
 40
1.0
 40
2.0
 40
2.0
 40
2.0
 40
3.0
 40
3.0
 40
3.0
 40
4.0
 40
4.0
 40
4.0
 40
5.0
 40
5.0
 40
5.0
 40
6.0
 40
6.0
 40
6.0
 40
7.0
 40
7.0
 40
7.0
 40
8.0
 40
8.0
 40
8.0
 40
9.0
 40
9.0
 40
9.0
 40
9.0
 10
122.4776231247625
 20
-140.4775580160959
 30
0.0
 10
122.4776231247625
 20
-140.9936333197863
 30
0.0
 10
121.9236517707344
 20
-141.0022460584995
 30
0.0
 10
121.7097113411004
 20
-141.0022460584995
 30
0.0
 10
121.4792344531371
 20
-141.0022460584995
 30
0.0
 10
120.8319010114587
 20
-140.982953523782
 30
0.0
 10
120.8319010114587
 20
-140.4393174562096
 30
0.0
 10
120.8319010114587
 20
-140.2660291533016
 30
0.0
 10
120.9018364498093
 20
-140.0203938452032
 30
0.0
 10
121.2339436545873
 20
-139.9824977948655
 30
0.0
 10
121.2339436545873
 20
-139.9824977948655
 30
0.0
 10
121.2339436545873
 20
-140.196093714951
 30
0.0
 10
121.2339436545873
 20
-140.196093714951
 30
0.0
 10
121.1767550695322
 20
-140.2067735109553
 30
0.0
 10
121.0286159636665
 20
-140.2384683894196
 30
0.0
 10
121.0286159636665
 20
-140.4413845135008
 30
0.0
 10
121.0286159636665
 20
-140.73352861065
 30
0.0
 10
121.3565890538623
 20
-140.7734917182788
 30
0.0
 10
121.5615722352346
 20
-140.7862385715743
 30
0.0
 10
121.4833685677194
 20
-140.6932209934725
 30
0.0
 10
121.4241129253731
 20
-140.6253526124131
 30
0.0
 10
121.4241129253731
 20
-140.4434515707919
 30
0.0
 10
121.4241129253731
 20
-140.2636175864619
 30
0.0
 10
121.53228892361
 20
-139.9611382028569
 30
0.0
 10
121.9384656813209
 20
-139.9611382028569
 30
0.0
 10
122.2578260328036
 20
-139.9611382028569
 30
0.0
 10
122.4776231247625
 20
-140.1602647219044
 30
0.0
 10
122.4776231247625
 20
-140.4775580160959
 30
0.0
  0
SPLINE
  5
FD
330
F8
100
AcDbEntity
  8
_U+30EC_U+30A4_U+30E4_U+30FC 1
370
     0
100
AcDbSpline
210
0.0
220
0.0
230
1.0
 70
    11
 71
     3
 72
    17
 73
    13
 74
     0
 42
0.0000000001
 43
0.0000000001
 12
1.0
 22
0.0
 32
0.0
 13
1.0
 23
0.0
 33
0.0
 40
0.0
 40
0.0
 40
0.0
 40
0.0
 40
1.0
 40
1.0
 40
1.0
 40
2.0
 40
2.0
 40
2.0
 40
3.0
 40
3.0
 40
3.0
 40
4.0
 40
4.0
 40
4.0
 40
4.0
 10
121.6187608202898
 20
-140.4606770482182
 30
0.0
 10
121.6187608202898
 20
-140.7228488146457
 30
0.0
 10
121.8302896830841
 20
-140.7607448649834
 30
0.0
 10
121.9467339104855
 20
-140.7607448649834
 30
0.0
 10
122.1224337802333
 20
-140.7607448649834
 30
0.0
 10
122.2853867966856
 20
-140.6656602295905
 30
0.0
 10
122.2853867966856
 20
-140.4816921306782
 30
0.0
 10
122.2853867966856
 20
-140.3611137886944
 30
0.0
 10
122.2261311543393
 20
-140.1854139189467
 30
0.0
 10
121.9405327386121
 20
-140.1854139189467
 30
0.0
 10
121.7162570225223
 20
-140.1854139189467
 30
0.0
 10
121.6187608202898
 20
-140.3249402860993
 30
0.0
 10
121.6187608202898
 20
-140.4606770482182
 30
0.0
  0
HATCH
  5
FE
330
F8
100
AcDbEntity
  8
_U+30EC_U+30A4_U+30E4_U+30FC 1
 62
   179
420
  2234388
100
AcDbHatch
 10
0.0
 20
0.0
 30
0.0
210
0.0
220
0.0
230
1.0
  2
SOLID
 70
     1
 71
     0
 91
        2
 92
        1
 93
        1
 72
     4
 94
        3
 73
     0
 74
     1
 95
       32
 96
       28
 40
0.0
 40
0.0
 40
0.0
 40
0.0
 40
1.0
 40
1.0
 40
1.0
 40
2.0
 40
2.0
 40
2.0
 40
3.0
 40
3.0
 40
3.0
 40
4.0
 40
4.0
 40
4.0
 40
5.0
 40
5.0
 40
5.0
 40
6.0
 40
6.0
 40
6.0
 40
7.0
 40
7.0
 40
7.0
 40
8.0
 40
8.0
 40
8.0
 40
9.0
 40
9.0
 40
9.0
 40
9.0
 10
122.4776231247625
 20
-140.4775580160959
 10
122.4776231247625
 20
-140.9936333197863
 10
121.9236517707344
 20
-141.0022460584995
 10
121.7097113411004
 20
-141.0022460584995
 10
121.4792344531371
 20
-141.0022460584995
 10
120.8319010114587
 20
-140.982953523782
 10
120.8319010114587
 20
-140.4393174562096
 10
120.8319010114587
 20
-140.2660291533016
 10
120.9018364498093
 20
-140.0203938452032
 10
121.2339436545873
 20
-139.9824977948655
 10
121.2339436545873
 20
-139.9824977948655
 10
121.2339436545873
 20
-140.196093714951
 10
121.2339436545873
 20
-140.196093714951
 10
121.1767550695322
 20
-140.2067735109553
 10
121.0286159636665
 20
-140.2384683894196
 10
121.0286159636665
 20
-140.4413845135008
 10
121.0286159636665
 20
-140.73352861065
 10
121.3565890538623
 20
-140.7734917182788
 10
121.5615722352346
 20
-140.7862385715743
 10
121.4833685677194
 20
-140.6932209934725
 10
121.4241129253731
 20
-140.6253526124131
 10
121.4241129253731
 20
-140.4434515707919
 10
121.4241129253731
 20
-140.2636175864619
 10
121.53228892361
 20
-139.9611382028569
 10
121.9384656813209
 20
-139.9611382028569
 10
122.2578260328036
 20
-139.9611382028569
 10
122.4776231247625
 20
-140.1602647219044
 10
122.4776231247625
 20
-140.4775580160959
 97
        0
 97
        0
 92
        1
 93
        1
 72
     4
 94
        3
 73
     0
 74
     1
 95
       17
 96
       13
 40
0.0
 40
0.0
 40
0.0
 40
0.0
 40
1.0
 40
1.0
 40
1.0
 40
2.0
 40
2.0
 40
2.0
 40
3.0
 40
3.0
 40
3.0
 40
4.0
 40
4.0
 40
4.0
 40
4.0
 10
121.6187608202898
 20
-140.4606770482182
 10
121.6187608202898
 20
-140.7228488146457
 10
121.8302896830841
 20
-140.7607448649834
 10
121.9467339104855
 20
-140.7607448649834
 10
122.1224337802333
 20
-140.7607448649834
 10
122.2853867966856
 20
-140.6656602295905
 10
122.2853867966856
 20
-140.4816921306782
 10
122.2853867966856
 20
-140.3611137886944
 10
122.2261311543393
 20
-140.1854139189467
 10
121.9405327386121
 20
-140.1854139189467
 10
121.7162570225223
 20
-140.1854139189467
 10
121.6187608202898
 20
-140.3249402860993
 10
121.6187608202898
 20
-140.4606770482182
 97
        0
 97
        0
 75
     2
 76
     1
 98
        0
  0
ENDBLK
  5
FB
330
F8
100
AcDbEntity
  8
0
100
AcDbBlockEnd
  0
BLOCK
  5
10D
330
10B
100
AcDbEntity
  8
0
100
AcDbBlockBegin
  2
block 5
 70
     0
 10
0.0
 20
0.0
 30
0.0
  3
block 5
  1

  0
SPLINE
  5
10F
330
10B
100
AcDbEntity
  8
_U+30EC_U+30A4_U+30E4_U+30FC 1
370
     0
100
AcDbSpline
210
0.0
220
0.0
230
1.0
 70
    11
 71
     3
 72
    44
 73
    40
 74
     0
 42
0.0000000001
 43
0.0000000001
 12
1.0
 22
0.0
 32
0.0
 13
1.0
 23
0.0
 33
0.0
 40
0.0
 40
0.0
 40
0.0
 40
0.0
 40
1.0
 40
1.0
 40
1.0
 40
2.0
 40
2.0
 40
2.0
 40
3.0
 40
3.0
 40
3.0
 40
4.0
 40
4.0
 40
4.0
 40
5.0
 40
5.0
 40
5.0
 40
6.0
 40
6.0
 40
6.0
 40
7.0
 40
7.0
 40
7.0
 40
8.0
 40
8.0
 40
8.0
 40
9.0
 40
9.0
 40
9.0
 40
10.0
 40
10.0
 40
10.0
 40
11.0
 40
11.0
 40
11.0
 40
12.0
 40
12.0
 40
12.0
 40
13.0
 40
13.0
 40
13.0
 40
13.0
 10
79.79013398612886
 20
-150.9668402400361
 30
0.0
 10
79.94895288799887
 20
-151.1849147842524
 30
0.0
 10
80.02302244093175
 20
-151.2782768719026
 30
0.0
 10
80.16668292266667
 20
-151.3265082086962
 30
0.0
 10
80.16668292266667
 20
-151.3265082086962
 30
0.0
 10
80.16668292266667
 20
-150.5482611385782
 30
0.0
 10
80.16668292266667
 20
-150.5482611385782
 30
0.0
 10
80.16668292266667
 20
-150.5482611385782
 30
0.0
 10
80.37201061358756
 20
-150.5482611385782
 30
0.0
 10
80.37201061358756
 20
-150.5482611385782
 30
0.0
 10
80.37201061358756
 20
-150.5482611385782
 30
0.0
 10
80.37201061358756
 20
-151.5762776313768
 30
0.0
 10
80.37201061358756
 20
-151.5762776313768
 30
0.0
 10
80.01440970221863
 20
-151.5445827529125
 30
0.0
 10
79.93620603470345
 20
-151.4791259386927
 30
0.0
 10
79.63786076568081
 20
-151.0939642634418
 30
0.0
 10
79.4390787561819
 20
-150.8379936688877
 30
0.0
 10
79.37121037512247
 20
-150.772536854668
 30
0.0
 10
79.233751065261
 20
-150.772536854668
 30
0.0
 10
79.11523978056842
 20
-150.772536854668
 30
0.0
 10
78.98432615212892
 20
-150.8441948407612
 30
0.0
 10
78.98432615212892
 20
-151.0412543025175
 30
0.0
 10
78.98432615212892
 20
-151.3013590116538
 30
0.0
 10
79.21480304009214
 20
-151.309971750367
 30
0.0
 10
79.33124726749358
 20
-151.3141058649493
 30
0.0
 10
79.33124726749358
 20
-151.3141058649493
 30
0.0
 10
79.33124726749358
 20
-151.5380370714905
 30
0.0
 10
79.33124726749358
 20
-151.5380370714905
 30
0.0
 10
79.20412324408787
 20
-151.5297688423259
 30
0.0
 10
79.09215764081725
 20
-151.5194335558701
 30
0.0
 10
78.97364635612465
 20
-151.4388183215153
 30
0.0
 10
78.81276039696348
 20
-151.3289197755358
 30
0.0
 10
78.77899846120803
 20
-151.1425401097838
 30
0.0
 10
78.77899846120803
 20
-151.0260958823824
 30
0.0
 10
78.77899846120803
 20
-150.7491102053683
 30
0.0
 10
78.96296656012038
 20
-150.5417154571562
 30
0.0
 10
79.23581812255216
 20
-150.5417154571562
 30
0.0
 10
79.46457246277275
 20
-150.5417154571562
 30
0.0
 10
79.56379121274794
 20
-150.6581596845577
 30
0.0
 10
79.79013398612886
 20
-150.9668402400361
 30
0.0
  0
HATCH
  5
110
330
10B
100
AcDbEntity
  8
_U+30EC_U+30A4_U+30E4_U+30FC 1
 62
   179
420
  2234388
100
AcDbHatch
 10
0.0
 20
0.0
 30
0.0
210
0.0
220
0.0
230
1.0
  2
SOLID
 70
     1
 71
     0
 91
        1
 92
        1
 93
        1
 72
     4
 94
        3
 73
     0
 74
     1
 95
       44
 96
       40
 40
0.0
 40
0.0
 40
0.0
 40
0.0
 40
1.0
 40
1.0
 40
1.0
 40
2.0
 40
2.0
 40
2.0
 40
3.0
 40
3.0
 40
3.0
 40
4.0
 40
4.0
 40
4.0
 40
5.0
 40
5.0
 40
5.0
 40
6.0
 40
6.0
 40
6.0
 40
7.0
 40
7.0
 40
7.0
 40
8.0
 40
8.0
 40
8.0
 40
9.0
 40
9.0
 40
9.0
 40
10.0
 40
10.0
 40
10.0
 40
11.0
 40
11.0
 40
11.0
 40
12.0
 40
12.0
 40
12.0
 40
13.0
 40
13.0
 40
13.0
 40
13.0
 10
79.79013398612886
 20
-150.9668402400361
 10
79.94895288799887
 20
-151.1849147842524
 10
80.02302244093175
 20
-151.2782768719026
 10
80.16668292266667
 20
-151.3265082086962
 10
80.16668292266667
 20
-151.3265082086962
 10
80.16668292266667
 20
-150.5482611385782
 10
80.16668292266667
 20
-150.5482611385782
 10
80.16668292266667
 20
-150.5482611385782
 10
80.37201061358756
 20
-150.5482611385782
 10
80.37201061358756
 20
-150.5482611385782
 10
80.37201061358756
 20
-150.5482611385782
 10
80.37201061358756
 20
-151.5762776313768
 10
80.37201061358756
 20
-151.5762776313768
 10
80.01440970221863
 20
-151.5445827529125
 10
79.93620603470345
 20
-151.4791259386927
 10
79.63786076568081
 20
-151.0939642634418
 10
79.4390787561819
 20
-150.8379936688877
 10
79.37121037512247
 20
-150.772536854668
 10
79.233751065261
 20
-150.772536854668
 10
79.11523978056842
 20
-150.772536854668
 10
78.98432615212892
 20
-150.8441948407612
 10
78.98432615212892
 20
-151.0412543025175
 10
78.98432615212892
 20
-151.3013590116538
 10
79.21480304009214
 20
-151.309971750367
 10
79.33124726749358
 20
-151.3141058649493
 10
79.33124726749358
 20
-151.3141058649493
 10
79.33124726749358
 20
-151.5380370714905
 10
79.33124726749358
 20
-151.5380370714905
 10
79.20412324408787
 20
-151.5297688423259
 10
79.09215764081725
 20
-151.5194335558701
 10
78.97364635612465
 20
-151.4388183215153
 10
78.81276039696348
 20
-151.3289197755358
 10
78.77899846120803
 20
-151.1425401097838
 10
78.77899846120803
 20
-151.0260958823824
 10
78.77899846120803
 20
-150.7491102053683
 10
78.96296656012038
 20
-150.5417154571562
 10
79.23581812255216
 20
-150.5417154571562
 10
79.46457246277275
 20
-150.5417154571562
 10
79.56379121274794
 20
-150.6581596845577
 10
79.79013398612886
 20
-150.9668402400361
 97
        0
 97
        0
 75
     2
 76
     1
 98
        0
  0
SPLINE
  5
111
330
10B
100
AcDbEntity
  8
_U+30EC_U+30A4_U+30E4_U+30FC 1
370
     0
100
AcDbSpline
210
0.0
220
0.0
230
1.0
 70
    11
 71
     3
 72
    32
 73
    28
 74
     0
 42
0.0000000001
 43
0.0000000001
 12
1.0
 22
0.0
 32
0.0
 13
1.0
 23
0.0
 33
0.0
 40
0.0
 40
0.0
 40
0.0
 40
0.0
 40
1.0
 40
1.0
 40
1.0
 40
2.0
 40
2.0
 40
2.0
 40
3.0
 40
3.0
 40
3.0
 40
4.0
 40
4.0
 40
4.0
 40
5.0
 40
5.0
 40
5.0
 40
6.0
 40
6.0
 40
6.0
 40
7.0
 40
7.0
 40
7.0
 40
8.0
 40
8.0
 40
8.0
 40
9.0
 40
9.0
 40
9.0
 40
9.0
 10
80.42265351722072
 20
-149.8788790857942
 30
0.0
 10
80.42265351722072
 20
-150.3952988990331
 30
0.0
 10
79.86868216319256
 20
-150.4039116377463
 30
0.0
 10
79.65474173355854
 20
-150.4039116377463
 30
0.0
 10
79.42426484559533
 20
-150.4039116377463
 30
0.0
 10
78.77693140391688
 20
-150.3846191030289
 30
0.0
 10
78.77693140391688
 20
-149.8409830354564
 30
0.0
 10
78.77693140391688
 20
-149.6673502229998
 30
0.0
 10
78.84686684226746
 20
-149.4220594244501
 30
0.0
 10
79.17897404704554
 20
-149.3841633741123
 30
0.0
 10
79.17897404704554
 20
-149.3841633741123
 30
0.0
 10
79.17897404704554
 20
-149.5977592941978
 30
0.0
 10
79.17897404704554
 20
-149.5977592941978
 30
0.0
 10
79.12178546199038
 20
-149.6080945806535
 30
0.0
 10
78.97364635612465
 20
-149.6397894591178
 30
0.0
 10
78.97364635612465
 20
-149.8430500927476
 30
0.0
 10
78.97364635612465
 20
-150.1351941898968
 30
0.0
 10
79.30161944632043
 20
-150.1751572975257
 30
0.0
 10
79.5066026276928
 20
-150.1879041508211
 30
0.0
 10
79.42839896017763
 20
-150.0948865727193
 30
0.0
 10
79.36914331783133
 20
-150.0270181916599
 30
0.0
 10
79.36914331783133
 20
-149.8451171500387
 30
0.0
 10
79.36914331783133
 20
-149.6652831657087
 30
0.0
 10
79.47731931606818
 20
-149.3628037821038
 30
0.0
 10
79.88349607377913
 20
-149.3628037821038
 30
0.0
 10
80.20285642526179
 20
-149.3628037821038
 30
0.0
 10
80.42265351722072
 20
-149.5619303011512
 30
0.0
 10
80.42265351722072
 20
-149.8788790857942
 30
0.0
  0
SPLINE
  5
112
330
10B
100
AcDbEntity
  8
_U+30EC_U+30A4_U+30E4_U+30FC 1
370
     0
100
AcDbSpline
210
0.0
220
0.0
230
1.0
 70
    11
 71
     3
 72
    17
 73
    13
 74
     0
 42
0.0000000001
 43
0.0000000001
 12
1.0
 22
0.0
 32
0.0
 13
1.0
 23
0.0
 33
0.0
 40
0.0
 40
0.0
 40
0.0
 40
0.0
 40
1.0
 40
1.0
 40
1.0
 40
2.0
 40
2.0
 40
2.0
 40
3.0
 40
3.0
 40
3.0
 40
4.0
 40
4.0
 40
4.0
 40
4.0
 10
79.56379121274794
 20
-149.862342627465
 30
0.0
 10
79.56379121274794
 20
-150.1245143938925
 30
0.0
 10
79.77532007554228
 20
-150.1627549537788
 30
0.0
 10
79.89176430294373
 20
-150.1627549537788
 30
0.0
 10
80.06746417269147
 20
-150.1627549537788
 30
0.0
 10
80.2304171891438
 20
-150.0673258088374
 30
0.0
 10
80.2304171891438
 20
-149.883357709925
 30
0.0
 10
80.2304171891438
 20
-149.7627793679412
 30
0.0
 10
80.17116154679749
 20
-149.5870794981935
 30
0.0
 10
79.88556313107028
 20
-149.5870794981935
 30
0.0
 10
79.66128741498052
 20
-149.5870794981935
 30
0.0
 10
79.56379121274794
 20
-149.7266058653461
 30
0.0
 10
79.56379121274794
 20
-149.862342627465
 30
0.0
  0
HATCH
  5
113
330
10B
100
AcDbEntity
  8
_U+30EC_U+30A4_U+30E4_U+30FC 1
 62
   179
420
  2234388
100
AcDbHatch
 10
0.0
 20
0.0
 30
0.0
210
0.0
220
0.0
230
1.0
  2
SOLID
 70
     1
 71
     0
 91
        2
 92
        1
 93
        1
 72
     4
 94
        3
 73
     0
 74
     1
 95
       32
 96
       28
 40
0.0
 40
0.0
 40
0.0
 40
0.0
 40
1.0
 40
1.0
 40
1.0
 40
2.0
 40
2.0
 40
2.0
 40
3.0
 40
3.0
 40
3.0
 40
4.0
 40
4.0
 40
4.0
 40
5.0
 40
5.0
 40
5.0
 40
6.0
 40
6.0
 40
6.0
 40
7.0
 40
7.0
 40
7.0
 40
8.0
 40
8.0
 40
8.0
 40
9.0
 40
9.0
 40
9.0
 40
9.0
 10
80.42265351722072
 20
-149.8788790857942
 10
80.42265351722072
 20
-150.3952988990331
 10
79.86868216319256
 20
-150.4039116377463
 10
79.65474173355854
 20
-150.4039116377463
 10
79.42426484559533
 20
-150.4039116377463
 10
78.77693140391688
 20
-150.3846191030289
 10
78.77693140391688
 20
-149.8409830354564
 10
78.77693140391688
 20
-149.6673502229998
 10
78.84686684226746
 20
-149.4220594244501
 10
79.17897404704554
 20
-149.3841633741123
 10
79.17897404704554
 20
-149.3841633741123
 10
79.17897404704554
 20
-149.5977592941978
 10
79.17897404704554
 20
-149.5977592941978
 10
79.12178546199038
 20
-149.6080945806535
 10
78.97364635612465
 20
-149.6397894591178
 10
78.97364635612465
 20
-149.8430500927476
 10
78.97364635612465
 20
-150.1351941898968
 10
79.30161944632043
 20
-150.1751572975257
 10
79.5066026276928
 20
-150.1879041508211
 10
79.42839896017763
 20
-150.0948865727193
 10
79.36914331783133
 20
-150.0270181916599
 10
79.36914331783133
 20
-149.8451171500387
 10
79.36914331783133
 20
-149.6652831657087
 10
79.47731931606818
 20
-149.3628037821038
 10
79.88349607377913
 20
-149.3628037821038
 10
80.20285642526179
 20
-149.3628037821038
 10
80.42265351722072
 20
-149.5619303011512
 10
80.42265351722072
 20
-149.8788790857942
 97
        0
 97
        0
 92
        1
 93
        1
 72
     4
 94
        3
 73
     0
 74
     1
 95
       17
 96
       13
 40
0.0
 40
0.0
 40
0.0
 40
0.0
 40
1.0
 40
1.0
 40
1.0
 40
2.0
 40
2.0
 40
2.0
 40
3.0
 40
3.0
 40
3.0
 40
4.0
 40
4.0
 40
4.0
 40
4.0
 10
79.56379121274794
 20
-149.862342627465
 10
79.56379121274794
 20
-150.1245143938925
 10
79.77532007554228
 20
-150.1627549537788
 10
79.89176430294373
 20
-150.1627549537788
 10
80.06746417269147
 20
-150.1627549537788
 10
80.2304171891438
 20
-150.0673258088374
 10
80.2304171891438
 20
-149.883357709925
 10
80.2304171891438
 20
-149.7627793679412
 10
80.17116154679749
 20
-149.5870794981935
 10
79.88556313107028
 20
-149.5870794981935
 10
79.66128741498052
 20
-149.5870794981935
 10
79.56379121274794
 20
-149.7266058653461
 10
79.56379121274794
 20
-149.862342627465
 97
        0
 97
        0
 75
     2
 76
     1
 98
        0
  0
ENDBLK
  5
10E
330
10B
100
AcDbEntity
  8
0
100
AcDbBlockEnd
  0
BLOCK
  5
132
330
130
100
AcDbEntity
  8
0
100
AcDbBlockBegin
  2
block 6
 70
     0
 10
0.0
 20
0.0
 30
0.0
  3
block 6
  1

  0
POLYLINE
  5
134
330
130
100
AcDbEntity
  8
_U+30EC_U+30A4_U+30E4_U+30FC 1
370
     0
100
AcDb2dPolyline
 66
     1
 10
0.0
 20
0.0
 30
0.0
  0
VERTEX
  5
135
330
134
100
AcDbEntity
  8
_U+30EC_U+30A4_U+30E4_U+30FC 1
370
     0
100
AcDbVertex
100
AcDb2dVertex
 10
84.38537459912935
 20
-132.6490952901884
 30
0.0
  0
VERTEX
  5
136
330
134
100
AcDbEntity
  8
_U+30EC_U+30A4_U+30E4_U+30FC 1
370
     0
100
AcDbVertex
100
AcDb2dVertex
 10
84.38537459912935
 20
-132.4882093310273
 30
0.0
  0
VERTEX
  5
137
330
134
100
AcDbEntity
  8
_U+30EC_U+30A4_U+30E4_U+30FC 1
370
     0
100
AcDbVertex
100
AcDb2dVertex
 10
84.53971487686854
 20
-132.4882093310273
 30
0.0
  0
VERTEX
  5
138
330
134
100
AcDbEntity
  8
_U+30EC_U+30A4_U+30E4_U+30FC 1
370
     0
100
AcDbVertex
100
AcDb2dVertex
 10
84.53971487686854
 20
-132.6490952901884
 30
0.0
  0
VERTEX
  5
139
330
134
100
AcDbEntity
  8
_U+30EC_U+30A4_U+30E4_U+30FC 1
370
     0
100
AcDbVertex
100
AcDb2dVertex
 10
84.93331703605834
 20
-132.6490952901884
 30
0.0
  0
VERTEX
  5
13A
330
134
100
AcDbEntity
  8
_U+30EC_U+30A4_U+30E4_U+30FC 1
370
     0
100
AcDbVertex
100
AcDb2dVertex
 10
84.93331703605834
 20
-132.8034355679276
 30
0.0
  0
VERTEX
  5
13B
330
134
100
AcDbEntity
  8
_U+30EC_U+30A4_U+30E4_U+30FC 1
370
     0
100
AcDbVertex
100
AcDb2dVertex
 10
84.53971487686854
 20
-132.8034355679276
 30
0.0
  0
VERTEX
  5
13C
330
134
100
AcDbEntity
  8
_U+30EC_U+30A4_U+30E4_U+30FC 1
370
     0
100
AcDbVertex
100
AcDb2dVertex
 10
84.53971487686854
 20
-132.9581203552153
 30
0.0
  0
VERTEX
  5
13D
330
134
100
AcDbEntity
  8
_U+30EC_U+30A4_U+30E4_U+30FC 1
370
     0
100
AcDbVertex
100
AcDb2dVertex
 10
84.89507647617206
 20
-132.9581203552153
 30
0.0
  0
VERTEX
  5
13E
330
134
100
AcDbEntity
  8
_U+30EC_U+30A4_U+30E4_U+30FC 1
370
     0
100
AcDbVertex
100
AcDb2dVertex
 10
84.89507647617206
 20
-133.7704738706373
 30
0.0
  0
VERTEX
  5
13F
330
134
100
AcDbEntity
  8
_U+30EC_U+30A4_U+30E4_U+30FC 1
370
     0
100
AcDbVertex
100
AcDb2dVertex
 10
84.53971487686854
 20
-133.7704738706373
 30
0.0
  0
VERTEX
  5
140
330
134
100
AcDbEntity
  8
_U+30EC_U+30A4_U+30E4_U+30FC 1
370
     0
100
AcDbVertex
100
AcDb2dVertex
 10
84.53971487686854
 20
-133.939628058963
 30
0.0
  0
VERTEX
  5
141
330
134
100
AcDbEntity
  8
_U+30EC_U+30A4_U+30E4_U+30FC 1
370
     0
100
AcDbVertex
100
AcDb2dVertex
 10
84.94813094664491
 20
-133.939628058963
 30
0.0
  0
VERTEX
  5
142
330
134
100
AcDbEntity
  8
_U+30EC_U+30A4_U+30E4_U+30FC 1
370
     0
100
AcDbVertex
100
AcDb2dVertex
 10
84.94813094664491
 20
-134.0939683367022
 30
0.0
  0
VERTEX
  5
143
330
134
100
AcDbEntity
  8
_U+30EC_U+30A4_U+30E4_U+30FC 1
370
     0
100
AcDbVertex
100
AcDb2dVertex
 10
84.53971487686854
 20
-134.0939683367022
 30
0.0
  0
VERTEX
  5
144
330
134
100
AcDbEntity
  8
_U+30EC_U+30A4_U+30E4_U+30FC 1
370
     0
100
AcDbVertex
100
AcDb2dVertex
 10
84.53971487686854
 20
-134.4474351334889
 30
0.0
  0
VERTEX
  5
145
330
134
100
AcDbEntity
  8
_U+30EC_U+30A4_U+30E4_U+30FC 1
370
     0
100
AcDbVertex
100
AcDb2dVertex
 10
84.38537459912935
 20
-134.4474351334889
 30
0.0
  0
VERTEX
  5
146
330
134
100
AcDbEntity
  8
_U+30EC_U+30A4_U+30E4_U+30FC 1
370
     0
100
AcDbVertex
100
AcDb2dVertex
 10
84.38537459912935
 20
-134.0939683367022
 30
0.0
  0
VERTEX
  5
147
330
134
100
AcDbEntity
  8
_U+30EC_U+30A4_U+30E4_U+30FC 1
370
     0
100
AcDbVertex
100
AcDb2dVertex
 10
83.97489147206184
 20
-134.0939683367022
 30
0.0
  0
VERTEX
  5
148
330
134
100
AcDbEntity
  8
_U+30EC_U+30A4_U+30E4_U+30FC 1
370
     0
100
AcDbVertex
100
AcDb2dVertex
 10
83.97489147206184
 20
-133.939628058963
 30
0.0
  0
VERTEX
  5
149
330
134
100
AcDbEntity
  8
_U+30EC_U+30A4_U+30E4_U+30FC 1
370
     0
100
AcDbVertex
100
AcDb2dVertex
 10
84.38537459912935
 20
-133.939628058963
 30
0.0
  0
VERTEX
  5
14A
330
134
100
AcDbEntity
  8
_U+30EC_U+30A4_U+30E4_U+30FC 1
370
     0
100
AcDbVertex
100
AcDb2dVertex
 10
84.38537459912935
 20
-133.7704738706373
 30
0.0
  0
VERTEX
  5
14B
330
134
100
AcDbEntity
  8
_U+30EC_U+30A4_U+30E4_U+30FC 1
370
     0
100
AcDbVertex
100
AcDb2dVertex
 10
84.03621417169929
 20
-133.7704738706373
 30
0.0
  0
VERTEX
  5
14C
330
134
100
AcDbEntity
  8
_U+30EC_U+30A4_U+30E4_U+30FC 1
370
     0
100
AcDbVertex
100
AcDb2dVertex
 10
84.03621417169929
 20
-132.9581203552153
 30
0.0
  0
VERTEX
  5
14D
330
134
100
AcDbEntity
  8
_U+30EC_U+30A4_U+30E4_U+30FC 1
370
     0
100
AcDbVertex
100
AcDb2dVertex
 10
84.38537459912935
 20
-132.9581203552153
 30
0.0
  0
VERTEX
  5
14E
330
134
100
AcDbEntity
  8
_U+30EC_U+30A4_U+30E4_U+30FC 1
370
     0
100
AcDbVertex
100
AcDb2dVertex
 10
84.38537459912935
 20
-132.8034355679276
 30
0.0
  0
VERTEX
  5
14F
330
134
100
AcDbEntity
  8
_U+30EC_U+30A4_U+30E4_U+30FC 1
370
     0
100
AcDbVertex
100
AcDb2dVertex
 10
83.99607880929612
 20
-132.8034355679276
 30
0.0
  0
VERTEX
  5
150
330
134
100
AcDbEntity
  8
_U+30EC_U+30A4_U+30E4_U+30FC 1
370
     0
100
AcDbVertex
100
AcDb2dVertex
 10
83.99607880929612
 20
-132.6490952901884
 30
0.0
  0
VERTEX
  5
151
330
134
100
AcDbEntity
  8
_U+30EC_U+30A4_U+30E4_U+30FC 1
370
     0
100
AcDbVertex
100
AcDb2dVertex
 10
84.38537459912935
 20
-132.6490952901884
 30
0.0
  0
SEQEND
  5
152
330
134
100
AcDbEntity
  8
_U+30EC_U+30A4_U+30E4_U+30FC 1
370
     0
  0
POLYLINE
  5
153
330
130
100
AcDbEntity
  8
_U+30EC_U+30A4_U+30E4_U+30FC 1
370
     0
100
AcDb2dPolyline
 66
     1
 10
0.0
 20
0.0
 30
0.0
  0
VERTEX
  5
154
330
153
100
AcDbEntity
  8
_U+30EC_U+30A4_U+30E4_U+30FC 1
370
     0
100
AcDbVertex
100
AcDb2dVertex
 10
84.38537459912935
 20
-133.097646722368
 30
0.0
  0
VERTEX
  5
155
330
153
100
AcDbEntity
  8
_U+30EC_U+30A4_U+30E4_U+30FC 1
370
     0
100
AcDbVertex
100
AcDb2dVertex
 10
84.17797985091731
 20
-133.097646722368
 30
0.0
  0
VERTEX
  5
156
330
153
100
AcDbEntity
  8
_U+30EC_U+30A4_U+30E4_U+30FC 1
370
     0
100
AcDbVertex
100
AcDb2dVertex
 10
84.17797985091731
 20
-133.3005628464492
 30
0.0
  0
VERTEX
  5
157
330
153
100
AcDbEntity
  8
_U+30EC_U+30A4_U+30E4_U+30FC 1
370
     0
100
AcDbVertex
100
AcDb2dVertex
 10
84.38537459912935
 20
-133.3005628464492
 30
0.0
  0
VERTEX
  5
158
330
153
100
AcDbEntity
  8
_U+30EC_U+30A4_U+30E4_U+30FC 1
370
     0
100
AcDbVertex
100
AcDb2dVertex
 10
84.38537459912935
 20
-133.097646722368
 30
0.0
  0
SEQEND
  5
159
330
153
100
AcDbEntity
  8
_U+30EC_U+30A4_U+30E4_U+30FC 1
370
     0
  0
POLYLINE
  5
15A
330
130
100
AcDbEntity
  8
_U+30EC_U+30A4_U+30E4_U+30FC 1
370
     0
100
AcDb2dPolyline
 66
     1
 10
0.0
 20
0.0
 30
0.0
  0
VERTEX
  5
15B
330
15A
100
AcDbEntity
  8
_U+30EC_U+30A4_U+30E4_U+30FC 1
370
     0
100
AcDbVertex
100
AcDb2dVertex
 10
84.38537459912935
 20
-133.4235527552726
 30
0.0
  0
VERTEX
  5
15C
330
15A
100
AcDbEntity
  8
_U+30EC_U+30A4_U+30E4_U+30FC 1
370
     0
100
AcDbVertex
100
AcDb2dVertex
 10
84.17797985091731
 20
-133.4235527552726
 30
0.0
  0
VERTEX
  5
15D
330
15A
100
AcDbEntity
  8
_U+30EC_U+30A4_U+30E4_U+30FC 1
370
     0
100
AcDbVertex
100
AcDb2dVertex
 10
84.17797985091731
 20
-133.6306029939361
 30
0.0
  0
VERTEX
  5
15E
330
15A
100
AcDbEntity
  8
_U+30EC_U+30A4_U+30E4_U+30FC 1
370
     0
100
AcDbVertex
100
AcDb2dVertex
 10
84.38537459912935
 20
-133.6306029939361
 30
0.0
  0
VERTEX
  5
15F
330
15A
100
AcDbEntity
  8
_U+30EC_U+30A4_U+30E4_U+30FC 1
370
     0
100
AcDbVertex
100
AcDb2dVertex
 10
84.38537459912935
 20
-133.4235527552726
 30
0.0
  0
SEQEND
  5
160
330
15A
100
AcDbEntity
  8
_U+30EC_U+30A4_U+30E4_U+30FC 1
370
     0
  0
POLYLINE
  5
161
330
130
100
AcDbEntity
  8
_U+30EC_U+30A4_U+30E4_U+30FC 1
370
     0
100
AcDb2dPolyline
 66
     1
 10
0.0
 20
0.0
 30
0.0
  0
VERTEX
  5
162
330
161
100
AcDbEntity
  8
_U+30EC_U+30A4_U+30E4_U+30FC 1
370
     0
100
AcDbVertex
100
AcDb2dVertex
 10
84.75124373966288
 20
-133.097646722368
 30
0.0
  0
VERTEX
  5
163
330
161
100
AcDbEntity
  8
_U+30EC_U+30A4_U+30E4_U+30FC 1
370
     0
100
AcDbVertex
100
AcDb2dVertex
 10
84.53971487686854
 20
-133.097646722368
 30
0.0
  0
VERTEX
  5
164
330
161
100
AcDbEntity
  8
_U+30EC_U+30A4_U+30E4_U+30FC 1
370
     0
100
AcDbVertex
100
AcDb2dVertex
 10
84.53971487686854
 20
-133.3005628464492
 30
0.0
  0
VERTEX
  5
165
330
161
100
AcDbEntity
  8
_U+30EC_U+30A4_U+30E4_U+30FC 1
370
     0
100
AcDbVertex
100
AcDb2dVertex
 10
84.75124373966288
 20
-133.3005628464492
 30
0.0
  0
VERTEX
  5
166
330
161
100
AcDbEntity
  8
_U+30EC_U+30A4_U+30E4_U+30FC 1
370
     0
100
AcDbVertex
100
AcDb2dVertex
 10
84.75124373966288
 20
-133.097646722368
 30
0.0
  0
SEQEND
  5
167
330
161
100
AcDbEntity
  8
_U+30EC_U+30A4_U+30E4_U+30FC 1
370
     0
  0
POLYLINE
  5
168
330
130
100
AcDbEntity
  8
_U+30EC_U+30A4_U+30E4_U+30FC 1
370
     0
100
AcDb2dPolyline
 66
     1
 10
0.0
 20
0.0
 30
0.0
  0
VERTEX
  5
169
330
168
100
AcDbEntity
  8
_U+30EC_U+30A4_U+30E4_U+30FC 1
370
     0
100
AcDbVertex
100
AcDb2dVertex
 10
84.75124373966288
 20
-133.4235527552726
 30
0.0
  0
VERTEX
  5
16A
330
168
100
AcDbEntity
  8
_U+30EC_U+30A4_U+30E4_U+30FC 1
370
     0
100
AcDbVertex
100
AcDb2dVertex
 10
84.53971487686854
 20
-133.4235527552726
 30
0.0
  0
VERTEX
  5
16B
330
168
100
AcDbEntity
  8
_U+30EC_U+30A4_U+30E4_U+30FC 1
370
     0
100
AcDbVertex
100
AcDb2dVertex
 10
84.53971487686854
 20
-133.6306029939361
 30
0.0
  0
VERTEX
  5
16C
330
168
100
AcDbEntity
  8
_U+30EC_U+30A4_U+30E4_U+30FC 1
370
     0
100
AcDbVertex
100
AcDb2dVertex
 10
84.75124373966288
 20
-133.6306029939361
 30
0.0
  0
VERTEX
  5
16D
330
168
100
AcDbEntity
  8
_U+30EC_U+30A4_U+30E4_U+30FC 1
370
     0
100
AcDbVertex
100
AcDb2dVertex
 10
84.75124373966288
 20
-133.4235527552726
 30
0.0
  0
SEQEND
  5
16E
330
168
100
AcDbEntity
  8
_U+30EC_U+30A4_U+30E4_U+30FC 1
370
     0
  0
SPLINE
  5
16F
330
130
100
AcDbEntity
  8
_U+30EC_U+30A4_U+30E4_U+30FC 1
370
     0
100
AcDbSpline
210
0.0
220
0.0
230
1.0
 70
    11
 71
     3
 72
    38
 73
    34
 74
     0
 42
0.0000000001
 43
0.0000000001
 12
1.0
 22
0.0
 32
0.0
 13
1.0
 23
0.0
 33
0.0
 40
0.0
 40
0.0
 40
0.0
 40
0.0
 40
1.0
 40
1.0
 40
1.0
 40
2.0
 40
2.0
 40
2.0
 40
3.0
 40
3.0
 40
3.0
 40
4.0
 40
4.0
 40
4.0
 40
5.0
 40
5.0
 40
5.0
 40
6.0
 40
6.0
 40
6.0
 40
7.0
 40
7.0
 40
7.0
 40
8.0
 40
8.0
 40
8.0
 40
9.0
 40
9.0
 40
9.0
 40
10.0
 40
10.0
 40
10.0
 40
11.0
 40
11.0
 40
11.0
 40
11.0
 10
84.79361841413146
 20
-134.3120428809185
 30
0.0
 10
84.8761284510032
 20
-134.2589884104457
 30
0.0
 10
85.04114852474666
 20
-134.1511569217573
 30
0.0
 10
85.14691295614384
 20
-133.9437621735453
 30
0.0
 10
85.29505206200957
 20
-133.6519625859447
 30
0.0
 10
85.29505206200957
 20
-133.4256198125638
 30
0.0
 10
85.29505206200957
 20
-133.3408704636266
 30
0.0
 10
85.29505206200957
 20
-133.3408704636266
 30
0.0
 10
85.29505206200957
 20
-133.1062594610811
 30
0.0
 10
85.29505206200957
 20
-133.1062594610811
 30
0.0
 10
85.29505206200957
 20
-133.1062594610811
 30
0.0
 10
85.46007213575304
 20
-133.1062594610811
 30
0.0
 10
85.46007213575304
 20
-133.1062594610811
 30
0.0
 10
85.46007213575304
 20
-133.1062594610811
 30
0.0
 10
85.46007213575304
 20
-133.332602234462
 30
0.0
 10
85.46007213575304
 20
-133.332602234462
 30
0.0
 10
85.46007213575304
 20
-133.5313842439609
 30
0.0
 10
85.5255289499728
 20
-133.7684068133461
 30
0.0
 10
85.62715926678766
 20
-133.9416951162542
 30
0.0
 10
85.74343123941485
 20
-134.1404771257531
 30
0.0
 10
85.87245006533745
 20
-134.2400403852768
 30
0.0
 10
85.9571994142746
 20
-134.3013630849142
 30
0.0
 10
85.9571994142746
 20
-134.3013630849142
 30
0.0
 10
85.84919567081201
 20
-134.4515692480711
 30
0.0
 10
85.84919567081201
 20
-134.4515692480711
 30
0.0
 10
85.67160099854738
 20
-134.3223781673743
 30
0.0
 10
85.4726467342742
 20
-134.0832885406979
 30
0.0
 10
85.39444306675904
 20
-133.7301662534598
 30
0.0
 10
85.32881399776502
 20
-133.9692558801362
 30
0.0
 10
85.22735593572442
 20
-134.2379733279857
 30
0.0
 10
84.91850312547177
 20
-134.4474351334889
 30
0.0
 10
84.91850312547177
 20
-134.4474351334889
 30
0.0
 10
84.79361841413146
 20
-134.3120428809185
 30
0.0
 10
84.79361841413146
 20
-134.3120428809185
 30
0.0
  0
SPLINE
  5
170
330
130
100
AcDbEntity
  8
_U+30EC_U+30A4_U+30E4_U+30FC 1
370
     0
100
AcDbSpline
210
0.0
220
0.0
230
1.0
 70
    11
 71
     3
 72
    38
 73
    34
 74
     0
 42
0.0000000001
 43
0.0000000001
 12
1.0
 22
0.0
 32
0.0
 13
1.0
 23
0.0
 33
0.0
 40
0.0
 40
0.0
 40
0.0
 40
0.0
 40
1.0
 40
1.0
 40
1.0
 40
2.0
 40
2.0
 40
2.0
 40
3.0
 40
3.0
 40
3.0
 40
4.0
 40
4.0
 40
4.0
 40
5.0
 40
5.0
 40
5.0
 40
6.0
 40
6.0
 40
6.0
 40
7.0
 40
7.0
 40
7.0
 40
8.0
 40
8.0
 40
8.0
 40
9.0
 40
9.0
 40
9.0
 40
10.0
 40
10.0
 40
10.0
 40
11.0
 40
11.0
 40
11.0
 40
11.0
 10
84.90782332946749
 20
-133.2392401468117
 30
0.0
 10
85.0010131623435
 20
-133.1165947475368
 30
0.0
 10
85.12572561890954
 20
-132.9367607632068
 30
0.0
 10
85.2209825090767
 20
-132.4882093310273
 30
0.0
 10
85.2209825090767
 20
-132.4882093310273
 30
0.0
 10
85.38806964011133
 20
-132.5075018657447
 30
0.0
 10
85.38806964011133
 20
-132.5075018657447
 30
0.0
 10
85.36274818829473
 20
-132.6280802077284
 30
0.0
 10
85.3394937937693
 20
-132.719030728539
 30
0.0
 10
85.30125323388302
 20
-132.8268622172273
 30
0.0
 10
85.30125323388302
 20
-132.8268622172273
 30
0.0
 10
85.92963865039259
 20
-132.8268622172273
 30
0.0
 10
85.92963865039259
 20
-132.8268622172273
 30
0.0
 10
85.92963865039259
 20
-132.8268622172273
 30
0.0
 10
85.92963865039259
 20
-132.9791354376754
 30
0.0
 10
85.92963865039259
 20
-132.9791354376754
 30
0.0
 10
85.89587671463714
 20
-133.1207288621191
 30
0.0
 10
85.80061982446999
 20
-133.3791110235129
 30
0.0
 10
85.72655027153712
 20
-133.4976223082055
 30
0.0
 10
85.72655027153712
 20
-133.4976223082055
 30
0.0
 10
85.57427705108907
 20
-133.4190741311418
 30
0.0
 10
85.57427705108907
 20
-133.4190741311418
 30
0.0
 10
85.66936168648196
 20
-133.2836818785715
 30
0.0
 10
85.73499075547598
 20
-133.0955796650768
 30
0.0
 10
85.76255151935797
 20
-132.9856811190973
 30
0.0
 10
85.76255151935797
 20
-132.9856811190973
 30
0.0
 10
85.24423690360214
 20
-132.9856811190973
 30
0.0
 10
85.24423690360214
 20
-132.9856811190973
 30
0.0
 10
85.14484589885268
 20
-133.2268378030648
 30
0.0
 10
85.07077634591981
 20
-133.3153767570358
 30
0.0
 10
85.0327080408078
 20
-133.3598184887955
 30
0.0
 10
85.0327080408078
 20
-133.3598184887955
 30
0.0
 10
84.90782332946749
 20
-133.2392401468117
 30
0.0
 10
84.90782332946749
 20
-133.2392401468117
 30
0.0
  0
HATCH
  5
171
330
130
100
AcDbEntity
  8
_U+30EC_U+30A4_U+30E4_U+30FC 1
 62
    12
420
 15007761
100
AcDbHatch
 10
0.0
 20
0.0
 30
0.0
210
0.0
220
0.0
230
1.0
  2
SOLID
 70
     1
 71
     0
 91
        7
 92
        1
 93
       28
 72
     1
 10
84.38537459912935
 20
-132.6490952901884
 11
84.38537459912935
 21
-132.4882093310273
 72
     1
 10
84.38537459912935
 20
-132.4882093310273
 11
84.53971487686854
 21
-132.4882093310273
 72
     1
 10
84.53971487686854
 20
-132.4882093310273
 11
84.53971487686854
 21
-132.6490952901884
 72
     1
 10
84.53971487686854
 20
-132.6490952901884
 11
84.93331703605834
 21
-132.6490952901884
 72
     1
 10
84.93331703605834
 20
-132.6490952901884
 11
84.93331703605834
 21
-132.8034355679276
 72
     1
 10
84.93331703605834
 20
-132.8034355679276
 11
84.53971487686854
 21
-132.8034355679276
 72
     1
 10
84.53971487686854
 20
-132.8034355679276
 11
84.53971487686854
 21
-132.9581203552153
 72
     1
 10
84.53971487686854
 20
-132.9581203552153
 11
84.89507647617206
 21
-132.9581203552153
 72
     1
 10
84.89507647617206
 20
-132.9581203552153
 11
84.89507647617206
 21
-133.7704738706373
 72
     1
 10
84.89507647617206
 20
-133.7704738706373
 11
84.53971487686854
 21
-133.7704738706373
 72
     1
 10
84.53971487686854
 20
-133.7704738706373
 11
84.53971487686854
 21
-133.939628058963
 72
     1
 10
84.53971487686854
 20
-133.939628058963
 11
84.94813094664491
 21
-133.939628058963
 72
     1
 10
84.94813094664491
 20
-133.939628058963
 11
84.94813094664491
 21
-134.0939683367022
 72
     1
 10
84.94813094664491
 20
-134.0939683367022
 11
84.53971487686854
 21
-134.0939683367022
 72
     1
 10
84.53971487686854
 20
-134.0939683367022
 11
84.53971487686854
 21
-134.4474351334889
 72
     1
 10
84.53971487686854
 20
-134.4474351334889
 11
84.38537459912935
 21
-134.4474351334889
 72
     1
 10
84.38537459912935
 20
-134.4474351334889
 11
84.38537459912935
 21
-134.0939683367022
 72
     1
 10
84.38537459912935
 20
-134.0939683367022
 11
83.97489147206184
 21
-134.0939683367022
 72
     1
 10
83.97489147206184
 20
-134.0939683367022
 11
83.97489147206184
 21
-133.939628058963
 72
     1
 10
83.97489147206184
 20
-133.939628058963
 11
84.38537459912935
 21
-133.939628058963
 72
     1
 10
84.38537459912935
 20
-133.939628058963
 11
84.38537459912935
 21
-133.7704738706373
 72
     1
 10
84.38537459912935
 20
-133.7704738706373
 11
84.03621417169929
 21
-133.7704738706373
 72
     1
 10
84.03621417169929
 20
-133.7704738706373
 11
84.03621417169929
 21
-132.9581203552153
 72
     1
 10
84.03621417169929
 20
-132.9581203552153
 11
84.38537459912935
 21
-132.9581203552153
 72
     1
 10
84.38537459912935
 20
-132.9581203552153
 11
84.38537459912935
 21
-132.8034355679276
 72
     1
 10
84.38537459912935
 20
-132.8034355679276
 11
83.99607880929612
 21
-132.8034355679276
 72
     1
 10
83.99607880929612
 20
-132.8034355679276
 11
83.99607880929612
 21
-132.6490952901884
 72
     1
 10
83.99607880929612
 20
-132.6490952901884
 11
84.38537459912935
 21
-132.6490952901884
 97
        0
 92
        1
 93
        4
 72
     1
 10
84.38537459912935
 20
-133.097646722368
 11
84.17797985091731
 21
-133.097646722368
 72
     1
 10
84.17797985091731
 20
-133.097646722368
 11
84.17797985091731
 21
-133.3005628464492
 72
     1
 10
84.17797985091731
 20
-133.3005628464492
 11
84.38537459912935
 21
-133.3005628464492
 72
     1
 10
84.38537459912935
 20
-133.3005628464492
 11
84.38537459912935
 21
-133.097646722368
 97
        0
 92
        1
 93
        4
 72
     1
 10
84.38537459912935
 20
-133.4235527552726
 11
84.17797985091731
 21
-133.4235527552726
 72
     1
 10
84.17797985091731
 20
-133.4235527552726
 11
84.17797985091731
 21
-133.6306029939361
 72
     1
 10
84.17797985091731
 20
-133.6306029939361
 11
84.38537459912935
 21
-133.6306029939361
 72
     1
 10
84.38537459912935
 20
-133.6306029939361
 11
84.38537459912935
 21
-133.4235527552726
 97
        0
 92
        1
 93
        4
 72
     1
 10
84.75124373966288
 20
-133.097646722368
 11
84.53971487686854
 21
-133.097646722368
 72
     1
 10
84.53971487686854
 20
-133.097646722368
 11
84.53971487686854
 21
-133.3005628464492
 72
     1
 10
84.53971487686854
 20
-133.3005628464492
 11
84.75124373966288
 21
-133.3005628464492
 72
     1
 10
84.75124373966288
 20
-133.3005628464492
 11
84.75124373966288
 21
-133.097646722368
 97
        0
 92
        1
 93
        4
 72
     1
 10
84.75124373966288
 20
-133.4235527552726
 11
84.53971487686854
 21
-133.4235527552726
 72
     1
 10
84.53971487686854
 20
-133.4235527552726
 11
84.53971487686854
 21
-133.6306029939361
 72
     1
 10
84.53971487686854
 20
-133.6306029939361
 11
84.75124373966288
 21
-133.6306029939361
 72
     1
 10
84.75124373966288
 20
-133.6306029939361
 11
84.75124373966288
 21
-133.4235527552726
 97
        0
 92
        1
 93
        1
 72
     4
 94
        3
 73
     0
 74
     1
 95
       38
 96
       34
 40
0.0
 40
0.0
 40
0.0
 40
0.0
 40
1.0
 40
1.0
 40
1.0
 40
2.0
 40
2.0
 40
2.0
 40
3.0
 40
3.0
 40
3.0
 40
4.0
 40
4.0
 40
4.0
 40
5.0
 40
5.0
 40
5.0
 40
6.0
 40
6.0
 40
6.0
 40
7.0
 40
7.0
 40
7.0
 40
8.0
 40
8.0
 40
8.0
 40
9.0
 40
9.0
 40
9.0
 40
10.0
 40
10.0
 40
10.0
 40
11.0
 40
11.0
 40
11.0
 40
11.0
 10
84.79361841413146
 20
-134.3120428809185
 10
84.8761284510032
 20
-134.2589884104457
 10
85.04114852474666
 20
-134.1511569217573
 10
85.14691295614384
 20
-133.9437621735453
 10
85.29505206200957
 20
-133.6519625859447
 10
85.29505206200957
 20
-133.4256198125638
 10
85.29505206200957
 20
-133.3408704636266
 10
85.29505206200957
 20
-133.3408704636266
 10
85.29505206200957
 20
-133.1062594610811
 10
85.29505206200957
 20
-133.1062594610811
 10
85.29505206200957
 20
-133.1062594610811
 10
85.46007213575304
 20
-133.1062594610811
 10
85.46007213575304
 20
-133.1062594610811
 10
85.46007213575304
 20
-133.1062594610811
 10
85.46007213575304
 20
-133.332602234462
 10
85.46007213575304
 20
-133.332602234462
 10
85.46007213575304
 20
-133.5313842439609
 10
85.5255289499728
 20
-133.7684068133461
 10
85.62715926678766
 20
-133.9416951162542
 10
85.74343123941485
 20
-134.1404771257531
 10
85.87245006533745
 20
-134.2400403852768
 10
85.9571994142746
 20
-134.3013630849142
 10
85.9571994142746
 20
-134.3013630849142
 10
85.84919567081201
 20
-134.4515692480711
 10
85.84919567081201
 20
-134.4515692480711
 10
85.67160099854738
 20
-134.3223781673743
 10
85.4726467342742
 20
-134.0832885406979
 10
85.39444306675904
 20
-133.7301662534598
 10
85.32881399776502
 20
-133.9692558801362
 10
85.22735593572442
 20
-134.2379733279857
 10
84.91850312547177
 20
-134.4474351334889
 10
84.91850312547177
 20
-134.4474351334889
 10
84.79361841413146
 20
-134.3120428809185
 10
84.79361841413146
 20
-134.3120428809185
 97
        0
 97
        0
 92
        1
 93
        1
 72
     4
 94
        3
 73
     0
 74
     1
 95
       38
 96
       34
 40
0.0
 40
0.0
 40
0.0
 40
0.0
 40
1.0
 40
1.0
 40
1.0
 40
2.0
 40
2.0
 40
2.0
 40
3.0
 40
3.0
 40
3.0
 40
4.0
 40
4.0
 40
4.0
 40
5.0
 40
5.0
 40
5.0
 40
6.0
 40
6.0
 40
6.0
 40
7.0
 40
7.0
 40
7.0
 40
8.0
 40
8.0
 40
8.0
 40
9.0
 40
9.0
 40
9.0
 40
10.0
 40
10.0
 40
10.0
 40
11.0
 40
11.0
 40
11.0
 40
11.0
 10
84.90782332946749
 20
-133.2392401468117
 10
85.0010131623435
 20
-133.1165947475368
 10
85.12572561890954
 20
-132.9367607632068
 10
85.2209825090767
 20
-132.4882093310273
 10
85.2209825090767
 20
-132.4882093310273
 10
85.38806964011133
 20
-132.5075018657447
 10
85.38806964011133
 20
-132.5075018657447
 10
85.36274818829473
 20
-132.6280802077284
 10
85.3394937937693
 20
-132.719030728539
 10
85.30125323388302
 20
-132.8268622172273
 10
85.30125323388302
 20
-132.8268622172273
 10
85.92963865039259
 20
-132.8268622172273
 10
85.92963865039259
 20
-132.8268622172273
 10
85.92963865039259
 20
-132.8268622172273
 10
85.92963865039259
 20
-132.9791354376754
 10
85.92963865039259
 20
-132.9791354376754
 10
85.89587671463714
 20
-133.1207288621191
 10
85.80061982446999
 20
-133.3791110235129
 10
85.72655027153712
 20
-133.4976223082055
 10
85.72655027153712
 20
-133.4976223082055
 10
85.57427705108907
 20
-133.4190741311418
 10
85.57427705108907
 20
-133.4190741311418
 10
85.66936168648196
 20
-133.2836818785715
 10
85.73499075547598
 20
-133.0955796650768
 10
85.76255151935797
 20
-132.9856811190973
 10
85.76255151935797
 20
-132.9856811190973
 10
85.24423690360214
 20
-132.9856811190973
 10
85.24423690360214
 20
-132.9856811190973
 10
85.14484589885268
 20
-133.2268378030648
 10
85.07077634591981
 20
-133.3153767570358
 10
85.0327080408078
 20
-133.3598184887955
 10
85.0327080408078
 20
-133.3598184887955
 10
84.90782332946749
 20
-133.2392401468117
 10
84.90782332946749
 20
-133.2392401468117
 97
        0
 97
        0
 75
     2
 76
     1
 98
        0
  0
SPLINE
  5
172
330
130
100
AcDbEntity
  8
_U+30EC_U+30A4_U+30E4_U+30FC 1
370
     0
100
AcDbSpline
210
0.0
220
0.0
230
1.0
 70
    11
 71
     3
 72
    50
 73
    46
 74
     0
 42
0.0000000001
 43
0.0000000001
 12
1.0
 22
0.0
 32
0.0
 13
1.0
 23
0.0
 33
0.0
 40
0.0
 40
0.0
 40
0.0
 40
0.0
 40
1.0
 40
1.0
 40
1.0
 40
2.0
 40
2.0
 40
2.0
 40
3.0
 40
3.0
 40
3.0
 40
4.0
 40
4.0
 40
4.0
 40
5.0
 40
5.0
 40
5.0
 40
6.0
 40
6.0
 40
6.0
 40
7.0
 40
7.0
 40
7.0
 40
8.0
 40
8.0
 40
8.0
 40
9.0
 40
9.0
 40
9.0
 40
10.0
 40
10.0
 40
10.0
 40
11.0
 40
11.0
 40
11.0
 40
12.0
 40
12.0
 40
12.0
 40
13.0
 40
13.0
 40
13.0
 40
14.0
 40
14.0
 40
14.0
 40
15.0
 40
15.0
 40
15.0
 40
15.0
 10
86.40247800574313
 20
-132.7865546000499
 30
0.0
 10
86.40247800574313
 20
-132.7865546000499
 30
0.0
 10
87.05411781677815
 20
-132.7865546000499
 30
0.0
 10
87.05411781677815
 20
-132.7865546000499
 30
0.0
 10
87.05411781677815
 20
-132.7865546000499
 30
0.0
 10
87.05411781677815
 20
-132.9116115661645
 30
0.0
 10
87.05411781677815
 20
-132.9116115661645
 30
0.0
 10
87.05411781677815
 20
-132.9116115661645
 30
0.0
 10
86.7769598849898
 20
-132.9116115661645
 30
0.0
 10
86.7769598849898
 20
-132.9116115661645
 30
0.0
 10
86.7769598849898
 20
-132.9116115661645
 30
0.0
 10
86.7769598849898
 20
-133.1865301858874
 30
0.0
 10
86.7769598849898
 20
-133.1865301858874
 30
0.0
 10
86.7769598849898
 20
-133.1865301858874
 30
0.0
 10
86.61624618060289
 20
-133.1865301858874
 30
0.0
 10
86.61624618060289
 20
-133.1865301858874
 30
0.0
 10
86.61624618060289
 20
-133.1865301858874
 30
0.0
 10
86.61624618060289
 20
-132.9116115661645
 30
0.0
 10
86.61624618060289
 20
-132.9116115661645
 30
0.0
 10
86.61624618060289
 20
-132.9116115661645
 30
0.0
 10
86.39627683386969
 20
-132.9116115661645
 30
0.0
 10
86.39627683386969
 20
-132.9116115661645
 30
0.0
 10
86.38559703786541
 20
-132.9812024949665
 30
0.0
 10
86.36027558604883
 20
-133.1758503898831
 30
0.0
 10
86.20576305353536
 20
-133.32605655304
 30
0.0
 10
86.20576305353536
 20
-133.32605655304
 30
0.0
 10
86.08311765426048
 20
-133.2161580070606
 30
0.0
 10
86.08311765426048
 20
-133.2161580070606
 30
0.0
 10
86.20369599624422
 20
-133.1165947475368
 30
0.0
 10
86.2460706707128
 20
-132.9116115661645
 30
0.0
 10
86.2460706707128
 20
-132.8289292745185
 30
0.0
 10
86.2460706707128
 20
-132.8289292745185
 30
0.0
 10
86.2460706707128
 20
-132.5433308587913
 30
0.0
 10
86.2460706707128
 20
-132.5433308587913
 30
0.0
 10
86.73045109593892
 20
-132.5433308587913
 30
0.0
 10
86.88496362845237
 20
-132.4968220697404
 30
0.0
 10
86.98004826384528
 20
-132.4692613058584
 30
0.0
 10
86.98004826384528
 20
-132.4692613058584
 30
0.0
 10
87.03293047954385
 20
-132.608787673011
 30
0.0
 10
87.03293047954385
 20
-132.608787673011
 30
0.0
 10
86.82346867404067
 20
-132.6577080289015
 30
0.0
 10
86.6606879123626
 20
-132.6680433153573
 30
0.0
 10
86.40247800574313
 20
-132.6725219394881
 30
0.0
 10
86.40247800574313
 20
-132.6725219394881
 30
0.0
 10
86.40247800574313
 20
-132.7865546000499
 30
0.0
 10
86.40247800574313
 20
-132.7865546000499
 30
0.0
  0
SPLINE
  5
173
330
130
100
AcDbEntity
  8
_U+30EC_U+30A4_U+30E4_U+30FC 1
370
     0
100
AcDbSpline
210
0.0
220
0.0
230
1.0
 70
    11
 71
     3
 72
    32
 73
    28
 74
     0
 42
0.0000000001
 43
0.0000000001
 12
1.0
 22
0.0
 32
0.0
 13
1.0
 23
0.0
 33
0.0
 40
0.0
 40
0.0
 40
0.0
 40
0.0
 40
1.0
 40
1.0
 40
1.0
 40
2.0
 40
2.0
 40
2.0
 40
3.0
 40
3.0
 40
3.0
 40
4.0
 40
4.0
 40
4.0
 40
5.0
 40
5.0
 40
5.0
 40
6.0
 40
6.0
 40
6.0
 40
7.0
 40
7.0
 40
7.0
 40
8.0
 40
8.0
 40
8.0
 40
9.0
 40
9.0
 40
9.0
 40
9.0
 10
86.31790091158025
 20
-134.1322088965885
 30
0.0
 10
86.31790091158025
 20
-134.1322088965885
 30
0.0
 10
86.31790091158025
 20
-133.2330389749383
 30
0.0
 10
86.31790091158025
 20
-133.2330389749383
 30
0.0
 10
86.31790091158025
 20
-133.2330389749383
 30
0.0
 10
87.81565617379262
 20
-133.2330389749383
 30
0.0
 10
87.81565617379262
 20
-133.2330389749383
 30
0.0
 10
87.81565617379262
 20
-133.2330389749383
 30
0.0
 10
87.81565617379262
 20
-134.1322088965885
 30
0.0
 10
87.81565617379262
 20
-134.1322088965885
 30
0.0
 10
87.81565617379262
 20
-134.1322088965885
 30
0.0
 10
86.67119545359262
 20
-134.1322088965885
 30
0.0
 10
86.67119545359262
 20
-134.1322088965885
 30
0.0
 10
86.67119545359262
 20
-134.1322088965885
 30
0.0
 10
86.7769598849898
 20
-134.2421074425679
 30
0.0
 10
86.7769598849898
 20
-134.2421074425679
 30
0.0
 10
86.61193981124633
 20
-134.3371920779609
 30
0.0
 10
86.44691973750285
 20
-134.3985147775983
 30
0.0
 10
86.15081378054563
 20
-134.44950219078
 30
0.0
 10
86.15081378054563
 20
-134.44950219078
 30
0.0
 10
86.08518471155162
 20
-134.297228970332
 30
0.0
 10
86.08518471155162
 20
-134.297228970332
 30
0.0
 10
86.46397296015485
 20
-134.2441744998591
 30
0.0
 10
86.58661835942974
 20
-134.1766506283482
 30
0.0
 10
86.66706133901032
 20
-134.1322088965885
 30
0.0
 10
86.66706133901032
 20
-134.1322088965885
 30
0.0
 10
86.31790091158025
 20
-134.1322088965885
 30
0.0
 10
86.31790091158025
 20
-134.1322088965885
 30
0.0
  0
POLYLINE
  5
174
330
130
100
AcDbEntity
  8
_U+30EC_U+30A4_U+30E4_U+30FC 1
370
     0
100
AcDb2dPolyline
 66
     1
 10
0.0
 20
0.0
 30
0.0
  0
VERTEX
  5
175
330
174
100
AcDbEntity
  8
_U+30EC_U+30A4_U+30E4_U+30FC 1
370
     0
100
AcDbVertex
100
AcDb2dVertex
 10
87.64650198546686
 20
-133.3663641702175
 30
0.0
  0
VERTEX
  5
176
330
174
100
AcDbEntity
  8
_U+30EC_U+30A4_U+30E4_U+30FC 1
370
     0
100
AcDbVertex
100
AcDb2dVertex
 10
86.48722735468029
 20
-133.3663641702175
 30
0.0
  0
VERTEX
  5
177
330
174
100
AcDbEntity
  8
_U+30EC_U+30A4_U+30E4_U+30FC 1
370
     0
100
AcDbVertex
100
AcDb2dVertex
 10
86.48722735468029
 20
-133.4952107413658
 30
0.0
  0
VERTEX
  5
178
330
174
100
AcDbEntity
  8
_U+30EC_U+30A4_U+30E4_U+30FC 1
370
     0
100
AcDbVertex
100
AcDb2dVertex
 10
87.64650198546686
 20
-133.4952107413658
 30
0.0
  0
VERTEX
  5
179
330
174
100
AcDbEntity
  8
_U+30EC_U+30A4_U+30E4_U+30FC 1
370
     0
100
AcDbVertex
100
AcDb2dVertex
 10
87.64650198546686
 20
-133.3663641702175
 30
0.0
  0
SEQEND
  5
17A
330
174
100
AcDbEntity
  8
_U+30EC_U+30A4_U+30E4_U+30FC 1
370
     0
  0
POLYLINE
  5
17B
330
130
100
AcDbEntity
  8
_U+30EC_U+30A4_U+30E4_U+30FC 1
370
     0
100
AcDb2dPolyline
 66
     1
 10
0.0
 20
0.0
 30
0.0
  0
VERTEX
  5
17C
330
17B
100
AcDbEntity
  8
_U+30EC_U+30A4_U+30E4_U+30FC 1
370
     0
100
AcDbVertex
100
AcDb2dVertex
 10
87.64650198546686
 20
-133.6054537968938
 30
0.0
  0
VERTEX
  5
17D
330
17B
100
AcDbEntity
  8
_U+30EC_U+30A4_U+30E4_U+30FC 1
370
     0
100
AcDbVertex
100
AcDb2dVertex
 10
86.48722735468029
 20
-133.6054537968938
 30
0.0
  0
VERTEX
  5
17E
330
17B
100
AcDbEntity
  8
_U+30EC_U+30A4_U+30E4_U+30FC 1
370
     0
100
AcDbVertex
100
AcDb2dVertex
 10
86.48722735468029
 20
-133.7470472213375
 30
0.0
  0
VERTEX
  5
17F
330
17B
100
AcDbEntity
  8
_U+30EC_U+30A4_U+30E4_U+30FC 1
370
     0
100
AcDbVertex
100
AcDb2dVertex
 10
87.64650198546686
 20
-133.7470472213375
 30
0.0
  0
VERTEX
  5
180
330
17B
100
AcDbEntity
  8
_U+30EC_U+30A4_U+30E4_U+30FC 1
370
     0
100
AcDbVertex
100
AcDb2dVertex
 10
87.64650198546686
 20
-133.6054537968938
 30
0.0
  0
SEQEND
  5
181
330
17B
100
AcDbEntity
  8
_U+30EC_U+30A4_U+30E4_U+30FC 1
370
     0
  0
POLYLINE
  5
182
330
130
100
AcDbEntity
  8
_U+30EC_U+30A4_U+30E4_U+30FC 1
370
     0
100
AcDb2dPolyline
 66
     1
 10
0.0
 20
0.0
 30
0.0
  0
VERTEX
  5
183
330
182
100
AcDbEntity
  8
_U+30EC_U+30A4_U+30E4_U+30FC 1
370
     0
100
AcDbVertex
100
AcDb2dVertex
 10
87.64650198546686
 20
-133.856945767317
 30
0.0
  0
VERTEX
  5
184
330
182
100
AcDbEntity
  8
_U+30EC_U+30A4_U+30E4_U+30FC 1
370
     0
100
AcDbVertex
100
AcDb2dVertex
 10
86.48722735468029
 20
-133.856945767317
 30
0.0
  0
VERTEX
  5
185
330
182
100
AcDbEntity
  8
_U+30EC_U+30A4_U+30E4_U+30FC 1
370
     0
100
AcDbVertex
100
AcDb2dVertex
 10
86.48722735468029
 20
-133.9968166440182
 30
0.0
  0
VERTEX
  5
186
330
182
100
AcDbEntity
  8
_U+30EC_U+30A4_U+30E4_U+30FC 1
370
     0
100
AcDbVertex
100
AcDb2dVertex
 10
87.64650198546686
 20
-133.9968166440182
 30
0.0
  0
VERTEX
  5
187
330
182
100
AcDbEntity
  8
_U+30EC_U+30A4_U+30E4_U+30FC 1
370
     0
100
AcDbVertex
100
AcDb2dVertex
 10
87.64650198546686
 20
-133.856945767317
 30
0.0
  0
SEQEND
  5
188
330
182
100
AcDbEntity
  8
_U+30EC_U+30A4_U+30E4_U+30FC 1
370
     0
  0
SPLINE
  5
189
330
130
100
AcDbEntity
  8
_U+30EC_U+30A4_U+30E4_U+30FC 1
370
     0
100
AcDbSpline
210
0.0
220
0.0
230
1.0
 70
    11
 71
     3
 72
    50
 73
    46
 74
     0
 42
0.0000000001
 43
0.0000000001
 12
1.0
 22
0.0
 32
0.0
 13
1.0
 23
0.0
 33
0.0
 40
0.0
 40
0.0
 40
0.0
 40
0.0
 40
1.0
 40
1.0
 40
1.0
 40
2.0
 40
2.0
 40
2.0
 40
3.0
 40
3.0
 40
3.0
 40
4.0
 40
4.0
 40
4.0
 40
5.0
 40
5.0
 40
5.0
 40
6.0
 40
6.0
 40
6.0
 40
7.0
 40
7.0
 40
7.0
 40
8.0
 40
8.0
 40
8.0
 40
9.0
 40
9.0
 40
9.0
 40
10.0
 40
10.0
 40
10.0
 40
11.0
 40
11.0
 40
11.0
 40
12.0
 40
12.0
 40
12.0
 40
13.0
 40
13.0
 40
13.0
 40
14.0
 40
14.0
 40
14.0
 40
15.0
 40
15.0
 40
15.0
 40
15.0
 10
87.3100884113322
 20
-132.7865546000499
 30
0.0
 10
87.3100884113322
 20
-132.7865546000499
 30
0.0
 10
88.0463053165301
 20
-132.7865546000499
 30
0.0
 10
88.0463053165301
 20
-132.7865546000499
 30
0.0
 10
88.0463053165301
 20
-132.7865546000499
 30
0.0
 10
88.0463053165301
 20
-132.9116115661645
 30
0.0
 10
88.0463053165301
 20
-132.9116115661645
 30
0.0
 10
88.0463053165301
 20
-132.9116115661645
 30
0.0
 10
87.71626516904315
 20
-132.9116115661645
 30
0.0
 10
87.71626516904315
 20
-132.9116115661645
 30
0.0
 10
87.71626516904315
 20
-132.9116115661645
 30
0.0
 10
87.71626516904315
 20
-133.1865301858874
 30
0.0
 10
87.71626516904315
 20
-133.1865301858874
 30
0.0
 10
87.71626516904315
 20
-133.1865301858874
 30
0.0
 10
87.55968557923856
 20
-133.1865301858874
 30
0.0
 10
87.55968557923856
 20
-133.1865301858874
 30
0.0
 10
87.55968557923856
 20
-133.1865301858874
 30
0.0
 10
87.55968557923856
 20
-132.9116115661645
 30
0.0
 10
87.55968557923856
 20
-132.9116115661645
 30
0.0
 10
87.55968557923856
 20
-132.9116115661645
 30
0.0
 10
87.29527450074563
 20
-132.9116115661645
 30
0.0
 10
87.29527450074563
 20
-132.9116115661645
 30
0.0
 10
87.26995304892904
 20
-133.0404581373128
 30
0.0
 10
87.21913789052161
 20
-133.1314086581234
 30
0.0
 10
87.1218139430633
 20
-133.2140909497694
 30
0.0
 10
87.1218139430633
 20
-133.2140909497694
 30
0.0
 10
86.9991685437884
 20
-133.1062594610811
 30
0.0
 10
86.9991685437884
 20
-133.1062594610811
 30
0.0
 10
87.13456079635873
 20
-132.9960164055531
 30
0.0
 10
87.15781519088416
 20
-132.8585570956916
 30
0.0
 10
87.15781519088416
 20
-132.7844875427587
 30
0.0
 10
87.15781519088416
 20
-132.7844875427587
 30
0.0
 10
87.15781519088416
 20
-132.5412638015001
 30
0.0
 10
87.15781519088416
 20
-132.5412638015001
 30
0.0
 10
87.62738170552372
 20
-132.5412638015001
 30
0.0
 10
87.7946410913326
 20
-132.5009561843227
 30
0.0
 10
87.93847382784178
 20
-132.4585815098541
 30
0.0
 10
87.93847382784178
 20
-132.4585815098541
 30
0.0
 10
87.99772947018808
 20
-132.5963853292641
 30
0.0
 10
87.99772947018808
 20
-132.5963853292641
 30
0.0
 10
87.72694496504744
 20
-132.6659762580661
 30
0.0
 10
87.41171872814708
 20
-132.670454882197
 30
0.0
 10
87.3100884113322
 20
-132.670454882197
 30
0.0
 10
87.3100884113322
 20
-132.670454882197
 30
0.0
 10
87.3100884113322
 20
-132.7865546000499
 30
0.0
 10
87.3100884113322
 20
-132.7865546000499
 30
0.0
  0
SPLINE
  5
18A
330
130
100
AcDbEntity
  8
_U+30EC_U+30A4_U+30E4_U+30FC 1
370
     0
100
AcDbSpline
210
0.0
220
0.0
230
1.0
 70
    11
 71
     3
 72
    17
 73
    13
 74
     0
 42
0.0000000001
 43
0.0000000001
 12
1.0
 22
0.0
 32
0.0
 13
1.0
 23
0.0
 33
0.0
 40
0.0
 40
0.0
 40
0.0
 40
0.0
 40
1.0
 40
1.0
 40
1.0
 40
2.0
 40
2.0
 40
2.0
 40
3.0
 40
3.0
 40
3.0
 40
4.0
 40
4.0
 40
4.0
 40
4.0
 10
87.42222626937709
 20
-134.1384100684619
 30
0.0
 10
87.64219561611029
 20
-134.2507201812811
 30
0.0
 10
87.90884600666863
 20
-134.2886162316188
 30
0.0
 10
88.03786483259123
 20
-134.2992960276231
 30
0.0
 10
88.03786483259123
 20
-134.2992960276231
 30
0.0
 10
87.96810164901493
 20
-134.4536363053623
 30
0.0
 10
87.96810164901493
 20
-134.4536363053623
 30
0.0
 10
87.84752330703118
 20
-134.4388223947757
 30
0.0
 10
87.5851792858294
 20
-134.3985147775983
 30
0.0
 10
87.32076820733649
 20
-134.2527872385722
 30
0.0
 10
87.32076820733649
 20
-134.2527872385722
 30
0.0
 10
87.42222626937709
 20
-134.1384100684619
 30
0.0
 10
87.42222626937709
 20
-134.1384100684619
 30
0.0
  0
HATCH
  5
18B
330
130
100
AcDbEntity
  8
_U+30EC_U+30A4_U+30E4_U+30FC 1
 62
    12
420
 15007761
100
AcDbHatch
 10
0.0
 20
0.0
 30
0.0
210
0.0
220
0.0
230
1.0
  2
SOLID
 70
     1
 71
     0
 91
        7
 92
        1
 93
        1
 72
     4
 94
        3
 73
     0
 74
     1
 95
       50
 96
       46
 40
0.0
 40
0.0
 40
0.0
 40
0.0
 40
1.0
 40
1.0
 40
1.0
 40
2.0
 40
2.0
 40
2.0
 40
3.0
 40
3.0
 40
3.0
 40
4.0
 40
4.0
 40
4.0
 40
5.0
 40
5.0
 40
5.0
 40
6.0
 40
6.0
 40
6.0
 40
7.0
 40
7.0
 40
7.0
 40
8.0
 40
8.0
 40
8.0
 40
9.0
 40
9.0
 40
9.0
 40
10.0
 40
10.0
 40
10.0
 40
11.0
 40
11.0
 40
11.0
 40
12.0
 40
12.0
 40
12.0
 40
13.0
 40
13.0
 40
13.0
 40
14.0
 40
14.0
 40
14.0
 40
15.0
 40
15.0
 40
15.0
 40
15.0
 10
86.40247800574313
 20
-132.7865546000499
 10
86.40247800574313
 20
-132.7865546000499
 10
87.05411781677815
 20
-132.7865546000499
 10
87.05411781677815
 20
-132.7865546000499
 10
87.05411781677815
 20
-132.7865546000499
 10
87.05411781677815
 20
-132.9116115661645
 10
87.05411781677815
 20
-132.9116115661645
 10
87.05411781677815
 20
-132.9116115661645
 10
86.7769598849898
 20
-132.9116115661645
 10
86.7769598849898
 20
-132.9116115661645
 10
86.7769598849898
 20
-132.9116115661645
 10
86.7769598849898
 20
-133.1865301858874
 10
86.7769598849898
 20
-133.1865301858874
 10
86.7769598849898
 20
-133.1865301858874
 10
86.61624618060289
 20
-133.1865301858874
 10
86.61624618060289
 20
-133.1865301858874
 10
86.61624618060289
 20
-133.1865301858874
 10
86.61624618060289
 20
-132.9116115661645
 10
86.61624618060289
 20
-132.9116115661645
 10
86.61624618060289
 20
-132.9116115661645
 10
86.39627683386969
 20
-132.9116115661645
 10
86.39627683386969
 20
-132.9116115661645
 10
86.38559703786541
 20
-132.9812024949665
 10
86.36027558604883
 20
-133.1758503898831
 10
86.20576305353536
 20
-133.32605655304
 10
86.20576305353536
 20
-133.32605655304
 10
86.08311765426048
 20
-133.2161580070606
 10
86.08311765426048
 20
-133.2161580070606
 10
86.20369599624422
 20
-133.1165947475368
 10
86.2460706707128
 20
-132.9116115661645
 10
86.2460706707128
 20
-132.8289292745185
 10
86.2460706707128
 20
-132.8289292745185
 10
86.2460706707128
 20
-132.5433308587913
 10
86.2460706707128
 20
-132.5433308587913
 10
86.73045109593892
 20
-132.5433308587913
 10
86.88496362845237
 20
-132.4968220697404
 10
86.98004826384528
 20
-132.4692613058584
 10
86.98004826384528
 20
-132.4692613058584
 10
87.03293047954385
 20
-132.608787673011
 10
87.03293047954385
 20
-132.608787673011
 10
86.82346867404067
 20
-132.6577080289015
 10
86.6606879123626
 20
-132.6680433153573
 10
86.40247800574313
 20
-132.6725219394881
 10
86.40247800574313
 20
-132.6725219394881
 10
86.40247800574313
 20
-132.7865546000499
 10
86.40247800574313
 20
-132.7865546000499
 97
        0
 97
        0
 92
        1
 93
        1
 72
     4
 94
        3
 73
     0
 74
     1
 95
       32
 96
       28
 40
0.0
 40
0.0
 40
0.0
 40
0.0
 40
1.0
 40
1.0
 40
1.0
 40
2.0
 40
2.0
 40
2.0
 40
3.0
 40
3.0
 40
3.0
 40
4.0
 40
4.0
 40
4.0
 40
5.0
 40
5.0
 40
5.0
 40
6.0
 40
6.0
 40
6.0
 40
7.0
 40
7.0
 40
7.0
 40
8.0
 40
8.0
 40
8.0
 40
9.0
 40
9.0
 40
9.0
 40
9.0
 10
86.31790091158025
 20
-134.1322088965885
 10
86.31790091158025
 20
-134.1322088965885
 10
86.31790091158025
 20
-133.2330389749383
 10
86.31790091158025
 20
-133.2330389749383
 10
86.31790091158025
 20
-133.2330389749383
 10
87.81565617379262
 20
-133.2330389749383
 10
87.81565617379262
 20
-133.2330389749383
 10
87.81565617379262
 20
-133.2330389749383
 10
87.81565617379262
 20
-134.1322088965885
 10
87.81565617379262
 20
-134.1322088965885
 10
87.81565617379262
 20
-134.1322088965885
 10
86.67119545359262
 20
-134.1322088965885
 10
86.67119545359262
 20
-134.1322088965885
 10
86.67119545359262
 20
-134.1322088965885
 10
86.7769598849898
 20
-134.2421074425679
 10
86.7769598849898
 20
-134.2421074425679
 10
86.61193981124633
 20
-134.3371920779609
 10
86.44691973750285
 20
-134.3985147775983
 10
86.15081378054563
 20
-134.44950219078
 10
86.15081378054563
 20
-134.44950219078
 10
86.08518471155162
 20
-134.297228970332
 10
86.08518471155162
 20
-134.297228970332
 10
86.46397296015485
 20
-134.2441744998591
 10
86.58661835942974
 20
-134.1766506283482
 10
86.66706133901032
 20
-134.1322088965885
 10
86.66706133901032
 20
-134.1322088965885
 10
86.31790091158025
 20
-134.1322088965885
 10
86.31790091158025
 20
-134.1322088965885
 97
        0
 97
        0
 92
        1
 93
        4
 72
     1
 10
87.64650198546686
 20
-133.3663641702175
 11
86.48722735468029
 21
-133.3663641702175
 72
     1
 10
86.48722735468029
 20
-133.3663641702175
 11
86.48722735468029
 21
-133.4952107413658
 72
     1
 10
86.48722735468029
 20
-133.4952107413658
 11
87.64650198546686
 21
-133.4952107413658
 72
     1
 10
87.64650198546686
 20
-133.4952107413658
 11
87.64650198546686
 21
-133.3663641702175
 97
        0
 92
        1
 93
        4
 72
     1
 10
87.64650198546686
 20
-133.6054537968938
 11
86.48722735468029
 21
-133.6054537968938
 72
     1
 10
86.48722735468029
 20
-133.6054537968938
 11
86.48722735468029
 21
-133.7470472213375
 72
     1
 10
86.48722735468029
 20
-133.7470472213375
 11
87.64650198546686
 21
-133.7470472213375
 72
     1
 10
87.64650198546686
 20
-133.7470472213375
 11
87.64650198546686
 21
-133.6054537968938
 97
        0
 92
        1
 93
        4
 72
     1
 10
87.64650198546686
 20
-133.856945767317
 11
86.48722735468029
 21
-133.856945767317
 72
     1
 10
86.48722735468029
 20
-133.856945767317
 11
86.48722735468029
 21
-133.9968166440182
 72
     1
 10
86.48722735468029
 20
-133.9968166440182
 11
87.64650198546686
 21
-133.9968166440182
 72
     1
 10
87.64650198546686
 20
-133.9968166440182
 11
87.64650198546686
 21
-133.856945767317
 97
        0
 92
        1
 93
        1
 72
     4
 94
        3
 73
     0
 74
     1
 95
       50
 96
       46
 40
0.0
 40
0.0
 40
0.0
 40
0.0
 40
1.0
 40
1.0
 40
1.0
 40
2.0
 40
2.0
 40
2.0
 40
3.0
 40
3.0
 40
3.0
 40
4.0
 40
4.0
 40
4.0
 40
5.0
 40
5.0
 40
5.0
 40
6.0
 40
6.0
 40
6.0
 40
7.0
 40
7.0
 40
7.0
 40
8.0
 40
8.0
 40
8.0
 40
9.0
 40
9.0
 40
9.0
 40
10.0
 40
10.0
 40
10.0
 40
11.0
 40
11.0
 40
11.0
 40
12.0
 40
12.0
 40
12.0
 40
13.0
 40
13.0
 40
13.0
 40
14.0
 40
14.0
 40
14.0
 40
15.0
 40
15.0
 40
15.0
 40
15.0
 10
87.3100884113322
 20
-132.7865546000499
 10
87.3100884113322
 20
-132.7865546000499
 10
88.0463053165301
 20
-132.7865546000499
 10
88.0463053165301
 20
-132.7865546000499
 10
88.0463053165301
 20
-132.7865546000499
 10
88.0463053165301
 20
-132.9116115661645
 10
88.0463053165301
 20
-132.9116115661645
 10
88.0463053165301
 20
-132.9116115661645
 10
87.71626516904315
 20
-132.9116115661645
 10
87.71626516904315
 20
-132.9116115661645
 10
87.71626516904315
 20
-132.9116115661645
 10
87.71626516904315
 20
-133.1865301858874
 10
87.71626516904315
 20
-133.1865301858874
 10
87.71626516904315
 20
-133.1865301858874
 10
87.55968557923856
 20
-133.1865301858874
 10
87.55968557923856
 20
-133.1865301858874
 10
87.55968557923856
 20
-133.1865301858874
 10
87.55968557923856
 20
-132.9116115661645
 10
87.55968557923856
 20
-132.9116115661645
 10
87.55968557923856
 20
-132.9116115661645
 10
87.29527450074563
 20
-132.9116115661645
 10
87.29527450074563
 20
-132.9116115661645
 10
87.26995304892904
 20
-133.0404581373128
 10
87.21913789052161
 20
-133.1314086581234
 10
87.1218139430633
 20
-133.2140909497694
 10
87.1218139430633
 20
-133.2140909497694
 10
86.9991685437884
 20
-133.1062594610811
 10
86.9991685437884
 20
-133.1062594610811
 10
87.13456079635873
 20
-132.9960164055531
 10
87.15781519088416
 20
-132.8585570956916
 10
87.15781519088416
 20
-132.7844875427587
 10
87.15781519088416
 20
-132.7844875427587
 10
87.15781519088416
 20
-132.5412638015001
 10
87.15781519088416
 20
-132.5412638015001
 10
87.62738170552372
 20
-132.5412638015001
 10
87.7946410913326
 20
-132.5009561843227
 10
87.93847382784178
 20
-132.4585815098541
 10
87.93847382784178
 20
-132.4585815098541
 10
87.99772947018808
 20
-132.5963853292641
 10
87.99772947018808
 20
-132.5963853292641
 10
87.72694496504744
 20
-132.6659762580661
 10
87.41171872814708
 20
-132.670454882197
 10
87.3100884113322
 20
-132.670454882197
 10
87.3100884113322
 20
-132.670454882197
 10
87.3100884113322
 20
-132.7865546000499
 10
87.3100884113322
 20
-132.7865546000499
 97
        0
 97
        0
 92
        1
 93
        1
 72
     4
 94
        3
 73
     0
 74
     1
 95
       17
 96
       13
 40
0.0
 40
0.0
 40
0.0
 40
0.0
 40
1.0
 40
1.0
 40
1.0
 40
2.0
 40
2.0
 40
2.0
 40
3.0
 40
3.0
 40
3.0
 40
4.0
 40
4.0
 40
4.0
 40
4.0
 10
87.42222626937709
 20
-134.1384100684619
 10
87.64219561611029
 20
-134.2507201812811
 10
87.90884600666863
 20
-134.2886162316188
 10
88.03786483259123
 20
-134.2992960276231
 10
88.03786483259123
 20
-134.2992960276231
 10
87.96810164901493
 20
-134.4536363053623
 10
87.96810164901493
 20
-134.4536363053623
 10
87.84752330703118
 20
-134.4388223947757
 10
87.5851792858294
 20
-134.3985147775983
 10
87.32076820733649
 20
-134.2527872385722
 10
87.32076820733649
 20
-134.2527872385722
 10
87.42222626937709
 20
-134.1384100684619
 10
87.42222626937709
 20
-134.1384100684619
 97
        0
 97
        0
 75
     2
 76
     1
 98
        0
  0
ENDBLK
  5
133
330
130
100
AcDbEntity
  8
0
100
AcDbBlockEnd
  0
BLOCK
  5
19B
330
199
100
AcDbEntity
  8
0
100
AcDbBlockBegin
  2
block 7
 70
     0
 10
0.0
 20
0.0
 30
0.0
  3
block 7
  1

  0
SPLINE
  5
19D
330
199
100
AcDbEntity
  8
_U+30EC_U+30A4_U+30E4_U+30FC 1
370
     0
100
AcDbSpline
210
0.0
220
0.0
230
1.0
 70
    11
 71
     3
 72
   242
 73
   238
 74
     0
 42
0.0000000001
 43
0.0000000001
 12
1.0
 22
0.0
 32
0.0
 13
1.0
 23
0.0
 33
0.0
 40
0.0
 40
0.0
 40
0.0
 40
0.0
 40
1.0
 40
1.0
 40
1.0
 40
2.0
 40
2.0
 40
2.0
 40
3.0
 40
3.0
 40
3.0
 40
4.0
 40
4.0
 40
4.0
 40
5.0
 40
5.0
 40
5.0
 40
6.0
 40
6.0
 40
6.0
 40
7.0
 40
7.0
 40
7.0
 40
8.0
 40
8.0
 40
8.0
 40
9.0
 40
9.0
 40
9.0
 40
10.0
 40
10.0
 40
10.0
 40
11.0
 40
11.0
 40
11.0
 40
12.0
 40
12.0
 40
12.0
 40
13.0
 40
13.0
 40
13.0
 40
14.0
 40
14.0
 40
14.0
 40
15.0
 40
15.0
 40
15.0
 40
16.0
 40
16.0
 40
16.0
 40
17.0
 40
17.0
 40
17.0
 40
18.0
 40
18.0
 40
18.0
 40
19.0
 40
19.0
 40
19.0
 40
20.0
 40
20.0
 40
20.0
 40
21.0
 40
21.0
 40
21.0
 40
22.0
 40
22.0
 40
22.0
 40
23.0
 40
23.0
 40
23.0
 40
24.0
 40
24.0
 40
24.0
 40
25.0
 40
25.0
 40
25.0
 40
26.0
 40
26.0
 40
26.0
 40
27.0
 40
27.0
 40
27.0
 40
28.0
 40
28.0
 40
28.0
 40
29.0
 40
29.0
 40
29.0
 40
30.0
 40
30.0
 40
30.0
 40
31.0
 40
31.0
 40
31.0
 40
32.0
 40
32.0
 40
32.0
 40
33.0
 40
33.0
 40
33.0
 40
34.0
 40
34.0
 40
34.0
 40
35.0
 40
35.0
 40
35.0
 40
36.0
 40
36.0
 40
36.0
 40
37.0
 40
37.0
 40
37.0
 40
38.0
 40
38.0
 40
38.0
 40
39.0
 40
39.0
 40
39.0
 40
40.0
 40
40.0
 40
40.0
 40
41.0
 40
41.0
 40
41.0
 40
42.0
 40
42.0
 40
42.0
 40
43.0
 40
43.0
 40
43.0
 40
44.0
 40
44.0
 40
44.0
 40
45.0
 40
45.0
 40
45.0
 40
46.0
 40
46.0
 40
46.0
 40
47.0
 40
47.0
 40
47.0
 40
48.0
 40
48.0
 40
48.0
 40
49.0
 40
49.0
 40
49.0
 40
50.0
 40
50.0
 40
50.0
 40
51.0
 40
51.0
 40
51.0
 40
52.0
 40
52.0
 40
52.0
 40
53.0
 40
53.0
 40
53.0
 40
54.0
 40
54.0
 40
54.0
 40
55.0
 40
55.0
 40
55.0
 40
56.0
 40
56.0
 40
56.0
 40
57.0
 40
57.0
 40
57.0
 40
58.0
 40
58.0
 40
58.0
 40
59.0
 40
59.0
 40
59.0
 40
60.0
 40
60.0
 40
60.0
 40
61.0
 40
61.0
 40
61.0
 40
62.0
 40
62.0
 40
62.0
 40
63.0
 40
63.0
 40
63.0
 40
64.0
 40
64.0
 40
64.0
 40
65.0
 40
65.0
 40
65.0
 40
66.0
 40
66.0
 40
66.0
 40
67.0
 40
67.0
 40
67.0
 40
68.0
 40
68.0
 40
68.0
 40
69.0
 40
69.0
 40
69.0
 40
70.0
 40
70.0
 40
70.0
 40
71.0
 40
71.0
 40
71.0
 40
72.0
 40
72.0
 40
72.0
 40
73.0
 40
73.0
 40
73.0
 40
74.0
 40
74.0
 40
74.0
 40
75.0
 40
75.0
 40
75.0
 40
76.0
 40
76.0
 40
76.0
 40
77.0
 40
77.0
 40
77.0
 40
78.0
 40
78.0
 40
78.0
 40
79.0
 40
79.0
 40
79.0
 40
79.0
 10
100.8632663050793
 20
-154.2830891541376
 30
0.0
 10
100.8632663050793
 20
-154.2830891541376
 30
0.0
 10
100.6093627678164
 20
-154.2830891541376
 30
0.0
 10
100.6093627678164
 20
-154.2830891541376
 30
0.0
 10
100.6093627678164
 20
-154.2830891541376
 30
0.0
 10
100.3322048360281
 20
-154.2830891541376
 30
0.0
 10
100.3322048360281
 20
-154.2830891541376
 30
0.0
 10
100.3322048360281
 20
-154.2830891541376
 30
0.0
 10
100.4591566046595
 20
-154.3251193190576
 30
0.0
 10
100.4591566046595
 20
-154.3251193190576
 30
0.0
 10
100.4696641458895
 20
-154.3295979431884
 30
0.0
 10
100.482410999185
 20
-154.3357991150619
 30
0.0
 10
100.482410999185
 20
-154.3485459683573
 30
0.0
 10
100.482410999185
 20
-154.3695610508173
 30
0.0
 10
100.4507161207207
 20
-154.3761067322393
 30
0.0
 10
100.4295287834864
 20
-154.3802408468216
 30
0.0
 10
100.4190212422564
 20
-154.4036674961213
 30
0.0
 10
100.3893934210832
 20
-154.4691243103411
 30
0.0
 10
100.3702731411401
 20
-154.5135660421008
 30
0.0
 10
100.3702731411401
 20
-154.5135660421008
 30
0.0
 10
100.6410576462807
 20
-154.5135660421008
 30
0.0
 10
100.6410576462807
 20
-154.5135660421008
 30
0.0
 10
100.7320081670913
 20
-154.5135660421008
 30
0.0
 10
100.9287231192991
 20
-154.5094319275185
 30
0.0
 10
101.0704887985171
 20
-154.5008191888054
 30
0.0
 10
101.0704887985171
 20
-154.5008191888054
 30
0.0
 10
101.0704887985171
 20
-154.6785861158442
 30
0.0
 10
101.0704887985171
 20
-154.6785861158442
 30
0.0
 10
100.9879787616454
 20
-154.674452001262
 30
0.0
 10
100.9667914244111
 20
-154.674452001262
 30
0.0
 10
100.786957440081
 20
-154.6699733771311
 30
0.0
 10
100.7552625616167
 20
-154.8246581644188
 30
0.0
 10
100.710820829857
 20
-154.9049288892252
 30
0.0
 10
100.6663790980973
 20
-154.9748643275757
 30
0.0
 10
100.786957440081
 20
-155.034119969922
 30
0.0
 10
100.8928941262525
 20
-155.1016438414329
 30
0.0
 10
100.9964192455842
 20
-155.1843261330789
 30
0.0
 10
100.9964192455842
 20
-155.1843261330789
 30
0.0
 10
100.8780802156659
 20
-155.3514132641135
 30
0.0
 10
100.8780802156659
 20
-155.3514132641135
 30
0.0
 10
100.8548258211405
 20
-155.3321207293961
 30
0.0
 10
100.842078967845
 20
-155.3238525002315
 30
0.0
 10
100.7299411098002
 20
-155.2391031512944
 30
0.0
 10
100.6811930086839
 20
-155.2012071009567
 30
0.0
 10
100.6221096211118
 20
-155.1650335983615
 30
0.0
 10
100.5416666415313
 20
-155.1205918666018
 30
0.0
 10
100.3301377787369
 20
-155.3069715323538
 30
0.0
 10
100.124810087816
 20
-155.330053672105
 30
0.0
 10
99.83507755750651
 20
-155.3596814932781
 30
0.0
 10
99.83507755750651
 20
-155.3596814932781
 30
0.0
 10
99.73138018340049
 20
-155.1798475089481
 30
0.0
 10
99.73138018340049
 20
-155.1798475089481
 30
0.0
 10
100.048673477592
 20
-155.1757133943658
 30
0.0
 10
100.2243733473397
 20
-155.1502196877749
 30
0.0
 10
100.3766465677878
 20
-155.0403211417955
 30
0.0
 10
100.2581352830952
 20
-154.9896782381623
 30
0.0
 10
100.1692518195757
 20
-154.9621174742803
 30
0.0
 10
100.1334228265292
 20
-154.9493706209849
 30
0.0
 10
100.114302546586
 20
-154.9769313848669
 30
0.0
 10
100.0994886359994
 20
-154.9958794100358
 30
0.0
 10
100.0719278721174
 20
-155.0296413457912
 30
0.0
 10
100.0719278721174
 20
-155.0296413457912
 30
0.0
 10
99.87521291990967
 20
-154.9473035636937
 30
0.0
 10
99.87521291990967
 20
-154.9473035636937
 30
0.0
 10
99.95772295678141
 20
-154.8666883293389
 30
0.0
 10
100.0190456564189
 20
-154.771603693946
 30
0.0
 10
100.076234241474
 20
-154.6699733771311
 30
0.0
 10
99.88589271591395
 20
-154.674452001262
 30
0.0
 10
99.86470537867966
 20
-154.674452001262
 30
0.0
 10
99.78219534180793
 20
-154.6785861158442
 30
0.0
 10
99.78219534180793
 20
-154.6785861158442
 30
0.0
 10
99.78219534180793
 20
-154.5008191888054
 30
0.0
 10
99.78219534180793
 20
-154.5008191888054
 30
0.0
 10
99.92172170896055
 20
-154.5073648702273
 30
0.0
 10
100.1311835144637
 20
-154.5114989848096
 30
0.0
 10
100.1566772210546
 20
-154.5114989848096
 30
0.0
 10
100.1735581889323
 20
-154.4777370490542
 30
0.0
 10
100.228507461922
 20
-154.3571587070704
 30
0.0
 10
100.2476277418652
 20
-154.2830891541376
 30
0.0
 10
100.228507461922
 20
-154.2830891541376
 30
0.0
 10
100.0509127896574
 20
-154.289290326011
 30
0.0
 10
99.8562648947408
 20
-154.3020371793064
 30
0.0
 10
99.8562648947408
 20
-154.3020371793064
 30
0.0
 10
99.8562648947408
 20
-154.4353623745856
 30
0.0
 10
99.8562648947408
 20
-154.4353623745856
 30
0.0
 10
99.80751679362452
 20
-154.4608560811765
 30
0.0
 10
99.74826115127821
 20
-154.4925509596408
 30
0.0
 10
99.61510821077331
 20
-154.5580077738605
 30
0.0
 10
99.61510821077331
 20
-154.5580077738605
 30
0.0
 10
99.61510821077331
 20
-154.7040798224351
 30
0.0
 10
99.61510821077331
 20
-154.7040798224351
 30
0.0
 10
99.61510821077331
 20
-154.7040798224351
 30
0.0
 10
99.61510821077331
 20
-155.1715792797835
 30
0.0
 10
99.61510821077331
 20
-155.1715792797835
 30
0.0
 10
99.61510821077331
 20
-155.2983587936407
 30
0.0
 10
99.57910696295245
 20
-155.357614435987
 30
0.0
 10
99.29557560451639
 20
-155.3493462068224
 30
0.0
 10
99.29557560451639
 20
-155.3493462068224
 30
0.0
 10
99.19187823041037
 20
-155.1419514586104
 30
0.0
 10
99.19187823041037
 20
-155.1419514586104
 30
0.0
 10
99.25544024211322
 20
-155.1546983119058
 30
0.0
 10
99.30401608845526
 20
-155.1588324264881
 30
0.0
 10
99.34432370563268
 20
-155.1588324264881
 30
0.0
 10
99.4204603158567
 20
-155.1588324264881
 30
0.0
 10
99.43096785708671
 20
-155.1354057771884
 30
0.0
 10
99.43096785708671
 20
-155.0699489629686
 30
0.0
 10
99.43096785708671
 20
-155.0699489629686
 30
0.0
 10
99.43096785708671
 20
-154.640345555958
 30
0.0
 10
99.43096785708671
 20
-154.640345555958
 30
0.0
 10
99.33364390962839
 20
-154.6806531731354
 30
0.0
 10
99.31676294175068
 20
-154.6871988545574
 30
0.0
 10
99.2702541526998
 20
-154.7061468797262
 30
0.0
 10
99.26594778334324
 20
-154.7271619621863
 30
0.0
 10
99.26181366876094
 20
-154.7567897833594
 30
0.0
 10
99.2426933888178
 20
-154.7567897833594
 30
0.0
 10
99.23425290487894
 20
-154.7567897833594
 30
0.0
 10
99.22374536364893
 20
-154.7526556687771
 30
0.0
 10
99.21737193700122
 20
-154.7292290194774
 30
0.0
 10
99.21737193700122
 20
-154.7292290194774
 30
0.0
 10
99.16448972130263
 20
-154.5369926914005
 30
0.0
 10
99.16448972130263
 20
-154.5369926914005
 30
0.0
 10
99.31038951510297
 20
-154.4901393928011
 30
0.0
 10
99.37601858409697
 20
-154.4670572530499
 30
0.0
 10
99.43096785708671
 20
-154.4460421705899
 30
0.0
 10
99.43096785708671
 20
-154.4460421705899
 30
0.0
 10
99.43096785708671
 20
-154.0333197314569
 30
0.0
 10
99.43096785708671
 20
-154.0333197314569
 30
0.0
 10
99.43096785708671
 20
-154.0333197314569
 30
0.0
 10
99.37808564138813
 20
-154.0333197314569
 30
0.0
 10
99.37808564138813
 20
-154.0333197314569
 30
0.0
 10
99.37808564138813
 20
-154.0333197314569
 30
0.0
 10
99.29988197387296
 20
-154.0333197314569
 30
0.0
 10
99.29988197387296
 20
-154.0333197314569
 30
0.0
 10
99.23218584758779
 20
-154.0333197314569
 30
0.0
 10
99.22374536364893
 20
-154.0333197314569
 30
0.0
 10
99.18774411582807
 20
-154.0398654128789
 30
0.0
 10
99.18774411582807
 20
-154.0398654128789
 30
0.0
 10
99.18774411582807
 20
-153.8452175179623
 30
0.0
 10
99.18774411582807
 20
-153.8452175179623
 30
0.0
 10
99.21530487971006
 20
-153.8514186898358
 30
0.0
 10
99.22374536364893
 20
-153.8514186898358
 30
0.0
 10
99.29350854722524
 20
-153.8514186898358
 30
0.0
 10
99.29350854722524
 20
-153.8514186898358
 30
0.0
 10
99.42683374250441
 20
-153.8514186898358
 30
0.0
 10
99.42683374250441
 20
-153.8514186898358
 30
0.0
 10
99.42683374250441
 20
-153.7814832514852
 30
0.0
 10
99.42683374250441
 20
-153.6991454693877
 30
0.0
 10
99.424594430439
 20
-153.6950113548054
 30
0.0
 10
99.41615394650013
 20
-153.5151773704754
 30
0.0
 10
99.41615394650013
 20
-153.495884835758
 30
0.0
 10
99.41408688920899
 20
-153.4493760467071
 30
0.0
 10
99.41408688920899
 20
-153.4493760467071
 30
0.0
 10
99.62992212135988
 20
-153.4579887854202
 30
0.0
 10
99.62992212135988
 20
-153.4579887854202
 30
0.0
 10
99.6404296625899
 20
-153.4579887854202
 30
0.0
 10
99.66161699982419
 20
-153.4600558427114
 30
0.0
 10
99.66161699982419
 20
-153.4769368105891
 30
0.0
 10
99.66161699982419
 20
-153.495884835758
 30
0.0
 10
99.64680308923761
 20
-153.5065646317622
 30
0.0
 10
99.62148163742103
 20
-153.5255126569311
 30
0.0
 10
99.62148163742103
 20
-153.5765000701128
 30
0.0
 10
99.61510821077331
 20
-153.8049099007849
 30
0.0
 10
99.61717526806446
 20
-153.8514186898358
 30
0.0
 10
99.74619409398707
 20
-153.8514186898358
 30
0.0
 10
99.7589409472825
 20
-153.8514186898358
 30
0.0
 10
99.8562648947408
 20
-153.8428059511226
 30
0.0
 10
99.8562648947408
 20
-153.8428059511226
 30
0.0
 10
99.8562648947408
 20
-154.0374538460393
 30
0.0
 10
99.8562648947408
 20
-154.0374538460393
 30
0.0
 10
99.81819658962878
 20
-154.0353867887481
 30
0.0
 10
99.75050046334363
 20
-154.0312526741658
 30
0.0
 10
99.61510821077331
 20
-154.0333197314569
 30
0.0
 10
99.61510821077331
 20
-154.0333197314569
 30
0.0
 10
99.61510821077331
 20
-154.371972617657
 30
0.0
 10
99.61510821077331
 20
-154.371972617657
 30
0.0
 10
99.67005748376305
 20
-154.3485459683573
 30
0.0
 10
99.73568655275706
 20
-154.3209852044753
 30
0.0
 10
99.78426239909908
 20
-154.2979030647242
 30
0.0
 10
99.78426239909908
 20
-154.2979030647242
 30
0.0
 10
99.78426239909908
 20
-154.1201361376853
 30
0.0
 10
99.78426239909908
 20
-154.1201361376853
 30
0.0
 10
99.89846731443511
 20
-154.1328829909807
 30
0.0
 10
100.0169785991277
 20
-154.1328829909807
 30
0.0
 10
100.1334228265292
 20
-154.1328829909807
 30
0.0
 10
100.1099961772294
 20
-154.0374538460393
 30
0.0
 10
100.0826076681217
 20
-153.9551160639418
 30
0.0
 10
100.0190456564189
 20
-153.8217908686626
 30
0.0
 10
99.97460392465914
 20
-153.8238579259538
 30
0.0
 10
99.89226614256167
 20
-153.8279920405361
 30
0.0
 10
99.85402558267539
 20
-153.8304036073757
 30
0.0
 10
99.85402558267539
 20
-153.8304036073757
 30
0.0
 10
99.85402558267539
 20
-153.6505696230457
 30
0.0
 10
99.85402558267539
 20
-153.6505696230457
 30
0.0
 10
99.97891029401569
 20
-153.6588378522103
 30
0.0
 10
100.152370851698
 20
-153.6629719667926
 30
0.0
 10
100.2348808885698
 20
-153.6629719667926
 30
0.0
 10
100.2348808885698
 20
-153.6629719667926
 30
0.0
 10
100.3173909254415
 20
-153.6629719667926
 30
0.0
 10
100.3173909254415
 20
-153.6629719667926
 30
0.0
 10
100.3173909254415
 20
-153.5003634598888
 30
0.0
 10
100.3173909254415
 20
-153.4896836638845
 30
0.0
 10
100.3153238681503
 20
-153.4345621361205
 30
0.0
 10
100.3153238681503
 20
-153.4345621361205
 30
0.0
 10
100.5395995842401
 20
-153.4600558427114
 30
0.0
 10
100.5395995842401
 20
-153.4600558427114
 30
0.0
 10
100.5437336988224
 20
-153.4600558427114
 30
0.0
 10
100.5649210360567
 20
-153.4621229000025
 30
0.0
 10
100.5649210360567
 20
-153.4790038678803
 30
0.0
 10
100.5649210360567
 20
-153.4938177784668
 30
0.0
 10
100.5544134948267
 20
-153.50243051718
 30
0.0
 10
100.5268527309447
 20
-153.5172444277665
 30
0.0
 10
100.520479304297
 20
-153.5827012419863
 30
0.0
 10
100.5184122470058
 20
-153.6040608339948
 30
0.0
 10
100.5184122470058
 20
-153.6629719667926
 30
0.0
 10
100.5184122470058
 20
-153.6629719667926
 30
0.0
 10
100.6134968823987
 20
-153.6629719667926
 30
0.0
 10
100.6134968823987
 20
-153.6629719667926
 30
0.0
 10
100.6960069192704
 20
-153.6629719667926
 30
0.0
 10
100.8694674769528
 20
-153.6588378522103
 30
0.0
 10
100.9943521882931
 20
-153.6505696230457
 30
0.0
 10
100.9943521882931
 20
-153.6505696230457
 30
0.0
 10
100.9943521882931
 20
-153.8304036073757
 30
0.0
 10
100.9943521882931
 20
-153.8304036073757
 30
0.0
 10
100.9647243671199
 20
-153.8279920405361
 30
0.0
 10
100.8462130824273
 20
-153.8238579259538
 30
0.0
 10
100.8060777200242
 20
-153.8217908686626
 30
0.0
 10
100.7912638094376
 20
-153.8724337722958
 30
0.0
 10
100.7575018736822
 20
-153.9847438851149
 30
0.0
 10
100.6918728046881
 20
-154.1242702522676
 30
0.0
 10
100.7340752243825
 20
-154.1242702522676
 30
0.0
 10
101.0112331561708
 20
-154.1053222270987
 30
0.0
 10
101.0725558558083
 20
-154.1032551698075
 30
0.0
 10
101.0725558558083
 20
-154.1032551698075
 30
0.0
 10
101.0725558558083
 20
-154.2872232687199
 30
0.0
 10
101.0725558558083
 20
-154.2872232687199
 30
0.0
 10
101.0431002894094
 20
-154.2872232687199
 30
0.0
 10
101.0260470667574
 20
-154.2830891541376
 30
0.0
 10
100.8632663050793
 20
-154.2830891541376
 30
0.0
  0
SPLINE
  5
19E
330
199
100
AcDbEntity
  8
_U+30EC_U+30A4_U+30E4_U+30FC 1
370
     0
100
AcDbSpline
210
0.0
220
0.0
230
1.0
 70
    11
 71
     3
 72
    20
 73
    16
 74
     0
 42
0.0000000001
 43
0.0000000001
 12
1.0
 22
0.0
 32
0.0
 13
1.0
 23
0.0
 33
0.0
 40
0.0
 40
0.0
 40
0.0
 40
0.0
 40
1.0
 40
1.0
 40
1.0
 40
2.0
 40
2.0
 40
2.0
 40
3.0
 40
3.0
 40
3.0
 40
4.0
 40
4.0
 40
4.0
 40
5.0
 40
5.0
 40
5.0
 40
5.0
 10
100.2348808885698
 20
-153.8176567540803
 30
0.0
 10
100.2348808885698
 20
-153.8176567540803
 30
0.0
 10
100.2031860101055
 20
-153.8176567540803
 30
0.0
 10
100.2031860101055
 20
-153.8176567540803
 30
0.0
 10
100.2496947991563
 20
-153.9168755040555
 30
0.0
 10
100.2813896776206
 20
-153.9974907384104
 30
0.0
 10
100.3153238681503
 20
-154.1242702522676
 30
0.0
 10
100.3153238681503
 20
-154.1242702522676
 30
0.0
 10
100.5225463615881
 20
-154.1242702522676
 30
0.0
 10
100.5225463615881
 20
-154.1242702522676
 30
0.0
 10
100.5544134948267
 20
-154.0312526741658
 30
0.0
 10
100.5776678893521
 20
-153.9465033252287
 30
0.0
 10
100.6009222838776
 20
-153.8176567540803
 30
0.0
 10
100.6009222838776
 20
-153.8176567540803
 30
0.0
 10
100.2348808885698
 20
-153.8176567540803
 30
0.0
 10
100.2348808885698
 20
-153.8176567540803
 30
0.0
  0
SPLINE
  5
19F
330
199
100
AcDbEntity
  8
_U+30EC_U+30A4_U+30E4_U+30FC 1
370
     0
100
AcDbSpline
210
0.0
220
0.0
230
1.0
 70
    11
 71
     3
 72
    17
 73
    13
 74
     0
 42
0.0000000001
 43
0.0000000001
 12
1.0
 22
0.0
 32
0.0
 13
1.0
 23
0.0
 33
0.0
 40
0.0
 40
0.0
 40
0.0
 40
0.0
 40
1.0
 40
1.0
 40
1.0
 40
2.0
 40
2.0
 40
2.0
 40
3.0
 40
3.0
 40
3.0
 40
4.0
 40
4.0
 40
4.0
 40
4.0
 10
100.2984429002726
 20
-154.66790631984
 30
0.0
 10
100.2813896776206
 20
-154.6975341410131
 30
0.0
 10
100.2307467739875
 20
-154.7905517191149
 30
0.0
 10
100.2200669779832
 20
-154.8098442538323
 30
0.0
 10
100.4104085035432
 20
-154.8690998961786
 30
0.0
 10
100.4315958407775
 20
-154.875301068052
 30
0.0
 10
100.5035983364192
 20
-154.902861831934
 30
0.0
 10
100.558547609409
 20
-154.8160454257057
 30
0.0
 10
100.5818020039344
 20
-154.7419758727729
 30
0.0
 10
100.596615914521
 20
-154.66790631984
 30
0.0
 10
100.596615914521
 20
-154.66790631984
 30
0.0
 10
100.2984429002726
 20
-154.66790631984
 30
0.0
 10
100.2984429002726
 20
-154.66790631984
 30
0.0
  0
HATCH
  5
1A0
330
199
100
AcDbEntity
  8
_U+30EC_U+30A4_U+30E4_U+30FC 1
 62
   179
420
  2234388
100
AcDbHatch
 10
0.0
 20
0.0
 30
0.0
210
0.0
220
0.0
230
1.0
  2
SOLID
 70
     1
 71
     0
 91
        3
 92
        1
 93
        1
 72
     4
 94
        3
 73
     0
 74
     1
 95
      242
 96
      238
 40
0.0
 40
0.0
 40
0.0
 40
0.0
 40
1.0
 40
1.0
 40
1.0
 40
2.0
 40
2.0
 40
2.0
 40
3.0
 40
3.0
 40
3.0
 40
4.0
 40
4.0
 40
4.0
 40
5.0
 40
5.0
 40
5.0
 40
6.0
 40
6.0
 40
6.0
 40
7.0
 40
7.0
 40
7.0
 40
8.0
 40
8.0
 40
8.0
 40
9.0
 40
9.0
 40
9.0
 40
10.0
 40
10.0
 40
10.0
 40
11.0
 40
11.0
 40
11.0
 40
12.0
 40
12.0
 40
12.0
 40
13.0
 40
13.0
 40
13.0
 40
14.0
 40
14.0
 40
14.0
 40
15.0
 40
15.0
 40
15.0
 40
16.0
 40
16.0
 40
16.0
 40
17.0
 40
17.0
 40
17.0
 40
18.0
 40
18.0
 40
18.0
 40
19.0
 40
19.0
 40
19.0
 40
20.0
 40
20.0
 40
20.0
 40
21.0
 40
21.0
 40
21.0
 40
22.0
 40
22.0
 40
22.0
 40
23.0
 40
23.0
 40
23.0
 40
24.0
 40
24.0
 40
24.0
 40
25.0
 40
25.0
 40
25.0
 40
26.0
 40
26.0
 40
26.0
 40
27.0
 40
27.0
 40
27.0
 40
28.0
 40
28.0
 40
28.0
 40
29.0
 40
29.0
 40
29.0
 40
30.0
 40
30.0
 40
30.0
 40
31.0
 40
31.0
 40
31.0
 40
32.0
 40
32.0
 40
32.0
 40
33.0
 40
33.0
 40
33.0
 40
34.0
 40
34.0
 40
34.0
 40
35.0
 40
35.0
 40
35.0
 40
36.0
 40
36.0
 40
36.0
 40
37.0
 40
37.0
 40
37.0
 40
38.0
 40
38.0
 40
38.0
 40
39.0
 40
39.0
 40
39.0
 40
40.0
 40
40.0
 40
40.0
 40
41.0
 40
41.0
 40
41.0
 40
42.0
 40
42.0
 40
42.0
 40
43.0
 40
43.0
 40
43.0
 40
44.0
 40
44.0
 40
44.0
 40
45.0
 40
45.0
 40
45.0
 40
46.0
 40
46.0
 40
46.0
 40
47.0
 40
47.0
 40
47.0
 40
48.0
 40
48.0
 40
48.0
 40
49.0
 40
49.0
 40
49.0
 40
50.0
 40
50.0
 40
50.0
 40
51.0
 40
51.0
 40
51.0
 40
52.0
 40
52.0
 40
52.0
 40
53.0
 40
53.0
 40
53.0
 40
54.0
 40
54.0
 40
54.0
 40
55.0
 40
55.0
 40
55.0
 40
56.0
 40
56.0
 40
56.0
 40
57.0
 40
57.0
 40
57.0
 40
58.0
 40
58.0
 40
58.0
 40
59.0
 40
59.0
 40
59.0
 40
60.0
 40
60.0
 40
60.0
 40
61.0
 40
61.0
 40
61.0
 40
62.0
 40
62.0
 40
62.0
 40
63.0
 40
63.0
 40
63.0
 40
64.0
 40
64.0
 40
64.0
 40
65.0
 40
65.0
 40
65.0
 40
66.0
 40
66.0
 40
66.0
 40
67.0
 40
67.0
 40
67.0
 40
68.0
 40
68.0
 40
68.0
 40
69.0
 40
69.0
 40
69.0
 40
70.0
 40
70.0
 40
70.0
 40
71.0
 40
71.0
 40
71.0
 40
72.0
 40
72.0
 40
72.0
 40
73.0
 40
73.0
 40
73.0
 40
74.0
 40
74.0
 40
74.0
 40
75.0
 40
75.0
 40
75.0
 40
76.0
 40
76.0
 40
76.0
 40
77.0
 40
77.0
 40
77.0
 40
78.0
 40
78.0
 40
78.0
 40
79.0
 40
79.0
 40
79.0
 40
79.0
 10
100.8632663050793
 20
-154.2830891541376
 10
100.8632663050793
 20
-154.2830891541376
 10
100.6093627678164
 20
-154.2830891541376
 10
100.6093627678164
 20
-154.2830891541376
 10
100.6093627678164
 20
-154.2830891541376
 10
100.3322048360281
 20
-154.2830891541376
 10
100.3322048360281
 20
-154.2830891541376
 10
100.3322048360281
 20
-154.2830891541376
 10
100.4591566046595
 20
-154.3251193190576
 10
100.4591566046595
 20
-154.3251193190576
 10
100.4696641458895
 20
-154.3295979431884
 10
100.482410999185
 20
-154.3357991150619
 10
100.482410999185
 20
-154.3485459683573
 10
100.482410999185
 20
-154.3695610508173
 10
100.4507161207207
 20
-154.3761067322393
 10
100.4295287834864
 20
-154.3802408468216
 10
100.4190212422564
 20
-154.4036674961213
 10
100.3893934210832
 20
-154.4691243103411
 10
100.3702731411401
 20
-154.5135660421008
 10
100.3702731411401
 20
-154.5135660421008
 10
100.6410576462807
 20
-154.5135660421008
 10
100.6410576462807
 20
-154.5135660421008
 10
100.7320081670913
 20
-154.5135660421008
 10
100.9287231192991
 20
-154.5094319275185
 10
101.0704887985171
 20
-154.5008191888054
 10
101.0704887985171
 20
-154.5008191888054
 10
101.0704887985171
 20
-154.6785861158442
 10
101.0704887985171
 20
-154.6785861158442
 10
100.9879787616454
 20
-154.674452001262
 10
100.9667914244111
 20
-154.674452001262
 10
100.786957440081
 20
-154.6699733771311
 10
100.7552625616167
 20
-154.8246581644188
 10
100.710820829857
 20
-154.9049288892252
 10
100.6663790980973
 20
-154.9748643275757
 10
100.786957440081
 20
-155.034119969922
 10
100.8928941262525
 20
-155.1016438414329
 10
100.9964192455842
 20
-155.1843261330789
 10
100.9964192455842
 20
-155.1843261330789
 10
100.8780802156659
 20
-155.3514132641135
 10
100.8780802156659
 20
-155.3514132641135
 10
100.8548258211405
 20
-155.3321207293961
 10
100.842078967845
 20
-155.3238525002315
 10
100.7299411098002
 20
-155.2391031512944
 10
100.6811930086839
 20
-155.2012071009567
 10
100.6221096211118
 20
-155.1650335983615
 10
100.5416666415313
 20
-155.1205918666018
 10
100.3301377787369
 20
-155.3069715323538
 10
100.124810087816
 20
-155.330053672105
 10
99.83507755750651
 20
-155.3596814932781
 10
99.83507755750651
 20
-155.3596814932781
 10
99.73138018340049
 20
-155.1798475089481
 10
99.73138018340049
 20
-155.1798475089481
 10
100.048673477592
 20
-155.1757133943658
 10
100.2243733473397
 20
-155.1502196877749
 10
100.3766465677878
 20
-155.0403211417955
 10
100.2581352830952
 20
-154.9896782381623
 10
100.1692518195757
 20
-154.9621174742803
 10
100.1334228265292
 20
-154.9493706209849
 10
100.114302546586
 20
-154.9769313848669
 10
100.0994886359994
 20
-154.9958794100358
 10
100.0719278721174
 20
-155.0296413457912
 10
100.0719278721174
 20
-155.0296413457912
 10
99.87521291990967
 20
-154.9473035636937
 10
99.87521291990967
 20
-154.9473035636937
 10
99.95772295678141
 20
-154.8666883293389
 10
100.0190456564189
 20
-154.771603693946
 10
100.076234241474
 20
-154.6699733771311
 10
99.88589271591395
 20
-154.674452001262
 10
99.86470537867966
 20
-154.674452001262
 10
99.78219534180793
 20
-154.6785861158442
 10
99.78219534180793
 20
-154.6785861158442
 10
99.78219534180793
 20
-154.5008191888054
 10
99.78219534180793
 20
-154.5008191888054
 10
99.92172170896055
 20
-154.5073648702273
 10
100.1311835144637
 20
-154.5114989848096
 10
100.1566772210546
 20
-154.5114989848096
 10
100.1735581889323
 20
-154.4777370490542
 10
100.228507461922
 20
-154.3571587070704
 10
100.2476277418652
 20
-154.2830891541376
 10
100.228507461922
 20
-154.2830891541376
 10
100.0509127896574
 20
-154.289290326011
 10
99.8562648947408
 20
-154.3020371793064
 10
99.8562648947408
 20
-154.3020371793064
 10
99.8562648947408
 20
-154.4353623745856
 10
99.8562648947408
 20
-154.4353623745856
 10
99.80751679362452
 20
-154.4608560811765
 10
99.74826115127821
 20
-154.4925509596408
 10
99.61510821077331
 20
-154.5580077738605
 10
99.61510821077331
 20
-154.5580077738605
 10
99.61510821077331
 20
-154.7040798224351
 10
99.61510821077331
 20
-154.7040798224351
 10
99.61510821077331
 20
-154.7040798224351
 10
99.61510821077331
 20
-155.1715792797835
 10
99.61510821077331
 20
-155.1715792797835
 10
99.61510821077331
 20
-155.2983587936407
 10
99.57910696295245
 20
-155.357614435987
 10
99.29557560451639
 20
-155.3493462068224
 10
99.29557560451639
 20
-155.3493462068224
 10
99.19187823041037
 20
-155.1419514586104
 10
99.19187823041037
 20
-155.1419514586104
 10
99.25544024211322
 20
-155.1546983119058
 10
99.30401608845526
 20
-155.1588324264881
 10
99.34432370563268
 20
-155.1588324264881
 10
99.4204603158567
 20
-155.1588324264881
 10
99.43096785708671
 20
-155.1354057771884
 10
99.43096785708671
 20
-155.0699489629686
 10
99.43096785708671
 20
-155.0699489629686
 10
99.43096785708671
 20
-154.640345555958
 10
99.43096785708671
 20
-154.640345555958
 10
99.33364390962839
 20
-154.6806531731354
 10
99.31676294175068
 20
-154.6871988545574
 10
99.2702541526998
 20
-154.7061468797262
 10
99.26594778334324
 20
-154.7271619621863
 10
99.26181366876094
 20
-154.7567897833594
 10
99.2426933888178
 20
-154.7567897833594
 10
99.23425290487894
 20
-154.7567897833594
 10
99.22374536364893
 20
-154.7526556687771
 10
99.21737193700122
 20
-154.7292290194774
 10
99.21737193700122
 20
-154.7292290194774
 10
99.16448972130263
 20
-154.5369926914005
 10
99.16448972130263
 20
-154.5369926914005
 10
99.31038951510297
 20
-154.4901393928011
 10
99.37601858409697
 20
-154.4670572530499
 10
99.43096785708671
 20
-154.4460421705899
 10
99.43096785708671
 20
-154.4460421705899
 10
99.43096785708671
 20
-154.0333197314569
 10
99.43096785708671
 20
-154.0333197314569
 10
99.43096785708671
 20
-154.0333197314569
 10
99.37808564138813
 20
-154.0333197314569
 10
99.37808564138813
 20
-154.0333197314569
 10
99.37808564138813
 20
-154.0333197314569
 10
99.29988197387296
 20
-154.0333197314569
 10
99.29988197387296
 20
-154.0333197314569
 10
99.23218584758779
 20
-154.0333197314569
 10
99.22374536364893
 20
-154.0333197314569
 10
99.18774411582807
 20
-154.0398654128789
 10
99.18774411582807
 20
-154.0398654128789
 10
99.18774411582807
 20
-153.8452175179623
 10
99.18774411582807
 20
-153.8452175179623
 10
99.21530487971006
 20
-153.8514186898358
 10
99.22374536364893
 20
-153.8514186898358
 10
99.29350854722524
 20
-153.8514186898358
 10
99.29350854722524
 20
-153.8514186898358
 10
99.42683374250441
 20
-153.8514186898358
 10
99.42683374250441
 20
-153.8514186898358
 10
99.42683374250441
 20
-153.7814832514852
 10
99.42683374250441
 20
-153.6991454693877
 10
99.424594430439
 20
-153.6950113548054
 10
99.41615394650013
 20
-153.5151773704754
 10
99.41615394650013
 20
-153.495884835758
 10
99.41408688920899
 20
-153.4493760467071
 10
99.41408688920899
 20
-153.4493760467071
 10
99.62992212135988
 20
-153.4579887854202
 10
99.62992212135988
 20
-153.4579887854202
 10
99.6404296625899
 20
-153.4579887854202
 10
99.66161699982419
 20
-153.4600558427114
 10
99.66161699982419
 20
-153.4769368105891
 10
99.66161699982419
 20
-153.495884835758
 10
99.64680308923761
 20
-153.5065646317622
 10
99.62148163742103
 20
-153.5255126569311
 10
99.62148163742103
 20
-153.5765000701128
 10
99.61510821077331
 20
-153.8049099007849
 10
99.61717526806446
 20
-153.8514186898358
 10
99.74619409398707
 20
-153.8514186898358
 10
99.7589409472825
 20
-153.8514186898358
 10
99.8562648947408
 20
-153.8428059511226
 10
99.8562648947408
 20
-153.8428059511226
 10
99.8562648947408
 20
-154.0374538460393
 10
99.8562648947408
 20
-154.0374538460393
 10
99.81819658962878
 20
-154.0353867887481
 10
99.75050046334363
 20
-154.0312526741658
 10
99.61510821077331
 20
-154.0333197314569
 10
99.61510821077331
 20
-154.0333197314569
 10
99.61510821077331
 20
-154.371972617657
 10
99.61510821077331
 20
-154.371972617657
 10
99.67005748376305
 20
-154.3485459683573
 10
99.73568655275706
 20
-154.3209852044753
 10
99.78426239909908
 20
-154.2979030647242
 10
99.78426239909908
 20
-154.2979030647242
 10
99.78426239909908
 20
-154.1201361376853
 10
99.78426239909908
 20
-154.1201361376853
 10
99.89846731443511
 20
-154.1328829909807
 10
100.0169785991277
 20
-154.1328829909807
 10
100.1334228265292
 20
-154.1328829909807
 10
100.1099961772294
 20
-154.0374538460393
 10
100.0826076681217
 20
-153.9551160639418
 10
100.0190456564189
 20
-153.8217908686626
 10
99.97460392465914
 20
-153.8238579259538
 10
99.89226614256167
 20
-153.8279920405361
 10
99.85402558267539
 20
-153.8304036073757
 10
99.85402558267539
 20
-153.8304036073757
 10
99.85402558267539
 20
-153.6505696230457
 10
99.85402558267539
 20
-153.6505696230457
 10
99.97891029401569
 20
-153.6588378522103
 10
100.152370851698
 20
-153.6629719667926
 10
100.2348808885698
 20
-153.6629719667926
 10
100.2348808885698
 20
-153.6629719667926
 10
100.3173909254415
 20
-153.6629719667926
 10
100.3173909254415
 20
-153.6629719667926
 10
100.3173909254415
 20
-153.5003634598888
 10
100.3173909254415
 20
-153.4896836638845
 10
100.3153238681503
 20
-153.4345621361205
 10
100.3153238681503
 20
-153.4345621361205
 10
100.5395995842401
 20
-153.4600558427114
 10
100.5395995842401
 20
-153.4600558427114
 10
100.5437336988224
 20
-153.4600558427114
 10
100.5649210360567
 20
-153.4621229000025
 10
100.5649210360567
 20
-153.4790038678803
 10
100.5649210360567
 20
-153.4938177784668
 10
100.5544134948267
 20
-153.50243051718
 10
100.5268527309447
 20
-153.5172444277665
 10
100.520479304297
 20
-153.5827012419863
 10
100.5184122470058
 20
-153.6040608339948
 10
100.5184122470058
 20
-153.6629719667926
 10
100.5184122470058
 20
-153.6629719667926
 10
100.6134968823987
 20
-153.6629719667926
 10
100.6134968823987
 20
-153.6629719667926
 10
100.6960069192704
 20
-153.6629719667926
 10
100.8694674769528
 20
-153.6588378522103
 10
100.9943521882931
 20
-153.6505696230457
 10
100.9943521882931
 20
-153.6505696230457
 10
100.9943521882931
 20
-153.8304036073757
 10
100.9943521882931
 20
-153.8304036073757
 10
100.9647243671199
 20
-153.8279920405361
 10
100.8462130824273
 20
-153.8238579259538
 10
100.8060777200242
 20
-153.8217908686626
 10
100.7912638094376
 20
-153.8724337722958
 10
100.7575018736822
 20
-153.9847438851149
 10
100.6918728046881
 20
-154.1242702522676
 10
100.7340752243825
 20
-154.1242702522676
 10
101.0112331561708
 20
-154.1053222270987
 10
101.0725558558083
 20
-154.1032551698075
 10
101.0725558558083
 20
-154.1032551698075
 10
101.0725558558083
 20
-154.2872232687199
 10
101.0725558558083
 20
-154.2872232687199
 10
101.0431002894094
 20
-154.2872232687199
 10
101.0260470667574
 20
-154.2830891541376
 10
100.8632663050793
 20
-154.2830891541376
 97
        0
 97
        0
 92
        1
 93
        1
 72
     4
 94
        3
 73
     0
 74
     1
 95
       20
 96
       16
 40
0.0
 40
0.0
 40
0.0
 40
0.0
 40
1.0
 40
1.0
 40
1.0
 40
2.0
 40
2.0
 40
2.0
 40
3.0
 40
3.0
 40
3.0
 40
4.0
 40
4.0
 40
4.0
 40
5.0
 40
5.0
 40
5.0
 40
5.0
 10
100.2348808885698
 20
-153.8176567540803
 10
100.2348808885698
 20
-153.8176567540803
 10
100.2031860101055
 20
-153.8176567540803
 10
100.2031860101055
 20
-153.8176567540803
 10
100.2496947991563
 20
-153.9168755040555
 10
100.2813896776206
 20
-153.9974907384104
 10
100.3153238681503
 20
-154.1242702522676
 10
100.3153238681503
 20
-154.1242702522676
 10
100.5225463615881
 20
-154.1242702522676
 10
100.5225463615881
 20
-154.1242702522676
 10
100.5544134948267
 20
-154.0312526741658
 10
100.5776678893521
 20
-153.9465033252287
 10
100.6009222838776
 20
-153.8176567540803
 10
100.6009222838776
 20
-153.8176567540803
 10
100.2348808885698
 20
-153.8176567540803
 10
100.2348808885698
 20
-153.8176567540803
 97
        0
 97
        0
 92
        1
 93
        1
 72
     4
 94
        3
 73
     0
 74
     1
 95
       17
 96
       13
 40
0.0
 40
0.0
 40
0.0
 40
0.0
 40
1.0
 40
1.0
 40
1.0
 40
2.0
 40
2.0
 40
2.0
 40
3.0
 40
3.0
 40
3.0
 40
4.0
 40
4.0
 40
4.0
 40
4.0
 10
100.2984429002726
 20
-154.66790631984
 10
100.2813896776206
 20
-154.6975341410131
 10
100.2307467739875
 20
-154.7905517191149
 10
100.2200669779832
 20
-154.8098442538323
 10
100.4104085035432
 20
-154.8690998961786
 10
100.4315958407775
 20
-154.875301068052
 10
100.5035983364192
 20
-154.902861831934
 10
100.558547609409
 20
-154.8160454257057
 10
100.5818020039344
 20
-154.7419758727729
 10
100.596615914521
 20
-154.66790631984
 10
100.596615914521
 20
-154.66790631984
 10
100.2984429002726
 20
-154.66790631984
 10
100.2984429002726
 20
-154.66790631984
 97
        0
 97
        0
 75
     2
 76
     1
 98
        0
  0
SPLINE
  5
1A1
330
199
100
AcDbEntity
  8
_U+30EC_U+30A4_U+30E4_U+30FC 1
370
     0
100
AcDbSpline
210
0.0
220
0.0
230
1.0
 70
    11
 71
     3
 72
   203
 73
   199
 74
     0
 42
0.0000000001
 43
0.0000000001
 12
1.0
 22
0.0
 32
0.0
 13
1.0
 23
0.0
 33
0.0
 40
0.0
 40
0.0
 40
0.0
 40
0.0
 40
1.0
 40
1.0
 40
1.0
 40
2.0
 40
2.0
 40
2.0
 40
3.0
 40
3.0
 40
3.0
 40
4.0
 40
4.0
 40
4.0
 40
5.0
 40
5.0
 40
5.0
 40
6.0
 40
6.0
 40
6.0
 40
7.0
 40
7.0
 40
7.0
 40
8.0
 40
8.0
 40
8.0
 40
9.0
 40
9.0
 40
9.0
 40
10.0
 40
10.0
 40
10.0
 40
11.0
 40
11.0
 40
11.0
 40
12.0
 40
12.0
 40
12.0
 40
13.0
 40
13.0
 40
13.0
 40
14.0
 40
14.0
 40
14.0
 40
15.0
 40
15.0
 40
15.0
 40
16.0
 40
16.0
 40
16.0
 40
17.0
 40
17.0
 40
17.0
 40
18.0
 40
18.0
 40
18.0
 40
19.0
 40
19.0
 40
19.0
 40
20.0
 40
20.0
 40
20.0
 40
21.0
 40
21.0
 40
21.0
 40
22.0
 40
22.0
 40
22.0
 40
23.0
 40
23.0
 40
23.0
 40
24.0
 40
24.0
 40
24.0
 40
25.0
 40
25.0
 40
25.0
 40
26.0
 40
26.0
 40
26.0
 40
27.0
 40
27.0
 40
27.0
 40
28.0
 40
28.0
 40
28.0
 40
29.0
 40
29.0
 40
29.0
 40
30.0
 40
30.0
 40
30.0
 40
31.0
 40
31.0
 40
31.0
 40
32.0
 40
32.0
 40
32.0
 40
33.0
 40
33.0
 40
33.0
 40
34.0
 40
34.0
 40
34.0
 40
35.0
 40
35.0
 40
35.0
 40
36.0
 40
36.0
 40
36.0
 40
37.0
 40
37.0
 40
37.0
 40
38.0
 40
38.0
 40
38.0
 40
39.0
 40
39.0
 40
39.0
 40
40.0
 40
40.0
 40
40.0
 40
41.0
 40
41.0
 40
41.0
 40
42.0
 40
42.0
 40
42.0
 40
43.0
 40
43.0
 40
43.0
 40
44.0
 40
44.0
 40
44.0
 40
45.0
 40
45.0
 40
45.0
 40
46.0
 40
46.0
 40
46.0
 40
47.0
 40
47.0
 40
47.0
 40
48.0
 40
48.0
 40
48.0
 40
49.0
 40
49.0
 40
49.0
 40
50.0
 40
50.0
 40
50.0
 40
51.0
 40
51.0
 40
51.0
 40
52.0
 40
52.0
 40
52.0
 40
53.0
 40
53.0
 40
53.0
 40
54.0
 40
54.0
 40
54.0
 40
55.0
 40
55.0
 40
55.0
 40
56.0
 40
56.0
 40
56.0
 40
57.0
 40
57.0
 40
57.0
 40
58.0
 40
58.0
 40
58.0
 40
59.0
 40
59.0
 40
59.0
 40
60.0
 40
60.0
 40
60.0
 40
61.0
 40
61.0
 40
61.0
 40
62.0
 40
62.0
 40
62.0
 40
63.0
 40
63.0
 40
63.0
 40
64.0
 40
64.0
 40
64.0
 40
65.0
 40
65.0
 40
65.0
 40
66.0
 40
66.0
 40
66.0
 40
66.0
 10
102.5546359335627
 20
-154.3506130256485
 30
0.0
 10
102.5546359335627
 20
-154.3506130256485
 30
0.0
 10
101.9961859554037
 20
-154.3506130256485
 30
0.0
 10
101.9961859554037
 20
-154.3506130256485
 30
0.0
 10
101.9855061593995
 20
-154.3950547574082
 30
0.0
 10
101.9770656754606
 20
-154.4267496358725
 30
0.0
 10
101.9644910769394
 20
-154.4649901957588
 30
0.0
 10
101.989812528756
 20
-154.4649901957588
 30
0.0
 10
102.0046264393426
 20
-154.4670572530499
 30
0.0
 10
102.0109998659903
 20
-154.4670572530499
 30
0.0
 10
102.0109998659903
 20
-154.4670572530499
 30
0.0
 10
102.1992743342592
 20
-154.4670572530499
 30
0.0
 10
102.1992743342592
 20
-154.4670572530499
 30
0.0
 10
102.1992743342592
 20
-154.4670572530499
 30
0.0
 10
102.5737562135059
 20
-154.4670572530499
 30
0.0
 10
102.5737562135059
 20
-154.4670572530499
 30
0.0
 10
102.624399117139
 20
-154.4670572530499
 30
0.0
 10
102.9079304755751
 20
-154.4543103997545
 30
0.0
 10
102.9396253540394
 20
-154.4543103997545
 30
0.0
 10
102.9375582967483
 20
-154.4818711636365
 30
0.0
 10
102.9354912394571
 20
-154.5008191888054
 30
0.0
 10
102.9354912394571
 20
-154.5304470099785
 30
0.0
 10
102.9332519273917
 20
-154.5621418884428
 30
0.0
 10
102.9332519273917
 20
-154.6975341410131
 30
0.0
 10
102.9332519273917
 20
-154.7250949048951
 30
0.0
 10
102.9332519273917
 20
-154.7250949048951
 30
0.0
 10
102.9332519273917
 20
-154.9703857034449
 30
0.0
 10
102.9332519273917
 20
-154.9703857034449
 30
0.0
 10
102.9332519273917
 20
-155.0148274352046
 30
0.0
 10
102.9375582967483
 20
-155.2115423874124
 30
0.0
 10
102.9418646661048
 20
-155.364160117409
 30
0.0
 10
102.9418646661048
 20
-155.364160117409
 30
0.0
 10
102.7153496379496
 20
-155.364160117409
 30
0.0
 10
102.7153496379496
 20
-155.364160117409
 30
0.0
 10
102.7153496379496
 20
-155.364160117409
 30
0.0
 10
102.7175889500151
 20
-155.330053672105
 30
0.0
 10
102.7175889500151
 20
-155.330053672105
 30
0.0
 10
102.7175889500151
 20
-155.330053672105
 30
0.0
 10
102.0151339805726
 20
-155.330053672105
 30
0.0
 10
102.0151339805726
 20
-155.330053672105
 30
0.0
 10
102.0151339805726
 20
-155.330053672105
 30
0.0
 10
102.017373292638
 20
-155.364160117409
 30
0.0
 10
102.017373292638
 20
-155.364160117409
 30
0.0
 10
102.017373292638
 20
-155.364160117409
 30
0.0
 10
101.799471003196
 20
-155.364160117409
 30
0.0
 10
101.799471003196
 20
-155.364160117409
 30
0.0
 10
101.8036051177783
 20
-155.309038589645
 30
0.0
 10
101.8036051177783
 20
-155.2962917363496
 30
0.0
 10
101.809978544426
 20
-155.1819145662392
 30
0.0
 10
101.8120456017171
 20
-155.1546983119058
 30
0.0
 10
101.8142849137825
 20
-155.0213731166266
 30
0.0
 10
101.8142849137825
 20
-155.0024250914577
 30
0.0
 10
101.8142849137825
 20
-155.0024250914577
 30
0.0
 10
101.8142849137825
 20
-154.799164457828
 30
0.0
 10
101.8142849137825
 20
-154.799164457828
 30
0.0
 10
101.6745862918557
 20
-155.0489338805086
 30
0.0
 10
101.5054321035299
 20
-155.1798475089481
 30
0.0
 10
101.3996676721327
 20
-155.2456488327164
 30
0.0
 10
101.3996676721327
 20
-155.2456488327164
 30
0.0
 10
101.2260348596761
 20
-155.1057779560152
 30
0.0
 10
101.2260348596761
 20
-155.1057779560152
 30
0.0
 10
101.3149183231956
 20
-155.0551350523821
 30
0.0
 10
101.4587510597048
 20
-154.9683186461538
 30
0.0
 10
101.5963826243405
 20
-154.7736707512371
 30
0.0
 10
101.6873331451511
 20
-154.6468912373799
 30
0.0
 10
101.7529622141451
 20
-154.5028862460965
 30
0.0
 10
101.7867241499006
 20
-154.3506130256485
 30
0.0
 10
101.5583143192285
 20
-154.3526800829396
 30
0.0
 10
101.3784803348984
 20
-154.3592257643616
 30
0.0
 10
101.2832234447313
 20
-154.3612928216527
 30
0.0
 10
101.2832234447313
 20
-154.3612928216527
 30
0.0
 10
101.2832234447313
 20
-154.1835258946138
 30
0.0
 10
101.2832234447313
 20
-154.1835258946138
 30
0.0
 10
101.479938396939
 20
-154.1900715760358
 30
0.0
 10
101.7634697553751
 20
-154.1942056906181
 30
0.0
 10
101.913675918532
 20
-154.1942056906181
 30
0.0
 10
101.913675918532
 20
-154.1942056906181
 30
0.0
 10
102.1272718386175
 20
-154.1942056906181
 30
0.0
 10
102.1272718386175
 20
-154.1942056906181
 30
0.0
 10
102.1272718386175
 20
-154.1942056906181
 30
0.0
 10
102.1272718386175
 20
-154.0863742019298
 30
0.0
 10
102.1272718386175
 20
-154.0863742019298
 30
0.0
 10
102.1272718386175
 20
-154.0863742019298
 30
0.0
 10
101.9813720448172
 20
-154.0863742019298
 30
0.0
 10
101.9813720448172
 20
-154.0863742019298
 30
0.0
 10
101.8120456017171
 20
-154.0863742019298
 30
0.0
 10
101.6428914133914
 20
-154.0905083165121
 30
0.0
 10
101.4758042823567
 20
-154.0967094883856
 30
0.0
 10
101.4758042823567
 20
-154.0967094883856
 30
0.0
 10
101.4758042823567
 20
-153.9254882427686
 30
0.0
 10
101.4758042823567
 20
-153.9254882427686
 30
0.0
 10
101.6301445600959
 20
-153.9361680387729
 30
0.0
 10
101.8163519710737
 20
-153.9361680387729
 30
0.0
 10
101.9813720448172
 20
-153.9361680387729
 30
0.0
 10
101.9813720448172
 20
-153.9361680387729
 30
0.0
 10
102.1272718386175
 20
-153.9361680387729
 30
0.0
 10
102.1272718386175
 20
-153.9361680387729
 30
0.0
 10
102.1272718386175
 20
-153.9361680387729
 30
0.0
 10
102.1272718386175
 20
-153.8176567540803
 30
0.0
 10
102.1272718386175
 20
-153.8176567540803
 30
0.0
 10
102.1272718386175
 20
-153.8176567540803
 30
0.0
 10
101.9961859554037
 20
-153.8176567540803
 30
0.0
 10
101.9961859554037
 20
-153.8176567540803
 30
0.0
 10
101.9496771663529
 20
-153.8176567540803
 30
0.0
 10
101.7465887874974
 20
-153.8259249832449
 30
0.0
 10
101.7042141130288
 20
-153.8259249832449
 30
0.0
 10
101.5011257341733
 20
-153.8304036073757
 30
0.0
 10
101.4249891239493
 20
-153.8324706646669
 30
0.0
 10
101.3467854564341
 20
-153.834537721958
 30
0.0
 10
101.3467854564341
 20
-153.834537721958
 30
0.0
 10
101.3467854564341
 20
-153.6505696230457
 30
0.0
 10
101.3467854564341
 20
-153.6505696230457
 30
0.0
 10
101.4609903717702
 20
-153.6588378522103
 30
0.0
 10
101.5054321035299
 20
-153.6588378522103
 30
0.0
 10
101.8883544667154
 20
-153.6674505909234
 30
0.0
 10
101.8247924550126
 20
-153.572021445982
 30
0.0
 10
101.7972316911306
 20
-153.5448051916485
 30
0.0
 10
101.761402698084
 20
-153.5086316890534
 30
0.0
 10
101.761402698084
 20
-153.5086316890534
 30
0.0
 10
101.9369303130574
 20
-153.4262939069559
 30
0.0
 10
101.9369303130574
 20
-153.4262939069559
 30
0.0
 10
101.9770656754606
 20
-153.4621229000025
 30
0.0
 10
102.0215074072203
 20
-153.5044975744711
 30
0.0
 10
102.0955769601532
 20
-153.6143961204506
 30
0.0
 10
102.0955769601532
 20
-153.6143961204506
 30
0.0
 10
101.9813720448172
 20
-153.6695176482146
 30
0.0
 10
101.9813720448172
 20
-153.6695176482146
 30
0.0
 10
101.9813720448172
 20
-153.6695176482146
 30
0.0
 10
101.9918795860472
 20
-153.6695176482146
 30
0.0
 10
101.9918795860472
 20
-153.6695176482146
 30
0.0
 10
101.9918795860472
 20
-153.6695176482146
 30
0.0
 10
102.5145005711596
 20
-153.6695176482146
 30
0.0
 10
102.5145005711596
 20
-153.6695176482146
 30
0.0
 10
102.5145005711596
 20
-153.6695176482146
 30
0.0
 10
102.4192436809924
 20
-153.6250759164548
 30
0.0
 10
102.4192436809924
 20
-153.6250759164548
 30
0.0
 10
102.4468044448744
 20
-153.5868353565686
 30
0.0
 10
102.5038207751553
 20
-153.5065646317622
 30
0.0
 10
102.5186346857419
 20
-153.4324950788294
 30
0.0
 10
102.5186346857419
 20
-153.4324950788294
 30
0.0
 10
102.7324028606016
 20
-153.495884835758
 30
0.0
 10
102.7324028606016
 20
-153.495884835758
 30
0.0
 10
102.7408433445405
 20
-153.4982964025976
 30
0.0
 10
102.7620306817748
 20
-153.5086316890534
 30
0.0
 10
102.7620306817748
 20
-153.529991281062
 30
0.0
 10
102.7620306817748
 20
-153.5678873313997
 30
0.0
 10
102.6964016127808
 20
-153.5678873313997
 30
0.0
 10
102.6772813328376
 20
-153.5678873313997
 30
0.0
 10
102.6667737916076
 20
-153.5868353565686
 30
0.0
 10
102.6435193970822
 20
-153.627142973746
 30
0.0
 10
102.613891575909
 20
-153.6674505909234
 30
0.0
 10
103.0136949069723
 20
-153.6609049095015
 30
0.0
 10
103.0433227281454
 20
-153.6588378522103
 30
0.0
 10
103.1194593383695
 20
-153.6526366803369
 30
0.0
 10
103.1194593383695
 20
-153.6526366803369
 30
0.0
 10
103.1194593383695
 20
-153.834537721958
 30
0.0
 10
103.1194593383695
 20
-153.834537721958
 30
0.0
 10
103.1005113132006
 20
-153.834537721958
 30
0.0
 10
103.0750176066097
 20
-153.8324706646669
 30
0.0
 10
102.8550482598765
 20
-153.8238579259538
 30
0.0
 10
102.8042331014691
 20
-153.8217908686626
 30
0.0
 10
102.5842637547359
 20
-153.8176567540803
 30
0.0
 10
102.5398220229762
 20
-153.8176567540803
 30
0.0
 10
102.5398220229762
 20
-153.8176567540803
 30
0.0
 10
102.3239867908253
 20
-153.8176567540803
 30
0.0
 10
102.3239867908253
 20
-153.8176567540803
 30
0.0
 10
102.3239867908253
 20
-153.8176567540803
 30
0.0
 10
102.3239867908253
 20
-153.9361680387729
 30
0.0
 10
102.3239867908253
 20
-153.9361680387729
 30
0.0
 10
102.3239867908253
 20
-153.9361680387729
 30
0.0
 10
102.4974473485076
 20
-153.9361680387729
 30
0.0
 10
102.4974473485076
 20
-153.9361680387729
 30
0.0
 10
102.6604003649599
 20
-153.9361680387729
 30
0.0
 10
102.85074189052
 20
-153.9361680387729
 30
0.0
 10
103.0073214803246
 20
-153.9254882427686
 30
0.0
 10
103.0073214803246
 20
-153.9254882427686
 30
0.0
 10
103.0073214803246
 20
-154.0967094883856
 30
0.0
 10
103.0073214803246
 20
-154.0967094883856
 30
0.0
 10
102.7978596748214
 20
-154.088441259221
 30
0.0
 10
102.6011447226136
 20
-154.0863742019298
 30
0.0
 10
102.4974473485076
 20
-154.0863742019298
 30
0.0
 10
102.4974473485076
 20
-154.0863742019298
 30
0.0
 10
102.3239867908253
 20
-154.0863742019298
 30
0.0
 10
102.3239867908253
 20
-154.0863742019298
 30
0.0
 10
102.3239867908253
 20
-154.0863742019298
 30
0.0
 10
102.3239867908253
 20
-154.1942056906181
 30
0.0
 10
102.3239867908253
 20
-154.1942056906181
 30
0.0
 10
102.3239867908253
 20
-154.1942056906181
 30
0.0
 10
102.5546359335627
 20
-154.1942056906181
 30
0.0
 10
102.5546359335627
 20
-154.1942056906181
 30
0.0
 10
102.6879611288419
 20
-154.1942056906181
 30
0.0
 10
102.9756266018603
 20
-154.1900715760358
 30
0.0
 10
103.1850884073635
 20
-154.1835258946138
 30
0.0
 10
103.1850884073635
 20
-154.1835258946138
 30
0.0
 10
103.1850884073635
 20
-154.3612928216527
 30
0.0
 10
103.1850884073635
 20
-154.3612928216527
 30
0.0
 10
102.992507569738
 20
-154.3547471402308
 30
0.0
 10
102.679520644903
 20
-154.3506130256485
 30
0.0
 10
102.5546359335627
 20
-154.3506130256485
 30
0.0
  0
POLYLINE
  5
1A2
330
199
100
AcDbEntity
  8
_U+30EC_U+30A4_U+30E4_U+30FC 1
370
     0
100
AcDb2dPolyline
 66
     1
 10
0.0
 20
0.0
 30
0.0
  0
VERTEX
  5
1A3
330
1A2
100
AcDbEntity
  8
_U+30EC_U+30A4_U+30E4_U+30FC 1
370
     0
100
AcDbVertex
100
AcDb2dVertex
 10
102.7196560073062
 20
-154.6065836202025
 30
0.0
  0
VERTEX
  5
1A4
330
1A2
100
AcDbEntity
  8
_U+30EC_U+30A4_U+30E4_U+30FC 1
370
     0
100
AcDbVertex
100
AcDb2dVertex
 10
102.0130669232815
 20
-154.6065836202025
 30
0.0
  0
VERTEX
  5
1A5
330
1A2
100
AcDbEntity
  8
_U+30EC_U+30A4_U+30E4_U+30FC 1
370
     0
100
AcDbVertex
100
AcDb2dVertex
 10
102.0130669232815
 20
-154.7144151088908
 30
0.0
  0
VERTEX
  5
1A6
330
1A2
100
AcDbEntity
  8
_U+30EC_U+30A4_U+30E4_U+30FC 1
370
     0
100
AcDbVertex
100
AcDb2dVertex
 10
102.7196560073062
 20
-154.7144151088908
 30
0.0
  0
VERTEX
  5
1A7
330
1A2
100
AcDbEntity
  8
_U+30EC_U+30A4_U+30E4_U+30FC 1
370
     0
100
AcDbVertex
100
AcDb2dVertex
 10
102.7196560073062
 20
-154.6065836202025
 30
0.0
  0
SEQEND
  5
1A8
330
1A2
100
AcDbEntity
  8
_U+30EC_U+30A4_U+30E4_U+30FC 1
370
     0
  0
POLYLINE
  5
1A9
330
199
100
AcDbEntity
  8
_U+30EC_U+30A4_U+30E4_U+30FC 1
370
     0
100
AcDb2dPolyline
 66
     1
 10
0.0
 20
0.0
 30
0.0
  0
VERTEX
  5
1AA
330
1A9
100
AcDbEntity
  8
_U+30EC_U+30A4_U+30E4_U+30FC 1
370
     0
100
AcDbVertex
100
AcDb2dVertex
 10
102.7196560073062
 20
-154.8394720750054
 30
0.0
  0
VERTEX
  5
1AB
330
1A9
100
AcDbEntity
  8
_U+30EC_U+30A4_U+30E4_U+30FC 1
370
     0
100
AcDbVertex
100
AcDb2dVertex
 10
102.0130669232815
 20
-154.8394720750054
 30
0.0
  0
VERTEX
  5
1AC
330
1A9
100
AcDbEntity
  8
_U+30EC_U+30A4_U+30E4_U+30FC 1
370
     0
100
AcDbVertex
100
AcDb2dVertex
 10
102.0130669232815
 20
-154.9535047355672
 30
0.0
  0
VERTEX
  5
1AD
330
1A9
100
AcDbEntity
  8
_U+30EC_U+30A4_U+30E4_U+30FC 1
370
     0
100
AcDbVertex
100
AcDb2dVertex
 10
102.7196560073062
 20
-154.9535047355672
 30
0.0
  0
VERTEX
  5
1AE
330
1A9
100
AcDbEntity
  8
_U+30EC_U+30A4_U+30E4_U+30FC 1
370
     0
100
AcDbVertex
100
AcDb2dVertex
 10
102.7196560073062
 20
-154.8394720750054
 30
0.0
  0
SEQEND
  5
1AF
330
1A9
100
AcDbEntity
  8
_U+30EC_U+30A4_U+30E4_U+30FC 1
370
     0
  0
POLYLINE
  5
1B0
330
199
100
AcDbEntity
  8
_U+30EC_U+30A4_U+30E4_U+30FC 1
370
     0
100
AcDb2dPolyline
 66
     1
 10
0.0
 20
0.0
 30
0.0
  0
VERTEX
  5
1B1
330
1B0
100
AcDbEntity
  8
_U+30EC_U+30A4_U+30E4_U+30FC 1
370
     0
100
AcDbVertex
100
AcDb2dVertex
 10
102.7196560073062
 20
-155.082695816264
 30
0.0
  0
VERTEX
  5
1B2
330
1B0
100
AcDbEntity
  8
_U+30EC_U+30A4_U+30E4_U+30FC 1
370
     0
100
AcDbVertex
100
AcDb2dVertex
 10
102.0130669232815
 20
-155.082695816264
 30
0.0
  0
VERTEX
  5
1B3
330
1B0
100
AcDbEntity
  8
_U+30EC_U+30A4_U+30E4_U+30FC 1
370
     0
100
AcDbVertex
100
AcDb2dVertex
 10
102.0130669232815
 20
-155.1967284768258
 30
0.0
  0
VERTEX
  5
1B4
330
1B0
100
AcDbEntity
  8
_U+30EC_U+30A4_U+30E4_U+30FC 1
370
     0
100
AcDbVertex
100
AcDb2dVertex
 10
102.7196560073062
 20
-155.1967284768258
 30
0.0
  0
VERTEX
  5
1B5
330
1B0
100
AcDbEntity
  8
_U+30EC_U+30A4_U+30E4_U+30FC 1
370
     0
100
AcDbVertex
100
AcDb2dVertex
 10
102.7196560073062
 20
-155.082695816264
 30
0.0
  0
SEQEND
  5
1B6
330
1B0
100
AcDbEntity
  8
_U+30EC_U+30A4_U+30E4_U+30FC 1
370
     0
  0
HATCH
  5
1B7
330
199
100
AcDbEntity
  8
_U+30EC_U+30A4_U+30E4_U+30FC 1
 62
   179
420
  2234388
100
AcDbHatch
 10
0.0
 20
0.0
 30
0.0
210
0.0
220
0.0
230
1.0
  2
SOLID
 70
     1
 71
     0
 91
        4
 92
        1
 93
        1
 72
     4
 94
        3
 73
     0
 74
     1
 95
      203
 96
      199
 40
0.0
 40
0.0
 40
0.0
 40
0.0
 40
1.0
 40
1.0
 40
1.0
 40
2.0
 40
2.0
 40
2.0
 40
3.0
 40
3.0
 40
3.0
 40
4.0
 40
4.0
 40
4.0
 40
5.0
 40
5.0
 40
5.0
 40
6.0
 40
6.0
 40
6.0
 40
7.0
 40
7.0
 40
7.0
 40
8.0
 40
8.0
 40
8.0
 40
9.0
 40
9.0
 40
9.0
 40
10.0
 40
10.0
 40
10.0
 40
11.0
 40
11.0
 40
11.0
 40
12.0
 40
12.0
 40
12.0
 40
13.0
 40
13.0
 40
13.0
 40
14.0
 40
14.0
 40
14.0
 40
15.0
 40
15.0
 40
15.0
 40
16.0
 40
16.0
 40
16.0
 40
17.0
 40
17.0
 40
17.0
 40
18.0
 40
18.0
 40
18.0
 40
19.0
 40
19.0
 40
19.0
 40
20.0
 40
20.0
 40
20.0
 40
21.0
 40
21.0
 40
21.0
 40
22.0
 40
22.0
 40
22.0
 40
23.0
 40
23.0
 40
23.0
 40
24.0
 40
24.0
 40
24.0
 40
25.0
 40
25.0
 40
25.0
 40
26.0
 40
26.0
 40
26.0
 40
27.0
 40
27.0
 40
27.0
 40
28.0
 40
28.0
 40
28.0
 40
29.0
 40
29.0
 40
29.0
 40
30.0
 40
30.0
 40
30.0
 40
31.0
 40
31.0
 40
31.0
 40
32.0
 40
32.0
 40
32.0
 40
33.0
 40
33.0
 40
33.0
 40
34.0
 40
34.0
 40
34.0
 40
35.0
 40
35.0
 40
35.0
 40
36.0
 40
36.0
 40
36.0
 40
37.0
 40
37.0
 40
37.0
 40
38.0
 40
38.0
 40
38.0
 40
39.0
 40
39.0
 40
39.0
 40
40.0
 40
40.0
 40
40.0
 40
41.0
 40
41.0
 40
41.0
 40
42.0
 40
42.0
 40
42.0
 40
43.0
 40
43.0
 40
43.0
 40
44.0
 40
44.0
 40
44.0
 40
45.0
 40
45.0
 40
45.0
 40
46.0
 40
46.0
 40
46.0
 40
47.0
 40
47.0
 40
47.0
 40
48.0
 40
48.0
 40
48.0
 40
49.0
 40
49.0
 40
49.0
 40
50.0
 40
50.0
 40
50.0
 40
51.0
 40
51.0
 40
51.0
 40
52.0
 40
52.0
 40
52.0
 40
53.0
 40
53.0
 40
53.0
 40
54.0
 40
54.0
 40
54.0
 40
55.0
 40
55.0
 40
55.0
 40
56.0
 40
56.0
 40
56.0
 40
57.0
 40
57.0
 40
57.0
 40
58.0
 40
58.0
 40
58.0
 40
59.0
 40
59.0
 40
59.0
 40
60.0
 40
60.0
 40
60.0
 40
61.0
 40
61.0
 40
61.0
 40
62.0
 40
62.0
 40
62.0
 40
63.0
 40
63.0
 40
63.0
 40
64.0
 40
64.0
 40
64.0
 40
65.0
 40
65.0
 40
65.0
 40
66.0
 40
66.0
 40
66.0
 40
66.0
 10
102.5546359335627
 20
-154.3506130256485
 10
102.5546359335627
 20
-154.3506130256485
 10
101.9961859554037
 20
-154.3506130256485
 10
101.9961859554037
 20
-154.3506130256485
 10
101.9855061593995
 20
-154.3950547574082
 10
101.9770656754606
 20
-154.4267496358725
 10
101.9644910769394
 20
-154.4649901957588
 10
101.989812528756
 20
-154.4649901957588
 10
102.0046264393426
 20
-154.4670572530499
 10
102.0109998659903
 20
-154.4670572530499
 10
102.0109998659903
 20
-154.4670572530499
 10
102.1992743342592
 20
-154.4670572530499
 10
102.1992743342592
 20
-154.4670572530499
 10
102.1992743342592
 20
-154.4670572530499
 10
102.5737562135059
 20
-154.4670572530499
 10
102.5737562135059
 20
-154.4670572530499
 10
102.624399117139
 20
-154.4670572530499
 10
102.9079304755751
 20
-154.4543103997545
 10
102.9396253540394
 20
-154.4543103997545
 10
102.9375582967483
 20
-154.4818711636365
 10
102.9354912394571
 20
-154.5008191888054
 10
102.9354912394571
 20
-154.5304470099785
 10
102.9332519273917
 20
-154.5621418884428
 10
102.9332519273917
 20
-154.6975341410131
 10
102.9332519273917
 20
-154.7250949048951
 10
102.9332519273917
 20
-154.7250949048951
 10
102.9332519273917
 20
-154.9703857034449
 10
102.9332519273917
 20
-154.9703857034449
 10
102.9332519273917
 20
-155.0148274352046
 10
102.9375582967483
 20
-155.2115423874124
 10
102.9418646661048
 20
-155.364160117409
 10
102.9418646661048
 20
-155.364160117409
 10
102.7153496379496
 20
-155.364160117409
 10
102.7153496379496
 20
-155.364160117409
 10
102.7153496379496
 20
-155.364160117409
 10
102.7175889500151
 20
-155.330053672105
 10
102.7175889500151
 20
-155.330053672105
 10
102.7175889500151
 20
-155.330053672105
 10
102.0151339805726
 20
-155.330053672105
 10
102.0151339805726
 20
-155.330053672105
 10
102.0151339805726
 20
-155.330053672105
 10
102.017373292638
 20
-155.364160117409
 10
102.017373292638
 20
-155.364160117409
 10
102.017373292638
 20
-155.364160117409
 10
101.799471003196
 20
-155.364160117409
 10
101.799471003196
 20
-155.364160117409
 10
101.8036051177783
 20
-155.309038589645
 10
101.8036051177783
 20
-155.2962917363496
 10
101.809978544426
 20
-155.1819145662392
 10
101.8120456017171
 20
-155.1546983119058
 10
101.8142849137825
 20
-155.0213731166266
 10
101.8142849137825
 20
-155.0024250914577
 10
101.8142849137825
 20
-155.0024250914577
 10
101.8142849137825
 20
-154.799164457828
 10
101.8142849137825
 20
-154.799164457828
 10
101.6745862918557
 20
-155.0489338805086
 10
101.5054321035299
 20
-155.1798475089481
 10
101.3996676721327
 20
-155.2456488327164
 10
101.3996676721327
 20
-155.2456488327164
 10
101.2260348596761
 20
-155.1057779560152
 10
101.2260348596761
 20
-155.1057779560152
 10
101.3149183231956
 20
-155.0551350523821
 10
101.4587510597048
 20
-154.9683186461538
 10
101.5963826243405
 20
-154.7736707512371
 10
101.6873331451511
 20
-154.6468912373799
 10
101.7529622141451
 20
-154.5028862460965
 10
101.7867241499006
 20
-154.3506130256485
 10
101.5583143192285
 20
-154.3526800829396
 10
101.3784803348984
 20
-154.3592257643616
 10
101.2832234447313
 20
-154.3612928216527
 10
101.2832234447313
 20
-154.3612928216527
 10
101.2832234447313
 20
-154.1835258946138
 10
101.2832234447313
 20
-154.1835258946138
 10
101.479938396939
 20
-154.1900715760358
 10
101.7634697553751
 20
-154.1942056906181
 10
101.913675918532
 20
-154.1942056906181
 10
101.913675918532
 20
-154.1942056906181
 10
102.1272718386175
 20
-154.1942056906181
 10
102.1272718386175
 20
-154.1942056906181
 10
102.1272718386175
 20
-154.1942056906181
 10
102.1272718386175
 20
-154.0863742019298
 10
102.1272718386175
 20
-154.0863742019298
 10
102.1272718386175
 20
-154.0863742019298
 10
101.9813720448172
 20
-154.0863742019298
 10
101.9813720448172
 20
-154.0863742019298
 10
101.8120456017171
 20
-154.0863742019298
 10
101.6428914133914
 20
-154.0905083165121
 10
101.4758042823567
 20
-154.0967094883856
 10
101.4758042823567
 20
-154.0967094883856
 10
101.4758042823567
 20
-153.9254882427686
 10
101.4758042823567
 20
-153.9254882427686
 10
101.6301445600959
 20
-153.9361680387729
 10
101.8163519710737
 20
-153.9361680387729
 10
101.9813720448172
 20
-153.9361680387729
 10
101.9813720448172
 20
-153.9361680387729
 10
102.1272718386175
 20
-153.9361680387729
 10
102.1272718386175
 20
-153.9361680387729
 10
102.1272718386175
 20
-153.9361680387729
 10
102.1272718386175
 20
-153.8176567540803
 10
102.1272718386175
 20
-153.8176567540803
 10
102.1272718386175
 20
-153.8176567540803
 10
101.9961859554037
 20
-153.8176567540803
 10
101.9961859554037
 20
-153.8176567540803
 10
101.9496771663529
 20
-153.8176567540803
 10
101.7465887874974
 20
-153.8259249832449
 10
101.7042141130288
 20
-153.8259249832449
 10
101.5011257341733
 20
-153.8304036073757
 10
101.4249891239493
 20
-153.8324706646669
 10
101.3467854564341
 20
-153.834537721958
 10
101.3467854564341
 20
-153.834537721958
 10
101.3467854564341
 20
-153.6505696230457
 10
101.3467854564341
 20
-153.6505696230457
 10
101.4609903717702
 20
-153.6588378522103
 10
101.5054321035299
 20
-153.6588378522103
 10
101.8883544667154
 20
-153.6674505909234
 10
101.8247924550126
 20
-153.572021445982
 10
101.7972316911306
 20
-153.5448051916485
 10
101.761402698084
 20
-153.5086316890534
 10
101.761402698084
 20
-153.5086316890534
 10
101.9369303130574
 20
-153.4262939069559
 10
101.9369303130574
 20
-153.4262939069559
 10
101.9770656754606
 20
-153.4621229000025
 10
102.0215074072203
 20
-153.5044975744711
 10
102.0955769601532
 20
-153.6143961204506
 10
102.0955769601532
 20
-153.6143961204506
 10
101.9813720448172
 20
-153.6695176482146
 10
101.9813720448172
 20
-153.6695176482146
 10
101.9813720448172
 20
-153.6695176482146
 10
101.9918795860472
 20
-153.6695176482146
 10
101.9918795860472
 20
-153.6695176482146
 10
101.9918795860472
 20
-153.6695176482146
 10
102.5145005711596
 20
-153.6695176482146
 10
102.5145005711596
 20
-153.6695176482146
 10
102.5145005711596
 20
-153.6695176482146
 10
102.4192436809924
 20
-153.6250759164548
 10
102.4192436809924
 20
-153.6250759164548
 10
102.4468044448744
 20
-153.5868353565686
 10
102.5038207751553
 20
-153.5065646317622
 10
102.5186346857419
 20
-153.4324950788294
 10
102.5186346857419
 20
-153.4324950788294
 10
102.7324028606016
 20
-153.495884835758
 10
102.7324028606016
 20
-153.495884835758
 10
102.7408433445405
 20
-153.4982964025976
 10
102.7620306817748
 20
-153.5086316890534
 10
102.7620306817748
 20
-153.529991281062
 10
102.7620306817748
 20
-153.5678873313997
 10
102.6964016127808
 20
-153.5678873313997
 10
102.6772813328376
 20
-153.5678873313997
 10
102.6667737916076
 20
-153.5868353565686
 10
102.6435193970822
 20
-153.627142973746
 10
102.613891575909
 20
-153.6674505909234
 10
103.0136949069723
 20
-153.6609049095015
 10
103.0433227281454
 20
-153.6588378522103
 10
103.1194593383695
 20
-153.6526366803369
 10
103.1194593383695
 20
-153.6526366803369
 10
103.1194593383695
 20
-153.834537721958
 10
103.1194593383695
 20
-153.834537721958
 10
103.1005113132006
 20
-153.834537721958
 10
103.0750176066097
 20
-153.8324706646669
 10
102.8550482598765
 20
-153.8238579259538
 10
102.8042331014691
 20
-153.8217908686626
 10
102.5842637547359
 20
-153.8176567540803
 10
102.5398220229762
 20
-153.8176567540803
 10
102.5398220229762
 20
-153.8176567540803
 10
102.3239867908253
 20
-153.8176567540803
 10
102.3239867908253
 20
-153.8176567540803
 10
102.3239867908253
 20
-153.8176567540803
 10
102.3239867908253
 20
-153.9361680387729
 10
102.3239867908253
 20
-153.9361680387729
 10
102.3239867908253
 20
-153.9361680387729
 10
102.4974473485076
 20
-153.9361680387729
 10
102.4974473485076
 20
-153.9361680387729
 10
102.6604003649599
 20
-153.9361680387729
 10
102.85074189052
 20
-153.9361680387729
 10
103.0073214803246
 20
-153.9254882427686
 10
103.0073214803246
 20
-153.9254882427686
 10
103.0073214803246
 20
-154.0967094883856
 10
103.0073214803246
 20
-154.0967094883856
 10
102.7978596748214
 20
-154.088441259221
 10
102.6011447226136
 20
-154.0863742019298
 10
102.4974473485076
 20
-154.0863742019298
 10
102.4974473485076
 20
-154.0863742019298
 10
102.3239867908253
 20
-154.0863742019298
 10
102.3239867908253
 20
-154.0863742019298
 10
102.3239867908253
 20
-154.0863742019298
 10
102.3239867908253
 20
-154.1942056906181
 10
102.3239867908253
 20
-154.1942056906181
 10
102.3239867908253
 20
-154.1942056906181
 10
102.5546359335627
 20
-154.1942056906181
 10
102.5546359335627
 20
-154.1942056906181
 10
102.6879611288419
 20
-154.1942056906181
 10
102.9756266018603
 20
-154.1900715760358
 10
103.1850884073635
 20
-154.1835258946138
 10
103.1850884073635
 20
-154.1835258946138
 10
103.1850884073635
 20
-154.3612928216527
 10
103.1850884073635
 20
-154.3612928216527
 10
102.992507569738
 20
-154.3547471402308
 10
102.679520644903
 20
-154.3506130256485
 10
102.5546359335627
 20
-154.3506130256485
 97
        0
 97
        0
 92
        1
 93
        4
 72
     1
 10
102.7196560073062
 20
-154.6065836202025
 11
102.0130669232815
 21
-154.6065836202025
 72
     1
 10
102.0130669232815
 20
-154.6065836202025
 11
102.0130669232815
 21
-154.7144151088908
 72
     1
 10
102.0130669232815
 20
-154.7144151088908
 11
102.7196560073062
 21
-154.7144151088908
 72
     1
 10
102.7196560073062
 20
-154.7144151088908
 11
102.7196560073062
 21
-154.6065836202025
 97
        0
 92
        1
 93
        4
 72
     1
 10
102.7196560073062
 20
-154.8394720750054
 11
102.0130669232815
 21
-154.8394720750054
 72
     1
 10
102.0130669232815
 20
-154.8394720750054
 11
102.0130669232815
 21
-154.9535047355672
 72
     1
 10
102.0130669232815
 20
-154.9535047355672
 11
102.7196560073062
 21
-154.9535047355672
 72
     1
 10
102.7196560073062
 20
-154.9535047355672
 11
102.7196560073062
 21
-154.8394720750054
 97
        0
 92
        1
 93
        4
 72
     1
 10
102.7196560073062
 20
-155.082695816264
 11
102.0130669232815
 21
-155.082695816264
 72
     1
 10
102.0130669232815
 20
-155.082695816264
 11
102.0130669232815
 21
-155.1967284768258
 72
     1
 10
102.0130669232815
 20
-155.1967284768258
 11
102.7196560073062
 21
-155.1967284768258
 72
     1
 10
102.7196560073062
 20
-155.1967284768258
 11
102.7196560073062
 21
-155.082695816264
 97
        0
 75
     2
 76
     1
 98
        0
  0
SPLINE
  5
1B8
330
199
100
AcDbEntity
  8
_U+30EC_U+30A4_U+30E4_U+30FC 1
370
     0
100
AcDbSpline
210
0.0
220
0.0
230
1.0
 70
    11
 71
     3
 72
    47
 73
    43
 74
     0
 42
0.0000000001
 43
0.0000000001
 12
1.0
 22
0.0
 32
0.0
 13
1.0
 23
0.0
 33
0.0
 40
0.0
 40
0.0
 40
0.0
 40
0.0
 40
1.0
 40
1.0
 40
1.0
 40
2.0
 40
2.0
 40
2.0
 40
3.0
 40
3.0
 40
3.0
 40
4.0
 40
4.0
 40
4.0
 40
5.0
 40
5.0
 40
5.0
 40
6.0
 40
6.0
 40
6.0
 40
7.0
 40
7.0
 40
7.0
 40
8.0
 40
8.0
 40
8.0
 40
9.0
 40
9.0
 40
9.0
 40
10.0
 40
10.0
 40
10.0
 40
11.0
 40
11.0
 40
11.0
 40
12.0
 40
12.0
 40
12.0
 40
13.0
 40
13.0
 40
13.0
 40
14.0
 40
14.0
 40
14.0
 40
14.0
 10
104.5316039777734
 20
-154.3275308858973
 30
0.0
 10
104.5316039777734
 20
-154.3275308858973
 30
0.0
 10
104.4301459157328
 20
-154.3275308858973
 30
0.0
 10
104.4301459157328
 20
-154.3275308858973
 30
0.0
 10
104.4301459157328
 20
-154.4140027825771
 30
0.0
 10
104.4089585784985
 20
-154.8032985724103
 30
0.0
 10
104.2122436262907
 20
-155.0234401739177
 30
0.0
 10
104.0599704058426
 20
-155.1925943622435
 30
0.0
 10
103.8525756576306
 20
-155.2625298005941
 30
0.0
 10
103.7679985634677
 20
-155.2900905644761
 30
0.0
 10
103.7679985634677
 20
-155.2900905644761
 30
0.0
 10
103.5733506685511
 20
-155.1230034334415
 30
0.0
 10
103.5733506685511
 20
-155.1230034334415
 30
0.0
 10
103.6706746160094
 20
-155.1102565801461
 30
0.0
 10
103.8462022309829
 20
-155.0868299308464
 30
0.0
 10
104.0344766992518
 20
-154.8987277173517
 30
0.0
 10
104.1085462521847
 20
-154.82672522171
 30
0.0
 10
104.2122436262907
 20
-154.6871988545574
 30
0.0
 10
104.2122436262907
 20
-154.3275308858973
 30
0.0
 10
104.2122436262907
 20
-154.3275308858973
 30
0.0
 10
103.9815944835532
 20
-154.3275308858973
 30
0.0
 10
103.9815944835532
 20
-154.3275308858973
 30
0.0
 10
103.7955593273497
 20
-154.3275308858973
 30
0.0
 10
103.609351916372
 20
-154.3316650004796
 30
0.0
 10
103.4231445053942
 20
-154.3464789110662
 30
0.0
 10
103.4231445053942
 20
-154.3464789110662
 30
0.0
 10
103.4231445053942
 20
-154.1263373095587
 30
0.0
 10
103.4231445053942
 20
-154.1263373095587
 30
0.0
 10
103.6114189736631
 20
-154.1411512201453
 30
0.0
 10
103.8970173893903
 20
-154.1456298442761
 30
0.0
 10
103.9815944835532
 20
-154.1456298442761
 30
0.0
 10
103.9815944835532
 20
-154.1456298442761
 30
0.0
 10
104.5316039777734
 20
-154.1456298442761
 30
0.0
 10
104.5316039777734
 20
-154.1456298442761
 30
0.0
 10
104.5507242577165
 20
-154.1456298442761
 30
0.0
 10
104.868017551908
 20
-154.1456298442761
 30
0.0
 10
105.0965996373543
 20
-154.1263373095587
 30
0.0
 10
105.0965996373543
 20
-154.1263373095587
 30
0.0
 10
105.0965996373543
 20
-154.3464789110662
 30
0.0
 10
105.0965996373543
 20
-154.3464789110662
 30
0.0
 10
104.9083251690854
 20
-154.3316650004796
 30
0.0
 10
104.7198784460423
 20
-154.3275308858973
 30
0.0
 10
104.5316039777734
 20
-154.3275308858973
 30
0.0
  0
SPLINE
  5
1B9
330
199
100
AcDbEntity
  8
_U+30EC_U+30A4_U+30E4_U+30FC 1
370
     0
100
AcDbSpline
210
0.0
220
0.0
230
1.0
 70
    11
 71
     3
 72
    29
 73
    25
 74
     0
 42
0.0000000001
 43
0.0000000001
 12
1.0
 22
0.0
 32
0.0
 13
1.0
 23
0.0
 33
0.0
 40
0.0
 40
0.0
 40
0.0
 40
0.0
 40
1.0
 40
1.0
 40
1.0
 40
2.0
 40
2.0
 40
2.0
 40
3.0
 40
3.0
 40
3.0
 40
4.0
 40
4.0
 40
4.0
 40
5.0
 40
5.0
 40
5.0
 40
6.0
 40
6.0
 40
6.0
 40
7.0
 40
7.0
 40
7.0
 40
8.0
 40
8.0
 40
8.0
 40
8.0
 10
104.4301459157328
 20
-153.7983642193629
 30
0.0
 10
104.4301459157328
 20
-153.7983642193629
 30
0.0
 10
104.0768513737204
 20
-153.7983642193629
 30
0.0
 10
104.0768513737204
 20
-153.7983642193629
 30
0.0
 10
103.9647135156755
 20
-153.7983642193629
 30
0.0
 10
103.8251871485229
 20
-153.8049099007849
 30
0.0
 10
103.7171834050603
 20
-153.8176567540803
 30
0.0
 10
103.7171834050603
 20
-153.8176567540803
 30
0.0
 10
103.7171834050603
 20
-153.5827012419863
 30
0.0
 10
103.7171834050603
 20
-153.5827012419863
 30
0.0
 10
103.8356946897529
 20
-153.5975151525728
 30
0.0
 10
104.0196627886652
 20
-153.6016492671552
 30
0.0
 10
104.0768513737204
 20
-153.6016492671552
 30
0.0
 10
104.0768513737204
 20
-153.6016492671552
 30
0.0
 10
104.4301459157328
 20
-153.6016492671552
 30
0.0
 10
104.4301459157328
 20
-153.6016492671552
 30
0.0
 10
104.4490939409016
 20
-153.6016492671552
 30
0.0
 10
104.6523545745314
 20
-153.6016492671552
 30
0.0
 10
104.7939479989751
 20
-153.5827012419863
 30
0.0
 10
104.7939479989751
 20
-153.5827012419863
 30
0.0
 10
104.7939479989751
 20
-153.8176567540803
 30
0.0
 10
104.7939479989751
 20
-153.8176567540803
 30
0.0
 10
104.6375406639448
 20
-153.7983642193629
 30
0.0
 10
104.4470268836105
 20
-153.7983642193629
 30
0.0
 10
104.4301459157328
 20
-153.7983642193629
 30
0.0
  0
HATCH
  5
1BA
330
199
100
AcDbEntity
  8
_U+30EC_U+30A4_U+30E4_U+30FC 1
 62
   179
420
  2234388
100
AcDbHatch
 10
0.0
 20
0.0
 30
0.0
210
0.0
220
0.0
230
1.0
  2
SOLID
 70
     1
 71
     0
 91
        2
 92
        1
 93
        1
 72
     4
 94
        3
 73
     0
 74
     1
 95
       47
 96
       43
 40
0.0
 40
0.0
 40
0.0
 40
0.0
 40
1.0
 40
1.0
 40
1.0
 40
2.0
 40
2.0
 40
2.0
 40
3.0
 40
3.0
 40
3.0
 40
4.0
 40
4.0
 40
4.0
 40
5.0
 40
5.0
 40
5.0
 40
6.0
 40
6.0
 40
6.0
 40
7.0
 40
7.0
 40
7.0
 40
8.0
 40
8.0
 40
8.0
 40
9.0
 40
9.0
 40
9.0
 40
10.0
 40
10.0
 40
10.0
 40
11.0
 40
11.0
 40
11.0
 40
12.0
 40
12.0
 40
12.0
 40
13.0
 40
13.0
 40
13.0
 40
14.0
 40
14.0
 40
14.0
 40
14.0
 10
104.5316039777734
 20
-154.3275308858973
 10
104.5316039777734
 20
-154.3275308858973
 10
104.4301459157328
 20
-154.3275308858973
 10
104.4301459157328
 20
-154.3275308858973
 10
104.4301459157328
 20
-154.4140027825771
 10
104.4089585784985
 20
-154.8032985724103
 10
104.2122436262907
 20
-155.0234401739177
 10
104.0599704058426
 20
-155.1925943622435
 10
103.8525756576306
 20
-155.2625298005941
 10
103.7679985634677
 20
-155.2900905644761
 10
103.7679985634677
 20
-155.2900905644761
 10
103.5733506685511
 20
-155.1230034334415
 10
103.5733506685511
 20
-155.1230034334415
 10
103.6706746160094
 20
-155.1102565801461
 10
103.8462022309829
 20
-155.0868299308464
 10
104.0344766992518
 20
-154.8987277173517
 10
104.1085462521847
 20
-154.82672522171
 10
104.2122436262907
 20
-154.6871988545574
 10
104.2122436262907
 20
-154.3275308858973
 10
104.2122436262907
 20
-154.3275308858973
 10
103.9815944835532
 20
-154.3275308858973
 10
103.9815944835532
 20
-154.3275308858973
 10
103.7955593273497
 20
-154.3275308858973
 10
103.609351916372
 20
-154.3316650004796
 10
103.4231445053942
 20
-154.3464789110662
 10
103.4231445053942
 20
-154.3464789110662
 10
103.4231445053942
 20
-154.1263373095587
 10
103.4231445053942
 20
-154.1263373095587
 10
103.6114189736631
 20
-154.1411512201453
 10
103.8970173893903
 20
-154.1456298442761
 10
103.9815944835532
 20
-154.1456298442761
 10
103.9815944835532
 20
-154.1456298442761
 10
104.5316039777734
 20
-154.1456298442761
 10
104.5316039777734
 20
-154.1456298442761
 10
104.5507242577165
 20
-154.1456298442761
 10
104.868017551908
 20
-154.1456298442761
 10
105.0965996373543
 20
-154.1263373095587
 10
105.0965996373543
 20
-154.1263373095587
 10
105.0965996373543
 20
-154.3464789110662
 10
105.0965996373543
 20
-154.3464789110662
 10
104.9083251690854
 20
-154.3316650004796
 10
104.7198784460423
 20
-154.3275308858973
 10
104.5316039777734
 20
-154.3275308858973
 97
        0
 97
        0
 92
        1
 93
        1
 72
     4
 94
        3
 73
     0
 74
     1
 95
       29
 96
       25
 40
0.0
 40
0.0
 40
0.0
 40
0.0
 40
1.0
 40
1.0
 40
1.0
 40
2.0
 40
2.0
 40
2.0
 40
3.0
 40
3.0
 40
3.0
 40
4.0
 40
4.0
 40
4.0
 40
5.0
 40
5.0
 40
5.0
 40
6.0
 40
6.0
 40
6.0
 40
7.0
 40
7.0
 40
7.0
 40
8.0
 40
8.0
 40
8.0
 40
8.0
 10
104.4301459157328
 20
-153.7983642193629
 10
104.4301459157328
 20
-153.7983642193629
 10
104.0768513737204
 20
-153.7983642193629
 10
104.0768513737204
 20
-153.7983642193629
 10
103.9647135156755
 20
-153.7983642193629
 10
103.8251871485229
 20
-153.8049099007849
 10
103.7171834050603
 20
-153.8176567540803
 10
103.7171834050603
 20
-153.8176567540803
 10
103.7171834050603
 20
-153.5827012419863
 10
103.7171834050603
 20
-153.5827012419863
 10
103.8356946897529
 20
-153.5975151525728
 10
104.0196627886652
 20
-153.6016492671552
 10
104.0768513737204
 20
-153.6016492671552
 10
104.0768513737204
 20
-153.6016492671552
 10
104.4301459157328
 20
-153.6016492671552
 10
104.4301459157328
 20
-153.6016492671552
 10
104.4490939409016
 20
-153.6016492671552
 10
104.6523545745314
 20
-153.6016492671552
 10
104.7939479989751
 20
-153.5827012419863
 10
104.7939479989751
 20
-153.5827012419863
 10
104.7939479989751
 20
-153.8176567540803
 10
104.7939479989751
 20
-153.8176567540803
 10
104.6375406639448
 20
-153.7983642193629
 10
104.4470268836105
 20
-153.7983642193629
 10
104.4301459157328
 20
-153.7983642193629
 97
        0
 97
        0
 75
     2
 76
     1
 98
        0
  0
SPLINE
  5
1BB
330
199
100
AcDbEntity
  8
_U+30EC_U+30A4_U+30E4_U+30FC 1
370
     0
100
AcDbSpline
210
0.0
220
0.0
230
1.0
 70
    11
 71
     3
 72
    29
 73
    25
 74
     0
 42
0.0000000001
 43
0.0000000001
 12
1.0
 22
0.0
 32
0.0
 13
1.0
 23
0.0
 33
0.0
 40
0.0
 40
0.0
 40
0.0
 40
0.0
 40
1.0
 40
1.0
 40
1.0
 40
2.0
 40
2.0
 40
2.0
 40
3.0
 40
3.0
 40
3.0
 40
4.0
 40
4.0
 40
4.0
 40
5.0
 40
5.0
 40
5.0
 40
6.0
 40
6.0
 40
6.0
 40
7.0
 40
7.0
 40
7.0
 40
8.0
 40
8.0
 40
8.0
 40
8.0
 10
106.3797254508356
 20
-154.4901393928011
 30
0.0
 10
106.3797254508356
 20
-154.4901393928011
 30
0.0
 10
105.8953450256095
 20
-154.4901393928011
 30
0.0
 10
105.8953450256095
 20
-154.4901393928011
 30
0.0
 10
105.8677842617275
 20
-154.4901393928011
 30
0.0
 10
105.5501464579875
 20
-154.4901393928011
 30
0.0
 10
105.3387898499674
 20
-154.5156330993919
 30
0.0
 10
105.3387898499674
 20
-154.5156330993919
 30
0.0
 10
105.3387898499674
 20
-154.2851562114287
 30
0.0
 10
105.3387898499674
 20
-154.2851562114287
 30
0.0
 10
105.4974364970631
 20
-154.3082383511799
 30
0.0
 10
105.6879502773975
 20
-154.3106499180196
 30
0.0
 10
105.8953450256095
 20
-154.3106499180196
 30
0.0
 10
105.8953450256095
 20
-154.3106499180196
 30
0.0
 10
106.3797254508356
 20
-154.3106499180196
 30
0.0
 10
106.3797254508356
 20
-154.3106499180196
 30
0.0
 10
106.5657606070391
 20
-154.3106499180196
 30
0.0
 10
106.7517957632426
 20
-154.3082383511799
 30
0.0
 10
106.935763862155
 20
-154.2851562114287
 30
0.0
 10
106.935763862155
 20
-154.2851562114287
 30
0.0
 10
106.935763862155
 20
-154.5156330993919
 30
0.0
 10
106.935763862155
 20
-154.5156330993919
 30
0.0
 10
106.7517957632426
 20
-154.4925509596408
 30
0.0
 10
106.5044379074017
 20
-154.4901393928011
 30
0.0
 10
106.3797254508356
 20
-154.4901393928011
 30
0.0
  0
HATCH
  5
1BC
330
199
100
AcDbEntity
  8
_U+30EC_U+30A4_U+30E4_U+30FC 1
 62
   179
420
  2234388
100
AcDbHatch
 10
0.0
 20
0.0
 30
0.0
210
0.0
220
0.0
230
1.0
  2
SOLID
 70
     1
 71
     0
 91
        1
 92
        1
 93
        1
 72
     4
 94
        3
 73
     0
 74
     1
 95
       29
 96
       25
 40
0.0
 40
0.0
 40
0.0
 40
0.0
 40
1.0
 40
1.0
 40
1.0
 40
2.0
 40
2.0
 40
2.0
 40
3.0
 40
3.0
 40
3.0
 40
4.0
 40
4.0
 40
4.0
 40
5.0
 40
5.0
 40
5.0
 40
6.0
 40
6.0
 40
6.0
 40
7.0
 40
7.0
 40
7.0
 40
8.0
 40
8.0
 40
8.0
 40
8.0
 10
106.3797254508356
 20
-154.4901393928011
 10
106.3797254508356
 20
-154.4901393928011
 10
105.8953450256095
 20
-154.4901393928011
 10
105.8953450256095
 20
-154.4901393928011
 10
105.8677842617275
 20
-154.4901393928011
 10
105.5501464579875
 20
-154.4901393928011
 10
105.3387898499674
 20
-154.5156330993919
 10
105.3387898499674
 20
-154.5156330993919
 10
105.3387898499674
 20
-154.2851562114287
 10
105.3387898499674
 20
-154.2851562114287
 10
105.4974364970631
 20
-154.3082383511799
 10
105.6879502773975
 20
-154.3106499180196
 10
105.8953450256095
 20
-154.3106499180196
 10
105.8953450256095
 20
-154.3106499180196
 10
106.3797254508356
 20
-154.3106499180196
 10
106.3797254508356
 20
-154.3106499180196
 10
106.5657606070391
 20
-154.3106499180196
 10
106.7517957632426
 20
-154.3082383511799
 10
106.935763862155
 20
-154.2851562114287
 10
106.935763862155
 20
-154.2851562114287
 10
106.935763862155
 20
-154.5156330993919
 10
106.935763862155
 20
-154.5156330993919
 10
106.7517957632426
 20
-154.4925509596408
 10
106.5044379074017
 20
-154.4901393928011
 10
106.3797254508356
 20
-154.4901393928011
 97
        0
 97
        0
 75
     2
 76
     1
 98
        0
  0
SPLINE
  5
1BD
330
199
100
AcDbEntity
  8
_U+30EC_U+30A4_U+30E4_U+30FC 1
370
     0
100
AcDbSpline
210
0.0
220
0.0
230
1.0
 70
    11
 71
     3
 72
    44
 73
    40
 74
     0
 42
0.0000000001
 43
0.0000000001
 12
1.0
 22
0.0
 32
0.0
 13
1.0
 23
0.0
 33
0.0
 40
0.0
 40
0.0
 40
0.0
 40
0.0
 40
1.0
 40
1.0
 40
1.0
 40
2.0
 40
2.0
 40
2.0
 40
3.0
 40
3.0
 40
3.0
 40
4.0
 40
4.0
 40
4.0
 40
5.0
 40
5.0
 40
5.0
 40
6.0
 40
6.0
 40
6.0
 40
7.0
 40
7.0
 40
7.0
 40
8.0
 40
8.0
 40
8.0
 40
9.0
 40
9.0
 40
9.0
 40
10.0
 40
10.0
 40
10.0
 40
11.0
 40
11.0
 40
11.0
 40
12.0
 40
12.0
 40
12.0
 40
13.0
 40
13.0
 40
13.0
 40
13.0
 10
108.5931993001087
 20
-154.0522677566258
 30
0.0
 10
108.481233696838
 20
-154.420548463999
 30
0.0
 10
108.4305907932049
 20
-154.5790228563205
 30
0.0
 10
108.2338758409971
 20
-154.8287922790011
 30
0.0
 10
108.0499077420848
 20
-155.0592691669644
 30
0.0
 10
107.8128851726996
 20
-155.2456488327164
 30
0.0
 10
107.5334879288458
 20
-155.3386664108181
 30
0.0
 10
107.5334879288458
 20
-155.3386664108181
 30
0.0
 10
107.3409070912203
 20
-155.1588324264881
 30
0.0
 10
107.3409070912203
 20
-155.1588324264881
 30
0.0
 10
107.9820393610253
 20
-155.00655920604
 30
0.0
 10
108.3120795085123
 20
-154.4501762851722
 30
0.0
 10
108.3754692654409
 20
-154.0102375917058
 30
0.0
 10
108.3754692654409
 20
-154.0102375917058
 30
0.0
 10
107.6096245390698
 20
-154.0102375917058
 30
0.0
 10
107.6096245390698
 20
-154.0102375917058
 30
0.0
 10
107.5166069609681
 20
-154.0102375917058
 30
0.0
 10
107.3326388620557
 20
-154.0143717062881
 30
0.0
 10
107.1758870174769
 20
-154.0333197314569
 30
0.0
 10
107.1758870174769
 20
-154.0333197314569
 30
0.0
 10
107.1758870174769
 20
-153.8131781299495
 30
0.0
 10
107.1758870174769
 20
-153.8131781299495
 30
0.0
 10
107.2627034237052
 20
-153.834537721958
 30
0.0
 10
107.5145399036769
 20
-153.834537721958
 30
0.0
 10
107.6137586536521
 20
-153.834537721958
 30
0.0
 10
107.6137586536521
 20
-153.834537721958
 30
0.0
 10
108.0454291179539
 20
-153.834537721958
 30
0.0
 10
108.0454291179539
 20
-153.834537721958
 30
0.0
 10
108.0878037924225
 20
-153.834537721958
 30
0.0
 10
108.322414794968
 20
-153.8324706646669
 30
0.0
 10
108.3606553548543
 20
-153.8259249832449
 30
0.0
 10
108.4030300293229
 20
-153.8197238113715
 30
0.0
 10
108.405097086614
 20
-153.8176567540803
 30
0.0
 10
108.4664197862514
 20
-153.7773491369029
 30
0.0
 10
108.4664197862514
 20
-153.7773491369029
 30
0.0
 10
108.6548665092946
 20
-153.9316894146421
 30
0.0
 10
108.6548665092946
 20
-153.9316894146421
 30
0.0
 10
108.6252386881215
 20
-153.9613172358152
 30
0.0
 10
108.6104247775349
 20
-153.9930121142795
 30
0.0
 10
108.5931993001087
 20
-154.0522677566258
 30
0.0
  0
SPLINE
  5
1BE
330
199
100
AcDbEntity
  8
_U+30EC_U+30A4_U+30E4_U+30FC 1
370
     0
100
AcDbSpline
210
0.0
220
0.0
230
1.0
 70
    11
 71
     3
 72
    17
 73
    13
 74
     0
 42
0.0000000001
 43
0.0000000001
 12
1.0
 22
0.0
 32
0.0
 13
1.0
 23
0.0
 33
0.0
 40
0.0
 40
0.0
 40
0.0
 40
0.0
 40
1.0
 40
1.0
 40
1.0
 40
2.0
 40
2.0
 40
2.0
 40
3.0
 40
3.0
 40
3.0
 40
4.0
 40
4.0
 40
4.0
 40
4.0
 10
108.8026611056118
 20
-153.8534857471269
 30
0.0
 10
108.6758815917546
 20
-153.8534857471269
 30
0.0
 10
108.5742512749398
 20
-153.751855430312
 30
0.0
 10
108.5742512749398
 20
-153.6250759164548
 30
0.0
 10
108.5742512749398
 20
-153.4982964025976
 30
0.0
 10
108.6758815917546
 20
-153.3945990284916
 30
0.0
 10
108.8026611056118
 20
-153.3945990284916
 30
0.0
 10
108.9297851290176
 20
-153.3945990284916
 30
0.0
 10
109.0334825031236
 20
-153.4982964025976
 30
0.0
 10
109.0334825031236
 20
-153.6250759164548
 30
0.0
 10
109.0334825031236
 20
-153.751855430312
 30
0.0
 10
108.9297851290176
 20
-153.8534857471269
 30
0.0
 10
108.8026611056118
 20
-153.8534857471269
 30
0.0
  0
SPLINE
  5
1BF
330
199
100
AcDbEntity
  8
_U+30EC_U+30A4_U+30E4_U+30FC 1
370
     0
100
AcDbSpline
210
0.0
220
0.0
230
1.0
 70
    11
 71
     3
 72
    17
 73
    13
 74
     0
 42
0.0000000001
 43
0.0000000001
 12
1.0
 22
0.0
 32
0.0
 13
1.0
 23
0.0
 33
0.0
 40
0.0
 40
0.0
 40
0.0
 40
0.0
 40
1.0
 40
1.0
 40
1.0
 40
2.0
 40
2.0
 40
2.0
 40
3.0
 40
3.0
 40
3.0
 40
4.0
 40
4.0
 40
4.0
 40
4.0
 10
108.8005940483207
 20
-153.52344559964
 30
0.0
 10
108.7458170301052
 20
-153.52344559964
 30
0.0
 10
108.7013752983455
 20
-153.5678873313997
 30
0.0
 10
108.7013752983455
 20
-153.6230088591637
 30
0.0
 10
108.7013752983455
 20
-153.6801974442188
 30
0.0
 10
108.7458170301052
 20
-153.7287732905609
 30
0.0
 10
108.804728162903
 20
-153.7287732905609
 30
0.0
 10
108.8639838052493
 20
-153.7287732905609
 30
0.0
 10
108.9042914224267
 20
-153.6777858773792
 30
0.0
 10
108.9042914224267
 20
-153.6250759164548
 30
0.0
 10
108.9042914224267
 20
-153.5678873313997
 30
0.0
 10
108.8577826333758
 20
-153.52344559964
 30
0.0
 10
108.8005940483207
 20
-153.52344559964
 30
0.0
  0
HATCH
  5
1C0
330
199
100
AcDbEntity
  8
_U+30EC_U+30A4_U+30E4_U+30FC 1
 62
   179
420
  2234388
100
AcDbHatch
 10
0.0
 20
0.0
 30
0.0
210
0.0
220
0.0
230
1.0
  2
SOLID
 70
     1
 71
     0
 91
        3
 92
        1
 93
        1
 72
     4
 94
        3
 73
     0
 74
     1
 95
       44
 96
       40
 40
0.0
 40
0.0
 40
0.0
 40
0.0
 40
1.0
 40
1.0
 40
1.0
 40
2.0
 40
2.0
 40
2.0
 40
3.0
 40
3.0
 40
3.0
 40
4.0
 40
4.0
 40
4.0
 40
5.0
 40
5.0
 40
5.0
 40
6.0
 40
6.0
 40
6.0
 40
7.0
 40
7.0
 40
7.0
 40
8.0
 40
8.0
 40
8.0
 40
9.0
 40
9.0
 40
9.0
 40
10.0
 40
10.0
 40
10.0
 40
11.0
 40
11.0
 40
11.0
 40
12.0
 40
12.0
 40
12.0
 40
13.0
 40
13.0
 40
13.0
 40
13.0
 10
108.5931993001087
 20
-154.0522677566258
 10
108.481233696838
 20
-154.420548463999
 10
108.4305907932049
 20
-154.5790228563205
 10
108.2338758409971
 20
-154.8287922790011
 10
108.0499077420848
 20
-155.0592691669644
 10
107.8128851726996
 20
-155.2456488327164
 10
107.5334879288458
 20
-155.3386664108181
 10
107.5334879288458
 20
-155.3386664108181
 10
107.3409070912203
 20
-155.1588324264881
 10
107.3409070912203
 20
-155.1588324264881
 10
107.9820393610253
 20
-155.00655920604
 10
108.3120795085123
 20
-154.4501762851722
 10
108.3754692654409
 20
-154.0102375917058
 10
108.3754692654409
 20
-154.0102375917058
 10
107.6096245390698
 20
-154.0102375917058
 10
107.6096245390698
 20
-154.0102375917058
 10
107.5166069609681
 20
-154.0102375917058
 10
107.3326388620557
 20
-154.0143717062881
 10
107.1758870174769
 20
-154.0333197314569
 10
107.1758870174769
 20
-154.0333197314569
 10
107.1758870174769
 20
-153.8131781299495
 10
107.1758870174769
 20
-153.8131781299495
 10
107.2627034237052
 20
-153.834537721958
 10
107.5145399036769
 20
-153.834537721958
 10
107.6137586536521
 20
-153.834537721958
 10
107.6137586536521
 20
-153.834537721958
 10
108.0454291179539
 20
-153.834537721958
 10
108.0454291179539
 20
-153.834537721958
 10
108.0878037924225
 20
-153.834537721958
 10
108.322414794968
 20
-153.8324706646669
 10
108.3606553548543
 20
-153.8259249832449
 10
108.4030300293229
 20
-153.8197238113715
 10
108.405097086614
 20
-153.8176567540803
 10
108.4664197862514
 20
-153.7773491369029
 10
108.4664197862514
 20
-153.7773491369029
 10
108.6548665092946
 20
-153.9316894146421
 10
108.6548665092946
 20
-153.9316894146421
 10
108.6252386881215
 20
-153.9613172358152
 10
108.6104247775349
 20
-153.9930121142795
 10
108.5931993001087
 20
-154.0522677566258
 97
        0
 97
        0
 92
        1
 93
        1
 72
     4
 94
        3
 73
     0
 74
     1
 95
       17
 96
       13
 40
0.0
 40
0.0
 40
0.0
 40
0.0
 40
1.0
 40
1.0
 40
1.0
 40
2.0
 40
2.0
 40
2.0
 40
3.0
 40
3.0
 40
3.0
 40
4.0
 40
4.0
 40
4.0
 40
4.0
 10
108.8026611056118
 20
-153.8534857471269
 10
108.6758815917546
 20
-153.8534857471269
 10
108.5742512749398
 20
-153.751855430312
 10
108.5742512749398
 20
-153.6250759164548
 10
108.5742512749398
 20
-153.4982964025976
 10
108.6758815917546
 20
-153.3945990284916
 10
108.8026611056118
 20
-153.3945990284916
 10
108.9297851290176
 20
-153.3945990284916
 10
109.0334825031236
 20
-153.4982964025976
 10
109.0334825031236
 20
-153.6250759164548
 10
109.0334825031236
 20
-153.751855430312
 10
108.9297851290176
 20
-153.8534857471269
 10
108.8026611056118
 20
-153.8534857471269
 97
        0
 97
        0
 92
        1
 93
        1
 72
     4
 94
        3
 73
     0
 74
     1
 95
       17
 96
       13
 40
0.0
 40
0.0
 40
0.0
 40
0.0
 40
1.0
 40
1.0
 40
1.0
 40
2.0
 40
2.0
 40
2.0
 40
3.0
 40
3.0
 40
3.0
 40
4.0
 40
4.0
 40
4.0
 40
4.0
 10
108.8005940483207
 20
-153.52344559964
 10
108.7458170301052
 20
-153.52344559964
 10
108.7013752983455
 20
-153.5678873313997
 10
108.7013752983455
 20
-153.6230088591637
 10
108.7013752983455
 20
-153.6801974442188
 10
108.7458170301052
 20
-153.7287732905609
 10
108.804728162903
 20
-153.7287732905609
 10
108.8639838052493
 20
-153.7287732905609
 10
108.9042914224267
 20
-153.6777858773792
 10
108.9042914224267
 20
-153.6250759164548
 10
108.9042914224267
 20
-153.5678873313997
 10
108.8577826333758
 20
-153.52344559964
 10
108.8005940483207
 20
-153.52344559964
 97
        0
 97
        0
 75
     2
 76
     1
 98
        0
  0
ENDBLK
  5
19C
330
199
100
AcDbEntity
  8
0
100
AcDbBlockEnd
  0
ENDSEC
  0
SECTION
  2
ENTITIES
  0
SPLINE
  5
41
330
1F
100
AcDbEntity
  8
_U+30EC_U+30A4_U+30E4_U+30FC 1
 62
   179
420
  2234388
370
     9
100
AcDbSpline
210
0.0
220
0.0
230
1.0
 70
    11
 71
     3
 72
    17
 73
    13
 74
     0
 42
0.0000000001
 43
0.0000000001
 12
1.0
 22
0.0
 32
0.0
 13
1.0
 23
0.0
 33
0.0
 40
0.0
 40
0.0
 40
0.0
 40
0.0
 40
1.0
 40
1.0
 40
1.0
 40
2.0
 40
2.0
 40
2.0
 40
3.0
 40
3.0
 40
3.0
 40
4.0
 40
4.0
 40
4.0
 40
4.0
 10
89.93913766943687
 20
-163.4436787938423
 30
0.0
 10
89.93913766943687
 20
-163.4987141942192
 30
0.0
 10
89.98393467666851
 20
-163.5435165844125
 30
0.0
 10
90.03897007704538
 20
-163.5435165844125
 30
0.0
 10
90.09400547742224
 20
-163.5435165844125
 30
0.0
 10
90.1388024846539
 20
-163.4987141942192
 30
0.0
 10
90.1388024846539
 20
-163.4436787938423
 30
0.0
 10
90.1388024846539
 20
-163.3886487764271
 30
0.0
 10
90.09400547742224
 20
-163.3438463862338
 30
0.0
 10
90.03897007704538
 20
-163.3438463862338
 30
0.0
 10
89.98393467666851
 20
-163.3438463862338
 30
0.0
 10
89.93913766943687
 20
-163.3886487764271
 30
0.0
 10
89.93913766943687
 20
-163.4436787938423
 30
0.0
  0
SPLINE
  5
42
330
1F
100
AcDbEntity
  8
_U+30EC_U+30A4_U+30E4_U+30FC 1
 62
   179
420
  2234388
370
     9
100
AcDbSpline
210
0.0
220
0.0
230
1.0
 70
    11
 71
     3
 72
    17
 73
    13
 74
     0
 42
0.0000000001
 43
0.0000000001
 12
1.0
 22
0.0
 32
0.0
 13
1.0
 23
0.0
 33
0.0
 40
0.0
 40
0.0
 40
0.0
 40
0.0
 40
1.0
 40
1.0
 40
1.0
 40
2.0
 40
2.0
 40
2.0
 40
3.0
 40
3.0
 40
3.0
 40
4.0
 40
4.0
 40
4.0
 40
4.0
 10
86.93919158457489
 20
-163.4436787938423
 30
0.0
 10
86.93919158457489
 20
-163.4987141942192
 30
0.0
 10
86.98398859180652
 20
-163.5435165844125
 30
0.0
 10
87.03902399218339
 20
-163.5435165844125
 30
0.0
 10
87.0947591775807
 20
-163.5435165844125
 30
0.0
 10
87.13956695073573
 20
-163.4987141942192
 30
0.0
 10
87.13956695073573
 20
-163.4436787938423
 30
0.0
 10
87.13956695073573
 20
-163.3886487764271
 30
0.0
 10
87.0947591775807
 20
-163.3438463862338
 30
0.0
 10
87.03902399218339
 20
-163.3438463862338
 30
0.0
 10
86.98398859180652
 20
-163.3438463862338
 30
0.0
 10
86.93919158457489
 20
-163.3886487764271
 30
0.0
 10
86.93919158457489
 20
-163.4436787938423
 30
0.0
  0
POLYLINE
  5
43
330
1F
100
AcDbEntity
  8
_U+30EC_U+30A4_U+30E4_U+30FC 1
 62
   179
420
  2234388
370
     9
100
AcDb2dPolyline
 66
     1
 10
0.0
 20
0.0
 30
0.0
  0
VERTEX
  5
44
330
43
100
AcDbEntity
  8
_U+30EC_U+30A4_U+30E4_U+30FC 1
 62
   179
420
  2234388
370
     9
100
AcDbVertex
100
AcDb2dVertex
 10
87.03906705587696
 20
-145.7879304733322
 30
0.0
  0
VERTEX
  5
45
330
43
100
AcDbEntity
  8
_U+30EC_U+30A4_U+30E4_U+30FC 1
 62
   179
420
  2234388
370
     9
100
AcDbVertex
100
AcDb2dVertex
 10
87.03906705587696
 20
-164.4438815235592
 30
0.0
  0
SEQEND
  5
46
330
43
100
AcDbEntity
  8
_U+30EC_U+30A4_U+30E4_U+30FC 1
 62
   179
420
  2234388
370
     9
  0
POLYLINE
  5
47
330
1F
100
AcDbEntity
  8
_U+30EC_U+30A4_U+30E4_U+30FC 1
 62
   179
420
  2234388
370
     9
100
AcDb2dPolyline
 66
     1
 10
0.0
 20
0.0
 30
0.0
  0
VERTEX
  5
48
330
47
100
AcDbEntity
  8
_U+30EC_U+30A4_U+30E4_U+30FC 1
 62
   179
420
  2234388
370
     9
100
AcDbVertex
100
AcDb2dVertex
 10
87.03906705587696
 20
-163.4436787938423
 30
0.0
  0
VERTEX
  5
49
330
47
100
AcDbEntity
  8
_U+30EC_U+30A4_U+30E4_U+30FC 1
 62
   179
420
  2234388
370
     9
100
AcDbVertex
100
AcDb2dVertex
 10
90.03908850220269
 20
-163.4436787938423
 30
0.0
  0
SEQEND
  5
4A
330
47
100
AcDbEntity
  8
_U+30EC_U+30A4_U+30E4_U+30FC 1
 62
   179
420
  2234388
370
     9
  0
POLYLINE
  5
4B
330
1F
100
AcDbEntity
  8
_U+30EC_U+30A4_U+30E4_U+30FC 1
 62
   179
420
  2234388
370
     9
100
AcDb2dPolyline
 66
     1
 10
0.0
 20
0.0
 30
0.0
  0
VERTEX
  5
4C
330
4B
100
AcDbEntity
  8
_U+30EC_U+30A4_U+30E4_U+30FC 1
 62
   179
420
  2234388
370
     9
100
AcDbVertex
100
AcDb2dVertex
 10
90.03908850220269
 20
-145.7879304733322
 30
0.0
  0
VERTEX
  5
4D
330
4B
100
AcDbEntity
  8
_U+30EC_U+30A4_U+30E4_U+30FC 1
 62
   179
420
  2234388
370
     9
100
AcDbVertex
100
AcDb2dVertex
 10
90.03908850220269
 20
-164.4438815235592
 30
0.0
  0
SEQEND
  5
4E
330
4B
100
AcDbEntity
  8
_U+30EC_U+30A4_U+30E4_U+30FC 1
 62
   179
420
  2234388
370
     9
  0
INSERT
  5
50
330
1F
100
AcDbEntity
  8
_U+30EC_U+30A4_U+30E4_U+30FC 1
100
AcDbBlockReference
  2
block 2
 10
0.0
 20
0.0
 30
0.0
  0
POLYLINE
  5
55
330
1F
100
AcDbEntity
  8
_U+30EC_U+30A4_U+30E4_U+30FC 1
 62
   179
420
  2234388
370
    25
100
AcDb2dPolyline
 66
     1
 10
0.0
 20
0.0
 30
0.0
  0
VERTEX
  5
56
330
55
100
AcDbEntity
  8
_U+30EC_U+30A4_U+30E4_U+30FC 1
 62
   179
420
  2234388
370
    25
100
AcDbVertex
100
AcDb2dVertex
 10
87.23682630265368
 20
-138.3937058844554
 30
0.0
  0
VERTEX
  5
57
330
55
100
AcDbEntity
  8
_U+30EC_U+30A4_U+30E4_U+30FC 1
 62
   179
420
  2234388
370
    25
100
AcDbVertex
100
AcDb2dVertex
 10
87.02409165643951
 20
-138.8773649928143
 30
0.0
  0
VERTEX
  5
58
330
55
100
AcDbEntity
  8
_U+30EC_U+30A4_U+30E4_U+30FC 1
 62
   179
420
  2234388
370
    25
100
AcDbVertex
100
AcDb2dVertex
 10
87.21141872344997
 20
-139.3719622793389
 30
0.0
  0
VERTEX
  5
59
330
55
100
AcDbEntity
  8
_U+30EC_U+30A4_U+30E4_U+30FC 1
 62
   179
420
  2234388
370
    25
100
AcDbVertex
100
AcDb2dVertex
 10
86.9990501186311
 20
-139.8563319386416
 30
0.0
  0
VERTEX
  5
5A
330
55
100
AcDbEntity
  8
_U+30EC_U+30A4_U+30E4_U+30FC 1
 62
   179
420
  2234388
370
    25
100
AcDbVertex
100
AcDb2dVertex
 10
87.18602191016997
 20
-140.3519842856585
 30
0.0
  0
VERTEX
  5
5B
330
55
100
AcDbEntity
  8
_U+30EC_U+30A4_U+30E4_U+30FC 1
 62
   179
420
  2234388
370
    25
100
AcDbVertex
100
AcDb2dVertex
 10
86.97329802987886
 20
-140.835987903566
 30
0.0
  0
VERTEX
  5
5C
330
55
100
AcDbEntity
  8
_U+30EC_U+30A4_U+30E4_U+30FC 1
 62
   179
420
  2234388
370
    25
100
AcDbVertex
100
AcDb2dVertex
 10
87.16062509688932
 20
-141.3309404655625
 30
0.0
  0
VERTEX
  5
5D
330
55
100
AcDbEntity
  8
_U+30EC_U+30A4_U+30E4_U+30FC 1
 62
   179
420
  2234388
370
    25
100
AcDbVertex
100
AcDb2dVertex
 10
86.94790121659854
 20
-141.8152993589418
 30
0.0
  0
VERTEX
  5
5E
330
55
100
AcDbEntity
  8
_U+30EC_U+30A4_U+30E4_U+30FC 1
 62
   179
420
  2234388
370
    25
100
AcDbVertex
100
AcDb2dVertex
 10
87.1352175176856
 20
-142.3095413699945
 30
0.0
  0
VERTEX
  5
5F
330
55
100
AcDbEntity
  8
_U+30EC_U+30A4_U+30E4_U+30FC 1
 62
   179
420
  2234388
370
    25
100
AcDbVertex
100
AcDb2dVertex
 10
86.92249363739481
 20
-142.7935503708636
 30
0.0
  0
VERTEX
  5
60
330
55
100
AcDbEntity
  8
_U+30EC_U+30A4_U+30E4_U+30FC 1
 62
   179
420
  2234388
370
    25
100
AcDbVertex
100
AcDb2dVertex
 10
87.10982070440528
 20
-143.2884975498984
 30
0.0
  0
VERTEX
  5
61
330
55
100
AcDbEntity
  8
_U+30EC_U+30A4_U+30E4_U+30FC 1
 62
   179
420
  2234388
370
    25
100
AcDbVertex
100
AcDb2dVertex
 10
86.89709682411448
 20
-143.7732171017113
 30
0.0
  0
VERTEX
  5
62
330
55
100
AcDbEntity
  8
_U+30EC_U+30A4_U+30E4_U+30FC 1
 62
   179
420
  2234388
370
    25
100
AcDbVertex
100
AcDb2dVertex
 10
87.08406861565304
 20
-144.2685141732563
 30
0.0
  0
VERTEX
  5
63
330
55
100
AcDbEntity
  8
_U+30EC_U+30A4_U+30E4_U+30FC 1
 62
   179
420
  2234388
370
    25
100
AcDbVertex
100
AcDb2dVertex
 10
86.87170001083416
 20
-144.7525285570871
 30
0.0
  0
VERTEX
  5
64
330
55
100
AcDbEntity
  8
_U+30EC_U+30A4_U+30E4_U+30FC 1
 62
   179
420
  2234388
370
    25
100
AcDbVertex
100
AcDb2dVertex
 10
87.0586718023727
 20
-145.2474757361219
 30
0.0
  0
VERTEX
  5
65
330
55
100
AcDbEntity
  8
_U+30EC_U+30A4_U+30E4_U+30FC 1
 62
   179
420
  2234388
370
    25
100
AcDbVertex
100
AcDb2dVertex
 10
86.84629243163045
 20
-145.731840012463
 30
0.0
  0
VERTEX
  5
66
330
55
100
AcDbEntity
  8
_U+30EC_U+30A4_U+30E4_U+30FC 1
 62
   179
420
  2234388
370
    25
100
AcDbVertex
100
AcDb2dVertex
 10
87.03326422316898
 20
-146.2250215800616
 30
0.0
  0
VERTEX
  5
67
330
55
100
AcDbEntity
  8
_U+30EC_U+30A4_U+30E4_U+30FC 1
 62
   179
420
  2234388
370
    25
100
AcDbVertex
100
AcDb2dVertex
 10
86.82089561835012
 20
-146.7072703524562
 30
0.0
  0
VERTEX
  5
68
330
55
100
AcDbEntity
  8
_U+30EC_U+30A4_U+30E4_U+30FC 1
 62
   179
420
  2234388
370
    25
100
AcDbVertex
100
AcDb2dVertex
 10
87.00822268536058
 20
-147.201157088037
 30
0.0
  0
VERTEX
  5
69
330
55
100
AcDbEntity
  8
_U+30EC_U+30A4_U+30E4_U+30FC 1
 62
   179
420
  2234388
370
    25
100
AcDbVertex
100
AcDb2dVertex
 10
86.7954988050698
 20
-147.6837557529418
 30
0.0
  0
VERTEX
  5
6A
330
55
100
AcDbEntity
  8
_U+30EC_U+30A4_U+30E4_U+30FC 1
 62
   179
420
  2234388
370
    25
100
AcDbVertex
100
AcDb2dVertex
 10
86.98282587208026
 20
-148.1776478714846
 30
0.0
  0
VERTEX
  5
6B
330
55
100
AcDbEntity
  8
_U+30EC_U+30A4_U+30E4_U+30FC 1
 62
   179
420
  2234388
370
    25
100
AcDbVertex
100
AcDb2dVertex
 10
86.77009122586607
 20
-148.6620121478253
 30
0.0
  0
VERTEX
  5
6C
330
55
100
AcDbEntity
  8
_U+30EC_U+30A4_U+30E4_U+30FC 1
 62
   179
420
  2234388
370
    25
100
AcDbVertex
100
AcDb2dVertex
 10
86.95741829287654
 20
-149.1583696628244
 30
0.0
  0
VERTEX
  5
6D
330
55
100
AcDbEntity
  8
_U+30EC_U+30A4_U+30E4_U+30FC 1
 62
   179
420
  2234388
370
    25
100
AcDbVertex
100
AcDb2dVertex
 10
86.74469441258574
 20
-149.6423786636935
 30
0.0
  0
VERTEX
  5
6E
330
55
100
AcDbEntity
  8
_U+30EC_U+30A4_U+30E4_U+30FC 1
 62
   179
420
  2234388
370
    25
100
AcDbVertex
100
AcDb2dVertex
 10
86.9316662041243
 20
-150.1366206747461
 30
0.0
  0
VERTEX
  5
6F
330
55
100
AcDbEntity
  8
_U+30EC_U+30A4_U+30E4_U+30FC 1
 62
   179
420
  2234388
370
    25
100
AcDbVertex
100
AcDb2dVertex
 10
86.71929759930575
 20
-150.620279783105
 30
0.0
  0
VERTEX
  5
70
330
55
100
AcDbEntity
  8
_U+30EC_U+30A4_U+30E4_U+30FC 1
 62
   179
420
  2234388
370
    25
100
AcDbVertex
100
AcDb2dVertex
 10
86.90626939084396
 20
-151.1152269621398
 30
0.0
  0
VERTEX
  5
71
330
55
100
AcDbEntity
  8
_U+30EC_U+30A4_U+30E4_U+30FC 1
 62
   179
420
  2234388
370
    25
100
AcDbVertex
100
AcDb2dVertex
 10
86.6939007860251
 20
-151.5988860704987
 30
0.0
  0
VERTEX
  5
72
330
55
100
AcDbEntity
  8
_U+30EC_U+30A4_U+30E4_U+30FC 1
 62
   179
420
  2234388
370
    25
100
AcDbVertex
100
AcDb2dVertex
 10
86.88087257756396
 20
-152.0945384175157
 30
0.0
  0
VERTEX
  5
73
330
55
100
AcDbEntity
  8
_U+30EC_U+30A4_U+30E4_U+30FC 1
 62
   179
420
  2234388
370
    25
100
AcDbVertex
100
AcDb2dVertex
 10
86.66849320682138
 20
-152.5796078618388
 30
0.0
  0
VERTEX
  5
74
330
55
100
AcDbEntity
  8
_U+30EC_U+30A4_U+30E4_U+30FC 1
 62
   179
420
  2234388
370
    25
100
AcDbVertex
100
AcDb2dVertex
 10
86.85546499836025
 20
-153.0749103163455
 30
0.0
  0
VERTEX
  5
75
330
55
100
AcDbEntity
  8
_U+30EC_U+30A4_U+30E4_U+30FC 1
 62
   179
420
  2234388
370
    25
100
AcDbVertex
100
AcDb2dVertex
 10
86.64274111806914
 20
-153.5589193172147
 30
0.0
  0
VERTEX
  5
76
330
55
100
AcDbEntity
  8
_U+30EC_U+30A4_U+30E4_U+30FC 1
 62
   179
420
  2234388
370
    25
100
AcDbVertex
100
AcDb2dVertex
 10
86.8300681850796
 20
-154.0545716642316
 30
0.0
  0
VERTEX
  5
77
330
55
100
AcDbEntity
  8
_U+30EC_U+30A4_U+30E4_U+30FC 1
 62
   179
420
  2234388
370
    25
100
AcDbVertex
100
AcDb2dVertex
 10
86.61769958026073
 20
-154.5396411085548
 30
0.0
  0
VERTEX
  5
78
330
55
100
AcDbEntity
  8
_U+30EC_U+30A4_U+30E4_U+30FC 1
 62
   179
420
  2234388
370
    25
100
AcDbVertex
100
AcDb2dVertex
 10
86.80467137179927
 20
-155.0356487310436
 30
0.0
  0
VERTEX
  5
79
330
55
100
AcDbEntity
  8
_U+30EC_U+30A4_U+30E4_U+30FC 1
 62
   179
420
  2234388
370
    25
100
AcDbVertex
100
AcDb2dVertex
 10
86.59194749150848
 20
-155.5200130073846
 30
0.0
  0
VERTEX
  5
7A
330
55
100
AcDbEntity
  8
_U+30EC_U+30A4_U+30E4_U+30FC 1
 62
   179
420
  2234388
370
    25
100
AcDbVertex
100
AcDb2dVertex
 10
86.77926379259556
 20
-156.0160152469118
 30
0.0
  0
VERTEX
  5
7B
330
55
100
AcDbEntity
  8
_U+30EC_U+30A4_U+30E4_U+30FC 1
 62
   179
420
  2234388
370
    25
100
AcDbVertex
100
AcDb2dVertex
 10
86.56653991230476
 20
-156.5014399667069
 30
0.0
  0
VERTEX
  5
7C
330
55
100
AcDbEntity
  8
_U+30EC_U+30A4_U+30E4_U+30FC 1
 62
   179
420
  2234388
370
    25
100
AcDbVertex
100
AcDb2dVertex
 10
86.75351170384332
 20
-156.997442206234
 30
0.0
  0
VERTEX
  5
7D
330
55
100
AcDbEntity
  8
_U+30EC_U+30A4_U+30E4_U+30FC 1
 62
   179
420
  2234388
370
    25
100
AcDbVertex
100
AcDb2dVertex
 10
86.54114309902444
 20
-157.4828669260291
 30
0.0
  0
VERTEX
  5
7E
330
55
100
AcDbEntity
  8
_U+30EC_U+30A4_U+30E4_U+30FC 1
 62
   179
420
  2234388
370
    25
100
AcDbVertex
100
AcDb2dVertex
 10
86.72811489056298
 20
-157.9795797165001
 30
0.0
  0
VERTEX
  5
7F
330
55
100
AcDbEntity
  8
_U+30EC_U+30A4_U+30E4_U+30FC 1
 62
   179
420
  2234388
370
    25
100
AcDbVertex
100
AcDb2dVertex
 10
86.51574628574411
 20
-158.4649990533335
 30
0.0
  0
VERTEX
  5
80
330
55
100
AcDbEntity
  8
_U+30EC_U+30A4_U+30E4_U+30FC 1
 62
   179
420
  2234388
370
    25
100
AcDbVertex
100
AcDb2dVertex
 10
86.70271807728265
 20
-158.9603015078402
 30
0.0
  0
VERTEX
  5
81
330
55
100
AcDbEntity
  8
_U+30EC_U+30A4_U+30E4_U+30FC 1
 62
   179
420
  2234388
370
    25
100
AcDbVertex
100
AcDb2dVertex
 10
86.48999419699187
 20
-159.4443105087093
 30
0.0
  0
VERTEX
  5
82
330
55
100
AcDbEntity
  8
_U+30EC_U+30A4_U+30E4_U+30FC 1
 62
   179
420
  2234388
370
    25
100
AcDbVertex
100
AcDb2dVertex
 10
86.67731049807894
 20
-159.9413731916906
 30
0.0
  0
VERTEX
  5
83
330
55
100
AcDbEntity
  8
_U+30EC_U+30A4_U+30E4_U+30FC 1
 62
   179
420
  2234388
370
    25
100
AcDbVertex
100
AcDb2dVertex
 10
86.46458661778816
 20
-160.4264426360137
 30
0.0
  0
VERTEX
  5
84
330
55
100
AcDbEntity
  8
_U+30EC_U+30A4_U+30E4_U+30FC 1
 62
   179
420
  2234388
370
    25
100
AcDbVertex
100
AcDb2dVertex
 10
86.6515584093267
 20
-160.9231554264847
 30
0.0
  0
VERTEX
  5
85
330
55
100
AcDbEntity
  8
_U+30EC_U+30A4_U+30E4_U+30FC 1
 62
   179
420
  2234388
370
    25
100
AcDbVertex
100
AcDb2dVertex
 10
86.43918980450783
 20
-161.4096352067722
 30
0.0
  0
VERTEX
  5
86
330
55
100
AcDbEntity
  8
_U+30EC_U+30A4_U+30E4_U+30FC 1
 62
   179
420
  2234388
370
    25
100
AcDbVertex
100
AcDb2dVertex
 10
86.62616159604637
 20
-161.9063479972432
 30
0.0
  0
VERTEX
  5
87
330
55
100
AcDbEntity
  8
_U+30EC_U+30A4_U+30E4_U+30FC 1
 62
   179
420
  2234388
370
    25
100
AcDbVertex
100
AcDb2dVertex
 10
86.4137929912275
 20
-162.3931776700408
 30
0.0
  0
VERTEX
  5
88
330
55
100
AcDbEntity
  8
_U+30EC_U+30A4_U+30E4_U+30FC 1
 62
   179
420
  2234388
370
    25
100
AcDbVertex
100
AcDb2dVertex
 10
86.60040950729413
 20
-162.8920059644582
 30
0.0
  0
VERTEX
  5
89
330
55
100
AcDbEntity
  8
_U+30EC_U+30A4_U+30E4_U+30FC 1
 62
   179
420
  2234388
370
    25
100
AcDbVertex
100
AcDb2dVertex
 10
86.38804090247525
 20
-163.3795461881997
 30
0.0
  0
SEQEND
  5
8A
330
55
100
AcDbEntity
  8
_U+30EC_U+30A4_U+30E4_U+30FC 1
 62
   179
420
  2234388
370
    25
  0
POLYLINE
  5
8B
330
1F
100
AcDbEntity
  8
_U+30EC_U+30A4_U+30E4_U+30FC 1
 62
   179
420
  2234388
370
    25
100
AcDb2dPolyline
 66
     1
 10
0.0
 20
0.0
 30
0.0
  0
VERTEX
  5
8C
330
8B
100
AcDbEntity
  8
_U+30EC_U+30A4_U+30E4_U+30FC 1
 62
   179
420
  2234388
370
    25
100
AcDbVertex
100
AcDb2dVertex
 10
86.48785177823699
 20
-163.3823668601283
 30
0.0
  0
VERTEX
  5
8D
330
8B
100
AcDbEntity
  8
_U+30EC_U+30A4_U+30E4_U+30FC 1
 62
   179
420
  2234388
370
    25
100
AcDbVertex
100
AcDb2dVertex
 10
86.08744555546382
 20
-163.3717839574345
 30
0.0
  0
SEQEND
  5
8E
330
8B
100
AcDbEntity
  8
_U+30EC_U+30A4_U+30E4_U+30FC 1
 62
   179
420
  2234388
370
    25
  0
POLYLINE
  5
8F
330
1F
100
AcDbEntity
  8
_U+30EC_U+30A4_U+30E4_U+30FC 1
 62
   179
420
  2234388
370
    25
100
AcDb2dPolyline
 66
     1
 10
0.0
 20
0.0
 30
0.0
  0
VERTEX
  5
90
330
8F
100
AcDbEntity
  8
_U+30EC_U+30A4_U+30E4_U+30FC 1
 62
   179
420
  2234388
370
    25
100
AcDbVertex
100
AcDb2dVertex
 10
86.08751015100417
 20
-163.3716816811623
 30
0.0
  0
VERTEX
  5
91
330
8F
100
AcDbEntity
  8
_U+30EC_U+30A4_U+30E4_U+30FC 1
 62
   179
420
  2234388
370
    25
100
AcDbVertex
100
AcDb2dVertex
 10
86.14219027590912
 20
-137.3716106495221
 30
0.0
  0
SEQEND
  5
92
330
8F
100
AcDbEntity
  8
_U+30EC_U+30A4_U+30E4_U+30FC 1
 62
   179
420
  2234388
370
    25
  0
POLYLINE
  5
93
330
1F
100
AcDbEntity
  8
_U+30EC_U+30A4_U+30E4_U+30FC 1
 62
   179
420
  2234388
370
    25
100
AcDb2dPolyline
 66
     1
 10
0.0
 20
0.0
 30
0.0
  0
VERTEX
  5
94
330
93
100
AcDbEntity
  8
_U+30EC_U+30A4_U+30E4_U+30FC 1
 62
   179
420
  2234388
370
    25
100
AcDbVertex
100
AcDb2dVertex
 10
90.15927927094434
 20
-144.5308043648411
 30
0.0
  0
VERTEX
  5
95
330
93
100
AcDbEntity
  8
_U+30EC_U+30A4_U+30E4_U+30FC 1
 62
   179
420
  2234388
370
    25
100
AcDbVertex
100
AcDb2dVertex
 10
90.69232166989963
 20
-144.7177815393414
 30
0.0
  0
VERTEX
  5
96
330
93
100
AcDbEntity
  8
_U+30EC_U+30A4_U+30E4_U+30FC 1
 62
   179
420
  2234388
370
    25
100
AcDbVertex
100
AcDb2dVertex
 10
91.21619150212543
 20
-144.5054075515608
 30
0.0
  0
VERTEX
  5
97
330
93
100
AcDbEntity
  8
_U+30EC_U+30A4_U+30E4_U+30FC 1
 62
   179
420
  2234388
370
    25
100
AcDbVertex
100
AcDb2dVertex
 10
91.74959994247601
 20
-144.6923793430994
 30
0.0
  0
VERTEX
  5
98
330
93
100
AcDbEntity
  8
_U+30EC_U+30A4_U+30E4_U+30FC 1
 62
   179
420
  2234388
370
    25
100
AcDbVertex
100
AcDb2dVertex
 10
92.27418032564564
 20
-144.4796554628086
 30
0.0
  0
VERTEX
  5
99
330
93
100
AcDbEntity
  8
_U+30EC_U+30A4_U+30E4_U+30FC 1
 62
   179
420
  2234388
370
    25
100
AcDbVertex
100
AcDb2dVertex
 10
92.80793327554477
 20
-144.6673324223293
 30
0.0
  0
VERTEX
  5
9A
330
93
100
AcDbEntity
  8
_U+30EC_U+30A4_U+30E4_U+30FC 1
 62
   179
420
  2234388
370
    25
100
AcDbVertex
100
AcDb2dVertex
 10
93.33180310777057
 20
-144.4546085420385
 30
0.0
  0
VERTEX
  5
9B
330
93
100
AcDbEntity
  8
_U+30EC_U+30A4_U+30E4_U+30FC 1
 62
   179
420
  2234388
370
    25
100
AcDbVertex
100
AcDb2dVertex
 10
93.86450099717733
 20
-144.641580333577
 30
0.0
  0
VERTEX
  5
9C
330
93
100
AcDbEntity
  8
_U+30EC_U+30A4_U+30E4_U+30FC 1
 62
   179
420
  2234388
370
    25
100
AcDbVertex
100
AcDb2dVertex
 10
94.38872610487505
 20
-144.4292063457965
 30
0.0
  0
VERTEX
  5
9D
330
93
100
AcDbEntity
  8
_U+30EC_U+30A4_U+30E4_U+30FC 1
 62
   179
420
  2234388
370
    25
100
AcDbVertex
100
AcDb2dVertex
 10
94.92177926975371
 20
-144.616178137335
 30
0.0
  0
VERTEX
  5
9E
330
93
100
AcDbEntity
  8
_U+30EC_U+30A4_U+30E4_U+30FC 1
 62
   179
420
  2234388
370
    25
100
AcDbVertex
100
AcDb2dVertex
 10
95.44459404148716
 20
-144.4038095325161
 30
0.0
  0
VERTEX
  5
9F
330
93
100
AcDbEntity
  8
_U+30EC_U+30A4_U+30E4_U+30FC 1
 62
   179
420
  2234388
370
    25
100
AcDbVertex
100
AcDb2dVertex
 10
95.97763644044244
 20
-144.5907813240547
 30
0.0
  0
VERTEX
  5
A0
330
93
100
AcDbEntity
  8
_U+30EC_U+30A4_U+30E4_U+30FC 1
 62
   179
420
  2234388
370
    25
100
AcDbVertex
100
AcDb2dVertex
 10
96.50116176311973
 20
-144.3780520608025
 30
0.0
  0
VERTEX
  5
A1
330
93
100
AcDbEntity
  8
_U+30EC_U+30A4_U+30E4_U+30FC 1
 62
   179
420
  2234388
370
    25
100
AcDbVertex
100
AcDb2dVertex
 10
97.034204162075
 20
-144.565379127813
 30
0.0
  0
VERTEX
  5
A2
330
93
100
AcDbEntity
  8
_U+30EC_U+30A4_U+30E4_U+30FC 1
 62
   179
420
  2234388
370
    25
100
AcDbVertex
100
AcDb2dVertex
 10
97.55808476022452
 20
-144.3530051400321
 30
0.0
  0
VERTEX
  5
A3
330
93
100
AcDbEntity
  8
_U+30EC_U+30A4_U+30E4_U+30FC 1
 62
   179
420
  2234388
370
    25
100
AcDbVertex
100
AcDb2dVertex
 10
98.0914824346514
 20
-144.5399769315706
 30
0.0
  0
VERTEX
  5
A4
330
93
100
AcDbEntity
  8
_U+30EC_U+30A4_U+30E4_U+30FC 1
 62
   179
420
  2234388
370
    25
100
AcDbVertex
100
AcDb2dVertex
 10
98.6153522668772
 20
-144.3276083267518
 30
0.0
  0
VERTEX
  5
A5
330
93
100
AcDbEntity
  8
_U+30EC_U+30A4_U+30E4_U+30FC 1
 62
   179
420
  2234388
370
    25
100
AcDbVertex
100
AcDb2dVertex
 10
99.14910521677632
 20
-144.5145801182903
 30
0.0
  0
VERTEX
  5
A6
330
93
100
AcDbEntity
  8
_U+30EC_U+30A4_U+30E4_U+30FC 1
 62
   179
420
  2234388
370
    25
100
AcDbVertex
100
AcDb2dVertex
 10
99.67227526398167
 20
-144.3022061305097
 30
0.0
  0
VERTEX
  5
A7
330
93
100
AcDbEntity
  8
_U+30EC_U+30A4_U+30E4_U+30FC 1
 62
   179
420
  2234388
370
    25
100
AcDbVertex
100
AcDb2dVertex
 10
100.2056837043323
 20
-144.4891779220483
 30
0.0
  0
VERTEX
  5
A8
330
93
100
AcDbEntity
  8
_U+30EC_U+30A4_U+30E4_U+30FC 1
 62
   179
420
  2234388
370
    25
100
AcDbVertex
100
AcDb2dVertex
 10
100.7291982610862
 20
-144.2764540417575
 30
0.0
  0
VERTEX
  5
A9
330
93
100
AcDbEntity
  8
_U+30EC_U+30A4_U+30E4_U+30FC 1
 62
   179
420
  2234388
370
    25
100
AcDbVertex
100
AcDb2dVertex
 10
101.2629512109853
 20
-144.463781108768
 30
0.0
  0
VERTEX
  5
AA
330
93
100
AcDbEntity
  8
_U+30EC_U+30A4_U+30E4_U+30FC 1
 62
   179
420
  2234388
370
    25
100
AcDbVertex
100
AcDb2dVertex
 10
101.7871870846064
 20
-144.2510518455155
 30
0.0
  0
VERTEX
  5
AB
330
93
100
AcDbEntity
  8
_U+30EC_U+30A4_U+30E4_U+30FC 1
 62
   179
420
  2234388
370
    25
100
AcDbVertex
100
AcDb2dVertex
 10
102.321284544054
 20
-144.4380290200157
 30
0.0
  0
VERTEX
  5
AC
330
93
100
AcDbEntity
  8
_U+30EC_U+30A4_U+30E4_U+30FC 1
 62
   179
420
  2234388
370
    25
100
AcDbVertex
100
AcDb2dVertex
 10
102.8441100817109
 20
-144.2256550322352
 30
0.0
  0
VERTEX
  5
AD
330
93
100
AcDbEntity
  8
_U+30EC_U+30A4_U+30E4_U+30FC 1
 62
   179
420
  2234388
370
    25
100
AcDbVertex
100
AcDb2dVertex
 10
103.3771524806661
 20
-144.4129767162839
 30
0.0
  0
VERTEX
  5
AE
330
93
100
AcDbEntity
  8
_U+30EC_U+30A4_U+30E4_U+30FC 1
 62
   179
420
  2234388
370
    25
100
AcDbVertex
100
AcDb2dVertex
 10
103.9013775883639
 20
-144.2002528359931
 30
0.0
  0
VERTEX
  5
AF
330
93
100
AcDbEntity
  8
_U+30EC_U+30A4_U+30E4_U+30FC 1
 62
   179
420
  2234388
370
    25
100
AcDbVertex
100
AcDb2dVertex
 10
104.4358410892068
 20
-144.3875799030036
 30
0.0
  0
VERTEX
  5
B0
330
93
100
AcDbEntity
  8
_U+30EC_U+30A4_U+30E4_U+30FC 1
 62
   179
420
  2234388
370
    25
100
AcDbVertex
100
AcDb2dVertex
 10
104.9611212573969
 20
-144.1748560227128
 30
0.0
  0
VERTEX
  5
B1
330
93
100
AcDbEntity
  8
_U+30EC_U+30A4_U+30E4_U+30FC 1
 62
   179
420
  2234388
370
    25
100
AcDbVertex
100
AcDb2dVertex
 10
105.4969950942041
 20
-144.3618278142513
 30
0.0
  0
VERTEX
  5
B2
330
93
100
AcDbEntity
  8
_U+30EC_U+30A4_U+30E4_U+30FC 1
 62
   179
420
  2234388
370
    25
100
AcDbVertex
100
AcDb2dVertex
 10
106.022985813338
 20
-144.1494538264708
 30
0.0
  0
VERTEX
  5
B3
330
93
100
AcDbEntity
  8
_U+30EC_U+30A4_U+30E4_U+30FC 1
 62
   179
420
  2234388
370
    25
100
AcDbVertex
100
AcDb2dVertex
 10
106.5595594351657
 20
-144.3364256180093
 30
0.0
  0
VERTEX
  5
B4
330
93
100
AcDbEntity
  8
_U+30EC_U+30A4_U+30E4_U+30FC 1
 62
   179
420
  2234388
370
    25
100
AcDbVertex
100
AcDb2dVertex
 10
107.0862607052434
 20
-144.1237017377185
 30
0.0
  0
VERTEX
  5
B5
330
93
100
AcDbEntity
  8
_U+30EC_U+30A4_U+30E4_U+30FC 1
 62
   179
420
  2234388
370
    25
100
AcDbVertex
100
AcDb2dVertex
 10
107.6228343270711
 20
-144.3106735292571
 30
0.0
  0
VERTEX
  5
B6
330
93
100
AcDbEntity
  8
_U+30EC_U+30A4_U+30E4_U+30FC 1
 62
   179
420
  2234388
370
    25
100
AcDbVertex
100
AcDb2dVertex
 10
108.1502353821693
 20
-144.0979496489663
 30
0.0
  0
VERTEX
  5
B7
330
93
100
AcDbEntity
  8
_U+30EC_U+30A4_U+30E4_U+30FC 1
 62
   179
420
  2234388
370
    25
100
AcDbVertex
100
AcDb2dVertex
 10
108.6846988830122
 20
-144.2852713330151
 30
0.0
  0
VERTEX
  5
B8
330
93
100
AcDbEntity
  8
_U+30EC_U+30A4_U+30E4_U+30FC 1
 62
   179
420
  2234388
370
    25
100
AcDbVertex
100
AcDb2dVertex
 10
109.2096237757304
 20
-144.0725474527243
 30
0.0
  0
VERTEX
  5
B9
330
93
100
AcDbEntity
  8
_U+30EC_U+30A4_U+30E4_U+30FC 1
 62
   179
420
  2234388
370
    25
100
AcDbVertex
100
AcDb2dVertex
 10
109.7444425520452
 20
-144.2595192442628
 30
0.0
  0
VERTEX
  5
BA
330
93
100
AcDbEntity
  8
_U+30EC_U+30A4_U+30E4_U+30FC 1
 62
   179
420
  2234388
370
    25
100
AcDbVertex
100
AcDb2dVertex
 10
110.2693674447634
 20
-144.0471506394443
 30
0.0
  0
VERTEX
  5
BB
330
93
100
AcDbEntity
  8
_U+30EC_U+30A4_U+30E4_U+30FC 1
 62
   179
420
  2234388
370
    25
100
AcDbVertex
100
AcDb2dVertex
 10
110.8041862210783
 20
-144.2341224309825
 30
0.0
  0
VERTEX
  5
BC
330
93
100
AcDbEntity
  8
_U+30EC_U+30A4_U+30E4_U+30FC 1
 62
   179
420
  2234388
370
    25
100
AcDbVertex
100
AcDb2dVertex
 10
111.3294663892683
 20
-144.0217484432019
 30
0.0
  0
VERTEX
  5
BD
330
93
100
AcDbEntity
  8
_U+30EC_U+30A4_U+30E4_U+30FC 1
 62
   179
420
  2234388
370
    25
100
AcDbVertex
100
AcDb2dVertex
 10
111.8639298901113
 20
-144.2087202347405
 30
0.0
  0
VERTEX
  5
BE
330
93
100
AcDbEntity
  8
_U+30EC_U+30A4_U+30E4_U+30FC 1
 62
   179
420
  2234388
370
    25
100
AcDbVertex
100
AcDb2dVertex
 10
112.3888655487528
 20
-143.9959963544497
 30
0.0
  0
VERTEX
  5
BF
330
93
100
AcDbEntity
  8
_U+30EC_U+30A4_U+30E4_U+30FC 1
 62
   179
420
  2234388
370
    25
100
AcDbVertex
100
AcDb2dVertex
 10
112.9226184986519
 20
-144.1833234214601
 30
0.0
  0
VERTEX
  5
C0
330
93
100
AcDbEntity
  8
_U+30EC_U+30A4_U+30E4_U+30FC 1
 62
   179
420
  2234388
370
    25
100
AcDbVertex
100
AcDb2dVertex
 10
113.4475433913701
 20
-143.9709494336796
 30
0.0
  0
VERTEX
  5
C1
330
93
100
AcDbEntity
  8
_U+30EC_U+30A4_U+30E4_U+30FC 1
 62
   179
420
  2234388
370
    25
100
AcDbVertex
100
AcDb2dVertex
 10
113.9830619527054
 20
-144.1579212252181
 30
0.0
  0
VERTEX
  5
C2
330
93
100
AcDbEntity
  8
_U+30EC_U+30A4_U+30E4_U+30FC 1
 62
   179
420
  2234388
370
    25
100
AcDbVertex
100
AcDb2dVertex
 10
114.5090526718393
 20
-143.9451973449273
 30
0.0
  0
VERTEX
  5
C3
330
93
100
AcDbEntity
  8
_U+30EC_U+30A4_U+30E4_U+30FC 1
 62
   179
420
  2234388
370
    25
100
AcDbVertex
100
AcDb2dVertex
 10
115.0431608972104
 20
-144.1321691364659
 30
0.0
  0
VERTEX
  5
C4
330
93
100
AcDbEntity
  8
_U+30EC_U+30A4_U+30E4_U+30FC 1
 62
   179
420
  2234388
370
    25
100
AcDbVertex
100
AcDb2dVertex
 10
115.56774128038
 20
-143.9197951486853
 30
0.0
  0
VERTEX
  5
C5
330
93
100
AcDbEntity
  8
_U+30EC_U+30A4_U+30E4_U+30FC 1
 62
   179
420
  2234388
370
    25
100
AcDbVertex
100
AcDb2dVertex
 10
116.1004391697867
 20
-144.1071222156958
 30
0.0
  0
VERTEX
  5
C6
330
93
100
AcDbEntity
  8
_U+30EC_U+30A4_U+30E4_U+30FC 1
 62
   179
420
  2234388
370
    25
100
AcDbVertex
100
AcDb2dVertex
 10
116.6236092169921
 20
-143.894398335405
 30
0.0
  0
VERTEX
  5
C7
330
93
100
AcDbEntity
  8
_U+30EC_U+30A4_U+30E4_U+30FC 1
 62
   179
420
  2234388
370
    25
100
AcDbVertex
100
AcDb2dVertex
 10
117.1548860045112
 20
-144.0817200194537
 30
0.0
  0
SEQEND
  5
C8
330
93
100
AcDbEntity
  8
_U+30EC_U+30A4_U+30E4_U+30FC 1
 62
   179
420
  2234388
370
    25
  0
POLYLINE
  5
C9
330
1F
100
AcDbEntity
  8
_U+30EC_U+30A4_U+30E4_U+30FC 1
 62
   179
420
  2234388
370
    25
100
AcDb2dPolyline
 66
     1
 10
0.0
 20
0.0
 30
0.0
  0
VERTEX
  5
CA
330
C9
100
AcDbEntity
  8
_U+30EC_U+30A4_U+30E4_U+30FC 1
 62
   179
420
  2234388
370
    25
100
AcDbVertex
100
AcDb2dVertex
 10
117.1526359265224
 20
-143.9816722933774
 30
0.0
  0
VERTEX
  5
CB
330
C9
100
AcDbEntity
  8
_U+30EC_U+30A4_U+30E4_U+30FC 1
 62
   179
420
  2234388
370
    25
100
AcDbVertex
100
AcDb2dVertex
 10
117.1423975333772
 20
-143.581271453566
 30
0.0
  0
SEQEND
  5
CC
330
C9
100
AcDbEntity
  8
_U+30EC_U+30A4_U+30E4_U+30FC 1
 62
   179
420
  2234388
370
    25
  0
POLYLINE
  5
CD
330
1F
100
AcDbEntity
  8
_U+30EC_U+30A4_U+30E4_U+30FC 1
 62
   179
420
  2234388
370
    25
100
AcDb2dPolyline
 66
     1
 10
0.0
 20
0.0
 30
0.0
  0
VERTEX
  5
CE
330
CD
100
AcDbEntity
  8
_U+30EC_U+30A4_U+30E4_U+30FC 1
 62
   179
420
  2234388
370
    25
100
AcDbVertex
100
AcDb2dVertex
 10
117.1422898741433
 20
-143.581341432068
 30
0.0
  0
VERTEX
  5
CF
330
CD
100
AcDbEntity
  8
_U+30EC_U+30A4_U+30E4_U+30FC 1
 62
   179
420
  2234388
370
    25
100
AcDbVertex
100
AcDb2dVertex
 10
90.18653858897139
 20
-143.6360269399347
 30
0.0
  0
SEQEND
  5
D0
330
CD
100
AcDbEntity
  8
_U+30EC_U+30A4_U+30E4_U+30FC 1
 62
   179
420
  2234388
370
    25
  0
SPLINE
  5
D1
330
1F
100
AcDbEntity
  8
_U+30EC_U+30A4_U+30E4_U+30FC 1
 62
   179
420
  2234388
370
     9
100
AcDbSpline
210
0.0
220
0.0
230
1.0
 70
    11
 71
     3
 72
    17
 73
    13
 74
     0
 42
0.0000000001
 43
0.0000000001
 12
1.0
 22
0.0
 32
0.0
 13
1.0
 23
0.0
 33
0.0
 40
0.0
 40
0.0
 40
0.0
 40
0.0
 40
1.0
 40
1.0
 40
1.0
 40
2.0
 40
2.0
 40
2.0
 40
3.0
 40
3.0
 40
3.0
 40
4.0
 40
4.0
 40
4.0
 40
4.0
 10
91.14218654473291
 20
-133.3721670029254
 30
0.0
 10
91.14218654473291
 20
-133.4272024033023
 30
0.0
 10
91.18698355196486
 20
-133.4720101764573
 30
0.0
 10
91.24201895234172
 20
-133.4720101764573
 30
0.0
 10
91.29705435271859
 20
-133.4720101764573
 30
0.0
 10
91.34185135994991
 20
-133.4272024033023
 30
0.0
 10
91.34185135994991
 20
-133.3721670029254
 30
0.0
 10
91.34185135994991
 20
-133.3171423684722
 30
0.0
 10
91.29705435271859
 20
-133.2723345953169
 30
0.0
 10
91.24201895234172
 20
-133.2723345953169
 30
0.0
 10
91.18698355196486
 20
-133.2723345953169
 30
0.0
 10
91.14218654473291
 20
-133.3171423684722
 30
0.0
 10
91.14218654473291
 20
-133.3721670029254
 30
0.0
  0
SPLINE
  5
D2
330
1F
100
AcDbEntity
  8
_U+30EC_U+30A4_U+30E4_U+30FC 1
 62
   179
420
  2234388
370
     9
100
AcDbSpline
210
0.0
220
0.0
230
1.0
 70
    11
 71
     3
 72
    17
 73
    13
 74
     0
 42
0.0000000001
 43
0.0000000001
 12
1.0
 22
0.0
 32
0.0
 13
1.0
 23
0.0
 33
0.0
 40
0.0
 40
0.0
 40
0.0
 40
0.0
 40
1.0
 40
1.0
 40
1.0
 40
2.0
 40
2.0
 40
2.0
 40
3.0
 40
3.0
 40
3.0
 40
4.0
 40
4.0
 40
4.0
 40
4.0
 10
81.01569440723631
 20
-137.4714753549008
 30
0.0
 10
81.01569440723631
 20
-137.5265107552777
 30
0.0
 10
81.06049141446795
 20
-137.571318528433
 30
0.0
 10
81.11552681484481
 20
-137.571318528433
 30
0.0
 10
81.17056221522168
 20
-137.571318528433
 30
0.0
 10
81.21535922245333
 20
-137.5265107552777
 30
0.0
 10
81.21535922245333
 20
-137.4714753549008
 30
0.0
 10
81.21535922245333
 20
-137.4157401695035
 30
0.0
 10
81.17056221522168
 20
-137.3716429472923
 30
0.0
 10
81.11552681484481
 20
-137.3716429472923
 30
0.0
 10
81.06049141446795
 20
-137.3716429472923
 30
0.0
 10
81.01569440723631
 20
-137.4157401695035
 30
0.0
 10
81.01569440723631
 20
-137.4714753549008
 30
0.0
  0
SPLINE
  5
D3
330
1F
100
AcDbEntity
  8
_U+30EC_U+30A4_U+30E4_U+30FC 1
 62
   179
420
  2234388
370
     9
100
AcDbSpline
210
0.0
220
0.0
230
1.0
 70
    11
 71
     3
 72
    17
 73
    13
 74
     0
 42
0.0000000001
 43
0.0000000001
 12
1.0
 22
0.0
 32
0.0
 13
1.0
 23
0.0
 33
0.0
 40
0.0
 40
0.0
 40
0.0
 40
0.0
 40
1.0
 40
1.0
 40
1.0
 40
2.0
 40
2.0
 40
2.0
 40
3.0
 40
3.0
 40
3.0
 40
4.0
 40
4.0
 40
4.0
 40
4.0
 10
117.1416654505865
 20
-133.3721670029254
 30
0.0
 10
117.1416654505865
 20
-133.4272024033023
 30
0.0
 10
117.1864624578182
 20
-133.4720101764573
 30
0.0
 10
117.2414978581951
 20
-133.4720101764573
 30
0.0
 10
117.2965332585719
 20
-133.4720101764573
 30
0.0
 10
117.3413302658036
 20
-133.4272024033023
 30
0.0
 10
117.3413302658036
 20
-133.3721670029254
 30
0.0
 10
117.3413302658036
 20
-133.3171423684722
 30
0.0
 10
117.2965332585719
 20
-133.2723345953169
 30
0.0
 10
117.2414978581951
 20
-133.2723345953169
 30
0.0
 10
117.1864624578182
 20
-133.2723345953169
 30
0.0
 10
117.1416654505865
 20
-133.3171423684722
 30
0.0
 10
117.1416654505865
 20
-133.3721670029254
 30
0.0
  0
SPLINE
  5
D4
330
1F
100
AcDbEntity
  8
_U+30EC_U+30A4_U+30E4_U+30FC 1
 62
   179
420
  2234388
370
     9
100
AcDbSpline
210
0.0
220
0.0
230
1.0
 70
    11
 71
     3
 72
    17
 73
    13
 74
     0
 42
0.0000000001
 43
0.0000000001
 12
1.0
 22
0.0
 32
0.0
 13
1.0
 23
0.0
 33
0.0
 40
0.0
 40
0.0
 40
0.0
 40
0.0
 40
1.0
 40
1.0
 40
1.0
 40
2.0
 40
2.0
 40
2.0
 40
3.0
 40
3.0
 40
3.0
 40
4.0
 40
4.0
 40
4.0
 40
4.0
 10
81.01569440723631
 20
-163.4712664725328
 30
0.0
 10
81.01569440723631
 20
-163.5263018729097
 30
0.0
 10
81.06049141446795
 20
-163.571104263103
 30
0.0
 10
81.11552681484481
 20
-163.571104263103
 30
0.0
 10
81.17056221522168
 20
-163.571104263103
 30
0.0
 10
81.21535922245333
 20
-163.5263018729097
 30
0.0
 10
81.21535922245333
 20
-163.4712664725328
 30
0.0
 10
81.21535922245333
 20
-163.4162364551176
 30
0.0
 10
81.17056221522168
 20
-163.3714340649243
 30
0.0
 10
81.11552681484481
 20
-163.3714340649243
 30
0.0
 10
81.06049141446795
 20
-163.3714340649243
 30
0.0
 10
81.01569440723631
 20
-163.4162364551176
 30
0.0
 10
81.01569440723631
 20
-163.4712664725328
 30
0.0
  0
POLYLINE
  5
D5
330
1F
100
AcDbEntity
  8
_U+30EC_U+30A4_U+30E4_U+30FC 1
 62
   179
420
  2234388
370
     9
100
AcDb2dPolyline
 66
     1
 10
0.0
 20
0.0
 30
0.0
  0
VERTEX
  5
D6
330
D5
100
AcDbEntity
  8
_U+30EC_U+30A4_U+30E4_U+30FC 1
 62
   179
420
  2234388
370
     9
100
AcDbVertex
100
AcDb2dVertex
 10
117.2415624537354
 20
-133.3721670029254
 30
0.0
  0
VERTEX
  5
D7
330
D5
100
AcDbEntity
  8
_U+30EC_U+30A4_U+30E4_U+30FC 1
 62
   179
420
  2234388
370
     9
100
AcDbVertex
100
AcDb2dVertex
 10
91.242191207116
 20
-133.3721670029254
 30
0.0
  0
SEQEND
  5
D8
330
D5
100
AcDbEntity
  8
_U+30EC_U+30A4_U+30E4_U+30FC 1
 62
   179
420
  2234388
370
     9
  0
POLYLINE
  5
D9
330
1F
100
AcDbEntity
  8
_U+30EC_U+30A4_U+30E4_U+30FC 1
 62
   179
420
  2234388
370
     9
100
AcDb2dPolyline
 66
     1
 10
0.0
 20
0.0
 30
0.0
  0
VERTEX
  5
DA
330
D9
100
AcDbEntity
  8
_U+30EC_U+30A4_U+30E4_U+30FC 1
 62
   179
420
  2234388
370
     9
100
AcDbVertex
100
AcDb2dVertex
 10
117.2415624537354
 20
-135.6321281094025
 30
0.0
  0
VERTEX
  5
DB
330
D9
100
AcDbEntity
  8
_U+30EC_U+30A4_U+30E4_U+30FC 1
 62
   179
420
  2234388
370
     9
100
AcDbVertex
100
AcDb2dVertex
 10
117.2415624537354
 20
-132.3724648886462
 30
0.0
  0
SEQEND
  5
DC
330
D9
100
AcDbEntity
  8
_U+30EC_U+30A4_U+30E4_U+30FC 1
 62
   179
420
  2234388
370
     9
  0
POLYLINE
  5
DD
330
1F
100
AcDbEntity
  8
_U+30EC_U+30A4_U+30E4_U+30FC 1
 62
   179
420
  2234388
370
     9
100
AcDb2dPolyline
 66
     1
 10
0.0
 20
0.0
 30
0.0
  0
VERTEX
  5
DE
330
DD
100
AcDbEntity
  8
_U+30EC_U+30A4_U+30E4_U+30FC 1
 62
   179
420
  2234388
370
     9
100
AcDbVertex
100
AcDb2dVertex
 10
91.24209431380515
 20
-135.432312571258
 30
0.0
  0
VERTEX
  5
DF
330
DD
100
AcDbEntity
  8
_U+30EC_U+30A4_U+30E4_U+30FC 1
 62
   179
420
  2234388
370
     9
100
AcDbVertex
100
AcDb2dVertex
 10
91.24209431380515
 20
-132.3723249316425
 30
0.0
  0
SEQEND
  5
E0
330
DD
100
AcDbEntity
  8
_U+30EC_U+30A4_U+30E4_U+30FC 1
 62
   179
420
  2234388
370
     9
  0
INSERT
  5
E2
330
1F
100
AcDbEntity
  8
_U+30EC_U+30A4_U+30E4_U+30FC 1
100
AcDbBlockReference
  2
block 3
 10
0.0
 20
0.0
 30
0.0
  0
SPLINE
  5
EA
330
1F
100
AcDbEntity
  8
_U+30EC_U+30A4_U+30E4_U+30FC 1
 62
   179
420
  2234388
370
     9
100
AcDbSpline
210
0.0
220
0.0
230
1.0
 70
    11
 71
     3
 72
    17
 73
    13
 74
     0
 42
0.0000000001
 43
0.0000000001
 12
1.0
 22
0.0
 32
0.0
 13
1.0
 23
0.0
 33
0.0
 40
0.0
 40
0.0
 40
0.0
 40
0.0
 40
1.0
 40
1.0
 40
1.0
 40
2.0
 40
2.0
 40
2.0
 40
3.0
 40
3.0
 40
3.0
 40
4.0
 40
4.0
 40
4.0
 40
4.0
 10
120.0885570649757
 20
-143.581341432068
 30
0.0
 10
120.1435816994292
 20
-143.581341432068
 30
0.0
 10
120.1883894725842
 20
-143.5365390418746
 30
0.0
 10
120.1883894725842
 20
-143.4815090244595
 30
0.0
 10
120.1883894725842
 20
-143.4264736240826
 30
0.0
 10
120.1435816994292
 20
-143.3816712338893
 30
0.0
 10
120.0885570649757
 20
-143.3816712338893
 30
0.0
 10
120.0335216645988
 20
-143.3816712338893
 30
0.0
 10
119.9887138914438
 20
-143.4264736240826
 30
0.0
 10
119.9887138914438
 20
-143.4815090244595
 30
0.0
 10
119.9887138914438
 20
-143.5365390418746
 30
0.0
 10
120.0335216645988
 20
-143.581341432068
 30
0.0
 10
120.0885570649757
 20
-143.581341432068
 30
0.0
  0
SPLINE
  5
EB
330
1F
100
AcDbEntity
  8
_U+30EC_U+30A4_U+30E4_U+30FC 1
 62
   179
420
  2234388
370
     9
100
AcDbSpline
210
0.0
220
0.0
230
1.0
 70
    11
 71
     3
 72
    17
 73
    13
 74
     0
 42
0.0000000001
 43
0.0000000001
 12
1.0
 22
0.0
 32
0.0
 13
1.0
 23
0.0
 33
0.0
 40
0.0
 40
0.0
 40
0.0
 40
0.0
 40
1.0
 40
1.0
 40
1.0
 40
2.0
 40
2.0
 40
2.0
 40
3.0
 40
3.0
 40
3.0
 40
4.0
 40
4.0
 40
4.0
 40
4.0
 10
120.0885570649757
 20
-137.5817184104288
 30
0.0
 10
120.1435816994292
 20
-137.5817184104288
 30
0.0
 10
120.1883894725842
 20
-137.5369214031972
 30
0.0
 10
120.1883894725842
 20
-137.4815307273484
 30
0.0
 10
120.1883894725842
 20
-137.4265060928949
 30
0.0
 10
120.1435816994292
 20
-137.3816983197399
 30
0.0
 10
120.0885570649757
 20
-137.3816983197399
 30
0.0
 10
120.0335216645988
 20
-137.3816983197399
 30
0.0
 10
119.9887138914438
 20
-137.4265060928949
 30
0.0
 10
119.9887138914438
 20
-137.4815307273484
 30
0.0
 10
119.9887138914438
 20
-137.5369214031972
 30
0.0
 10
120.0335216645988
 20
-137.5817184104288
 30
0.0
 10
120.0885570649757
 20
-137.5817184104288
 30
0.0
  0
POLYLINE
  5
EC
330
1F
100
AcDbEntity
  8
_U+30EC_U+30A4_U+30E4_U+30FC 1
 62
   179
420
  2234388
370
     9
100
AcDb2dPolyline
 66
     1
 10
0.0
 20
0.0
 30
0.0
  0
VERTEX
  5
ED
330
EC
100
AcDbEntity
  8
_U+30EC_U+30A4_U+30E4_U+30FC 1
 62
   179
420
  2234388
370
     9
100
AcDbVertex
100
AcDb2dVertex
 10
120.0885570649757
 20
-137.4814553658846
 30
0.0
  0
VERTEX
  5
EE
330
EC
100
AcDbEntity
  8
_U+30EC_U+30A4_U+30E4_U+30FC 1
 62
   179
420
  2234388
370
     9
100
AcDbVertex
100
AcDb2dVertex
 10
120.0885570649757
 20
-143.4815036414978
 30
0.0
  0
SEQEND
  5
EF
330
EC
100
AcDbEntity
  8
_U+30EC_U+30A4_U+30E4_U+30FC 1
 62
   179
420
  2234388
370
     9
  0
POLYLINE
  5
F0
330
1F
100
AcDbEntity
  8
_U+30EC_U+30A4_U+30E4_U+30FC 1
 62
   179
420
  2234388
370
     9
100
AcDb2dPolyline
 66
     1
 10
0.0
 20
0.0
 30
0.0
  0
VERTEX
  5
F1
330
F0
100
AcDbEntity
  8
_U+30EC_U+30A4_U+30E4_U+30FC 1
 62
   179
420
  2234388
370
     9
100
AcDbVertex
100
AcDb2dVertex
 10
121.0821226029217
 20
-137.4814553658846
 30
0.0
  0
VERTEX
  5
F2
330
F0
100
AcDbEntity
  8
_U+30EC_U+30A4_U+30E4_U+30FC 1
 62
   179
420
  2234388
370
     9
100
AcDbVertex
100
AcDb2dVertex
 10
117.8224486162421
 20
-137.4814553658846
 30
0.0
  0
SEQEND
  5
F3
330
F0
100
AcDbEntity
  8
_U+30EC_U+30A4_U+30E4_U+30FC 1
 62
   179
420
  2234388
370
     9
  0
POLYLINE
  5
F4
330
1F
100
AcDbEntity
  8
_U+30EC_U+30A4_U+30E4_U+30FC 1
 62
   179
420
  2234388
370
     9
100
AcDb2dPolyline
 66
     1
 10
0.0
 20
0.0
 30
0.0
  0
VERTEX
  5
F5
330
F4
100
AcDbEntity
  8
_U+30EC_U+30A4_U+30E4_U+30FC 1
 62
   179
420
  2234388
370
     9
100
AcDbVertex
100
AcDb2dVertex
 10
121.0821226029217
 20
-143.4814336629958
 30
0.0
  0
VERTEX
  5
F6
330
F4
100
AcDbEntity
  8
_U+30EC_U+30A4_U+30E4_U+30FC 1
 62
   179
420
  2234388
370
     9
100
AcDbVertex
100
AcDb2dVertex
 10
117.8224486162421
 20
-143.4814336629958
 30
0.0
  0
SEQEND
  5
F7
330
F4
100
AcDbEntity
  8
_U+30EC_U+30A4_U+30E4_U+30FC 1
 62
   179
420
  2234388
370
     9
  0
INSERT
  5
F9
330
1F
100
AcDbEntity
  8
_U+30EC_U+30A4_U+30E4_U+30FC 1
100
AcDbBlockReference
  2
block 4
 10
0.0
 20
0.0
 30
0.0
  0
POLYLINE
  5
FF
330
1F
100
AcDbEntity
  8
_U+30EC_U+30A4_U+30E4_U+30FC 1
 62
   179
420
  2234388
370
     9
100
AcDb2dPolyline
 66
     1
 10
0.0
 20
0.0
 30
0.0
  0
VERTEX
  5
100
330
FF
100
AcDbEntity
  8
_U+30EC_U+30A4_U+30E4_U+30FC 1
 62
   179
420
  2234388
370
     9
100
AcDbVertex
100
AcDb2dVertex
 10
81.11560217630856
 20
-137.4714753549008
 30
0.0
  0
VERTEX
  5
101
330
FF
100
AcDbEntity
  8
_U+30EC_U+30A4_U+30E4_U+30FC 1
 62
   179
420
  2234388
370
     9
100
AcDbVertex
100
AcDb2dVertex
 10
81.11560217630856
 20
-163.4711964940307
 30
0.0
  0
SEQEND
  5
102
330
FF
100
AcDbEntity
  8
_U+30EC_U+30A4_U+30E4_U+30FC 1
 62
   179
420
  2234388
370
     9
  0
POLYLINE
  5
103
330
1F
100
AcDbEntity
  8
_U+30EC_U+30A4_U+30E4_U+30FC 1
 62
   179
420
  2234388
370
     9
100
AcDb2dPolyline
 66
     1
 10
0.0
 20
0.0
 30
0.0
  0
VERTEX
  5
104
330
103
100
AcDbEntity
  8
_U+30EC_U+30A4_U+30E4_U+30FC 1
 62
   179
420
  2234388
370
     9
100
AcDbVertex
100
AcDb2dVertex
 10
79.82570459701407
 20
-137.4714753549008
 30
0.0
  0
VERTEX
  5
105
330
103
100
AcDbEntity
  8
_U+30EC_U+30A4_U+30E4_U+30FC 1
 62
   179
420
  2234388
370
     9
100
AcDbVertex
100
AcDb2dVertex
 10
84.18567748614217
 20
-137.4714753549008
 30
0.0
  0
SEQEND
  5
106
330
103
100
AcDbEntity
  8
_U+30EC_U+30A4_U+30E4_U+30FC 1
 62
   179
420
  2234388
370
     9
  0
POLYLINE
  5
107
330
1F
100
AcDbEntity
  8
_U+30EC_U+30A4_U+30E4_U+30FC 1
 62
   179
420
  2234388
370
     9
100
AcDb2dPolyline
 66
     1
 10
0.0
 20
0.0
 30
0.0
  0
VERTEX
  5
108
330
107
100
AcDbEntity
  8
_U+30EC_U+30A4_U+30E4_U+30FC 1
 62
   179
420
  2234388
370
     9
100
AcDbVertex
100
AcDb2dVertex
 10
79.82570459701407
 20
-163.4712664725328
 30
0.0
  0
VERTEX
  5
109
330
107
100
AcDbEntity
  8
_U+30EC_U+30A4_U+30E4_U+30FC 1
 62
   179
420
  2234388
370
     9
100
AcDbVertex
100
AcDb2dVertex
 10
84.18567748614217
 20
-163.4712664725328
 30
0.0
  0
SEQEND
  5
10A
330
107
100
AcDbEntity
  8
_U+30EC_U+30A4_U+30E4_U+30FC 1
 62
   179
420
  2234388
370
     9
  0
INSERT
  5
10C
330
1F
100
AcDbEntity
  8
_U+30EC_U+30A4_U+30E4_U+30FC 1
100
AcDbBlockReference
  2
block 5
 10
0.0
 20
0.0
 30
0.0
  0
POLYLINE
  5
114
330
1F
100
AcDbEntity
  8
_U+30EC_U+30A4_U+30E4_U+30FC 1
 62
   179
420
  2234388
370
    25
100
AcDb2dPolyline
 66
     1
 10
0.0
 20
0.0
 30
0.0
  0
VERTEX
  5
115
330
114
100
AcDbEntity
  8
_U+30EC_U+30A4_U+30E4_U+30FC 1
 62
   179
420
  2234388
370
    25
100
AcDbVertex
100
AcDb2dVertex
 10
87.13691853358144
 20
-138.3909605739906
 30
0.0
  0
VERTEX
  5
116
330
114
100
AcDbEntity
  8
_U+30EC_U+30A4_U+30E4_U+30FC 1
 62
   179
420
  2234388
370
    25
100
AcDbVertex
100
AcDb2dVertex
 10
90.13693997990717
 20
-138.3909605739906
 30
0.0
  0
SEQEND
  5
117
330
114
100
AcDbEntity
  8
_U+30EC_U+30A4_U+30E4_U+30FC 1
 62
   179
420
  2234388
370
    25
  0
POLYLINE
  5
118
330
1F
100
AcDbEntity
  8
_U+30EC_U+30A4_U+30E4_U+30FC 1
 62
   179
420
  2234388
370
    25
100
AcDb2dPolyline
 66
     1
 10
0.0
 20
0.0
 30
0.0
  0
VERTEX
  5
119
330
118
100
AcDbEntity
  8
_U+30EC_U+30A4_U+30E4_U+30FC 1
 62
   179
420
  2234388
370
    25
100
AcDbVertex
100
AcDb2dVertex
 10
86.1423409988366
 20
-137.3715675858286
 30
0.0
  0
VERTEX
  5
11A
330
118
100
AcDbEntity
  8
_U+30EC_U+30A4_U+30E4_U+30FC 1
 62
   179
420
  2234388
370
    25
100
AcDbVertex
100
AcDb2dVertex
 10
91.14225114027325
 20
-137.3715675858286
 30
0.0
  0
SEQEND
  5
11B
330
118
100
AcDbEntity
  8
_U+30EC_U+30A4_U+30E4_U+30FC 1
 62
   179
420
  2234388
370
    25
  0
POLYLINE
  5
11C
330
1F
100
AcDbEntity
  8
_U+30EC_U+30A4_U+30E4_U+30FC 1
 62
   179
420
  2234388
370
    25
100
AcDb2dPolyline
 66
     1
 10
0.0
 20
0.0
 30
0.0
  0
VERTEX
  5
11D
330
11C
100
AcDbEntity
  8
_U+30EC_U+30A4_U+30E4_U+30FC 1
 62
   179
420
  2234388
370
    25
100
AcDbVertex
100
AcDb2dVertex
 10
91.14218654473291
 20
-143.5083161737041
 30
0.0
  0
VERTEX
  5
11E
330
11C
100
AcDbEntity
  8
_U+30EC_U+30A4_U+30E4_U+30FC 1
 62
   179
420
  2234388
370
    25
100
AcDbVertex
100
AcDb2dVertex
 10
91.14218654473291
 20
-137.5082732810529
 30
0.0
  0
SEQEND
  5
11F
330
11C
100
AcDbEntity
  8
_U+30EC_U+30A4_U+30E4_U+30FC 1
 62
   179
420
  2234388
370
    25
  0
POLYLINE
  5
120
330
1F
100
AcDbEntity
  8
_U+30EC_U+30A4_U+30E4_U+30FC 1
 62
   179
420
  2234388
370
    25
100
AcDb2dPolyline
 66
     1
 10
0.0
 20
0.0
 30
0.0
  0
VERTEX
  5
121
330
120
100
AcDbEntity
  8
_U+30EC_U+30A4_U+30E4_U+30FC 1
 62
   179
420
  2234388
370
    25
100
AcDbVertex
100
AcDb2dVertex
 10
90.13690768213701
 20
-144.5686950322172
 30
0.0
  0
VERTEX
  5
122
330
120
100
AcDbEntity
  8
_U+30EC_U+30A4_U+30E4_U+30FC 1
 62
   179
420
  2234388
370
    25
100
AcDbVertex
100
AcDb2dVertex
 10
90.13690768213701
 20
-138.3908529147567
 30
0.0
  0
SEQEND
  5
123
330
120
100
AcDbEntity
  8
_U+30EC_U+30A4_U+30E4_U+30FC 1
 62
   179
420
  2234388
370
    25
  0
POLYLINE
  5
124
330
1F
100
AcDbEntity
  8
_U+30EC_U+30A4_U+30E4_U+30FC 1
 62
   179
420
  2234388
370
     9
100
AcDb2dPolyline
 66
     1
 10
0.0
 20
0.0
 30
0.0
  0
VERTEX
  5
125
330
124
100
AcDbEntity
  8
_U+30EC_U+30A4_U+30E4_U+30FC 1
 62
   179
420
  2234388
370
     9
100
AcDbVertex
100
AcDb2dVertex
 10
86.71520654841669
 20
-136.4010734217103
 30
0.0
  0
VERTEX
  5
126
330
124
100
AcDbEntity
  8
_U+30EC_U+30A4_U+30E4_U+30FC 1
 62
   179
420
  2234388
370
     9
100
AcDbVertex
100
AcDb2dVertex
 10
87.27223542468835
 20
-137.2318689639017
 30
0.0
  0
SEQEND
  5
127
330
124
100
AcDbEntity
  8
_U+30EC_U+30A4_U+30E4_U+30FC 1
 62
   179
420
  2234388
370
     9
  0
POLYLINE
  5
128
330
1F
100
AcDbEntity
  8
_U+30EC_U+30A4_U+30E4_U+30FC 1
 62
   179
420
  2234388
370
     9
100
AcDb2dPolyline
 66
     1
 10
0.0
 20
0.0
 30
0.0
  0
VERTEX
  5
129
330
128
100
AcDbEntity
  8
_U+30EC_U+30A4_U+30E4_U+30FC 1
 62
   179
420
  2234388
370
     9
100
AcDbVertex
100
AcDb2dVertex
 10
87.2054974655847
 20
-136.2342877365306
 30
0.0
  0
VERTEX
  5
12A
330
128
100
AcDbEntity
  8
_U+30EC_U+30A4_U+30E4_U+30FC 1
 62
   179
420
  2234388
370
     9
100
AcDbVertex
100
AcDb2dVertex
 10
87.27217082914767
 20
-137.2319443253654
 30
0.0
  0
SEQEND
  5
12B
330
128
100
AcDbEntity
  8
_U+30EC_U+30A4_U+30E4_U+30FC 1
 62
   179
420
  2234388
370
     9
  0
POLYLINE
  5
12C
330
1F
100
AcDbEntity
  8
_U+30EC_U+30A4_U+30E4_U+30FC 1
 62
   179
420
  2234388
370
     9
100
AcDb2dPolyline
 66
     1
 10
0.0
 20
0.0
 30
0.0
  0
VERTEX
  5
12D
330
12C
100
AcDbEntity
  8
_U+30EC_U+30A4_U+30E4_U+30FC 1
 62
   179
420
  2234388
370
     9
100
AcDbVertex
100
AcDb2dVertex
 10
86.49645375102672
 20
-134.8717847698845
 30
0.0
  0
VERTEX
  5
12E
330
12C
100
AcDbEntity
  8
_U+30EC_U+30A4_U+30E4_U+30FC 1
 62
   179
420
  2234388
370
     9
100
AcDbVertex
100
AcDb2dVertex
 10
87.27220312691784
 20
-137.2318689639017
 30
0.0
  0
SEQEND
  5
12F
330
12C
100
AcDbEntity
  8
_U+30EC_U+30A4_U+30E4_U+30FC 1
 62
   179
420
  2234388
370
     9
  0
INSERT
  5
131
330
1F
100
AcDbEntity
  8
_U+30EC_U+30A4_U+30E4_U+30FC 1
100
AcDbBlockReference
  2
block 6
 10
0.0
 20
0.0
 30
0.0
  0
POLYLINE
  5
18C
330
1F
100
AcDbEntity
  8
_U+30EC_U+30A4_U+30E4_U+30FC 1
 62
   179
420
  2234388
370
    25
100
AcDb2dPolyline
 66
     1
 10
0.0
 20
0.0
 30
0.0
  0
VERTEX
  5
18D
330
18C
100
AcDbEntity
  8
_U+30EC_U+30A4_U+30E4_U+30FC 1
 62
   179
420
  2234388
370
    25
100
AcDbVertex
100
AcDb2dVertex
 10
86.1423409988366
 20
-138.3909605739906
 30
0.0
  0
VERTEX
  5
18E
330
18C
100
AcDbEntity
  8
_U+30EC_U+30A4_U+30E4_U+30FC 1
 62
   179
420
  2234388
370
    25
100
AcDbVertex
100
AcDb2dVertex
 10
87.13681087434753
 20
-138.3909605739906
 30
0.0
  0
SEQEND
  5
18F
330
18C
100
AcDbEntity
  8
_U+30EC_U+30A4_U+30E4_U+30FC 1
 62
   179
420
  2234388
370
    25
  0
POLYLINE
  5
190
330
1F
100
AcDbEntity
  8
_U+30EC_U+30A4_U+30E4_U+30FC 1
  6
AI-Linetype-1
 62
   154
420
    23468
370
    25
100
AcDb2dPolyline
 66
     1
 10
0.0
 20
0.0
 30
0.0
  0
VERTEX
  5
191
330
190
100
AcDbEntity
  8
_U+30EC_U+30A4_U+30E4_U+30FC 1
  6
AI-Linetype-1
 62
   154
420
    23468
370
    25
100
AcDbVertex
100
AcDb2dVertex
 10
117.1422898741433
 20
-143.0811028016863
 30
0.0
  0
VERTEX
  5
192
330
190
100
AcDbEntity
  8
_U+30EC_U+30A4_U+30E4_U+30FC 1
  6
AI-Linetype-1
 62
   154
420
    23468
370
    25
100
AcDbVertex
100
AcDb2dVertex
 10
102.1425271520631
 20
-143.0811028016863
 30
0.0
  0
SEQEND
  5
194
330
190
100
AcDbEntity
  8
_U+30EC_U+30A4_U+30E4_U+30FC 1
  6
AI-Linetype-1
 62
   154
420
    23468
370
    25
  0
POLYLINE
  5
195
330
1F
100
AcDbEntity
  8
_U+30EC_U+30A4_U+30E4_U+30FC 1
 62
   179
420
  2234388
370
     9
100
AcDb2dPolyline
 66
     1
 10
0.0
 20
0.0
 30
0.0
  0
VERTEX
  5
196
330
195
100
AcDbEntity
  8
_U+30EC_U+30A4_U+30E4_U+30FC 1
 62
   179
420
  2234388
370
     9
100
AcDbVertex
100
AcDb2dVertex
 10
104.2235693776988
 20
-143.1620625455897
 30
0.0
  0
VERTEX
  5
197
330
195
100
AcDbEntity
  8
_U+30EC_U+30A4_U+30E4_U+30FC 1
 62
   179
420
  2234388
370
     9
100
AcDbVertex
100
AcDb2dVertex
 10
104.2235693776988
 20
-153.039840320898
 30
0.0
  0
SEQEND
  5
198
330
195
100
AcDbEntity
  8
_U+30EC_U+30A4_U+30E4_U+30FC 1
 62
   179
420
  2234388
370
     9
  0
INSERT
  5
19A
330
1F
100
AcDbEntity
  8
_U+30EC_U+30A4_U+30E4_U+30FC 1
100
AcDbBlockReference
  2
block 7
 10
0.0
 20
0.0
 30
0.0
  0
POLYLINE
  5
1C1
330
1F
100
AcDbEntity
  8
_U+30EC_U+30A4_U+30E4_U+30FC 1
  6
AI-Linetype-2
 62
   154
420
    23468
370
    25
100
AcDb2dPolyline
 66
     1
 10
0.0
 20
0.0
 30
0.0
  0
VERTEX
  5
1C2
330
1C1
100
AcDbEntity
  8
_U+30EC_U+30A4_U+30E4_U+30FC 1
  6
AI-Linetype-2
 62
   154
420
    23468
370
    25
100
AcDbVertex
100
AcDb2dVertex
 10
85.58748683909033
 20
-163.3716816811623
 30
0.0
  0
VERTEX
  5
1C3
330
1C1
100
AcDbEntity
  8
_U+30EC_U+30A4_U+30E4_U+30FC 1
  6
AI-Linetype-2
 62
   154
420
    23468
370
    25
100
AcDbVertex
100
AcDb2dVertex
 10
85.58748683909033
 20
-148.3715744495336
 30
0.0
  0
SEQEND
  5
1C5
330
1C1
100
AcDbEntity
  8
_U+30EC_U+30A4_U+30E4_U+30FC 1
  6
AI-Linetype-2
 62
   154
420
    23468
370
    25
  0
POLYLINE
  5
1C6
330
1F
100
AcDbEntity
  8
_U+30EC_U+30A4_U+30E4_U+30FC 1
 62
   179
420
  2234388
370
     9
100
AcDb2dPolyline
 66
     1
 10
0.0
 20
0.0
 30
0.0
  0
VERTEX
  5
1C7
330
1C6
100
AcDbEntity
  8
_U+30EC_U+30A4_U+30E4_U+30FC 1
 62
   179
420
  2234388
370
     9
100
AcDbVertex
100
AcDb2dVertex
 10
98.46235772956193
 20
-154.5684291877034
 30
0.0
  0
VERTEX
  5
1C8
330
1C6
100
AcDbEntity
  8
_U+30EC_U+30A4_U+30E4_U+30FC 1
 62
   179
420
  2234388
370
     9
100
AcDbVertex
100
AcDb2dVertex
 10
85.61489688004485
 20
-154.5684291877034
 30
0.0
  0
SEQEND
  5
1C9
330
1C6
100
AcDbEntity
  8
_U+30EC_U+30A4_U+30E4_U+30FC 1
 62
   179
420
  2234388
370
     9
  0
POLYLINE
  5
1CA
330
1F
100
AcDbEntity
  8
_U+30EC_U+30A4_U+30E4_U+30FC 1
 62
   179
420
  2234388
370
     9
100
AcDb2dPolyline
 66
     1
 10
0.0
 20
0.0
 30
0.0
  0
VERTEX
  5
1CB
330
1CA
100
AcDbEntity
  8
_U+30EC_U+30A4_U+30E4_U+30FC 1
 62
   179
420
  2234388
370
     9
100
AcDbVertex
100
AcDb2dVertex
 10
110.9221915073715
 20
-151.1398863096678
 30
0.0
  0
VERTEX
  5
1CC
330
1CA
100
AcDbEntity
  8
_U+30EC_U+30A4_U+30E4_U+30FC 1
 62
   179
420
  2234388
370
     9
100
AcDbVertex
100
AcDb2dVertex
 10
110.5831618138527
 20
-158.8392656141123
 30
0.0
  0
VERTEX
  5
1CD
330
1CA
100
AcDbEntity
  8
_U+30EC_U+30A4_U+30E4_U+30FC 1
 62
   179
420
  2234388
370
     9
100
AcDbVertex
100
AcDb2dVertex
 10
110.3944351768014
 20
-158.9461550845039
 30
0.0
  0
VERTEX
  5
1CE
330
1CA
100
AcDbEntity
  8
_U+30EC_U+30A4_U+30E4_U+30FC 1
 62
   179
420
  2234388
370
     9
100
AcDbVertex
100
AcDb2dVertex
 10
110.5948105429622
 20
-151.0291157238937
 30
0.0
  0
VERTEX
  5
1CF
330
1CA
100
AcDbEntity
  8
_U+30EC_U+30A4_U+30E4_U+30FC 1
 62
   179
420
  2234388
370
     9
100
AcDbVertex
100
AcDb2dVertex
 10
112.2232318173761
 20
-150.1704579719653
 30
0.0
  0
VERTEX
  5
1D0
330
1CA
100
AcDbEntity
  8
_U+30EC_U+30A4_U+30E4_U+30FC 1
 62
   179
420
  2234388
370
     9
100
AcDbVertex
100
AcDb2dVertex
 10
112.174903587272
 20
-152.0740454823401
 30
0.0
  0
SEQEND
  5
1D1
330
1CA
100
AcDbEntity
  8
_U+30EC_U+30A4_U+30E4_U+30FC 1
 62
   179
420
  2234388
370
     9
  0
POLYLINE
  5
1D2
330
1F
100
AcDbEntity
  8
_U+30EC_U+30A4_U+30E4_U+30FC 1
 62
   179
420
  2234388
370
     9
100
AcDb2dPolyline
 66
     1
 10
0.0
 20
0.0
 30
0.0
  0
VERTEX
  5
1D3
330
1D2
100
AcDbEntity
  8
_U+30EC_U+30A4_U+30E4_U+30FC 1
 62
   179
420
  2234388
370
     9
100
AcDbVertex
100
AcDb2dVertex
 10
119.456371277509
 20
-147.985912158845
 30
0.0
  0
VERTEX
  5
1D4
330
1D2
100
AcDbEntity
  8
_U+30EC_U+30A4_U+30E4_U+30FC 1
 62
   179
420
  2234388
370
     9
100
AcDbVertex
100
AcDb2dVertex
 10
119.4521295036927
 20
-148.1206746048969
 30
0.0
  0
VERTEX
  5
1D5
330
1D2
100
AcDbEntity
  8
_U+30EC_U+30A4_U+30E4_U+30FC 1
 62
   179
420
  2234388
370
     9
100
AcDbVertex
100
AcDb2dVertex
 10
111.8314275673926
 20
-152.5889580663043
 30
0.0
  0
VERTEX
  5
1D6
330
1D2
100
AcDbEntity
  8
_U+30EC_U+30A4_U+30E4_U+30FC 1
 62
   179
420
  2234388
370
     9
100
AcDbVertex
100
AcDb2dVertex
 10
111.880810857989
 20
-150.6465647850652
 30
0.0
  0
SEQEND
  5
1D7
330
1D2
100
AcDbEntity
  8
_U+30EC_U+30A4_U+30E4_U+30FC 1
 62
   179
420
  2234388
370
     9
  0
POLYLINE
  5
1D8
330
1F
100
AcDbEntity
  8
_U+30EC_U+30A4_U+30E4_U+30FC 1
 62
   179
420
  2234388
370
     9
100
AcDb2dPolyline
 66
     1
 10
0.0
 20
0.0
 30
0.0
  0
VERTEX
  5
1D9
330
1D8
100
AcDbEntity
  8
_U+30EC_U+30A4_U+30E4_U+30FC 1
 62
   179
420
  2234388
370
     9
100
AcDbVertex
100
AcDb2dVertex
 10
111.8809723468399
 20
-150.6465594021035
 30
0.0
  0
VERTEX
  5
1DA
330
1D8
100
AcDbEntity
  8
_U+30EC_U+30A4_U+30E4_U+30FC 1
 62
   179
420
  2234388
370
     9
100
AcDbVertex
100
AcDb2dVertex
 10
110.6077942465722
 20
-151.2861467619018
 30
0.0
  0
SEQEND
  5
1DB
330
1D8
100
AcDbEntity
  8
_U+30EC_U+30A4_U+30E4_U+30FC 1
 62
   179
420
  2234388
370
     9
  0
POLYLINE
  5
1DC
330
1F
100
AcDbEntity
  8
_U+30EC_U+30A4_U+30E4_U+30FC 1
 62
   179
420
  2234388
370
     9
100
AcDb2dPolyline
 66
     1
 10
0.0
 20
0.0
 30
0.0
  0
VERTEX
  5
1DD
330
1DC
100
AcDbEntity
  8
_U+30EC_U+30A4_U+30E4_U+30FC 1
 62
   179
420
  2234388
370
     9
100
AcDbVertex
100
AcDb2dVertex
 10
111.8499987852428
 20
-152.2708896256286
 30
0.0
  0
VERTEX
  5
1DE
330
1DC
100
AcDbEntity
  8
_U+30EC_U+30A4_U+30E4_U+30FC 1
 62
   179
420
  2234388
370
     9
100
AcDbVertex
100
AcDb2dVertex
 10
119.4565865959768
 20
-147.9860521158491
 30
0.0
  0
SEQEND
  5
1DF
330
1DC
100
AcDbEntity
  8
_U+30EC_U+30A4_U+30E4_U+30FC 1
 62
   179
420
  2234388
370
     9
  0
POLYLINE
  5
1E0
330
1F
100
AcDbEntity
  8
_U+30EC_U+30A4_U+30E4_U+30FC 1
 62
   179
420
  2234388
370
     9
100
AcDb2dPolyline
 66
     1
 10
0.0
 20
0.0
 30
0.0
  0
VERTEX
  5
1E1
330
1E0
100
AcDbEntity
  8
_U+30EC_U+30A4_U+30E4_U+30FC 1
 62
   179
420
  2234388
370
     9
100
AcDbVertex
100
AcDb2dVertex
 10
132.380324012722
 20
-155.7842033844481
 30
0.0
  0
VERTEX
  5
1E2
330
1E0
100
AcDbEntity
  8
_U+30EC_U+30A4_U+30E4_U+30FC 1
 62
   179
420
  2234388
370
     9
100
AcDbVertex
100
AcDb2dVertex
 10
119.4524201836243
 20
-148.1204592864294
 30
0.0
  0
VERTEX
  5
1E3
330
1E0
100
AcDbEntity
  8
_U+30EC_U+30A4_U+30E4_U+30FC 1
 62
   179
420
  2234388
370
     9
100
AcDbVertex
100
AcDb2dVertex
 10
119.4563066819686
 20
-147.9860521158491
 30
0.0
  0
VERTEX
  5
1E4
330
1E0
100
AcDbEntity
  8
_U+30EC_U+30A4_U+30E4_U+30FC 1
 62
   179
420
  2234388
370
     9
100
AcDbVertex
100
AcDb2dVertex
 10
132.3944273723647
 20
-155.6399184791564
 30
0.0
  0
SEQEND
  5
1E5
330
1E0
100
AcDbEntity
  8
_U+30EC_U+30A4_U+30E4_U+30FC 1
 62
   179
420
  2234388
370
     9
  0
POLYLINE
  5
1E6
330
1F
100
AcDbEntity
  8
_U+30EC_U+30A4_U+30E4_U+30FC 1
 62
   179
420
  2234388
370
     9
100
AcDb2dPolyline
 66
     1
 10
0.0
 20
0.0
 30
0.0
  0
VERTEX
  5
1E7
330
1E6
100
AcDbEntity
  8
_U+30EC_U+30A4_U+30E4_U+30FC 1
 62
   179
420
  2234388
370
     9
100
AcDbVertex
100
AcDb2dVertex
 10
123.3225004947499
 20
-166.6097538425571
 30
0.0
  0
VERTEX
  5
1E8
330
1E6
100
AcDbEntity
  8
_U+30EC_U+30A4_U+30E4_U+30FC 1
 62
   179
420
  2234388
370
     9
100
AcDbVertex
100
AcDb2dVertex
 10
110.3945966656522
 20
-158.9460097445381
 30
0.0
  0
VERTEX
  5
1E9
330
1E6
100
AcDbEntity
  8
_U+30EC_U+30A4_U+30E4_U+30FC 1
 62
   179
420
  2234388
370
     9
100
AcDbVertex
100
AcDb2dVertex
 10
110.583334068627
 20
-158.8394755496185
 30
0.0
  0
VERTEX
  5
1EA
330
1E6
100
AcDbEntity
  8
_U+30EC_U+30A4_U+30E4_U+30FC 1
 62
   179
420
  2234388
370
     9
100
AcDbVertex
100
AcDb2dVertex
 10
123.5680281436143
 20
-166.4672345487017
 30
0.0
  0
SEQEND
  5
1EB
330
1E6
100
AcDbEntity
  8
_U+30EC_U+30A4_U+30E4_U+30FC 1
 62
   179
420
  2234388
370
     9
  0
POLYLINE
  5
1EC
330
1F
100
AcDbEntity
  8
_U+30EC_U+30A4_U+30E4_U+30FC 1
 62
   179
420
  2234388
370
     9
100
AcDb2dPolyline
 66
     1
 10
0.0
 20
0.0
 30
0.0
  0
VERTEX
  5
1ED
330
1EC
100
AcDbEntity
  8
_U+30EC_U+30A4_U+30E4_U+30FC 1
 62
   179
420
  2234388
370
     9
100
AcDbVertex
100
AcDb2dVertex
 10
111.8313629718523
 20
-152.5888827048405
 30
0.0
  0
VERTEX
  5
1EE
330
1EC
100
AcDbEntity
  8
_U+30EC_U+30A4_U+30E4_U+30FC 1
 62
   179
420
  2234388
370
     9
100
AcDbVertex
100
AcDb2dVertex
 10
124.8343914143752
 20
-160.282265389956
 30
0.0
  0
SEQEND
  5
1EF
330
1EC
100
AcDbEntity
  8
_U+30EC_U+30A4_U+30E4_U+30FC 1
 62
   179
420
  2234388
370
     9
  0
POLYLINE
  5
1F0
330
1F
100
AcDbEntity
  8
_U+30EC_U+30A4_U+30E4_U+30FC 1
 62
   179
420
  2234388
370
     9
100
AcDb2dPolyline
 66
     1
 10
0.0
 20
0.0
 30
0.0
  0
VERTEX
  5
1F1
330
1F0
100
AcDbEntity
  8
_U+30EC_U+30A4_U+30E4_U+30FC 1
 62
   179
420
  2234388
370
     9
100
AcDbVertex
100
AcDb2dVertex
 10
112.2234040721503
 20
-150.1704149082717
 30
0.0
  0
VERTEX
  5
1F2
330
1F0
100
AcDbEntity
  8
_U+30EC_U+30A4_U+30E4_U+30FC 1
 62
   179
420
  2234388
370
     9
100
AcDbVertex
100
AcDb2dVertex
 10
113.8451181762913
 20
-151.1363227890253
 30
0.0
  0
SEQEND
  5
1F3
330
1F0
100
AcDbEntity
  8
_U+30EC_U+30A4_U+30E4_U+30FC 1
 62
   179
420
  2234388
370
     9
  0
POLYLINE
  5
1F4
330
1F
100
AcDbEntity
  8
_U+30EC_U+30A4_U+30E4_U+30FC 1
 62
   179
420
  2234388
370
     9
100
AcDb2dPolyline
 66
     1
 10
0.0
 20
0.0
 30
0.0
  0
VERTEX
  5
1F5
330
1F4
100
AcDbEntity
  8
_U+30EC_U+30A4_U+30E4_U+30FC 1
 62
   179
420
  2234388
370
     9
100
AcDbVertex
100
AcDb2dVertex
 10
110.9221915073715
 20
-151.1398863096678
 30
0.0
  0
VERTEX
  5
1F6
330
1F4
100
AcDbEntity
  8
_U+30EC_U+30A4_U+30E4_U+30FC 1
 62
   179
420
  2234388
370
     9
100
AcDbVertex
100
AcDb2dVertex
 10
111.8542297931356
 20
-151.7029225711916
 30
0.0
  0
SEQEND
  5
1F7
330
1F4
100
AcDbEntity
  8
_U+30EC_U+30A4_U+30E4_U+30FC 1
 62
   179
420
  2234388
370
     9
  0
SPLINE
  5
1F8
330
1F
100
AcDbEntity
  8
_U+30EC_U+30A4_U+30E4_U+30FC 1
 62
   179
420
  2234388
370
     9
100
AcDbSpline
210
0.0
220
0.0
230
1.0
 70
     8
 71
     3
 72
    11
 73
     7
 74
     0
 42
0.0000000001
 43
0.0000000001
 12
1.0
 22
0.0
 32
0.0
 13
1.0
 23
0.0
 33
0.0
 40
0.0
 40
0.0
 40
0.0
 40
0.0
 40
1.0
 40
1.0
 40
1.0
 40
2.0
 40
2.0
 40
2.0
 40
2.0
 10
112.6543962832785
 20
-155.7790518901053
 30
0.0
 10
112.7535181399431
 20
-155.5670331777966
 30
0.0
 10
112.7200038204257
 20
-155.2329558090379
 30
0.0
 10
112.5464356035095
 20
-154.9175734662484
 30
0.0
 10
112.3210186995402
 20
-154.5065843407814
 30
0.0
 10
111.9414230066826
 20
-154.2783359989603
 30
0.0
 10
111.6793158357954
 20
-154.3880515242421
 30
0.0
  0
SPLINE
  5
1F9
330
1F
100
AcDbEntity
  8
_U+30EC_U+30A4_U+30E4_U+30FC 1
 62
   179
420
  2234388
370
     9
100
AcDbSpline
210
0.0
220
0.0
230
1.0
 70
    11
 71
     3
 72
    17
 73
    13
 74
     0
 42
0.0000000001
 43
0.0000000001
 12
1.0
 22
0.0
 32
0.0
 13
1.0
 23
0.0
 33
0.0
 40
0.0
 40
0.0
 40
0.0
 40
0.0
 40
1.0
 40
1.0
 40
1.0
 40
2.0
 40
2.0
 40
2.0
 40
3.0
 40
3.0
 40
3.0
 40
4.0
 40
4.0
 40
4.0
 40
4.0
 10
112.6871031585416
 20
-155.7645932549906
 30
0.0
 10
112.4253404972029
 20
-155.9081783752618
 30
0.0
 10
112.0224688779731
 20
-155.6778145294942
 30
0.0
 10
111.7875133658791
 20
-155.2498906065326
 30
0.0
 10
111.5522133442365
 20
-154.8212668985506
 30
0.0
 10
111.5740789346445
 20
-154.358068427597
 30
0.0
 10
111.8351418109627
 20
-154.2141387977773
 30
0.0
 10
112.0969044723013
 20
-154.0702037849959
 30
0.0
 10
112.4997760915311
 20
-154.3012727987457
 30
0.0
 10
112.7350761131737
 20
-154.7288414462353
 30
0.0
 10
112.9700208593443
 20
-155.1571152617071
 30
0.0
 10
112.9485105444083
 20
-155.6206636251709
 30
0.0
 10
112.6871031585416
 20
-155.7645932549906
 30
0.0
  0
SPLINE
  5
1FA
330
1F
100
AcDbEntity
  8
_U+30EC_U+30A4_U+30E4_U+30FC 1
 62
   179
420
  2234388
370
     9
100
AcDbSpline
210
0.0
220
0.0
230
1.0
 70
     8
 71
     3
 72
    11
 73
     7
 74
     0
 42
0.0000000001
 43
0.0000000001
 12
1.0
 22
0.0
 32
0.0
 13
1.0
 23
0.0
 33
0.0
 40
0.0
 40
0.0
 40
0.0
 40
0.0
 40
1.0
 40
1.0
 40
1.0
 40
2.0
 40
2.0
 40
2.0
 40
2.0
 10
112.6543962832785
 20
-158.9402607414471
 30
0.0
 10
112.7535181399431
 20
-158.7282420291385
 30
0.0
 10
112.7200038204257
 20
-158.3941646603798
 30
0.0
 10
112.5464356035095
 20
-158.0787823175902
 30
0.0
 10
112.3210186995402
 20
-157.6677931921233
 30
0.0
 10
111.9414230066826
 20
-157.4395448503021
 30
0.0
 10
111.6793158357954
 20
-157.5492603755839
 30
0.0
  0
SPLINE
  5
1FB
330
1F
100
AcDbEntity
  8
_U+30EC_U+30A4_U+30E4_U+30FC 1
 62
   179
420
  2234388
370
     9
100
AcDbSpline
210
0.0
220
0.0
230
1.0
 70
    11
 71
     3
 72
    17
 73
    13
 74
     0
 42
0.0000000001
 43
0.0000000001
 12
1.0
 22
0.0
 32
0.0
 13
1.0
 23
0.0
 33
0.0
 40
0.0
 40
0.0
 40
0.0
 40
0.0
 40
1.0
 40
1.0
 40
1.0
 40
2.0
 40
2.0
 40
2.0
 40
3.0
 40
3.0
 40
3.0
 40
4.0
 40
4.0
 40
4.0
 40
4.0
 10
112.6871031585416
 20
-158.9257967233708
 30
0.0
 10
112.4253404972029
 20
-159.069381843642
 30
0.0
 10
112.0224688779731
 20
-158.8386627224024
 30
0.0
 10
111.7875133658791
 20
-158.4107441824025
 30
0.0
 10
111.5522133442365
 20
-157.9824703669307
 30
0.0
 10
111.5740789346445
 20
-157.518922003467
 30
0.0
 10
111.8351418109627
 20
-157.3753422661575
 30
0.0
 10
112.0969044723013
 20
-157.2314072533761
 30
0.0
 10
112.4997760915311
 20
-157.4624762671258
 30
0.0
 10
112.7350761131737
 20
-157.8900449146155
 30
0.0
 10
112.9700208593443
 20
-158.3183187300873
 30
0.0
 10
112.9485105444083
 20
-158.7822169860613
 30
0.0
 10
112.6871031585416
 20
-158.9257967233708
 30
0.0
  0
SPLINE
  5
1FC
330
1F
100
AcDbEntity
  8
_U+30EC_U+30A4_U+30E4_U+30FC 1
 62
   179
420
  2234388
370
     9
100
AcDbSpline
210
0.0
220
0.0
230
1.0
 70
     8
 71
     3
 72
    11
 73
     7
 74
     0
 42
0.0000000001
 43
0.0000000001
 12
1.0
 22
0.0
 32
0.0
 13
1.0
 23
0.0
 33
0.0
 40
0.0
 40
0.0
 40
0.0
 40
0.0
 40
1.0
 40
1.0
 40
1.0
 40
2.0
 40
2.0
 40
2.0
 40
2.0
 10
116.4874310520142
 20
-158.0555656037967
 30
0.0
 10
116.5858531236585
 20
-157.8439021669599
 30
0.0
 10
116.5530385891614
 20
-157.5098194152395
 30
0.0
 10
116.3791258626967
 20
-157.19443707245
 30
0.0
 10
116.153698192804
 20
-156.7830980544728
 30
0.0
 10
115.7737579903979
 20
-156.5552049881236
 30
0.0
 10
115.5123506045312
 20
-156.6649205134054
 30
0.0
  0
SPLINE
  5
1FD
330
1F
100
AcDbEntity
  8
_U+30EC_U+30A4_U+30E4_U+30FC 1
 62
   179
420
  2234388
370
     9
100
AcDbSpline
210
0.0
220
0.0
230
1.0
 70
    11
 71
     3
 72
    17
 73
    13
 74
     0
 42
0.0000000001
 43
0.0000000001
 12
1.0
 22
0.0
 32
0.0
 13
1.0
 23
0.0
 33
0.0
 40
0.0
 40
0.0
 40
0.0
 40
0.0
 40
1.0
 40
1.0
 40
1.0
 40
2.0
 40
2.0
 40
2.0
 40
3.0
 40
3.0
 40
3.0
 40
4.0
 40
4.0
 40
4.0
 40
4.0
 10
116.5198149495756
 20
-158.0414514782305
 30
0.0
 10
116.2580522882369
 20
-158.1850365985017
 30
0.0
 10
115.8555251785557
 20
-157.9543174772622
 30
0.0
 10
115.6202251569131
 20
-157.5263989372623
 30
0.0
 10
115.3849251352705
 20
-157.0981251217905
 30
0.0
 10
115.40644621613
 20
-156.6345767583267
 30
0.0
 10
115.6682088774686
 20
-156.4906417455453
 30
0.0
 10
115.9299607728838
 20
-156.3470620082358
 30
0.0
 10
116.3324878825651
 20
-156.5777811294753
 30
0.0
 10
116.5677879042077
 20
-157.0053443940033
 30
0.0
 10
116.8030879258502
 20
-157.4339734849471
 30
0.0
 10
116.7815668449908
 20
-157.8975218484108
 30
0.0
 10
116.5198149495756
 20
-158.0414514782305
 30
0.0
  0
SPLINE
  5
1FE
330
1F
100
AcDbEntity
  8
_U+30EC_U+30A4_U+30E4_U+30FC 1
 62
   179
420
  2234388
370
     9
100
AcDbSpline
210
0.0
220
0.0
230
1.0
 70
     8
 71
     3
 72
    11
 73
     7
 74
     0
 42
0.0000000001
 43
0.0000000001
 12
1.0
 22
0.0
 32
0.0
 13
1.0
 23
0.0
 33
0.0
 40
0.0
 40
0.0
 40
0.0
 40
0.0
 40
1.0
 40
1.0
 40
1.0
 40
2.0
 40
2.0
 40
2.0
 40
2.0
 10
116.4874310520142
 20
-161.2167690721768
 30
0.0
 10
116.5858531236585
 20
-161.0051056353401
 30
0.0
 10
116.5530385891614
 20
-160.6710228836197
 30
0.0
 10
116.3791258626967
 20
-160.3552906483199
 30
0.0
 10
116.153698192804
 20
-159.944301522853
 30
0.0
 10
115.7737579903979
 20
-159.7164084565037
 30
0.0
 10
115.5123506045312
 20
-159.8261239817855
 30
0.0
  0
SPLINE
  5
1FF
330
1F
100
AcDbEntity
  8
_U+30EC_U+30A4_U+30E4_U+30FC 1
 62
   179
420
  2234388
370
     9
100
AcDbSpline
210
0.0
220
0.0
230
1.0
 70
    11
 71
     3
 72
    17
 73
    13
 74
     0
 42
0.0000000001
 43
0.0000000001
 12
1.0
 22
0.0
 32
0.0
 13
1.0
 23
0.0
 33
0.0
 40
0.0
 40
0.0
 40
0.0
 40
0.0
 40
1.0
 40
1.0
 40
1.0
 40
2.0
 40
2.0
 40
2.0
 40
3.0
 40
3.0
 40
3.0
 40
4.0
 40
4.0
 40
4.0
 40
4.0
 10
116.5198149495756
 20
-161.2026603295724
 30
0.0
 10
116.2580522882369
 20
-161.3462454498436
 30
0.0
 10
115.8555251785557
 20
-161.115526328604
 30
0.0
 10
115.6202251569131
 20
-160.6876077886041
 30
0.0
 10
115.3849251352705
 20
-160.2593339731323
 30
0.0
 10
115.40644621613
 20
-159.7957856096686
 30
0.0
 10
115.6682088774686
 20
-159.6518505968872
 30
0.0
 10
115.9299607728838
 20
-159.5082708595777
 30
0.0
 10
116.3324878825651
 20
-159.7389899808172
 30
0.0
 10
116.5677879042077
 20
-160.1669085208171
 30
0.0
 10
116.8030879258502
 20
-160.5951823362889
 30
0.0
 10
116.7815668449908
 20
-161.0587306997527
 30
0.0
 10
116.5198149495756
 20
-161.2026603295724
 30
0.0
  0
SPLINE
  5
200
330
1F
100
AcDbEntity
  8
_U+30EC_U+30A4_U+30E4_U+30FC 1
 62
   179
420
  2234388
370
     9
100
AcDbSpline
210
0.0
220
0.0
230
1.0
 70
     8
 71
     3
 72
    11
 73
     7
 74
     0
 42
0.0000000001
 43
0.0000000001
 12
1.0
 22
0.0
 32
0.0
 13
1.0
 23
0.0
 33
0.0
 40
0.0
 40
0.0
 40
0.0
 40
0.0
 40
1.0
 40
1.0
 40
1.0
 40
2.0
 40
2.0
 40
2.0
 40
2.0
 10
114.6036313088328
 20
-158.5310049296462
 30
0.0
 10
114.702408655949
 20
-158.3189862173376
 30
0.0
 10
114.66923884598
 20
-157.984553573107
 30
0.0
 10
114.4953261195153
 20
-157.6691712303174
 30
0.0
 10
114.2702537250945
 20
-157.2585373803224
 30
0.0
 10
113.8903135226884
 20
-157.0302890385012
 30
0.0
 10
113.6285508613498
 20
-157.140004563783
 30
0.0
  0
SPLINE
  5
201
330
1F
100
AcDbEntity
  8
_U+30EC_U+30A4_U+30E4_U+30FC 1
 62
   179
420
  2234388
370
     9
100
AcDbSpline
210
0.0
220
0.0
230
1.0
 70
    11
 71
     3
 72
    17
 73
    13
 74
     0
 42
0.0000000001
 43
0.0000000001
 12
1.0
 22
0.0
 32
0.0
 13
1.0
 23
0.0
 33
0.0
 40
0.0
 40
0.0
 40
0.0
 40
0.0
 40
1.0
 40
1.0
 40
1.0
 40
2.0
 40
2.0
 40
2.0
 40
3.0
 40
3.0
 40
3.0
 40
4.0
 40
4.0
 40
4.0
 40
4.0
 10
114.6360259723176
 20
-158.516503230838
 30
0.0
 10
114.3746078205274
 20
-158.6600883511092
 30
0.0
 10
113.9717362012977
 20
-158.4293692298696
 30
0.0
 10
113.736791455127
 20
-158.0010954143978
 30
0.0
 10
113.5014914334844
 20
-157.5731768743979
 30
0.0
 10
113.5230017484205
 20
-157.1096285109342
 30
0.0
 10
113.7844199002106
 20
-156.9656934981528
 30
0.0
 10
114.0461717956258
 20
-156.8221137608433
 30
0.0
 10
114.4486989053071
 20
-157.0528328820828
 30
0.0
 10
114.6843542024216
 20
-157.4807514220827
 30
0.0
 10
114.9192989485922
 20
-157.9090252375545
 30
0.0
 10
114.8977778677328
 20
-158.3725736010183
 30
0.0
 10
114.6360259723176
 20
-158.516503230838
 30
0.0
  0
SPLINE
  5
202
330
1F
100
AcDbEntity
  8
_U+30EC_U+30A4_U+30E4_U+30FC 1
 62
   179
420
  2234388
370
     9
100
AcDbSpline
210
0.0
220
0.0
230
1.0
 70
     8
 71
     3
 72
    11
 73
     7
 74
     0
 42
0.0000000001
 43
0.0000000001
 12
1.0
 22
0.0
 32
0.0
 13
1.0
 23
0.0
 33
0.0
 40
0.0
 40
0.0
 40
0.0
 40
0.0
 40
1.0
 40
1.0
 40
1.0
 40
2.0
 40
2.0
 40
2.0
 40
2.0
 10
120.1564685097287
 20
-160.2421892401315
 30
0.0
 10
120.2548905813729
 20
-160.0305258032948
 30
0.0
 10
120.2217315373274
 20
-159.6964430515744
 30
0.0
 10
120.0481633204111
 20
-159.3810607087848
 30
0.0
 10
119.8223803750466
 20
-158.9700769662796
 30
0.0
 10
119.4427954481124
 20
-158.7418286244584
 30
0.0
 10
119.1810327867738
 20
-158.8515441497402
 30
0.0
  0
SPLINE
  5
203
330
1F
100
AcDbEntity
  8
_U+30EC_U+30A4_U+30E4_U+30FC 1
 62
   179
420
  2234388
370
     9
100
AcDbSpline
210
0.0
220
0.0
230
1.0
 70
    11
 71
     3
 72
    17
 73
    13
 74
     0
 42
0.0000000001
 43
0.0000000001
 12
1.0
 22
0.0
 32
0.0
 13
1.0
 23
0.0
 33
0.0
 40
0.0
 40
0.0
 40
0.0
 40
0.0
 40
1.0
 40
1.0
 40
1.0
 40
2.0
 40
2.0
 40
2.0
 40
3.0
 40
3.0
 40
3.0
 40
4.0
 40
4.0
 40
4.0
 40
4.0
 10
120.1888093435965
 20
-160.2280428167952
 30
0.0
 10
119.9270466822578
 20
-160.3716279370664
 30
0.0
 10
119.524175063028
 20
-160.1409088158269
 30
0.0
 10
119.2888642754621
 20
-159.712990275827
 30
0.0
 10
119.0539195292914
 20
-159.2847164603552
 30
0.0
 10
119.0754406101508
 20
-158.8211680968914
 30
0.0
 10
119.3372032714895
 20
-158.67723308411
 30
0.0
 10
119.5986106573562
 20
-158.5336533468005
 30
0.0
 10
120.001482276586
 20
-158.76437246804
 30
0.0
 10
120.2367822982286
 20
-159.1922910080399
 30
0.0
 10
120.4720823198711
 20
-159.6205648235118
 30
0.0
 10
120.4505612390117
 20
-160.0841131869755
 30
0.0
 10
120.1888093435965
 20
-160.2280428167952
 30
0.0
  0
SPLINE
  5
204
330
1F
100
AcDbEntity
  8
_U+30EC_U+30A4_U+30E4_U+30FC 1
 62
   179
420
  2234388
370
     9
100
AcDbSpline
210
0.0
220
0.0
230
1.0
 70
     8
 71
     3
 72
    11
 73
     7
 74
     0
 42
0.0000000001
 43
0.0000000001
 12
1.0
 22
0.0
 32
0.0
 13
1.0
 23
0.0
 33
0.0
 40
0.0
 40
0.0
 40
0.0
 40
0.0
 40
1.0
 40
1.0
 40
1.0
 40
2.0
 40
2.0
 40
2.0
 40
2.0
 10
120.1564685097287
 20
-163.4033927085117
 30
0.0
 10
120.2548905813729
 20
-163.1917292716749
 30
0.0
 10
120.2217315373274
 20
-162.8576465199545
 30
0.0
 10
120.0481633204111
 20
-162.542264177165
 30
0.0
 10
119.8223803750466
 20
-162.1309251591879
 30
0.0
 10
119.4427954481124
 20
-161.9030320928386
 30
0.0
 10
119.1810327867738
 20
-162.0127476181204
 30
0.0
  0
SPLINE
  5
205
330
1F
100
AcDbEntity
  8
_U+30EC_U+30A4_U+30E4_U+30FC 1
 62
   179
420
  2234388
370
     9
100
AcDbSpline
210
0.0
220
0.0
230
1.0
 70
    11
 71
     3
 72
    17
 73
    13
 74
     0
 42
0.0000000001
 43
0.0000000001
 12
1.0
 22
0.0
 32
0.0
 13
1.0
 23
0.0
 33
0.0
 40
0.0
 40
0.0
 40
0.0
 40
0.0
 40
1.0
 40
1.0
 40
1.0
 40
2.0
 40
2.0
 40
2.0
 40
3.0
 40
3.0
 40
3.0
 40
4.0
 40
4.0
 40
4.0
 40
4.0
 10
120.1888093435965
 20
-163.3892462851754
 30
0.0
 10
119.9270466822578
 20
-163.5328314054466
 30
0.0
 10
119.524175063028
 20
-163.302112284207
 30
0.0
 10
119.2888642754621
 20
-162.8741937442071
 30
0.0
 10
119.0539195292914
 20
-162.4459199287353
 30
0.0
 10
119.0754406101508
 20
-161.9823715652716
 30
0.0
 10
119.3372032714895
 20
-161.8384365524902
 30
0.0
 10
119.5986106573562
 20
-161.6948568151807
 30
0.0
 10
120.001482276586
 20
-161.9255759364202
 30
0.0
 10
120.2367822982286
 20
-162.3534944764201
 30
0.0
 10
120.4720823198711
 20
-162.7817682918919
 30
0.0
 10
120.4505612390117
 20
-163.2453166553557
 30
0.0
 10
120.1888093435965
 20
-163.3892462851754
 30
0.0
  0
SPLINE
  5
206
330
1F
100
AcDbEntity
  8
_U+30EC_U+30A4_U+30E4_U+30FC 1
 62
   179
420
  2234388
370
     9
100
AcDbSpline
210
0.0
220
0.0
230
1.0
 70
     8
 71
     3
 72
    11
 73
     7
 74
     0
 42
0.0000000001
 43
0.0000000001
 12
1.0
 22
0.0
 32
0.0
 13
1.0
 23
0.0
 33
0.0
 40
0.0
 40
0.0
 40
0.0
 40
0.0
 40
1.0
 40
1.0
 40
1.0
 40
2.0
 40
2.0
 40
2.0
 40
2.0
 10
118.2726257028537
 20
-160.7175908852492
 30
0.0
 10
118.3714030499699
 20
-160.5055721729406
 30
0.0
 10
118.3382332400009
 20
-160.1714948041819
 30
0.0
 10
118.1643205135362
 20
-159.8557571859204
 30
0.0
 10
117.9388928436435
 20
-159.4451233359254
 30
0.0
 10
117.5593079167094
 20
-159.2168749941042
 30
0.0
 10
117.2975452553707
 20
-159.326590519386
 30
0.0
  0
SPLINE
  5
207
330
1F
100
AcDbEntity
  8
_U+30EC_U+30A4_U+30E4_U+30FC 1
 62
   179
420
  2234388
370
     9
100
AcDbSpline
210
0.0
220
0.0
230
1.0
 70
    11
 71
     3
 72
    17
 73
    13
 74
     0
 42
0.0000000001
 43
0.0000000001
 12
1.0
 22
0.0
 32
0.0
 13
1.0
 23
0.0
 33
0.0
 40
0.0
 40
0.0
 40
0.0
 40
0.0
 40
1.0
 40
1.0
 40
1.0
 40
2.0
 40
2.0
 40
2.0
 40
3.0
 40
3.0
 40
3.0
 40
4.0
 40
4.0
 40
4.0
 40
4.0
 10
118.3050203663385
 20
-160.7031268671729
 30
0.0
 10
118.0432577049998
 20
-160.846711987444
 30
0.0
 10
117.6407305953186
 20
-160.6159928662045
 30
0.0
 10
117.405430573676
 20
-160.1880743262046
 30
0.0
 10
117.1701305520334
 20
-159.7598005107328
 30
0.0
 10
117.1916516328928
 20
-159.296252147269
 30
0.0
 10
117.4534142942315
 20
-159.1523171344876
 30
0.0
 10
117.7151661896467
 20
-159.0087373971782
 30
0.0
 10
118.1180378088765
 20
-159.2398064109279
 30
0.0
 10
118.3533485964425
 20
-159.6673750584176
 30
0.0
 10
118.5882933426131
 20
-160.0956488738894
 30
0.0
 10
118.5667722617537
 20
-160.5591972373531
 30
0.0
 10
118.3050203663385
 20
-160.7031268671729
 30
0.0
  0
SPLINE
  5
208
330
1F
100
AcDbEntity
  8
_U+30EC_U+30A4_U+30E4_U+30FC 1
 62
   179
420
  2234388
370
     9
100
AcDbSpline
210
0.0
220
0.0
230
1.0
 70
     8
 71
     3
 72
    11
 73
     7
 74
     0
 42
0.0000000001
 43
0.0000000001
 12
1.0
 22
0.0
 32
0.0
 13
1.0
 23
0.0
 33
0.0
 40
0.0
 40
0.0
 40
0.0
 40
0.0
 40
1.0
 40
1.0
 40
1.0
 40
2.0
 40
2.0
 40
2.0
 40
2.0
 10
123.8581913108595
 20
-162.3553946618987
 30
0.0
 10
123.9566133825037
 20
-162.14337594959
 30
0.0
 10
123.9234543384582
 20
-161.8089433053594
 30
0.0
 10
123.7498861215419
 20
-161.4939162380418
 30
0.0
 10
123.5241031761774
 20
-161.0829271125749
 30
0.0
 10
123.1445182492432
 20
-160.8546787707537
 30
0.0
 10
122.8827555879045
 20
-160.9643942960355
 30
0.0
  0
SPLINE
  5
209
330
1F
100
AcDbEntity
  8
_U+30EC_U+30A4_U+30E4_U+30FC 1
 62
   179
420
  2234388
370
     9
100
AcDbSpline
210
0.0
220
0.0
230
1.0
 70
    11
 71
     3
 72
    17
 73
    13
 74
     0
 42
0.0000000001
 43
0.0000000001
 12
1.0
 22
0.0
 32
0.0
 13
1.0
 23
0.0
 33
0.0
 40
0.0
 40
0.0
 40
0.0
 40
0.0
 40
1.0
 40
1.0
 40
1.0
 40
2.0
 40
2.0
 40
2.0
 40
3.0
 40
3.0
 40
3.0
 40
4.0
 40
4.0
 40
4.0
 40
4.0
 10
123.8905859743442
 20
-162.3409306438223
 30
0.0
 10
123.6288233130056
 20
-162.4848656566037
 30
0.0
 10
123.2259516937758
 20
-162.2541519183259
 30
0.0
 10
122.9909961816817
 20
-161.8258781028541
 30
0.0
 10
122.7556961600392
 20
-161.3979595628542
 30
0.0
 10
122.7768619654267
 20
-160.9344058164287
 30
0.0
 10
123.0386246267653
 20
-160.790476186609
 30
0.0
 10
123.3003872881039
 20
-160.6468964492995
 30
0.0
 10
123.7032589073337
 20
-160.8772602950671
 30
0.0
 10
123.9382036535044
 20
-161.305178835067
 30
0.0
 10
124.1735036751469
 20
-161.7334526505389
 30
0.0
 10
124.1519933602109
 20
-162.1973509065128
 30
0.0
 10
123.8905859743442
 20
-162.3409306438223
 30
0.0
  0
SPLINE
  5
20A
330
1F
100
AcDbEntity
  8
_U+30EC_U+30A4_U+30E4_U+30FC 1
 62
   179
420
  2234388
370
     9
100
AcDbSpline
210
0.0
220
0.0
230
1.0
 70
     8
 71
     3
 72
    11
 73
     7
 74
     0
 42
0.0000000001
 43
0.0000000001
 12
1.0
 22
0.0
 32
0.0
 13
1.0
 23
0.0
 33
0.0
 40
0.0
 40
0.0
 40
0.0
 40
0.0
 40
1.0
 40
1.0
 40
1.0
 40
2.0
 40
2.0
 40
2.0
 40
2.0
 10
123.8581913108595
 20
-165.5166035132405
 30
0.0
 10
123.9566133825037
 20
-165.3045848009319
 30
0.0
 10
123.9234543384582
 20
-164.9701521567013
 30
0.0
 10
123.7498861215419
 20
-164.6551250893836
 30
0.0
 10
123.5241031761774
 20
-164.2441359639167
 30
0.0
 10
123.1445182492432
 20
-164.0158876220955
 30
0.0
 10
122.8827555879045
 20
-164.1256031473773
 30
0.0
  0
SPLINE
  5
20B
330
1F
100
AcDbEntity
  8
_U+30EC_U+30A4_U+30E4_U+30FC 1
 62
   179
420
  2234388
370
     9
100
AcDbSpline
210
0.0
220
0.0
230
1.0
 70
    11
 71
     3
 72
    17
 73
    13
 74
     0
 42
0.0000000001
 43
0.0000000001
 12
1.0
 22
0.0
 32
0.0
 13
1.0
 23
0.0
 33
0.0
 40
0.0
 40
0.0
 40
0.0
 40
0.0
 40
1.0
 40
1.0
 40
1.0
 40
2.0
 40
2.0
 40
2.0
 40
3.0
 40
3.0
 40
3.0
 40
4.0
 40
4.0
 40
4.0
 40
4.0
 10
123.8905859743442
 20
-165.5021394951642
 30
0.0
 10
123.6288233130056
 20
-165.6457246154354
 30
0.0
 10
123.2259516937758
 20
-165.4153607696678
 30
0.0
 10
122.9909961816817
 20
-164.9870869541959
 30
0.0
 10
122.7556961600392
 20
-164.5591684141961
 30
0.0
 10
122.7768619654267
 20
-164.0952647752604
 30
0.0
 10
123.0386246267653
 20
-163.9516850379509
 30
0.0
 10
123.3003872881039
 20
-163.8077500251695
 30
0.0
 10
123.7032589073337
 20
-164.038469146409
 30
0.0
 10
123.9382036535044
 20
-164.4663876864089
 30
0.0
 10
124.1735036751469
 20
-164.8946615018807
 30
0.0
 10
124.1519933602109
 20
-165.3582098653445
 30
0.0
 10
123.8905859743442
 20
-165.5021394951642
 30
0.0
  0
SPLINE
  5
20C
330
1F
100
AcDbEntity
  8
_U+30EC_U+30A4_U+30E4_U+30FC 1
 62
   179
420
  2234388
370
     9
100
AcDbSpline
210
0.0
220
0.0
230
1.0
 70
     8
 71
     3
 72
    11
 73
     7
 74
     0
 42
0.0000000001
 43
0.0000000001
 12
1.0
 22
0.0
 32
0.0
 13
1.0
 23
0.0
 33
0.0
 40
0.0
 40
0.0
 40
0.0
 40
0.0
 40
1.0
 40
1.0
 40
1.0
 40
2.0
 40
2.0
 40
2.0
 40
2.0
 10
121.9744023336015
 20
-162.8301288197661
 30
0.0
 10
122.0728244052457
 20
-162.6184653829294
 30
0.0
 10
122.0400098707487
 20
-162.284382631209
 30
0.0
 10
121.8664416538324
 20
-161.9690002884194
 30
0.0
 10
121.6406694743913
 20
-161.5576612704423
 30
0.0
 10
121.2610845474571
 20
-161.329768204093
 30
0.0
 10
120.9989666106465
 20
-161.4394837293748
 30
0.0
  0
SPLINE
  5
20D
330
1F
100
AcDbEntity
  8
_U+30EC_U+30A4_U+30E4_U+30FC 1
 62
   179
420
  2234388
370
     9
100
AcDbSpline
210
0.0
220
0.0
230
1.0
 70
    11
 71
     3
 72
    17
 73
    13
 74
     0
 42
0.0000000001
 43
0.0000000001
 12
1.0
 22
0.0
 32
0.0
 13
1.0
 23
0.0
 33
0.0
 40
0.0
 40
0.0
 40
0.0
 40
0.0
 40
1.0
 40
1.0
 40
1.0
 40
2.0
 40
2.0
 40
2.0
 40
3.0
 40
3.0
 40
3.0
 40
4.0
 40
4.0
 40
4.0
 40
4.0
 10
122.0067862311628
 20
-162.8156648016898
 30
0.0
 10
121.7453680793727
 20
-162.9595998144711
 30
0.0
 10
121.3421519505944
 20
-162.7288860761933
 30
0.0
 10
121.1071964385003
 20
-162.3009621532317
 30
0.0
 10
120.8718964168578
 20
-161.8726937207216
 30
0.0
 10
120.8937620072657
 20
-161.4091399742962
 30
0.0
 10
121.1551801590558
 20
-161.2652103444765
 30
0.0
 10
121.4165875449225
 20
-161.121630607167
 30
0.0
 10
121.8198036737009
 20
-161.3523443454448
 30
0.0
 10
122.0547591857949
 20
-161.7802628854447
 30
0.0
 10
122.2900592074375
 20
-162.2085367009165
 30
0.0
 10
122.2685381265781
 20
-162.6720850643803
 30
0.0
 10
122.0067862311628
 20
-162.8156648016898
 30
0.0
  0
SPLINE
  5
20E
330
1F
100
AcDbEntity
  8
_U+30EC_U+30A4_U+30E4_U+30FC 1
 62
   179
420
  2234388
370
     9
100
AcDbSpline
210
0.0
220
0.0
230
1.0
 70
     8
 71
     3
 72
    11
 73
     7
 74
     0
 42
0.0000000001
 43
0.0000000001
 12
1.0
 22
0.0
 32
0.0
 13
1.0
 23
0.0
 33
0.0
 40
0.0
 40
0.0
 40
0.0
 40
0.0
 40
1.0
 40
1.0
 40
1.0
 40
2.0
 40
2.0
 40
2.0
 40
2.0
 10
115.7298114911142
 20
-151.7093767422647
 30
0.0
 10
115.8278782872865
 20
-151.9425666429226
 30
0.0
 10
116.1732491096828
 20
-152.1147191409129
 30
0.0
 10
116.5852932956421
 20
-152.1147191409129
 30
0.0
 10
116.9973374816014
 20
-152.1147191409129
 30
0.0
 10
117.3423530285257
 20
-151.9425666429226
 30
0.0
 10
117.4411303756419
 20
-151.7093767422647
 30
0.0
  0
SPLINE
  5
20F
330
1F
100
AcDbEntity
  8
_U+30EC_U+30A4_U+30E4_U+30FC 1
 62
   179
420
  2234388
370
     9
100
AcDbSpline
210
0.0
220
0.0
230
1.0
 70
    11
 71
     3
 72
    17
 73
    13
 74
     0
 42
0.0000000001
 43
0.0000000001
 12
1.0
 22
0.0
 32
0.0
 13
1.0
 23
0.0
 33
0.0
 40
0.0
 40
0.0
 40
0.0
 40
0.0
 40
1.0
 40
1.0
 40
1.0
 40
2.0
 40
2.0
 40
2.0
 40
3.0
 40
3.0
 40
3.0
 40
4.0
 40
4.0
 40
4.0
 40
4.0
 10
117.4699507525607
 20
-151.8447366970649
 30
0.0
 10
117.4699507525607
 20
-152.1431896253214
 30
0.0
 10
117.0737755376803
 20
-152.3848415417649
 30
0.0
 10
116.5851748704848
 20
-152.3848415417649
 30
0.0
 10
116.0965849692126
 20
-152.3848415417649
 30
0.0
 10
115.7004097543323
 20
-152.1431896253214
 30
0.0
 10
115.7004097543323
 20
-151.8447366970649
 30
0.0
 10
115.7004097543323
 20
-151.5459392592598
 30
0.0
 10
116.0965849692126
 20
-151.3039320673444
 30
0.0
 10
116.5851748704848
 20
-151.3039320673444
 30
0.0
 10
117.0737755376803
 20
-151.3039320673444
 30
0.0
 10
117.4699507525607
 20
-151.5459392592598
 30
0.0
 10
117.4699507525607
 20
-151.8447366970649
 30
0.0
  0
SPLINE
  5
210
330
1F
100
AcDbEntity
  8
_U+30EC_U+30A4_U+30E4_U+30FC 1
 62
   179
420
  2234388
370
     9
100
AcDbSpline
210
0.0
220
0.0
230
1.0
 70
     8
 71
     3
 72
    11
 73
     7
 74
     0
 42
0.0000000001
 43
0.0000000001
 12
1.0
 22
0.0
 32
0.0
 13
1.0
 23
0.0
 33
0.0
 40
0.0
 40
0.0
 40
0.0
 40
0.0
 40
1.0
 40
1.0
 40
1.0
 40
2.0
 40
2.0
 40
2.0
 40
2.0
 10
119.545986823819
 20
-152.2009703361631
 30
0.0
 10
119.6444088954633
 20
-152.433804961349
 30
0.0
 10
119.9897797178595
 20
-152.605962842301
 30
0.0
 10
120.4018239038188
 20
-152.605962842301
 30
0.0
 10
120.8138680897781
 20
-152.605962842301
 30
0.0
 10
121.1588836367025
 20
-152.433804961349
 30
0.0
 10
121.2573057083467
 20
-152.2009703361631
 30
0.0
  0
SPLINE
  5
211
330
1F
100
AcDbEntity
  8
_U+30EC_U+30A4_U+30E4_U+30FC 1
 62
   179
420
  2234388
370
     9
100
AcDbSpline
210
0.0
220
0.0
230
1.0
 70
    11
 71
     3
 72
    17
 73
    13
 74
     0
 42
0.0000000001
 43
0.0000000001
 12
1.0
 22
0.0
 32
0.0
 13
1.0
 23
0.0
 33
0.0
 40
0.0
 40
0.0
 40
0.0
 40
0.0
 40
1.0
 40
1.0
 40
1.0
 40
2.0
 40
2.0
 40
2.0
 40
3.0
 40
3.0
 40
3.0
 40
4.0
 40
4.0
 40
4.0
 40
4.0
 10
121.2860614897251
 20
-152.3360126962232
 30
0.0
 10
121.2860614897251
 20
-152.6344656244797
 30
0.0
 10
120.8902415503167
 20
-152.8764728163951
 30
0.0
 10
120.4016408831212
 20
-152.8764728163951
 30
0.0
 10
119.9130402159256
 20
-152.8764728163951
 30
0.0
 10
119.5168757669687
 20
-152.6344656244797
 30
0.0
 10
119.5168757669687
 20
-152.3360126962232
 30
0.0
 10
119.5168757669687
 20
-152.0372152584181
 30
0.0
 10
119.9130402159256
 20
-151.7952080665027
 30
0.0
 10
120.4016408831212
 20
-151.7952080665027
 30
0.0
 10
120.8902415503167
 20
-151.7952080665027
 30
0.0
 10
121.2860614897251
 20
-152.0372152584181
 30
0.0
 10
121.2860614897251
 20
-152.3360126962232
 30
0.0
  0
SPLINE
  5
212
330
1F
100
AcDbEntity
  8
_U+30EC_U+30A4_U+30E4_U+30FC 1
 62
   179
420
  2234388
370
     9
100
AcDbSpline
210
0.0
220
0.0
230
1.0
 70
     8
 71
     3
 72
    11
 73
     7
 74
     0
 42
0.0000000001
 43
0.0000000001
 12
1.0
 22
0.0
 32
0.0
 13
1.0
 23
0.0
 33
0.0
 40
0.0
 40
0.0
 40
0.0
 40
0.0
 40
1.0
 40
1.0
 40
1.0
 40
2.0
 40
2.0
 40
2.0
 40
2.0
 10
128.226895363858
 20
-157.278357445286
 30
0.0
 10
128.3253174355022
 20
-157.5111920704719
 30
0.0
 10
128.6706882578985
 20
-157.6833499514239
 30
0.0
 10
129.0827324438578
 20
-157.6833499514239
 30
0.0
 10
129.4947766298171
 20
-157.6833499514239
 30
0.0
 10
129.8397921767414
 20
-157.5111920704719
 30
0.0
 10
129.9385695238576
 20
-157.278357445286
 30
0.0
  0
SPLINE
  5
213
330
1F
100
AcDbEntity
  8
_U+30EC_U+30A4_U+30E4_U+30FC 1
 62
   179
420
  2234388
370
     9
100
AcDbSpline
210
0.0
220
0.0
230
1.0
 70
    11
 71
     3
 72
    17
 73
    13
 74
     0
 42
0.0000000001
 43
0.0000000001
 12
1.0
 22
0.0
 32
0.0
 13
1.0
 23
0.0
 33
0.0
 40
0.0
 40
0.0
 40
0.0
 40
0.0
 40
1.0
 40
1.0
 40
1.0
 40
2.0
 40
2.0
 40
2.0
 40
3.0
 40
3.0
 40
3.0
 40
4.0
 40
4.0
 40
4.0
 40
4.0
 10
129.9670346253045
 20
-157.4134051883078
 30
0.0
 10
129.9670346253045
 20
-157.7122080090746
 30
0.0
 10
129.5712146858961
 20
-157.9538653084797
 30
0.0
 10
129.0826140187005
 20
-157.9538653084797
 30
0.0
 10
128.5940133515049
 20
-157.9538653084797
 30
0.0
 10
128.1982041780199
 20
-157.7122080090746
 30
0.0
 10
128.1982041780199
 20
-157.4134051883078
 30
0.0
 10
128.1982041780199
 20
-157.1149576430129
 30
0.0
 10
128.5940133515049
 20
-156.8733057265694
 30
0.0
 10
129.0826140187005
 20
-156.8733057265694
 30
0.0
 10
129.5712146858961
 20
-156.8733057265694
 30
0.0
 10
129.9670346253045
 20
-157.1149576430129
 30
0.0
 10
129.9670346253045
 20
-157.4134051883078
 30
0.0
  0
SPLINE
  5
214
330
1F
100
AcDbEntity
  8
_U+30EC_U+30A4_U+30E4_U+30FC 1
 62
   179
420
  2234388
370
     9
100
AcDbSpline
210
0.0
220
0.0
230
1.0
 70
     8
 71
     3
 72
    11
 73
     7
 74
     0
 42
0.0000000001
 43
0.0000000001
 12
1.0
 22
0.0
 32
0.0
 13
1.0
 23
0.0
 33
0.0
 40
0.0
 40
0.0
 40
0.0
 40
0.0
 40
1.0
 40
1.0
 40
1.0
 40
2.0
 40
2.0
 40
2.0
 40
2.0
 10
118.7273998387535
 20
-149.9650979832743
 30
0.0
 10
118.8254666349258
 20
-150.1979326084602
 30
0.0
 10
119.1708374573221
 20
-150.3704403819224
 30
0.0
 10
119.5825263678095
 20
-150.3704403819224
 30
0.0
 10
119.9945705537687
 20
-150.3704403819224
 30
0.0
 10
120.3395861006931
 20
-150.1979326084602
 30
0.0
 10
120.4383634478093
 20
-149.9650979832743
 30
0.0
  0
SPLINE
  5
215
330
1F
100
AcDbEntity
  8
_U+30EC_U+30A4_U+30E4_U+30FC 1
 62
   179
420
  2234388
370
     9
100
AcDbSpline
210
0.0
220
0.0
230
1.0
 70
    11
 71
     3
 72
    17
 73
    13
 74
     0
 42
0.0000000001
 43
0.0000000001
 12
1.0
 22
0.0
 32
0.0
 13
1.0
 23
0.0
 33
0.0
 40
0.0
 40
0.0
 40
0.0
 40
0.0
 40
1.0
 40
1.0
 40
1.0
 40
2.0
 40
2.0
 40
2.0
 40
3.0
 40
3.0
 40
3.0
 40
4.0
 40
4.0
 40
4.0
 40
4.0
 10
120.4671945906514
 20
-150.100145726296
 30
0.0
 10
120.4671945906514
 20
-150.3985986545526
 30
0.0
 10
120.071374651243
 20
-150.640605846468
 30
0.0
 10
119.5824187085755
 20
-150.640605846468
 30
0.0
 10
119.0941733168519
 20
-150.640605846468
 30
0.0
 10
118.6983641433669
 20
-150.3985986545526
 30
0.0
 10
118.6983641433669
 20
-150.100145726296
 30
0.0
 10
118.6983641433669
 20
-149.8016981810012
 30
0.0
 10
119.0941733168519
 20
-149.5596909890858
 30
0.0
 10
119.5824187085755
 20
-149.5596909890858
 30
0.0
 10
120.071374651243
 20
-149.5596909890858
 30
0.0
 10
120.4671945906514
 20
-149.8016981810012
 30
0.0
 10
120.4671945906514
 20
-150.100145726296
 30
0.0
  0
SPLINE
  5
216
330
1F
100
AcDbEntity
  8
_U+30EC_U+30A4_U+30E4_U+30FC 1
 62
   179
420
  2234388
370
     9
100
AcDbSpline
210
0.0
220
0.0
230
1.0
 70
     8
 71
     3
 72
    11
 73
     7
 74
     0
 42
0.0000000001
 43
0.0000000001
 12
1.0
 22
0.0
 32
0.0
 13
1.0
 23
0.0
 33
0.0
 40
0.0
 40
0.0
 40
0.0
 40
0.0
 40
1.0
 40
1.0
 40
1.0
 40
2.0
 40
2.0
 40
2.0
 40
2.0
 10
120.250519616476
 20
-154.3793042114866
 30
0.0
 10
120.3485864126483
 20
-154.6121388366725
 30
0.0
 10
120.6939572350446
 20
-154.7846466101347
 30
0.0
 10
121.1060014210039
 20
-154.7846466101347
 30
0.0
 10
121.5180456069632
 20
-154.7846466101347
 30
0.0
 10
121.8630611538875
 20
-154.6121388366725
 30
0.0
 10
121.9614832255318
 20
-154.3793042114866
 30
0.0
  0
SPLINE
  5
217
330
1F
100
AcDbEntity
  8
_U+30EC_U+30A4_U+30E4_U+30FC 1
 62
   179
420
  2234388
370
     9
100
AcDbSpline
210
0.0
220
0.0
230
1.0
 70
    11
 71
     3
 72
    17
 73
    13
 74
     0
 42
0.0000000001
 43
0.0000000001
 12
1.0
 22
0.0
 32
0.0
 13
1.0
 23
0.0
 33
0.0
 40
0.0
 40
0.0
 40
0.0
 40
0.0
 40
1.0
 40
1.0
 40
1.0
 40
2.0
 40
2.0
 40
2.0
 40
3.0
 40
3.0
 40
3.0
 40
4.0
 40
4.0
 40
4.0
 40
4.0
 10
121.9902713046804
 20
-154.5143465715467
 30
0.0
 10
121.9902713046804
 20
-154.8131493923134
 30
0.0
 10
121.594451365272
 20
-155.0548066917186
 30
0.0
 10
121.1058506980764
 20
-155.0548066917186
 30
0.0
 10
120.6172500308809
 20
-155.0548066917186
 30
0.0
 10
120.2210855819239
 20
-154.8131493923134
 30
0.0
 10
120.2210855819239
 20
-154.5143465715467
 30
0.0
 10
120.2210855819239
 20
-154.2155491337416
 30
0.0
 10
120.6172500308809
 20
-153.9738918343364
 30
0.0
 10
121.1058506980764
 20
-153.9738918343364
 30
0.0
 10
121.594451365272
 20
-153.9738918343364
 30
0.0
 10
121.9902713046804
 20
-154.2155491337416
 30
0.0
 10
121.9902713046804
 20
-154.5143465715467
 30
0.0
  0
SPLINE
  5
218
330
1F
100
AcDbEntity
  8
_U+30EC_U+30A4_U+30E4_U+30FC 1
 62
   179
420
  2234388
370
     9
100
AcDbSpline
210
0.0
220
0.0
230
1.0
 70
     8
 71
     3
 72
    11
 73
     7
 74
     0
 42
0.0000000001
 43
0.0000000001
 12
1.0
 22
0.0
 32
0.0
 13
1.0
 23
0.0
 33
0.0
 40
0.0
 40
0.0
 40
0.0
 40
0.0
 40
1.0
 40
1.0
 40
1.0
 40
2.0
 40
2.0
 40
2.0
 40
2.0
 10
123.2477096249498
 20
-152.635063133228
 30
0.0
 10
123.3457764211221
 20
-152.8678977584139
 30
0.0
 10
123.6911472435184
 20
-153.0400556393659
 30
0.0
 10
124.1035467049496
 20
-153.0400556393659
 30
0.0
 10
124.5155908909089
 20
-153.0400556393659
 30
0.0
 10
124.8606064378333
 20
-152.8678977584139
 30
0.0
 10
124.9590285094775
 20
-152.635063133228
 30
0.0
  0
SPLINE
  5
219
330
1F
100
AcDbEntity
  8
_U+30EC_U+30A4_U+30E4_U+30FC 1
 62
   179
420
  2234388
370
     9
100
AcDbSpline
210
0.0
220
0.0
230
1.0
 70
    11
 71
     3
 72
    17
 73
    13
 74
     0
 42
0.0000000001
 43
0.0000000001
 12
1.0
 22
0.0
 32
0.0
 13
1.0
 23
0.0
 33
0.0
 40
0.0
 40
0.0
 40
0.0
 40
0.0
 40
1.0
 40
1.0
 40
1.0
 40
2.0
 40
2.0
 40
2.0
 40
3.0
 40
3.0
 40
3.0
 40
4.0
 40
4.0
 40
4.0
 40
4.0
 10
124.9878596523197
 20
-152.7701054932881
 30
0.0
 10
124.9878596523197
 20
-153.0685584215446
 30
0.0
 10
124.5916844374393
 20
-153.3102103379881
 30
0.0
 10
124.1034390457157
 20
-153.3102103379881
 30
0.0
 10
123.6148383785201
 20
-153.3102103379881
 30
0.0
 10
123.2190292050351
 20
-153.0685584215446
 30
0.0
 10
123.2190292050351
 20
-152.7701054932881
 30
0.0
 10
123.2190292050351
 20
-152.471308055483
 30
0.0
 10
123.6148383785201
 20
-152.2296507560778
 30
0.0
 10
124.1034390457157
 20
-152.2296507560778
 30
0.0
 10
124.5916844374393
 20
-152.2296507560778
 30
0.0
 10
124.9878596523197
 20
-152.471308055483
 30
0.0
 10
124.9878596523197
 20
-152.7701054932881
 30
0.0
  0
SPLINE
  5
21A
330
1F
100
AcDbEntity
  8
_U+30EC_U+30A4_U+30E4_U+30FC 1
 62
   179
420
  2234388
370
     9
100
AcDbSpline
210
0.0
220
0.0
230
1.0
 70
     8
 71
     3
 72
    11
 73
     7
 74
     0
 42
0.0000000001
 43
0.0000000001
 12
1.0
 22
0.0
 32
0.0
 13
1.0
 23
0.0
 33
0.0
 40
0.0
 40
0.0
 40
0.0
 40
0.0
 40
1.0
 40
1.0
 40
1.0
 40
2.0
 40
2.0
 40
2.0
 40
2.0
 10
123.919158735025
 20
-154.7972050597708
 30
0.0
 10
124.0175808066692
 20
-155.0300396849567
 30
0.0
 10
124.3629516290655
 20
-155.2021975659086
 30
0.0
 10
124.7749958150248
 20
-155.2021975659086
 30
0.0
 10
125.1870400009841
 20
-155.2021975659086
 30
0.0
 10
125.5320555479084
 20
-155.0300396849567
 30
0.0
 10
125.6304776195527
 20
-154.7972050597708
 30
0.0
  0
SPLINE
  5
21B
330
1F
100
AcDbEntity
  8
_U+30EC_U+30A4_U+30E4_U+30FC 1
 62
   179
420
  2234388
370
     9
100
AcDbSpline
210
0.0
220
0.0
230
1.0
 70
    11
 71
     3
 72
    17
 73
    13
 74
     0
 42
0.0000000001
 43
0.0000000001
 12
1.0
 22
0.0
 32
0.0
 13
1.0
 23
0.0
 33
0.0
 40
0.0
 40
0.0
 40
0.0
 40
0.0
 40
1.0
 40
1.0
 40
1.0
 40
2.0
 40
2.0
 40
2.0
 40
3.0
 40
3.0
 40
3.0
 40
4.0
 40
4.0
 40
4.0
 40
4.0
 10
125.6592979964715
 20
-154.9322474198308
 30
0.0
 10
125.6592979964715
 20
-155.2307003480874
 30
0.0
 10
125.263478057063
 20
-155.4723522645309
 30
0.0
 10
124.7748773898675
 20
-155.4723522645309
 30
0.0
 10
124.2862767226719
 20
-155.4723522645309
 30
0.0
 10
123.8904675491869
 20
-155.2307003480874
 30
0.0
 10
123.8904675491869
 20
-154.9322474198308
 30
0.0
 10
123.8904675491869
 20
-154.6334499820258
 30
0.0
 10
124.2862767226719
 20
-154.3914427901104
 30
0.0
 10
124.7748773898675
 20
-154.3914427901104
 30
0.0
 10
125.263478057063
 20
-154.3914427901104
 30
0.0
 10
125.6592979964715
 20
-154.6334499820258
 30
0.0
 10
125.6592979964715
 20
-154.9322474198308
 30
0.0
  0
SPLINE
  5
21C
330
1F
100
AcDbEntity
  8
_U+30EC_U+30A4_U+30E4_U+30FC 1
 62
   179
420
  2234388
370
     9
100
AcDbSpline
210
0.0
220
0.0
230
1.0
 70
     8
 71
     3
 72
    11
 73
     7
 74
     0
 42
0.0000000001
 43
0.0000000001
 12
1.0
 22
0.0
 32
0.0
 13
1.0
 23
0.0
 33
0.0
 40
0.0
 40
0.0
 40
0.0
 40
0.0
 40
1.0
 40
1.0
 40
1.0
 40
2.0
 40
2.0
 40
2.0
 40
2.0
 10
124.623691527682
 20
-156.9751836596223
 30
0.0
 10
124.7217583238543
 20
-157.2080182848082
 30
0.0
 10
125.0671291462506
 20
-157.3805260582704
 30
0.0
 10
125.4791733322099
 20
-157.3805260582704
 30
0.0
 10
125.8912175181691
 20
-157.3805260582704
 30
0.0
 10
126.2362330650935
 20
-157.2080182848082
 30
0.0
 10
126.3346551367377
 20
-156.9751836596223
 30
0.0
  0
SPLINE
  5
21D
330
1F
100
AcDbEntity
  8
_U+30EC_U+30A4_U+30E4_U+30FC 1
 62
   179
420
  2234388
370
     9
100
AcDbSpline
210
0.0
220
0.0
230
1.0
 70
    11
 71
     3
 72
    17
 73
    13
 74
     0
 42
0.0000000001
 43
0.0000000001
 12
1.0
 22
0.0
 32
0.0
 13
1.0
 23
0.0
 33
0.0
 40
0.0
 40
0.0
 40
0.0
 40
0.0
 40
1.0
 40
1.0
 40
1.0
 40
2.0
 40
2.0
 40
2.0
 40
3.0
 40
3.0
 40
3.0
 40
4.0
 40
4.0
 40
4.0
 40
4.0
 10
126.3634432158864
 20
-157.1102260196824
 30
0.0
 10
126.3634432158864
 20
-157.4090288404492
 30
0.0
 10
125.9676232764779
 20
-157.6510360323646
 30
0.0
 10
125.4790226092824
 20
-157.6510360323646
 30
0.0
 10
124.9907772175587
 20
-157.6510360323646
 30
0.0
 10
124.5946127686018
 20
-157.4090288404492
 30
0.0
 10
124.5946127686018
 20
-157.1102260196824
 30
0.0
 10
124.5946127686018
 20
-156.8117784743876
 30
0.0
 10
124.9907772175587
 20
-156.5701265579441
 30
0.0
 10
125.4790226092824
 20
-156.5701265579441
 30
0.0
 10
125.9676232764779
 20
-156.5701265579441
 30
0.0
 10
126.3634432158864
 20
-156.8117784743876
 30
0.0
 10
126.3634432158864
 20
-157.1102260196824
 30
0.0
  0
SPLINE
  5
21E
330
1F
100
AcDbEntity
  8
_U+30EC_U+30A4_U+30E4_U+30FC 1
 62
   179
420
  2234388
370
     9
100
AcDbSpline
210
0.0
220
0.0
230
1.0
 70
     8
 71
     3
 72
    11
 73
     7
 74
     0
 42
0.0000000001
 43
0.0000000001
 12
1.0
 22
0.0
 32
0.0
 13
1.0
 23
0.0
 33
0.0
 40
0.0
 40
0.0
 40
0.0
 40
0.0
 40
1.0
 40
1.0
 40
1.0
 40
2.0
 40
2.0
 40
2.0
 40
2.0
 10
127.6209568976195
 20
-155.2312601761037
 30
0.0
 10
127.7193789692637
 20
-155.4640948012897
 30
0.0
 10
128.0643945161881
 20
-155.6362526822417
 30
0.0
 10
128.4767939776193
 20
-155.6362526822417
 30
0.0
 10
128.8888381635786
 20
-155.6362526822417
 30
0.0
 10
129.233853710503
 20
-155.4640948012897
 30
0.0
 10
129.3322757821472
 20
-155.2312601761037
 30
0.0
  0
SPLINE
  5
21F
330
1F
100
AcDbEntity
  8
_U+30EC_U+30A4_U+30E4_U+30FC 1
 62
   179
420
  2234388
370
     9
100
AcDbSpline
210
0.0
220
0.0
230
1.0
 70
    11
 71
     3
 72
    17
 73
    13
 74
     0
 42
0.0000000001
 43
0.0000000001
 12
1.0
 22
0.0
 32
0.0
 13
1.0
 23
0.0
 33
0.0
 40
0.0
 40
0.0
 40
0.0
 40
0.0
 40
1.0
 40
1.0
 40
1.0
 40
2.0
 40
2.0
 40
2.0
 40
3.0
 40
3.0
 40
3.0
 40
4.0
 40
4.0
 40
4.0
 40
4.0
 10
129.3610315635256
 20
-155.3663402168957
 30
0.0
 10
129.3610315635256
 20
-155.6647931451523
 30
0.0
 10
128.9648563486453
 20
-155.9064450615958
 30
0.0
 10
128.4766109569217
 20
-155.9064450615958
 30
0.0
 10
127.9880102897261
 20
-155.9064450615958
 30
0.0
 10
127.5922011162411
 20
-155.6647931451523
 30
0.0
 10
127.5922011162411
 20
-155.3663402168957
 30
0.0
 10
127.5922011162411
 20
-155.0675427790906
 30
0.0
 10
127.9880102897261
 20
-154.8255355871752
 30
0.0
 10
128.4766109569217
 20
-154.8255355871752
 30
0.0
 10
128.9648563486453
 20
-154.8255355871752
 30
0.0
 10
129.3610315635256
 20
-155.0675427790906
 30
0.0
 10
129.3610315635256
 20
-155.3663402168957
 30
0.0
  0
ENDSEC
  0
SECTION
  2
OBJECTS
  0
DICTIONARY
  5
C
330
0
100
AcDbDictionary
281
     1
  3
ACAD_GROUP
350
D
  3
ACAD_LAYOUT
350
1A
  3
ACAD_MATERIAL
350
3B
  3
ACAD_MLEADERSTYLE
350
221
  3
ACAD_MLINESTYLE
350
17
  3
ACAD_PLOTSETTINGS
350
19
  3
ACAD_PLOTSTYLENAME
350
E
  3
ACAD_TABLESTYLE
350
220
  3
ACAD_VISUALSTYLE
350
2A
  0
SUN
  5
3F
330
29
100
AcDbSun
 90
        1
290
     0
 63
     7
421
 16777215
 40
1.0
291
     1
 91
  2455826
 92
 54000000
292
     0
 70
     2
 71
   256
280
     1
  0
DICTIONARY
  5
D
102
{ACAD_REACTORS
330
C
102
}
330
C
100
AcDbDictionary
281
     1
  0
DICTIONARY
  5
1A
102
{ACAD_REACTORS
330
C
102
}
330
C
100
AcDbDictionary
281
     1
  3
Layout1
350
1E
  3
Layout2
350
26
  3
Model
350
22
  0
DICTIONARY
  5
3B
102
{ACAD_REACTORS
330
C
102
}
330
C
100
AcDbDictionary
281
     1
  3
ByBlock
350
3D
  3
ByLayer
350
3C
  3
Global
350
3E
  0
DICTIONARY
  5
221
102
{ACAD_REACTORS
330
C
102
}
330
C
100
AcDbDictionary
281
     1
  0
DICTIONARY
  5
17
102
{ACAD_REACTORS
330
C
102
}
330
C
100
AcDbDictionary
281
     1
  3
Standard
350
18
  0
DICTIONARY
  5
19
102
{ACAD_REACTORS
330
C
102
}
330
C
100
AcDbDictionary
281
     1
  0
ACDBDICTIONARYWDFLT
  5
E
102
{ACAD_REACTORS
330
C
102
}
330
C
100
AcDbDictionary
281
     1
  3
Normal
350
F
100
AcDbDictionaryWithDefault
340
F
  0
DICTIONARY
  5
220
102
{ACAD_REACTORS
330
C
102
}
330
C
100
AcDbDictionary
281
     1
  0
DICTIONARY
  5
2A
102
{ACAD_REACTORS
330
C
102
}
330
C
100
AcDbDictionary
281
     1
  3
2dWireframe
350
2F
  3
3D Hidden
350
31
  3
3dWireframe
350
30
  3
Basic
350
32
  3
Brighten
350
36
  3
ColorChange
350
3A
  3
Conceptual
350
34
  3
Dim
350
35
  3
Facepattern
350
39
  3
Flat
350
2B
  3
FlatWithEdges
350
2C
  3
Gouraud
350
2D
  3
GouraudWithEdges
350
2E
  3
Linepattern
350
38
  3
Realistic
350
33
  3
Thicken
350
37
  0
LAYOUT
  5
1E
102
{ACAD_REACTORS
330
1A
102
}
330
1A
100
AcDbPlotSettings
  1

  2
none_device
  4

  6

 40
0.0
 41
0.0
 42
0.0
 43
0.0
 44
0.0
 45
0.0
 46
0.0
 47
0.0
 48
0.0
 49
0.0
140
0.0
141
0.0
142
1.0
143
1.0
 70
   688
 72
     0
 73
     0
 74
     5
  7

 75
    16
 76
     0
 77
     2
 78
   300
147
1.0
148
0.0
149
0.0
100
AcDbLayout
  1
Layout1
 70
     1
 71
     1
 10
0.0
 20
0.0
 11
12.0
 21
9.0
 12
0.0
 22
0.0
 32
0.0
 14
1.000000000000000E+20
 24
1.000000000000000E+20
 34
1.000000000000000E+20
 15
-1.000000000000000E+20
 25
-1.000000000000000E+20
 35
-1.000000000000000E+20
146
0.0
 13
0.0
 23
0.0
 33
0.0
 16
1.0
 26
0.0
 36
0.0
 17
0.0
 27
1.0
 37
0.0
 76
     0
330
1B
  0
LAYOUT
  5
26
102
{ACAD_REACTORS
330
1A
102
}
330
1A
100
AcDbPlotSettings
  1

  2
none_device
  4

  6

 40
0.0
 41
0.0
 42
0.0
 43
0.0
 44
0.0
 45
0.0
 46
0.0
 47
0.0
 48
0.0
 49
0.0
140
0.0
141
0.0
142
1.0
143
1.0
 70
   688
 72
     0
 73
     0
 74
     5
  7

 75
    16
 76
     0
 77
     2
 78
   300
147
1.0
148
0.0
149
0.0
100
AcDbLayout
  1
Layout2
 70
     1
 71
     2
 10
0.0
 20
0.0
 11
0.0
 21
0.0
 12
0.0
 22
0.0
 32
0.0
 14
0.0
 24
0.0
 34
0.0
 15
0.0
 25
0.0
 35
0.0
146
0.0
 13
0.0
 23
0.0
 33
0.0
 16
1.0
 26
0.0
 36
0.0
 17
0.0
 27
1.0
 37
0.0
 76
     0
330
23
  0
LAYOUT
  5
22
102
{ACAD_REACTORS
330
1A
102
}
330
1A
100
AcDbPlotSettings
  1

  2
none_device
  4

  6

 40
0.0
 41
0.0
 42
0.0
 43
0.0
 44
0.0
 45
0.0
 46
0.0
 47
0.0
 48
0.0
 49
0.0
140
0.0
141
0.0
142
1.0
143
1.0
 70
  1712
 72
     0
 73
     0
 74
     0
  7

 75
     0
 76
     0
 77
     2
 78
   300
147
1.0
148
0.0
149
0.0
100
AcDbLayout
  1
Model
 70
     1
 71
     0
 10
0.0
 20
0.0
 11
12.0
 21
9.0
 12
0.0
 22
0.0
 32
0.0
 14
1.000000000000000E+20
 24
1.000000000000000E+20
 34
1.000000000000000E+20
 15
-1.000000000000000E+20
 25
-1.000000000000000E+20
 35
-1.000000000000000E+20
146
0.0
 13
0.0
 23
0.0
 33
0.0
 16
1.0
 26
0.0
 36
0.0
 17
0.0
 27
1.0
 37
0.0
 76
     0
330
1F
331
29
  0
MATERIAL
  5
3D
102
{ACAD_REACTORS
330
3B
102
}
330
3B
100
AcDbMaterial
  1
ByBlock
 72
     1
 94
      127
  0
MATERIAL
  5
3C
102
{ACAD_REACTORS
330
3B
102
}
330
3B
100
AcDbMaterial
  1
ByLayer
 72
     1
 94
      127
  0
MATERIAL
  5
3E
102
{ACAD_REACTORS
330
3B
102
}
330
3B
100
AcDbMaterial
  1
Global
 72
     1
 94
      127
  0
MLINESTYLE
  5
18
102
{ACAD_REACTORS
330
17
102
}
330
17
100
AcDbMlineStyle
  2
Standard
 70
     0
  3

 62
   256
 51
90.0
 52
90.0
 71
     2
 49
0.5
 62
   256
  6
BYLAYER
 49
-0.5
 62
   256
  6
BYLAYER
  0
ACDBPLACEHOLDER
  5
F
102
{ACAD_REACTORS
330
E
102
}
330
E
  0
VISUALSTYLE
  5
2F
102
{ACAD_REACTORS
330
2A
102
}
330
2A
100
AcDbVisualStyle
  2
2dWireframe
 70
     4
177
     2
291
     0
 71
     0
176
     1
 72
     2
176
     1
 73
     0
176
     1
 90
        0
176
     1
 40
-0.6
176
     1
 41
-30.0
176
     1
 62
     5
 63
     7
421
 16777215
176
     1
 74
     1
176
     1
 91
        4
176
     1
 64
     7
176
     1
 65
   257
176
     1
 75
     1
176
     1
175
     1
176
     1
 42
1.0
176
     1
 92
        0
176
     1
 66
   257
176
     1
 43
1.0
176
     1
 76
     1
176
     1
 77
     6
176
     1
 78
     2
176
     1
 67
     7
176
     1
 79
     5
176
     1
170
     0
176
     1
171
     0
176
     1
290
     0
176
     1
 93
        1
176
     1
 44
0.0
176
     1
173
     0
176
     1
  0
VISUALSTYLE
  5
31
102
{ACAD_REACTORS
330
2A
102
}
330
2A
100
AcDbVisualStyle
  2
3D Hidden
 70
     6
177
     2
291
     0
 71
     1
176
     1
 72
     2
176
     1
 73
     2
176
     1
 90
        0
176
     1
 40
-0.6
176
     1
 41
-30.0
176
     1
 62
     5
 63
     7
421
 16777215
176
     1
 74
     2
176
     1
 91
        2
176
     1
 64
     7
176
     1
 65
   257
176
     1
 75
     2
176
     1
175
     1
176
     1
 42
40.0
176
     1
 92
        0
176
     1
 66
   257
176
     1
 43
1.0
176
     1
 76
     1
176
     1
 77
     6
176
     1
 78
     2
176
     1
 67
     7
176
     1
 79
     3
176
     1
170
     0
176
     1
171
     0
176
     1
290
     0
176
     1
 93
        1
176
     1
 44
0.0
176
     1
173
     0
176
     1
  0
VISUALSTYLE
  5
30
102
{ACAD_REACTORS
330
2A
102
}
330
2A
100
AcDbVisualStyle
  2
3dWireframe
 70
     5
177
     2
291
     0
 71
     0
176
     1
 72
     2
176
     1
 73
     0
176
     1
 90
        0
176
     1
 40
-0.6
176
     1
 41
-30.0
176
     1
 62
     5
 63
     7
421
 16777215
176
     1
 74
     1
176
     1
 91
        4
176
     1
 64
     7
176
     1
 65
   257
176
     1
 75
     1
176
     1
175
     1
176
     1
 42
1.0
176
     1
 92
        0
176
     1
 66
   257
176
     1
 43
1.0
176
     1
 76
     1
176
     1
 77
     6
176
     1
 78
     2
176
     1
 67
     7
176
     1
 79
     5
176
     1
170
     0
176
     1
171
     0
176
     1
290
     0
176
     1
 93
        1
176
     1
 44
0.0
176
     1
173
     0
176
     1
  0
VISUALSTYLE
  5
32
102
{ACAD_REACTORS
330
2A
102
}
330
2A
100
AcDbVisualStyle
  2
Basic
 70
     7
177
     2
291
     1
 71
     1
176
     1
 72
     0
176
     1
 73
     1
176
     1
 90
        0
176
     1
 40
-0.6
176
     1
 41
-30.0
176
     1
 62
     5
 63
     7
421
 16777215
176
     1
 74
     0
176
     1
 91
        4
176
     1
 64
     7
176
     1
 65
   257
176
     1
 75
     1
176
     1
175
     1
176
     1
 42
1.0
176
     1
 92
        8
176
     1
 66
     7
176
     1
 43
1.0
176
     1
 76
     1
176
     1
 77
     6
176
     1
 78
     2
176
     1
 67
     7
176
     1
 79
     5
176
     1
170
     0
176
     1
171
     0
176
     1
290
     0
176
     1
 93
        1
176
     1
 44
0.0
176
     1
173
     0
176
     1
  0
VISUALSTYLE
  5
36
102
{ACAD_REACTORS
330
2A
102
}
330
2A
100
AcDbVisualStyle
  2
Brighten
 70
    12
177
     2
291
     1
 71
     2
176
     1
 72
     2
176
     1
 73
     0
176
     1
 90
        0
176
     1
 40
-0.6
176
     1
 41
-30.0
176
     1
 62
     5
 63
     7
421
 16777215
176
     1
 74
     1
176
     1
 91
        4
176
     1
 64
     7
176
     1
 65
   257
176
     1
 75
     1
176
     1
175
     1
176
     1
 42
1.0
176
     1
 92
        8
176
     1
 66
     7
176
     1
 43
1.0
176
     1
 76
     1
176
     1
 77
     6
176
     1
 78
     2
176
     1
 67
     7
176
     1
 79
     5
176
     1
170
     0
176
     1
171
     0
176
     1
290
     0
176
     1
 93
        1
176
     1
 44
50.0
176
     1
173
     0
176
     1
  0
VISUALSTYLE
  5
3A
102
{ACAD_REACTORS
330
2A
102
}
330
2A
100
AcDbVisualStyle
  2
ColorChange
 70
    16
177
     2
291
     1
 71
     2
176
     1
 72
     2
176
     1
 73
     3
176
     1
 90
        0
176
     1
 40
-0.6
176
     1
 41
-30.0
176
     1
 62
     5
 63
     8
421
  8421504
176
     1
 74
     1
176
     1
 91
        4
176
     1
 64
     7
176
     1
 65
   257
176
     1
 75
     1
176
     1
175
     1
176
     1
 42
1.0
176
     1
 92
        8
176
     1
 66
     8
424
  8421504
176
     1
 43
1.0
176
     1
 76
     1
176
     1
 77
     6
176
     1
 78
     2
176
     1
 67
     7
176
     1
 79
     5
176
     1
170
     0
176
     1
171
     0
176
     1
290
     0
176
     1
 93
        1
176
     1
 44
0.0
176
     1
173
     0
176
     1
  0
VISUALSTYLE
  5
34
102
{ACAD_REACTORS
330
2A
102
}
330
2A
100
AcDbVisualStyle
  2
Conceptual
 70
     9
177
     2
291
     0
 71
     3
176
     1
 72
     2
176
     1
 73
     0
176
     1
 90
        0
176
     1
 40
-0.6
176
     1
 41
-30.0
176
     1
 62
     5
 63
     7
421
 16777215
176
     1
 74
     2
176
     1
 91
        2
176
     1
 64
     7
176
     1
 65
   257
176
     1
 75
     1
176
     1
175
     1
176
     1
 42
40.0
176
     1
 92
        8
176
     1
 66
     7
176
     1
 43
1.0
176
     1
 76
     1
176
     1
 77
     6
176
     1
 78
     2
176
     1
 67
     7
176
     1
 79
     3
176
     1
170
     0
176
     1
171
     0
176
     1
290
     0
176
     1
 93
        1
176
     1
 44
0.0
176
     1
173
     0
176
     1
  0
VISUALSTYLE
  5
35
102
{ACAD_REACTORS
330
2A
102
}
330
2A
100
AcDbVisualStyle
  2
Dim
 70
    11
177
     2
291
     1
 71
     2
176
     1
 72
     2
176
     1
 73
     0
176
     1
 90
        0
176
     1
 40
-0.6
176
     1
 41
-30.0
176
     1
 62
     5
 63
     7
421
 16777215
176
     1
 74
     1
176
     1
 91
        4
176
     1
 64
     7
176
     1
 65
   257
176
     1
 75
     1
176
     1
175
     1
176
     1
 42
1.0
176
     1
 92
        8
176
     1
 66
     7
176
     1
 43
1.0
176
     1
 76
     1
176
     1
 77
     6
176
     1
 78
     2
176
     1
 67
     7
176
     1
 79
     5
176
     1
170
     0
176
     1
171
     0
176
     1
290
     0
176
     1
 93
        1
176
     1
 44
-50.0
176
     1
173
     0
176
     1
  0
VISUALSTYLE
  5
39
102
{ACAD_REACTORS
330
2A
102
}
330
2A
100
AcDbVisualStyle
  2
Facepattern
 70
    15
177
     2
291
     1
 71
     2
176
     1
 72
     2
176
     1
 73
     0
176
     1
 90
        0
176
     1
 40
-0.6
176
     1
 41
-30.0
176
     1
 62
     5
 63
     7
421
 16777215
176
     1
 74
     1
176
     1
 91
        4
176
     1
 64
     7
176
     1
 65
   257
176
     1
 75
     1
176
     1
175
     1
176
     1
 42
1.0
176
     1
 92
        8
176
     1
 66
     7
176
     1
 43
1.0
176
     1
 76
     1
176
     1
 77
     6
176
     1
 78
     2
176
     1
 67
     7
176
     1
 79
     5
176
     1
170
     0
176
     1
171
     0
176
     1
290
     0
176
     1
 93
        1
176
     1
 44
0.0
176
     1
173
     0
176
     1
  0
VISUALSTYLE
  5
2B
102
{ACAD_REACTORS
330
2A
102
}
330
2A
100
AcDbVisualStyle
  2
Flat
 70
     0
177
     2
291
     1
 71
     2
176
     1
 72
     1
176
     1
 73
     1
176
     1
 90
        2
176
     1
 40
-0.6
176
     1
 41
30.0
176
     1
 62
     5
 63
     7
421
 16777215
176
     1
 74
     0
176
     1
 91
        4
176
     1
 64
     7
176
     1
 65
   257
176
     1
 75
     1
176
     1
175
     1
176
     1
 42
1.0
176
     1
 92
        8
176
     1
 66
     7
176
     1
 43
1.0
176
     1
 76
     1
176
     1
 77
     6
176
     1
 78
     2
176
     1
 67
     7
176
     1
 79
     5
176
     1
170
     0
176
     1
171
     0
176
     1
290
     0
176
     1
 93
       13
176
     1
 44
0.0
176
     1
173
     0
176
     1
  0
VISUALSTYLE
  5
2C
102
{ACAD_REACTORS
330
2A
102
}
330
2A
100
AcDbVisualStyle
  2
FlatWithEdges
 70
     1
177
     2
291
     1
 71
     2
176
     1
 72
     1
176
     1
 73
     1
176
     1
 90
        2
176
     1
 40
-0.6
176
     1
 41
30.0
176
     1
 62
     5
 63
     7
421
 16777215
176
     1
 74
     1
176
     1
 91
        4
176
     1
 64
     7
176
     1
 65
   257
176
     1
 75
     1
176
     1
175
     1
176
     1
 42
1.0
176
     1
 92
        0
176
     1
 66
   257
176
     1
 43
1.0
176
     1
 76
     1
176
     1
 77
     6
176
     1
 78
     2
176
     1
 67
     7
176
     1
 79
     5
176
     1
170
     0
176
     1
171
     0
176
     1
290
     0
176
     1
 93
       13
176
     1
 44
0.0
176
     1
173
     0
176
     1
  0
VISUALSTYLE
  5
2D
102
{ACAD_REACTORS
330
2A
102
}
330
2A
100
AcDbVisualStyle
  2
Gouraud
 70
     2
177
     2
291
     1
 71
     2
176
     1
 72
     2
176
     1
 73
     1
176
     1
 90
        2
176
     1
 40
-0.6
176
     1
 41
30.0
176
     1
 62
     5
 63
     7
421
 16777215
176
     1
 74
     0
176
     1
 91
        4
176
     1
 64
     7
176
     1
 65
   257
176
     1
 75
     1
176
     1
175
     1
176
     1
 42
1.0
176
     1
 92
        0
176
     1
 66
     7
176
     1
 43
1.0
176
     1
 76
     1
176
     1
 77
     6
176
     1
 78
     2
176
     1
 67
     7
176
     1
 79
     5
176
     1
170
     0
176
     1
171
     0
176
     1
290
     0
176
     1
 93
       13
176
     1
 44
0.0
176
     1
173
     0
176
     1
  0
VISUALSTYLE
  5
2E
102
{ACAD_REACTORS
330
2A
102
}
330
2A
100
AcDbVisualStyle
  2
GouraudWithEdges
 70
     3
177
     2
291
     1
 71
     2
176
     1
 72
     2
176
     1
 73
     1
176
     1
 90
        2
176
     1
 40
-0.6
176
     1
 41
30.0
176
     1
 62
     5
 63
     7
421
 16777215
176
     1
 74
     1
176
     1
 91
        4
176
     1
 64
     7
176
     1
 65
   257
176
     1
 75
     1
176
     1
175
     1
176
     1
 42
1.0
176
     1
 92
        0
176
     1
 66
   257
176
     1
 43
1.0
176
     1
 76
     1
176
     1
 77
     6
176
     1
 78
     2
176
     1
 67
     7
176
     1
 79
     5
176
     1
170
     0
176
     1
171
     0
176
     1
290
     0
176
     1
 93
       13
176
     1
 44
0.0
176
     1
173
     0
176
     1
  0
VISUALSTYLE
  5
38
102
{ACAD_REACTORS
330
2A
102
}
330
2A
100
AcDbVisualStyle
  2
Linepattern
 70
    14
177
     2
291
     1
 71
     2
176
     1
 72
     2
176
     1
 73
     0
176
     1
 90
        0
176
     1
 40
-0.6
176
     1
 41
-30.0
176
     1
 62
     5
 63
     7
421
 16777215
176
     1
 74
     1
176
     1
 91
        4
176
     1
 64
     7
176
     1
 65
   257
176
     1
 75
     7
176
     1
175
     7
176
     1
 42
1.0
176
     1
 92
        8
176
     1
 66
     7
176
     1
 43
1.0
176
     1
 76
     1
176
     1
 77
     6
176
     1
 78
     2
176
     1
 67
     7
176
     1
 79
     5
176
     1
170
     0
176
     1
171
     0
176
     1
290
     0
176
     1
 93
        1
176
     1
 44
0.0
176
     1
173
     0
176
     1
  0
VISUALSTYLE
  5
33
102
{ACAD_REACTORS
330
2A
102
}
330
2A
100
AcDbVisualStyle
  2
Realistic
 70
     8
177
     2
291
     0
 71
     2
176
     1
 72
     2
176
     1
 73
     0
176
     1
 90
        0
176
     1
 40
-0.6
176
     1
 41
-30.0
176
     1
 62
     5
 63
     7
421
 16777215
176
     1
 74
     1
176
     1
 91
        0
176
     1
 64
     7
176
     1
 65
   257
176
     1
 75
     1
176
     1
175
     1
176
     1
 42
1.0
176
     1
 92
        8
176
     1
 66
     8
424
  7895160
176
     1
 43
1.0
176
     1
 76
     1
176
     1
 77
     6
176
     1
 78
     2
176
     1
 67
     7
176
     1
 79
     5
176
     1
170
     0
176
     1
171
     0
176
     1
290
     0
176
     1
 93
       13
176
     1
 44
0.0
176
     1
173
     0
176
     1
  0
VISUALSTYLE
  5
37
102
{ACAD_REACTORS
330
2A
102
}
330
2A
100
AcDbVisualStyle
  2
Thicken
 70
    13
177
     2
291
     1
 71
     2
176
     1
 72
     2
176
     1
 73
     0
176
     1
 90
        0
176
     1
 40
-0.6
176
     1
 41
-30.0
176
     1
 62
     5
 63
     7
421
 16777215
176
     1
 74
     1
176
     1
 91
        4
176
     1
 64
     7
176
     1
 65
   257
176
     1
 75
     1
176
     1
175
     1
176
     1
 42
1.0
176
     1
 92
       12
176
     1
 66
     7
176
     1
 43
1.0
176
     1
 76
     1
176
     1
 77
     6
176
     1
 78
     2
176
     1
 67
     7
176
     1
 79
     5
176
     1
170
     0
176
     1
171
     0
176
     1
290
     0
176
     1
 93
        1
176
     1
 44
0.0
176
     1
173
     0
176
     1
  0
ENDSEC
  0
EOF
