  0
SECTION
  2
HEADER
  9
$ACADVER
  1
AC1024
  9
$ACADMAINTVER
 70
     6
  9
$DWGCODEPAGE
  3
UNDEFINED
  9
$INSBASE
 10
0.0
 20
0.0
 30
0.0
  9
$EXTMIN
 10
1.000000000000000E+20
 20
1.000000000000000E+20
 30
1.000000000000000E+20
  9
$EXTMAX
 10
-1.000000000000000E+20
 20
-1.000000000000000E+20
 30
-1.000000000000000E+20
  9
$LIMMIN
 10
0.0
 20
0.0
  9
$LIMMAX
 10
12.0
 20
9.0
  9
$ORTHOMODE
 70
     0
  9
$REGENMODE
 70
     1
  9
$FILLMODE
 70
     1
  9
$QTEXTMODE
 70
     0
  9
$MIRRTEXT
 70
     1
  9
$LTSCALE
 40
1.0
  9
$ATTMODE
 70
     1
  9
$TEXTSIZE
 40
0.2
  9
$TRACEWID
 40
0.05
  9
$TEXTSTYLE
  7
Standard
  9
$CLAYER
  8
0
  9
$CELTYPE
  6
ByLayer
  9
$CECOLOR
 62
   256
  9
$CELTSCALE
 40
1.0
  9
$DISPSILH
 70
     0
  9
$DIMSCALE
 40
1.0
  9
$DIMASZ
 40
0.18
  9
$DIMEXO
 40
0.0625
  9
$DIMDLI
 40
0.38
  9
$DIMRND
 40
0.0
  9
$DIMDLE
 40
0.0
  9
$DIMEXE
 40
0.18
  9
$DIMTP
 40
0.0
  9
$DIMTM
 40
0.0
  9
$DIMTXT
 40
0.18
  9
$DIMCEN
 40
0.09
  9
$DIMTSZ
 40
0.0
  9
$DIMTOL
 70
     0
  9
$DIMLIM
 70
     0
  9
$DIMTIH
 70
     1
  9
$DIMTOH
 70
     1
  9
$DIMSE1
 70
     0
  9
$DIMSE2
 70
     0
  9
$DIMTAD
 70
     0
  9
$DIMZIN
 70
     0
  9
$DIMBLK
  1

  9
$DIMASO
 70
     1
  9
$DIMSHO
 70
     1
  9
$DIMPOST
  1

  9
$DIMAPOST
  1

  9
$DIMALT
 70
     0
  9
$DIMALTD
 70
     2
  9
$DIMALTF
 40
25.4
  9
$DIMLFAC
 40
1.0
  9
$DIMTOFL
 70
     0
  9
$DIMTVP
 40
0.0
  9
$DIMTIX
 70
     0
  9
$DIMSOXD
 70
     0
  9
$DIMSAH
 70
     0
  9
$DIMBLK1
  1

  9
$DIMBLK2
  1

  9
$DIMSTYLE
  2
Standard
  9
$DIMCLRD
 70
     0
  9
$DIMCLRE
 70
     0
  9
$DIMCLRT
 70
     0
  9
$DIMTFAC
 40
1.0
  9
$DIMGAP
 40
0.09
  9
$DIMJUST
 70
     0
  9
$DIMSD1
 70
     0
  9
$DIMSD2
 70
     0
  9
$DIMTOLJ
 70
     1
  9
$DIMTZIN
 70
     0
  9
$DIMALTZ
 70
     0
  9
$DIMALTTZ
 70
     0
  9
$DIMUPT
 70
     0
  9
$DIMDEC
 70
     4
  9
$DIMTDEC
 70
     4
  9
$DIMALTU
 70
     2
  9
$DIMALTTD
 70
     2
  9
$DIMTXSTY
  7
Standard
  9
$DIMAUNIT
 70
     0
  9
$DIMADEC
 70
     0
  9
$DIMALTRND
 40
0.0
  9
$DIMAZIN
 70
     0
  9
$DIMDSEP
 70
    46
  9
$DIMATFIT
 70
     3
  9
$DIMFRAC
 70
     0
  9
$DIMLDRBLK
  1

  9
$DIMLUNIT
 70
     2
  9
$DIMLWD
 70
    -2
  9
$DIMLWE
 70
    -2
  9
$DIMTMOVE
 70
     0
  9
$DIMFXL
 40
1.0
  9
$DIMFXLON
 70
     0
  9
$DIMJOGANG
 40
0.7853981633974483
  9
$DIMTFILL
 70
     0
  9
$DIMTFILLCLR
 70
     0
  9
$DIMARCSYM
 70
     0
  9
$DIMLTYPE
  6

  9
$DIMLTEX1
  6

  9
$DIMLTEX2
  6

  9
$DIMTXTDIRECTION
 70
     0
  9
$LUNITS
 70
     2
  9
$LUPREC
 70
     4
  9
$SKETCHINC
 40
0.1
  9
$FILLETRAD
 40
0.5
  9
$AUNITS
 70
     0
  9
$AUPREC
 70
     0
  9
$MENU
  1
.
  9
$ELEVATION
 40
0.0
  9
$PELEVATION
 40
0.0
  9
$THICKNESS
 40
0.0
  9
$LIMCHECK
 70
     0
  9
$CHAMFERA
 40
0.5
  9
$CHAMFERB
 40
0.5
  9
$CHAMFERC
 40
1.0
  9
$CHAMFERD
 40
0.0
  9
$SKPOLY
 70
     0
  9
$TDCREATE
 40
2458270.587569433
  9
$TDUCREATE
 40
2458270.212569444
  9
$TDUPDATE
 40
2458270.587569433
  9
$TDUUPDATE
 40
2458270.212569444
  9
$TDINDWG
 40
0.0000000116
  9
$TDUSRTIMER
 40
0.0000000116
  9
$USRTIMER
 70
     1
  9
$ANGBASE
 50
0.0
  9
$ANGDIR
 70
     0
  9
$PDMODE
 70
     0
  9
$PDSIZE
 40
0.0
  9
$PLINEWID
 40
0.0
  9
$SPLFRAME
 70
     0
  9
$SPLINETYPE
 70
     6
  9
$SPLINESEGS
 70
     8
  9
$HANDSEED
  5
192
  9
$SURFTAB1
 70
     6
  9
$SURFTAB2
 70
     6
  9
$SURFTYPE
 70
     6
  9
$SURFU
 70
     6
  9
$SURFV
 70
     6
  9
$UCSBASE
  2

  9
$UCSNAME
  2

  9
$UCSORG
 10
0.0
 20
0.0
 30
0.0
  9
$UCSXDIR
 10
1.0
 20
0.0
 30
0.0
  9
$UCSYDIR
 10
0.0
 20
1.0
 30
0.0
  9
$UCSORTHOREF
  2

  9
$UCSORTHOVIEW
 70
     0
  9
$UCSORGTOP
 10
0.0
 20
0.0
 30
0.0
  9
$UCSORGBOTTOM
 10
0.0
 20
0.0
 30
0.0
  9
$UCSORGLEFT
 10
0.0
 20
0.0
 30
0.0
  9
$UCSORGRIGHT
 10
0.0
 20
0.0
 30
0.0
  9
$UCSORGFRONT
 10
0.0
 20
0.0
 30
0.0
  9
$UCSORGBACK
 10
0.0
 20
0.0
 30
0.0
  9
$PUCSBASE
  2

  9
$PUCSNAME
  2

  9
$PUCSORG
 10
0.0
 20
0.0
 30
0.0
  9
$PUCSXDIR
 10
1.0
 20
0.0
 30
0.0
  9
$PUCSYDIR
 10
0.0
 20
1.0
 30
0.0
  9
$PUCSORTHOREF
  2

  9
$PUCSORTHOVIEW
 70
     0
  9
$PUCSORGTOP
 10
0.0
 20
0.0
 30
0.0
  9
$PUCSORGBOTTOM
 10
0.0
 20
0.0
 30
0.0
  9
$PUCSORGLEFT
 10
0.0
 20
0.0
 30
0.0
  9
$PUCSORGRIGHT
 10
0.0
 20
0.0
 30
0.0
  9
$PUCSORGFRONT
 10
0.0
 20
0.0
 30
0.0
  9
$PUCSORGBACK
 10
0.0
 20
0.0
 30
0.0
  9
$USERI1
 70
     0
  9
$USERI2
 70
     0
  9
$USERI3
 70
     0
  9
$USERI4
 70
     0
  9
$USERI5
 70
     0
  9
$USERR1
 40
0.0
  9
$USERR2
 40
0.0
  9
$USERR3
 40
0.0
  9
$USERR4
 40
0.0
  9
$USERR5
 40
0.0
  9
$WORLDVIEW
 70
     1
  9
$SHADEDGE
 70
     3
  9
$SHADEDIF
 70
    70
  9
$TILEMODE
 70
     1
  9
$MAXACTVP
 70
    64
  9
$PINSBASE
 10
0.0
 20
0.0
 30
0.0
  9
$PLIMCHECK
 70
     0
  9
$PEXTMIN
 10
1.000000000000000E+20
 20
1.000000000000000E+20
 30
1.000000000000000E+20
  9
$PEXTMAX
 10
-1.000000000000000E+20
 20
-1.000000000000000E+20
 30
-1.000000000000000E+20
  9
$PLIMMIN
 10
0.0
 20
0.0
  9
$PLIMMAX
 10
12.0
 20
9.0
  9
$UNITMODE
 70
     0
  9
$VISRETAIN
 70
     1
  9
$PLINEGEN
 70
     0
  9
$PSLTSCALE
 70
     1
  9
$TREEDEPTH
 70
  3020
  9
$CMLSTYLE
  2
Standard
  9
$CMLJUST
 70
     0
  9
$CMLSCALE
 40
1.0
  9
$PROXYGRAPHICS
 70
     1
  9
$MEASUREMENT
 70
     0
  9
$CELWEIGHT
370
    -1
  9
$ENDCAPS
280
     0
  9
$JOINSTYLE
280
     0
  9
$LWDISPLAY
290
     1
  9
$INSUNITS
 70
     1
  9
$HYPERLINKBASE
  1

  9
$STYLESHEET
  1

  9
$XEDIT
290
     1
  9
$CEPSNTYPE
380
     0
  9
$PSTYLEMODE
290
     1
  9
$FINGERPRINTGUID
  2
{8C480ED0-D77F-31D9-3452-2B00B73C78E3}
  9
$VERSIONGUID
  2
{FAEB1C32-E019-11D5-929B-00C0DF256EC4}
  9
$EXTNAMES
290
     1
  9
$PSVPSCALE
 40
0.0
  9
$OLESTARTUP
290
     0
  9
$SORTENTS
280
   127
  9
$INDEXCTL
280
     0
  9
$HIDETEXT
280
     1
  9
$XCLIPFRAME
280
     2
  9
$HALOGAP
280
     0
  9
$OBSCOLOR
 70
   257
  9
$OBSLTYPE
280
     0
  9
$INTERSECTIONDISPLAY
280
     0
  9
$INTERSECTIONCOLOR
 70
   257
  9
$DIMASSOC
280
     2
  9
$PROJECTNAME
  1

  9
$CAMERADISPLAY
290
     0
  9
$LENSLENGTH
 40
50.0
  9
$CAMERAHEIGHT
 40
0.0
  9
$STEPSPERSEC
 40
2.0
  9
$STEPSIZE
 40
6.0
  9
$3DDWFPREC
 40
2.0
  9
$PSOLWIDTH
 40
0.25
  9
$PSOLHEIGHT
 40
4.0
  9
$LOFTANG1
 40
1.570796326794897
  9
$LOFTANG2
 40
1.570796326794897
  9
$LOFTMAG1
 40
0.0
  9
$LOFTMAG2
 40
0.0
  9
$LOFTPARAM
 70
     7
  9
$LOFTNORMALS
280
     1
  9
$LATITUDE
 40
37.795
  9
$LONGITUDE
 40
-122.394
  9
$NORTHDIRECTION
 40
0.0
  9
$TIMEZONE
 70
 -8000
  9
$LIGHTGLYPHDISPLAY
280
     1
  9
$TILEMODELIGHTSYNCH
280
     1
  9
$CMATERIAL
347
3C
  9
$SOLIDHIST
280
     1
  9
$SHOWHIST
280
     1
  9
$DWFFRAME
280
     2
  9
$DGNFRAME
280
     2
  9
$REALWORLDSCALE
290
     1
  9
$INTERFERECOLOR
 62
   256
  9
$CSHADOW
280
     0
  9
$SHADOWPLANELOCATION
 40
0.0
  0
ENDSEC
  0
SECTION
  2
CLASSES
  0
CLASS
  1
ACDBDICTIONARYWDFLT
  2
AcDbDictionaryWithDefault
  3
ObjectDBX Classes
 90
        0
 91
        4
280
     0
281
     0
  0
CLASS
  1
VISUALSTYLE
  2
AcDbVisualStyle
  3
ObjectDBX Classes
 90
     4095
 91
        4
280
     0
281
     0
  0
CLASS
  1
MATERIAL
  2
AcDbMaterial
  3
ObjectDBX Classes
 90
     1153
 91
        4
280
     0
281
     0
  0
CLASS
  1
SUN
  2
AcDbSun
  3
SCENEOE
 90
     1024
 91
        4
280
     0
281
     0
  0
ENDSEC
  0
SECTION
  2
TABLES
  0
TABLE
  2
VPORT
  5
8
330
0
100
AcDbSymbolTable
 70
     1
  0
VPORT
  5
29
330
8
100
AcDbSymbolTableRecord
100
AcDbViewportTableRecord
  2
*Active
 70
     0
 10
0.0
 20
0.0
 11
1.0
 21
1.0
 12
0.0
 22
0.0
 13
0.0
 23
0.0
 14
0.5
 24
0.5
 15
0.5
 25
0.5
 16
0.0
 26
0.0
 36
1.0
 17
105.0007777515277
 27
-148.5000416295416
 37
0.0
 40
297.0000832590831
 41
0.7070757462376333
 42
50.0
 43
0.0
 44
0.0
 50
0.0
 51
0.0
 71
     0
 72
   100
 73
     1
 74
     3
 75
     0
 76
     0
 77
     0
 78
     0
281
     0
 65
     1
110
0.0
120
0.0
130
0.0
111
1.0
121
0.0
131
0.0
112
0.0
122
1.0
132
0.0
 79
     0
146
0.0
 60
     3
 61
     5
292
     1
282
     1
141
0.0
142
0.0
 63
   250
361
3F
  0
ENDTAB
  0
TABLE
  2
LTYPE
  5
5
330
0
100
AcDbSymbolTable
 70
     1
  0
LTYPE
  5
14
330
5
100
AcDbSymbolTableRecord
100
AcDbLinetypeTableRecord
  2
ByBlock
 70
     0
  3

 72
    65
 73
     0
 40
0.0
  0
LTYPE
  5
15
330
5
100
AcDbSymbolTableRecord
100
AcDbLinetypeTableRecord
  2
ByLayer
 70
     0
  3

 72
    65
 73
     0
 40
0.0
  0
LTYPE
  5
16
330
5
100
AcDbSymbolTableRecord
100
AcDbLinetypeTableRecord
  2
Continuous
 70
     0
  3
Solid line
 72
    65
 73
     0
 40
0.0
  0
ENDTAB
  0
TABLE
  2
LAYER
  5
2
330
0
100
AcDbSymbolTable
 70
     2
  0
LAYER
  5
10
330
2
100
AcDbSymbolTableRecord
100
AcDbLayerTableRecord
  2
0
 70
     0
 62
     7
  6
Continuous
370
    -3
390
F
347
3E
  0
LAYER
  5
40
330
2
100
AcDbSymbolTableRecord
100
AcDbLayerTableRecord
  2
_U+30EC_U+30A4_U+30E4_U+30FC 1
 70
     0
 62
     7
  6
Continuous
370
    -3
390
F
347
3E
  0
ENDTAB
  0
TABLE
  2
STYLE
  5
3
330
0
100
AcDbSymbolTable
 70
     1
  0
STYLE
  5
11
330
3
100
AcDbSymbolTableRecord
100
AcDbTextStyleTableRecord
  2
Standard
 70
     0
 40
0.0
 41
1.0
 50
0.0
 71
     0
 42
0.2
  3
txt
  4

  0
ENDTAB
  0
TABLE
  2
VIEW
  5
6
330
0
100
AcDbSymbolTable
 70
     0
  0
ENDTAB
  0
TABLE
  2
UCS
  5
7
330
0
100
AcDbSymbolTable
 70
     0
  0
ENDTAB
  0
TABLE
  2
APPID
  5
9
330
0
100
AcDbSymbolTable
 70
     1
  0
APPID
  5
12
330
9
100
AcDbSymbolTableRecord
100
AcDbRegAppTableRecord
  2
ACAD
 70
     0
  0
ENDTAB
  0
TABLE
  2
DIMSTYLE
  5
A
330
0
100
AcDbSymbolTable
 70
     1
100
AcDbDimStyleTable
  0
DIMSTYLE
105
27
330
A
100
AcDbSymbolTableRecord
100
AcDbDimStyleTableRecord
  2
Standard
 70
     0
178
     0
340
11
  0
ENDTAB
  0
TABLE
  2
BLOCK_RECORD
  5
1
330
0
100
AcDbSymbolTable
 70
     6
  0
BLOCK_RECORD
  5
1F
330
1
100
AcDbSymbolTableRecord
100
AcDbBlockTableRecord
  2
*Model_Space
340
22
 70
     0
280
     1
281
     0
  0
BLOCK_RECORD
  5
1B
330
1
100
AcDbSymbolTableRecord
100
AcDbBlockTableRecord
  2
*Paper_Space
340
1E
 70
     0
280
     1
281
     0
  0
BLOCK_RECORD
  5
23
330
1
100
AcDbSymbolTableRecord
100
AcDbBlockTableRecord
  2
*Paper_Space0
340
26
 70
     0
280
     1
281
     0
  0
BLOCK_RECORD
  5
4F
330
1
100
AcDbSymbolTableRecord
100
AcDbBlockTableRecord
  2
block 2
340
0
102
{BLKREFS
331
50
102
}
 70
     0
280
     1
281
     0
  0
BLOCK_RECORD
  5
E1
330
1
100
AcDbSymbolTableRecord
100
AcDbBlockTableRecord
  2
block 3
340
0
102
{BLKREFS
331
E2
102
}
 70
     0
280
     1
281
     0
  0
BLOCK_RECORD
  5
F8
330
1
100
AcDbSymbolTableRecord
100
AcDbBlockTableRecord
  2
block 4
340
0
102
{BLKREFS
331
F9
102
}
 70
     0
280
     1
281
     0
  0
BLOCK_RECORD
  5
10B
330
1
100
AcDbSymbolTableRecord
100
AcDbBlockTableRecord
  2
block 5
340
0
102
{BLKREFS
331
10C
102
}
 70
     0
280
     1
281
     0
  0
BLOCK_RECORD
  5
130
330
1
100
AcDbSymbolTableRecord
100
AcDbBlockTableRecord
  2
block 6
340
0
102
{BLKREFS
331
131
102
}
 70
     0
280
     1
281
     0
  0
ENDTAB
  0
ENDSEC
  0
SECTION
  2
BLOCKS
  0
BLOCK
  5
20
330
1F
100
AcDbEntity
  8
0
100
AcDbBlockBegin
  2
*Model_Space
 70
     0
 10
0.0
 20
0.0
 30
0.0
  3
*Model_Space
  1

  0
ENDBLK
  5
21
330
1F
100
AcDbEntity
  8
0
100
AcDbBlockEnd
  0
BLOCK
  5
1C
330
1B
100
AcDbEntity
 67
     1
  8
0
100
AcDbBlockBegin
  2
*Paper_Space
 70
     0
 10
0.0
 20
0.0
 30
0.0
  3
*Paper_Space
  1

  0
ENDBLK
  5
1D
330
1B
100
AcDbEntity
 67
     1
  8
0
100
AcDbBlockEnd
  0
BLOCK
  5
24
330
23
100
AcDbEntity
  8
0
100
AcDbBlockBegin
  2
*Paper_Space0
 70
     0
 10
0.0
 20
0.0
 30
0.0
  3
*Paper_Space0
  1

  0
ENDBLK
  5
25
330
23
100
AcDbEntity
  8
0
100
AcDbBlockEnd
  0
BLOCK
  5
51
330
4F
100
AcDbEntity
  8
0
100
AcDbBlockBegin
  2
block 2
 70
     0
 10
0.0
 20
0.0
 30
0.0
  3
block 2
  1

  0
SPLINE
  5
53
330
4F
100
AcDbEntity
  8
_U+30EC_U+30A4_U+30E4_U+30FC 1
370
     0
100
AcDbSpline
210
0.0
220
0.0
230
1.0
 70
    11
 71
     3
 72
    62
 73
    58
 74
     0
 42
0.0000000001
 43
0.0000000001
 12
1.0
 22
0.0
 32
0.0
 13
1.0
 23
0.0
 33
0.0
 40
0.0
 40
0.0
 40
0.0
 40
0.0
 40
1.0
 40
1.0
 40
1.0
 40
2.0
 40
2.0
 40
2.0
 40
3.0
 40
3.0
 40
3.0
 40
4.0
 40
4.0
 40
4.0
 40
5.0
 40
5.0
 40
5.0
 40
6.0
 40
6.0
 40
6.0
 40
7.0
 40
7.0
 40
7.0
 40
8.0
 40
8.0
 40
8.0
 40
9.0
 40
9.0
 40
9.0
 40
10.0
 40
10.0
 40
10.0
 40
11.0
 40
11.0
 40
11.0
 40
12.0
 40
12.0
 40
12.0
 40
13.0
 40
13.0
 40
13.0
 40
14.0
 40
14.0
 40
14.0
 40
15.0
 40
15.0
 40
15.0
 40
16.0
 40
16.0
 40
16.0
 40
17.0
 40
17.0
 40
17.0
 40
18.0
 40
18.0
 40
18.0
 40
19.0
 40
19.0
 40
19.0
 40
19.0
 10
92.99897458612526
 20
-163.9982584225421
 30
0.0
 10
92.90371769595811
 20
-163.9982584225421
 30
0.0
 10
92.68581540651606
 20
-163.9772433400821
 30
0.0
 10
92.56110294995001
 20
-163.7912081838786
 30
0.0
 10
92.48703339701713
 20
-163.6788980710595
 30
0.0
 10
92.48272702766057
 20
-163.5796793210843
 30
0.0
 10
92.47859291307827
 20
-163.4949299721471
 30
0.0
 10
92.47859291307827
 20
-163.4949299721471
 30
0.0
 10
92.69856225981148
 20
-163.4949299721471
 30
0.0
 10
92.69856225981148
 20
-163.4949299721471
 30
0.0
 10
92.70062931710262
 20
-163.56899952508
 30
0.0
 10
92.71130911310689
 20
-163.8036105276255
 30
0.0
 10
92.99484047154296
 20
-163.8036105276255
 30
0.0
 10
93.13229978140443
 20
-163.8036105276255
 30
0.0
 10
93.28457300185248
 20
-163.7340195988234
 30
0.0
 10
93.28457300185248
 20
-163.5056097681514
 30
0.0
 10
93.28457300185248
 20
-163.3891655407499
 30
0.0
 10
93.24650469674046
 20
-163.3405896944079
 30
0.0
 10
93.21480981827617
 20
-163.3088948159436
 30
0.0
 10
93.1407402653433
 20
-163.2348252630107
 30
0.0
 10
93.02429603794185
 20
-163.2220784097153
 30
0.0
 10
92.9693467649521
 20
-163.2220784097153
 30
0.0
 10
92.95039873978324
 20
-163.2220784097153
 30
0.0
 10
92.91439749196238
 20
-163.2241454670065
 30
0.0
 10
92.88683672808038
 20
-163.2282795815888
 30
0.0
 10
92.88683672808038
 20
-163.2282795815888
 30
0.0
 10
92.88683672808038
 20
-163.0336316866722
 30
0.0
 10
92.88683672808038
 20
-163.0336316866722
 30
0.0
 10
92.92490503319239
 20
-163.0401773680941
 30
0.0
 10
92.96727970766096
 20
-163.0422444253853
 30
0.0
 10
92.97365313430868
 20
-163.0422444253853
 30
0.0
 10
93.03910994852842
 20
-163.0422444253853
 30
0.0
 10
93.2380642128016
 20
-163.0208848333767
 30
0.0
 10
93.2380642128016
 20
-162.7842067735401
 30
0.0
 10
93.2380642128016
 20
-162.6064398465012
 30
0.0
 10
93.10680607481358
 20
-162.5513183187372
 30
0.0
 10
92.99690752883411
 20
-162.5513183187372
 30
0.0
 10
92.73249645034119
 20
-162.5513183187372
 30
0.0
 10
92.72405596640232
 20
-162.7842067735401
 30
0.0
 10
92.71974959704576
 20
-162.8558647596333
 30
0.0
 10
92.71974959704576
 20
-162.8558647596333
 30
0.0
 10
92.51666121819028
 20
-162.8558647596333
 30
0.0
 10
92.51666121819028
 20
-162.8558647596333
 30
0.0
 10
92.52510170212915
 20
-162.7311523030672
 30
0.0
 10
92.55266246601114
 20
-162.3546033665294
 30
0.0
 10
93.00948212735527
 20
-162.3546033665294
 30
0.0
 10
93.23375784344503
 20
-162.3546033665294
 30
0.0
 10
93.47491452741252
 20
-162.4817273899351
 30
0.0
 10
93.47491452741252
 20
-162.7776610921181
 30
0.0
 10
93.47491452741252
 20
-162.9640407578701
 30
0.0
 10
93.37982989201963
 20
-163.0463785399676
 30
0.0
 10
93.28026663249591
 20
-163.107701239605
 30
0.0
 10
93.34176158690762
 20
-163.135262003487
 30
0.0
 10
93.52366262852881
 20
-163.2155327282933
 30
0.0
 10
93.52366262852881
 20
-163.4928629148559
 30
0.0
 10
93.52366262852881
 20
-163.8311712915075
 30
0.0
 10
93.27613251791361
 20
-163.9982584225421
 30
0.0
 10
92.99897458612526
 20
-163.9982584225421
 30
0.0
  0
HATCH
  5
54
330
4F
100
AcDbEntity
  8
_U+30EC_U+30A4_U+30E4_U+30FC 1
 62
   179
420
  2234388
100
AcDbHatch
 10
0.0
 20
0.0
 30
0.0
210
0.0
220
0.0
230
1.0
  2
SOLID
 70
     1
 71
     0
 91
        1
 92
        1
 93
        1
 72
     4
 94
        3
 73
     0
 74
     1
 95
       62
 96
       58
 40
0.0
 40
0.0
 40
0.0
 40
0.0
 40
1.0
 40
1.0
 40
1.0
 40
2.0
 40
2.0
 40
2.0
 40
3.0
 40
3.0
 40
3.0
 40
4.0
 40
4.0
 40
4.0
 40
5.0
 40
5.0
 40
5.0
 40
6.0
 40
6.0
 40
6.0
 40
7.0
 40
7.0
 40
7.0
 40
8.0
 40
8.0
 40
8.0
 40
9.0
 40
9.0
 40
9.0
 40
10.0
 40
10.0
 40
10.0
 40
11.0
 40
11.0
 40
11.0
 40
12.0
 40
12.0
 40
12.0
 40
13.0
 40
13.0
 40
13.0
 40
14.0
 40
14.0
 40
14.0
 40
15.0
 40
15.0
 40
15.0
 40
16.0
 40
16.0
 40
16.0
 40
17.0
 40
17.0
 40
17.0
 40
18.0
 40
18.0
 40
18.0
 40
19.0
 40
19.0
 40
19.0
 40
19.0
 10
92.99897458612526
 20
-163.9982584225421
 10
92.90371769595811
 20
-163.9982584225421
 10
92.68581540651606
 20
-163.9772433400821
 10
92.56110294995001
 20
-163.7912081838786
 10
92.48703339701713
 20
-163.6788980710595
 10
92.48272702766057
 20
-163.5796793210843
 10
92.47859291307827
 20
-163.4949299721471
 10
92.47859291307827
 20
-163.4949299721471
 10
92.69856225981148
 20
-163.4949299721471
 10
92.69856225981148
 20
-163.4949299721471
 10
92.70062931710262
 20
-163.56899952508
 10
92.71130911310689
 20
-163.8036105276255
 10
92.99484047154296
 20
-163.8036105276255
 10
93.13229978140443
 20
-163.8036105276255
 10
93.28457300185248
 20
-163.7340195988234
 10
93.28457300185248
 20
-163.5056097681514
 10
93.28457300185248
 20
-163.3891655407499
 10
93.24650469674046
 20
-163.3405896944079
 10
93.21480981827617
 20
-163.3088948159436
 10
93.1407402653433
 20
-163.2348252630107
 10
93.02429603794185
 20
-163.2220784097153
 10
92.9693467649521
 20
-163.2220784097153
 10
92.95039873978324
 20
-163.2220784097153
 10
92.91439749196238
 20
-163.2241454670065
 10
92.88683672808038
 20
-163.2282795815888
 10
92.88683672808038
 20
-163.2282795815888
 10
92.88683672808038
 20
-163.0336316866722
 10
92.88683672808038
 20
-163.0336316866722
 10
92.92490503319239
 20
-163.0401773680941
 10
92.96727970766096
 20
-163.0422444253853
 10
92.97365313430868
 20
-163.0422444253853
 10
93.03910994852842
 20
-163.0422444253853
 10
93.2380642128016
 20
-163.0208848333767
 10
93.2380642128016
 20
-162.7842067735401
 10
93.2380642128016
 20
-162.6064398465012
 10
93.10680607481358
 20
-162.5513183187372
 10
92.99690752883411
 20
-162.5513183187372
 10
92.73249645034119
 20
-162.5513183187372
 10
92.72405596640232
 20
-162.7842067735401
 10
92.71974959704576
 20
-162.8558647596333
 10
92.71974959704576
 20
-162.8558647596333
 10
92.51666121819028
 20
-162.8558647596333
 10
92.51666121819028
 20
-162.8558647596333
 10
92.52510170212915
 20
-162.7311523030672
 10
92.55266246601114
 20
-162.3546033665294
 10
93.00948212735527
 20
-162.3546033665294
 10
93.23375784344503
 20
-162.3546033665294
 10
93.47491452741252
 20
-162.4817273899351
 10
93.47491452741252
 20
-162.7776610921181
 10
93.47491452741252
 20
-162.9640407578701
 10
93.37982989201963
 20
-163.0463785399676
 10
93.28026663249591
 20
-163.107701239605
 10
93.34176158690762
 20
-163.135262003487
 10
93.52366262852881
 20
-163.2155327282933
 10
93.52366262852881
 20
-163.4928629148559
 10
93.52366262852881
 20
-163.8311712915075
 10
93.27613251791361
 20
-163.9982584225421
 10
92.99897458612526
 20
-163.9982584225421
 97
        0
 97
        0
 75
     2
 76
     1
 98
        0
  0
ENDBLK
  5
52
330
4F
100
AcDbEntity
  8
0
100
AcDbBlockEnd
  0
BLOCK
  5
E3
330
E1
100
AcDbEntity
  8
0
100
AcDbBlockBegin
  2
block 3
 70
     0
 10
0.0
 20
0.0
 30
0.0
  3
block 3
  1

  0
SPLINE
  5
E5
330
E1
100
AcDbEntity
  8
_U+30EC_U+30A4_U+30E4_U+30FC 1
370
     0
100
AcDbSpline
210
0.0
220
0.0
230
1.0
 70
    11
 71
     3
 72
    44
 73
    40
 74
     0
 42
0.0000000001
 43
0.0000000001
 12
1.0
 22
0.0
 32
0.0
 13
1.0
 23
0.0
 33
0.0
 40
0.0
 40
0.0
 40
0.0
 40
0.0
 40
1.0
 40
1.0
 40
1.0
 40
2.0
 40
2.0
 40
2.0
 40
3.0
 40
3.0
 40
3.0
 40
4.0
 40
4.0
 40
4.0
 40
5.0
 40
5.0
 40
5.0
 40
6.0
 40
6.0
 40
6.0
 40
7.0
 40
7.0
 40
7.0
 40
8.0
 40
8.0
 40
8.0
 40
9.0
 40
9.0
 40
9.0
 40
10.0
 40
10.0
 40
10.0
 40
11.0
 40
11.0
 40
11.0
 40
12.0
 40
12.0
 40
12.0
 40
13.0
 40
13.0
 40
13.0
 40
13.0
 10
108.2149278158282
 20
-133.2089233065415
 30
0.0
 10
107.9968532716119
 20
-133.3677422084116
 30
0.0
 10
107.9038356935102
 20
-133.4418117613444
 30
0.0
 10
107.8552598471681
 20
-133.5854722430793
 30
0.0
 10
107.8552598471681
 20
-133.5854722430793
 30
0.0
 10
108.6335069172861
 20
-133.5854722430793
 30
0.0
 10
108.6335069172861
 20
-133.5854722430793
 30
0.0
 10
108.6335069172861
 20
-133.5854722430793
 30
0.0
 10
108.6335069172861
 20
-133.7907999340002
 30
0.0
 10
108.6335069172861
 20
-133.7907999340002
 30
0.0
 10
108.6335069172861
 20
-133.7907999340002
 30
0.0
 10
107.6054904244875
 20
-133.7907999340002
 30
0.0
 10
107.6054904244875
 20
-133.7907999340002
 30
0.0
 10
107.6371853029518
 20
-133.4331990226313
 30
0.0
 10
107.7029866267201
 20
-133.3549953551161
 30
0.0
 10
108.0878037924225
 20
-133.0566500860935
 30
0.0
 10
108.3441188965251
 20
-132.8578680765946
 30
0.0
 10
108.4095757107448
 20
-132.7899996955352
 30
0.0
 10
108.4095757107448
 20
-132.6525403856737
 30
0.0
 10
108.4095757107448
 20
-132.5340291009811
 30
0.0
 10
108.3375732151031
 20
-132.4031154725416
 30
0.0
 10
108.1408582628953
 20
-132.4031154725416
 30
0.0
 10
107.8804090442105
 20
-132.4031154725416
 30
0.0
 10
107.8721408150459
 20
-132.6335923605048
 30
0.0
 10
107.8680067004636
 20
-132.7500365879062
 30
0.0
 10
107.8680067004636
 20
-132.7500365879062
 30
0.0
 10
107.6437309843738
 20
-132.7500365879062
 30
0.0
 10
107.6437309843738
 20
-132.7500365879062
 30
0.0
 10
107.6523437230869
 20
-132.6229125645005
 30
0.0
 10
107.6626790095427
 20
-132.5109469612299
 30
0.0
 10
107.7432942438975
 20
-132.3924356765373
 30
0.0
 10
107.8528482803285
 20
-132.2315497173761
 30
0.0
 10
108.0392279460805
 20
-132.1977877816207
 30
0.0
 10
108.1556721734819
 20
-132.1977877816207
 30
0.0
 10
108.4330023600445
 20
-132.1977877816207
 30
0.0
 10
108.6400525987081
 20
-132.381755880533
 30
0.0
 10
108.6400525987081
 20
-132.6546074429648
 30
0.0
 10
108.6400525987081
 20
-132.8833617831854
 30
0.0
 10
108.5239528808551
 20
-132.9825805331606
 30
0.0
 10
108.2149278158282
 20
-133.2089233065415
 30
0.0
  0
HATCH
  5
E6
330
E1
100
AcDbEntity
  8
_U+30EC_U+30A4_U+30E4_U+30FC 1
 62
   179
420
  2234388
100
AcDbHatch
 10
0.0
 20
0.0
 30
0.0
210
0.0
220
0.0
230
1.0
  2
SOLID
 70
     1
 71
     0
 91
        1
 92
        1
 93
        1
 72
     4
 94
        3
 73
     0
 74
     1
 95
       44
 96
       40
 40
0.0
 40
0.0
 40
0.0
 40
0.0
 40
1.0
 40
1.0
 40
1.0
 40
2.0
 40
2.0
 40
2.0
 40
3.0
 40
3.0
 40
3.0
 40
4.0
 40
4.0
 40
4.0
 40
5.0
 40
5.0
 40
5.0
 40
6.0
 40
6.0
 40
6.0
 40
7.0
 40
7.0
 40
7.0
 40
8.0
 40
8.0
 40
8.0
 40
9.0
 40
9.0
 40
9.0
 40
10.0
 40
10.0
 40
10.0
 40
11.0
 40
11.0
 40
11.0
 40
12.0
 40
12.0
 40
12.0
 40
13.0
 40
13.0
 40
13.0
 40
13.0
 10
108.2149278158282
 20
-133.2089233065415
 10
107.9968532716119
 20
-133.3677422084116
 10
107.9038356935102
 20
-133.4418117613444
 10
107.8552598471681
 20
-133.5854722430793
 10
107.8552598471681
 20
-133.5854722430793
 10
108.6335069172861
 20
-133.5854722430793
 10
108.6335069172861
 20
-133.5854722430793
 10
108.6335069172861
 20
-133.5854722430793
 10
108.6335069172861
 20
-133.7907999340002
 10
108.6335069172861
 20
-133.7907999340002
 10
108.6335069172861
 20
-133.7907999340002
 10
107.6054904244875
 20
-133.7907999340002
 10
107.6054904244875
 20
-133.7907999340002
 10
107.6371853029518
 20
-133.4331990226313
 10
107.7029866267201
 20
-133.3549953551161
 10
108.0878037924225
 20
-133.0566500860935
 10
108.3441188965251
 20
-132.8578680765946
 10
108.4095757107448
 20
-132.7899996955352
 10
108.4095757107448
 20
-132.6525403856737
 10
108.4095757107448
 20
-132.5340291009811
 10
108.3375732151031
 20
-132.4031154725416
 10
108.1408582628953
 20
-132.4031154725416
 10
107.8804090442105
 20
-132.4031154725416
 10
107.8721408150459
 20
-132.6335923605048
 10
107.8680067004636
 20
-132.7500365879062
 10
107.8680067004636
 20
-132.7500365879062
 10
107.6437309843738
 20
-132.7500365879062
 10
107.6437309843738
 20
-132.7500365879062
 10
107.6523437230869
 20
-132.6229125645005
 10
107.6626790095427
 20
-132.5109469612299
 10
107.7432942438975
 20
-132.3924356765373
 10
107.8528482803285
 20
-132.2315497173761
 10
108.0392279460805
 20
-132.1977877816207
 10
108.1556721734819
 20
-132.1977877816207
 10
108.4330023600445
 20
-132.1977877816207
 10
108.6400525987081
 20
-132.381755880533
 10
108.6400525987081
 20
-132.6546074429648
 10
108.6400525987081
 20
-132.8833617831854
 10
108.5239528808551
 20
-132.9825805331606
 10
108.2149278158282
 20
-133.2089233065415
 97
        0
 97
        0
 75
     2
 76
     1
 98
        0
  0
SPLINE
  5
E7
330
E1
100
AcDbEntity
  8
_U+30EC_U+30A4_U+30E4_U+30FC 1
370
     0
100
AcDbSpline
210
0.0
220
0.0
230
1.0
 70
    11
 71
     3
 72
    32
 73
    28
 74
     0
 42
0.0000000001
 43
0.0000000001
 12
1.0
 22
0.0
 32
0.0
 13
1.0
 23
0.0
 33
0.0
 40
0.0
 40
0.0
 40
0.0
 40
0.0
 40
1.0
 40
1.0
 40
1.0
 40
2.0
 40
2.0
 40
2.0
 40
3.0
 40
3.0
 40
3.0
 40
4.0
 40
4.0
 40
4.0
 40
5.0
 40
5.0
 40
5.0
 40
6.0
 40
6.0
 40
6.0
 40
7.0
 40
7.0
 40
7.0
 40
8.0
 40
8.0
 40
8.0
 40
9.0
 40
9.0
 40
9.0
 40
9.0
 10
109.3028889700701
 20
-133.8414428376334
 30
0.0
 10
108.7864691568312
 20
-133.8414428376334
 30
0.0
 10
108.7782009276666
 20
-133.2874714836052
 30
0.0
 10
108.7782009276666
 20
-133.0735310539712
 30
0.0
 10
108.7782009276666
 20
-132.843054166008
 30
0.0
 10
108.797493462384
 20
-132.1957207243296
 30
0.0
 10
109.3411295299564
 20
-132.1957207243296
 30
0.0
 10
109.5144178328645
 20
-132.1957207243296
 30
0.0
 10
109.7597086314142
 20
-132.2656561626801
 30
0.0
 10
109.7979491913005
 20
-132.5977633674582
 30
0.0
 10
109.7979491913005
 20
-132.5977633674582
 30
0.0
 10
109.584353271215
 20
-132.5977633674582
 30
0.0
 10
109.584353271215
 20
-132.5977633674582
 30
0.0
 10
109.5736734752108
 20
-132.5405747824031
 30
0.0
 10
109.5419785967465
 20
-132.3924356765373
 30
0.0
 10
109.3390624726652
 20
-132.3924356765373
 30
0.0
 10
109.0469183755161
 20
-132.3924356765373
 30
0.0
 10
109.0066107583386
 20
-132.7204087667331
 30
0.0
 10
108.9938639050432
 20
-132.9253919481055
 30
0.0
 10
109.0868814831449
 20
-132.8471882805903
 30
0.0
 10
109.1547498642044
 20
-132.787932638244
 30
0.0
 10
109.3366509058256
 20
-132.787932638244
 30
0.0
 10
109.5164848901556
 20
-132.787932638244
 30
0.0
 10
109.8189642737605
 20
-132.8961086364808
 30
0.0
 10
109.8189642737605
 20
-133.3022853941918
 30
0.0
 10
109.8189642737605
 20
-133.6216457456744
 30
0.0
 10
109.6201822642616
 20
-133.8414428376334
 30
0.0
 10
109.3028889700701
 20
-133.8414428376334
 30
0.0
  0
SPLINE
  5
E8
330
E1
100
AcDbEntity
  8
_U+30EC_U+30A4_U+30E4_U+30FC 1
370
     0
100
AcDbSpline
210
0.0
220
0.0
230
1.0
 70
    11
 71
     3
 72
    17
 73
    13
 74
     0
 42
0.0000000001
 43
0.0000000001
 12
1.0
 22
0.0
 32
0.0
 13
1.0
 23
0.0
 33
0.0
 40
0.0
 40
0.0
 40
0.0
 40
0.0
 40
1.0
 40
1.0
 40
1.0
 40
2.0
 40
2.0
 40
2.0
 40
3.0
 40
3.0
 40
3.0
 40
4.0
 40
4.0
 40
4.0
 40
4.0
 10
109.3197699379478
 20
-132.9825805331606
 30
0.0
 10
109.0572536619718
 20
-132.9825805331606
 30
0.0
 10
109.019357611634
 20
-133.1941093959549
 30
0.0
 10
109.019357611634
 20
-133.3105536233564
 30
0.0
 10
109.019357611634
 20
-133.4862534931041
 30
0.0
 10
109.1144422470269
 20
-133.6492065095564
 30
0.0
 10
109.2984103459393
 20
-133.6492065095564
 30
0.0
 10
109.418988687923
 20
-133.6492065095564
 30
0.0
 10
109.5946885576708
 20
-133.5899508672101
 30
0.0
 10
109.5946885576708
 20
-133.3043524514829
 30
0.0
 10
109.5946885576708
 20
-133.0800767353932
 30
0.0
 10
109.4551621905182
 20
-132.9825805331606
 30
0.0
 10
109.3197699379478
 20
-132.9825805331606
 30
0.0
  0
HATCH
  5
E9
330
E1
100
AcDbEntity
  8
_U+30EC_U+30A4_U+30E4_U+30FC 1
 62
   179
420
  2234388
100
AcDbHatch
 10
0.0
 20
0.0
 30
0.0
210
0.0
220
0.0
230
1.0
  2
SOLID
 70
     1
 71
     0
 91
        2
 92
        1
 93
        1
 72
     4
 94
        3
 73
     0
 74
     1
 95
       32
 96
       28
 40
0.0
 40
0.0
 40
0.0
 40
0.0
 40
1.0
 40
1.0
 40
1.0
 40
2.0
 40
2.0
 40
2.0
 40
3.0
 40
3.0
 40
3.0
 40
4.0
 40
4.0
 40
4.0
 40
5.0
 40
5.0
 40
5.0
 40
6.0
 40
6.0
 40
6.0
 40
7.0
 40
7.0
 40
7.0
 40
8.0
 40
8.0
 40
8.0
 40
9.0
 40
9.0
 40
9.0
 40
9.0
 10
109.3028889700701
 20
-133.8414428376334
 10
108.7864691568312
 20
-133.8414428376334
 10
108.7782009276666
 20
-133.2874714836052
 10
108.7782009276666
 20
-133.0735310539712
 10
108.7782009276666
 20
-132.843054166008
 10
108.797493462384
 20
-132.1957207243296
 10
109.3411295299564
 20
-132.1957207243296
 10
109.5144178328645
 20
-132.1957207243296
 10
109.7597086314142
 20
-132.2656561626801
 10
109.7979491913005
 20
-132.5977633674582
 10
109.7979491913005
 20
-132.5977633674582
 10
109.584353271215
 20
-132.5977633674582
 10
109.584353271215
 20
-132.5977633674582
 10
109.5736734752108
 20
-132.5405747824031
 10
109.5419785967465
 20
-132.3924356765373
 10
109.3390624726652
 20
-132.3924356765373
 10
109.0469183755161
 20
-132.3924356765373
 10
109.0066107583386
 20
-132.7204087667331
 10
108.9938639050432
 20
-132.9253919481055
 10
109.0868814831449
 20
-132.8471882805903
 10
109.1547498642044
 20
-132.787932638244
 10
109.3366509058256
 20
-132.787932638244
 10
109.5164848901556
 20
-132.787932638244
 10
109.8189642737605
 20
-132.8961086364808
 10
109.8189642737605
 20
-133.3022853941918
 10
109.8189642737605
 20
-133.6216457456744
 10
109.6201822642616
 20
-133.8414428376334
 10
109.3028889700701
 20
-133.8414428376334
 97
        0
 97
        0
 92
        1
 93
        1
 72
     4
 94
        3
 73
     0
 74
     1
 95
       17
 96
       13
 40
0.0
 40
0.0
 40
0.0
 40
0.0
 40
1.0
 40
1.0
 40
1.0
 40
2.0
 40
2.0
 40
2.0
 40
3.0
 40
3.0
 40
3.0
 40
4.0
 40
4.0
 40
4.0
 40
4.0
 10
109.3197699379478
 20
-132.9825805331606
 10
109.0572536619718
 20
-132.9825805331606
 10
109.019357611634
 20
-133.1941093959549
 10
109.019357611634
 20
-133.3105536233564
 10
109.019357611634
 20
-133.4862534931041
 10
109.1144422470269
 20
-133.6492065095564
 10
109.2984103459393
 20
-133.6492065095564
 10
109.418988687923
 20
-133.6492065095564
 10
109.5946885576708
 20
-133.5899508672101
 10
109.5946885576708
 20
-133.3043524514829
 10
109.5946885576708
 20
-133.0800767353932
 10
109.4551621905182
 20
-132.9825805331606
 10
109.3197699379478
 20
-132.9825805331606
 97
        0
 97
        0
 75
     2
 76
     1
 98
        0
  0
ENDBLK
  5
E4
330
E1
100
AcDbEntity
  8
0
100
AcDbBlockEnd
  0
BLOCK
  5
FA
330
F8
100
AcDbEntity
  8
0
100
AcDbBlockBegin
  2
block 4
 70
     0
 10
0.0
 20
0.0
 30
0.0
  3
block 4
  1

  0
SPLINE
  5
FC
330
F8
100
AcDbEntity
  8
_U+30EC_U+30A4_U+30E4_U+30FC 1
370
     0
100
AcDbSpline
210
0.0
220
0.0
230
1.0
 70
    11
 71
     3
 72
    32
 73
    28
 74
     0
 42
0.0000000001
 43
0.0000000001
 12
1.0
 22
0.0
 32
0.0
 13
1.0
 23
0.0
 33
0.0
 40
0.0
 40
0.0
 40
0.0
 40
0.0
 40
1.0
 40
1.0
 40
1.0
 40
2.0
 40
2.0
 40
2.0
 40
3.0
 40
3.0
 40
3.0
 40
4.0
 40
4.0
 40
4.0
 40
5.0
 40
5.0
 40
5.0
 40
6.0
 40
6.0
 40
6.0
 40
7.0
 40
7.0
 40
7.0
 40
8.0
 40
8.0
 40
8.0
 40
9.0
 40
9.0
 40
9.0
 40
9.0
 10
126.9462564786801
 20
-141.6538858695345
 30
0.0
 10
126.9462564786801
 20
-142.1701334279991
 30
0.0
 10
126.3922851246519
 20
-142.178573911938
 30
0.0
 10
126.1783446950179
 20
-142.178573911938
 30
0.0
 10
125.9478678070547
 20
-142.178573911938
 30
0.0
 10
125.3005343653763
 20
-142.1594536319949
 30
0.0
 10
125.3005343653763
 20
-141.6158175644224
 30
0.0
 10
125.3005343653763
 20
-141.4423570067401
 30
0.0
 10
125.3704698037268
 20
-141.1968939534161
 30
0.0
 10
125.7025770085049
 20
-141.1588256483041
 30
0.0
 10
125.7025770085049
 20
-141.1588256483041
 30
0.0
 10
125.7025770085049
 20
-141.3725938231638
 30
0.0
 10
125.7025770085049
 20
-141.3725938231638
 30
0.0
 10
125.6453884234498
 20
-141.3831013643938
 30
0.0
 10
125.497249317584
 20
-141.4147962428581
 30
0.0
 10
125.497249317584
 20
-141.6178846217136
 30
0.0
 10
125.497249317584
 20
-141.9098564640885
 30
0.0
 10
125.8252224077798
 20
-141.9501640812659
 30
0.0
 10
126.0302055891522
 20
-141.9627386797871
 30
0.0
 10
125.952001921637
 20
-141.8697211016853
 30
0.0
 10
125.8927462792907
 20
-141.8020249754002
 30
0.0
 10
125.8927462792907
 20
-141.620123933779
 30
0.0
 10
125.8927462792907
 20
-141.440289949449
 30
0.0
 10
126.0009222775276
 20
-141.137810565844
 30
0.0
 10
126.4070990352385
 20
-141.137810565844
 30
0.0
 10
126.7264593867212
 20
-141.137810565844
 30
0.0
 10
126.9462564786801
 20
-141.3365925753429
 30
0.0
 10
126.9462564786801
 20
-141.6538858695345
 30
0.0
  0
SPLINE
  5
FD
330
F8
100
AcDbEntity
  8
_U+30EC_U+30A4_U+30E4_U+30FC 1
370
     0
100
AcDbSpline
210
0.0
220
0.0
230
1.0
 70
    11
 71
     3
 72
    17
 73
    13
 74
     0
 42
0.0000000001
 43
0.0000000001
 12
1.0
 22
0.0
 32
0.0
 13
1.0
 23
0.0
 33
0.0
 40
0.0
 40
0.0
 40
0.0
 40
0.0
 40
1.0
 40
1.0
 40
1.0
 40
2.0
 40
2.0
 40
2.0
 40
3.0
 40
3.0
 40
3.0
 40
4.0
 40
4.0
 40
4.0
 40
4.0
 10
126.0873941742073
 20
-141.6370049016567
 30
0.0
 10
126.0873941742073
 20
-141.8993489228585
 30
0.0
 10
126.2989230370017
 20
-141.9374172279705
 30
0.0
 10
126.4153672644031
 20
-141.9374172279705
 30
0.0
 10
126.5910671341508
 20
-141.9374172279705
 30
0.0
 10
126.7540201506032
 20
-141.8421603378034
 30
0.0
 10
126.7540201506032
 20
-141.658192238891
 30
0.0
 10
126.7540201506032
 20
-141.5376138969073
 30
0.0
 10
126.6947645082569
 20
-141.3619140271595
 30
0.0
 10
126.4091660925297
 20
-141.3619140271595
 30
0.0
 10
126.1848903764399
 20
-141.3619140271595
 30
0.0
 10
126.0873941742073
 20
-141.5016126490864
 30
0.0
 10
126.0873941742073
 20
-141.6370049016567
 30
0.0
  0
HATCH
  5
FE
330
F8
100
AcDbEntity
  8
_U+30EC_U+30A4_U+30E4_U+30FC 1
 62
   179
420
  2234388
100
AcDbHatch
 10
0.0
 20
0.0
 30
0.0
210
0.0
220
0.0
230
1.0
  2
SOLID
 70
     1
 71
     0
 91
        2
 92
        1
 93
        1
 72
     4
 94
        3
 73
     0
 74
     1
 95
       32
 96
       28
 40
0.0
 40
0.0
 40
0.0
 40
0.0
 40
1.0
 40
1.0
 40
1.0
 40
2.0
 40
2.0
 40
2.0
 40
3.0
 40
3.0
 40
3.0
 40
4.0
 40
4.0
 40
4.0
 40
5.0
 40
5.0
 40
5.0
 40
6.0
 40
6.0
 40
6.0
 40
7.0
 40
7.0
 40
7.0
 40
8.0
 40
8.0
 40
8.0
 40
9.0
 40
9.0
 40
9.0
 40
9.0
 10
126.9462564786801
 20
-141.6538858695345
 10
126.9462564786801
 20
-142.1701334279991
 10
126.3922851246519
 20
-142.178573911938
 10
126.1783446950179
 20
-142.178573911938
 10
125.9478678070547
 20
-142.178573911938
 10
125.3005343653763
 20
-142.1594536319949
 10
125.3005343653763
 20
-141.6158175644224
 10
125.3005343653763
 20
-141.4423570067401
 10
125.3704698037268
 20
-141.1968939534161
 10
125.7025770085049
 20
-141.1588256483041
 10
125.7025770085049
 20
-141.1588256483041
 10
125.7025770085049
 20
-141.3725938231638
 10
125.7025770085049
 20
-141.3725938231638
 10
125.6453884234498
 20
-141.3831013643938
 10
125.497249317584
 20
-141.4147962428581
 10
125.497249317584
 20
-141.6178846217136
 10
125.497249317584
 20
-141.9098564640885
 10
125.8252224077798
 20
-141.9501640812659
 10
126.0302055891522
 20
-141.9627386797871
 10
125.952001921637
 20
-141.8697211016853
 10
125.8927462792907
 20
-141.8020249754002
 10
125.8927462792907
 20
-141.620123933779
 10
125.8927462792907
 20
-141.440289949449
 10
126.0009222775276
 20
-141.137810565844
 10
126.4070990352385
 20
-141.137810565844
 10
126.7264593867212
 20
-141.137810565844
 10
126.9462564786801
 20
-141.3365925753429
 10
126.9462564786801
 20
-141.6538858695345
 97
        0
 97
        0
 92
        1
 93
        1
 72
     4
 94
        3
 73
     0
 74
     1
 95
       17
 96
       13
 40
0.0
 40
0.0
 40
0.0
 40
0.0
 40
1.0
 40
1.0
 40
1.0
 40
2.0
 40
2.0
 40
2.0
 40
3.0
 40
3.0
 40
3.0
 40
4.0
 40
4.0
 40
4.0
 40
4.0
 10
126.0873941742073
 20
-141.6370049016567
 10
126.0873941742073
 20
-141.8993489228585
 10
126.2989230370017
 20
-141.9374172279705
 10
126.4153672644031
 20
-141.9374172279705
 10
126.5910671341508
 20
-141.9374172279705
 10
126.7540201506032
 20
-141.8421603378034
 10
126.7540201506032
 20
-141.658192238891
 10
126.7540201506032
 20
-141.5376138969073
 10
126.6947645082569
 20
-141.3619140271595
 10
126.4091660925297
 20
-141.3619140271595
 10
126.1848903764399
 20
-141.3619140271595
 10
126.0873941742073
 20
-141.5016126490864
 10
126.0873941742073
 20
-141.6370049016567
 97
        0
 97
        0
 75
     2
 76
     1
 98
        0
  0
ENDBLK
  5
FB
330
F8
100
AcDbEntity
  8
0
100
AcDbBlockEnd
  0
BLOCK
  5
10D
330
10B
100
AcDbEntity
  8
0
100
AcDbBlockBegin
  2
block 5
 70
     0
 10
0.0
 20
0.0
 30
0.0
  3
block 5
  1

  0
SPLINE
  5
10F
330
10B
100
AcDbEntity
  8
_U+30EC_U+30A4_U+30E4_U+30FC 1
370
     0
100
AcDbSpline
210
0.0
220
0.0
230
1.0
 70
    11
 71
     3
 72
    44
 73
    40
 74
     0
 42
0.0000000001
 43
0.0000000001
 12
1.0
 22
0.0
 32
0.0
 13
1.0
 23
0.0
 33
0.0
 40
0.0
 40
0.0
 40
0.0
 40
0.0
 40
1.0
 40
1.0
 40
1.0
 40
2.0
 40
2.0
 40
2.0
 40
3.0
 40
3.0
 40
3.0
 40
4.0
 40
4.0
 40
4.0
 40
5.0
 40
5.0
 40
5.0
 40
6.0
 40
6.0
 40
6.0
 40
7.0
 40
7.0
 40
7.0
 40
8.0
 40
8.0
 40
8.0
 40
9.0
 40
9.0
 40
9.0
 40
10.0
 40
10.0
 40
10.0
 40
11.0
 40
11.0
 40
11.0
 40
12.0
 40
12.0
 40
12.0
 40
13.0
 40
13.0
 40
13.0
 40
13.0
 10
84.25876734004642
 20
-152.1429958387004
 30
0.0
 10
84.41758624191644
 20
-152.3607258733682
 30
0.0
 10
84.49165579484931
 20
-152.4537434514699
 30
0.0
 10
84.63531627658423
 20
-152.5026638073604
 30
0.0
 10
84.63531627658423
 20
-152.5026638073604
 30
0.0
 10
84.63531627658423
 20
-151.724072227694
 30
0.0
 10
84.63531627658423
 20
-151.724072227694
 30
0.0
 10
84.63531627658423
 20
-151.724072227694
 30
0.0
 10
84.84064396750512
 20
-151.724072227694
 30
0.0
 10
84.84064396750512
 20
-151.724072227694
 30
0.0
 10
84.84064396750512
 20
-151.724072227694
 30
0.0
 10
84.84064396750512
 20
-152.7520887204925
 30
0.0
 10
84.84064396750512
 20
-152.7520887204925
 30
0.0
 10
84.48304305613618
 20
-152.7203938420282
 30
0.0
 10
84.40483938862101
 20
-152.6549370278085
 30
0.0
 10
84.10649411959838
 20
-152.2697753525576
 30
0.0
 10
83.90771211009947
 20
-152.0138047580035
 30
0.0
 10
83.83984372904004
 20
-151.9483479437837
 30
0.0
 10
83.70238441917857
 20
-151.9483479437837
 30
0.0
 10
83.58387313448598
 20
-151.9483479437837
 30
0.0
 10
83.45295950604648
 20
-152.0203504394255
 30
0.0
 10
83.45295950604648
 20
-152.2167208820847
 30
0.0
 10
83.45295950604648
 20
-152.4771701007696
 30
0.0
 10
83.6834363940097
 20
-152.4854383299342
 30
0.0
 10
83.79988062141115
 20
-152.489916954065
 30
0.0
 10
83.79988062141115
 20
-152.489916954065
 30
0.0
 10
83.79988062141115
 20
-152.7141926701548
 30
0.0
 10
83.79988062141115
 20
-152.7141926701548
 30
0.0
 10
83.67275659800542
 20
-152.7055799314417
 30
0.0
 10
83.5607909947348
 20
-152.6949001354374
 30
0.0
 10
83.44227971004221
 20
-152.6146294106311
 30
0.0
 10
83.28139375088105
 20
-152.5047308646516
 30
0.0
 10
83.2476318151256
 20
-152.3186957084481
 30
0.0
 10
83.2476318151256
 20
-152.2022514810467
 30
0.0
 10
83.2476318151256
 20
-151.9249212944841
 30
0.0
 10
83.43159991403793
 20
-151.7178710558206
 30
0.0
 10
83.70445147646973
 20
-151.7178710558206
 30
0.0
 10
83.93320581669032
 20
-151.7178710558206
 30
0.0
 10
84.03242456666551
 20
-151.8339707736735
 30
0.0
 10
84.25876734004642
 20
-152.1429958387004
 30
0.0
  0
HATCH
  5
110
330
10B
100
AcDbEntity
  8
_U+30EC_U+30A4_U+30E4_U+30FC 1
 62
   179
420
  2234388
100
AcDbHatch
 10
0.0
 20
0.0
 30
0.0
210
0.0
220
0.0
230
1.0
  2
SOLID
 70
     1
 71
     0
 91
        1
 92
        1
 93
        1
 72
     4
 94
        3
 73
     0
 74
     1
 95
       44
 96
       40
 40
0.0
 40
0.0
 40
0.0
 40
0.0
 40
1.0
 40
1.0
 40
1.0
 40
2.0
 40
2.0
 40
2.0
 40
3.0
 40
3.0
 40
3.0
 40
4.0
 40
4.0
 40
4.0
 40
5.0
 40
5.0
 40
5.0
 40
6.0
 40
6.0
 40
6.0
 40
7.0
 40
7.0
 40
7.0
 40
8.0
 40
8.0
 40
8.0
 40
9.0
 40
9.0
 40
9.0
 40
10.0
 40
10.0
 40
10.0
 40
11.0
 40
11.0
 40
11.0
 40
12.0
 40
12.0
 40
12.0
 40
13.0
 40
13.0
 40
13.0
 40
13.0
 10
84.25876734004642
 20
-152.1429958387004
 10
84.41758624191644
 20
-152.3607258733682
 10
84.49165579484931
 20
-152.4537434514699
 10
84.63531627658423
 20
-152.5026638073604
 10
84.63531627658423
 20
-152.5026638073604
 10
84.63531627658423
 20
-151.724072227694
 10
84.63531627658423
 20
-151.724072227694
 10
84.63531627658423
 20
-151.724072227694
 10
84.84064396750512
 20
-151.724072227694
 10
84.84064396750512
 20
-151.724072227694
 10
84.84064396750512
 20
-151.724072227694
 10
84.84064396750512
 20
-152.7520887204925
 10
84.84064396750512
 20
-152.7520887204925
 10
84.48304305613618
 20
-152.7203938420282
 10
84.40483938862101
 20
-152.6549370278085
 10
84.10649411959838
 20
-152.2697753525576
 10
83.90771211009947
 20
-152.0138047580035
 10
83.83984372904004
 20
-151.9483479437837
 10
83.70238441917857
 20
-151.9483479437837
 10
83.58387313448598
 20
-151.9483479437837
 10
83.45295950604648
 20
-152.0203504394255
 10
83.45295950604648
 20
-152.2167208820847
 10
83.45295950604648
 20
-152.4771701007696
 10
83.6834363940097
 20
-152.4854383299342
 10
83.79988062141115
 20
-152.489916954065
 10
83.79988062141115
 20
-152.489916954065
 10
83.79988062141115
 20
-152.7141926701548
 10
83.79988062141115
 20
-152.7141926701548
 10
83.67275659800542
 20
-152.7055799314417
 10
83.5607909947348
 20
-152.6949001354374
 10
83.44227971004221
 20
-152.6146294106311
 10
83.28139375088105
 20
-152.5047308646516
 10
83.2476318151256
 20
-152.3186957084481
 10
83.2476318151256
 20
-152.2022514810467
 10
83.2476318151256
 20
-151.9249212944841
 10
83.43159991403793
 20
-151.7178710558206
 10
83.70445147646973
 20
-151.7178710558206
 10
83.93320581669032
 20
-151.7178710558206
 10
84.03242456666551
 20
-151.8339707736735
 10
84.25876734004642
 20
-152.1429958387004
 97
        0
 97
        0
 75
     2
 76
     1
 98
        0
  0
SPLINE
  5
111
330
10B
100
AcDbEntity
  8
_U+30EC_U+30A4_U+30E4_U+30FC 1
370
     0
100
AcDbSpline
210
0.0
220
0.0
230
1.0
 70
    11
 71
     3
 72
    32
 73
    28
 74
     0
 42
0.0000000001
 43
0.0000000001
 12
1.0
 22
0.0
 32
0.0
 13
1.0
 23
0.0
 33
0.0
 40
0.0
 40
0.0
 40
0.0
 40
0.0
 40
1.0
 40
1.0
 40
1.0
 40
2.0
 40
2.0
 40
2.0
 40
3.0
 40
3.0
 40
3.0
 40
4.0
 40
4.0
 40
4.0
 40
5.0
 40
5.0
 40
5.0
 40
6.0
 40
6.0
 40
6.0
 40
7.0
 40
7.0
 40
7.0
 40
8.0
 40
8.0
 40
8.0
 40
9.0
 40
9.0
 40
9.0
 40
9.0
 10
84.89128687113829
 20
-151.0550346844585
 30
0.0
 10
84.89128687113829
 20
-151.5711099881489
 30
0.0
 10
84.33731551711011
 20
-151.5793782173135
 30
0.0
 10
84.1233750874761
 20
-151.5793782173135
 30
0.0
 10
83.89289819951289
 20
-151.5793782173135
 30
0.0
 10
83.24556475783444
 20
-151.5604301921446
 30
0.0
 10
83.24556475783444
 20
-151.0167941245722
 30
0.0
 10
83.24556475783444
 20
-150.8435058216641
 30
0.0
 10
83.31550019618501
 20
-150.5978705135658
 30
0.0
 10
83.6476074009631
 20
-150.5596299536795
 30
0.0
 10
83.6476074009631
 20
-150.5596299536795
 30
0.0
 10
83.6476074009631
 20
-150.7735703833136
 30
0.0
 10
83.6476074009631
 20
-150.7735703833136
 30
0.0
 10
83.59041881590795
 20
-150.7842501793178
 30
0.0
 10
83.44227971004221
 20
-150.8159450577821
 30
0.0
 10
83.44227971004221
 20
-151.0188611818633
 30
0.0
 10
83.44227971004221
 20
-151.310660769464
 30
0.0
 10
83.770252800238
 20
-151.35131289619
 30
0.0
 10
83.97523598161037
 20
-151.3637152399369
 30
0.0
 10
83.89703231409518
 20
-151.2706976618351
 30
0.0
 10
83.8377766717489
 20
-151.2031737903242
 30
0.0
 10
83.8377766717489
 20
-151.021272748703
 30
0.0
 10
83.8377766717489
 20
-150.841438764373
 30
0.0
 10
83.94595266998574
 20
-150.538959380768
 30
0.0
 10
84.3521294276967
 20
-150.538959380768
 30
0.0
 10
84.67148977917935
 20
-150.538959380768
 30
0.0
 10
84.89128687113829
 20
-150.7373968807184
 30
0.0
 10
84.89128687113829
 20
-151.0550346844585
 30
0.0
  0
SPLINE
  5
112
330
10B
100
AcDbEntity
  8
_U+30EC_U+30A4_U+30E4_U+30FC 1
370
     0
100
AcDbSpline
210
0.0
220
0.0
230
1.0
 70
    11
 71
     3
 72
    17
 73
    13
 74
     0
 42
0.0000000001
 43
0.0000000001
 12
1.0
 22
0.0
 32
0.0
 13
1.0
 23
0.0
 33
0.0
 40
0.0
 40
0.0
 40
0.0
 40
0.0
 40
1.0
 40
1.0
 40
1.0
 40
2.0
 40
2.0
 40
2.0
 40
3.0
 40
3.0
 40
3.0
 40
4.0
 40
4.0
 40
4.0
 40
4.0
 10
84.03242456666551
 20
-151.0378092070322
 30
0.0
 10
84.03242456666551
 20
-151.3003254830083
 30
0.0
 10
84.24395342945985
 20
-151.338221533346
 30
0.0
 10
84.3603976568613
 20
-151.338221533346
 30
0.0
 10
84.53609752660904
 20
-151.338221533346
 30
0.0
 10
84.69905054306135
 20
-151.2431368979531
 30
0.0
 10
84.69905054306135
 20
-151.0591687990408
 30
0.0
 10
84.69905054306135
 20
-150.938590457057
 30
0.0
 10
84.63979490071506
 20
-150.7628905873093
 30
0.0
 10
84.35419648498784
 20
-150.7628905873093
 30
0.0
 10
84.12992076889807
 20
-150.7628905873093
 30
0.0
 10
84.03242456666551
 20
-150.9027614640104
 30
0.0
 10
84.03242456666551
 20
-151.0378092070322
 30
0.0
  0
HATCH
  5
113
330
10B
100
AcDbEntity
  8
_U+30EC_U+30A4_U+30E4_U+30FC 1
 62
   179
420
  2234388
100
AcDbHatch
 10
0.0
 20
0.0
 30
0.0
210
0.0
220
0.0
230
1.0
  2
SOLID
 70
     1
 71
     0
 91
        2
 92
        1
 93
        1
 72
     4
 94
        3
 73
     0
 74
     1
 95
       32
 96
       28
 40
0.0
 40
0.0
 40
0.0
 40
0.0
 40
1.0
 40
1.0
 40
1.0
 40
2.0
 40
2.0
 40
2.0
 40
3.0
 40
3.0
 40
3.0
 40
4.0
 40
4.0
 40
4.0
 40
5.0
 40
5.0
 40
5.0
 40
6.0
 40
6.0
 40
6.0
 40
7.0
 40
7.0
 40
7.0
 40
8.0
 40
8.0
 40
8.0
 40
9.0
 40
9.0
 40
9.0
 40
9.0
 10
84.89128687113829
 20
-151.0550346844585
 10
84.89128687113829
 20
-151.5711099881489
 10
84.33731551711011
 20
-151.5793782173135
 10
84.1233750874761
 20
-151.5793782173135
 10
83.89289819951289
 20
-151.5793782173135
 10
83.24556475783444
 20
-151.5604301921446
 10
83.24556475783444
 20
-151.0167941245722
 10
83.24556475783444
 20
-150.8435058216641
 10
83.31550019618501
 20
-150.5978705135658
 10
83.6476074009631
 20
-150.5596299536795
 10
83.6476074009631
 20
-150.5596299536795
 10
83.6476074009631
 20
-150.7735703833136
 10
83.6476074009631
 20
-150.7735703833136
 10
83.59041881590795
 20
-150.7842501793178
 10
83.44227971004221
 20
-150.8159450577821
 10
83.44227971004221
 20
-151.0188611818633
 10
83.44227971004221
 20
-151.310660769464
 10
83.770252800238
 20
-151.35131289619
 10
83.97523598161037
 20
-151.3637152399369
 10
83.89703231409518
 20
-151.2706976618351
 10
83.8377766717489
 20
-151.2031737903242
 10
83.8377766717489
 20
-151.021272748703
 10
83.8377766717489
 20
-150.841438764373
 10
83.94595266998574
 20
-150.538959380768
 10
84.3521294276967
 20
-150.538959380768
 10
84.67148977917935
 20
-150.538959380768
 10
84.89128687113829
 20
-150.7373968807184
 10
84.89128687113829
 20
-151.0550346844585
 97
        0
 97
        0
 92
        1
 93
        1
 72
     4
 94
        3
 73
     0
 74
     1
 95
       17
 96
       13
 40
0.0
 40
0.0
 40
0.0
 40
0.0
 40
1.0
 40
1.0
 40
1.0
 40
2.0
 40
2.0
 40
2.0
 40
3.0
 40
3.0
 40
3.0
 40
4.0
 40
4.0
 40
4.0
 40
4.0
 10
84.03242456666551
 20
-151.0378092070322
 10
84.03242456666551
 20
-151.3003254830083
 10
84.24395342945985
 20
-151.338221533346
 10
84.3603976568613
 20
-151.338221533346
 10
84.53609752660904
 20
-151.338221533346
 10
84.69905054306135
 20
-151.2431368979531
 10
84.69905054306135
 20
-151.0591687990408
 10
84.69905054306135
 20
-150.938590457057
 10
84.63979490071506
 20
-150.7628905873093
 10
84.35419648498784
 20
-150.7628905873093
 10
84.12992076889807
 20
-150.7628905873093
 10
84.03242456666551
 20
-150.9027614640104
 10
84.03242456666551
 20
-151.0378092070322
 97
        0
 97
        0
 75
     2
 76
     1
 98
        0
  0
ENDBLK
  5
10E
330
10B
100
AcDbEntity
  8
0
100
AcDbBlockEnd
  0
BLOCK
  5
132
330
130
100
AcDbEntity
  8
0
100
AcDbBlockBegin
  2
block 6
 70
     0
 10
0.0
 20
0.0
 30
0.0
  3
block 6
  1

  0
POLYLINE
  5
134
330
130
100
AcDbEntity
  8
_U+30EC_U+30A4_U+30E4_U+30FC 1
370
     0
100
AcDb2dPolyline
 66
     1
 10
0.0
 20
0.0
 30
0.0
  0
VERTEX
  5
135
330
134
100
AcDbEntity
  8
_U+30EC_U+30A4_U+30E4_U+30FC 1
370
     0
100
AcDbVertex
100
AcDb2dVertex
 10
88.85400795304692
 20
-133.8249063793042
 30
0.0
  0
VERTEX
  5
136
330
134
100
AcDbEntity
  8
_U+30EC_U+30A4_U+30E4_U+30FC 1
370
     0
100
AcDbVertex
100
AcDb2dVertex
 10
88.85400795304692
 20
-133.664020420143
 30
0.0
  0
VERTEX
  5
137
330
134
100
AcDbEntity
  8
_U+30EC_U+30A4_U+30E4_U+30FC 1
370
     0
100
AcDbVertex
100
AcDb2dVertex
 10
89.00834823078611
 20
-133.664020420143
 30
0.0
  0
VERTEX
  5
138
330
134
100
AcDbEntity
  8
_U+30EC_U+30A4_U+30E4_U+30FC 1
370
     0
100
AcDbVertex
100
AcDb2dVertex
 10
89.00834823078611
 20
-133.8249063793042
 30
0.0
  0
VERTEX
  5
139
330
134
100
AcDbEntity
  8
_U+30EC_U+30A4_U+30E4_U+30FC 1
370
     0
100
AcDbVertex
100
AcDb2dVertex
 10
89.40195038997591
 20
-133.8249063793042
 30
0.0
  0
VERTEX
  5
13A
330
134
100
AcDbEntity
  8
_U+30EC_U+30A4_U+30E4_U+30FC 1
370
     0
100
AcDbVertex
100
AcDb2dVertex
 10
89.40195038997591
 20
-133.9792466570434
 30
0.0
  0
VERTEX
  5
13B
330
134
100
AcDbEntity
  8
_U+30EC_U+30A4_U+30E4_U+30FC 1
370
     0
100
AcDbVertex
100
AcDb2dVertex
 10
89.00834823078611
 20
-133.9792466570434
 30
0.0
  0
VERTEX
  5
13C
330
134
100
AcDbEntity
  8
_U+30EC_U+30A4_U+30E4_U+30FC 1
370
     0
100
AcDbVertex
100
AcDb2dVertex
 10
89.00834823078611
 20
-134.1339314443311
 30
0.0
  0
VERTEX
  5
13D
330
134
100
AcDbEntity
  8
_U+30EC_U+30A4_U+30E4_U+30FC 1
370
     0
100
AcDbVertex
100
AcDb2dVertex
 10
89.36370983008963
 20
-134.1339314443311
 30
0.0
  0
VERTEX
  5
13E
330
134
100
AcDbEntity
  8
_U+30EC_U+30A4_U+30E4_U+30FC 1
370
     0
100
AcDbVertex
100
AcDb2dVertex
 10
89.36370983008963
 20
-134.946284959753
 30
0.0
  0
VERTEX
  5
13F
330
134
100
AcDbEntity
  8
_U+30EC_U+30A4_U+30E4_U+30FC 1
370
     0
100
AcDbVertex
100
AcDb2dVertex
 10
89.00834823078611
 20
-134.946284959753
 30
0.0
  0
VERTEX
  5
140
330
134
100
AcDbEntity
  8
_U+30EC_U+30A4_U+30E4_U+30FC 1
370
     0
100
AcDbVertex
100
AcDb2dVertex
 10
89.00834823078611
 20
-135.1154391480788
 30
0.0
  0
VERTEX
  5
141
330
134
100
AcDbEntity
  8
_U+30EC_U+30A4_U+30E4_U+30FC 1
370
     0
100
AcDbVertex
100
AcDb2dVertex
 10
89.41676430056248
 20
-135.1154391480788
 30
0.0
  0
VERTEX
  5
142
330
134
100
AcDbEntity
  8
_U+30EC_U+30A4_U+30E4_U+30FC 1
370
     0
100
AcDbVertex
100
AcDb2dVertex
 10
89.41676430056248
 20
-135.269779425818
 30
0.0
  0
VERTEX
  5
143
330
134
100
AcDbEntity
  8
_U+30EC_U+30A4_U+30E4_U+30FC 1
370
     0
100
AcDbVertex
100
AcDb2dVertex
 10
89.00834823078611
 20
-135.269779425818
 30
0.0
  0
VERTEX
  5
144
330
134
100
AcDbEntity
  8
_U+30EC_U+30A4_U+30E4_U+30FC 1
370
     0
100
AcDbVertex
100
AcDb2dVertex
 10
89.00834823078611
 20
-135.6232462226046
 30
0.0
  0
VERTEX
  5
145
330
134
100
AcDbEntity
  8
_U+30EC_U+30A4_U+30E4_U+30FC 1
370
     0
100
AcDbVertex
100
AcDb2dVertex
 10
88.85400795304692
 20
-135.6232462226046
 30
0.0
  0
VERTEX
  5
146
330
134
100
AcDbEntity
  8
_U+30EC_U+30A4_U+30E4_U+30FC 1
370
     0
100
AcDbVertex
100
AcDb2dVertex
 10
88.85400795304692
 20
-135.269779425818
 30
0.0
  0
VERTEX
  5
147
330
134
100
AcDbEntity
  8
_U+30EC_U+30A4_U+30E4_U+30FC 1
370
     0
100
AcDbVertex
100
AcDb2dVertex
 10
88.4435248259794
 20
-135.269779425818
 30
0.0
  0
VERTEX
  5
148
330
134
100
AcDbEntity
  8
_U+30EC_U+30A4_U+30E4_U+30FC 1
370
     0
100
AcDbVertex
100
AcDb2dVertex
 10
88.4435248259794
 20
-135.1154391480788
 30
0.0
  0
VERTEX
  5
149
330
134
100
AcDbEntity
  8
_U+30EC_U+30A4_U+30E4_U+30FC 1
370
     0
100
AcDbVertex
100
AcDb2dVertex
 10
88.85400795304692
 20
-135.1154391480788
 30
0.0
  0
VERTEX
  5
14A
330
134
100
AcDbEntity
  8
_U+30EC_U+30A4_U+30E4_U+30FC 1
370
     0
100
AcDbVertex
100
AcDb2dVertex
 10
88.85400795304692
 20
-134.946284959753
 30
0.0
  0
VERTEX
  5
14B
330
134
100
AcDbEntity
  8
_U+30EC_U+30A4_U+30E4_U+30FC 1
370
     0
100
AcDbVertex
100
AcDb2dVertex
 10
88.50484752561685
 20
-134.946284959753
 30
0.0
  0
VERTEX
  5
14C
330
134
100
AcDbEntity
  8
_U+30EC_U+30A4_U+30E4_U+30FC 1
370
     0
100
AcDbVertex
100
AcDb2dVertex
 10
88.50484752561685
 20
-134.1339314443311
 30
0.0
  0
VERTEX
  5
14D
330
134
100
AcDbEntity
  8
_U+30EC_U+30A4_U+30E4_U+30FC 1
370
     0
100
AcDbVertex
100
AcDb2dVertex
 10
88.85400795304692
 20
-134.1339314443311
 30
0.0
  0
VERTEX
  5
14E
330
134
100
AcDbEntity
  8
_U+30EC_U+30A4_U+30E4_U+30FC 1
370
     0
100
AcDbVertex
100
AcDb2dVertex
 10
88.85400795304692
 20
-133.9792466570434
 30
0.0
  0
VERTEX
  5
14F
330
134
100
AcDbEntity
  8
_U+30EC_U+30A4_U+30E4_U+30FC 1
370
     0
100
AcDbVertex
100
AcDb2dVertex
 10
88.46471216321369
 20
-133.9792466570434
 30
0.0
  0
VERTEX
  5
150
330
134
100
AcDbEntity
  8
_U+30EC_U+30A4_U+30E4_U+30FC 1
370
     0
100
AcDbVertex
100
AcDb2dVertex
 10
88.46471216321369
 20
-133.8249063793042
 30
0.0
  0
VERTEX
  5
151
330
134
100
AcDbEntity
  8
_U+30EC_U+30A4_U+30E4_U+30FC 1
370
     0
100
AcDbVertex
100
AcDb2dVertex
 10
88.85400795304692
 20
-133.8249063793042
 30
0.0
  0
SEQEND
  5
152
330
134
100
AcDbEntity
  8
_U+30EC_U+30A4_U+30E4_U+30FC 1
370
     0
  0
POLYLINE
  5
153
330
130
100
AcDbEntity
  8
_U+30EC_U+30A4_U+30E4_U+30FC 1
370
     0
100
AcDb2dPolyline
 66
     1
 10
0.0
 20
0.0
 30
0.0
  0
VERTEX
  5
154
330
153
100
AcDbEntity
  8
_U+30EC_U+30A4_U+30E4_U+30FC 1
370
     0
100
AcDbVertex
100
AcDb2dVertex
 10
88.85400795304692
 20
-134.2734578114837
 30
0.0
  0
VERTEX
  5
155
330
153
100
AcDbEntity
  8
_U+30EC_U+30A4_U+30E4_U+30FC 1
370
     0
100
AcDbVertex
100
AcDb2dVertex
 10
88.64661320483488
 20
-134.2734578114837
 30
0.0
  0
VERTEX
  5
156
330
153
100
AcDbEntity
  8
_U+30EC_U+30A4_U+30E4_U+30FC 1
370
     0
100
AcDbVertex
100
AcDb2dVertex
 10
88.64661320483488
 20
-134.4763739355649
 30
0.0
  0
VERTEX
  5
157
330
153
100
AcDbEntity
  8
_U+30EC_U+30A4_U+30E4_U+30FC 1
370
     0
100
AcDbVertex
100
AcDb2dVertex
 10
88.85400795304692
 20
-134.4763739355649
 30
0.0
  0
VERTEX
  5
158
330
153
100
AcDbEntity
  8
_U+30EC_U+30A4_U+30E4_U+30FC 1
370
     0
100
AcDbVertex
100
AcDb2dVertex
 10
88.85400795304692
 20
-134.2734578114837
 30
0.0
  0
SEQEND
  5
159
330
153
100
AcDbEntity
  8
_U+30EC_U+30A4_U+30E4_U+30FC 1
370
     0
  0
POLYLINE
  5
15A
330
130
100
AcDbEntity
  8
_U+30EC_U+30A4_U+30E4_U+30FC 1
370
     0
100
AcDb2dPolyline
 66
     1
 10
0.0
 20
0.0
 30
0.0
  0
VERTEX
  5
15B
330
15A
100
AcDbEntity
  8
_U+30EC_U+30A4_U+30E4_U+30FC 1
370
     0
100
AcDbVertex
100
AcDb2dVertex
 10
88.85400795304692
 20
-134.5993638443884
 30
0.0
  0
VERTEX
  5
15C
330
15A
100
AcDbEntity
  8
_U+30EC_U+30A4_U+30E4_U+30FC 1
370
     0
100
AcDbVertex
100
AcDb2dVertex
 10
88.64661320483488
 20
-134.5993638443884
 30
0.0
  0
VERTEX
  5
15D
330
15A
100
AcDbEntity
  8
_U+30EC_U+30A4_U+30E4_U+30FC 1
370
     0
100
AcDbVertex
100
AcDb2dVertex
 10
88.64661320483488
 20
-134.8064140830519
 30
0.0
  0
VERTEX
  5
15E
330
15A
100
AcDbEntity
  8
_U+30EC_U+30A4_U+30E4_U+30FC 1
370
     0
100
AcDbVertex
100
AcDb2dVertex
 10
88.85400795304692
 20
-134.8064140830519
 30
0.0
  0
VERTEX
  5
15F
330
15A
100
AcDbEntity
  8
_U+30EC_U+30A4_U+30E4_U+30FC 1
370
     0
100
AcDbVertex
100
AcDb2dVertex
 10
88.85400795304692
 20
-134.5993638443884
 30
0.0
  0
SEQEND
  5
160
330
15A
100
AcDbEntity
  8
_U+30EC_U+30A4_U+30E4_U+30FC 1
370
     0
  0
POLYLINE
  5
161
330
130
100
AcDbEntity
  8
_U+30EC_U+30A4_U+30E4_U+30FC 1
370
     0
100
AcDb2dPolyline
 66
     1
 10
0.0
 20
0.0
 30
0.0
  0
VERTEX
  5
162
330
161
100
AcDbEntity
  8
_U+30EC_U+30A4_U+30E4_U+30FC 1
370
     0
100
AcDbVertex
100
AcDb2dVertex
 10
89.21987709358045
 20
-134.2734578114837
 30
0.0
  0
VERTEX
  5
163
330
161
100
AcDbEntity
  8
_U+30EC_U+30A4_U+30E4_U+30FC 1
370
     0
100
AcDbVertex
100
AcDb2dVertex
 10
89.00834823078611
 20
-134.2734578114837
 30
0.0
  0
VERTEX
  5
164
330
161
100
AcDbEntity
  8
_U+30EC_U+30A4_U+30E4_U+30FC 1
370
     0
100
AcDbVertex
100
AcDb2dVertex
 10
89.00834823078611
 20
-134.4763739355649
 30
0.0
  0
VERTEX
  5
165
330
161
100
AcDbEntity
  8
_U+30EC_U+30A4_U+30E4_U+30FC 1
370
     0
100
AcDbVertex
100
AcDb2dVertex
 10
89.21987709358045
 20
-134.4763739355649
 30
0.0
  0
VERTEX
  5
166
330
161
100
AcDbEntity
  8
_U+30EC_U+30A4_U+30E4_U+30FC 1
370
     0
100
AcDbVertex
100
AcDb2dVertex
 10
89.21987709358045
 20
-134.2734578114837
 30
0.0
  0
SEQEND
  5
167
330
161
100
AcDbEntity
  8
_U+30EC_U+30A4_U+30E4_U+30FC 1
370
     0
  0
POLYLINE
  5
168
330
130
100
AcDbEntity
  8
_U+30EC_U+30A4_U+30E4_U+30FC 1
370
     0
100
AcDb2dPolyline
 66
     1
 10
0.0
 20
0.0
 30
0.0
  0
VERTEX
  5
169
330
168
100
AcDbEntity
  8
_U+30EC_U+30A4_U+30E4_U+30FC 1
370
     0
100
AcDbVertex
100
AcDb2dVertex
 10
89.21987709358045
 20
-134.5993638443884
 30
0.0
  0
VERTEX
  5
16A
330
168
100
AcDbEntity
  8
_U+30EC_U+30A4_U+30E4_U+30FC 1
370
     0
100
AcDbVertex
100
AcDb2dVertex
 10
89.00834823078611
 20
-134.5993638443884
 30
0.0
  0
VERTEX
  5
16B
330
168
100
AcDbEntity
  8
_U+30EC_U+30A4_U+30E4_U+30FC 1
370
     0
100
AcDbVertex
100
AcDb2dVertex
 10
89.00834823078611
 20
-134.8064140830519
 30
0.0
  0
VERTEX
  5
16C
330
168
100
AcDbEntity
  8
_U+30EC_U+30A4_U+30E4_U+30FC 1
370
     0
100
AcDbVertex
100
AcDb2dVertex
 10
89.21987709358045
 20
-134.8064140830519
 30
0.0
  0
VERTEX
  5
16D
330
168
100
AcDbEntity
  8
_U+30EC_U+30A4_U+30E4_U+30FC 1
370
     0
100
AcDbVertex
100
AcDb2dVertex
 10
89.21987709358045
 20
-134.5993638443884
 30
0.0
  0
SEQEND
  5
16E
330
168
100
AcDbEntity
  8
_U+30EC_U+30A4_U+30E4_U+30FC 1
370
     0
  0
SPLINE
  5
16F
330
130
100
AcDbEntity
  8
_U+30EC_U+30A4_U+30E4_U+30FC 1
370
     0
100
AcDbSpline
210
0.0
220
0.0
230
1.0
 70
    11
 71
     3
 72
    38
 73
    34
 74
     0
 42
0.0000000001
 43
0.0000000001
 12
1.0
 22
0.0
 32
0.0
 13
1.0
 23
0.0
 33
0.0
 40
0.0
 40
0.0
 40
0.0
 40
0.0
 40
1.0
 40
1.0
 40
1.0
 40
2.0
 40
2.0
 40
2.0
 40
3.0
 40
3.0
 40
3.0
 40
4.0
 40
4.0
 40
4.0
 40
5.0
 40
5.0
 40
5.0
 40
6.0
 40
6.0
 40
6.0
 40
7.0
 40
7.0
 40
7.0
 40
8.0
 40
8.0
 40
8.0
 40
9.0
 40
9.0
 40
9.0
 40
10.0
 40
10.0
 40
10.0
 40
11.0
 40
11.0
 40
11.0
 40
11.0
 10
89.26225176804903
 20
-135.4878539700343
 30
0.0
 10
89.34476180492076
 20
-135.4347994995614
 30
0.0
 10
89.50978187866423
 20
-135.3269680108731
 30
0.0
 10
89.61554631006139
 20
-135.1195732626611
 30
0.0
 10
89.76368541592714
 20
-134.8277736750604
 30
0.0
 10
89.76368541592714
 20
-134.6014309016795
 30
0.0
 10
89.76368541592714
 20
-134.5166815527424
 30
0.0
 10
89.76368541592714
 20
-134.5166815527424
 30
0.0
 10
89.76368541592714
 20
-134.2820705501969
 30
0.0
 10
89.76368541592714
 20
-134.2820705501969
 30
0.0
 10
89.76368541592714
 20
-134.2820705501969
 30
0.0
 10
89.9287054896706
 20
-134.2820705501969
 30
0.0
 10
89.9287054896706
 20
-134.2820705501969
 30
0.0
 10
89.9287054896706
 20
-134.2820705501969
 30
0.0
 10
89.9287054896706
 20
-134.5084133235778
 30
0.0
 10
89.9287054896706
 20
-134.5084133235778
 30
0.0
 10
89.9287054896706
 20
-134.7071953330767
 30
0.0
 10
89.99416230389035
 20
-134.9442179024619
 30
0.0
 10
90.09579262070523
 20
-135.1175062053699
 30
0.0
 10
90.2120645933324
 20
-135.3162882148688
 30
0.0
 10
90.34108341925501
 20
-135.4158514743926
 30
0.0
 10
90.42583276819215
 20
-135.47717417403
 30
0.0
 10
90.42583276819215
 20
-135.47717417403
 30
0.0
 10
90.31782902472958
 20
-135.6273803371869
 30
0.0
 10
90.31782902472958
 20
-135.6273803371869
 30
0.0
 10
90.14023435246494
 20
-135.49818925649
 30
0.0
 10
89.94128008819176
 20
-135.2590996298137
 30
0.0
 10
89.86307642067659
 20
-134.9059773425756
 30
0.0
 10
89.79744735168259
 20
-135.1450669692519
 30
0.0
 10
89.69598928964199
 20
-135.4137844171014
 30
0.0
 10
89.38713647938933
 20
-135.6232462226046
 30
0.0
 10
89.38713647938933
 20
-135.6232462226046
 30
0.0
 10
89.26225176804903
 20
-135.4878539700343
 30
0.0
 10
89.26225176804903
 20
-135.4878539700343
 30
0.0
  0
SPLINE
  5
170
330
130
100
AcDbEntity
  8
_U+30EC_U+30A4_U+30E4_U+30FC 1
370
     0
100
AcDbSpline
210
0.0
220
0.0
230
1.0
 70
    11
 71
     3
 72
    38
 73
    34
 74
     0
 42
0.0000000001
 43
0.0000000001
 12
1.0
 22
0.0
 32
0.0
 13
1.0
 23
0.0
 33
0.0
 40
0.0
 40
0.0
 40
0.0
 40
0.0
 40
1.0
 40
1.0
 40
1.0
 40
2.0
 40
2.0
 40
2.0
 40
3.0
 40
3.0
 40
3.0
 40
4.0
 40
4.0
 40
4.0
 40
5.0
 40
5.0
 40
5.0
 40
6.0
 40
6.0
 40
6.0
 40
7.0
 40
7.0
 40
7.0
 40
8.0
 40
8.0
 40
8.0
 40
9.0
 40
9.0
 40
9.0
 40
10.0
 40
10.0
 40
10.0
 40
11.0
 40
11.0
 40
11.0
 40
11.0
 10
89.37645668338506
 20
-134.4150512359275
 30
0.0
 10
89.46964651626107
 20
-134.2924058366526
 30
0.0
 10
89.59435897282711
 20
-134.1125718523226
 30
0.0
 10
89.68961586299427
 20
-133.664020420143
 30
0.0
 10
89.68961586299427
 20
-133.664020420143
 30
0.0
 10
89.85670299402888
 20
-133.6833129548604
 30
0.0
 10
89.85670299402888
 20
-133.6833129548604
 30
0.0
 10
89.8313815422123
 20
-133.8038912968442
 30
0.0
 10
89.80812714768686
 20
-133.8948418176548
 30
0.0
 10
89.76988658780058
 20
-134.0026733063431
 30
0.0
 10
89.76988658780058
 20
-134.0026733063431
 30
0.0
 10
90.39827200431016
 20
-134.0026733063431
 30
0.0
 10
90.39827200431016
 20
-134.0026733063431
 30
0.0
 10
90.39827200431016
 20
-134.0026733063431
 30
0.0
 10
90.39827200431016
 20
-134.1549465267911
 30
0.0
 10
90.39827200431016
 20
-134.1549465267911
 30
0.0
 10
90.36451006855471
 20
-134.2968844607834
 30
0.0
 10
90.26925317838756
 20
-134.5549221126286
 30
0.0
 10
90.19518362545467
 20
-134.6734333973212
 30
0.0
 10
90.19518362545467
 20
-134.6734333973212
 30
0.0
 10
90.04291040500664
 20
-134.5948852202575
 30
0.0
 10
90.04291040500664
 20
-134.5948852202575
 30
0.0
 10
90.13799504039953
 20
-134.4594929676872
 30
0.0
 10
90.20362410939354
 20
-134.2713907541926
 30
0.0
 10
90.23118487327554
 20
-134.1611476986646
 30
0.0
 10
90.23118487327554
 20
-134.1611476986646
 30
0.0
 10
89.7128702575197
 20
-134.1611476986646
 30
0.0
 10
89.7128702575197
 20
-134.1611476986646
 30
0.0
 10
89.61347925277025
 20
-134.4026488921806
 30
0.0
 10
89.53940969983738
 20
-134.4911878461515
 30
0.0
 10
89.50134139472536
 20
-134.5356295779112
 30
0.0
 10
89.50134139472536
 20
-134.5356295779112
 30
0.0
 10
89.37645668338506
 20
-134.4150512359275
 30
0.0
 10
89.37645668338506
 20
-134.4150512359275
 30
0.0
  0
HATCH
  5
171
330
130
100
AcDbEntity
  8
_U+30EC_U+30A4_U+30E4_U+30FC 1
 62
    12
420
 15007761
100
AcDbHatch
 10
0.0
 20
0.0
 30
0.0
210
0.0
220
0.0
230
1.0
  2
SOLID
 70
     1
 71
     0
 91
        7
 92
        1
 93
       28
 72
     1
 10
88.85400795304692
 20
-133.8249063793042
 11
88.85400795304692
 21
-133.664020420143
 72
     1
 10
88.85400795304692
 20
-133.664020420143
 11
89.00834823078611
 21
-133.664020420143
 72
     1
 10
89.00834823078611
 20
-133.664020420143
 11
89.00834823078611
 21
-133.8249063793042
 72
     1
 10
89.00834823078611
 20
-133.8249063793042
 11
89.40195038997591
 21
-133.8249063793042
 72
     1
 10
89.40195038997591
 20
-133.8249063793042
 11
89.40195038997591
 21
-133.9792466570434
 72
     1
 10
89.40195038997591
 20
-133.9792466570434
 11
89.00834823078611
 21
-133.9792466570434
 72
     1
 10
89.00834823078611
 20
-133.9792466570434
 11
89.00834823078611
 21
-134.1339314443311
 72
     1
 10
89.00834823078611
 20
-134.1339314443311
 11
89.36370983008963
 21
-134.1339314443311
 72
     1
 10
89.36370983008963
 20
-134.1339314443311
 11
89.36370983008963
 21
-134.946284959753
 72
     1
 10
89.36370983008963
 20
-134.946284959753
 11
89.00834823078611
 21
-134.946284959753
 72
     1
 10
89.00834823078611
 20
-134.946284959753
 11
89.00834823078611
 21
-135.1154391480788
 72
     1
 10
89.00834823078611
 20
-135.1154391480788
 11
89.41676430056248
 21
-135.1154391480788
 72
     1
 10
89.41676430056248
 20
-135.1154391480788
 11
89.41676430056248
 21
-135.269779425818
 72
     1
 10
89.41676430056248
 20
-135.269779425818
 11
89.00834823078611
 21
-135.269779425818
 72
     1
 10
89.00834823078611
 20
-135.269779425818
 11
89.00834823078611
 21
-135.6232462226046
 72
     1
 10
89.00834823078611
 20
-135.6232462226046
 11
88.85400795304692
 21
-135.6232462226046
 72
     1
 10
88.85400795304692
 20
-135.6232462226046
 11
88.85400795304692
 21
-135.269779425818
 72
     1
 10
88.85400795304692
 20
-135.269779425818
 11
88.4435248259794
 21
-135.269779425818
 72
     1
 10
88.4435248259794
 20
-135.269779425818
 11
88.4435248259794
 21
-135.1154391480788
 72
     1
 10
88.4435248259794
 20
-135.1154391480788
 11
88.85400795304692
 21
-135.1154391480788
 72
     1
 10
88.85400795304692
 20
-135.1154391480788
 11
88.85400795304692
 21
-134.946284959753
 72
     1
 10
88.85400795304692
 20
-134.946284959753
 11
88.50484752561685
 21
-134.946284959753
 72
     1
 10
88.50484752561685
 20
-134.946284959753
 11
88.50484752561685
 21
-134.1339314443311
 72
     1
 10
88.50484752561685
 20
-134.1339314443311
 11
88.85400795304692
 21
-134.1339314443311
 72
     1
 10
88.85400795304692
 20
-134.1339314443311
 11
88.85400795304692
 21
-133.9792466570434
 72
     1
 10
88.85400795304692
 20
-133.9792466570434
 11
88.46471216321369
 21
-133.9792466570434
 72
     1
 10
88.46471216321369
 20
-133.9792466570434
 11
88.46471216321369
 21
-133.8249063793042
 72
     1
 10
88.46471216321369
 20
-133.8249063793042
 11
88.85400795304692
 21
-133.8249063793042
 97
        0
 92
        1
 93
        4
 72
     1
 10
88.85400795304692
 20
-134.2734578114837
 11
88.64661320483488
 21
-134.2734578114837
 72
     1
 10
88.64661320483488
 20
-134.2734578114837
 11
88.64661320483488
 21
-134.4763739355649
 72
     1
 10
88.64661320483488
 20
-134.4763739355649
 11
88.85400795304692
 21
-134.4763739355649
 72
     1
 10
88.85400795304692
 20
-134.4763739355649
 11
88.85400795304692
 21
-134.2734578114837
 97
        0
 92
        1
 93
        4
 72
     1
 10
88.85400795304692
 20
-134.5993638443884
 11
88.64661320483488
 21
-134.5993638443884
 72
     1
 10
88.64661320483488
 20
-134.5993638443884
 11
88.64661320483488
 21
-134.8064140830519
 72
     1
 10
88.64661320483488
 20
-134.8064140830519
 11
88.85400795304692
 21
-134.8064140830519
 72
     1
 10
88.85400795304692
 20
-134.8064140830519
 11
88.85400795304692
 21
-134.5993638443884
 97
        0
 92
        1
 93
        4
 72
     1
 10
89.21987709358045
 20
-134.2734578114837
 11
89.00834823078611
 21
-134.2734578114837
 72
     1
 10
89.00834823078611
 20
-134.2734578114837
 11
89.00834823078611
 21
-134.4763739355649
 72
     1
 10
89.00834823078611
 20
-134.4763739355649
 11
89.21987709358045
 21
-134.4763739355649
 72
     1
 10
89.21987709358045
 20
-134.4763739355649
 11
89.21987709358045
 21
-134.2734578114837
 97
        0
 92
        1
 93
        4
 72
     1
 10
89.21987709358045
 20
-134.5993638443884
 11
89.00834823078611
 21
-134.5993638443884
 72
     1
 10
89.00834823078611
 20
-134.5993638443884
 11
89.00834823078611
 21
-134.8064140830519
 72
     1
 10
89.00834823078611
 20
-134.8064140830519
 11
89.21987709358045
 21
-134.8064140830519
 72
     1
 10
89.21987709358045
 20
-134.8064140830519
 11
89.21987709358045
 21
-134.5993638443884
 97
        0
 92
        1
 93
        1
 72
     4
 94
        3
 73
     0
 74
     1
 95
       38
 96
       34
 40
0.0
 40
0.0
 40
0.0
 40
0.0
 40
1.0
 40
1.0
 40
1.0
 40
2.0
 40
2.0
 40
2.0
 40
3.0
 40
3.0
 40
3.0
 40
4.0
 40
4.0
 40
4.0
 40
5.0
 40
5.0
 40
5.0
 40
6.0
 40
6.0
 40
6.0
 40
7.0
 40
7.0
 40
7.0
 40
8.0
 40
8.0
 40
8.0
 40
9.0
 40
9.0
 40
9.0
 40
10.0
 40
10.0
 40
10.0
 40
11.0
 40
11.0
 40
11.0
 40
11.0
 10
89.26225176804903
 20
-135.4878539700343
 10
89.34476180492076
 20
-135.4347994995614
 10
89.50978187866423
 20
-135.3269680108731
 10
89.61554631006139
 20
-135.1195732626611
 10
89.76368541592714
 20
-134.8277736750604
 10
89.76368541592714
 20
-134.6014309016795
 10
89.76368541592714
 20
-134.5166815527424
 10
89.76368541592714
 20
-134.5166815527424
 10
89.76368541592714
 20
-134.2820705501969
 10
89.76368541592714
 20
-134.2820705501969
 10
89.76368541592714
 20
-134.2820705501969
 10
89.9287054896706
 20
-134.2820705501969
 10
89.9287054896706
 20
-134.2820705501969
 10
89.9287054896706
 20
-134.2820705501969
 10
89.9287054896706
 20
-134.5084133235778
 10
89.9287054896706
 20
-134.5084133235778
 10
89.9287054896706
 20
-134.7071953330767
 10
89.99416230389035
 20
-134.9442179024619
 10
90.09579262070523
 20
-135.1175062053699
 10
90.2120645933324
 20
-135.3162882148688
 10
90.34108341925501
 20
-135.4158514743926
 10
90.42583276819215
 20
-135.47717417403
 10
90.42583276819215
 20
-135.47717417403
 10
90.31782902472958
 20
-135.6273803371869
 10
90.31782902472958
 20
-135.6273803371869
 10
90.14023435246494
 20
-135.49818925649
 10
89.94128008819176
 20
-135.2590996298137
 10
89.86307642067659
 20
-134.9059773425756
 10
89.79744735168259
 20
-135.1450669692519
 10
89.69598928964199
 20
-135.4137844171014
 10
89.38713647938933
 20
-135.6232462226046
 10
89.38713647938933
 20
-135.6232462226046
 10
89.26225176804903
 20
-135.4878539700343
 10
89.26225176804903
 20
-135.4878539700343
 97
        0
 97
        0
 92
        1
 93
        1
 72
     4
 94
        3
 73
     0
 74
     1
 95
       38
 96
       34
 40
0.0
 40
0.0
 40
0.0
 40
0.0
 40
1.0
 40
1.0
 40
1.0
 40
2.0
 40
2.0
 40
2.0
 40
3.0
 40
3.0
 40
3.0
 40
4.0
 40
4.0
 40
4.0
 40
5.0
 40
5.0
 40
5.0
 40
6.0
 40
6.0
 40
6.0
 40
7.0
 40
7.0
 40
7.0
 40
8.0
 40
8.0
 40
8.0
 40
9.0
 40
9.0
 40
9.0
 40
10.0
 40
10.0
 40
10.0
 40
11.0
 40
11.0
 40
11.0
 40
11.0
 10
89.37645668338506
 20
-134.4150512359275
 10
89.46964651626107
 20
-134.2924058366526
 10
89.59435897282711
 20
-134.1125718523226
 10
89.68961586299427
 20
-133.664020420143
 10
89.68961586299427
 20
-133.664020420143
 10
89.85670299402888
 20
-133.6833129548604
 10
89.85670299402888
 20
-133.6833129548604
 10
89.8313815422123
 20
-133.8038912968442
 10
89.80812714768686
 20
-133.8948418176548
 10
89.76988658780058
 20
-134.0026733063431
 10
89.76988658780058
 20
-134.0026733063431
 10
90.39827200431016
 20
-134.0026733063431
 10
90.39827200431016
 20
-134.0026733063431
 10
90.39827200431016
 20
-134.0026733063431
 10
90.39827200431016
 20
-134.1549465267911
 10
90.39827200431016
 20
-134.1549465267911
 10
90.36451006855471
 20
-134.2968844607834
 10
90.26925317838756
 20
-134.5549221126286
 10
90.19518362545467
 20
-134.6734333973212
 10
90.19518362545467
 20
-134.6734333973212
 10
90.04291040500664
 20
-134.5948852202575
 10
90.04291040500664
 20
-134.5948852202575
 10
90.13799504039953
 20
-134.4594929676872
 10
90.20362410939354
 20
-134.2713907541926
 10
90.23118487327554
 20
-134.1611476986646
 10
90.23118487327554
 20
-134.1611476986646
 10
89.7128702575197
 20
-134.1611476986646
 10
89.7128702575197
 20
-134.1611476986646
 10
89.61347925277025
 20
-134.4026488921806
 10
89.53940969983738
 20
-134.4911878461515
 10
89.50134139472536
 20
-134.5356295779112
 10
89.50134139472536
 20
-134.5356295779112
 10
89.37645668338506
 20
-134.4150512359275
 10
89.37645668338506
 20
-134.4150512359275
 97
        0
 97
        0
 75
     2
 76
     1
 98
        0
  0
SPLINE
  5
172
330
130
100
AcDbEntity
  8
_U+30EC_U+30A4_U+30E4_U+30FC 1
370
     0
100
AcDbSpline
210
0.0
220
0.0
230
1.0
 70
    11
 71
     3
 72
    50
 73
    46
 74
     0
 42
0.0000000001
 43
0.0000000001
 12
1.0
 22
0.0
 32
0.0
 13
1.0
 23
0.0
 33
0.0
 40
0.0
 40
0.0
 40
0.0
 40
0.0
 40
1.0
 40
1.0
 40
1.0
 40
2.0
 40
2.0
 40
2.0
 40
3.0
 40
3.0
 40
3.0
 40
4.0
 40
4.0
 40
4.0
 40
5.0
 40
5.0
 40
5.0
 40
6.0
 40
6.0
 40
6.0
 40
7.0
 40
7.0
 40
7.0
 40
8.0
 40
8.0
 40
8.0
 40
9.0
 40
9.0
 40
9.0
 40
10.0
 40
10.0
 40
10.0
 40
11.0
 40
11.0
 40
11.0
 40
12.0
 40
12.0
 40
12.0
 40
13.0
 40
13.0
 40
13.0
 40
14.0
 40
14.0
 40
14.0
 40
15.0
 40
15.0
 40
15.0
 40
15.0
 10
90.8711113596607
 20
-133.9623656891657
 30
0.0
 10
90.8711113596607
 20
-133.9623656891657
 30
0.0
 10
91.5227511706957
 20
-133.9623656891657
 30
0.0
 10
91.5227511706957
 20
-133.9623656891657
 30
0.0
 10
91.5227511706957
 20
-133.9623656891657
 30
0.0
 10
91.5227511706957
 20
-134.0874226552802
 30
0.0
 10
91.5227511706957
 20
-134.0874226552802
 30
0.0
 10
91.5227511706957
 20
-134.0874226552802
 30
0.0
 10
91.24559323890736
 20
-134.0874226552802
 30
0.0
 10
91.24559323890736
 20
-134.0874226552802
 30
0.0
 10
91.24559323890736
 20
-134.0874226552802
 30
0.0
 10
91.24559323890736
 20
-134.3623412750032
 30
0.0
 10
91.24559323890736
 20
-134.3623412750032
 30
0.0
 10
91.24559323890736
 20
-134.3623412750032
 30
0.0
 10
91.08487953452045
 20
-134.3623412750032
 30
0.0
 10
91.08487953452045
 20
-134.3623412750032
 30
0.0
 10
91.08487953452045
 20
-134.3623412750032
 30
0.0
 10
91.08487953452045
 20
-134.0874226552802
 30
0.0
 10
91.08487953452045
 20
-134.0874226552802
 30
0.0
 10
91.08487953452045
 20
-134.0874226552802
 30
0.0
 10
90.86491018778725
 20
-134.0874226552802
 30
0.0
 10
90.86491018778725
 20
-134.0874226552802
 30
0.0
 10
90.85423039178298
 20
-134.1570135840823
 30
0.0
 10
90.82890893996638
 20
-134.3516614789989
 30
0.0
 10
90.67439640745293
 20
-134.5018676421558
 30
0.0
 10
90.67439640745293
 20
-134.5018676421558
 30
0.0
 10
90.55175100817804
 20
-134.3919690961763
 30
0.0
 10
90.55175100817804
 20
-134.3919690961763
 30
0.0
 10
90.67232935016179
 20
-134.2924058366526
 30
0.0
 10
90.71470402463035
 20
-134.0874226552802
 30
0.0
 10
90.71470402463035
 20
-134.0047403636342
 30
0.0
 10
90.71470402463035
 20
-134.0047403636342
 30
0.0
 10
90.71470402463035
 20
-133.719141947907
 30
0.0
 10
90.71470402463035
 20
-133.719141947907
 30
0.0
 10
91.19908444985649
 20
-133.719141947907
 30
0.0
 10
91.35359698236994
 20
-133.6726331588561
 30
0.0
 10
91.44868161776283
 20
-133.6450723949742
 30
0.0
 10
91.44868161776283
 20
-133.6450723949742
 30
0.0
 10
91.50156383346142
 20
-133.7845987621268
 30
0.0
 10
91.50156383346142
 20
-133.7845987621268
 30
0.0
 10
91.29210202795822
 20
-133.8335191180173
 30
0.0
 10
91.12932126628017
 20
-133.8438544044731
 30
0.0
 10
90.8711113596607
 20
-133.8483330286039
 30
0.0
 10
90.8711113596607
 20
-133.8483330286039
 30
0.0
 10
90.8711113596607
 20
-133.9623656891657
 30
0.0
 10
90.8711113596607
 20
-133.9623656891657
 30
0.0
  0
SPLINE
  5
173
330
130
100
AcDbEntity
  8
_U+30EC_U+30A4_U+30E4_U+30FC 1
370
     0
100
AcDbSpline
210
0.0
220
0.0
230
1.0
 70
    11
 71
     3
 72
    32
 73
    28
 74
     0
 42
0.0000000001
 43
0.0000000001
 12
1.0
 22
0.0
 32
0.0
 13
1.0
 23
0.0
 33
0.0
 40
0.0
 40
0.0
 40
0.0
 40
0.0
 40
1.0
 40
1.0
 40
1.0
 40
2.0
 40
2.0
 40
2.0
 40
3.0
 40
3.0
 40
3.0
 40
4.0
 40
4.0
 40
4.0
 40
5.0
 40
5.0
 40
5.0
 40
6.0
 40
6.0
 40
6.0
 40
7.0
 40
7.0
 40
7.0
 40
8.0
 40
8.0
 40
8.0
 40
9.0
 40
9.0
 40
9.0
 40
9.0
 10
90.78653426549782
 20
-135.3080199857042
 30
0.0
 10
90.78653426549782
 20
-135.3080199857042
 30
0.0
 10
90.78653426549782
 20
-134.408850064054
 30
0.0
 10
90.78653426549782
 20
-134.408850064054
 30
0.0
 10
90.78653426549782
 20
-134.408850064054
 30
0.0
 10
92.28428952771019
 20
-134.408850064054
 30
0.0
 10
92.28428952771019
 20
-134.408850064054
 30
0.0
 10
92.28428952771019
 20
-134.408850064054
 30
0.0
 10
92.28428952771019
 20
-135.3080199857042
 30
0.0
 10
92.28428952771019
 20
-135.3080199857042
 30
0.0
 10
92.28428952771019
 20
-135.3080199857042
 30
0.0
 10
91.13982880751018
 20
-135.3080199857042
 30
0.0
 10
91.13982880751018
 20
-135.3080199857042
 30
0.0
 10
91.13982880751018
 20
-135.3080199857042
 30
0.0
 10
91.24559323890736
 20
-135.4179185316837
 30
0.0
 10
91.24559323890736
 20
-135.4179185316837
 30
0.0
 10
91.08057316516388
 20
-135.5130031670766
 30
0.0
 10
90.91555309142042
 20
-135.5743258667141
 30
0.0
 10
90.6194471344632
 20
-135.6253132798957
 30
0.0
 10
90.6194471344632
 20
-135.6253132798957
 30
0.0
 10
90.55381806546919
 20
-135.4730400594477
 30
0.0
 10
90.55381806546919
 20
-135.4730400594477
 30
0.0
 10
90.9326063140724
 20
-135.4199855889749
 30
0.0
 10
91.0552517133473
 20
-135.352461717464
 30
0.0
 10
91.13569469292788
 20
-135.3080199857042
 30
0.0
 10
91.13569469292788
 20
-135.3080199857042
 30
0.0
 10
90.78653426549782
 20
-135.3080199857042
 30
0.0
 10
90.78653426549782
 20
-135.3080199857042
 30
0.0
  0
POLYLINE
  5
174
330
130
100
AcDbEntity
  8
_U+30EC_U+30A4_U+30E4_U+30FC 1
370
     0
100
AcDb2dPolyline
 66
     1
 10
0.0
 20
0.0
 30
0.0
  0
VERTEX
  5
175
330
174
100
AcDbEntity
  8
_U+30EC_U+30A4_U+30E4_U+30FC 1
370
     0
100
AcDbVertex
100
AcDb2dVertex
 10
92.11513533938441
 20
-134.5421752593332
 30
0.0
  0
VERTEX
  5
176
330
174
100
AcDbEntity
  8
_U+30EC_U+30A4_U+30E4_U+30FC 1
370
     0
100
AcDbVertex
100
AcDb2dVertex
 10
90.95586070859784
 20
-134.5421752593332
 30
0.0
  0
VERTEX
  5
177
330
174
100
AcDbEntity
  8
_U+30EC_U+30A4_U+30E4_U+30FC 1
370
     0
100
AcDbVertex
100
AcDb2dVertex
 10
90.95586070859784
 20
-134.6710218304815
 30
0.0
  0
VERTEX
  5
178
330
174
100
AcDbEntity
  8
_U+30EC_U+30A4_U+30E4_U+30FC 1
370
     0
100
AcDbVertex
100
AcDb2dVertex
 10
92.11513533938441
 20
-134.6710218304815
 30
0.0
  0
VERTEX
  5
179
330
174
100
AcDbEntity
  8
_U+30EC_U+30A4_U+30E4_U+30FC 1
370
     0
100
AcDbVertex
100
AcDb2dVertex
 10
92.11513533938441
 20
-134.5421752593332
 30
0.0
  0
SEQEND
  5
17A
330
174
100
AcDbEntity
  8
_U+30EC_U+30A4_U+30E4_U+30FC 1
370
     0
  0
POLYLINE
  5
17B
330
130
100
AcDbEntity
  8
_U+30EC_U+30A4_U+30E4_U+30FC 1
370
     0
100
AcDb2dPolyline
 66
     1
 10
0.0
 20
0.0
 30
0.0
  0
VERTEX
  5
17C
330
17B
100
AcDbEntity
  8
_U+30EC_U+30A4_U+30E4_U+30FC 1
370
     0
100
AcDbVertex
100
AcDb2dVertex
 10
92.11513533938441
 20
-134.7812648860096
 30
0.0
  0
VERTEX
  5
17D
330
17B
100
AcDbEntity
  8
_U+30EC_U+30A4_U+30E4_U+30FC 1
370
     0
100
AcDbVertex
100
AcDb2dVertex
 10
90.95586070859784
 20
-134.7812648860096
 30
0.0
  0
VERTEX
  5
17E
330
17B
100
AcDbEntity
  8
_U+30EC_U+30A4_U+30E4_U+30FC 1
370
     0
100
AcDbVertex
100
AcDb2dVertex
 10
90.95586070859784
 20
-134.9228583104533
 30
0.0
  0
VERTEX
  5
17F
330
17B
100
AcDbEntity
  8
_U+30EC_U+30A4_U+30E4_U+30FC 1
370
     0
100
AcDbVertex
100
AcDb2dVertex
 10
92.11513533938441
 20
-134.9228583104533
 30
0.0
  0
VERTEX
  5
180
330
17B
100
AcDbEntity
  8
_U+30EC_U+30A4_U+30E4_U+30FC 1
370
     0
100
AcDbVertex
100
AcDb2dVertex
 10
92.11513533938441
 20
-134.7812648860096
 30
0.0
  0
SEQEND
  5
181
330
17B
100
AcDbEntity
  8
_U+30EC_U+30A4_U+30E4_U+30FC 1
370
     0
  0
POLYLINE
  5
182
330
130
100
AcDbEntity
  8
_U+30EC_U+30A4_U+30E4_U+30FC 1
370
     0
100
AcDb2dPolyline
 66
     1
 10
0.0
 20
0.0
 30
0.0
  0
VERTEX
  5
183
330
182
100
AcDbEntity
  8
_U+30EC_U+30A4_U+30E4_U+30FC 1
370
     0
100
AcDbVertex
100
AcDb2dVertex
 10
92.11513533938441
 20
-135.0327568564328
 30
0.0
  0
VERTEX
  5
184
330
182
100
AcDbEntity
  8
_U+30EC_U+30A4_U+30E4_U+30FC 1
370
     0
100
AcDbVertex
100
AcDb2dVertex
 10
90.95586070859784
 20
-135.0327568564328
 30
0.0
  0
VERTEX
  5
185
330
182
100
AcDbEntity
  8
_U+30EC_U+30A4_U+30E4_U+30FC 1
370
     0
100
AcDbVertex
100
AcDb2dVertex
 10
90.95586070859784
 20
-135.1726277331339
 30
0.0
  0
VERTEX
  5
186
330
182
100
AcDbEntity
  8
_U+30EC_U+30A4_U+30E4_U+30FC 1
370
     0
100
AcDbVertex
100
AcDb2dVertex
 10
92.11513533938441
 20
-135.1726277331339
 30
0.0
  0
VERTEX
  5
187
330
182
100
AcDbEntity
  8
_U+30EC_U+30A4_U+30E4_U+30FC 1
370
     0
100
AcDbVertex
100
AcDb2dVertex
 10
92.11513533938441
 20
-135.0327568564328
 30
0.0
  0
SEQEND
  5
188
330
182
100
AcDbEntity
  8
_U+30EC_U+30A4_U+30E4_U+30FC 1
370
     0
  0
SPLINE
  5
189
330
130
100
AcDbEntity
  8
_U+30EC_U+30A4_U+30E4_U+30FC 1
370
     0
100
AcDbSpline
210
0.0
220
0.0
230
1.0
 70
    11
 71
     3
 72
    50
 73
    46
 74
     0
 42
0.0000000001
 43
0.0000000001
 12
1.0
 22
0.0
 32
0.0
 13
1.0
 23
0.0
 33
0.0
 40
0.0
 40
0.0
 40
0.0
 40
0.0
 40
1.0
 40
1.0
 40
1.0
 40
2.0
 40
2.0
 40
2.0
 40
3.0
 40
3.0
 40
3.0
 40
4.0
 40
4.0
 40
4.0
 40
5.0
 40
5.0
 40
5.0
 40
6.0
 40
6.0
 40
6.0
 40
7.0
 40
7.0
 40
7.0
 40
8.0
 40
8.0
 40
8.0
 40
9.0
 40
9.0
 40
9.0
 40
10.0
 40
10.0
 40
10.0
 40
11.0
 40
11.0
 40
11.0
 40
12.0
 40
12.0
 40
12.0
 40
13.0
 40
13.0
 40
13.0
 40
14.0
 40
14.0
 40
14.0
 40
15.0
 40
15.0
 40
15.0
 40
15.0
 10
91.77872176524977
 20
-133.9623656891657
 30
0.0
 10
91.77872176524977
 20
-133.9623656891657
 30
0.0
 10
92.51493867044766
 20
-133.9623656891657
 30
0.0
 10
92.51493867044766
 20
-133.9623656891657
 30
0.0
 10
92.51493867044766
 20
-133.9623656891657
 30
0.0
 10
92.51493867044766
 20
-134.0874226552802
 30
0.0
 10
92.51493867044766
 20
-134.0874226552802
 30
0.0
 10
92.51493867044766
 20
-134.0874226552802
 30
0.0
 10
92.18489852296072
 20
-134.0874226552802
 30
0.0
 10
92.18489852296072
 20
-134.0874226552802
 30
0.0
 10
92.18489852296072
 20
-134.0874226552802
 30
0.0
 10
92.18489852296072
 20
-134.3623412750032
 30
0.0
 10
92.18489852296072
 20
-134.3623412750032
 30
0.0
 10
92.18489852296072
 20
-134.3623412750032
 30
0.0
 10
92.02831893315611
 20
-134.3623412750032
 30
0.0
 10
92.02831893315611
 20
-134.3623412750032
 30
0.0
 10
92.02831893315611
 20
-134.3623412750032
 30
0.0
 10
92.02831893315611
 20
-134.0874226552802
 30
0.0
 10
92.02831893315611
 20
-134.0874226552802
 30
0.0
 10
92.02831893315611
 20
-134.0874226552802
 30
0.0
 10
91.76390785466319
 20
-134.0874226552802
 30
0.0
 10
91.76390785466319
 20
-134.0874226552802
 30
0.0
 10
91.73858640284661
 20
-134.2162692264286
 30
0.0
 10
91.68777124443918
 20
-134.3072197472392
 30
0.0
 10
91.59044729698087
 20
-134.3899020388852
 30
0.0
 10
91.59044729698087
 20
-134.3899020388852
 30
0.0
 10
91.46780189770597
 20
-134.2820705501969
 30
0.0
 10
91.46780189770597
 20
-134.2820705501969
 30
0.0
 10
91.6031941502763
 20
-134.1718274946689
 30
0.0
 10
91.62644854480172
 20
-134.0343681848074
 30
0.0
 10
91.62644854480172
 20
-133.9602986318745
 30
0.0
 10
91.62644854480172
 20
-133.9602986318745
 30
0.0
 10
91.62644854480172
 20
-133.7170748906159
 30
0.0
 10
91.62644854480172
 20
-133.7170748906159
 30
0.0
 10
92.09601505944129
 20
-133.7170748906159
 30
0.0
 10
92.26327444525016
 20
-133.6767672734385
 30
0.0
 10
92.40710718175934
 20
-133.6343925989699
 30
0.0
 10
92.40710718175934
 20
-133.6343925989699
 30
0.0
 10
92.46636282410563
 20
-133.7721964183799
 30
0.0
 10
92.46636282410563
 20
-133.7721964183799
 30
0.0
 10
92.195578318965
 20
-133.8417873471819
 30
0.0
 10
91.88035208206463
 20
-133.8462659713127
 30
0.0
 10
91.77872176524977
 20
-133.8462659713127
 30
0.0
 10
91.77872176524977
 20
-133.8462659713127
 30
0.0
 10
91.77872176524977
 20
-133.9623656891657
 30
0.0
 10
91.77872176524977
 20
-133.9623656891657
 30
0.0
  0
SPLINE
  5
18A
330
130
100
AcDbEntity
  8
_U+30EC_U+30A4_U+30E4_U+30FC 1
370
     0
100
AcDbSpline
210
0.0
220
0.0
230
1.0
 70
    11
 71
     3
 72
    17
 73
    13
 74
     0
 42
0.0000000001
 43
0.0000000001
 12
1.0
 22
0.0
 32
0.0
 13
1.0
 23
0.0
 33
0.0
 40
0.0
 40
0.0
 40
0.0
 40
0.0
 40
1.0
 40
1.0
 40
1.0
 40
2.0
 40
2.0
 40
2.0
 40
3.0
 40
3.0
 40
3.0
 40
4.0
 40
4.0
 40
4.0
 40
4.0
 10
91.89085962329465
 20
-135.3142211575777
 30
0.0
 10
92.11082897002785
 20
-135.4265312703969
 30
0.0
 10
92.3774793605862
 20
-135.4644273207346
 30
0.0
 10
92.5064981865088
 20
-135.4751071167389
 30
0.0
 10
92.5064981865088
 20
-135.4751071167389
 30
0.0
 10
92.4367350029325
 20
-135.6294473944781
 30
0.0
 10
92.4367350029325
 20
-135.6294473944781
 30
0.0
 10
92.31615666094875
 20
-135.6146334838915
 30
0.0
 10
92.05381263974697
 20
-135.5743258667141
 30
0.0
 10
91.78940156125404
 20
-135.428598327688
 30
0.0
 10
91.78940156125404
 20
-135.428598327688
 30
0.0
 10
91.89085962329465
 20
-135.3142211575777
 30
0.0
 10
91.89085962329465
 20
-135.3142211575777
 30
0.0
  0
HATCH
  5
18B
330
130
100
AcDbEntity
  8
_U+30EC_U+30A4_U+30E4_U+30FC 1
 62
    12
420
 15007761
100
AcDbHatch
 10
0.0
 20
0.0
 30
0.0
210
0.0
220
0.0
230
1.0
  2
SOLID
 70
     1
 71
     0
 91
        7
 92
        1
 93
        1
 72
     4
 94
        3
 73
     0
 74
     1
 95
       50
 96
       46
 40
0.0
 40
0.0
 40
0.0
 40
0.0
 40
1.0
 40
1.0
 40
1.0
 40
2.0
 40
2.0
 40
2.0
 40
3.0
 40
3.0
 40
3.0
 40
4.0
 40
4.0
 40
4.0
 40
5.0
 40
5.0
 40
5.0
 40
6.0
 40
6.0
 40
6.0
 40
7.0
 40
7.0
 40
7.0
 40
8.0
 40
8.0
 40
8.0
 40
9.0
 40
9.0
 40
9.0
 40
10.0
 40
10.0
 40
10.0
 40
11.0
 40
11.0
 40
11.0
 40
12.0
 40
12.0
 40
12.0
 40
13.0
 40
13.0
 40
13.0
 40
14.0
 40
14.0
 40
14.0
 40
15.0
 40
15.0
 40
15.0
 40
15.0
 10
90.8711113596607
 20
-133.9623656891657
 10
90.8711113596607
 20
-133.9623656891657
 10
91.5227511706957
 20
-133.9623656891657
 10
91.5227511706957
 20
-133.9623656891657
 10
91.5227511706957
 20
-133.9623656891657
 10
91.5227511706957
 20
-134.0874226552802
 10
91.5227511706957
 20
-134.0874226552802
 10
91.5227511706957
 20
-134.0874226552802
 10
91.24559323890736
 20
-134.0874226552802
 10
91.24559323890736
 20
-134.0874226552802
 10
91.24559323890736
 20
-134.0874226552802
 10
91.24559323890736
 20
-134.3623412750032
 10
91.24559323890736
 20
-134.3623412750032
 10
91.24559323890736
 20
-134.3623412750032
 10
91.08487953452045
 20
-134.3623412750032
 10
91.08487953452045
 20
-134.3623412750032
 10
91.08487953452045
 20
-134.3623412750032
 10
91.08487953452045
 20
-134.0874226552802
 10
91.08487953452045
 20
-134.0874226552802
 10
91.08487953452045
 20
-134.0874226552802
 10
90.86491018778725
 20
-134.0874226552802
 10
90.86491018778725
 20
-134.0874226552802
 10
90.85423039178298
 20
-134.1570135840823
 10
90.82890893996638
 20
-134.3516614789989
 10
90.67439640745293
 20
-134.5018676421558
 10
90.67439640745293
 20
-134.5018676421558
 10
90.55175100817804
 20
-134.3919690961763
 10
90.55175100817804
 20
-134.3919690961763
 10
90.67232935016179
 20
-134.2924058366526
 10
90.71470402463035
 20
-134.0874226552802
 10
90.71470402463035
 20
-134.0047403636342
 10
90.71470402463035
 20
-134.0047403636342
 10
90.71470402463035
 20
-133.719141947907
 10
90.71470402463035
 20
-133.719141947907
 10
91.19908444985649
 20
-133.719141947907
 10
91.35359698236994
 20
-133.6726331588561
 10
91.44868161776283
 20
-133.6450723949742
 10
91.44868161776283
 20
-133.6450723949742
 10
91.50156383346142
 20
-133.7845987621268
 10
91.50156383346142
 20
-133.7845987621268
 10
91.29210202795822
 20
-133.8335191180173
 10
91.12932126628017
 20
-133.8438544044731
 10
90.8711113596607
 20
-133.8483330286039
 10
90.8711113596607
 20
-133.8483330286039
 10
90.8711113596607
 20
-133.9623656891657
 10
90.8711113596607
 20
-133.9623656891657
 97
        0
 97
        0
 92
        1
 93
        1
 72
     4
 94
        3
 73
     0
 74
     1
 95
       32
 96
       28
 40
0.0
 40
0.0
 40
0.0
 40
0.0
 40
1.0
 40
1.0
 40
1.0
 40
2.0
 40
2.0
 40
2.0
 40
3.0
 40
3.0
 40
3.0
 40
4.0
 40
4.0
 40
4.0
 40
5.0
 40
5.0
 40
5.0
 40
6.0
 40
6.0
 40
6.0
 40
7.0
 40
7.0
 40
7.0
 40
8.0
 40
8.0
 40
8.0
 40
9.0
 40
9.0
 40
9.0
 40
9.0
 10
90.78653426549782
 20
-135.3080199857042
 10
90.78653426549782
 20
-135.3080199857042
 10
90.78653426549782
 20
-134.408850064054
 10
90.78653426549782
 20
-134.408850064054
 10
90.78653426549782
 20
-134.408850064054
 10
92.28428952771019
 20
-134.408850064054
 10
92.28428952771019
 20
-134.408850064054
 10
92.28428952771019
 20
-134.408850064054
 10
92.28428952771019
 20
-135.3080199857042
 10
92.28428952771019
 20
-135.3080199857042
 10
92.28428952771019
 20
-135.3080199857042
 10
91.13982880751018
 20
-135.3080199857042
 10
91.13982880751018
 20
-135.3080199857042
 10
91.13982880751018
 20
-135.3080199857042
 10
91.24559323890736
 20
-135.4179185316837
 10
91.24559323890736
 20
-135.4179185316837
 10
91.08057316516388
 20
-135.5130031670766
 10
90.91555309142042
 20
-135.5743258667141
 10
90.6194471344632
 20
-135.6253132798957
 10
90.6194471344632
 20
-135.6253132798957
 10
90.55381806546919
 20
-135.4730400594477
 10
90.55381806546919
 20
-135.4730400594477
 10
90.9326063140724
 20
-135.4199855889749
 10
91.0552517133473
 20
-135.352461717464
 10
91.13569469292788
 20
-135.3080199857042
 10
91.13569469292788
 20
-135.3080199857042
 10
90.78653426549782
 20
-135.3080199857042
 10
90.78653426549782
 20
-135.3080199857042
 97
        0
 97
        0
 92
        1
 93
        4
 72
     1
 10
92.11513533938441
 20
-134.5421752593332
 11
90.95586070859784
 21
-134.5421752593332
 72
     1
 10
90.95586070859784
 20
-134.5421752593332
 11
90.95586070859784
 21
-134.6710218304815
 72
     1
 10
90.95586070859784
 20
-134.6710218304815
 11
92.11513533938441
 21
-134.6710218304815
 72
     1
 10
92.11513533938441
 20
-134.6710218304815
 11
92.11513533938441
 21
-134.5421752593332
 97
        0
 92
        1
 93
        4
 72
     1
 10
92.11513533938441
 20
-134.7812648860096
 11
90.95586070859784
 21
-134.7812648860096
 72
     1
 10
90.95586070859784
 20
-134.7812648860096
 11
90.95586070859784
 21
-134.9228583104533
 72
     1
 10
90.95586070859784
 20
-134.9228583104533
 11
92.11513533938441
 21
-134.9228583104533
 72
     1
 10
92.11513533938441
 20
-134.9228583104533
 11
92.11513533938441
 21
-134.7812648860096
 97
        0
 92
        1
 93
        4
 72
     1
 10
92.11513533938441
 20
-135.0327568564328
 11
90.95586070859784
 21
-135.0327568564328
 72
     1
 10
90.95586070859784
 20
-135.0327568564328
 11
90.95586070859784
 21
-135.1726277331339
 72
     1
 10
90.95586070859784
 20
-135.1726277331339
 11
92.11513533938441
 21
-135.1726277331339
 72
     1
 10
92.11513533938441
 20
-135.1726277331339
 11
92.11513533938441
 21
-135.0327568564328
 97
        0
 92
        1
 93
        1
 72
     4
 94
        3
 73
     0
 74
     1
 95
       50
 96
       46
 40
0.0
 40
0.0
 40
0.0
 40
0.0
 40
1.0
 40
1.0
 40
1.0
 40
2.0
 40
2.0
 40
2.0
 40
3.0
 40
3.0
 40
3.0
 40
4.0
 40
4.0
 40
4.0
 40
5.0
 40
5.0
 40
5.0
 40
6.0
 40
6.0
 40
6.0
 40
7.0
 40
7.0
 40
7.0
 40
8.0
 40
8.0
 40
8.0
 40
9.0
 40
9.0
 40
9.0
 40
10.0
 40
10.0
 40
10.0
 40
11.0
 40
11.0
 40
11.0
 40
12.0
 40
12.0
 40
12.0
 40
13.0
 40
13.0
 40
13.0
 40
14.0
 40
14.0
 40
14.0
 40
15.0
 40
15.0
 40
15.0
 40
15.0
 10
91.77872176524977
 20
-133.9623656891657
 10
91.77872176524977
 20
-133.9623656891657
 10
92.51493867044766
 20
-133.9623656891657
 10
92.51493867044766
 20
-133.9623656891657
 10
92.51493867044766
 20
-133.9623656891657
 10
92.51493867044766
 20
-134.0874226552802
 10
92.51493867044766
 20
-134.0874226552802
 10
92.51493867044766
 20
-134.0874226552802
 10
92.18489852296072
 20
-134.0874226552802
 10
92.18489852296072
 20
-134.0874226552802
 10
92.18489852296072
 20
-134.0874226552802
 10
92.18489852296072
 20
-134.3623412750032
 10
92.18489852296072
 20
-134.3623412750032
 10
92.18489852296072
 20
-134.3623412750032
 10
92.02831893315611
 20
-134.3623412750032
 10
92.02831893315611
 20
-134.3623412750032
 10
92.02831893315611
 20
-134.3623412750032
 10
92.02831893315611
 20
-134.0874226552802
 10
92.02831893315611
 20
-134.0874226552802
 10
92.02831893315611
 20
-134.0874226552802
 10
91.76390785466319
 20
-134.0874226552802
 10
91.76390785466319
 20
-134.0874226552802
 10
91.73858640284661
 20
-134.2162692264286
 10
91.68777124443918
 20
-134.3072197472392
 10
91.59044729698087
 20
-134.3899020388852
 10
91.59044729698087
 20
-134.3899020388852
 10
91.46780189770597
 20
-134.2820705501969
 10
91.46780189770597
 20
-134.2820705501969
 10
91.6031941502763
 20
-134.1718274946689
 10
91.62644854480172
 20
-134.0343681848074
 10
91.62644854480172
 20
-133.9602986318745
 10
91.62644854480172
 20
-133.9602986318745
 10
91.62644854480172
 20
-133.7170748906159
 10
91.62644854480172
 20
-133.7170748906159
 10
92.09601505944129
 20
-133.7170748906159
 10
92.26327444525016
 20
-133.6767672734385
 10
92.40710718175934
 20
-133.6343925989699
 10
92.40710718175934
 20
-133.6343925989699
 10
92.46636282410563
 20
-133.7721964183799
 10
92.46636282410563
 20
-133.7721964183799
 10
92.195578318965
 20
-133.8417873471819
 10
91.88035208206463
 20
-133.8462659713127
 10
91.77872176524977
 20
-133.8462659713127
 10
91.77872176524977
 20
-133.8462659713127
 10
91.77872176524977
 20
-133.9623656891657
 10
91.77872176524977
 20
-133.9623656891657
 97
        0
 97
        0
 92
        1
 93
        1
 72
     4
 94
        3
 73
     0
 74
     1
 95
       17
 96
       13
 40
0.0
 40
0.0
 40
0.0
 40
0.0
 40
1.0
 40
1.0
 40
1.0
 40
2.0
 40
2.0
 40
2.0
 40
3.0
 40
3.0
 40
3.0
 40
4.0
 40
4.0
 40
4.0
 40
4.0
 10
91.89085962329465
 20
-135.3142211575777
 10
92.11082897002785
 20
-135.4265312703969
 10
92.3774793605862
 20
-135.4644273207346
 10
92.5064981865088
 20
-135.4751071167389
 10
92.5064981865088
 20
-135.4751071167389
 10
92.4367350029325
 20
-135.6294473944781
 10
92.4367350029325
 20
-135.6294473944781
 10
92.31615666094875
 20
-135.6146334838915
 10
92.05381263974697
 20
-135.5743258667141
 10
91.78940156125404
 20
-135.428598327688
 10
91.78940156125404
 20
-135.428598327688
 10
91.89085962329465
 20
-135.3142211575777
 10
91.89085962329465
 20
-135.3142211575777
 97
        0
 97
        0
 75
     2
 76
     1
 98
        0
  0
ENDBLK
  5
133
330
130
100
AcDbEntity
  8
0
100
AcDbBlockEnd
  0
ENDSEC
  0
SECTION
  2
ENTITIES
  0
SPLINE
  5
41
330
1F
100
AcDbEntity
  8
_U+30EC_U+30A4_U+30E4_U+30FC 1
 62
   179
420
  2234388
370
     9
100
AcDbSpline
210
0.0
220
0.0
230
1.0
 70
    11
 71
     3
 72
    17
 73
    13
 74
     0
 42
0.0000000001
 43
0.0000000001
 12
1.0
 22
0.0
 32
0.0
 13
1.0
 23
0.0
 33
0.0
 40
0.0
 40
0.0
 40
0.0
 40
0.0
 40
1.0
 40
1.0
 40
1.0
 40
2.0
 40
2.0
 40
2.0
 40
3.0
 40
3.0
 40
3.0
 40
4.0
 40
4.0
 40
4.0
 40
4.0
 10
94.40781408704801
 20
-164.6194844999964
 30
0.0
 10
94.40781408704801
 20
-164.6745199003733
 30
0.0
 10
94.45261647724135
 20
-164.7193276735283
 30
0.0
 10
94.50764918613736
 20
-164.7193276735283
 30
0.0
 10
94.56268189503338
 20
-164.7193276735283
 30
0.0
 10
94.60748428522672
 20
-164.6745199003733
 30
0.0
 10
94.60748428522672
 20
-164.6194844999964
 30
0.0
 10
94.60748428522672
 20
-164.5644598655429
 30
0.0
 10
94.56268189503338
 20
-164.5196520923879
 30
0.0
 10
94.50764918613736
 20
-164.5196520923879
 30
0.0
 10
94.45261647724135
 20
-164.5196520923879
 30
0.0
 10
94.40781408704801
 20
-164.5644598655429
 30
0.0
 10
94.40781408704801
 20
-164.6194844999964
 30
0.0
  0
SPLINE
  5
42
330
1F
100
AcDbEntity
  8
_U+30EC_U+30A4_U+30E4_U+30FC 1
 62
   179
420
  2234388
370
     9
100
AcDbSpline
210
0.0
220
0.0
230
1.0
 70
    11
 71
     3
 72
    17
 73
    13
 74
     0
 42
0.0000000001
 43
0.0000000001
 12
1.0
 22
0.0
 32
0.0
 13
1.0
 23
0.0
 33
0.0
 40
0.0
 40
0.0
 40
0.0
 40
0.0
 40
1.0
 40
1.0
 40
1.0
 40
2.0
 40
2.0
 40
2.0
 40
3.0
 40
3.0
 40
3.0
 40
4.0
 40
4.0
 40
4.0
 40
4.0
 10
91.40779264072228
 20
-164.6194844999964
 30
0.0
 10
91.40779264072228
 20
-164.6745199003733
 30
0.0
 10
91.4525950309156
 20
-164.7193276735283
 30
0.0
 10
91.50762773981162
 20
-164.7193276735283
 30
0.0
 10
91.56336561668978
 20
-164.7193276735283
 30
0.0
 10
91.60816800688312
 20
-164.6745199003733
 30
0.0
 10
91.60816800688312
 20
-164.6194844999964
 30
0.0
 10
91.60816800688312
 20
-164.5644598655429
 30
0.0
 10
91.56336561668978
 20
-164.5196520923879
 30
0.0
 10
91.50762773981162
 20
-164.5196520923879
 30
0.0
 10
91.4525950309156
 20
-164.5196520923879
 30
0.0
 10
91.40779264072228
 20
-164.5644598655429
 30
0.0
 10
91.40779264072228
 20
-164.6194844999964
 30
0.0
  0
POLYLINE
  5
43
330
1F
100
AcDbEntity
  8
_U+30EC_U+30A4_U+30E4_U+30FC 1
 62
   179
420
  2234388
370
     9
100
AcDb2dPolyline
 66
     1
 10
0.0
 20
0.0
 30
0.0
  0
VERTEX
  5
44
330
43
100
AcDbEntity
  8
_U+30EC_U+30A4_U+30E4_U+30FC 1
 62
   179
420
  2234388
370
     9
100
AcDbVertex
100
AcDb2dVertex
 10
91.5077327075647
 20
-146.9637361794863
 30
0.0
  0
VERTEX
  5
45
330
43
100
AcDbEntity
  8
_U+30EC_U+30A4_U+30E4_U+30FC 1
 62
   179
420
  2234388
370
     9
100
AcDbVertex
100
AcDb2dVertex
 10
91.5077327075647
 20
-165.619692612675
 30
0.0
  0
SEQEND
  5
46
330
43
100
AcDbEntity
  8
_U+30EC_U+30A4_U+30E4_U+30FC 1
 62
   179
420
  2234388
370
     9
  0
POLYLINE
  5
47
330
1F
100
AcDbEntity
  8
_U+30EC_U+30A4_U+30E4_U+30FC 1
 62
   179
420
  2234388
370
     9
100
AcDb2dPolyline
 66
     1
 10
0.0
 20
0.0
 30
0.0
  0
VERTEX
  5
48
330
47
100
AcDbEntity
  8
_U+30EC_U+30A4_U+30E4_U+30FC 1
 62
   179
420
  2234388
370
     9
100
AcDbVertex
100
AcDb2dVertex
 10
91.5077327075647
 20
-164.6194844999964
 30
0.0
  0
VERTEX
  5
49
330
47
100
AcDbEntity
  8
_U+30EC_U+30A4_U+30E4_U+30FC 1
 62
   179
420
  2234388
370
     9
100
AcDbVertex
100
AcDb2dVertex
 10
94.50775415389043
 20
-164.6194844999964
 30
0.0
  0
SEQEND
  5
4A
330
47
100
AcDbEntity
  8
_U+30EC_U+30A4_U+30E4_U+30FC 1
 62
   179
420
  2234388
370
     9
  0
POLYLINE
  5
4B
330
1F
100
AcDbEntity
  8
_U+30EC_U+30A4_U+30E4_U+30FC 1
 62
   179
420
  2234388
370
     9
100
AcDb2dPolyline
 66
     1
 10
0.0
 20
0.0
 30
0.0
  0
VERTEX
  5
4C
330
4B
100
AcDbEntity
  8
_U+30EC_U+30A4_U+30E4_U+30FC 1
 62
   179
420
  2234388
370
     9
100
AcDbVertex
100
AcDb2dVertex
 10
94.50771916463941
 20
-146.9637361794863
 30
0.0
  0
VERTEX
  5
4D
330
4B
100
AcDbEntity
  8
_U+30EC_U+30A4_U+30E4_U+30FC 1
 62
   179
420
  2234388
370
     9
100
AcDbVertex
100
AcDb2dVertex
 10
94.50771916463941
 20
-165.619692612675
 30
0.0
  0
SEQEND
  5
4E
330
4B
100
AcDbEntity
  8
_U+30EC_U+30A4_U+30E4_U+30FC 1
 62
   179
420
  2234388
370
     9
  0
INSERT
  5
50
330
1F
100
AcDbEntity
  8
_U+30EC_U+30A4_U+30E4_U+30FC 1
100
AcDbBlockReference
  2
block 2
 10
0.0
 20
0.0
 30
0.0
  0
POLYLINE
  5
55
330
1F
100
AcDbEntity
  8
_U+30EC_U+30A4_U+30E4_U+30FC 1
 62
   179
420
  2234388
370
    25
100
AcDb2dPolyline
 66
     1
 10
0.0
 20
0.0
 30
0.0
  0
VERTEX
  5
56
330
55
100
AcDbEntity
  8
_U+30EC_U+30A4_U+30E4_U+30FC 1
 62
   179
420
  2234388
370
    25
100
AcDbVertex
100
AcDb2dVertex
 10
91.70546503953295
 20
-139.5695169735712
 30
0.0
  0
VERTEX
  5
57
330
55
100
AcDbEntity
  8
_U+30EC_U+30A4_U+30E4_U+30FC 1
 62
   179
420
  2234388
370
    25
100
AcDbVertex
100
AcDb2dVertex
 10
91.49273846776131
 20
-140.0531760819301
 30
0.0
  0
VERTEX
  5
58
330
55
100
AcDbEntity
  8
_U+30EC_U+30A4_U+30E4_U+30FC 1
 62
   179
420
  2234388
370
    25
100
AcDbVertex
100
AcDb2dVertex
 10
91.68006284329125
 20
-140.5477733684546
 30
0.0
  0
VERTEX
  5
59
330
55
100
AcDbEntity
  8
_U+30EC_U+30A4_U+30E4_U+30FC 1
 62
   179
420
  2234388
370
    25
100
AcDbVertex
100
AcDb2dVertex
 10
91.4676915469912
 20
-141.0321430277574
 30
0.0
  0
VERTEX
  5
5A
330
55
100
AcDbEntity
  8
_U+30EC_U+30A4_U+30E4_U+30FC 1
 62
   179
420
  2234388
370
    25
100
AcDbVertex
100
AcDb2dVertex
 10
91.65466333852976
 20
-141.5277953747743
 30
0.0
  0
VERTEX
  5
5B
330
55
100
AcDbEntity
  8
_U+30EC_U+30A4_U+30E4_U+30FC 1
 62
   179
420
  2234388
370
    25
100
AcDbVertex
100
AcDb2dVertex
 10
91.44193945823896
 20
-142.0121542681537
 30
0.0
  0
VERTEX
  5
5C
330
55
100
AcDbEntity
  8
_U+30EC_U+30A4_U+30E4_U+30FC 1
 62
   179
420
  2234388
370
    25
100
AcDbVertex
100
AcDb2dVertex
 10
91.62926383376858
 20
-142.5067515546782
 30
0.0
  0
VERTEX
  5
5D
330
55
100
AcDbEntity
  8
_U+30EC_U+30A4_U+30E4_U+30FC 1
 62
   179
420
  2234388
370
    25
100
AcDbVertex
100
AcDb2dVertex
 10
91.4165399534778
 20
-142.990765938509
 30
0.0
  0
VERTEX
  5
5E
330
55
100
AcDbEntity
  8
_U+30EC_U+30A4_U+30E4_U+30FC 1
 62
   179
420
  2234388
370
    25
100
AcDbVertex
100
AcDb2dVertex
 10
91.60386432900741
 20
-143.4853524591102
 30
0.0
  0
VERTEX
  5
5F
330
55
100
AcDbEntity
  8
_U+30EC_U+30A4_U+30E4_U+30FC 1
 62
   179
420
  2234388
370
    25
100
AcDbVertex
100
AcDb2dVertex
 10
91.39113775723577
 20
-143.9686562919972
 30
0.0
  0
VERTEX
  5
60
330
55
100
AcDbEntity
  8
_U+30EC_U+30A4_U+30E4_U+30FC 1
 62
   179
420
  2234388
370
    25
100
AcDbVertex
100
AcDb2dVertex
 10
91.57846482424623
 20
-144.4625537935013
 30
0.0
  0
VERTEX
  5
61
330
55
100
AcDbEntity
  8
_U+30EC_U+30A4_U+30E4_U+30FC 1
 62
   179
420
  2234388
370
    25
100
AcDbVertex
100
AcDb2dVertex
 10
91.3657382524746
 20
-144.9472679623529
 30
0.0
  0
VERTEX
  5
62
330
55
100
AcDbEntity
  8
_U+30EC_U+30A4_U+30E4_U+30FC 1
 62
   179
420
  2234388
370
    25
100
AcDbVertex
100
AcDb2dVertex
 10
91.55306262800421
 20
-145.4418652488772
 30
0.0
  0
VERTEX
  5
63
330
55
100
AcDbEntity
  8
_U+30EC_U+30A4_U+30E4_U+30FC 1
 62
   179
420
  2234388
370
    25
100
AcDbVertex
100
AcDb2dVertex
 10
91.34033874771342
 20
-145.9262241422565
 30
0.0
  0
VERTEX
  5
64
330
55
100
AcDbEntity
  8
_U+30EC_U+30A4_U+30E4_U+30FC 1
 62
   179
420
  2234388
370
    25
100
AcDbVertex
100
AcDb2dVertex
 10
91.52766312324303
 20
-146.4204661533092
 30
0.0
  0
VERTEX
  5
65
330
55
100
AcDbEntity
  8
_U+30EC_U+30A4_U+30E4_U+30FC 1
 62
   179
420
  2234388
370
    25
100
AcDbVertex
100
AcDb2dVertex
 10
91.31493924295225
 20
-146.9048250466885
 30
0.0
  0
VERTEX
  5
66
330
55
100
AcDbEntity
  8
_U+30EC_U+30A4_U+30E4_U+30FC 1
 62
   179
420
  2234388
370
    25
100
AcDbVertex
100
AcDb2dVertex
 10
91.50191103449079
 20
-147.3994223332131
 30
0.0
  0
VERTEX
  5
67
330
55
100
AcDbEntity
  8
_U+30EC_U+30A4_U+30E4_U+30FC 1
 62
   179
420
  2234388
370
    25
100
AcDbVertex
100
AcDb2dVertex
 10
91.28953973819108
 20
-147.8834367170442
 30
0.0
  0
VERTEX
  5
68
330
55
100
AcDbEntity
  8
_U+30EC_U+30A4_U+30E4_U+30FC 1
 62
   179
420
  2234388
370
    25
100
AcDbVertex
100
AcDb2dVertex
 10
91.47686411372068
 20
-148.3790890640608
 30
0.0
  0
VERTEX
  5
69
330
55
100
AcDbEntity
  8
_U+30EC_U+30A4_U+30E4_U+30FC 1
 62
   179
420
  2234388
370
    25
100
AcDbVertex
100
AcDb2dVertex
 10
91.26413754194905
 20
-148.8623928969478
 30
0.0
  0
VERTEX
  5
6A
330
55
100
AcDbEntity
  8
_U+30EC_U+30A4_U+30E4_U+30FC 1
 62
   179
420
  2234388
370
    25
100
AcDbVertex
100
AcDb2dVertex
 10
91.45111202496844
 20
-149.3569901834724
 30
0.0
  0
VERTEX
  5
6B
330
55
100
AcDbEntity
  8
_U+30EC_U+30A4_U+30E4_U+30FC 1
 62
   179
420
  2234388
370
    25
100
AcDbVertex
100
AcDb2dVertex
 10
91.23873803718787
 20
-149.8413490768517
 30
0.0
  0
VERTEX
  5
6C
330
55
100
AcDbEntity
  8
_U+30EC_U+30A4_U+30E4_U+30FC 1
 62
   179
420
  2234388
370
    25
100
AcDbVertex
100
AcDb2dVertex
 10
91.42606241271749
 20
-150.3363016388482
 30
0.0
  0
VERTEX
  5
6D
330
55
100
AcDbEntity
  8
_U+30EC_U+30A4_U+30E4_U+30FC 1
 62
   179
420
  2234388
370
    25
100
AcDbVertex
100
AcDb2dVertex
 10
91.21333853242703
 20
-150.8206605322276
 30
0.0
  0
VERTEX
  5
6E
330
55
100
AcDbEntity
  8
_U+30EC_U+30A4_U+30E4_U+30FC 1
 62
   179
420
  2234388
370
    25
100
AcDbVertex
100
AcDb2dVertex
 10
91.40031032396524
 20
-151.3163128792445
 30
0.0
  0
VERTEX
  5
6F
330
55
100
AcDbEntity
  8
_U+30EC_U+30A4_U+30E4_U+30FC 1
 62
   179
420
  2234388
370
    25
100
AcDbVertex
100
AcDb2dVertex
 10
91.18793902766554
 20
-151.8006825385472
 30
0.0
  0
VERTEX
  5
70
330
55
100
AcDbEntity
  8
_U+30EC_U+30A4_U+30E4_U+30FC 1
 62
   179
420
  2234388
370
    25
100
AcDbVertex
100
AcDb2dVertex
 10
91.37491081920408
 20
-152.2949245495999
 30
0.0
  0
VERTEX
  5
71
330
55
100
AcDbEntity
  8
_U+30EC_U+30A4_U+30E4_U+30FC 1
 62
   179
420
  2234388
370
    25
100
AcDbVertex
100
AcDb2dVertex
 10
91.1621869389133
 20
-152.7792834429792
 30
0.0
  0
VERTEX
  5
72
330
55
100
AcDbEntity
  8
_U+30EC_U+30A4_U+30E4_U+30FC 1
 62
   179
420
  2234388
370
    25
100
AcDbVertex
100
AcDb2dVertex
 10
91.34951131444289
 20
-153.2749357899962
 30
0.0
  0
VERTEX
  5
73
330
55
100
AcDbEntity
  8
_U+30EC_U+30A4_U+30E4_U+30FC 1
 62
   179
420
  2234388
370
    25
100
AcDbVertex
100
AcDb2dVertex
 10
91.13714001814319
 20
-153.7607157852632
 30
0.0
  0
VERTEX
  5
74
330
55
100
AcDbEntity
  8
_U+30EC_U+30A4_U+30E4_U+30FC 1
 62
   179
420
  2234388
370
    25
100
AcDbVertex
100
AcDb2dVertex
 10
91.32411180968172
 20
-154.256723407752
 30
0.0
  0
VERTEX
  5
75
330
55
100
AcDbEntity
  8
_U+30EC_U+30A4_U+30E4_U+30FC 1
 62
   179
420
  2234388
370
    25
100
AcDbVertex
100
AcDb2dVertex
 10
91.11138523791008
 20
-154.7432031880395
 30
0.0
  0
VERTEX
  5
76
330
55
100
AcDbEntity
  8
_U+30EC_U+30A4_U+30E4_U+30FC 1
 62
   179
420
  2234388
370
    25
100
AcDbVertex
100
AcDb2dVertex
 10
91.29835702944864
 20
-155.2402658710207
 30
0.0
  0
VERTEX
  5
77
330
55
100
AcDbEntity
  8
_U+30EC_U+30A4_U+30E4_U+30FC 1
 62
   179
420
  2234388
370
    25
100
AcDbVertex
100
AcDb2dVertex
 10
91.08598573314892
 20
-155.72710092678
 30
0.0
  0
VERTEX
  5
78
330
55
100
AcDbEntity
  8
_U+30EC_U+30A4_U+30E4_U+30FC 1
 62
   179
420
  2234388
370
    25
100
AcDbVertex
100
AcDb2dVertex
 10
91.27295752468746
 20
-156.2248633947817
 30
0.0
  0
VERTEX
  5
79
330
55
100
AcDbEntity
  8
_U+30EC_U+30A4_U+30E4_U+30FC 1
 62
   179
420
  2234388
370
    25
100
AcDbVertex
100
AcDb2dVertex
 10
91.06023364439667
 20
-156.712053726013
 30
0.0
  0
VERTEX
  5
7A
330
55
100
AcDbEntity
  8
_U+30EC_U+30A4_U+30E4_U+30FC 1
 62
   179
420
  2234388
370
    25
100
AcDbVertex
100
AcDb2dVertex
 10
91.24720543593521
 20
-157.2091164089942
 30
0.0
  0
VERTEX
  5
7B
330
55
100
AcDbEntity
  8
_U+30EC_U+30A4_U+30E4_U+30FC 1
 62
   179
420
  2234388
370
    25
100
AcDbVertex
100
AcDb2dVertex
 10
91.0348341396355
 20
-157.6963067402255
 30
0.0
  0
VERTEX
  5
7C
330
55
100
AcDbEntity
  8
_U+30EC_U+30A4_U+30E4_U+30FC 1
 62
   179
420
  2234388
370
    25
100
AcDbVertex
100
AcDb2dVertex
 10
91.22180593117405
 20
-158.1937139327552
 30
0.0
  0
VERTEX
  5
7D
330
55
100
AcDbEntity
  8
_U+30EC_U+30A4_U+30E4_U+30FC 1
 62
   179
420
  2234388
370
    25
100
AcDbVertex
100
AcDb2dVertex
 10
91.0090793594024
 20
-158.680204478966
 30
0.0
  0
VERTEX
  5
7E
330
55
100
AcDbEntity
  8
_U+30EC_U+30A4_U+30E4_U+30FC 1
 62
   179
420
  2234388
370
    25
100
AcDbVertex
100
AcDb2dVertex
 10
91.19640642641288
 20
-159.1762013355315
 30
0.0
  0
VERTEX
  5
7F
330
55
100
AcDbEntity
  8
_U+30EC_U+30A4_U+30E4_U+30FC 1
 62
   179
420
  2234388
370
    25
100
AcDbVertex
100
AcDb2dVertex
 10
90.98367985464124
 20
-159.6619813307985
 30
0.0
  0
VERTEX
  5
80
330
55
100
AcDbEntity
  8
_U+30EC_U+30A4_U+30E4_U+30FC 1
 62
   179
420
  2234388
370
    25
100
AcDbVertex
100
AcDb2dVertex
 10
91.17065164617978
 20
-160.1572784023435
 30
0.0
  0
VERTEX
  5
81
330
55
100
AcDbEntity
  8
_U+30EC_U+30A4_U+30E4_U+30FC 1
 62
   179
420
  2234388
370
    25
100
AcDbVertex
100
AcDb2dVertex
 10
90.95828034988007
 20
-160.6416480616462
 30
0.0
  0
VERTEX
  5
82
330
55
100
AcDbEntity
  8
_U+30EC_U+30A4_U+30E4_U+30FC 1
 62
   179
420
  2234388
370
    25
100
AcDbVertex
100
AcDb2dVertex
 10
91.14525214141861
 20
-161.1369451331913
 30
0.0
  0
VERTEX
  5
83
330
55
100
AcDbEntity
  8
_U+30EC_U+30A4_U+30E4_U+30FC 1
 62
   179
420
  2234388
370
    25
100
AcDbVertex
100
AcDb2dVertex
 10
90.93288084511889
 20
-161.6234249134787
 30
0.0
  0
VERTEX
  5
84
330
55
100
AcDbEntity
  8
_U+30EC_U+30A4_U+30E4_U+30FC 1
 62
   179
420
  2234388
370
    25
100
AcDbVertex
100
AcDb2dVertex
 10
91.11985263665743
 20
-162.1190772604956
 30
0.0
  0
VERTEX
  5
85
330
55
100
AcDbEntity
  8
_U+30EC_U+30A4_U+30E4_U+30FC 1
 62
   179
420
  2234388
370
    25
100
AcDbVertex
100
AcDb2dVertex
 10
90.90712875636665
 20
-162.6030916443264
 30
0.0
  0
VERTEX
  5
86
330
55
100
AcDbEntity
  8
_U+30EC_U+30A4_U+30E4_U+30FC 1
 62
   179
420
  2234388
370
    25
100
AcDbVertex
100
AcDb2dVertex
 10
91.09445313189626
 20
-163.0976781649276
 30
0.0
  0
VERTEX
  5
87
330
55
100
AcDbEntity
  8
_U+30EC_U+30A4_U+30E4_U+30FC 1
 62
   179
420
  2234388
370
    25
100
AcDbVertex
100
AcDb2dVertex
 10
90.88207914411569
 20
-163.5806374882661
 30
0.0
  0
VERTEX
  5
88
330
55
100
AcDbEntity
  8
_U+30EC_U+30A4_U+30E4_U+30FC 1
 62
   179
420
  2234388
370
    25
100
AcDbVertex
100
AcDb2dVertex
 10
91.06905362713509
 20
-164.073813672903
 30
0.0
  0
VERTEX
  5
89
330
55
100
AcDbEntity
  8
_U+30EC_U+30A4_U+30E4_U+30FC 1
 62
   179
420
  2234388
370
    25
100
AcDbVertex
100
AcDb2dVertex
 10
90.85667963935452
 20
-164.5553626602772
 30
0.0
  0
SEQEND
  5
8A
330
55
100
AcDbEntity
  8
_U+30EC_U+30A4_U+30E4_U+30FC 1
 62
   179
420
  2234388
370
    25
  0
POLYLINE
  5
8B
330
1F
100
AcDbEntity
  8
_U+30EC_U+30A4_U+30E4_U+30FC 1
 62
   179
420
  2234388
370
    25
100
AcDb2dPolyline
 66
     1
 10
0.0
 20
0.0
 30
0.0
  0
VERTEX
  5
8C
330
8B
100
AcDbEntity
  8
_U+30EC_U+30A4_U+30E4_U+30FC 1
 62
   179
420
  2234388
370
    25
100
AcDbVertex
100
AcDb2dVertex
 10
90.95651742992472
 20
-164.5581725662823
 30
0.0
  0
VERTEX
  5
8D
330
8B
100
AcDbEntity
  8
_U+30EC_U+30A4_U+30E4_U+30FC 1
 62
   179
420
  2234388
370
    25
100
AcDbVertex
100
AcDb2dVertex
 10
90.5561138986324
 20
-164.5475896635886
 30
0.0
  0
SEQEND
  5
8E
330
8B
100
AcDbEntity
  8
_U+30EC_U+30A4_U+30E4_U+30FC 1
 62
   179
420
  2234388
370
    25
  0
POLYLINE
  5
8F
330
1F
100
AcDbEntity
  8
_U+30EC_U+30A4_U+30E4_U+30FC 1
 62
   179
420
  2234388
370
    25
100
AcDb2dPolyline
 66
     1
 10
0.0
 20
0.0
 30
0.0
  0
VERTEX
  5
90
330
8F
100
AcDbEntity
  8
_U+30EC_U+30A4_U+30E4_U+30FC 1
 62
   179
420
  2234388
370
    25
100
AcDbVertex
100
AcDb2dVertex
 10
90.55618656861562
 20
-164.5475250680482
 30
0.0
  0
VERTEX
  5
91
330
8F
100
AcDbEntity
  8
_U+30EC_U+30A4_U+30E4_U+30FC 1
 62
   179
420
  2234388
370
    25
100
AcDbVertex
100
AcDb2dVertex
 10
90.61086669352025
 20
-138.5474540364081
 30
0.0
  0
SEQEND
  5
92
330
8F
100
AcDbEntity
  8
_U+30EC_U+30A4_U+30E4_U+30FC 1
 62
   179
420
  2234388
370
    25
  0
POLYLINE
  5
93
330
1F
100
AcDbEntity
  8
_U+30EC_U+30A4_U+30E4_U+30FC 1
 62
   179
420
  2234388
370
    25
100
AcDb2dPolyline
 66
     1
 10
0.0
 20
0.0
 30
0.0
  0
VERTEX
  5
94
330
93
100
AcDbEntity
  8
_U+30EC_U+30A4_U+30E4_U+30FC 1
 62
   179
420
  2234388
370
    25
100
AcDbVertex
100
AcDb2dVertex
 10
94.6279126248619
 20
-145.7066100709952
 30
0.0
  0
VERTEX
  5
95
330
93
100
AcDbEntity
  8
_U+30EC_U+30A4_U+30E4_U+30FC 1
 62
   179
420
  2234388
370
    25
100
AcDbVertex
100
AcDb2dVertex
 10
95.16095771529804
 20
-145.8935926284572
 30
0.0
  0
VERTEX
  5
96
330
93
100
AcDbEntity
  8
_U+30EC_U+30A4_U+30E4_U+30FC 1
 62
   179
420
  2234388
370
    25
100
AcDbVertex
100
AcDb2dVertex
 10
95.68483293048554
 20
-145.6812132577149
 30
0.0
  0
VERTEX
  5
97
330
93
100
AcDbEntity
  8
_U+30EC_U+30A4_U+30E4_U+30FC 1
 62
   179
420
  2234388
370
    25
100
AcDbVertex
100
AcDb2dVertex
 10
96.21823329639358
 20
-145.8681850492534
 30
0.0
  0
VERTEX
  5
98
330
93
100
AcDbEntity
  8
_U+30EC_U+30A4_U+30E4_U+30FC 1
 62
   179
420
  2234388
370
    25
100
AcDbVertex
100
AcDb2dVertex
 10
96.74281367956321
 20
-145.6554611689627
 30
0.0
  0
VERTEX
  5
99
330
93
100
AcDbEntity
  8
_U+30EC_U+30A4_U+30E4_U+30FC 1
 62
   179
420
  2234388
370
    25
100
AcDbVertex
100
AcDb2dVertex
 10
97.27656662946232
 20
-145.8427882359731
 30
0.0
  0
VERTEX
  5
9A
330
93
100
AcDbEntity
  8
_U+30EC_U+30A4_U+30E4_U+30FC 1
 62
   179
420
  2234388
370
    25
100
AcDbVertex
100
AcDb2dVertex
 10
97.80044184464982
 20
-145.6300643556823
 30
0.0
  0
VERTEX
  5
9B
330
93
100
AcDbEntity
  8
_U+30EC_U+30A4_U+30E4_U+30FC 1
 62
   179
420
  2234388
370
    25
100
AcDbVertex
100
AcDb2dVertex
 10
98.33348962656713
 20
-145.8173914226928
 30
0.0
  0
VERTEX
  5
9C
330
93
100
AcDbEntity
  8
_U+30EC_U+30A4_U+30E4_U+30FC 1
 62
   179
420
  2234388
370
    25
100
AcDbVertex
100
AcDb2dVertex
 10
98.8573648417543
 20
-145.6050120519505
 30
0.0
  0
VERTEX
  5
9D
330
93
100
AcDbEntity
  8
_U+30EC_U+30A4_U+30E4_U+30FC 1
 62
   179
420
  2234388
370
    25
100
AcDbVertex
100
AcDb2dVertex
 10
99.3907625161815
 20
-145.7919838434891
 30
0.0
  0
VERTEX
  5
9E
330
93
100
AcDbEntity
  8
_U+30EC_U+30A4_U+30E4_U+30FC 1
 62
   179
420
  2234388
370
    25
100
AcDbVertex
100
AcDb2dVertex
 10
99.914637731369
 20
-145.5796152386705
 30
0.0
  0
VERTEX
  5
9F
330
93
100
AcDbEntity
  8
_U+30EC_U+30A4_U+30E4_U+30FC 1
 62
   179
420
  2234388
370
    25
100
AcDbVertex
100
AcDb2dVertex
 10
100.44874595674
 20
-145.7665870302087
 30
0.0
  0
VERTEX
  5
A0
330
93
100
AcDbEntity
  8
_U+30EC_U+30A4_U+30E4_U+30FC 1
 62
   179
420
  2234388
370
    25
100
AcDbVertex
100
AcDb2dVertex
 10
100.9729710644378
 20
-145.5538631499183
 30
0.0
  0
VERTEX
  5
A1
330
93
100
AcDbEntity
  8
_U+30EC_U+30A4_U+30E4_U+30FC 1
 62
   179
420
  2234388
370
    25
100
AcDbVertex
100
AcDb2dVertex
 10
101.5067240143369
 20
-145.7411902169287
 30
0.0
  0
VERTEX
  5
A2
330
93
100
AcDbEntity
  8
_U+30EC_U+30A4_U+30E4_U+30FC 1
 62
   179
420
  2234388
370
    25
100
AcDbVertex
100
AcDb2dVertex
 10
102.0305992295244
 20
-145.5284663366376
 30
0.0
  0
VERTEX
  5
A3
330
93
100
AcDbEntity
  8
_U+30EC_U+30A4_U+30E4_U+30FC 1
 62
   179
420
  2234388
370
    25
100
AcDbVertex
100
AcDb2dVertex
 10
102.5639969039516
 20
-145.7154381281765
 30
0.0
  0
VERTEX
  5
A4
330
93
100
AcDbEntity
  8
_U+30EC_U+30A4_U+30E4_U+30FC 1
 62
   179
420
  2234388
370
    25
100
AcDbVertex
100
AcDb2dVertex
 10
103.088227394611
 20
-145.5030587574339
 30
0.0
  0
VERTEX
  5
A5
330
93
100
AcDbEntity
  8
_U+30EC_U+30A4_U+30E4_U+30FC 1
 62
   179
420
  2234388
370
    25
100
AcDbVertex
100
AcDb2dVertex
 10
103.6223302370203
 20
-145.6900305489728
 30
0.0
  0
VERTEX
  5
A6
330
93
100
AcDbEntity
  8
_U+30EC_U+30A4_U+30E4_U+30FC 1
 62
   179
420
  2234388
370
    25
100
AcDbVertex
100
AcDb2dVertex
 10
104.1444452237333
 20
-145.4780172196255
 30
0.0
  0
VERTEX
  5
A7
330
93
100
AcDbEntity
  8
_U+30EC_U+30A4_U+30E4_U+30FC 1
 62
   179
420
  2234388
370
    25
100
AcDbVertex
100
AcDb2dVertex
 10
104.6764325621962
 20
-145.6649890111641
 30
0.0
  0
VERTEX
  5
A8
330
93
100
AcDbEntity
  8
_U+30EC_U+30A4_U+30E4_U+30FC 1
 62
   179
420
  2234388
370
    25
100
AcDbVertex
100
AcDb2dVertex
 10
105.1992473339297
 20
-145.4522651308733
 30
0.0
  0
VERTEX
  5
A9
330
93
100
AcDbEntity
  8
_U+30EC_U+30A4_U+30E4_U+30FC 1
 62
   179
420
  2234388
370
    25
100
AcDbVertex
100
AcDb2dVertex
 10
105.7330002838288
 20
-145.6395921978837
 30
0.0
  0
VERTEX
  5
AA
330
93
100
AcDbEntity
  8
_U+30EC_U+30A4_U+30E4_U+30FC 1
 62
   179
420
  2234388
370
    25
100
AcDbVertex
100
AcDb2dVertex
 10
106.2575806669984
 20
-145.4268575516695
 30
0.0
  0
VERTEX
  5
AB
330
93
100
AcDbEntity
  8
_U+30EC_U+30A4_U+30E4_U+30FC 1
 62
   179
420
  2234388
370
    25
100
AcDbVertex
100
AcDb2dVertex
 10
106.7913336168975
 20
-145.6138401091315
 30
0.0
  0
VERTEX
  5
AC
330
93
100
AcDbEntity
  8
_U+30EC_U+30A4_U+30E4_U+30FC 1
 62
   179
420
  2234388
370
    25
100
AcDbVertex
100
AcDb2dVertex
 10
107.3145036641029
 20
-145.4014607383892
 30
0.0
  0
VERTEX
  5
AD
330
93
100
AcDbEntity
  8
_U+30EC_U+30A4_U+30E4_U+30FC 1
 62
   179
420
  2234388
370
    25
100
AcDbVertex
100
AcDb2dVertex
 10
107.8475514460199
 20
-145.5887878053997
 30
0.0
  0
VERTEX
  5
AE
330
93
100
AcDbEntity
  8
_U+30EC_U+30A4_U+30E4_U+30FC 1
 62
   179
420
  2234388
370
    25
100
AcDbVertex
100
AcDb2dVertex
 10
108.3714266612074
 20
-145.3760639251089
 30
0.0
  0
VERTEX
  5
AF
330
93
100
AcDbEntity
  8
_U+30EC_U+30A4_U+30E4_U+30FC 1
 62
   179
420
  2234388
370
    25
100
AcDbVertex
100
AcDb2dVertex
 10
108.9055348865784
 20
-145.5633909921194
 30
0.0
  0
VERTEX
  5
B0
330
93
100
AcDbEntity
  8
_U+30EC_U+30A4_U+30E4_U+30FC 1
 62
   179
420
  2234388
370
    25
100
AcDbVertex
100
AcDb2dVertex
 10
109.4301152697481
 20
-145.3506671118286
 30
0.0
  0
VERTEX
  5
B1
330
93
100
AcDbEntity
  8
_U+30EC_U+30A4_U+30E4_U+30FC 1
 62
   179
420
  2234388
370
    25
100
AcDbVertex
100
AcDb2dVertex
 10
109.9645733876293
 20
-145.5376389033671
 30
0.0
  0
VERTEX
  5
B2
330
93
100
AcDbEntity
  8
_U+30EC_U+30A4_U+30E4_U+30FC 1
 62
   179
420
  2234388
370
    25
100
AcDbVertex
100
AcDb2dVertex
 10
110.4877434348347
 20
-145.3252595326248
 30
0.0
  0
VERTEX
  5
B3
330
93
100
AcDbEntity
  8
_U+30EC_U+30A4_U+30E4_U+30FC 1
 62
   179
420
  2234388
370
    25
100
AcDbVertex
100
AcDb2dVertex
 10
111.0211411092619
 20
-145.5122313241634
 30
0.0
  0
VERTEX
  5
B4
330
93
100
AcDbEntity
  8
_U+30EC_U+30A4_U+30E4_U+30FC 1
 62
   179
420
  2234388
370
    25
100
AcDbVertex
100
AcDb2dVertex
 10
111.5457214924315
 20
-145.2998627193445
 30
0.0
  0
VERTEX
  5
B5
330
93
100
AcDbEntity
  8
_U+30EC_U+30A4_U+30E4_U+30FC 1
 62
   179
420
  2234388
370
    25
100
AcDbVertex
100
AcDb2dVertex
 10
112.0798297178025
 20
-145.4868345108831
 30
0.0
  0
VERTEX
  5
B6
330
93
100
AcDbEntity
  8
_U+30EC_U+30A4_U+30E4_U+30FC 1
 62
   179
420
  2234388
370
    25
100
AcDbVertex
100
AcDb2dVertex
 10
112.6047599934824
 20
-145.2741106305923
 30
0.0
  0
VERTEX
  5
B7
330
93
100
AcDbEntity
  8
_U+30EC_U+30A4_U+30E4_U+30FC 1
 62
   179
420
  2234388
370
    25
100
AcDbVertex
100
AcDb2dVertex
 10
113.1381630508713
 20
-145.4614376976027
 30
0.0
  0
VERTEX
  5
B8
330
93
100
AcDbEntity
  8
_U+30EC_U+30A4_U+30E4_U+30FC 1
 62
   179
420
  2234388
370
    25
100
AcDbVertex
100
AcDb2dVertex
 10
113.6627434340409
 20
-145.2487138173123
 30
0.0
  0
VERTEX
  5
B9
330
93
100
AcDbEntity
  8
_U+30EC_U+30A4_U+30E4_U+30FC 1
 62
   179
420
  2234388
370
    25
100
AcDbVertex
100
AcDb2dVertex
 10
114.1972015519222
 20
-145.4356856088505
 30
0.0
  0
VERTEX
  5
BA
330
93
100
AcDbEntity
  8
_U+30EC_U+30A4_U+30E4_U+30FC 1
 62
   179
420
  2234388
370
    25
100
AcDbVertex
100
AcDb2dVertex
 10
114.7242473315484
 20
-145.2233062381086
 30
0.0
  0
VERTEX
  5
BB
330
93
100
AcDbEntity
  8
_U+30EC_U+30A4_U+30E4_U+30FC 1
 62
   179
420
  2234388
370
    25
100
AcDbVertex
100
AcDb2dVertex
 10
115.2597658928837
 20
-145.4102780296468
 30
0.0
  0
VERTEX
  5
BC
330
93
100
AcDbEntity
  8
_U+30EC_U+30A4_U+30E4_U+30FC 1
 62
   179
420
  2234388
370
    25
100
AcDbVertex
100
AcDb2dVertex
 10
115.7861118874896
 20
-145.1979094248279
 30
0.0
  0
VERTEX
  5
BD
330
93
100
AcDbEntity
  8
_U+30EC_U+30A4_U+30E4_U+30FC 1
 62
   179
420
  2234388
370
    25
100
AcDbVertex
100
AcDb2dVertex
 10
116.3216250658632
 20
-145.3848812163668
 30
0.0
  0
VERTEX
  5
BE
330
93
100
AcDbEntity
  8
_U+30EC_U+30A4_U+30E4_U+30FC 1
 62
   179
420
  2234388
370
    25
100
AcDbVertex
100
AcDb2dVertex
 10
116.8469159999766
 20
-145.1721573360757
 30
0.0
  0
VERTEX
  5
BF
330
93
100
AcDbEntity
  8
_U+30EC_U+30A4_U+30E4_U+30FC 1
 62
   179
420
  2234388
370
    25
100
AcDbVertex
100
AcDb2dVertex
 10
117.3824291783503
 20
-145.3594844030861
 30
0.0
  0
VERTEX
  5
C0
330
93
100
AcDbEntity
  8
_U+30EC_U+30A4_U+30E4_U+30FC 1
 62
   179
420
  2234388
370
    25
100
AcDbVertex
100
AcDb2dVertex
 10
117.909130448428
 20
-145.1467605227953
 30
0.0
  0
VERTEX
  5
C1
330
93
100
AcDbEntity
  8
_U+30EC_U+30A4_U+30E4_U+30FC 1
 62
   179
420
  2234388
370
    25
100
AcDbVertex
100
AcDb2dVertex
 10
118.4457040702557
 20
-145.3337323143339
 30
0.0
  0
VERTEX
  5
C2
330
93
100
AcDbEntity
  8
_U+30EC_U+30A4_U+30E4_U+30FC 1
 62
   179
420
  2234388
370
    25
100
AcDbVertex
100
AcDb2dVertex
 10
118.9723999573717
 20
-145.1213529435916
 30
0.0
  0
VERTEX
  5
C3
330
93
100
AcDbEntity
  8
_U+30EC_U+30A4_U+30E4_U+30FC 1
 62
   179
420
  2234388
370
    25
100
AcDbVertex
100
AcDb2dVertex
 10
119.5072133507249
 20
-145.3083247351302
 30
0.0
  0
VERTEX
  5
C4
330
93
100
AcDbEntity
  8
_U+30EC_U+30A4_U+30E4_U+30FC 1
 62
   179
420
  2234388
370
    25
100
AcDbVertex
100
AcDb2dVertex
 10
120.0332040698588
 20
-145.0959561303113
 30
0.0
  0
VERTEX
  5
C5
330
93
100
AcDbEntity
  8
_U+30EC_U+30A4_U+30E4_U+30FC 1
 62
   179
420
  2234388
370
    25
100
AcDbVertex
100
AcDb2dVertex
 10
120.5673069122681
 20
-145.2829279218498
 30
0.0
  0
VERTEX
  5
C6
330
93
100
AcDbEntity
  8
_U+30EC_U+30A4_U+30E4_U+30FC 1
 62
   179
420
  2234388
370
    25
100
AcDbVertex
100
AcDb2dVertex
 10
121.0911821274556
 20
-145.0702040415591
 30
0.0
  0
VERTEX
  5
C7
330
93
100
AcDbEntity
  8
_U+30EC_U+30A4_U+30E4_U+30FC 1
 62
   179
420
  2234388
370
    25
100
AcDbVertex
100
AcDb2dVertex
 10
121.6242299093726
 20
-145.2575311085695
 30
0.0
  0
SEQEND
  5
C8
330
93
100
AcDbEntity
  8
_U+30EC_U+30A4_U+30E4_U+30FC 1
 62
   179
420
  2234388
370
    25
  0
POLYLINE
  5
C9
330
1F
100
AcDbEntity
  8
_U+30EC_U+30A4_U+30E4_U+30FC 1
 62
   179
420
  2234388
370
    25
100
AcDb2dPolyline
 66
     1
 10
0.0
 20
0.0
 30
0.0
  0
VERTEX
  5
CA
330
C9
100
AcDbEntity
  8
_U+30EC_U+30A4_U+30E4_U+30FC 1
 62
   179
420
  2234388
370
    25
100
AcDbVertex
100
AcDb2dVertex
 10
121.6217968106861
 20
-145.1574403187996
 30
0.0
  0
VERTEX
  5
CB
330
C9
100
AcDbEntity
  8
_U+30EC_U+30A4_U+30E4_U+30FC 1
 62
   179
420
  2234388
370
    25
100
AcDbVertex
100
AcDb2dVertex
 10
121.6115638005026
 20
-144.7570448619499
 30
0.0
  0
SEQEND
  5
CC
330
C9
100
AcDbEntity
  8
_U+30EC_U+30A4_U+30E4_U+30FC 1
 62
   179
420
  2234388
370
    25
  0
POLYLINE
  5
CD
330
1F
100
AcDbEntity
  8
_U+30EC_U+30A4_U+30E4_U+30FC 1
 62
   179
420
  2234388
370
    25
100
AcDb2dPolyline
 66
     1
 10
0.0
 20
0.0
 30
0.0
  0
VERTEX
  5
CE
330
CD
100
AcDbEntity
  8
_U+30EC_U+30A4_U+30E4_U+30FC 1
 62
   179
420
  2234388
370
    25
100
AcDbVertex
100
AcDb2dVertex
 10
121.6114615242304
 20
-144.7571525211838
 30
0.0
  0
VERTEX
  5
CF
330
CD
100
AcDbEntity
  8
_U+30EC_U+30A4_U+30E4_U+30FC 1
 62
   179
420
  2234388
370
    25
100
AcDbVertex
100
AcDb2dVertex
 10
94.65500507107637
 20
-144.8118434120121
 30
0.0
  0
SEQEND
  5
D0
330
CD
100
AcDbEntity
  8
_U+30EC_U+30A4_U+30E4_U+30FC 1
 62
   179
420
  2234388
370
    25
  0
SPLINE
  5
D1
330
1F
100
AcDbEntity
  8
_U+30EC_U+30A4_U+30E4_U+30FC 1
 62
   179
420
  2234388
370
     9
100
AcDbSpline
210
0.0
220
0.0
230
1.0
 70
    11
 71
     3
 72
    17
 73
    13
 74
     0
 42
0.0000000001
 43
0.0000000001
 12
1.0
 22
0.0
 32
0.0
 13
1.0
 23
0.0
 33
0.0
 40
0.0
 40
0.0
 40
0.0
 40
0.0
 40
1.0
 40
1.0
 40
1.0
 40
2.0
 40
2.0
 40
2.0
 40
3.0
 40
3.0
 40
3.0
 40
4.0
 40
4.0
 40
4.0
 40
4.0
 10
95.61081989865046
 20
-134.5479673261178
 30
0.0
 10
95.61081989865046
 20
-134.6030027264947
 30
0.0
 10
95.6556222888438
 20
-134.64781049965
 30
0.0
 10
95.71065499773982
 20
-134.64781049965
 30
0.0
 10
95.76568770663616
 20
-134.64781049965
 30
0.0
 10
95.81049009682917
 20
-134.6030027264947
 30
0.0
 10
95.81049009682917
 20
-134.5479673261178
 30
0.0
 10
95.81049009682917
 20
-134.4929426916643
 30
0.0
 10
95.76568770663616
 20
-134.4481349185093
 30
0.0
 10
95.71065499773982
 20
-134.4481349185093
 30
0.0
 10
95.6556222888438
 20
-134.4481349185093
 30
0.0
 10
95.61081989865046
 20
-134.4929426916643
 30
0.0
 10
95.61081989865046
 20
-134.5479673261178
 30
0.0
  0
SPLINE
  5
D2
330
1F
100
AcDbEntity
  8
_U+30EC_U+30A4_U+30E4_U+30FC 1
 62
   179
420
  2234388
370
     9
100
AcDbSpline
210
0.0
220
0.0
230
1.0
 70
    11
 71
     3
 72
    17
 73
    13
 74
     0
 42
0.0000000001
 43
0.0000000001
 12
1.0
 22
0.0
 32
0.0
 13
1.0
 23
0.0
 33
0.0
 40
0.0
 40
0.0
 40
0.0
 40
0.0
 40
1.0
 40
1.0
 40
1.0
 40
2.0
 40
2.0
 40
2.0
 40
3.0
 40
3.0
 40
3.0
 40
4.0
 40
4.0
 40
4.0
 40
4.0
 10
85.4843008463454
 20
-138.6472864440166
 30
0.0
 10
85.4843008463454
 20
-138.7023218443934
 30
0.0
 10
85.52910323653906
 20
-138.7471296175488
 30
0.0
 10
85.58413594543475
 20
-138.7471296175488
 30
0.0
 10
85.63916865433077
 20
-138.7471296175488
 30
0.0
 10
85.6839710445241
 20
-138.7023218443934
 30
0.0
 10
85.6839710445241
 20
-138.6472864440166
 30
0.0
 10
85.6839710445241
 20
-138.5915512586193
 30
0.0
 10
85.63916865433077
 20
-138.5474540364081
 30
0.0
 10
85.58413594543475
 20
-138.5474540364081
 30
0.0
 10
85.52910323653906
 20
-138.5474540364081
 30
0.0
 10
85.4843008463454
 20
-138.5915512586193
 30
0.0
 10
85.4843008463454
 20
-138.6472864440166
 30
0.0
  0
SPLINE
  5
D3
330
1F
100
AcDbEntity
  8
_U+30EC_U+30A4_U+30E4_U+30FC 1
 62
   179
420
  2234388
370
     9
100
AcDbSpline
210
0.0
220
0.0
230
1.0
 70
    11
 71
     3
 72
    17
 73
    13
 74
     0
 42
0.0000000001
 43
0.0000000001
 12
1.0
 22
0.0
 32
0.0
 13
1.0
 23
0.0
 33
0.0
 40
0.0
 40
0.0
 40
0.0
 40
0.0
 40
1.0
 40
1.0
 40
1.0
 40
2.0
 40
2.0
 40
2.0
 40
3.0
 40
3.0
 40
3.0
 40
4.0
 40
4.0
 40
4.0
 40
4.0
 10
121.6107563562482
 20
-134.5479673261178
 30
0.0
 10
121.6107563562482
 20
-134.6030027264947
 30
0.0
 10
121.6555587464416
 20
-134.64781049965
 30
0.0
 10
121.7105887638567
 20
-134.64781049965
 30
0.0
 10
121.7656241642336
 20
-134.64781049965
 30
0.0
 10
121.810426554427
 20
-134.6030027264947
 30
0.0
 10
121.810426554427
 20
-134.5479673261178
 30
0.0
 10
121.810426554427
 20
-134.4929426916643
 30
0.0
 10
121.7656241642336
 20
-134.4481349185093
 30
0.0
 10
121.7105887638567
 20
-134.4481349185093
 30
0.0
 10
121.6555587464416
 20
-134.4481349185093
 30
0.0
 10
121.6107563562482
 20
-134.4929426916643
 30
0.0
 10
121.6107563562482
 20
-134.5479673261178
 30
0.0
  0
SPLINE
  5
D4
330
1F
100
AcDbEntity
  8
_U+30EC_U+30A4_U+30E4_U+30FC 1
 62
   179
420
  2234388
370
     9
100
AcDbSpline
210
0.0
220
0.0
230
1.0
 70
    11
 71
     3
 72
    17
 73
    13
 74
     0
 42
0.0000000001
 43
0.0000000001
 12
1.0
 22
0.0
 32
0.0
 13
1.0
 23
0.0
 33
0.0
 40
0.0
 40
0.0
 40
0.0
 40
0.0
 40
1.0
 40
1.0
 40
1.0
 40
2.0
 40
2.0
 40
2.0
 40
3.0
 40
3.0
 40
3.0
 40
4.0
 40
4.0
 40
4.0
 40
4.0
 10
85.4843008463454
 20
-164.6470775616486
 30
0.0
 10
85.4843008463454
 20
-164.7021129620254
 30
0.0
 10
85.52910323653906
 20
-164.7469207351805
 30
0.0
 10
85.58413594543475
 20
-164.7469207351805
 30
0.0
 10
85.63916865433077
 20
-164.7469207351805
 30
0.0
 10
85.6839710445241
 20
-164.7021129620254
 30
0.0
 10
85.6839710445241
 20
-164.6470775616486
 30
0.0
 10
85.6839710445241
 20
-164.5920529271951
 30
0.0
 10
85.63916865433077
 20
-164.5472451540401
 30
0.0
 10
85.58413594543475
 20
-164.5472451540401
 30
0.0
 10
85.52910323653906
 20
-164.5472451540401
 30
0.0
 10
85.4843008463454
 20
-164.5920529271951
 30
0.0
 10
85.4843008463454
 20
-164.6470775616486
 30
0.0
  0
POLYLINE
  5
D5
330
1F
100
AcDbEntity
  8
_U+30EC_U+30A4_U+30E4_U+30FC 1
 62
   179
420
  2234388
370
     9
100
AcDb2dPolyline
 66
     1
 10
0.0
 20
0.0
 30
0.0
  0
VERTEX
  5
D6
330
D5
100
AcDbEntity
  8
_U+30EC_U+30A4_U+30E4_U+30FC 1
 62
   179
420
  2234388
370
     9
100
AcDbVertex
100
AcDb2dVertex
 10
121.7106964230907
 20
-134.5479673261178
 30
0.0
  0
VERTEX
  5
D7
330
D5
100
AcDbEntity
  8
_U+30EC_U+30A4_U+30E4_U+30FC 1
 62
   179
420
  2234388
370
     9
100
AcDbVertex
100
AcDb2dVertex
 10
95.71062269996965
 20
-134.5479673261178
 30
0.0
  0
SEQEND
  5
D8
330
D5
100
AcDbEntity
  8
_U+30EC_U+30A4_U+30E4_U+30FC 1
 62
   179
420
  2234388
370
     9
  0
POLYLINE
  5
D9
330
1F
100
AcDbEntity
  8
_U+30EC_U+30A4_U+30E4_U+30FC 1
 62
   179
420
  2234388
370
     9
100
AcDb2dPolyline
 66
     1
 10
0.0
 20
0.0
 30
0.0
  0
VERTEX
  5
DA
330
D9
100
AcDbEntity
  8
_U+30EC_U+30A4_U+30E4_U+30FC 1
 62
   179
420
  2234388
370
     9
100
AcDbVertex
100
AcDb2dVertex
 10
121.7106964230907
 20
-136.8078961348247
 30
0.0
  0
VERTEX
  5
DB
330
D9
100
AcDbEntity
  8
_U+30EC_U+30A4_U+30E4_U+30FC 1
 62
   179
420
  2234388
370
     9
100
AcDbVertex
100
AcDb2dVertex
 10
121.7106964230907
 20
-133.5482329140684
 30
0.0
  0
SEQEND
  5
DC
330
D9
100
AcDbEntity
  8
_U+30EC_U+30A4_U+30E4_U+30FC 1
 62
   179
420
  2234388
370
     9
  0
POLYLINE
  5
DD
330
1F
100
AcDbEntity
  8
_U+30EC_U+30A4_U+30E4_U+30FC 1
 62
   179
420
  2234388
370
     9
100
AcDb2dPolyline
 66
     1
 10
0.0
 20
0.0
 30
0.0
  0
VERTEX
  5
DE
330
DD
100
AcDbEntity
  8
_U+30EC_U+30A4_U+30E4_U+30FC 1
 62
   179
420
  2234388
370
     9
100
AcDbVertex
100
AcDb2dVertex
 10
95.71072766772271
 20
-136.6081236603738
 30
0.0
  0
VERTEX
  5
DF
330
DD
100
AcDbEntity
  8
_U+30EC_U+30A4_U+30E4_U+30FC 1
 62
   179
420
  2234388
370
     9
100
AcDbVertex
100
AcDb2dVertex
 10
95.71072766772271
 20
-133.5481360207582
 30
0.0
  0
SEQEND
  5
E0
330
DD
100
AcDbEntity
  8
_U+30EC_U+30A4_U+30E4_U+30FC 1
 62
   179
420
  2234388
370
     9
  0
INSERT
  5
E2
330
1F
100
AcDbEntity
  8
_U+30EC_U+30A4_U+30E4_U+30FC 1
100
AcDbBlockReference
  2
block 3
 10
0.0
 20
0.0
 30
0.0
  0
SPLINE
  5
EA
330
1F
100
AcDbEntity
  8
_U+30EC_U+30A4_U+30E4_U+30FC 1
 62
   179
420
  2234388
370
     9
100
AcDbSpline
210
0.0
220
0.0
230
1.0
 70
    11
 71
     3
 72
    17
 73
    13
 74
     0
 42
0.0000000001
 43
0.0000000001
 12
1.0
 22
0.0
 32
0.0
 13
1.0
 23
0.0
 33
0.0
 40
0.0
 40
0.0
 40
0.0
 40
0.0
 40
1.0
 40
1.0
 40
1.0
 40
2.0
 40
2.0
 40
2.0
 40
3.0
 40
3.0
 40
3.0
 40
4.0
 40
4.0
 40
4.0
 40
4.0
 10
124.5577179491394
 20
-144.7571525211838
 30
0.0
 10
124.6127479665546
 20
-144.7571525211838
 30
0.0
 10
124.6575503567479
 20
-144.7123555139521
 30
0.0
 10
124.6575503567479
 20
-144.6573201135753
 30
0.0
 10
124.6575503567479
 20
-144.6022847131984
 30
0.0
 10
124.6127479665546
 20
-144.5574877059668
 30
0.0
 10
124.5577179491394
 20
-144.5574877059668
 30
0.0
 10
124.5026825487626
 20
-144.5574877059668
 30
0.0
 10
124.4578801585692
 20
-144.6022847131984
 30
0.0
 10
124.4578801585692
 20
-144.6573201135753
 30
0.0
 10
124.4578801585692
 20
-144.7123555139521
 30
0.0
 10
124.5026825487626
 20
-144.7571525211838
 30
0.0
 10
124.5577179491394
 20
-144.7571525211838
 30
0.0
  0
SPLINE
  5
EB
330
1F
100
AcDbEntity
  8
_U+30EC_U+30A4_U+30E4_U+30FC 1
 62
   179
420
  2234388
370
     9
100
AcDbSpline
210
0.0
220
0.0
230
1.0
 70
    11
 71
     3
 72
    17
 73
    13
 74
     0
 42
0.0000000001
 43
0.0000000001
 12
1.0
 22
0.0
 32
0.0
 13
1.0
 23
0.0
 33
0.0
 40
0.0
 40
0.0
 40
0.0
 40
0.0
 40
1.0
 40
1.0
 40
1.0
 40
2.0
 40
2.0
 40
2.0
 40
3.0
 40
3.0
 40
3.0
 40
4.0
 40
4.0
 40
4.0
 40
4.0
 10
124.5577179491394
 20
-138.7575294995446
 30
0.0
 10
124.6127479665546
 20
-138.7575294995446
 30
0.0
 10
124.6575503567479
 20
-138.7127324923129
 30
0.0
 10
124.6575503567479
 20
-138.6573418164641
 30
0.0
 10
124.6575503567479
 20
-138.6023171820107
 30
0.0
 10
124.6127479665546
 20
-138.5575094088557
 30
0.0
 10
124.5577179491394
 20
-138.5575094088557
 30
0.0
 10
124.5026825487626
 20
-138.5575094088557
 30
0.0
 10
124.4578801585692
 20
-138.6023171820107
 30
0.0
 10
124.4578801585692
 20
-138.6573418164641
 30
0.0
 10
124.4578801585692
 20
-138.7127324923129
 30
0.0
 10
124.5026825487626
 20
-138.7575294995446
 30
0.0
 10
124.5577179491394
 20
-138.7575294995446
 30
0.0
  0
POLYLINE
  5
EC
330
1F
100
AcDbEntity
  8
_U+30EC_U+30A4_U+30E4_U+30FC 1
 62
   179
420
  2234388
370
     9
100
AcDb2dPolyline
 66
     1
 10
0.0
 20
0.0
 30
0.0
  0
VERTEX
  5
ED
330
EC
100
AcDbEntity
  8
_U+30EC_U+30A4_U+30E4_U+30FC 1
 62
   179
420
  2234388
370
     9
100
AcDbVertex
100
AcDb2dVertex
 10
124.5577179491394
 20
-138.6572664550004
 30
0.0
  0
VERTEX
  5
EE
330
EC
100
AcDbEntity
  8
_U+30EC_U+30A4_U+30E4_U+30FC 1
 62
   179
420
  2234388
370
     9
100
AcDbVertex
100
AcDb2dVertex
 10
124.5577179491394
 20
-144.6573201135753
 30
0.0
  0
SEQEND
  5
EF
330
EC
100
AcDbEntity
  8
_U+30EC_U+30A4_U+30E4_U+30FC 1
 62
   179
420
  2234388
370
     9
  0
POLYLINE
  5
F0
330
1F
100
AcDbEntity
  8
_U+30EC_U+30A4_U+30E4_U+30FC 1
 62
   179
420
  2234388
370
     9
100
AcDb2dPolyline
 66
     1
 10
0.0
 20
0.0
 30
0.0
  0
VERTEX
  5
F1
330
F0
100
AcDbEntity
  8
_U+30EC_U+30A4_U+30E4_U+30FC 1
 62
   179
420
  2234388
370
     9
100
AcDbVertex
100
AcDb2dVertex
 10
125.5511058493495
 20
-138.6572664550004
 30
0.0
  0
VERTEX
  5
F2
330
F0
100
AcDbEntity
  8
_U+30EC_U+30A4_U+30E4_U+30FC 1
 62
   179
420
  2234388
370
     9
100
AcDbVertex
100
AcDb2dVertex
 10
122.2914372456316
 20
-138.6572664550004
 30
0.0
  0
SEQEND
  5
F3
330
F0
100
AcDbEntity
  8
_U+30EC_U+30A4_U+30E4_U+30FC 1
 62
   179
420
  2234388
370
     9
  0
POLYLINE
  5
F4
330
1F
100
AcDbEntity
  8
_U+30EC_U+30A4_U+30E4_U+30FC 1
 62
   179
420
  2234388
370
     9
100
AcDb2dPolyline
 66
     1
 10
0.0
 20
0.0
 30
0.0
  0
VERTEX
  5
F5
330
F4
100
AcDbEntity
  8
_U+30EC_U+30A4_U+30E4_U+30FC 1
 62
   179
420
  2234388
370
     9
100
AcDbVertex
100
AcDb2dVertex
 10
125.5511058493495
 20
-144.657201688418
 30
0.0
  0
VERTEX
  5
F6
330
F4
100
AcDbEntity
  8
_U+30EC_U+30A4_U+30E4_U+30FC 1
 62
   179
420
  2234388
370
     9
100
AcDbVertex
100
AcDb2dVertex
 10
122.2914372456316
 20
-144.657201688418
 30
0.0
  0
SEQEND
  5
F7
330
F4
100
AcDbEntity
  8
_U+30EC_U+30A4_U+30E4_U+30FC 1
 62
   179
420
  2234388
370
     9
  0
INSERT
  5
F9
330
1F
100
AcDbEntity
  8
_U+30EC_U+30A4_U+30E4_U+30FC 1
100
AcDbBlockReference
  2
block 4
 10
0.0
 20
0.0
 30
0.0
  0
POLYLINE
  5
FF
330
1F
100
AcDbEntity
  8
_U+30EC_U+30A4_U+30E4_U+30FC 1
 62
   179
420
  2234388
370
     9
100
AcDb2dPolyline
 66
     1
 10
0.0
 20
0.0
 30
0.0
  0
VERTEX
  5
100
330
FF
100
AcDbEntity
  8
_U+30EC_U+30A4_U+30E4_U+30FC 1
 62
   179
420
  2234388
370
     9
100
AcDbVertex
100
AcDb2dVertex
 10
85.58424091318781
 20
-138.6472864440166
 30
0.0
  0
VERTEX
  5
101
330
FF
100
AcDbEntity
  8
_U+30EC_U+30A4_U+30E4_U+30FC 1
 62
   179
420
  2234388
370
     9
100
AcDbVertex
100
AcDb2dVertex
 10
85.58424091318781
 20
-164.6470129661082
 30
0.0
  0
SEQEND
  5
102
330
FF
100
AcDbEntity
  8
_U+30EC_U+30A4_U+30E4_U+30FC 1
 62
   179
420
  2234388
370
     9
  0
POLYLINE
  5
103
330
1F
100
AcDbEntity
  8
_U+30EC_U+30A4_U+30E4_U+30FC 1
 62
   179
420
  2234388
370
     9
100
AcDb2dPolyline
 66
     1
 10
0.0
 20
0.0
 30
0.0
  0
VERTEX
  5
104
330
103
100
AcDbEntity
  8
_U+30EC_U+30A4_U+30E4_U+30FC 1
 62
   179
420
  2234388
370
     9
100
AcDbVertex
100
AcDb2dVertex
 10
84.29438101462551
 20
-138.6472864440166
 30
0.0
  0
VERTEX
  5
105
330
103
100
AcDbEntity
  8
_U+30EC_U+30A4_U+30E4_U+30FC 1
 62
   179
420
  2234388
370
     9
100
AcDbVertex
100
AcDb2dVertex
 10
88.65435928671499
 20
-138.6472864440166
 30
0.0
  0
SEQEND
  5
106
330
103
100
AcDbEntity
  8
_U+30EC_U+30A4_U+30E4_U+30FC 1
 62
   179
420
  2234388
370
     9
  0
POLYLINE
  5
107
330
1F
100
AcDbEntity
  8
_U+30EC_U+30A4_U+30E4_U+30FC 1
 62
   179
420
  2234388
370
     9
100
AcDb2dPolyline
 66
     1
 10
0.0
 20
0.0
 30
0.0
  0
VERTEX
  5
108
330
107
100
AcDbEntity
  8
_U+30EC_U+30A4_U+30E4_U+30FC 1
 62
   179
420
  2234388
370
     9
100
AcDbVertex
100
AcDb2dVertex
 10
84.29438101462551
 20
-164.6470775616486
 30
0.0
  0
VERTEX
  5
109
330
107
100
AcDbEntity
  8
_U+30EC_U+30A4_U+30E4_U+30FC 1
 62
   179
420
  2234388
370
     9
100
AcDbVertex
100
AcDb2dVertex
 10
88.65435928671499
 20
-164.6470775616486
 30
0.0
  0
SEQEND
  5
10A
330
107
100
AcDbEntity
  8
_U+30EC_U+30A4_U+30E4_U+30FC 1
 62
   179
420
  2234388
370
     9
  0
INSERT
  5
10C
330
1F
100
AcDbEntity
  8
_U+30EC_U+30A4_U+30E4_U+30FC 1
100
AcDbBlockReference
  2
block 5
 10
0.0
 20
0.0
 30
0.0
  0
POLYLINE
  5
114
330
1F
100
AcDbEntity
  8
_U+30EC_U+30A4_U+30E4_U+30FC 1
 62
   179
420
  2234388
370
    25
100
AcDb2dPolyline
 66
     1
 10
0.0
 20
0.0
 30
0.0
  0
VERTEX
  5
115
330
114
100
AcDbEntity
  8
_U+30EC_U+30A4_U+30E4_U+30FC 1
 62
   179
420
  2234388
370
    25
100
AcDbVertex
100
AcDb2dVertex
 10
91.60555727046071
 20
-139.566760897183
 30
0.0
  0
VERTEX
  5
116
330
114
100
AcDbEntity
  8
_U+30EC_U+30A4_U+30E4_U+30FC 1
 62
   179
420
  2234388
370
    25
100
AcDbVertex
100
AcDb2dVertex
 10
94.60557871678644
 20
-139.566760897183
 30
0.0
  0
SEQEND
  5
117
330
114
100
AcDbEntity
  8
_U+30EC_U+30A4_U+30E4_U+30FC 1
 62
   179
420
  2234388
370
    25
  0
POLYLINE
  5
118
330
1F
100
AcDbEntity
  8
_U+30EC_U+30A4_U+30E4_U+30FC 1
 62
   179
420
  2234388
370
    25
100
AcDb2dPolyline
 66
     1
 10
0.0
 20
0.0
 30
0.0
  0
VERTEX
  5
119
330
118
100
AcDbEntity
  8
_U+30EC_U+30A4_U+30E4_U+30FC 1
 62
   179
420
  2234388
370
    25
100
AcDbVertex
100
AcDb2dVertex
 10
90.61097166127331
 20
-138.5473786749443
 30
0.0
  0
VERTEX
  5
11A
330
118
100
AcDbEntity
  8
_U+30EC_U+30A4_U+30E4_U+30FC 1
 62
   179
420
  2234388
370
    25
100
AcDbVertex
100
AcDb2dVertex
 10
95.61088987715252
 20
-138.5473786749443
 30
0.0
  0
SEQEND
  5
11B
330
118
100
AcDbEntity
  8
_U+30EC_U+30A4_U+30E4_U+30FC 1
 62
   179
420
  2234388
370
    25
  0
POLYLINE
  5
11C
330
1F
100
AcDbEntity
  8
_U+30EC_U+30A4_U+30E4_U+30FC 1
 62
   179
420
  2234388
370
    25
100
AcDb2dPolyline
 66
     1
 10
0.0
 20
0.0
 30
0.0
  0
VERTEX
  5
11D
330
11C
100
AcDbEntity
  8
_U+30EC_U+30A4_U+30E4_U+30FC 1
 62
   179
420
  2234388
370
    25
100
AcDbVertex
100
AcDb2dVertex
 10
95.61081989865046
 20
-144.6841272628199
 30
0.0
  0
VERTEX
  5
11E
330
11C
100
AcDbEntity
  8
_U+30EC_U+30A4_U+30E4_U+30FC 1
 62
   179
420
  2234388
370
    25
100
AcDbVertex
100
AcDb2dVertex
 10
95.61081989865046
 20
-138.6840843701687
 30
0.0
  0
SEQEND
  5
11F
330
11C
100
AcDbEntity
  8
_U+30EC_U+30A4_U+30E4_U+30FC 1
 62
   179
420
  2234388
370
    25
  0
POLYLINE
  5
120
330
1F
100
AcDbEntity
  8
_U+30EC_U+30A4_U+30E4_U+30FC 1
 62
   179
420
  2234388
370
    25
100
AcDb2dPolyline
 66
     1
 10
0.0
 20
0.0
 30
0.0
  0
VERTEX
  5
121
330
120
100
AcDbEntity
  8
_U+30EC_U+30A4_U+30E4_U+30FC 1
 62
   179
420
  2234388
370
    25
100
AcDbVertex
100
AcDb2dVertex
 10
94.60554641901626
 20
-145.7444630576397
 30
0.0
  0
VERTEX
  5
122
330
120
100
AcDbEntity
  8
_U+30EC_U+30A4_U+30E4_U+30FC 1
 62
   179
420
  2234388
370
    25
100
AcDbVertex
100
AcDb2dVertex
 10
94.60554641901626
 20
-139.5666209401789
 30
0.0
  0
SEQEND
  5
123
330
120
100
AcDbEntity
  8
_U+30EC_U+30A4_U+30E4_U+30FC 1
 62
   179
420
  2234388
370
    25
  0
POLYLINE
  5
124
330
1F
100
AcDbEntity
  8
_U+30EC_U+30A4_U+30E4_U+30FC 1
 62
   179
420
  2234388
370
     9
100
AcDb2dPolyline
 66
     1
 10
0.0
 20
0.0
 30
0.0
  0
VERTEX
  5
125
330
124
100
AcDbEntity
  8
_U+30EC_U+30A4_U+30E4_U+30FC 1
 62
   179
420
  2234388
370
     9
100
AcDbVertex
100
AcDb2dVertex
 10
91.18388296602814
 20
-137.5768845108261
 30
0.0
  0
VERTEX
  5
126
330
124
100
AcDbEntity
  8
_U+30EC_U+30A4_U+30E4_U+30FC 1
 62
   179
420
  2234388
370
     9
100
AcDbVertex
100
AcDb2dVertex
 10
91.74091722526084
 20
-138.4076800530175
 30
0.0
  0
SEQEND
  5
127
330
124
100
AcDbEntity
  8
_U+30EC_U+30A4_U+30E4_U+30FC 1
 62
   179
420
  2234388
370
     9
  0
POLYLINE
  5
128
330
1F
100
AcDbEntity
  8
_U+30EC_U+30A4_U+30E4_U+30FC 1
 62
   179
420
  2234388
370
     9
100
AcDb2dPolyline
 66
     1
 10
0.0
 20
0.0
 30
0.0
  0
VERTEX
  5
129
330
128
100
AcDbEntity
  8
_U+30EC_U+30A4_U+30E4_U+30FC 1
 62
   179
420
  2234388
370
     9
100
AcDbVertex
100
AcDb2dVertex
 10
91.6741388939448
 20
-137.4100880597233
 30
0.0
  0
VERTEX
  5
12A
330
128
100
AcDbEntity
  8
_U+30EC_U+30A4_U+30E4_U+30FC 1
 62
   179
420
  2234388
370
     9
100
AcDbVertex
100
AcDb2dVertex
 10
91.74081225750778
 20
-138.4077446485578
 30
0.0
  0
SEQEND
  5
12B
330
128
100
AcDbEntity
  8
_U+30EC_U+30A4_U+30E4_U+30FC 1
 62
   179
420
  2234388
370
     9
  0
POLYLINE
  5
12C
330
1F
100
AcDbEntity
  8
_U+30EC_U+30A4_U+30E4_U+30FC 1
 62
   179
420
  2234388
370
     9
100
AcDb2dPolyline
 66
     1
 10
0.0
 20
0.0
 30
0.0
  0
VERTEX
  5
12D
330
12C
100
AcDbEntity
  8
_U+30EC_U+30A4_U+30E4_U+30FC 1
 62
   179
420
  2234388
370
     9
100
AcDbVertex
100
AcDb2dVertex
 10
90.96512478567615
 20
-136.0475958590003
 30
0.0
  0
VERTEX
  5
12E
330
12C
100
AcDbEntity
  8
_U+30EC_U+30A4_U+30E4_U+30FC 1
 62
   179
420
  2234388
370
     9
100
AcDbVertex
100
AcDb2dVertex
 10
91.74088223600982
 20
-138.4076800530175
 30
0.0
  0
SEQEND
  5
12F
330
12C
100
AcDbEntity
  8
_U+30EC_U+30A4_U+30E4_U+30FC 1
 62
   179
420
  2234388
370
     9
  0
INSERT
  5
131
330
1F
100
AcDbEntity
  8
_U+30EC_U+30A4_U+30E4_U+30FC 1
100
AcDbBlockReference
  2
block 6
 10
0.0
 20
0.0
 30
0.0
  0
POLYLINE
  5
18C
330
1F
100
AcDbEntity
  8
_U+30EC_U+30A4_U+30E4_U+30FC 1
 62
   179
420
  2234388
370
    25
100
AcDb2dPolyline
 66
     1
 10
0.0
 20
0.0
 30
0.0
  0
VERTEX
  5
18D
330
18C
100
AcDbEntity
  8
_U+30EC_U+30A4_U+30E4_U+30FC 1
 62
   179
420
  2234388
370
    25
100
AcDbVertex
100
AcDb2dVertex
 10
90.61097166127331
 20
-139.566760897183
 30
0.0
  0
VERTEX
  5
18E
330
18C
100
AcDbEntity
  8
_U+30EC_U+30A4_U+30E4_U+30FC 1
 62
   179
420
  2234388
370
    25
100
AcDbVertex
100
AcDb2dVertex
 10
91.60544961122679
 20
-139.566760897183
 30
0.0
  0
SEQEND
  5
18F
330
18C
100
AcDbEntity
  8
_U+30EC_U+30A4_U+30E4_U+30FC 1
 62
   179
420
  2234388
370
    25
  0
ENDSEC
  0
SECTION
  2
OBJECTS
  0
DICTIONARY
  5
C
330
0
100
AcDbDictionary
281
     1
  3
ACAD_GROUP
350
D
  3
ACAD_LAYOUT
350
1A
  3
ACAD_MATERIAL
350
3B
  3
ACAD_MLEADERSTYLE
350
191
  3
ACAD_MLINESTYLE
350
17
  3
ACAD_PLOTSETTINGS
350
19
  3
ACAD_PLOTSTYLENAME
350
E
  3
ACAD_TABLESTYLE
350
190
  3
ACAD_VISUALSTYLE
350
2A
  0
SUN
  5
3F
330
29
100
AcDbSun
 90
        1
290
     0
 63
     7
421
 16777215
 40
1.0
291
     1
 91
  2455826
 92
 54000000
292
     0
 70
     2
 71
   256
280
     1
  0
DICTIONARY
  5
D
102
{ACAD_REACTORS
330
C
102
}
330
C
100
AcDbDictionary
281
     1
  0
DICTIONARY
  5
1A
102
{ACAD_REACTORS
330
C
102
}
330
C
100
AcDbDictionary
281
     1
  3
Layout1
350
1E
  3
Layout2
350
26
  3
Model
350
22
  0
DICTIONARY
  5
3B
102
{ACAD_REACTORS
330
C
102
}
330
C
100
AcDbDictionary
281
     1
  3
ByBlock
350
3D
  3
ByLayer
350
3C
  3
Global
350
3E
  0
DICTIONARY
  5
191
102
{ACAD_REACTORS
330
C
102
}
330
C
100
AcDbDictionary
281
     1
  0
DICTIONARY
  5
17
102
{ACAD_REACTORS
330
C
102
}
330
C
100
AcDbDictionary
281
     1
  3
Standard
350
18
  0
DICTIONARY
  5
19
102
{ACAD_REACTORS
330
C
102
}
330
C
100
AcDbDictionary
281
     1
  0
ACDBDICTIONARYWDFLT
  5
E
102
{ACAD_REACTORS
330
C
102
}
330
C
100
AcDbDictionary
281
     1
  3
Normal
350
F
100
AcDbDictionaryWithDefault
340
F
  0
DICTIONARY
  5
190
102
{ACAD_REACTORS
330
C
102
}
330
C
100
AcDbDictionary
281
     1
  0
DICTIONARY
  5
2A
102
{ACAD_REACTORS
330
C
102
}
330
C
100
AcDbDictionary
281
     1
  3
2dWireframe
350
2F
  3
3D Hidden
350
31
  3
3dWireframe
350
30
  3
Basic
350
32
  3
Brighten
350
36
  3
ColorChange
350
3A
  3
Conceptual
350
34
  3
Dim
350
35
  3
Facepattern
350
39
  3
Flat
350
2B
  3
FlatWithEdges
350
2C
  3
Gouraud
350
2D
  3
GouraudWithEdges
350
2E
  3
Linepattern
350
38
  3
Realistic
350
33
  3
Thicken
350
37
  0
LAYOUT
  5
1E
102
{ACAD_REACTORS
330
1A
102
}
330
1A
100
AcDbPlotSettings
  1

  2
none_device
  4

  6

 40
0.0
 41
0.0
 42
0.0
 43
0.0
 44
0.0
 45
0.0
 46
0.0
 47
0.0
 48
0.0
 49
0.0
140
0.0
141
0.0
142
1.0
143
1.0
 70
   688
 72
     0
 73
     0
 74
     5
  7

 75
    16
 76
     0
 77
     2
 78
   300
147
1.0
148
0.0
149
0.0
100
AcDbLayout
  1
Layout1
 70
     1
 71
     1
 10
0.0
 20
0.0
 11
12.0
 21
9.0
 12
0.0
 22
0.0
 32
0.0
 14
1.000000000000000E+20
 24
1.000000000000000E+20
 34
1.000000000000000E+20
 15
-1.000000000000000E+20
 25
-1.000000000000000E+20
 35
-1.000000000000000E+20
146
0.0
 13
0.0
 23
0.0
 33
0.0
 16
1.0
 26
0.0
 36
0.0
 17
0.0
 27
1.0
 37
0.0
 76
     0
330
1B
  0
LAYOUT
  5
26
102
{ACAD_REACTORS
330
1A
102
}
330
1A
100
AcDbPlotSettings
  1

  2
none_device
  4

  6

 40
0.0
 41
0.0
 42
0.0
 43
0.0
 44
0.0
 45
0.0
 46
0.0
 47
0.0
 48
0.0
 49
0.0
140
0.0
141
0.0
142
1.0
143
1.0
 70
   688
 72
     0
 73
     0
 74
     5
  7

 75
    16
 76
     0
 77
     2
 78
   300
147
1.0
148
0.0
149
0.0
100
AcDbLayout
  1
Layout2
 70
     1
 71
     2
 10
0.0
 20
0.0
 11
0.0
 21
0.0
 12
0.0
 22
0.0
 32
0.0
 14
0.0
 24
0.0
 34
0.0
 15
0.0
 25
0.0
 35
0.0
146
0.0
 13
0.0
 23
0.0
 33
0.0
 16
1.0
 26
0.0
 36
0.0
 17
0.0
 27
1.0
 37
0.0
 76
     0
330
23
  0
LAYOUT
  5
22
102
{ACAD_REACTORS
330
1A
102
}
330
1A
100
AcDbPlotSettings
  1

  2
none_device
  4

  6

 40
0.0
 41
0.0
 42
0.0
 43
0.0
 44
0.0
 45
0.0
 46
0.0
 47
0.0
 48
0.0
 49
0.0
140
0.0
141
0.0
142
1.0
143
1.0
 70
  1712
 72
     0
 73
     0
 74
     0
  7

 75
     0
 76
     0
 77
     2
 78
   300
147
1.0
148
0.0
149
0.0
100
AcDbLayout
  1
Model
 70
     1
 71
     0
 10
0.0
 20
0.0
 11
12.0
 21
9.0
 12
0.0
 22
0.0
 32
0.0
 14
1.000000000000000E+20
 24
1.000000000000000E+20
 34
1.000000000000000E+20
 15
-1.000000000000000E+20
 25
-1.000000000000000E+20
 35
-1.000000000000000E+20
146
0.0
 13
0.0
 23
0.0
 33
0.0
 16
1.0
 26
0.0
 36
0.0
 17
0.0
 27
1.0
 37
0.0
 76
     0
330
1F
331
29
  0
MATERIAL
  5
3D
102
{ACAD_REACTORS
330
3B
102
}
330
3B
100
AcDbMaterial
  1
ByBlock
 72
     1
 94
      127
  0
MATERIAL
  5
3C
102
{ACAD_REACTORS
330
3B
102
}
330
3B
100
AcDbMaterial
  1
ByLayer
 72
     1
 94
      127
  0
MATERIAL
  5
3E
102
{ACAD_REACTORS
330
3B
102
}
330
3B
100
AcDbMaterial
  1
Global
 72
     1
 94
      127
  0
MLINESTYLE
  5
18
102
{ACAD_REACTORS
330
17
102
}
330
17
100
AcDbMlineStyle
  2
Standard
 70
     0
  3

 62
   256
 51
90.0
 52
90.0
 71
     2
 49
0.5
 62
   256
  6
BYLAYER
 49
-0.5
 62
   256
  6
BYLAYER
  0
ACDBPLACEHOLDER
  5
F
102
{ACAD_REACTORS
330
E
102
}
330
E
  0
VISUALSTYLE
  5
2F
102
{ACAD_REACTORS
330
2A
102
}
330
2A
100
AcDbVisualStyle
  2
2dWireframe
 70
     4
177
     2
291
     0
 71
     0
176
     1
 72
     2
176
     1
 73
     0
176
     1
 90
        0
176
     1
 40
-0.6
176
     1
 41
-30.0
176
     1
 62
     5
 63
     7
421
 16777215
176
     1
 74
     1
176
     1
 91
        4
176
     1
 64
     7
176
     1
 65
   257
176
     1
 75
     1
176
     1
175
     1
176
     1
 42
1.0
176
     1
 92
        0
176
     1
 66
   257
176
     1
 43
1.0
176
     1
 76
     1
176
     1
 77
     6
176
     1
 78
     2
176
     1
 67
     7
176
     1
 79
     5
176
     1
170
     0
176
     1
171
     0
176
     1
290
     0
176
     1
 93
        1
176
     1
 44
0.0
176
     1
173
     0
176
     1
  0
VISUALSTYLE
  5
31
102
{ACAD_REACTORS
330
2A
102
}
330
2A
100
AcDbVisualStyle
  2
3D Hidden
 70
     6
177
     2
291
     0
 71
     1
176
     1
 72
     2
176
     1
 73
     2
176
     1
 90
        0
176
     1
 40
-0.6
176
     1
 41
-30.0
176
     1
 62
     5
 63
     7
421
 16777215
176
     1
 74
     2
176
     1
 91
        2
176
     1
 64
     7
176
     1
 65
   257
176
     1
 75
     2
176
     1
175
     1
176
     1
 42
40.0
176
     1
 92
        0
176
     1
 66
   257
176
     1
 43
1.0
176
     1
 76
     1
176
     1
 77
     6
176
     1
 78
     2
176
     1
 67
     7
176
     1
 79
     3
176
     1
170
     0
176
     1
171
     0
176
     1
290
     0
176
     1
 93
        1
176
     1
 44
0.0
176
     1
173
     0
176
     1
  0
VISUALSTYLE
  5
30
102
{ACAD_REACTORS
330
2A
102
}
330
2A
100
AcDbVisualStyle
  2
3dWireframe
 70
     5
177
     2
291
     0
 71
     0
176
     1
 72
     2
176
     1
 73
     0
176
     1
 90
        0
176
     1
 40
-0.6
176
     1
 41
-30.0
176
     1
 62
     5
 63
     7
421
 16777215
176
     1
 74
     1
176
     1
 91
        4
176
     1
 64
     7
176
     1
 65
   257
176
     1
 75
     1
176
     1
175
     1
176
     1
 42
1.0
176
     1
 92
        0
176
     1
 66
   257
176
     1
 43
1.0
176
     1
 76
     1
176
     1
 77
     6
176
     1
 78
     2
176
     1
 67
     7
176
     1
 79
     5
176
     1
170
     0
176
     1
171
     0
176
     1
290
     0
176
     1
 93
        1
176
     1
 44
0.0
176
     1
173
     0
176
     1
  0
VISUALSTYLE
  5
32
102
{ACAD_REACTORS
330
2A
102
}
330
2A
100
AcDbVisualStyle
  2
Basic
 70
     7
177
     2
291
     1
 71
     1
176
     1
 72
     0
176
     1
 73
     1
176
     1
 90
        0
176
     1
 40
-0.6
176
     1
 41
-30.0
176
     1
 62
     5
 63
     7
421
 16777215
176
     1
 74
     0
176
     1
 91
        4
176
     1
 64
     7
176
     1
 65
   257
176
     1
 75
     1
176
     1
175
     1
176
     1
 42
1.0
176
     1
 92
        8
176
     1
 66
     7
176
     1
 43
1.0
176
     1
 76
     1
176
     1
 77
     6
176
     1
 78
     2
176
     1
 67
     7
176
     1
 79
     5
176
     1
170
     0
176
     1
171
     0
176
     1
290
     0
176
     1
 93
        1
176
     1
 44
0.0
176
     1
173
     0
176
     1
  0
VISUALSTYLE
  5
36
102
{ACAD_REACTORS
330
2A
102
}
330
2A
100
AcDbVisualStyle
  2
Brighten
 70
    12
177
     2
291
     1
 71
     2
176
     1
 72
     2
176
     1
 73
     0
176
     1
 90
        0
176
     1
 40
-0.6
176
     1
 41
-30.0
176
     1
 62
     5
 63
     7
421
 16777215
176
     1
 74
     1
176
     1
 91
        4
176
     1
 64
     7
176
     1
 65
   257
176
     1
 75
     1
176
     1
175
     1
176
     1
 42
1.0
176
     1
 92
        8
176
     1
 66
     7
176
     1
 43
1.0
176
     1
 76
     1
176
     1
 77
     6
176
     1
 78
     2
176
     1
 67
     7
176
     1
 79
     5
176
     1
170
     0
176
     1
171
     0
176
     1
290
     0
176
     1
 93
        1
176
     1
 44
50.0
176
     1
173
     0
176
     1
  0
VISUALSTYLE
  5
3A
102
{ACAD_REACTORS
330
2A
102
}
330
2A
100
AcDbVisualStyle
  2
ColorChange
 70
    16
177
     2
291
     1
 71
     2
176
     1
 72
     2
176
     1
 73
     3
176
     1
 90
        0
176
     1
 40
-0.6
176
     1
 41
-30.0
176
     1
 62
     5
 63
     8
421
  8421504
176
     1
 74
     1
176
     1
 91
        4
176
     1
 64
     7
176
     1
 65
   257
176
     1
 75
     1
176
     1
175
     1
176
     1
 42
1.0
176
     1
 92
        8
176
     1
 66
     8
424
  8421504
176
     1
 43
1.0
176
     1
 76
     1
176
     1
 77
     6
176
     1
 78
     2
176
     1
 67
     7
176
     1
 79
     5
176
     1
170
     0
176
     1
171
     0
176
     1
290
     0
176
     1
 93
        1
176
     1
 44
0.0
176
     1
173
     0
176
     1
  0
VISUALSTYLE
  5
34
102
{ACAD_REACTORS
330
2A
102
}
330
2A
100
AcDbVisualStyle
  2
Conceptual
 70
     9
177
     2
291
     0
 71
     3
176
     1
 72
     2
176
     1
 73
     0
176
     1
 90
        0
176
     1
 40
-0.6
176
     1
 41
-30.0
176
     1
 62
     5
 63
     7
421
 16777215
176
     1
 74
     2
176
     1
 91
        2
176
     1
 64
     7
176
     1
 65
   257
176
     1
 75
     1
176
     1
175
     1
176
     1
 42
40.0
176
     1
 92
        8
176
     1
 66
     7
176
     1
 43
1.0
176
     1
 76
     1
176
     1
 77
     6
176
     1
 78
     2
176
     1
 67
     7
176
     1
 79
     3
176
     1
170
     0
176
     1
171
     0
176
     1
290
     0
176
     1
 93
        1
176
     1
 44
0.0
176
     1
173
     0
176
     1
  0
VISUALSTYLE
  5
35
102
{ACAD_REACTORS
330
2A
102
}
330
2A
100
AcDbVisualStyle
  2
Dim
 70
    11
177
     2
291
     1
 71
     2
176
     1
 72
     2
176
     1
 73
     0
176
     1
 90
        0
176
     1
 40
-0.6
176
     1
 41
-30.0
176
     1
 62
     5
 63
     7
421
 16777215
176
     1
 74
     1
176
     1
 91
        4
176
     1
 64
     7
176
     1
 65
   257
176
     1
 75
     1
176
     1
175
     1
176
     1
 42
1.0
176
     1
 92
        8
176
     1
 66
     7
176
     1
 43
1.0
176
     1
 76
     1
176
     1
 77
     6
176
     1
 78
     2
176
     1
 67
     7
176
     1
 79
     5
176
     1
170
     0
176
     1
171
     0
176
     1
290
     0
176
     1
 93
        1
176
     1
 44
-50.0
176
     1
173
     0
176
     1
  0
VISUALSTYLE
  5
39
102
{ACAD_REACTORS
330
2A
102
}
330
2A
100
AcDbVisualStyle
  2
Facepattern
 70
    15
177
     2
291
     1
 71
     2
176
     1
 72
     2
176
     1
 73
     0
176
     1
 90
        0
176
     1
 40
-0.6
176
     1
 41
-30.0
176
     1
 62
     5
 63
     7
421
 16777215
176
     1
 74
     1
176
     1
 91
        4
176
     1
 64
     7
176
     1
 65
   257
176
     1
 75
     1
176
     1
175
     1
176
     1
 42
1.0
176
     1
 92
        8
176
     1
 66
     7
176
     1
 43
1.0
176
     1
 76
     1
176
     1
 77
     6
176
     1
 78
     2
176
     1
 67
     7
176
     1
 79
     5
176
     1
170
     0
176
     1
171
     0
176
     1
290
     0
176
     1
 93
        1
176
     1
 44
0.0
176
     1
173
     0
176
     1
  0
VISUALSTYLE
  5
2B
102
{ACAD_REACTORS
330
2A
102
}
330
2A
100
AcDbVisualStyle
  2
Flat
 70
     0
177
     2
291
     1
 71
     2
176
     1
 72
     1
176
     1
 73
     1
176
     1
 90
        2
176
     1
 40
-0.6
176
     1
 41
30.0
176
     1
 62
     5
 63
     7
421
 16777215
176
     1
 74
     0
176
     1
 91
        4
176
     1
 64
     7
176
     1
 65
   257
176
     1
 75
     1
176
     1
175
     1
176
     1
 42
1.0
176
     1
 92
        8
176
     1
 66
     7
176
     1
 43
1.0
176
     1
 76
     1
176
     1
 77
     6
176
     1
 78
     2
176
     1
 67
     7
176
     1
 79
     5
176
     1
170
     0
176
     1
171
     0
176
     1
290
     0
176
     1
 93
       13
176
     1
 44
0.0
176
     1
173
     0
176
     1
  0
VISUALSTYLE
  5
2C
102
{ACAD_REACTORS
330
2A
102
}
330
2A
100
AcDbVisualStyle
  2
FlatWithEdges
 70
     1
177
     2
291
     1
 71
     2
176
     1
 72
     1
176
     1
 73
     1
176
     1
 90
        2
176
     1
 40
-0.6
176
     1
 41
30.0
176
     1
 62
     5
 63
     7
421
 16777215
176
     1
 74
     1
176
     1
 91
        4
176
     1
 64
     7
176
     1
 65
   257
176
     1
 75
     1
176
     1
175
     1
176
     1
 42
1.0
176
     1
 92
        0
176
     1
 66
   257
176
     1
 43
1.0
176
     1
 76
     1
176
     1
 77
     6
176
     1
 78
     2
176
     1
 67
     7
176
     1
 79
     5
176
     1
170
     0
176
     1
171
     0
176
     1
290
     0
176
     1
 93
       13
176
     1
 44
0.0
176
     1
173
     0
176
     1
  0
VISUALSTYLE
  5
2D
102
{ACAD_REACTORS
330
2A
102
}
330
2A
100
AcDbVisualStyle
  2
Gouraud
 70
     2
177
     2
291
     1
 71
     2
176
     1
 72
     2
176
     1
 73
     1
176
     1
 90
        2
176
     1
 40
-0.6
176
     1
 41
30.0
176
     1
 62
     5
 63
     7
421
 16777215
176
     1
 74
     0
176
     1
 91
        4
176
     1
 64
     7
176
     1
 65
   257
176
     1
 75
     1
176
     1
175
     1
176
     1
 42
1.0
176
     1
 92
        0
176
     1
 66
     7
176
     1
 43
1.0
176
     1
 76
     1
176
     1
 77
     6
176
     1
 78
     2
176
     1
 67
     7
176
     1
 79
     5
176
     1
170
     0
176
     1
171
     0
176
     1
290
     0
176
     1
 93
       13
176
     1
 44
0.0
176
     1
173
     0
176
     1
  0
VISUALSTYLE
  5
2E
102
{ACAD_REACTORS
330
2A
102
}
330
2A
100
AcDbVisualStyle
  2
GouraudWithEdges
 70
     3
177
     2
291
     1
 71
     2
176
     1
 72
     2
176
     1
 73
     1
176
     1
 90
        2
176
     1
 40
-0.6
176
     1
 41
30.0
176
     1
 62
     5
 63
     7
421
 16777215
176
     1
 74
     1
176
     1
 91
        4
176
     1
 64
     7
176
     1
 65
   257
176
     1
 75
     1
176
     1
175
     1
176
     1
 42
1.0
176
     1
 92
        0
176
     1
 66
   257
176
     1
 43
1.0
176
     1
 76
     1
176
     1
 77
     6
176
     1
 78
     2
176
     1
 67
     7
176
     1
 79
     5
176
     1
170
     0
176
     1
171
     0
176
     1
290
     0
176
     1
 93
       13
176
     1
 44
0.0
176
     1
173
     0
176
     1
  0
VISUALSTYLE
  5
38
102
{ACAD_REACTORS
330
2A
102
}
330
2A
100
AcDbVisualStyle
  2
Linepattern
 70
    14
177
     2
291
     1
 71
     2
176
     1
 72
     2
176
     1
 73
     0
176
     1
 90
        0
176
     1
 40
-0.6
176
     1
 41
-30.0
176
     1
 62
     5
 63
     7
421
 16777215
176
     1
 74
     1
176
     1
 91
        4
176
     1
 64
     7
176
     1
 65
   257
176
     1
 75
     7
176
     1
175
     7
176
     1
 42
1.0
176
     1
 92
        8
176
     1
 66
     7
176
     1
 43
1.0
176
     1
 76
     1
176
     1
 77
     6
176
     1
 78
     2
176
     1
 67
     7
176
     1
 79
     5
176
     1
170
     0
176
     1
171
     0
176
     1
290
     0
176
     1
 93
        1
176
     1
 44
0.0
176
     1
173
     0
176
     1
  0
VISUALSTYLE
  5
33
102
{ACAD_REACTORS
330
2A
102
}
330
2A
100
AcDbVisualStyle
  2
Realistic
 70
     8
177
     2
291
     0
 71
     2
176
     1
 72
     2
176
     1
 73
     0
176
     1
 90
        0
176
     1
 40
-0.6
176
     1
 41
-30.0
176
     1
 62
     5
 63
     7
421
 16777215
176
     1
 74
     1
176
     1
 91
        0
176
     1
 64
     7
176
     1
 65
   257
176
     1
 75
     1
176
     1
175
     1
176
     1
 42
1.0
176
     1
 92
        8
176
     1
 66
     8
424
  7895160
176
     1
 43
1.0
176
     1
 76
     1
176
     1
 77
     6
176
     1
 78
     2
176
     1
 67
     7
176
     1
 79
     5
176
     1
170
     0
176
     1
171
     0
176
     1
290
     0
176
     1
 93
       13
176
     1
 44
0.0
176
     1
173
     0
176
     1
  0
VISUALSTYLE
  5
37
102
{ACAD_REACTORS
330
2A
102
}
330
2A
100
AcDbVisualStyle
  2
Thicken
 70
    13
177
     2
291
     1
 71
     2
176
     1
 72
     2
176
     1
 73
     0
176
     1
 90
        0
176
     1
 40
-0.6
176
     1
 41
-30.0
176
     1
 62
     5
 63
     7
421
 16777215
176
     1
 74
     1
176
     1
 91
        4
176
     1
 64
     7
176
     1
 65
   257
176
     1
 75
     1
176
     1
175
     1
176
     1
 42
1.0
176
     1
 92
       12
176
     1
 66
     7
176
     1
 43
1.0
176
     1
 76
     1
176
     1
 77
     6
176
     1
 78
     2
176
     1
 67
     7
176
     1
 79
     5
176
     1
170
     0
176
     1
171
     0
176
     1
290
     0
176
     1
 93
        1
176
     1
 44
0.0
176
     1
173
     0
176
     1
  0
ENDSEC
  0
EOF
