  0
SECTION
  2
HEADER
  9
$ACADVER
  1
AC1024
  9
$ACADMAINTVER
 70
     6
  9
$DWGCODEPAGE
  3
UNDEFINED
  9
$INSBASE
 10
0.0
 20
0.0
 30
0.0
  9
$EXTMIN
 10
1.000000000000000E+20
 20
1.000000000000000E+20
 30
1.000000000000000E+20
  9
$EXTMAX
 10
-1.000000000000000E+20
 20
-1.000000000000000E+20
 30
-1.000000000000000E+20
  9
$LIMMIN
 10
0.0
 20
0.0
  9
$LIMMAX
 10
12.0
 20
9.0
  9
$ORTHOMODE
 70
     0
  9
$REGENMODE
 70
     1
  9
$FILLMODE
 70
     1
  9
$QTEXTMODE
 70
     0
  9
$MIRRTEXT
 70
     1
  9
$LTSCALE
 40
1.0
  9
$ATTMODE
 70
     1
  9
$TEXTSIZE
 40
0.2
  9
$TRACEWID
 40
0.05
  9
$TEXTSTYLE
  7
Standard
  9
$CLAYER
  8
0
  9
$CELTYPE
  6
ByLayer
  9
$CECOLOR
 62
   256
  9
$CELTSCALE
 40
1.0
  9
$DISPSILH
 70
     0
  9
$DIMSCALE
 40
1.0
  9
$DIMASZ
 40
0.18
  9
$DIMEXO
 40
0.0625
  9
$DIMDLI
 40
0.38
  9
$DIMRND
 40
0.0
  9
$DIMDLE
 40
0.0
  9
$DIMEXE
 40
0.18
  9
$DIMTP
 40
0.0
  9
$DIMTM
 40
0.0
  9
$DIMTXT
 40
0.18
  9
$DIMCEN
 40
0.09
  9
$DIMTSZ
 40
0.0
  9
$DIMTOL
 70
     0
  9
$DIMLIM
 70
     0
  9
$DIMTIH
 70
     1
  9
$DIMTOH
 70
     1
  9
$DIMSE1
 70
     0
  9
$DIMSE2
 70
     0
  9
$DIMTAD
 70
     0
  9
$DIMZIN
 70
     0
  9
$DIMBLK
  1

  9
$DIMASO
 70
     1
  9
$DIMSHO
 70
     1
  9
$DIMPOST
  1

  9
$DIMAPOST
  1

  9
$DIMALT
 70
     0
  9
$DIMALTD
 70
     2
  9
$DIMALTF
 40
25.4
  9
$DIMLFAC
 40
1.0
  9
$DIMTOFL
 70
     0
  9
$DIMTVP
 40
0.0
  9
$DIMTIX
 70
     0
  9
$DIMSOXD
 70
     0
  9
$DIMSAH
 70
     0
  9
$DIMBLK1
  1

  9
$DIMBLK2
  1

  9
$DIMSTYLE
  2
Standard
  9
$DIMCLRD
 70
     0
  9
$DIMCLRE
 70
     0
  9
$DIMCLRT
 70
     0
  9
$DIMTFAC
 40
1.0
  9
$DIMGAP
 40
0.09
  9
$DIMJUST
 70
     0
  9
$DIMSD1
 70
     0
  9
$DIMSD2
 70
     0
  9
$DIMTOLJ
 70
     1
  9
$DIMTZIN
 70
     0
  9
$DIMALTZ
 70
     0
  9
$DIMALTTZ
 70
     0
  9
$DIMUPT
 70
     0
  9
$DIMDEC
 70
     4
  9
$DIMTDEC
 70
     4
  9
$DIMALTU
 70
     2
  9
$DIMALTTD
 70
     2
  9
$DIMTXSTY
  7
Standard
  9
$DIMAUNIT
 70
     0
  9
$DIMADEC
 70
     0
  9
$DIMALTRND
 40
0.0
  9
$DIMAZIN
 70
     0
  9
$DIMDSEP
 70
    46
  9
$DIMATFIT
 70
     3
  9
$DIMFRAC
 70
     0
  9
$DIMLDRBLK
  1

  9
$DIMLUNIT
 70
     2
  9
$DIMLWD
 70
    -2
  9
$DIMLWE
 70
    -2
  9
$DIMTMOVE
 70
     0
  9
$DIMFXL
 40
1.0
  9
$DIMFXLON
 70
     0
  9
$DIMJOGANG
 40
0.7853981633974483
  9
$DIMTFILL
 70
     0
  9
$DIMTFILLCLR
 70
     0
  9
$DIMARCSYM
 70
     0
  9
$DIMLTYPE
  6

  9
$DIMLTEX1
  6

  9
$DIMLTEX2
  6

  9
$DIMTXTDIRECTION
 70
     0
  9
$LUNITS
 70
     2
  9
$LUPREC
 70
     4
  9
$SKETCHINC
 40
0.1
  9
$FILLETRAD
 40
0.5
  9
$AUNITS
 70
     0
  9
$AUPREC
 70
     0
  9
$MENU
  1
.
  9
$ELEVATION
 40
0.0
  9
$PELEVATION
 40
0.0
  9
$THICKNESS
 40
0.0
  9
$LIMCHECK
 70
     0
  9
$CHAMFERA
 40
0.5
  9
$CHAMFERB
 40
0.5
  9
$CHAMFERC
 40
1.0
  9
$CHAMFERD
 40
0.0
  9
$SKPOLY
 70
     0
  9
$TDCREATE
 40
2458270.587800926
  9
$TDUCREATE
 40
2458270.212800926
  9
$TDUPDATE
 40
2458270.587800926
  9
$TDUUPDATE
 40
2458270.212800926
  9
$TDINDWG
 40
0.0000000116
  9
$TDUSRTIMER
 40
0.0000000116
  9
$USRTIMER
 70
     1
  9
$ANGBASE
 50
0.0
  9
$ANGDIR
 70
     0
  9
$PDMODE
 70
     0
  9
$PDSIZE
 40
0.0
  9
$PLINEWID
 40
0.0
  9
$SPLFRAME
 70
     0
  9
$SPLINETYPE
 70
     6
  9
$SPLINESEGS
 70
     8
  9
$HANDSEED
  5
222
  9
$SURFTAB1
 70
     6
  9
$SURFTAB2
 70
     6
  9
$SURFTYPE
 70
     6
  9
$SURFU
 70
     6
  9
$SURFV
 70
     6
  9
$UCSBASE
  2

  9
$UCSNAME
  2

  9
$UCSORG
 10
0.0
 20
0.0
 30
0.0
  9
$UCSXDIR
 10
1.0
 20
0.0
 30
0.0
  9
$UCSYDIR
 10
0.0
 20
1.0
 30
0.0
  9
$UCSORTHOREF
  2

  9
$UCSORTHOVIEW
 70
     0
  9
$UCSORGTOP
 10
0.0
 20
0.0
 30
0.0
  9
$UCSORGBOTTOM
 10
0.0
 20
0.0
 30
0.0
  9
$UCSORGLEFT
 10
0.0
 20
0.0
 30
0.0
  9
$UCSORGRIGHT
 10
0.0
 20
0.0
 30
0.0
  9
$UCSORGFRONT
 10
0.0
 20
0.0
 30
0.0
  9
$UCSORGBACK
 10
0.0
 20
0.0
 30
0.0
  9
$PUCSBASE
  2

  9
$PUCSNAME
  2

  9
$PUCSORG
 10
0.0
 20
0.0
 30
0.0
  9
$PUCSXDIR
 10
1.0
 20
0.0
 30
0.0
  9
$PUCSYDIR
 10
0.0
 20
1.0
 30
0.0
  9
$PUCSORTHOREF
  2

  9
$PUCSORTHOVIEW
 70
     0
  9
$PUCSORGTOP
 10
0.0
 20
0.0
 30
0.0
  9
$PUCSORGBOTTOM
 10
0.0
 20
0.0
 30
0.0
  9
$PUCSORGLEFT
 10
0.0
 20
0.0
 30
0.0
  9
$PUCSORGRIGHT
 10
0.0
 20
0.0
 30
0.0
  9
$PUCSORGFRONT
 10
0.0
 20
0.0
 30
0.0
  9
$PUCSORGBACK
 10
0.0
 20
0.0
 30
0.0
  9
$USERI1
 70
     0
  9
$USERI2
 70
     0
  9
$USERI3
 70
     0
  9
$USERI4
 70
     0
  9
$USERI5
 70
     0
  9
$USERR1
 40
0.0
  9
$USERR2
 40
0.0
  9
$USERR3
 40
0.0
  9
$USERR4
 40
0.0
  9
$USERR5
 40
0.0
  9
$WORLDVIEW
 70
     1
  9
$SHADEDGE
 70
     3
  9
$SHADEDIF
 70
    70
  9
$TILEMODE
 70
     1
  9
$MAXACTVP
 70
    64
  9
$PINSBASE
 10
0.0
 20
0.0
 30
0.0
  9
$PLIMCHECK
 70
     0
  9
$PEXTMIN
 10
1.000000000000000E+20
 20
1.000000000000000E+20
 30
1.000000000000000E+20
  9
$PEXTMAX
 10
-1.000000000000000E+20
 20
-1.000000000000000E+20
 30
-1.000000000000000E+20
  9
$PLIMMIN
 10
0.0
 20
0.0
  9
$PLIMMAX
 10
12.0
 20
9.0
  9
$UNITMODE
 70
     0
  9
$VISRETAIN
 70
     1
  9
$PLINEGEN
 70
     0
  9
$PSLTSCALE
 70
     1
  9
$TREEDEPTH
 70
  3020
  9
$CMLSTYLE
  2
Standard
  9
$CMLJUST
 70
     0
  9
$CMLSCALE
 40
1.0
  9
$PROXYGRAPHICS
 70
     1
  9
$MEASUREMENT
 70
     0
  9
$CELWEIGHT
370
    -1
  9
$ENDCAPS
280
     0
  9
$JOINSTYLE
280
     0
  9
$LWDISPLAY
290
     1
  9
$INSUNITS
 70
     1
  9
$HYPERLINKBASE
  1

  9
$STYLESHEET
  1

  9
$XEDIT
290
     1
  9
$CEPSNTYPE
380
     0
  9
$PSTYLEMODE
290
     1
  9
$FINGERPRINTGUID
  2
{23D8FC0D-E377-ACFB-9C97-BD3E2F13EDDB}
  9
$VERSIONGUID
  2
{FAEB1C32-E019-11D5-929B-00C0DF256EC4}
  9
$EXTNAMES
290
     1
  9
$PSVPSCALE
 40
0.0
  9
$OLESTARTUP
290
     0
  9
$SORTENTS
280
   127
  9
$INDEXCTL
280
     0
  9
$HIDETEXT
280
     1
  9
$XCLIPFRAME
280
     2
  9
$HALOGAP
280
     0
  9
$OBSCOLOR
 70
   257
  9
$OBSLTYPE
280
     0
  9
$INTERSECTIONDISPLAY
280
     0
  9
$INTERSECTIONCOLOR
 70
   257
  9
$DIMASSOC
280
     2
  9
$PROJECTNAME
  1

  9
$CAMERADISPLAY
290
     0
  9
$LENSLENGTH
 40
50.0
  9
$CAMERAHEIGHT
 40
0.0
  9
$STEPSPERSEC
 40
2.0
  9
$STEPSIZE
 40
6.0
  9
$3DDWFPREC
 40
2.0
  9
$PSOLWIDTH
 40
0.25
  9
$PSOLHEIGHT
 40
4.0
  9
$LOFTANG1
 40
1.570796326794897
  9
$LOFTANG2
 40
1.570796326794897
  9
$LOFTMAG1
 40
0.0
  9
$LOFTMAG2
 40
0.0
  9
$LOFTPARAM
 70
     7
  9
$LOFTNORMALS
280
     1
  9
$LATITUDE
 40
37.795
  9
$LONGITUDE
 40
-122.394
  9
$NORTHDIRECTION
 40
0.0
  9
$TIMEZONE
 70
 -8000
  9
$LIGHTGLYPHDISPLAY
280
     1
  9
$TILEMODELIGHTSYNCH
280
     1
  9
$CMATERIAL
347
3C
  9
$SOLIDHIST
280
     1
  9
$SHOWHIST
280
     1
  9
$DWFFRAME
280
     2
  9
$DGNFRAME
280
     2
  9
$REALWORLDSCALE
290
     1
  9
$INTERFERECOLOR
 62
   256
  9
$CSHADOW
280
     0
  9
$SHADOWPLANELOCATION
 40
0.0
  0
ENDSEC
  0
SECTION
  2
CLASSES
  0
CLASS
  1
ACDBDICTIONARYWDFLT
  2
AcDbDictionaryWithDefault
  3
ObjectDBX Classes
 90
        0
 91
        4
280
     0
281
     0
  0
CLASS
  1
VISUALSTYLE
  2
AcDbVisualStyle
  3
ObjectDBX Classes
 90
     4095
 91
        4
280
     0
281
     0
  0
CLASS
  1
MATERIAL
  2
AcDbMaterial
  3
ObjectDBX Classes
 90
     1153
 91
        4
280
     0
281
     0
  0
CLASS
  1
SUN
  2
AcDbSun
  3
SCENEOE
 90
     1024
 91
        4
280
     0
281
     0
  0
ENDSEC
  0
SECTION
  2
TABLES
  0
TABLE
  2
VPORT
  5
8
330
0
100
AcDbSymbolTable
 70
     1
  0
VPORT
  5
29
330
8
100
AcDbSymbolTableRecord
100
AcDbViewportTableRecord
  2
*Active
 70
     0
 10
0.0
 20
0.0
 11
1.0
 21
1.0
 12
0.0
 22
0.0
 13
0.0
 23
0.0
 14
0.5
 24
0.5
 15
0.5
 25
0.5
 16
0.0
 26
0.0
 36
1.0
 17
105.0007777515277
 27
-148.5000416295416
 37
0.0
 40
297.0000832590831
 41
0.7070757462376333
 42
50.0
 43
0.0
 44
0.0
 50
0.0
 51
0.0
 71
     0
 72
   100
 73
     1
 74
     3
 75
     0
 76
     0
 77
     0
 78
     0
281
     0
 65
     1
110
0.0
120
0.0
130
0.0
111
1.0
121
0.0
131
0.0
112
0.0
122
1.0
132
0.0
 79
     0
146
0.0
 60
     3
 61
     5
292
     1
282
     1
141
0.0
142
0.0
 63
   250
361
3F
  0
ENDTAB
  0
TABLE
  2
LTYPE
  5
5
330
0
100
AcDbSymbolTable
 70
     3
  0
LTYPE
  5
14
330
5
100
AcDbSymbolTableRecord
100
AcDbLinetypeTableRecord
  2
ByBlock
 70
     0
  3

 72
    65
 73
     0
 40
0.0
  0
LTYPE
  5
15
330
5
100
AcDbSymbolTableRecord
100
AcDbLinetypeTableRecord
  2
ByLayer
 70
     0
  3

 72
    65
 73
     0
 40
0.0
  0
LTYPE
  5
16
330
5
100
AcDbSymbolTableRecord
100
AcDbLinetypeTableRecord
  2
Continuous
 70
     0
  3
Solid line
 72
    65
 73
     0
 40
0.0
  0
LTYPE
  5
193
330
5
100
AcDbSymbolTableRecord
100
AcDbLinetypeTableRecord
  2
AI-Linetype-1
 70
     0
  3
Adobe Illustrator Linetype No. 1
 72
    65
 73
     2
 40
1.411111110758333
 49
0.7055555553791667
 74
     0
 49
-0.7055555553791667
 74
     0
  0
LTYPE
  5
1C4
330
5
100
AcDbSymbolTableRecord
100
AcDbLinetypeTableRecord
  2
AI-Linetype-2
 70
     0
  3
Adobe Illustrator Linetype No. 2
 72
    65
 73
     2
 40
1.411111110758333
 49
0.7055555553791667
 74
     0
 49
-0.7055555553791667
 74
     0
  0
ENDTAB
  0
TABLE
  2
LAYER
  5
2
330
0
100
AcDbSymbolTable
 70
     2
  0
LAYER
  5
10
330
2
100
AcDbSymbolTableRecord
100
AcDbLayerTableRecord
  2
0
 70
     0
 62
     7
  6
Continuous
370
    -3
390
F
347
3E
  0
LAYER
  5
40
330
2
100
AcDbSymbolTableRecord
100
AcDbLayerTableRecord
  2
_U+30EC_U+30A4_U+30E4_U+30FC 1
 70
     0
 62
     7
  6
Continuous
370
    -3
390
F
347
3E
  0
ENDTAB
  0
TABLE
  2
STYLE
  5
3
330
0
100
AcDbSymbolTable
 70
     1
  0
STYLE
  5
11
330
3
100
AcDbSymbolTableRecord
100
AcDbTextStyleTableRecord
  2
Standard
 70
     0
 40
0.0
 41
1.0
 50
0.0
 71
     0
 42
0.2
  3
txt
  4

  0
ENDTAB
  0
TABLE
  2
VIEW
  5
6
330
0
100
AcDbSymbolTable
 70
     0
  0
ENDTAB
  0
TABLE
  2
UCS
  5
7
330
0
100
AcDbSymbolTable
 70
     0
  0
ENDTAB
  0
TABLE
  2
APPID
  5
9
330
0
100
AcDbSymbolTable
 70
     1
  0
APPID
  5
12
330
9
100
AcDbSymbolTableRecord
100
AcDbRegAppTableRecord
  2
ACAD
 70
     0
  0
ENDTAB
  0
TABLE
  2
DIMSTYLE
  5
A
330
0
100
AcDbSymbolTable
 70
     1
100
AcDbDimStyleTable
  0
DIMSTYLE
105
27
330
A
100
AcDbSymbolTableRecord
100
AcDbDimStyleTableRecord
  2
Standard
 70
     0
178
     0
340
11
  0
ENDTAB
  0
TABLE
  2
BLOCK_RECORD
  5
1
330
0
100
AcDbSymbolTable
 70
     7
  0
BLOCK_RECORD
  5
1F
330
1
100
AcDbSymbolTableRecord
100
AcDbBlockTableRecord
  2
*Model_Space
340
22
 70
     0
280
     1
281
     0
  0
BLOCK_RECORD
  5
1B
330
1
100
AcDbSymbolTableRecord
100
AcDbBlockTableRecord
  2
*Paper_Space
340
1E
 70
     0
280
     1
281
     0
  0
BLOCK_RECORD
  5
23
330
1
100
AcDbSymbolTableRecord
100
AcDbBlockTableRecord
  2
*Paper_Space0
340
26
 70
     0
280
     1
281
     0
  0
BLOCK_RECORD
  5
4F
330
1
100
AcDbSymbolTableRecord
100
AcDbBlockTableRecord
  2
block 2
340
0
102
{BLKREFS
331
50
102
}
 70
     0
280
     1
281
     0
  0
BLOCK_RECORD
  5
E1
330
1
100
AcDbSymbolTableRecord
100
AcDbBlockTableRecord
  2
block 3
340
0
102
{BLKREFS
331
E2
102
}
 70
     0
280
     1
281
     0
  0
BLOCK_RECORD
  5
F8
330
1
100
AcDbSymbolTableRecord
100
AcDbBlockTableRecord
  2
block 4
340
0
102
{BLKREFS
331
F9
102
}
 70
     0
280
     1
281
     0
  0
BLOCK_RECORD
  5
10B
330
1
100
AcDbSymbolTableRecord
100
AcDbBlockTableRecord
  2
block 5
340
0
102
{BLKREFS
331
10C
102
}
 70
     0
280
     1
281
     0
  0
BLOCK_RECORD
  5
130
330
1
100
AcDbSymbolTableRecord
100
AcDbBlockTableRecord
  2
block 6
340
0
102
{BLKREFS
331
131
102
}
 70
     0
280
     1
281
     0
  0
BLOCK_RECORD
  5
199
330
1
100
AcDbSymbolTableRecord
100
AcDbBlockTableRecord
  2
block 7
340
0
102
{BLKREFS
331
19A
102
}
 70
     0
280
     1
281
     0
  0
ENDTAB
  0
ENDSEC
  0
SECTION
  2
BLOCKS
  0
BLOCK
  5
20
330
1F
100
AcDbEntity
  8
0
100
AcDbBlockBegin
  2
*Model_Space
 70
     0
 10
0.0
 20
0.0
 30
0.0
  3
*Model_Space
  1

  0
ENDBLK
  5
21
330
1F
100
AcDbEntity
  8
0
100
AcDbBlockEnd
  0
BLOCK
  5
1C
330
1B
100
AcDbEntity
 67
     1
  8
0
100
AcDbBlockBegin
  2
*Paper_Space
 70
     0
 10
0.0
 20
0.0
 30
0.0
  3
*Paper_Space
  1

  0
ENDBLK
  5
1D
330
1B
100
AcDbEntity
 67
     1
  8
0
100
AcDbBlockEnd
  0
BLOCK
  5
24
330
23
100
AcDbEntity
  8
0
100
AcDbBlockBegin
  2
*Paper_Space0
 70
     0
 10
0.0
 20
0.0
 30
0.0
  3
*Paper_Space0
  1

  0
ENDBLK
  5
25
330
23
100
AcDbEntity
  8
0
100
AcDbBlockEnd
  0
BLOCK
  5
51
330
4F
100
AcDbEntity
  8
0
100
AcDbBlockBegin
  2
block 2
 70
     0
 10
0.0
 20
0.0
 30
0.0
  3
block 2
  1

  0
SPLINE
  5
53
330
4F
100
AcDbEntity
  8
_U+30EC_U+30A4_U+30E4_U+30FC 1
370
     0
100
AcDbSpline
210
0.0
220
0.0
230
1.0
 70
    11
 71
     3
 72
    44
 73
    40
 74
     0
 42
0.0000000001
 43
0.0000000001
 12
1.0
 22
0.0
 32
0.0
 13
1.0
 23
0.0
 33
0.0
 40
0.0
 40
0.0
 40
0.0
 40
0.0
 40
1.0
 40
1.0
 40
1.0
 40
2.0
 40
2.0
 40
2.0
 40
3.0
 40
3.0
 40
3.0
 40
4.0
 40
4.0
 40
4.0
 40
5.0
 40
5.0
 40
5.0
 40
6.0
 40
6.0
 40
6.0
 40
7.0
 40
7.0
 40
7.0
 40
8.0
 40
8.0
 40
8.0
 40
9.0
 40
9.0
 40
9.0
 40
10.0
 40
10.0
 40
10.0
 40
11.0
 40
11.0
 40
11.0
 40
12.0
 40
12.0
 40
12.0
 40
13.0
 40
13.0
 40
13.0
 40
13.0
 10
88.13191593933855
 20
-162.1882052545918
 30
0.0
 10
87.9140136498965
 20
-162.3466796469133
 30
0.0
 10
87.8208238170205
 20
-162.4207491998462
 30
0.0
 10
87.77224797067846
 20
-162.5647541911297
 30
0.0
 10
87.77224797067846
 20
-162.5647541911297
 30
0.0
 10
88.55066729557068
 20
-162.5647541911297
 30
0.0
 10
88.55066729557068
 20
-162.5647541911297
 30
0.0
 10
88.55066729557068
 20
-162.5647541911297
 30
0.0
 10
88.55066729557068
 20
-162.769737372502
 30
0.0
 10
88.55066729557068
 20
-162.769737372502
 30
0.0
 10
88.55066729557068
 20
-162.769737372502
 30
0.0
 10
87.52265080277212
 20
-162.769737372502
 30
0.0
 10
87.52265080277212
 20
-162.769737372502
 30
0.0
 10
87.55434568123641
 20
-162.4121364611331
 30
0.0
 10
87.61980249545617
 20
-162.3339327936179
 30
0.0
 10
88.0049641707071
 20
-162.0355875245953
 30
0.0
 10
88.26093476526115
 20
-161.8368055150964
 30
0.0
 10
88.32639157948091
 20
-161.7692816435855
 30
0.0
 10
88.32639157948091
 20
-161.631822333724
 30
0.0
 10
88.32639157948091
 20
-161.5133110490314
 30
0.0
 10
88.25456133861344
 20
-161.3820529110434
 30
0.0
 10
88.05784638640569
 20
-161.3820529110434
 30
0.0
 10
87.79756942249506
 20
-161.3820529110434
 30
0.0
 10
87.78912893855619
 20
-161.6125297990066
 30
0.0
 10
87.78482256919963
 20
-161.7289740264081
 30
0.0
 10
87.78482256919963
 20
-161.7289740264081
 30
0.0
 10
87.56071910788413
 20
-161.7289740264081
 30
0.0
 10
87.56071910788413
 20
-161.7289740264081
 30
0.0
 10
87.569159591823
 20
-161.6021945125509
 30
0.0
 10
87.57966713305301
 20
-161.4898843997317
 30
0.0
 10
87.66011011263359
 20
-161.3713731150391
 30
0.0
 10
87.77000865861305
 20
-161.2108316654265
 30
0.0
 10
87.95621606959081
 20
-161.1767252201225
 30
0.0
 10
88.07266029699225
 20
-161.1767252201225
 30
0.0
 10
88.3498182287806
 20
-161.1767252201225
 30
0.0
 10
88.55704072221839
 20
-161.3610378285834
 30
0.0
 10
88.55704072221839
 20
-161.6338893910151
 30
0.0
 10
88.55704072221839
 20
-161.8622992216872
 30
0.0
 10
88.4407687495912
 20
-161.9618624812109
 30
0.0
 10
88.13191593933855
 20
-162.1882052545918
 30
0.0
  0
HATCH
  5
54
330
4F
100
AcDbEntity
  8
_U+30EC_U+30A4_U+30E4_U+30FC 1
 62
   179
420
  2234388
100
AcDbHatch
 10
0.0
 20
0.0
 30
0.0
210
0.0
220
0.0
230
1.0
  2
SOLID
 70
     1
 71
     0
 91
        1
 92
        1
 93
        1
 72
     4
 94
        3
 73
     0
 74
     1
 95
       44
 96
       40
 40
0.0
 40
0.0
 40
0.0
 40
0.0
 40
1.0
 40
1.0
 40
1.0
 40
2.0
 40
2.0
 40
2.0
 40
3.0
 40
3.0
 40
3.0
 40
4.0
 40
4.0
 40
4.0
 40
5.0
 40
5.0
 40
5.0
 40
6.0
 40
6.0
 40
6.0
 40
7.0
 40
7.0
 40
7.0
 40
8.0
 40
8.0
 40
8.0
 40
9.0
 40
9.0
 40
9.0
 40
10.0
 40
10.0
 40
10.0
 40
11.0
 40
11.0
 40
11.0
 40
12.0
 40
12.0
 40
12.0
 40
13.0
 40
13.0
 40
13.0
 40
13.0
 10
88.13191593933855
 20
-162.1882052545918
 10
87.9140136498965
 20
-162.3466796469133
 10
87.8208238170205
 20
-162.4207491998462
 10
87.77224797067846
 20
-162.5647541911297
 10
87.77224797067846
 20
-162.5647541911297
 10
88.55066729557068
 20
-162.5647541911297
 10
88.55066729557068
 20
-162.5647541911297
 10
88.55066729557068
 20
-162.5647541911297
 10
88.55066729557068
 20
-162.769737372502
 10
88.55066729557068
 20
-162.769737372502
 10
88.55066729557068
 20
-162.769737372502
 10
87.52265080277212
 20
-162.769737372502
 10
87.52265080277212
 20
-162.769737372502
 10
87.55434568123641
 20
-162.4121364611331
 10
87.61980249545617
 20
-162.3339327936179
 10
88.0049641707071
 20
-162.0355875245953
 10
88.26093476526115
 20
-161.8368055150964
 10
88.32639157948091
 20
-161.7692816435855
 10
88.32639157948091
 20
-161.631822333724
 10
88.32639157948091
 20
-161.5133110490314
 10
88.25456133861344
 20
-161.3820529110434
 10
88.05784638640569
 20
-161.3820529110434
 10
87.79756942249506
 20
-161.3820529110434
 10
87.78912893855619
 20
-161.6125297990066
 10
87.78482256919963
 20
-161.7289740264081
 10
87.78482256919963
 20
-161.7289740264081
 10
87.56071910788413
 20
-161.7289740264081
 10
87.56071910788413
 20
-161.7289740264081
 10
87.569159591823
 20
-161.6021945125509
 10
87.57966713305301
 20
-161.4898843997317
 10
87.66011011263359
 20
-161.3713731150391
 10
87.77000865861305
 20
-161.2108316654265
 10
87.95621606959081
 20
-161.1767252201225
 10
88.07266029699225
 20
-161.1767252201225
 10
88.3498182287806
 20
-161.1767252201225
 10
88.55704072221839
 20
-161.3610378285834
 10
88.55704072221839
 20
-161.6338893910151
 10
88.55704072221839
 20
-161.8622992216872
 10
88.4407687495912
 20
-161.9618624812109
 10
88.13191593933855
 20
-162.1882052545918
 97
        0
 97
        0
 75
     2
 76
     1
 98
        0
  0
ENDBLK
  5
52
330
4F
100
AcDbEntity
  8
0
100
AcDbBlockEnd
  0
BLOCK
  5
E3
330
E1
100
AcDbEntity
  8
0
100
AcDbBlockBegin
  2
block 3
 70
     0
 10
0.0
 20
0.0
 30
0.0
  3
block 3
  1

  0
SPLINE
  5
E5
330
E1
100
AcDbEntity
  8
_U+30EC_U+30A4_U+30E4_U+30FC 1
370
     0
100
AcDbSpline
210
0.0
220
0.0
230
1.0
 70
    11
 71
     3
 72
    44
 73
    40
 74
     0
 42
0.0000000001
 43
0.0000000001
 12
1.0
 22
0.0
 32
0.0
 13
1.0
 23
0.0
 33
0.0
 40
0.0
 40
0.0
 40
0.0
 40
0.0
 40
1.0
 40
1.0
 40
1.0
 40
2.0
 40
2.0
 40
2.0
 40
3.0
 40
3.0
 40
3.0
 40
4.0
 40
4.0
 40
4.0
 40
5.0
 40
5.0
 40
5.0
 40
6.0
 40
6.0
 40
6.0
 40
7.0
 40
7.0
 40
7.0
 40
8.0
 40
8.0
 40
8.0
 40
9.0
 40
9.0
 40
9.0
 40
10.0
 40
10.0
 40
10.0
 40
11.0
 40
11.0
 40
11.0
 40
12.0
 40
12.0
 40
12.0
 40
13.0
 40
13.0
 40
13.0
 40
13.0
 10
102.7461832425426
 20
-132.0315619244574
 30
0.0
 10
102.5282809531006
 20
-132.1902085715531
 30
0.0
 10
102.4350911202246
 20
-132.264278124486
 30
0.0
 10
102.3865152738825
 20
-132.4081108609952
 30
0.0
 10
102.3865152738825
 20
-132.4081108609952
 30
0.0
 10
103.1649345987747
 20
-132.4081108609952
 30
0.0
 10
103.1649345987747
 20
-132.4081108609952
 30
0.0
 10
103.1649345987747
 20
-132.4081108609952
 30
0.0
 10
103.1649345987747
 20
-132.6132662971418
 30
0.0
 10
103.1649345987747
 20
-132.6132662971418
 30
0.0
 10
103.1649345987747
 20
-132.6132662971418
 30
0.0
 10
102.1369181059762
 20
-132.6132662971418
 30
0.0
 10
102.1369181059762
 20
-132.6132662971418
 30
0.0
 10
102.1686129844405
 20
-132.2556653857729
 30
0.0
 10
102.2342420534345
 20
-132.1774617182577
 30
0.0
 10
102.6192314739112
 20
-131.8791164492351
 30
0.0
 10
102.8752020684652
 20
-131.6803344397362
 30
0.0
 10
102.940658882685
 20
-131.612638313451
 30
0.0
 10
102.940658882685
 20
-131.4751790035895
 30
0.0
 10
102.940658882685
 20
-131.3566677188969
 30
0.0
 10
102.8688286418175
 20
-131.2255818356832
 30
0.0
 10
102.6721136896098
 20
-131.2255818356832
 30
0.0
 10
102.4118367256991
 20
-131.2255818356832
 30
0.0
 10
102.4033962417603
 20
-131.4560587236464
 30
0.0
 10
102.3990898724037
 20
-131.5725029510479
 30
0.0
 10
102.3990898724037
 20
-131.5725029510479
 30
0.0
 10
102.1749864110882
 20
-131.5725029510479
 30
0.0
 10
102.1749864110882
 20
-131.5725029510479
 30
0.0
 10
102.1834268950271
 20
-131.4455511824164
 30
0.0
 10
102.1939344362571
 20
-131.3334133243715
 30
0.0
 10
102.2743774158377
 20
-131.2149020396789
 30
0.0
 10
102.3842759618171
 20
-131.054188335292
 30
0.0
 10
102.5704833727949
 20
-131.0202541447623
 30
0.0
 10
102.6869276001963
 20
-131.0202541447623
 30
0.0
 10
102.9640855319847
 20
-131.0202541447623
 30
0.0
 10
103.1713080254225
 20
-131.2043944984489
 30
0.0
 10
103.1713080254225
 20
-131.4772460608807
 30
0.0
 10
103.1713080254225
 20
-131.7056558915528
 30
0.0
 10
103.0550360527953
 20
-131.8052191510765
 30
0.0
 10
102.7461832425426
 20
-132.0315619244574
 30
0.0
  0
HATCH
  5
E6
330
E1
100
AcDbEntity
  8
_U+30EC_U+30A4_U+30E4_U+30FC 1
 62
   179
420
  2234388
100
AcDbHatch
 10
0.0
 20
0.0
 30
0.0
210
0.0
220
0.0
230
1.0
  2
SOLID
 70
     1
 71
     0
 91
        1
 92
        1
 93
        1
 72
     4
 94
        3
 73
     0
 74
     1
 95
       44
 96
       40
 40
0.0
 40
0.0
 40
0.0
 40
0.0
 40
1.0
 40
1.0
 40
1.0
 40
2.0
 40
2.0
 40
2.0
 40
3.0
 40
3.0
 40
3.0
 40
4.0
 40
4.0
 40
4.0
 40
5.0
 40
5.0
 40
5.0
 40
6.0
 40
6.0
 40
6.0
 40
7.0
 40
7.0
 40
7.0
 40
8.0
 40
8.0
 40
8.0
 40
9.0
 40
9.0
 40
9.0
 40
10.0
 40
10.0
 40
10.0
 40
11.0
 40
11.0
 40
11.0
 40
12.0
 40
12.0
 40
12.0
 40
13.0
 40
13.0
 40
13.0
 40
13.0
 10
102.7461832425426
 20
-132.0315619244574
 10
102.5282809531006
 20
-132.1902085715531
 10
102.4350911202246
 20
-132.264278124486
 10
102.3865152738825
 20
-132.4081108609952
 10
102.3865152738825
 20
-132.4081108609952
 10
103.1649345987747
 20
-132.4081108609952
 10
103.1649345987747
 20
-132.4081108609952
 10
103.1649345987747
 20
-132.4081108609952
 10
103.1649345987747
 20
-132.6132662971418
 10
103.1649345987747
 20
-132.6132662971418
 10
103.1649345987747
 20
-132.6132662971418
 10
102.1369181059762
 20
-132.6132662971418
 10
102.1369181059762
 20
-132.6132662971418
 10
102.1686129844405
 20
-132.2556653857729
 10
102.2342420534345
 20
-132.1774617182577
 10
102.6192314739112
 20
-131.8791164492351
 10
102.8752020684652
 20
-131.6803344397362
 10
102.940658882685
 20
-131.612638313451
 10
102.940658882685
 20
-131.4751790035895
 10
102.940658882685
 20
-131.3566677188969
 10
102.8688286418175
 20
-131.2255818356832
 10
102.6721136896098
 20
-131.2255818356832
 10
102.4118367256991
 20
-131.2255818356832
 10
102.4033962417603
 20
-131.4560587236464
 10
102.3990898724037
 20
-131.5725029510479
 10
102.3990898724037
 20
-131.5725029510479
 10
102.1749864110882
 20
-131.5725029510479
 10
102.1749864110882
 20
-131.5725029510479
 10
102.1834268950271
 20
-131.4455511824164
 10
102.1939344362571
 20
-131.3334133243715
 10
102.2743774158377
 20
-131.2149020396789
 10
102.3842759618171
 20
-131.054188335292
 10
102.5704833727949
 20
-131.0202541447623
 10
102.6869276001963
 20
-131.0202541447623
 10
102.9640855319847
 20
-131.0202541447623
 10
103.1713080254225
 20
-131.2043944984489
 10
103.1713080254225
 20
-131.4772460608807
 10
103.1713080254225
 20
-131.7056558915528
 10
103.0550360527953
 20
-131.8052191510765
 10
102.7461832425426
 20
-132.0315619244574
 97
        0
 97
        0
 75
     2
 76
     1
 98
        0
  0
SPLINE
  5
E7
330
E1
100
AcDbEntity
  8
_U+30EC_U+30A4_U+30E4_U+30FC 1
370
     0
100
AcDbSpline
210
0.0
220
0.0
230
1.0
 70
    11
 71
     3
 72
    32
 73
    28
 74
     0
 42
0.0000000001
 43
0.0000000001
 12
1.0
 22
0.0
 32
0.0
 13
1.0
 23
0.0
 33
0.0
 40
0.0
 40
0.0
 40
0.0
 40
0.0
 40
1.0
 40
1.0
 40
1.0
 40
2.0
 40
2.0
 40
2.0
 40
3.0
 40
3.0
 40
3.0
 40
4.0
 40
4.0
 40
4.0
 40
5.0
 40
5.0
 40
5.0
 40
6.0
 40
6.0
 40
6.0
 40
7.0
 40
7.0
 40
7.0
 40
8.0
 40
8.0
 40
8.0
 40
9.0
 40
9.0
 40
9.0
 40
9.0
 10
103.8341443967845
 20
-132.6640814555493
 30
0.0
 10
103.3178968383198
 20
-132.6640814555493
 30
0.0
 10
103.309456354381
 20
-132.1097655919726
 30
0.0
 10
103.309456354381
 20
-131.8961696718871
 30
0.0
 10
103.309456354381
 20
-131.6655205291496
 30
0.0
 10
103.3285766343241
 20
-131.0181870874711
 30
0.0
 10
103.8722127018965
 20
-131.0181870874711
 30
0.0
 10
104.0456732595789
 20
-131.0181870874711
 30
0.0
 10
104.2909640581287
 20
-131.0879502710475
 30
0.0
 10
104.3292046180149
 20
-131.4200574758256
 30
0.0
 10
104.3292046180149
 20
-131.4200574758256
 30
0.0
 10
104.1154364431552
 20
-131.4200574758256
 30
0.0
 10
104.1154364431552
 20
-131.4200574758256
 30
0.0
 10
104.1049289019252
 20
-131.3630411455447
 30
0.0
 10
104.0732340234609
 20
-131.2149020396789
 30
0.0
 10
103.8701456446054
 20
-131.2149020396789
 30
0.0
 10
103.5781738022305
 20
-131.2149020396789
 30
0.0
 10
103.537866185053
 20
-131.5428751298747
 30
0.0
 10
103.5252915865319
 20
-131.7480305660213
 30
0.0
 10
103.6183091646336
 20
-131.6698268985062
 30
0.0
 10
103.6860052909188
 20
-131.6105712561599
 30
0.0
 10
103.86790633254
 20
-131.6105712561599
 30
0.0
 10
104.04774031687
 20
-131.6105712561599
 30
0.0
 10
104.350219700475
 20
-131.7184027448482
 30
0.0
 10
104.350219700475
 20
-132.1245795025591
 30
0.0
 10
104.350219700475
 20
-132.4441121088161
 30
0.0
 10
104.151437690976
 20
-132.6640814555493
 30
0.0
 10
103.8341443967845
 20
-132.6640814555493
 30
0.0
  0
SPLINE
  5
E8
330
E1
100
AcDbEntity
  8
_U+30EC_U+30A4_U+30E4_U+30FC 1
370
     0
100
AcDbSpline
210
0.0
220
0.0
230
1.0
 70
    11
 71
     3
 72
    17
 73
    13
 74
     0
 42
0.0000000001
 43
0.0000000001
 12
1.0
 22
0.0
 32
0.0
 13
1.0
 23
0.0
 33
0.0
 40
0.0
 40
0.0
 40
0.0
 40
0.0
 40
1.0
 40
1.0
 40
1.0
 40
2.0
 40
2.0
 40
2.0
 40
3.0
 40
3.0
 40
3.0
 40
4.0
 40
4.0
 40
4.0
 40
4.0
 10
103.8510253646622
 20
-131.8052191510765
 30
0.0
 10
103.5886813434605
 20
-131.8052191510765
 30
0.0
 10
103.5506130383485
 20
-132.0167480138708
 30
0.0
 10
103.5506130383485
 20
-132.133019986498
 30
0.0
 10
103.5506130383485
 20
-132.3087198562457
 30
0.0
 10
103.6458699285156
 20
-132.4715006179238
 30
0.0
 10
103.829838027428
 20
-132.4715006179238
 30
0.0
 10
103.9504163694117
 20
-132.4715006179238
 30
0.0
 10
104.1261162391594
 20
-132.4122449755775
 30
0.0
 10
104.1261162391594
 20
-132.1266465598503
 30
0.0
 10
104.1261162391594
 20
-131.9025430985348
 30
0.0
 10
103.9864176172326
 20
-131.8052191510765
 30
0.0
 10
103.8510253646622
 20
-131.8052191510765
 30
0.0
  0
HATCH
  5
E9
330
E1
100
AcDbEntity
  8
_U+30EC_U+30A4_U+30E4_U+30FC 1
 62
   179
420
  2234388
100
AcDbHatch
 10
0.0
 20
0.0
 30
0.0
210
0.0
220
0.0
230
1.0
  2
SOLID
 70
     1
 71
     0
 91
        2
 92
        1
 93
        1
 72
     4
 94
        3
 73
     0
 74
     1
 95
       32
 96
       28
 40
0.0
 40
0.0
 40
0.0
 40
0.0
 40
1.0
 40
1.0
 40
1.0
 40
2.0
 40
2.0
 40
2.0
 40
3.0
 40
3.0
 40
3.0
 40
4.0
 40
4.0
 40
4.0
 40
5.0
 40
5.0
 40
5.0
 40
6.0
 40
6.0
 40
6.0
 40
7.0
 40
7.0
 40
7.0
 40
8.0
 40
8.0
 40
8.0
 40
9.0
 40
9.0
 40
9.0
 40
9.0
 10
103.8341443967845
 20
-132.6640814555493
 10
103.3178968383198
 20
-132.6640814555493
 10
103.309456354381
 20
-132.1097655919726
 10
103.309456354381
 20
-131.8961696718871
 10
103.309456354381
 20
-131.6655205291496
 10
103.3285766343241
 20
-131.0181870874711
 10
103.8722127018965
 20
-131.0181870874711
 10
104.0456732595789
 20
-131.0181870874711
 10
104.2909640581287
 20
-131.0879502710475
 10
104.3292046180149
 20
-131.4200574758256
 10
104.3292046180149
 20
-131.4200574758256
 10
104.1154364431552
 20
-131.4200574758256
 10
104.1154364431552
 20
-131.4200574758256
 10
104.1049289019252
 20
-131.3630411455447
 10
104.0732340234609
 20
-131.2149020396789
 10
103.8701456446054
 20
-131.2149020396789
 10
103.5781738022305
 20
-131.2149020396789
 10
103.537866185053
 20
-131.5428751298747
 10
103.5252915865319
 20
-131.7480305660213
 10
103.6183091646336
 20
-131.6698268985062
 10
103.6860052909188
 20
-131.6105712561599
 10
103.86790633254
 20
-131.6105712561599
 10
104.04774031687
 20
-131.6105712561599
 10
104.350219700475
 20
-131.7184027448482
 10
104.350219700475
 20
-132.1245795025591
 10
104.350219700475
 20
-132.4441121088161
 10
104.151437690976
 20
-132.6640814555493
 10
103.8341443967845
 20
-132.6640814555493
 97
        0
 97
        0
 92
        1
 93
        1
 72
     4
 94
        3
 73
     0
 74
     1
 95
       17
 96
       13
 40
0.0
 40
0.0
 40
0.0
 40
0.0
 40
1.0
 40
1.0
 40
1.0
 40
2.0
 40
2.0
 40
2.0
 40
3.0
 40
3.0
 40
3.0
 40
4.0
 40
4.0
 40
4.0
 40
4.0
 10
103.8510253646622
 20
-131.8052191510765
 10
103.5886813434605
 20
-131.8052191510765
 10
103.5506130383485
 20
-132.0167480138708
 10
103.5506130383485
 20
-132.133019986498
 10
103.5506130383485
 20
-132.3087198562457
 10
103.6458699285156
 20
-132.4715006179238
 10
103.829838027428
 20
-132.4715006179238
 10
103.9504163694117
 20
-132.4715006179238
 10
104.1261162391594
 20
-132.4122449755775
 10
104.1261162391594
 20
-132.1266465598503
 10
104.1261162391594
 20
-131.9025430985348
 10
103.9864176172326
 20
-131.8052191510765
 10
103.8510253646622
 20
-131.8052191510765
 97
        0
 97
        0
 75
     2
 76
     1
 98
        0
  0
ENDBLK
  5
E4
330
E1
100
AcDbEntity
  8
0
100
AcDbBlockEnd
  0
BLOCK
  5
FA
330
F8
100
AcDbEntity
  8
0
100
AcDbBlockBegin
  2
block 4
 70
     0
 10
0.0
 20
0.0
 30
0.0
  3
block 4
  1

  0
SPLINE
  5
FC
330
F8
100
AcDbEntity
  8
_U+30EC_U+30A4_U+30E4_U+30FC 1
370
     0
100
AcDbSpline
210
0.0
220
0.0
230
1.0
 70
    11
 71
     3
 72
    32
 73
    28
 74
     0
 42
0.0000000001
 43
0.0000000001
 12
1.0
 22
0.0
 32
0.0
 13
1.0
 23
0.0
 33
0.0
 40
0.0
 40
0.0
 40
0.0
 40
0.0
 40
1.0
 40
1.0
 40
1.0
 40
2.0
 40
2.0
 40
2.0
 40
3.0
 40
3.0
 40
3.0
 40
4.0
 40
4.0
 40
4.0
 40
5.0
 40
5.0
 40
5.0
 40
6.0
 40
6.0
 40
6.0
 40
7.0
 40
7.0
 40
7.0
 40
8.0
 40
8.0
 40
8.0
 40
9.0
 40
9.0
 40
9.0
 40
9.0
 10
121.477856414943
 20
-140.4772135065474
 30
0.0
 10
121.477856414943
 20
-140.9932888102378
 30
0.0
 10
120.9235405513663
 20
-141.0015570394024
 30
0.0
 10
120.7099446312808
 20
-141.0015570394024
 30
0.0
 10
120.4791232337691
 20
-141.0015570394024
 30
0.0
 10
119.8321343016392
 20
-140.9826090142335
 30
0.0
 10
119.8321343016392
 20
-140.4389729466611
 30
0.0
 10
119.8321343016392
 20
-140.265684643753
 30
0.0
 10
119.9017252304412
 20
-140.0200493356547
 30
0.0
 10
120.2338324352193
 20
-139.982153285317
 30
0.0
 10
120.2338324352193
 20
-139.982153285317
 30
0.0
 10
120.2338324352193
 20
-140.1957492054024
 30
0.0
 10
120.2338324352193
 20
-140.1957492054024
 30
0.0
 10
120.1766438501642
 20
-140.2064290014067
 30
0.0
 10
120.0285047442984
 20
-140.238123879871
 30
0.0
 10
120.0285047442984
 20
-140.4410400039523
 30
0.0
 10
120.0285047442984
 20
-140.7331841011014
 30
0.0
 10
120.3564778344942
 20
-140.7731472087303
 30
0.0
 10
120.5618055254151
 20
-140.7858940620258
 30
0.0
 10
120.4836018578999
 20
-140.692876483924
 30
0.0
 10
120.4243462155536
 20
-140.6250081028646
 30
0.0
 10
120.4243462155536
 20
-140.4431070612434
 30
0.0
 10
120.4243462155536
 20
-140.2632730769134
 30
0.0
 10
120.532177704242
 20
-139.9607936933084
 30
0.0
 10
120.9383544619529
 20
-139.9607936933084
 30
0.0
 10
121.2577148134356
 20
-139.9607936933084
 30
0.0
 10
121.477856414943
 20
-140.1599202123559
 30
0.0
 10
121.477856414943
 20
-140.4772135065474
 30
0.0
  0
SPLINE
  5
FD
330
F8
100
AcDbEntity
  8
_U+30EC_U+30A4_U+30E4_U+30FC 1
370
     0
100
AcDbSpline
210
0.0
220
0.0
230
1.0
 70
    11
 71
     3
 72
    17
 73
    13
 74
     0
 42
0.0000000001
 43
0.0000000001
 12
1.0
 22
0.0
 32
0.0
 13
1.0
 23
0.0
 33
0.0
 40
0.0
 40
0.0
 40
0.0
 40
0.0
 40
1.0
 40
1.0
 40
1.0
 40
2.0
 40
2.0
 40
2.0
 40
3.0
 40
3.0
 40
3.0
 40
4.0
 40
4.0
 40
4.0
 40
4.0
 10
120.6189941104703
 20
-140.4599880291211
 30
0.0
 10
120.6189941104703
 20
-140.7225043050971
 30
0.0
 10
120.8305229732646
 20
-140.7604003554349
 30
0.0
 10
120.946967200666
 20
-140.7604003554349
 30
0.0
 10
121.1226670704138
 20
-140.7604003554349
 30
0.0
 10
121.2852755773176
 20
-140.665315720042
 30
0.0
 10
121.2852755773176
 20
-140.4813476211297
 30
0.0
 10
121.2852755773176
 20
-140.3607692791459
 30
0.0
 10
121.2260199349713
 20
-140.1850694093982
 30
0.0
 10
120.9404215192441
 20
-140.1850694093982
 30
0.0
 10
120.7161458031543
 20
-140.1850694093982
 30
0.0
 10
120.6189941104703
 20
-140.3249402860993
 30
0.0
 10
120.6189941104703
 20
-140.4599880291211
 30
0.0
  0
HATCH
  5
FE
330
F8
100
AcDbEntity
  8
_U+30EC_U+30A4_U+30E4_U+30FC 1
 62
   179
420
  2234388
100
AcDbHatch
 10
0.0
 20
0.0
 30
0.0
210
0.0
220
0.0
230
1.0
  2
SOLID
 70
     1
 71
     0
 91
        2
 92
        1
 93
        1
 72
     4
 94
        3
 73
     0
 74
     1
 95
       32
 96
       28
 40
0.0
 40
0.0
 40
0.0
 40
0.0
 40
1.0
 40
1.0
 40
1.0
 40
2.0
 40
2.0
 40
2.0
 40
3.0
 40
3.0
 40
3.0
 40
4.0
 40
4.0
 40
4.0
 40
5.0
 40
5.0
 40
5.0
 40
6.0
 40
6.0
 40
6.0
 40
7.0
 40
7.0
 40
7.0
 40
8.0
 40
8.0
 40
8.0
 40
9.0
 40
9.0
 40
9.0
 40
9.0
 10
121.477856414943
 20
-140.4772135065474
 10
121.477856414943
 20
-140.9932888102378
 10
120.9235405513663
 20
-141.0015570394024
 10
120.7099446312808
 20
-141.0015570394024
 10
120.4791232337691
 20
-141.0015570394024
 10
119.8321343016392
 20
-140.9826090142335
 10
119.8321343016392
 20
-140.4389729466611
 10
119.8321343016392
 20
-140.265684643753
 10
119.9017252304412
 20
-140.0200493356547
 10
120.2338324352193
 20
-139.982153285317
 10
120.2338324352193
 20
-139.982153285317
 10
120.2338324352193
 20
-140.1957492054024
 10
120.2338324352193
 20
-140.1957492054024
 10
120.1766438501642
 20
-140.2064290014067
 10
120.0285047442984
 20
-140.238123879871
 10
120.0285047442984
 20
-140.4410400039523
 10
120.0285047442984
 20
-140.7331841011014
 10
120.3564778344942
 20
-140.7731472087303
 10
120.5618055254151
 20
-140.7858940620258
 10
120.4836018578999
 20
-140.692876483924
 10
120.4243462155536
 20
-140.6250081028646
 10
120.4243462155536
 20
-140.4431070612434
 10
120.4243462155536
 20
-140.2632730769134
 10
120.532177704242
 20
-139.9607936933084
 10
120.9383544619529
 20
-139.9607936933084
 10
121.2577148134356
 20
-139.9607936933084
 10
121.477856414943
 20
-140.1599202123559
 10
121.477856414943
 20
-140.4772135065474
 97
        0
 97
        0
 92
        1
 93
        1
 72
     4
 94
        3
 73
     0
 74
     1
 95
       17
 96
       13
 40
0.0
 40
0.0
 40
0.0
 40
0.0
 40
1.0
 40
1.0
 40
1.0
 40
2.0
 40
2.0
 40
2.0
 40
3.0
 40
3.0
 40
3.0
 40
4.0
 40
4.0
 40
4.0
 40
4.0
 10
120.6189941104703
 20
-140.4599880291211
 10
120.6189941104703
 20
-140.7225043050971
 10
120.8305229732646
 20
-140.7604003554349
 10
120.946967200666
 20
-140.7604003554349
 10
121.1226670704138
 20
-140.7604003554349
 10
121.2852755773176
 20
-140.665315720042
 10
121.2852755773176
 20
-140.4813476211297
 10
121.2852755773176
 20
-140.3607692791459
 10
121.2260199349713
 20
-140.1850694093982
 10
120.9404215192441
 20
-140.1850694093982
 10
120.7161458031543
 20
-140.1850694093982
 10
120.6189941104703
 20
-140.3249402860993
 10
120.6189941104703
 20
-140.4599880291211
 97
        0
 97
        0
 75
     2
 76
     1
 98
        0
  0
ENDBLK
  5
FB
330
F8
100
AcDbEntity
  8
0
100
AcDbBlockEnd
  0
BLOCK
  5
10D
330
10B
100
AcDbEntity
  8
0
100
AcDbBlockBegin
  2
block 5
 70
     0
 10
0.0
 20
0.0
 30
0.0
  3
block 5
  1

  0
SPLINE
  5
10F
330
10B
100
AcDbEntity
  8
_U+30EC_U+30A4_U+30E4_U+30FC 1
370
     0
100
AcDbSpline
210
0.0
220
0.0
230
1.0
 70
    11
 71
     3
 72
    44
 73
    40
 74
     0
 42
0.0000000001
 43
0.0000000001
 12
1.0
 22
0.0
 32
0.0
 13
1.0
 23
0.0
 33
0.0
 40
0.0
 40
0.0
 40
0.0
 40
0.0
 40
1.0
 40
1.0
 40
1.0
 40
2.0
 40
2.0
 40
2.0
 40
3.0
 40
3.0
 40
3.0
 40
4.0
 40
4.0
 40
4.0
 40
5.0
 40
5.0
 40
5.0
 40
6.0
 40
6.0
 40
6.0
 40
7.0
 40
7.0
 40
7.0
 40
8.0
 40
8.0
 40
8.0
 40
9.0
 40
9.0
 40
9.0
 40
10.0
 40
10.0
 40
10.0
 40
11.0
 40
11.0
 40
11.0
 40
12.0
 40
12.0
 40
12.0
 40
13.0
 40
13.0
 40
13.0
 40
13.0
 10
79.79030624090312
 20
-150.9647731827449
 30
0.0
 10
79.94895288799887
 20
-151.1828477269612
 30
0.0
 10
80.02302244093175
 20
-151.2762098146115
 30
0.0
 10
80.16685517744092
 20
-151.324441151405
 30
0.0
 10
80.16685517744092
 20
-151.324441151405
 30
0.0
 10
80.16685517744092
 20
-150.5461940812871
 30
0.0
 10
80.16685517744092
 20
-150.5461940812871
 30
0.0
 10
80.16685517744092
 20
-150.5461940812871
 30
0.0
 10
80.37201061358756
 20
-150.5461940812871
 30
0.0
 10
80.37201061358756
 20
-150.5461940812871
 30
0.0
 10
80.37201061358756
 20
-150.5461940812871
 30
0.0
 10
80.37201061358756
 20
-151.5742105740856
 30
0.0
 10
80.37201061358756
 20
-151.5742105740856
 30
0.0
 10
80.01440970221863
 20
-151.5425156956213
 30
0.0
 10
79.93620603470345
 20
-151.4770588814016
 30
0.0
 10
79.63786076568081
 20
-151.0918972061506
 30
0.0
 10
79.4390787561819
 20
-150.8359266115966
 30
0.0
 10
79.37138262989674
 20
-150.7704697973768
 30
0.0
 10
79.23392332003527
 20
-150.7704697973768
 30
0.0
 10
79.11541203534267
 20
-150.7704697973768
 30
0.0
 10
78.98432615212892
 20
-150.84212778347
 30
0.0
 10
78.98432615212892
 20
-151.0391872452263
 30
0.0
 10
78.98432615212892
 20
-151.2992919543627
 30
0.0
 10
79.21480304009214
 20
-151.3079046930758
 30
0.0
 10
79.33124726749358
 20
-151.3120388076581
 30
0.0
 10
79.33124726749358
 20
-151.3120388076581
 30
0.0
 10
79.33124726749358
 20
-151.5359700141993
 30
0.0
 10
79.33124726749358
 20
-151.5359700141993
 30
0.0
 10
79.20429549886212
 20
-151.5277017850347
 30
0.0
 10
79.09215764081725
 20
-151.517366498579
 30
0.0
 10
78.97364635612465
 20
-151.4367512642241
 30
0.0
 10
78.81293265173774
 20
-151.3268527182447
 30
0.0
 10
78.77899846120803
 20
-151.1404730524927
 30
0.0
 10
78.77899846120803
 20
-151.0240288250912
 30
0.0
 10
78.77899846120803
 20
-150.7470431480771
 30
0.0
 10
78.96313881489463
 20
-150.5396483998651
 30
0.0
 10
79.23599037732642
 20
-150.5396483998651
 30
0.0
 10
79.46440020799848
 20
-150.5396483998651
 30
0.0
 10
79.56396346752221
 20
-150.6560926272665
 30
0.0
 10
79.79030624090312
 20
-150.9647731827449
 30
0.0
  0
HATCH
  5
110
330
10B
100
AcDbEntity
  8
_U+30EC_U+30A4_U+30E4_U+30FC 1
 62
   179
420
  2234388
100
AcDbHatch
 10
0.0
 20
0.0
 30
0.0
210
0.0
220
0.0
230
1.0
  2
SOLID
 70
     1
 71
     0
 91
        1
 92
        1
 93
        1
 72
     4
 94
        3
 73
     0
 74
     1
 95
       44
 96
       40
 40
0.0
 40
0.0
 40
0.0
 40
0.0
 40
1.0
 40
1.0
 40
1.0
 40
2.0
 40
2.0
 40
2.0
 40
3.0
 40
3.0
 40
3.0
 40
4.0
 40
4.0
 40
4.0
 40
5.0
 40
5.0
 40
5.0
 40
6.0
 40
6.0
 40
6.0
 40
7.0
 40
7.0
 40
7.0
 40
8.0
 40
8.0
 40
8.0
 40
9.0
 40
9.0
 40
9.0
 40
10.0
 40
10.0
 40
10.0
 40
11.0
 40
11.0
 40
11.0
 40
12.0
 40
12.0
 40
12.0
 40
13.0
 40
13.0
 40
13.0
 40
13.0
 10
79.79030624090312
 20
-150.9647731827449
 10
79.94895288799887
 20
-151.1828477269612
 10
80.02302244093175
 20
-151.2762098146115
 10
80.16685517744092
 20
-151.324441151405
 10
80.16685517744092
 20
-151.324441151405
 10
80.16685517744092
 20
-150.5461940812871
 10
80.16685517744092
 20
-150.5461940812871
 10
80.16685517744092
 20
-150.5461940812871
 10
80.37201061358756
 20
-150.5461940812871
 10
80.37201061358756
 20
-150.5461940812871
 10
80.37201061358756
 20
-150.5461940812871
 10
80.37201061358756
 20
-151.5742105740856
 10
80.37201061358756
 20
-151.5742105740856
 10
80.01440970221863
 20
-151.5425156956213
 10
79.93620603470345
 20
-151.4770588814016
 10
79.63786076568081
 20
-151.0918972061506
 10
79.4390787561819
 20
-150.8359266115966
 10
79.37138262989674
 20
-150.7704697973768
 10
79.23392332003527
 20
-150.7704697973768
 10
79.11541203534267
 20
-150.7704697973768
 10
78.98432615212892
 20
-150.84212778347
 10
78.98432615212892
 20
-151.0391872452263
 10
78.98432615212892
 20
-151.2992919543627
 10
79.21480304009214
 20
-151.3079046930758
 10
79.33124726749358
 20
-151.3120388076581
 10
79.33124726749358
 20
-151.3120388076581
 10
79.33124726749358
 20
-151.5359700141993
 10
79.33124726749358
 20
-151.5359700141993
 10
79.20429549886212
 20
-151.5277017850347
 10
79.09215764081725
 20
-151.517366498579
 10
78.97364635612465
 20
-151.4367512642241
 10
78.81293265173774
 20
-151.3268527182447
 10
78.77899846120803
 20
-151.1404730524927
 10
78.77899846120803
 20
-151.0240288250912
 10
78.77899846120803
 20
-150.7470431480771
 10
78.96313881489463
 20
-150.5396483998651
 10
79.23599037732642
 20
-150.5396483998651
 10
79.46440020799848
 20
-150.5396483998651
 10
79.56396346752221
 20
-150.6560926272665
 10
79.79030624090312
 20
-150.9647731827449
 97
        0
 97
        0
 75
     2
 76
     1
 98
        0
  0
SPLINE
  5
111
330
10B
100
AcDbEntity
  8
_U+30EC_U+30A4_U+30E4_U+30FC 1
370
     0
100
AcDbSpline
210
0.0
220
0.0
230
1.0
 70
    11
 71
     3
 72
    32
 73
    28
 74
     0
 42
0.0000000001
 43
0.0000000001
 12
1.0
 22
0.0
 32
0.0
 13
1.0
 23
0.0
 33
0.0
 40
0.0
 40
0.0
 40
0.0
 40
0.0
 40
1.0
 40
1.0
 40
1.0
 40
2.0
 40
2.0
 40
2.0
 40
3.0
 40
3.0
 40
3.0
 40
4.0
 40
4.0
 40
4.0
 40
5.0
 40
5.0
 40
5.0
 40
6.0
 40
6.0
 40
6.0
 40
7.0
 40
7.0
 40
7.0
 40
8.0
 40
8.0
 40
8.0
 40
9.0
 40
9.0
 40
9.0
 40
9.0
 10
80.422825771995
 20
-149.876812028503
 30
0.0
 10
80.422825771995
 20
-150.393231841742
 30
0.0
 10
79.86850990841829
 20
-150.4018445804551
 30
0.0
 10
79.65491398833281
 20
-150.4018445804551
 30
0.0
 10
79.42426484559533
 20
-150.4018445804551
 30
0.0
 10
78.77693140391688
 20
-150.3825520457377
 30
0.0
 10
78.77693140391688
 20
-149.8389159781653
 30
0.0
 10
78.77693140391688
 20
-149.6652831657087
 30
0.0
 10
78.84669458749319
 20
-149.4199923671589
 30
0.0
 10
79.17880179227127
 20
-149.3820963168212
 30
0.0
 10
79.17880179227127
 20
-149.3820963168212
 30
0.0
 10
79.17880179227127
 20
-149.5956922369066
 30
0.0
 10
79.17880179227127
 20
-149.5956922369066
 30
0.0
 10
79.12178546199038
 20
-149.6060275233624
 30
0.0
 10
78.97364635612465
 20
-149.6377224018267
 30
0.0
 10
78.97364635612465
 20
-149.8409830354564
 30
0.0
 10
78.97364635612465
 20
-150.1331271326056
 30
0.0
 10
79.30161944632043
 20
-150.1730902402345
 30
0.0
 10
79.50677488246706
 20
-150.1858370935299
 30
0.0
 10
79.42857121495189
 20
-150.0928195154282
 30
0.0
 10
79.36931557260559
 20
-150.0249511343688
 30
0.0
 10
79.36931557260559
 20
-149.8430500927476
 30
0.0
 10
79.36931557260559
 20
-149.6632161084175
 30
0.0
 10
79.4771470612939
 20
-149.3607367248126
 30
0.0
 10
79.88332381900487
 20
-149.3607367248126
 30
0.0
 10
80.20285642526179
 20
-149.3607367248126
 30
0.0
 10
80.422825771995
 20
-149.55986324386
 30
0.0
 10
80.422825771995
 20
-149.876812028503
 30
0.0
  0
SPLINE
  5
112
330
10B
100
AcDbEntity
  8
_U+30EC_U+30A4_U+30E4_U+30FC 1
370
     0
100
AcDbSpline
210
0.0
220
0.0
230
1.0
 70
    11
 71
     3
 72
    17
 73
    13
 74
     0
 42
0.0000000001
 43
0.0000000001
 12
1.0
 22
0.0
 32
0.0
 13
1.0
 23
0.0
 33
0.0
 40
0.0
 40
0.0
 40
0.0
 40
0.0
 40
1.0
 40
1.0
 40
1.0
 40
2.0
 40
2.0
 40
2.0
 40
3.0
 40
3.0
 40
3.0
 40
4.0
 40
4.0
 40
4.0
 40
4.0
 10
79.56396346752221
 20
-149.8602755701738
 30
0.0
 10
79.56396346752221
 20
-150.1224473366013
 30
0.0
 10
79.77549233031655
 20
-150.1606878964876
 30
0.0
 10
79.89176430294373
 20
-150.1606878964876
 30
0.0
 10
80.06746417269147
 20
-150.1606878964876
 30
0.0
 10
80.23024493436952
 20
-150.0652587515462
 30
0.0
 10
80.23024493436952
 20
-149.8812906526339
 30
0.0
 10
80.23024493436952
 20
-149.7607123106501
 30
0.0
 10
80.17098929202322
 20
-149.5850124409024
 30
0.0
 10
79.88539087629601
 20
-149.5850124409024
 30
0.0
 10
79.66128741498052
 20
-149.5850124409024
 30
0.0
 10
79.56396346752221
 20
-149.724538808055
 30
0.0
 10
79.56396346752221
 20
-149.8602755701738
 30
0.0
  0
HATCH
  5
113
330
10B
100
AcDbEntity
  8
_U+30EC_U+30A4_U+30E4_U+30FC 1
 62
   179
420
  2234388
100
AcDbHatch
 10
0.0
 20
0.0
 30
0.0
210
0.0
220
0.0
230
1.0
  2
SOLID
 70
     1
 71
     0
 91
        2
 92
        1
 93
        1
 72
     4
 94
        3
 73
     0
 74
     1
 95
       32
 96
       28
 40
0.0
 40
0.0
 40
0.0
 40
0.0
 40
1.0
 40
1.0
 40
1.0
 40
2.0
 40
2.0
 40
2.0
 40
3.0
 40
3.0
 40
3.0
 40
4.0
 40
4.0
 40
4.0
 40
5.0
 40
5.0
 40
5.0
 40
6.0
 40
6.0
 40
6.0
 40
7.0
 40
7.0
 40
7.0
 40
8.0
 40
8.0
 40
8.0
 40
9.0
 40
9.0
 40
9.0
 40
9.0
 10
80.422825771995
 20
-149.876812028503
 10
80.422825771995
 20
-150.393231841742
 10
79.86850990841829
 20
-150.4018445804551
 10
79.65491398833281
 20
-150.4018445804551
 10
79.42426484559533
 20
-150.4018445804551
 10
78.77693140391688
 20
-150.3825520457377
 10
78.77693140391688
 20
-149.8389159781653
 10
78.77693140391688
 20
-149.6652831657087
 10
78.84669458749319
 20
-149.4199923671589
 10
79.17880179227127
 20
-149.3820963168212
 10
79.17880179227127
 20
-149.3820963168212
 10
79.17880179227127
 20
-149.5956922369066
 10
79.17880179227127
 20
-149.5956922369066
 10
79.12178546199038
 20
-149.6060275233624
 10
78.97364635612465
 20
-149.6377224018267
 10
78.97364635612465
 20
-149.8409830354564
 10
78.97364635612465
 20
-150.1331271326056
 10
79.30161944632043
 20
-150.1730902402345
 10
79.50677488246706
 20
-150.1858370935299
 10
79.42857121495189
 20
-150.0928195154282
 10
79.36931557260559
 20
-150.0249511343688
 10
79.36931557260559
 20
-149.8430500927476
 10
79.36931557260559
 20
-149.6632161084175
 10
79.4771470612939
 20
-149.3607367248126
 10
79.88332381900487
 20
-149.3607367248126
 10
80.20285642526179
 20
-149.3607367248126
 10
80.422825771995
 20
-149.55986324386
 10
80.422825771995
 20
-149.876812028503
 97
        0
 97
        0
 92
        1
 93
        1
 72
     4
 94
        3
 73
     0
 74
     1
 95
       17
 96
       13
 40
0.0
 40
0.0
 40
0.0
 40
0.0
 40
1.0
 40
1.0
 40
1.0
 40
2.0
 40
2.0
 40
2.0
 40
3.0
 40
3.0
 40
3.0
 40
4.0
 40
4.0
 40
4.0
 40
4.0
 10
79.56396346752221
 20
-149.8602755701738
 10
79.56396346752221
 20
-150.1224473366013
 10
79.77549233031655
 20
-150.1606878964876
 10
79.89176430294373
 20
-150.1606878964876
 10
80.06746417269147
 20
-150.1606878964876
 10
80.23024493436952
 20
-150.0652587515462
 10
80.23024493436952
 20
-149.8812906526339
 10
80.23024493436952
 20
-149.7607123106501
 10
80.17098929202322
 20
-149.5850124409024
 10
79.88539087629601
 20
-149.5850124409024
 10
79.66128741498052
 20
-149.5850124409024
 10
79.56396346752221
 20
-149.724538808055
 10
79.56396346752221
 20
-149.8602755701738
 97
        0
 97
        0
 75
     2
 76
     1
 98
        0
  0
ENDBLK
  5
10E
330
10B
100
AcDbEntity
  8
0
100
AcDbBlockEnd
  0
BLOCK
  5
132
330
130
100
AcDbEntity
  8
0
100
AcDbBlockBegin
  2
block 6
 70
     0
 10
0.0
 20
0.0
 30
0.0
  3
block 6
  1

  0
POLYLINE
  5
134
330
130
100
AcDbEntity
  8
_U+30EC_U+30A4_U+30E4_U+30FC 1
370
     0
100
AcDb2dPolyline
 66
     1
 10
0.0
 20
0.0
 30
0.0
  0
VERTEX
  5
135
330
134
100
AcDbEntity
  8
_U+30EC_U+30A4_U+30E4_U+30FC 1
370
     0
100
AcDbVertex
100
AcDb2dVertex
 10
84.38537459912935
 20
-132.6473727424458
 30
0.0
  0
VERTEX
  5
136
330
134
100
AcDbEntity
  8
_U+30EC_U+30A4_U+30E4_U+30FC 1
370
     0
100
AcDbVertex
100
AcDb2dVertex
 10
84.38537459912935
 20
-132.4866590380589
 30
0.0
  0
VERTEX
  5
137
330
134
100
AcDbEntity
  8
_U+30EC_U+30A4_U+30E4_U+30FC 1
370
     0
100
AcDbVertex
100
AcDb2dVertex
 10
84.53971487686854
 20
-132.4866590380589
 30
0.0
  0
VERTEX
  5
138
330
134
100
AcDbEntity
  8
_U+30EC_U+30A4_U+30E4_U+30FC 1
370
     0
100
AcDbVertex
100
AcDb2dVertex
 10
84.53971487686854
 20
-132.6473727424458
 30
0.0
  0
VERTEX
  5
139
330
134
100
AcDbEntity
  8
_U+30EC_U+30A4_U+30E4_U+30FC 1
370
     0
100
AcDbVertex
100
AcDb2dVertex
 10
84.93331703605834
 20
-132.6473727424458
 30
0.0
  0
VERTEX
  5
13A
330
134
100
AcDbEntity
  8
_U+30EC_U+30A4_U+30E4_U+30FC 1
370
     0
100
AcDbVertex
100
AcDb2dVertex
 10
84.93331703605834
 20
-132.8018852749593
 30
0.0
  0
VERTEX
  5
13B
330
134
100
AcDbEntity
  8
_U+30EC_U+30A4_U+30E4_U+30FC 1
370
     0
100
AcDbVertex
100
AcDb2dVertex
 10
84.53971487686854
 20
-132.8018852749593
 30
0.0
  0
VERTEX
  5
13C
330
134
100
AcDbEntity
  8
_U+30EC_U+30A4_U+30E4_U+30FC 1
370
     0
100
AcDbVertex
100
AcDb2dVertex
 10
84.53971487686854
 20
-132.9562255526984
 30
0.0
  0
VERTEX
  5
13D
330
134
100
AcDbEntity
  8
_U+30EC_U+30A4_U+30E4_U+30FC 1
370
     0
100
AcDbVertex
100
AcDb2dVertex
 10
84.89507647617206
 20
-132.9562255526984
 30
0.0
  0
VERTEX
  5
13E
330
134
100
AcDbEntity
  8
_U+30EC_U+30A4_U+30E4_U+30FC 1
370
     0
100
AcDbVertex
100
AcDb2dVertex
 10
84.89507647617206
 20
-133.7685790681204
 30
0.0
  0
VERTEX
  5
13F
330
134
100
AcDbEntity
  8
_U+30EC_U+30A4_U+30E4_U+30FC 1
370
     0
100
AcDbVertex
100
AcDb2dVertex
 10
84.53971487686854
 20
-133.7685790681204
 30
0.0
  0
VERTEX
  5
140
330
134
100
AcDbEntity
  8
_U+30EC_U+30A4_U+30E4_U+30FC 1
370
     0
100
AcDbVertex
100
AcDb2dVertex
 10
84.53971487686854
 20
-133.9379055112204
 30
0.0
  0
VERTEX
  5
141
330
134
100
AcDbEntity
  8
_U+30EC_U+30A4_U+30E4_U+30FC 1
370
     0
100
AcDbVertex
100
AcDb2dVertex
 10
84.94813094664491
 20
-133.9379055112204
 30
0.0
  0
VERTEX
  5
142
330
134
100
AcDbEntity
  8
_U+30EC_U+30A4_U+30E4_U+30FC 1
370
     0
100
AcDbVertex
100
AcDb2dVertex
 10
84.94813094664491
 20
-134.0922457889596
 30
0.0
  0
VERTEX
  5
143
330
134
100
AcDbEntity
  8
_U+30EC_U+30A4_U+30E4_U+30FC 1
370
     0
100
AcDbVertex
100
AcDb2dVertex
 10
84.53971487686854
 20
-134.0922457889596
 30
0.0
  0
VERTEX
  5
144
330
134
100
AcDbEntity
  8
_U+30EC_U+30A4_U+30E4_U+30FC 1
370
     0
100
AcDbVertex
100
AcDb2dVertex
 10
84.53971487686854
 20
-134.445540330972
 30
0.0
  0
VERTEX
  5
145
330
134
100
AcDbEntity
  8
_U+30EC_U+30A4_U+30E4_U+30FC 1
370
     0
100
AcDbVertex
100
AcDb2dVertex
 10
84.38537459912935
 20
-134.445540330972
 30
0.0
  0
VERTEX
  5
146
330
134
100
AcDbEntity
  8
_U+30EC_U+30A4_U+30E4_U+30FC 1
370
     0
100
AcDbVertex
100
AcDb2dVertex
 10
84.38537459912935
 20
-134.0922457889596
 30
0.0
  0
VERTEX
  5
147
330
134
100
AcDbEntity
  8
_U+30EC_U+30A4_U+30E4_U+30FC 1
370
     0
100
AcDbVertex
100
AcDb2dVertex
 10
83.97489147206184
 20
-134.0922457889596
 30
0.0
  0
VERTEX
  5
148
330
134
100
AcDbEntity
  8
_U+30EC_U+30A4_U+30E4_U+30FC 1
370
     0
100
AcDbVertex
100
AcDb2dVertex
 10
83.97489147206184
 20
-133.9379055112204
 30
0.0
  0
VERTEX
  5
149
330
134
100
AcDbEntity
  8
_U+30EC_U+30A4_U+30E4_U+30FC 1
370
     0
100
AcDbVertex
100
AcDb2dVertex
 10
84.38537459912935
 20
-133.9379055112204
 30
0.0
  0
VERTEX
  5
14A
330
134
100
AcDbEntity
  8
_U+30EC_U+30A4_U+30E4_U+30FC 1
370
     0
100
AcDbVertex
100
AcDb2dVertex
 10
84.38537459912935
 20
-133.7685790681204
 30
0.0
  0
VERTEX
  5
14B
330
134
100
AcDbEntity
  8
_U+30EC_U+30A4_U+30E4_U+30FC 1
370
     0
100
AcDbVertex
100
AcDb2dVertex
 10
84.03621417169929
 20
-133.7685790681204
 30
0.0
  0
VERTEX
  5
14C
330
134
100
AcDbEntity
  8
_U+30EC_U+30A4_U+30E4_U+30FC 1
370
     0
100
AcDbVertex
100
AcDb2dVertex
 10
84.03621417169929
 20
-132.9562255526984
 30
0.0
  0
VERTEX
  5
14D
330
134
100
AcDbEntity
  8
_U+30EC_U+30A4_U+30E4_U+30FC 1
370
     0
100
AcDbVertex
100
AcDb2dVertex
 10
84.38537459912935
 20
-132.9562255526984
 30
0.0
  0
VERTEX
  5
14E
330
134
100
AcDbEntity
  8
_U+30EC_U+30A4_U+30E4_U+30FC 1
370
     0
100
AcDbVertex
100
AcDb2dVertex
 10
84.38537459912935
 20
-132.8018852749593
 30
0.0
  0
VERTEX
  5
14F
330
134
100
AcDbEntity
  8
_U+30EC_U+30A4_U+30E4_U+30FC 1
370
     0
100
AcDbVertex
100
AcDb2dVertex
 10
83.99607880929612
 20
-132.8018852749593
 30
0.0
  0
VERTEX
  5
150
330
134
100
AcDbEntity
  8
_U+30EC_U+30A4_U+30E4_U+30FC 1
370
     0
100
AcDbVertex
100
AcDb2dVertex
 10
83.99607880929612
 20
-132.6473727424458
 30
0.0
  0
VERTEX
  5
151
330
134
100
AcDbEntity
  8
_U+30EC_U+30A4_U+30E4_U+30FC 1
370
     0
100
AcDbVertex
100
AcDb2dVertex
 10
84.38537459912935
 20
-132.6473727424458
 30
0.0
  0
SEQEND
  5
152
330
134
100
AcDbEntity
  8
_U+30EC_U+30A4_U+30E4_U+30FC 1
370
     0
  0
POLYLINE
  5
153
330
130
100
AcDbEntity
  8
_U+30EC_U+30A4_U+30E4_U+30FC 1
370
     0
100
AcDb2dPolyline
 66
     1
 10
0.0
 20
0.0
 30
0.0
  0
VERTEX
  5
154
330
153
100
AcDbEntity
  8
_U+30EC_U+30A4_U+30E4_U+30FC 1
370
     0
100
AcDbVertex
100
AcDb2dVertex
 10
84.38537459912935
 20
-133.0959241746253
 30
0.0
  0
VERTEX
  5
155
330
153
100
AcDbEntity
  8
_U+30EC_U+30A4_U+30E4_U+30FC 1
370
     0
100
AcDbVertex
100
AcDb2dVertex
 10
84.17797985091731
 20
-133.0959241746253
 30
0.0
  0
VERTEX
  5
156
330
153
100
AcDbEntity
  8
_U+30EC_U+30A4_U+30E4_U+30FC 1
370
     0
100
AcDbVertex
100
AcDb2dVertex
 10
84.17797985091731
 20
-133.2990125534808
 30
0.0
  0
VERTEX
  5
157
330
153
100
AcDbEntity
  8
_U+30EC_U+30A4_U+30E4_U+30FC 1
370
     0
100
AcDbVertex
100
AcDb2dVertex
 10
84.38537459912935
 20
-133.2990125534808
 30
0.0
  0
VERTEX
  5
158
330
153
100
AcDbEntity
  8
_U+30EC_U+30A4_U+30E4_U+30FC 1
370
     0
100
AcDbVertex
100
AcDb2dVertex
 10
84.38537459912935
 20
-133.0959241746253
 30
0.0
  0
SEQEND
  5
159
330
153
100
AcDbEntity
  8
_U+30EC_U+30A4_U+30E4_U+30FC 1
370
     0
  0
POLYLINE
  5
15A
330
130
100
AcDbEntity
  8
_U+30EC_U+30A4_U+30E4_U+30FC 1
370
     0
100
AcDb2dPolyline
 66
     1
 10
0.0
 20
0.0
 30
0.0
  0
VERTEX
  5
15B
330
15A
100
AcDbEntity
  8
_U+30EC_U+30A4_U+30E4_U+30FC 1
370
     0
100
AcDbVertex
100
AcDb2dVertex
 10
84.38537459912935
 20
-133.4216579527557
 30
0.0
  0
VERTEX
  5
15C
330
15A
100
AcDbEntity
  8
_U+30EC_U+30A4_U+30E4_U+30FC 1
370
     0
100
AcDbVertex
100
AcDb2dVertex
 10
84.17797985091731
 20
-133.4216579527557
 30
0.0
  0
VERTEX
  5
15D
330
15A
100
AcDbEntity
  8
_U+30EC_U+30A4_U+30E4_U+30FC 1
370
     0
100
AcDbVertex
100
AcDb2dVertex
 10
84.17797985091731
 20
-133.6290527009677
 30
0.0
  0
VERTEX
  5
15E
330
15A
100
AcDbEntity
  8
_U+30EC_U+30A4_U+30E4_U+30FC 1
370
     0
100
AcDbVertex
100
AcDb2dVertex
 10
84.38537459912935
 20
-133.6290527009677
 30
0.0
  0
VERTEX
  5
15F
330
15A
100
AcDbEntity
  8
_U+30EC_U+30A4_U+30E4_U+30FC 1
370
     0
100
AcDbVertex
100
AcDb2dVertex
 10
84.38537459912935
 20
-133.4216579527557
 30
0.0
  0
SEQEND
  5
160
330
15A
100
AcDbEntity
  8
_U+30EC_U+30A4_U+30E4_U+30FC 1
370
     0
  0
POLYLINE
  5
161
330
130
100
AcDbEntity
  8
_U+30EC_U+30A4_U+30E4_U+30FC 1
370
     0
100
AcDb2dPolyline
 66
     1
 10
0.0
 20
0.0
 30
0.0
  0
VERTEX
  5
162
330
161
100
AcDbEntity
  8
_U+30EC_U+30A4_U+30E4_U+30FC 1
370
     0
100
AcDbVertex
100
AcDb2dVertex
 10
84.75124373966288
 20
-133.0959241746253
 30
0.0
  0
VERTEX
  5
163
330
161
100
AcDbEntity
  8
_U+30EC_U+30A4_U+30E4_U+30FC 1
370
     0
100
AcDbVertex
100
AcDb2dVertex
 10
84.53971487686854
 20
-133.0959241746253
 30
0.0
  0
VERTEX
  5
164
330
161
100
AcDbEntity
  8
_U+30EC_U+30A4_U+30E4_U+30FC 1
370
     0
100
AcDbVertex
100
AcDb2dVertex
 10
84.53971487686854
 20
-133.2990125534808
 30
0.0
  0
VERTEX
  5
165
330
161
100
AcDbEntity
  8
_U+30EC_U+30A4_U+30E4_U+30FC 1
370
     0
100
AcDbVertex
100
AcDb2dVertex
 10
84.75124373966288
 20
-133.2990125534808
 30
0.0
  0
VERTEX
  5
166
330
161
100
AcDbEntity
  8
_U+30EC_U+30A4_U+30E4_U+30FC 1
370
     0
100
AcDbVertex
100
AcDb2dVertex
 10
84.75124373966288
 20
-133.0959241746253
 30
0.0
  0
SEQEND
  5
167
330
161
100
AcDbEntity
  8
_U+30EC_U+30A4_U+30E4_U+30FC 1
370
     0
  0
POLYLINE
  5
168
330
130
100
AcDbEntity
  8
_U+30EC_U+30A4_U+30E4_U+30FC 1
370
     0
100
AcDb2dPolyline
 66
     1
 10
0.0
 20
0.0
 30
0.0
  0
VERTEX
  5
169
330
168
100
AcDbEntity
  8
_U+30EC_U+30A4_U+30E4_U+30FC 1
370
     0
100
AcDbVertex
100
AcDb2dVertex
 10
84.75124373966288
 20
-133.4216579527557
 30
0.0
  0
VERTEX
  5
16A
330
168
100
AcDbEntity
  8
_U+30EC_U+30A4_U+30E4_U+30FC 1
370
     0
100
AcDbVertex
100
AcDb2dVertex
 10
84.53971487686854
 20
-133.4216579527557
 30
0.0
  0
VERTEX
  5
16B
330
168
100
AcDbEntity
  8
_U+30EC_U+30A4_U+30E4_U+30FC 1
370
     0
100
AcDbVertex
100
AcDb2dVertex
 10
84.53971487686854
 20
-133.6290527009677
 30
0.0
  0
VERTEX
  5
16C
330
168
100
AcDbEntity
  8
_U+30EC_U+30A4_U+30E4_U+30FC 1
370
     0
100
AcDbVertex
100
AcDb2dVertex
 10
84.75124373966288
 20
-133.6290527009677
 30
0.0
  0
VERTEX
  5
16D
330
168
100
AcDbEntity
  8
_U+30EC_U+30A4_U+30E4_U+30FC 1
370
     0
100
AcDbVertex
100
AcDb2dVertex
 10
84.75124373966288
 20
-133.4216579527557
 30
0.0
  0
SEQEND
  5
16E
330
168
100
AcDbEntity
  8
_U+30EC_U+30A4_U+30E4_U+30FC 1
370
     0
  0
SPLINE
  5
16F
330
130
100
AcDbEntity
  8
_U+30EC_U+30A4_U+30E4_U+30FC 1
370
     0
100
AcDbSpline
210
0.0
220
0.0
230
1.0
 70
    11
 71
     3
 72
    38
 73
    34
 74
     0
 42
0.0000000001
 43
0.0000000001
 12
1.0
 22
0.0
 32
0.0
 13
1.0
 23
0.0
 33
0.0
 40
0.0
 40
0.0
 40
0.0
 40
0.0
 40
1.0
 40
1.0
 40
1.0
 40
2.0
 40
2.0
 40
2.0
 40
3.0
 40
3.0
 40
3.0
 40
4.0
 40
4.0
 40
4.0
 40
5.0
 40
5.0
 40
5.0
 40
6.0
 40
6.0
 40
6.0
 40
7.0
 40
7.0
 40
7.0
 40
8.0
 40
8.0
 40
8.0
 40
9.0
 40
9.0
 40
9.0
 40
10.0
 40
10.0
 40
10.0
 40
11.0
 40
11.0
 40
11.0
 40
11.0
 10
84.79361841413146
 20
-134.3101480784016
 30
0.0
 10
84.8761284510032
 20
-134.2572658627031
 30
0.0
 10
85.04114852474666
 20
-134.1494343740147
 30
0.0
 10
85.14691295614384
 20
-133.9420396258027
 30
0.0
 10
85.29505206200957
 20
-133.650240038202
 30
0.0
 10
85.29505206200957
 20
-133.4238972648211
 30
0.0
 10
85.29505206200957
 20
-133.339147915884
 30
0.0
 10
85.29505206200957
 20
-133.339147915884
 30
0.0
 10
85.29505206200957
 20
-133.1043646585642
 30
0.0
 10
85.29505206200957
 20
-133.1043646585642
 30
0.0
 10
85.29505206200957
 20
-133.1043646585642
 30
0.0
 10
85.46007213575304
 20
-133.1043646585642
 30
0.0
 10
85.46007213575304
 20
-133.1043646585642
 30
0.0
 10
85.46007213575304
 20
-133.1043646585642
 30
0.0
 10
85.46007213575304
 20
-133.3307074319451
 30
0.0
 10
85.46007213575304
 20
-133.3307074319451
 30
0.0
 10
85.46007213575304
 20
-133.5296616962183
 30
0.0
 10
85.5255289499728
 20
-133.7665120108292
 30
0.0
 10
85.62715926678766
 20
-133.9399725685115
 30
0.0
 10
85.74343123941485
 20
-134.1389268327847
 30
0.0
 10
85.87245006533745
 20
-134.2383178375342
 30
0.0
 10
85.9571994142746
 20
-134.2996405371716
 30
0.0
 10
85.9571994142746
 20
-134.2996405371716
 30
0.0
 10
85.84919567081201
 20
-134.4498467003285
 30
0.0
 10
85.84919567081201
 20
-134.4498467003285
 30
0.0
 10
85.67160099854738
 20
-134.3208278744059
 30
0.0
 10
85.4726467342742
 20
-134.0817382477296
 30
0.0
 10
85.39444306675904
 20
-133.7284437057172
 30
0.0
 10
85.32881399776502
 20
-133.9675333323935
 30
0.0
 10
85.22735593572442
 20
-134.236250780243
 30
0.0
 10
84.91850312547177
 20
-134.445540330972
 30
0.0
 10
84.91850312547177
 20
-134.445540330972
 30
0.0
 10
84.79361841413146
 20
-134.3101480784016
 30
0.0
 10
84.79361841413146
 20
-134.3101480784016
 30
0.0
  0
SPLINE
  5
170
330
130
100
AcDbEntity
  8
_U+30EC_U+30A4_U+30E4_U+30FC 1
370
     0
100
AcDbSpline
210
0.0
220
0.0
230
1.0
 70
    11
 71
     3
 72
    38
 73
    34
 74
     0
 42
0.0000000001
 43
0.0000000001
 12
1.0
 22
0.0
 32
0.0
 13
1.0
 23
0.0
 33
0.0
 40
0.0
 40
0.0
 40
0.0
 40
0.0
 40
1.0
 40
1.0
 40
1.0
 40
2.0
 40
2.0
 40
2.0
 40
3.0
 40
3.0
 40
3.0
 40
4.0
 40
4.0
 40
4.0
 40
5.0
 40
5.0
 40
5.0
 40
6.0
 40
6.0
 40
6.0
 40
7.0
 40
7.0
 40
7.0
 40
8.0
 40
8.0
 40
8.0
 40
9.0
 40
9.0
 40
9.0
 40
10.0
 40
10.0
 40
10.0
 40
11.0
 40
11.0
 40
11.0
 40
11.0
 10
84.90782332946749
 20
-133.2376898538434
 30
0.0
 10
85.0010131623435
 20
-133.1148721997942
 30
0.0
 10
85.12572561890954
 20
-132.9352104702384
 30
0.0
 10
85.2209825090767
 20
-132.4866590380589
 30
0.0
 10
85.2209825090767
 20
-132.4866590380589
 30
0.0
 10
85.38806964011133
 20
-132.5056070632278
 30
0.0
 10
85.38806964011133
 20
-132.5056070632278
 30
0.0
 10
85.36274818829473
 20
-132.6261854052115
 30
0.0
 10
85.3394937937693
 20
-132.7173081807964
 30
0.0
 10
85.30125323388302
 20
-132.8251396694847
 30
0.0
 10
85.30125323388302
 20
-132.8251396694847
 30
0.0
 10
85.92963865039259
 20
-132.8251396694847
 30
0.0
 10
85.92963865039259
 20
-132.8251396694847
 30
0.0
 10
85.92963865039259
 20
-132.8251396694847
 30
0.0
 10
85.92963865039259
 20
-132.9774128899327
 30
0.0
 10
85.92963865039259
 20
-132.9774128899327
 30
0.0
 10
85.89587671463714
 20
-133.1191785691508
 30
0.0
 10
85.80061982446999
 20
-133.377216220996
 30
0.0
 10
85.72655027153712
 20
-133.4957275056886
 30
0.0
 10
85.72655027153712
 20
-133.4957275056886
 30
0.0
 10
85.57427705108907
 20
-133.4175238381734
 30
0.0
 10
85.57427705108907
 20
-133.4175238381734
 30
0.0
 10
85.66936168648196
 20
-133.2821315856031
 30
0.0
 10
85.73499075547598
 20
-133.0938571173342
 30
0.0
 10
85.76255151935797
 20
-132.9837863165804
 30
0.0
 10
85.76255151935797
 20
-132.9837863165804
 30
0.0
 10
85.24423690360214
 20
-132.9837863165804
 30
0.0
 10
85.24423690360214
 20
-132.9837863165804
 30
0.0
 10
85.14484589885268
 20
-133.2249430005479
 30
0.0
 10
85.07077634591981
 20
-133.3138264640674
 30
0.0
 10
85.0327080408078
 20
-133.3582681958271
 30
0.0
 10
85.0327080408078
 20
-133.3582681958271
 30
0.0
 10
84.90782332946749
 20
-133.2376898538434
 30
0.0
 10
84.90782332946749
 20
-133.2376898538434
 30
0.0
  0
HATCH
  5
171
330
130
100
AcDbEntity
  8
_U+30EC_U+30A4_U+30E4_U+30FC 1
 62
    12
420
 15007761
100
AcDbHatch
 10
0.0
 20
0.0
 30
0.0
210
0.0
220
0.0
230
1.0
  2
SOLID
 70
     1
 71
     0
 91
        7
 92
        1
 93
       28
 72
     1
 10
84.38537459912935
 20
-132.6473727424458
 11
84.38537459912935
 21
-132.4866590380589
 72
     1
 10
84.38537459912935
 20
-132.4866590380589
 11
84.53971487686854
 21
-132.4866590380589
 72
     1
 10
84.53971487686854
 20
-132.4866590380589
 11
84.53971487686854
 21
-132.6473727424458
 72
     1
 10
84.53971487686854
 20
-132.6473727424458
 11
84.93331703605834
 21
-132.6473727424458
 72
     1
 10
84.93331703605834
 20
-132.6473727424458
 11
84.93331703605834
 21
-132.8018852749593
 72
     1
 10
84.93331703605834
 20
-132.8018852749593
 11
84.53971487686854
 21
-132.8018852749593
 72
     1
 10
84.53971487686854
 20
-132.8018852749593
 11
84.53971487686854
 21
-132.9562255526984
 72
     1
 10
84.53971487686854
 20
-132.9562255526984
 11
84.89507647617206
 21
-132.9562255526984
 72
     1
 10
84.89507647617206
 20
-132.9562255526984
 11
84.89507647617206
 21
-133.7685790681204
 72
     1
 10
84.89507647617206
 20
-133.7685790681204
 11
84.53971487686854
 21
-133.7685790681204
 72
     1
 10
84.53971487686854
 20
-133.7685790681204
 11
84.53971487686854
 21
-133.9379055112204
 72
     1
 10
84.53971487686854
 20
-133.9379055112204
 11
84.94813094664491
 21
-133.9379055112204
 72
     1
 10
84.94813094664491
 20
-133.9379055112204
 11
84.94813094664491
 21
-134.0922457889596
 72
     1
 10
84.94813094664491
 20
-134.0922457889596
 11
84.53971487686854
 21
-134.0922457889596
 72
     1
 10
84.53971487686854
 20
-134.0922457889596
 11
84.53971487686854
 21
-134.445540330972
 72
     1
 10
84.53971487686854
 20
-134.445540330972
 11
84.38537459912935
 21
-134.445540330972
 72
     1
 10
84.38537459912935
 20
-134.445540330972
 11
84.38537459912935
 21
-134.0922457889596
 72
     1
 10
84.38537459912935
 20
-134.0922457889596
 11
83.97489147206184
 21
-134.0922457889596
 72
     1
 10
83.97489147206184
 20
-134.0922457889596
 11
83.97489147206184
 21
-133.9379055112204
 72
     1
 10
83.97489147206184
 20
-133.9379055112204
 11
84.38537459912935
 21
-133.9379055112204
 72
     1
 10
84.38537459912935
 20
-133.9379055112204
 11
84.38537459912935
 21
-133.7685790681204
 72
     1
 10
84.38537459912935
 20
-133.7685790681204
 11
84.03621417169929
 21
-133.7685790681204
 72
     1
 10
84.03621417169929
 20
-133.7685790681204
 11
84.03621417169929
 21
-132.9562255526984
 72
     1
 10
84.03621417169929
 20
-132.9562255526984
 11
84.38537459912935
 21
-132.9562255526984
 72
     1
 10
84.38537459912935
 20
-132.9562255526984
 11
84.38537459912935
 21
-132.8018852749593
 72
     1
 10
84.38537459912935
 20
-132.8018852749593
 11
83.99607880929612
 21
-132.8018852749593
 72
     1
 10
83.99607880929612
 20
-132.8018852749593
 11
83.99607880929612
 21
-132.6473727424458
 72
     1
 10
83.99607880929612
 20
-132.6473727424458
 11
84.38537459912935
 21
-132.6473727424458
 97
        0
 92
        1
 93
        4
 72
     1
 10
84.38537459912935
 20
-133.0959241746253
 11
84.17797985091731
 21
-133.0959241746253
 72
     1
 10
84.17797985091731
 20
-133.0959241746253
 11
84.17797985091731
 21
-133.2990125534808
 72
     1
 10
84.17797985091731
 20
-133.2990125534808
 11
84.38537459912935
 21
-133.2990125534808
 72
     1
 10
84.38537459912935
 20
-133.2990125534808
 11
84.38537459912935
 21
-133.0959241746253
 97
        0
 92
        1
 93
        4
 72
     1
 10
84.38537459912935
 20
-133.4216579527557
 11
84.17797985091731
 21
-133.4216579527557
 72
     1
 10
84.17797985091731
 20
-133.4216579527557
 11
84.17797985091731
 21
-133.6290527009677
 72
     1
 10
84.17797985091731
 20
-133.6290527009677
 11
84.38537459912935
 21
-133.6290527009677
 72
     1
 10
84.38537459912935
 20
-133.6290527009677
 11
84.38537459912935
 21
-133.4216579527557
 97
        0
 92
        1
 93
        4
 72
     1
 10
84.75124373966288
 20
-133.0959241746253
 11
84.53971487686854
 21
-133.0959241746253
 72
     1
 10
84.53971487686854
 20
-133.0959241746253
 11
84.53971487686854
 21
-133.2990125534808
 72
     1
 10
84.53971487686854
 20
-133.2990125534808
 11
84.75124373966288
 21
-133.2990125534808
 72
     1
 10
84.75124373966288
 20
-133.2990125534808
 11
84.75124373966288
 21
-133.0959241746253
 97
        0
 92
        1
 93
        4
 72
     1
 10
84.75124373966288
 20
-133.4216579527557
 11
84.53971487686854
 21
-133.4216579527557
 72
     1
 10
84.53971487686854
 20
-133.4216579527557
 11
84.53971487686854
 21
-133.6290527009677
 72
     1
 10
84.53971487686854
 20
-133.6290527009677
 11
84.75124373966288
 21
-133.6290527009677
 72
     1
 10
84.75124373966288
 20
-133.6290527009677
 11
84.75124373966288
 21
-133.4216579527557
 97
        0
 92
        1
 93
        1
 72
     4
 94
        3
 73
     0
 74
     1
 95
       38
 96
       34
 40
0.0
 40
0.0
 40
0.0
 40
0.0
 40
1.0
 40
1.0
 40
1.0
 40
2.0
 40
2.0
 40
2.0
 40
3.0
 40
3.0
 40
3.0
 40
4.0
 40
4.0
 40
4.0
 40
5.0
 40
5.0
 40
5.0
 40
6.0
 40
6.0
 40
6.0
 40
7.0
 40
7.0
 40
7.0
 40
8.0
 40
8.0
 40
8.0
 40
9.0
 40
9.0
 40
9.0
 40
10.0
 40
10.0
 40
10.0
 40
11.0
 40
11.0
 40
11.0
 40
11.0
 10
84.79361841413146
 20
-134.3101480784016
 10
84.8761284510032
 20
-134.2572658627031
 10
85.04114852474666
 20
-134.1494343740147
 10
85.14691295614384
 20
-133.9420396258027
 10
85.29505206200957
 20
-133.650240038202
 10
85.29505206200957
 20
-133.4238972648211
 10
85.29505206200957
 20
-133.339147915884
 10
85.29505206200957
 20
-133.339147915884
 10
85.29505206200957
 20
-133.1043646585642
 10
85.29505206200957
 20
-133.1043646585642
 10
85.29505206200957
 20
-133.1043646585642
 10
85.46007213575304
 20
-133.1043646585642
 10
85.46007213575304
 20
-133.1043646585642
 10
85.46007213575304
 20
-133.1043646585642
 10
85.46007213575304
 20
-133.3307074319451
 10
85.46007213575304
 20
-133.3307074319451
 10
85.46007213575304
 20
-133.5296616962183
 10
85.5255289499728
 20
-133.7665120108292
 10
85.62715926678766
 20
-133.9399725685115
 10
85.74343123941485
 20
-134.1389268327847
 10
85.87245006533745
 20
-134.2383178375342
 10
85.9571994142746
 20
-134.2996405371716
 10
85.9571994142746
 20
-134.2996405371716
 10
85.84919567081201
 20
-134.4498467003285
 10
85.84919567081201
 20
-134.4498467003285
 10
85.67160099854738
 20
-134.3208278744059
 10
85.4726467342742
 20
-134.0817382477296
 10
85.39444306675904
 20
-133.7284437057172
 10
85.32881399776502
 20
-133.9675333323935
 10
85.22735593572442
 20
-134.236250780243
 10
84.91850312547177
 20
-134.445540330972
 10
84.91850312547177
 20
-134.445540330972
 10
84.79361841413146
 20
-134.3101480784016
 10
84.79361841413146
 20
-134.3101480784016
 97
        0
 97
        0
 92
        1
 93
        1
 72
     4
 94
        3
 73
     0
 74
     1
 95
       38
 96
       34
 40
0.0
 40
0.0
 40
0.0
 40
0.0
 40
1.0
 40
1.0
 40
1.0
 40
2.0
 40
2.0
 40
2.0
 40
3.0
 40
3.0
 40
3.0
 40
4.0
 40
4.0
 40
4.0
 40
5.0
 40
5.0
 40
5.0
 40
6.0
 40
6.0
 40
6.0
 40
7.0
 40
7.0
 40
7.0
 40
8.0
 40
8.0
 40
8.0
 40
9.0
 40
9.0
 40
9.0
 40
10.0
 40
10.0
 40
10.0
 40
11.0
 40
11.0
 40
11.0
 40
11.0
 10
84.90782332946749
 20
-133.2376898538434
 10
85.0010131623435
 20
-133.1148721997942
 10
85.12572561890954
 20
-132.9352104702384
 10
85.2209825090767
 20
-132.4866590380589
 10
85.2209825090767
 20
-132.4866590380589
 10
85.38806964011133
 20
-132.5056070632278
 10
85.38806964011133
 20
-132.5056070632278
 10
85.36274818829473
 20
-132.6261854052115
 10
85.3394937937693
 20
-132.7173081807964
 10
85.30125323388302
 20
-132.8251396694847
 10
85.30125323388302
 20
-132.8251396694847
 10
85.92963865039259
 20
-132.8251396694847
 10
85.92963865039259
 20
-132.8251396694847
 10
85.92963865039259
 20
-132.8251396694847
 10
85.92963865039259
 20
-132.9774128899327
 10
85.92963865039259
 20
-132.9774128899327
 10
85.89587671463714
 20
-133.1191785691508
 10
85.80061982446999
 20
-133.377216220996
 10
85.72655027153712
 20
-133.4957275056886
 10
85.72655027153712
 20
-133.4957275056886
 10
85.57427705108907
 20
-133.4175238381734
 10
85.57427705108907
 20
-133.4175238381734
 10
85.66936168648196
 20
-133.2821315856031
 10
85.73499075547598
 20
-133.0938571173342
 10
85.76255151935797
 20
-132.9837863165804
 10
85.76255151935797
 20
-132.9837863165804
 10
85.24423690360214
 20
-132.9837863165804
 10
85.24423690360214
 20
-132.9837863165804
 10
85.14484589885268
 20
-133.2249430005479
 10
85.07077634591981
 20
-133.3138264640674
 10
85.0327080408078
 20
-133.3582681958271
 10
85.0327080408078
 20
-133.3582681958271
 10
84.90782332946749
 20
-133.2376898538434
 10
84.90782332946749
 20
-133.2376898538434
 97
        0
 97
        0
 75
     2
 76
     1
 98
        0
  0
SPLINE
  5
172
330
130
100
AcDbEntity
  8
_U+30EC_U+30A4_U+30E4_U+30FC 1
370
     0
100
AcDbSpline
210
0.0
220
0.0
230
1.0
 70
    11
 71
     3
 72
    50
 73
    46
 74
     0
 42
0.0000000001
 43
0.0000000001
 12
1.0
 22
0.0
 32
0.0
 13
1.0
 23
0.0
 33
0.0
 40
0.0
 40
0.0
 40
0.0
 40
0.0
 40
1.0
 40
1.0
 40
1.0
 40
2.0
 40
2.0
 40
2.0
 40
3.0
 40
3.0
 40
3.0
 40
4.0
 40
4.0
 40
4.0
 40
5.0
 40
5.0
 40
5.0
 40
6.0
 40
6.0
 40
6.0
 40
7.0
 40
7.0
 40
7.0
 40
8.0
 40
8.0
 40
8.0
 40
9.0
 40
9.0
 40
9.0
 40
10.0
 40
10.0
 40
10.0
 40
11.0
 40
11.0
 40
11.0
 40
12.0
 40
12.0
 40
12.0
 40
13.0
 40
13.0
 40
13.0
 40
14.0
 40
14.0
 40
14.0
 40
15.0
 40
15.0
 40
15.0
 40
15.0
 10
86.40247800574313
 20
-132.7850043070815
 30
0.0
 10
86.40247800574313
 20
-132.7850043070815
 30
0.0
 10
87.05411781677815
 20
-132.7850043070815
 30
0.0
 10
87.05411781677815
 20
-132.7850043070815
 30
0.0
 10
87.05411781677815
 20
-132.7850043070815
 30
0.0
 10
87.05411781677815
 20
-132.9097167636476
 30
0.0
 10
87.05411781677815
 20
-132.9097167636476
 30
0.0
 10
87.05411781677815
 20
-132.9097167636476
 30
0.0
 10
86.7769598849898
 20
-132.9097167636476
 30
0.0
 10
86.7769598849898
 20
-132.9097167636476
 30
0.0
 10
86.7769598849898
 20
-132.9097167636476
 30
0.0
 10
86.7769598849898
 20
-133.1848076381448
 30
0.0
 10
86.7769598849898
 20
-133.1848076381448
 30
0.0
 10
86.7769598849898
 20
-133.1848076381448
 30
0.0
 10
86.61624618060289
 20
-133.1848076381448
 30
0.0
 10
86.61624618060289
 20
-133.1848076381448
 30
0.0
 10
86.61624618060289
 20
-133.1848076381448
 30
0.0
 10
86.61624618060289
 20
-132.9097167636476
 30
0.0
 10
86.61624618060289
 20
-132.9097167636476
 30
0.0
 10
86.61624618060289
 20
-132.9097167636476
 30
0.0
 10
86.39627683386969
 20
-132.9097167636476
 30
0.0
 10
86.39627683386969
 20
-132.9097167636476
 30
0.0
 10
86.38559703786541
 20
-132.9794799472239
 30
0.0
 10
86.36027558604883
 20
-133.1741278421405
 30
0.0
 10
86.20576305353536
 20
-133.3243340052974
 30
0.0
 10
86.20576305353536
 20
-133.3243340052974
 30
0.0
 10
86.08311765426048
 20
-133.2144354593179
 30
0.0
 10
86.08311765426048
 20
-133.2144354593179
 30
0.0
 10
86.20369599624422
 20
-133.1148721997942
 30
0.0
 10
86.2460706707128
 20
-132.9097167636476
 30
0.0
 10
86.2460706707128
 20
-132.8272067267758
 30
0.0
 10
86.2460706707128
 20
-132.8272067267758
 30
0.0
 10
86.2460706707128
 20
-132.5416083110486
 30
0.0
 10
86.2460706707128
 20
-132.5416083110486
 30
0.0
 10
86.73045109593892
 20
-132.5416083110486
 30
0.0
 10
86.88496362845237
 20
-132.4950995219978
 30
0.0
 10
86.98004826384528
 20
-132.4675387581158
 30
0.0
 10
86.98004826384528
 20
-132.4675387581158
 30
0.0
 10
87.03293047954385
 20
-132.6072373800426
 30
0.0
 10
87.03293047954385
 20
-132.6072373800426
 30
0.0
 10
86.82346867404067
 20
-132.6558132263847
 30
0.0
 10
86.6606879123626
 20
-132.6664930223889
 30
0.0
 10
86.40247800574313
 20
-132.6706271369712
 30
0.0
 10
86.40247800574313
 20
-132.6706271369712
 30
0.0
 10
86.40247800574313
 20
-132.7850043070815
 30
0.0
 10
86.40247800574313
 20
-132.7850043070815
 30
0.0
  0
SPLINE
  5
173
330
130
100
AcDbEntity
  8
_U+30EC_U+30A4_U+30E4_U+30FC 1
370
     0
100
AcDbSpline
210
0.0
220
0.0
230
1.0
 70
    11
 71
     3
 72
    32
 73
    28
 74
     0
 42
0.0000000001
 43
0.0000000001
 12
1.0
 22
0.0
 32
0.0
 13
1.0
 23
0.0
 33
0.0
 40
0.0
 40
0.0
 40
0.0
 40
0.0
 40
1.0
 40
1.0
 40
1.0
 40
2.0
 40
2.0
 40
2.0
 40
3.0
 40
3.0
 40
3.0
 40
4.0
 40
4.0
 40
4.0
 40
5.0
 40
5.0
 40
5.0
 40
6.0
 40
6.0
 40
6.0
 40
7.0
 40
7.0
 40
7.0
 40
8.0
 40
8.0
 40
8.0
 40
9.0
 40
9.0
 40
9.0
 40
9.0
 10
86.31790091158025
 20
-134.1303140940716
 30
0.0
 10
86.31790091158025
 20
-134.1303140940716
 30
0.0
 10
86.31790091158025
 20
-133.2313164271957
 30
0.0
 10
86.31790091158025
 20
-133.2313164271957
 30
0.0
 10
86.31790091158025
 20
-133.2313164271957
 30
0.0
 10
87.81565617379262
 20
-133.2313164271957
 30
0.0
 10
87.81565617379262
 20
-133.2313164271957
 30
0.0
 10
87.81565617379262
 20
-133.2313164271957
 30
0.0
 10
87.81565617379262
 20
-134.1303140940716
 30
0.0
 10
87.81565617379262
 20
-134.1303140940716
 30
0.0
 10
87.81565617379262
 20
-134.1303140940716
 30
0.0
 10
86.67119545359262
 20
-134.1303140940716
 30
0.0
 10
86.67119545359262
 20
-134.1303140940716
 30
0.0
 10
86.67119545359262
 20
-134.1303140940716
 30
0.0
 10
86.7769598849898
 20
-134.2403848948253
 30
0.0
 10
86.7769598849898
 20
-134.2403848948253
 30
0.0
 10
86.61193981124633
 20
-134.3356417849925
 30
0.0
 10
86.44691973750285
 20
-134.3969644846299
 30
0.0
 10
86.15081378054563
 20
-134.4477796430374
 30
0.0
 10
86.15081378054563
 20
-134.4477796430374
 30
0.0
 10
86.08518471155162
 20
-134.2953341678151
 30
0.0
 10
86.08518471155162
 20
-134.2953341678151
 30
0.0
 10
86.46397296015485
 20
-134.2424519521165
 30
0.0
 10
86.58661835942974
 20
-134.1747558258313
 30
0.0
 10
86.66706133901032
 20
-134.1303140940716
 30
0.0
 10
86.66706133901032
 20
-134.1303140940716
 30
0.0
 10
86.31790091158025
 20
-134.1303140940716
 30
0.0
 10
86.31790091158025
 20
-134.1303140940716
 30
0.0
  0
POLYLINE
  5
174
330
130
100
AcDbEntity
  8
_U+30EC_U+30A4_U+30E4_U+30FC 1
370
     0
100
AcDb2dPolyline
 66
     1
 10
0.0
 20
0.0
 30
0.0
  0
VERTEX
  5
175
330
174
100
AcDbEntity
  8
_U+30EC_U+30A4_U+30E4_U+30FC 1
370
     0
100
AcDbVertex
100
AcDb2dVertex
 10
87.64650198546686
 20
-133.3646416224748
 30
0.0
  0
VERTEX
  5
176
330
174
100
AcDbEntity
  8
_U+30EC_U+30A4_U+30E4_U+30FC 1
370
     0
100
AcDbVertex
100
AcDb2dVertex
 10
86.48722735468029
 20
-133.3646416224748
 30
0.0
  0
VERTEX
  5
177
330
174
100
AcDbEntity
  8
_U+30EC_U+30A4_U+30E4_U+30FC 1
370
     0
100
AcDbVertex
100
AcDb2dVertex
 10
86.48722735468029
 20
-133.4936604483974
 30
0.0
  0
VERTEX
  5
178
330
174
100
AcDbEntity
  8
_U+30EC_U+30A4_U+30E4_U+30FC 1
370
     0
100
AcDbVertex
100
AcDb2dVertex
 10
87.64650198546686
 20
-133.4936604483974
 30
0.0
  0
VERTEX
  5
179
330
174
100
AcDbEntity
  8
_U+30EC_U+30A4_U+30E4_U+30FC 1
370
     0
100
AcDbVertex
100
AcDb2dVertex
 10
87.64650198546686
 20
-133.3646416224748
 30
0.0
  0
SEQEND
  5
17A
330
174
100
AcDbEntity
  8
_U+30EC_U+30A4_U+30E4_U+30FC 1
370
     0
  0
POLYLINE
  5
17B
330
130
100
AcDbEntity
  8
_U+30EC_U+30A4_U+30E4_U+30FC 1
370
     0
100
AcDb2dPolyline
 66
     1
 10
0.0
 20
0.0
 30
0.0
  0
VERTEX
  5
17C
330
17B
100
AcDbEntity
  8
_U+30EC_U+30A4_U+30E4_U+30FC 1
370
     0
100
AcDbVertex
100
AcDb2dVertex
 10
87.64650198546686
 20
-133.6035589943769
 30
0.0
  0
VERTEX
  5
17D
330
17B
100
AcDbEntity
  8
_U+30EC_U+30A4_U+30E4_U+30FC 1
370
     0
100
AcDbVertex
100
AcDb2dVertex
 10
86.48722735468029
 20
-133.6035589943769
 30
0.0
  0
VERTEX
  5
17E
330
17B
100
AcDbEntity
  8
_U+30EC_U+30A4_U+30E4_U+30FC 1
370
     0
100
AcDbVertex
100
AcDb2dVertex
 10
86.48722735468029
 20
-133.7453246735949
 30
0.0
  0
VERTEX
  5
17F
330
17B
100
AcDbEntity
  8
_U+30EC_U+30A4_U+30E4_U+30FC 1
370
     0
100
AcDbVertex
100
AcDb2dVertex
 10
87.64650198546686
 20
-133.7453246735949
 30
0.0
  0
VERTEX
  5
180
330
17B
100
AcDbEntity
  8
_U+30EC_U+30A4_U+30E4_U+30FC 1
370
     0
100
AcDbVertex
100
AcDb2dVertex
 10
87.64650198546686
 20
-133.6035589943769
 30
0.0
  0
SEQEND
  5
181
330
17B
100
AcDbEntity
  8
_U+30EC_U+30A4_U+30E4_U+30FC 1
370
     0
  0
POLYLINE
  5
182
330
130
100
AcDbEntity
  8
_U+30EC_U+30A4_U+30E4_U+30FC 1
370
     0
100
AcDb2dPolyline
 66
     1
 10
0.0
 20
0.0
 30
0.0
  0
VERTEX
  5
183
330
182
100
AcDbEntity
  8
_U+30EC_U+30A4_U+30E4_U+30FC 1
370
     0
100
AcDbVertex
100
AcDb2dVertex
 10
87.64650198546686
 20
-133.8553954743487
 30
0.0
  0
VERTEX
  5
184
330
182
100
AcDbEntity
  8
_U+30EC_U+30A4_U+30E4_U+30FC 1
370
     0
100
AcDbVertex
100
AcDb2dVertex
 10
86.48722735468029
 20
-133.8553954743487
 30
0.0
  0
VERTEX
  5
185
330
182
100
AcDbEntity
  8
_U+30EC_U+30A4_U+30E4_U+30FC 1
370
     0
100
AcDbVertex
100
AcDb2dVertex
 10
86.48722735468029
 20
-133.9949218415013
 30
0.0
  0
VERTEX
  5
186
330
182
100
AcDbEntity
  8
_U+30EC_U+30A4_U+30E4_U+30FC 1
370
     0
100
AcDbVertex
100
AcDb2dVertex
 10
87.64650198546686
 20
-133.9949218415013
 30
0.0
  0
VERTEX
  5
187
330
182
100
AcDbEntity
  8
_U+30EC_U+30A4_U+30E4_U+30FC 1
370
     0
100
AcDbVertex
100
AcDb2dVertex
 10
87.64650198546686
 20
-133.8553954743487
 30
0.0
  0
SEQEND
  5
188
330
182
100
AcDbEntity
  8
_U+30EC_U+30A4_U+30E4_U+30FC 1
370
     0
  0
SPLINE
  5
189
330
130
100
AcDbEntity
  8
_U+30EC_U+30A4_U+30E4_U+30FC 1
370
     0
100
AcDbSpline
210
0.0
220
0.0
230
1.0
 70
    11
 71
     3
 72
    50
 73
    46
 74
     0
 42
0.0000000001
 43
0.0000000001
 12
1.0
 22
0.0
 32
0.0
 13
1.0
 23
0.0
 33
0.0
 40
0.0
 40
0.0
 40
0.0
 40
0.0
 40
1.0
 40
1.0
 40
1.0
 40
2.0
 40
2.0
 40
2.0
 40
3.0
 40
3.0
 40
3.0
 40
4.0
 40
4.0
 40
4.0
 40
5.0
 40
5.0
 40
5.0
 40
6.0
 40
6.0
 40
6.0
 40
7.0
 40
7.0
 40
7.0
 40
8.0
 40
8.0
 40
8.0
 40
9.0
 40
9.0
 40
9.0
 40
10.0
 40
10.0
 40
10.0
 40
11.0
 40
11.0
 40
11.0
 40
12.0
 40
12.0
 40
12.0
 40
13.0
 40
13.0
 40
13.0
 40
14.0
 40
14.0
 40
14.0
 40
15.0
 40
15.0
 40
15.0
 40
15.0
 10
87.3100884113322
 20
-132.7850043070815
 30
0.0
 10
87.3100884113322
 20
-132.7850043070815
 30
0.0
 10
88.0463053165301
 20
-132.7850043070815
 30
0.0
 10
88.0463053165301
 20
-132.7850043070815
 30
0.0
 10
88.0463053165301
 20
-132.7850043070815
 30
0.0
 10
88.0463053165301
 20
-132.9097167636476
 30
0.0
 10
88.0463053165301
 20
-132.9097167636476
 30
0.0
 10
88.0463053165301
 20
-132.9097167636476
 30
0.0
 10
87.71626516904315
 20
-132.9097167636476
 30
0.0
 10
87.71626516904315
 20
-132.9097167636476
 30
0.0
 10
87.71626516904315
 20
-132.9097167636476
 30
0.0
 10
87.71626516904315
 20
-133.1848076381448
 30
0.0
 10
87.71626516904315
 20
-133.1848076381448
 30
0.0
 10
87.71626516904315
 20
-133.1848076381448
 30
0.0
 10
87.55968557923856
 20
-133.1848076381448
 30
0.0
 10
87.55968557923856
 20
-133.1848076381448
 30
0.0
 10
87.55968557923856
 20
-133.1848076381448
 30
0.0
 10
87.55968557923856
 20
-132.9097167636476
 30
0.0
 10
87.55968557923856
 20
-132.9097167636476
 30
0.0
 10
87.55968557923856
 20
-132.9097167636476
 30
0.0
 10
87.29527450074563
 20
-132.9097167636476
 30
0.0
 10
87.29527450074563
 20
-132.9097167636476
 30
0.0
 10
87.26995304892904
 20
-133.0387355895702
 30
0.0
 10
87.21913789052161
 20
-133.1296861103808
 30
0.0
 10
87.1218139430633
 20
-133.2121961472525
 30
0.0
 10
87.1218139430633
 20
-133.2121961472525
 30
0.0
 10
86.9991685437884
 20
-133.1043646585642
 30
0.0
 10
86.9991685437884
 20
-133.1043646585642
 30
0.0
 10
87.13456079635873
 20
-132.9942938578104
 30
0.0
 10
87.15781519088416
 20
-132.856834547949
 30
0.0
 10
87.15781519088416
 20
-132.7827649950161
 30
0.0
 10
87.15781519088416
 20
-132.7827649950161
 30
0.0
 10
87.15781519088416
 20
-132.5395412537575
 30
0.0
 10
87.15781519088416
 20
-132.5395412537575
 30
0.0
 10
87.62738170552372
 20
-132.5395412537575
 30
0.0
 10
87.7946410913326
 20
-132.4994058913543
 30
0.0
 10
87.93847382784178
 20
-132.4570312168858
 30
0.0
 10
87.93847382784178
 20
-132.4570312168858
 30
0.0
 10
87.99772947018808
 20
-132.5944905267472
 30
0.0
 10
87.99772947018808
 20
-132.5944905267472
 30
0.0
 10
87.72694496504744
 20
-132.6644259650978
 30
0.0
 10
87.41171872814708
 20
-132.6685600796801
 30
0.0
 10
87.3100884113322
 20
-132.6685600796801
 30
0.0
 10
87.3100884113322
 20
-132.6685600796801
 30
0.0
 10
87.3100884113322
 20
-132.7850043070815
 30
0.0
 10
87.3100884113322
 20
-132.7850043070815
 30
0.0
  0
SPLINE
  5
18A
330
130
100
AcDbEntity
  8
_U+30EC_U+30A4_U+30E4_U+30FC 1
370
     0
100
AcDbSpline
210
0.0
220
0.0
230
1.0
 70
    11
 71
     3
 72
    17
 73
    13
 74
     0
 42
0.0000000001
 43
0.0000000001
 12
1.0
 22
0.0
 32
0.0
 13
1.0
 23
0.0
 33
0.0
 40
0.0
 40
0.0
 40
0.0
 40
0.0
 40
1.0
 40
1.0
 40
1.0
 40
2.0
 40
2.0
 40
2.0
 40
3.0
 40
3.0
 40
3.0
 40
4.0
 40
4.0
 40
4.0
 40
4.0
 10
87.42222626937709
 20
-134.1366875207193
 30
0.0
 10
87.64219561611029
 20
-134.2488253787642
 30
0.0
 10
87.90884600666863
 20
-134.2868936838762
 30
0.0
 10
88.03786483259123
 20
-134.2975734798805
 30
0.0
 10
88.03786483259123
 20
-134.2975734798805
 30
0.0
 10
87.96810164901493
 20
-134.4519137576197
 30
0.0
 10
87.96810164901493
 20
-134.4519137576197
 30
0.0
 10
87.84752330703118
 20
-134.4370998470331
 30
0.0
 10
87.5851792858294
 20
-134.3969644846299
 30
0.0
 10
87.32076820733649
 20
-134.2508924360554
 30
0.0
 10
87.32076820733649
 20
-134.2508924360554
 30
0.0
 10
87.42222626937709
 20
-134.1366875207193
 30
0.0
 10
87.42222626937709
 20
-134.1366875207193
 30
0.0
  0
HATCH
  5
18B
330
130
100
AcDbEntity
  8
_U+30EC_U+30A4_U+30E4_U+30FC 1
 62
    12
420
 15007761
100
AcDbHatch
 10
0.0
 20
0.0
 30
0.0
210
0.0
220
0.0
230
1.0
  2
SOLID
 70
     1
 71
     0
 91
        7
 92
        1
 93
        1
 72
     4
 94
        3
 73
     0
 74
     1
 95
       50
 96
       46
 40
0.0
 40
0.0
 40
0.0
 40
0.0
 40
1.0
 40
1.0
 40
1.0
 40
2.0
 40
2.0
 40
2.0
 40
3.0
 40
3.0
 40
3.0
 40
4.0
 40
4.0
 40
4.0
 40
5.0
 40
5.0
 40
5.0
 40
6.0
 40
6.0
 40
6.0
 40
7.0
 40
7.0
 40
7.0
 40
8.0
 40
8.0
 40
8.0
 40
9.0
 40
9.0
 40
9.0
 40
10.0
 40
10.0
 40
10.0
 40
11.0
 40
11.0
 40
11.0
 40
12.0
 40
12.0
 40
12.0
 40
13.0
 40
13.0
 40
13.0
 40
14.0
 40
14.0
 40
14.0
 40
15.0
 40
15.0
 40
15.0
 40
15.0
 10
86.40247800574313
 20
-132.7850043070815
 10
86.40247800574313
 20
-132.7850043070815
 10
87.05411781677815
 20
-132.7850043070815
 10
87.05411781677815
 20
-132.7850043070815
 10
87.05411781677815
 20
-132.7850043070815
 10
87.05411781677815
 20
-132.9097167636476
 10
87.05411781677815
 20
-132.9097167636476
 10
87.05411781677815
 20
-132.9097167636476
 10
86.7769598849898
 20
-132.9097167636476
 10
86.7769598849898
 20
-132.9097167636476
 10
86.7769598849898
 20
-132.9097167636476
 10
86.7769598849898
 20
-133.1848076381448
 10
86.7769598849898
 20
-133.1848076381448
 10
86.7769598849898
 20
-133.1848076381448
 10
86.61624618060289
 20
-133.1848076381448
 10
86.61624618060289
 20
-133.1848076381448
 10
86.61624618060289
 20
-133.1848076381448
 10
86.61624618060289
 20
-132.9097167636476
 10
86.61624618060289
 20
-132.9097167636476
 10
86.61624618060289
 20
-132.9097167636476
 10
86.39627683386969
 20
-132.9097167636476
 10
86.39627683386969
 20
-132.9097167636476
 10
86.38559703786541
 20
-132.9794799472239
 10
86.36027558604883
 20
-133.1741278421405
 10
86.20576305353536
 20
-133.3243340052974
 10
86.20576305353536
 20
-133.3243340052974
 10
86.08311765426048
 20
-133.2144354593179
 10
86.08311765426048
 20
-133.2144354593179
 10
86.20369599624422
 20
-133.1148721997942
 10
86.2460706707128
 20
-132.9097167636476
 10
86.2460706707128
 20
-132.8272067267758
 10
86.2460706707128
 20
-132.8272067267758
 10
86.2460706707128
 20
-132.5416083110486
 10
86.2460706707128
 20
-132.5416083110486
 10
86.73045109593892
 20
-132.5416083110486
 10
86.88496362845237
 20
-132.4950995219978
 10
86.98004826384528
 20
-132.4675387581158
 10
86.98004826384528
 20
-132.4675387581158
 10
87.03293047954385
 20
-132.6072373800426
 10
87.03293047954385
 20
-132.6072373800426
 10
86.82346867404067
 20
-132.6558132263847
 10
86.6606879123626
 20
-132.6664930223889
 10
86.40247800574313
 20
-132.6706271369712
 10
86.40247800574313
 20
-132.6706271369712
 10
86.40247800574313
 20
-132.7850043070815
 10
86.40247800574313
 20
-132.7850043070815
 97
        0
 97
        0
 92
        1
 93
        1
 72
     4
 94
        3
 73
     0
 74
     1
 95
       32
 96
       28
 40
0.0
 40
0.0
 40
0.0
 40
0.0
 40
1.0
 40
1.0
 40
1.0
 40
2.0
 40
2.0
 40
2.0
 40
3.0
 40
3.0
 40
3.0
 40
4.0
 40
4.0
 40
4.0
 40
5.0
 40
5.0
 40
5.0
 40
6.0
 40
6.0
 40
6.0
 40
7.0
 40
7.0
 40
7.0
 40
8.0
 40
8.0
 40
8.0
 40
9.0
 40
9.0
 40
9.0
 40
9.0
 10
86.31790091158025
 20
-134.1303140940716
 10
86.31790091158025
 20
-134.1303140940716
 10
86.31790091158025
 20
-133.2313164271957
 10
86.31790091158025
 20
-133.2313164271957
 10
86.31790091158025
 20
-133.2313164271957
 10
87.81565617379262
 20
-133.2313164271957
 10
87.81565617379262
 20
-133.2313164271957
 10
87.81565617379262
 20
-133.2313164271957
 10
87.81565617379262
 20
-134.1303140940716
 10
87.81565617379262
 20
-134.1303140940716
 10
87.81565617379262
 20
-134.1303140940716
 10
86.67119545359262
 20
-134.1303140940716
 10
86.67119545359262
 20
-134.1303140940716
 10
86.67119545359262
 20
-134.1303140940716
 10
86.7769598849898
 20
-134.2403848948253
 10
86.7769598849898
 20
-134.2403848948253
 10
86.61193981124633
 20
-134.3356417849925
 10
86.44691973750285
 20
-134.3969644846299
 10
86.15081378054563
 20
-134.4477796430374
 10
86.15081378054563
 20
-134.4477796430374
 10
86.08518471155162
 20
-134.2953341678151
 10
86.08518471155162
 20
-134.2953341678151
 10
86.46397296015485
 20
-134.2424519521165
 10
86.58661835942974
 20
-134.1747558258313
 10
86.66706133901032
 20
-134.1303140940716
 10
86.66706133901032
 20
-134.1303140940716
 10
86.31790091158025
 20
-134.1303140940716
 10
86.31790091158025
 20
-134.1303140940716
 97
        0
 97
        0
 92
        1
 93
        4
 72
     1
 10
87.64650198546686
 20
-133.3646416224748
 11
86.48722735468029
 21
-133.3646416224748
 72
     1
 10
86.48722735468029
 20
-133.3646416224748
 11
86.48722735468029
 21
-133.4936604483974
 72
     1
 10
86.48722735468029
 20
-133.4936604483974
 11
87.64650198546686
 21
-133.4936604483974
 72
     1
 10
87.64650198546686
 20
-133.4936604483974
 11
87.64650198546686
 21
-133.3646416224748
 97
        0
 92
        1
 93
        4
 72
     1
 10
87.64650198546686
 20
-133.6035589943769
 11
86.48722735468029
 21
-133.6035589943769
 72
     1
 10
86.48722735468029
 20
-133.6035589943769
 11
86.48722735468029
 21
-133.7453246735949
 72
     1
 10
86.48722735468029
 20
-133.7453246735949
 11
87.64650198546686
 21
-133.7453246735949
 72
     1
 10
87.64650198546686
 20
-133.7453246735949
 11
87.64650198546686
 21
-133.6035589943769
 97
        0
 92
        1
 93
        4
 72
     1
 10
87.64650198546686
 20
-133.8553954743487
 11
86.48722735468029
 21
-133.8553954743487
 72
     1
 10
86.48722735468029
 20
-133.8553954743487
 11
86.48722735468029
 21
-133.9949218415013
 72
     1
 10
86.48722735468029
 20
-133.9949218415013
 11
87.64650198546686
 21
-133.9949218415013
 72
     1
 10
87.64650198546686
 20
-133.9949218415013
 11
87.64650198546686
 21
-133.8553954743487
 97
        0
 92
        1
 93
        1
 72
     4
 94
        3
 73
     0
 74
     1
 95
       50
 96
       46
 40
0.0
 40
0.0
 40
0.0
 40
0.0
 40
1.0
 40
1.0
 40
1.0
 40
2.0
 40
2.0
 40
2.0
 40
3.0
 40
3.0
 40
3.0
 40
4.0
 40
4.0
 40
4.0
 40
5.0
 40
5.0
 40
5.0
 40
6.0
 40
6.0
 40
6.0
 40
7.0
 40
7.0
 40
7.0
 40
8.0
 40
8.0
 40
8.0
 40
9.0
 40
9.0
 40
9.0
 40
10.0
 40
10.0
 40
10.0
 40
11.0
 40
11.0
 40
11.0
 40
12.0
 40
12.0
 40
12.0
 40
13.0
 40
13.0
 40
13.0
 40
14.0
 40
14.0
 40
14.0
 40
15.0
 40
15.0
 40
15.0
 40
15.0
 10
87.3100884113322
 20
-132.7850043070815
 10
87.3100884113322
 20
-132.7850043070815
 10
88.0463053165301
 20
-132.7850043070815
 10
88.0463053165301
 20
-132.7850043070815
 10
88.0463053165301
 20
-132.7850043070815
 10
88.0463053165301
 20
-132.9097167636476
 10
88.0463053165301
 20
-132.9097167636476
 10
88.0463053165301
 20
-132.9097167636476
 10
87.71626516904315
 20
-132.9097167636476
 10
87.71626516904315
 20
-132.9097167636476
 10
87.71626516904315
 20
-132.9097167636476
 10
87.71626516904315
 20
-133.1848076381448
 10
87.71626516904315
 20
-133.1848076381448
 10
87.71626516904315
 20
-133.1848076381448
 10
87.55968557923856
 20
-133.1848076381448
 10
87.55968557923856
 20
-133.1848076381448
 10
87.55968557923856
 20
-133.1848076381448
 10
87.55968557923856
 20
-132.9097167636476
 10
87.55968557923856
 20
-132.9097167636476
 10
87.55968557923856
 20
-132.9097167636476
 10
87.29527450074563
 20
-132.9097167636476
 10
87.29527450074563
 20
-132.9097167636476
 10
87.26995304892904
 20
-133.0387355895702
 10
87.21913789052161
 20
-133.1296861103808
 10
87.1218139430633
 20
-133.2121961472525
 10
87.1218139430633
 20
-133.2121961472525
 10
86.9991685437884
 20
-133.1043646585642
 10
86.9991685437884
 20
-133.1043646585642
 10
87.13456079635873
 20
-132.9942938578104
 10
87.15781519088416
 20
-132.856834547949
 10
87.15781519088416
 20
-132.7827649950161
 10
87.15781519088416
 20
-132.7827649950161
 10
87.15781519088416
 20
-132.5395412537575
 10
87.15781519088416
 20
-132.5395412537575
 10
87.62738170552372
 20
-132.5395412537575
 10
87.7946410913326
 20
-132.4994058913543
 10
87.93847382784178
 20
-132.4570312168858
 10
87.93847382784178
 20
-132.4570312168858
 10
87.99772947018808
 20
-132.5944905267472
 10
87.99772947018808
 20
-132.5944905267472
 10
87.72694496504744
 20
-132.6644259650978
 10
87.41171872814708
 20
-132.6685600796801
 10
87.3100884113322
 20
-132.6685600796801
 10
87.3100884113322
 20
-132.6685600796801
 10
87.3100884113322
 20
-132.7850043070815
 10
87.3100884113322
 20
-132.7850043070815
 97
        0
 97
        0
 92
        1
 93
        1
 72
     4
 94
        3
 73
     0
 74
     1
 95
       17
 96
       13
 40
0.0
 40
0.0
 40
0.0
 40
0.0
 40
1.0
 40
1.0
 40
1.0
 40
2.0
 40
2.0
 40
2.0
 40
3.0
 40
3.0
 40
3.0
 40
4.0
 40
4.0
 40
4.0
 40
4.0
 10
87.42222626937709
 20
-134.1366875207193
 10
87.64219561611029
 20
-134.2488253787642
 10
87.90884600666863
 20
-134.2868936838762
 10
88.03786483259123
 20
-134.2975734798805
 10
88.03786483259123
 20
-134.2975734798805
 10
87.96810164901493
 20
-134.4519137576197
 10
87.96810164901493
 20
-134.4519137576197
 10
87.84752330703118
 20
-134.4370998470331
 10
87.5851792858294
 20
-134.3969644846299
 10
87.32076820733649
 20
-134.2508924360554
 10
87.32076820733649
 20
-134.2508924360554
 10
87.42222626937709
 20
-134.1366875207193
 10
87.42222626937709
 20
-134.1366875207193
 97
        0
 97
        0
 75
     2
 76
     1
 98
        0
  0
ENDBLK
  5
133
330
130
100
AcDbEntity
  8
0
100
AcDbBlockEnd
  0
BLOCK
  5
19B
330
199
100
AcDbEntity
  8
0
100
AcDbBlockBegin
  2
block 7
 70
     0
 10
0.0
 20
0.0
 30
0.0
  3
block 7
  1

  0
SPLINE
  5
19D
330
199
100
AcDbEntity
  8
_U+30EC_U+30A4_U+30E4_U+30FC 1
370
     0
100
AcDbSpline
210
0.0
220
0.0
230
1.0
 70
    11
 71
     3
 72
   242
 73
   238
 74
     0
 42
0.0000000001
 43
0.0000000001
 12
1.0
 22
0.0
 32
0.0
 13
1.0
 23
0.0
 33
0.0
 40
0.0
 40
0.0
 40
0.0
 40
0.0
 40
1.0
 40
1.0
 40
1.0
 40
2.0
 40
2.0
 40
2.0
 40
3.0
 40
3.0
 40
3.0
 40
4.0
 40
4.0
 40
4.0
 40
5.0
 40
5.0
 40
5.0
 40
6.0
 40
6.0
 40
6.0
 40
7.0
 40
7.0
 40
7.0
 40
8.0
 40
8.0
 40
8.0
 40
9.0
 40
9.0
 40
9.0
 40
10.0
 40
10.0
 40
10.0
 40
11.0
 40
11.0
 40
11.0
 40
12.0
 40
12.0
 40
12.0
 40
13.0
 40
13.0
 40
13.0
 40
14.0
 40
14.0
 40
14.0
 40
15.0
 40
15.0
 40
15.0
 40
16.0
 40
16.0
 40
16.0
 40
17.0
 40
17.0
 40
17.0
 40
18.0
 40
18.0
 40
18.0
 40
19.0
 40
19.0
 40
19.0
 40
20.0
 40
20.0
 40
20.0
 40
21.0
 40
21.0
 40
21.0
 40
22.0
 40
22.0
 40
22.0
 40
23.0
 40
23.0
 40
23.0
 40
24.0
 40
24.0
 40
24.0
 40
25.0
 40
25.0
 40
25.0
 40
26.0
 40
26.0
 40
26.0
 40
27.0
 40
27.0
 40
27.0
 40
28.0
 40
28.0
 40
28.0
 40
29.0
 40
29.0
 40
29.0
 40
30.0
 40
30.0
 40
30.0
 40
31.0
 40
31.0
 40
31.0
 40
32.0
 40
32.0
 40
32.0
 40
33.0
 40
33.0
 40
33.0
 40
34.0
 40
34.0
 40
34.0
 40
35.0
 40
35.0
 40
35.0
 40
36.0
 40
36.0
 40
36.0
 40
37.0
 40
37.0
 40
37.0
 40
38.0
 40
38.0
 40
38.0
 40
39.0
 40
39.0
 40
39.0
 40
40.0
 40
40.0
 40
40.0
 40
41.0
 40
41.0
 40
41.0
 40
42.0
 40
42.0
 40
42.0
 40
43.0
 40
43.0
 40
43.0
 40
44.0
 40
44.0
 40
44.0
 40
45.0
 40
45.0
 40
45.0
 40
46.0
 40
46.0
 40
46.0
 40
47.0
 40
47.0
 40
47.0
 40
48.0
 40
48.0
 40
48.0
 40
49.0
 40
49.0
 40
49.0
 40
50.0
 40
50.0
 40
50.0
 40
51.0
 40
51.0
 40
51.0
 40
52.0
 40
52.0
 40
52.0
 40
53.0
 40
53.0
 40
53.0
 40
54.0
 40
54.0
 40
54.0
 40
55.0
 40
55.0
 40
55.0
 40
56.0
 40
56.0
 40
56.0
 40
57.0
 40
57.0
 40
57.0
 40
58.0
 40
58.0
 40
58.0
 40
59.0
 40
59.0
 40
59.0
 40
60.0
 40
60.0
 40
60.0
 40
61.0
 40
61.0
 40
61.0
 40
62.0
 40
62.0
 40
62.0
 40
63.0
 40
63.0
 40
63.0
 40
64.0
 40
64.0
 40
64.0
 40
65.0
 40
65.0
 40
65.0
 40
66.0
 40
66.0
 40
66.0
 40
67.0
 40
67.0
 40
67.0
 40
68.0
 40
68.0
 40
68.0
 40
69.0
 40
69.0
 40
69.0
 40
70.0
 40
70.0
 40
70.0
 40
71.0
 40
71.0
 40
71.0
 40
72.0
 40
72.0
 40
72.0
 40
73.0
 40
73.0
 40
73.0
 40
74.0
 40
74.0
 40
74.0
 40
75.0
 40
75.0
 40
75.0
 40
76.0
 40
76.0
 40
76.0
 40
77.0
 40
77.0
 40
77.0
 40
78.0
 40
78.0
 40
78.0
 40
79.0
 40
79.0
 40
79.0
 40
79.0
 10
99.59874400721837
 20
-154.281366606395
 30
0.0
 10
99.59874400721837
 20
-154.281366606395
 30
0.0
 10
99.34484046995546
 20
-154.281366606395
 30
0.0
 10
99.34484046995546
 20
-154.281366606395
 30
0.0
 10
99.34484046995546
 20
-154.281366606395
 30
0.0
 10
99.0676825381671
 20
-154.281366606395
 30
0.0
 10
99.0676825381671
 20
-154.281366606395
 30
0.0
 10
99.0676825381671
 20
-154.281366606395
 30
0.0
 10
99.19463430679856
 20
-154.3237412808635
 30
0.0
 10
99.19463430679856
 20
-154.3237412808635
 30
0.0
 10
99.20514184802857
 20
-154.3278753954458
 30
0.0
 10
99.217888701324
 20
-154.3340765673193
 30
0.0
 10
99.217888701324
 20
-154.3468234206147
 30
0.0
 10
99.217888701324
 20
-154.3681830126232
 30
0.0
 10
99.1861938228597
 20
-154.3743841844967
 30
0.0
 10
99.16500648562543
 20
-154.378518299079
 30
0.0
 10
99.15449894439541
 20
-154.4019449483787
 30
0.0
 10
99.12487112322226
 20
-154.4674017625984
 30
0.0
 10
99.10575084327913
 20
-154.5118434943581
 30
0.0
 10
99.10575084327913
 20
-154.5118434943581
 30
0.0
 10
99.37653534841976
 20
-154.5118434943581
 30
0.0
 10
99.37653534841976
 20
-154.5118434943581
 30
0.0
 10
99.46748586923036
 20
-154.5118434943581
 30
0.0
 10
99.66420082143811
 20
-154.5077093797759
 30
0.0
 10
99.80596650065615
 20
-154.4990966410627
 30
0.0
 10
99.80596650065615
 20
-154.4990966410627
 30
0.0
 10
99.80596650065615
 20
-154.6768635681016
 30
0.0
 10
99.80596650065615
 20
-154.6768635681016
 30
0.0
 10
99.72345646378442
 20
-154.6727294535193
 30
0.0
 10
99.70226912655014
 20
-154.6727294535193
 30
0.0
 10
99.52260739699435
 20
-154.668595338937
 30
0.0
 10
99.4907402637558
 20
-154.8229356166762
 30
0.0
 10
99.44629853199606
 20
-154.9032063414825
 30
0.0
 10
99.40185680023635
 20
-154.9731417798331
 30
0.0
 10
99.52260739699435
 20
-155.0323974221794
 30
0.0
 10
99.62837182839152
 20
-155.0999212936903
 30
0.0
 10
99.73189694772329
 20
-155.1826035853363
 30
0.0
 10
99.73189694772329
 20
-155.1826035853363
 30
0.0
 10
99.61355791780495
 20
-155.3496907163709
 30
0.0
 10
99.61355791780495
 20
-155.3496907163709
 30
0.0
 10
99.59013126850525
 20
-155.330742691202
 30
0.0
 10
99.57755666998409
 20
-155.3221299524889
 30
0.0
 10
99.4654188119392
 20
-155.2373806035518
 30
0.0
 10
99.41667071082291
 20
-155.199484553214
 30
0.0
 10
99.35758732325088
 20
-155.1636555601674
 30
0.0
 10
99.2771443436703
 20
-155.1192138284077
 30
0.0
 10
99.06561548087596
 20
-155.3052489846112
 30
0.0
 10
98.86028778995507
 20
-155.3286756339109
 30
0.0
 10
98.57055525964556
 20
-155.358303455084
 30
0.0
 10
98.57055525964556
 20
-155.358303455084
 30
0.0
 10
98.46685788553954
 20
-155.178469470754
 30
0.0
 10
98.46685788553954
 20
-155.178469470754
 30
0.0
 10
98.78415117973105
 20
-155.1739908466232
 30
0.0
 10
98.95985104947879
 20
-155.1488416495808
 30
0.0
 10
99.11212426992684
 20
-155.0385985940529
 30
0.0
 10
98.99361298523424
 20
-154.9879556904197
 30
0.0
 10
98.9047295217148
 20
-154.9603949265377
 30
0.0
 10
98.86890052866819
 20
-154.9476480732422
 30
0.0
 10
98.84978024872505
 20
-154.9752088371243
 30
0.0
 10
98.83496633813849
 20
-154.9941568622931
 30
0.0
 10
98.80740557425649
 20
-155.0282633075971
 30
0.0
 10
98.80740557425649
 20
-155.0282633075971
 30
0.0
 10
98.61069062204872
 20
-154.9455810159511
 30
0.0
 10
98.61069062204872
 20
-154.9455810159511
 30
0.0
 10
98.69320065892046
 20
-154.8653102911448
 30
0.0
 10
98.7545233585579
 20
-154.7698811462034
 30
0.0
 10
98.81171194361305
 20
-154.668595338937
 30
0.0
 10
98.62137041805299
 20
-154.6727294535193
 30
0.0
 10
98.60018308081871
 20
-154.6727294535193
 30
0.0
 10
98.51767304394697
 20
-154.6768635681016
 30
0.0
 10
98.51767304394697
 20
-154.6768635681016
 30
0.0
 10
98.51767304394697
 20
-154.4990966410627
 30
0.0
 10
98.51767304394697
 20
-154.4990966410627
 30
0.0
 10
98.6571994110996
 20
-154.5056423224847
 30
0.0
 10
98.86666121660278
 20
-154.509776437067
 30
0.0
 10
98.89215492319363
 20
-154.509776437067
 30
0.0
 10
98.90903589107135
 20
-154.4760145013116
 30
0.0
 10
98.96398516406109
 20
-154.3554361593278
 30
0.0
 10
98.98310544400422
 20
-154.281366606395
 30
0.0
 10
98.96398516406109
 20
-154.281366606395
 30
0.0
 10
98.78639049179647
 20
-154.2875677782684
 30
0.0
 10
98.59174259687984
 20
-154.3003146315638
 30
0.0
 10
98.59174259687984
 20
-154.3003146315638
 30
0.0
 10
98.59174259687984
 20
-154.433639826843
 30
0.0
 10
98.59174259687984
 20
-154.433639826843
 30
0.0
 10
98.54299449576357
 20
-154.4591335334338
 30
0.0
 10
98.48373885341726
 20
-154.4908284118981
 30
0.0
 10
98.35058591291236
 20
-154.5562852261179
 30
0.0
 10
98.35058591291236
 20
-154.5562852261179
 30
0.0
 10
98.35058591291236
 20
-154.7023572746925
 30
0.0
 10
98.35058591291236
 20
-154.7023572746925
 30
0.0
 10
98.35058591291236
 20
-154.7023572746925
 30
0.0
 10
98.35058591291236
 20
-155.1698567320409
 30
0.0
 10
98.35058591291236
 20
-155.1698567320409
 30
0.0
 10
98.35058591291236
 20
-155.2966362458981
 30
0.0
 10
98.3145846650915
 20
-155.3558918882444
 30
0.0
 10
98.03105330665544
 20
-155.3476236590798
 30
0.0
 10
98.03105330665544
 20
-155.3476236590798
 30
0.0
 10
97.92735593254942
 20
-155.1402289108677
 30
0.0
 10
97.92735593254942
 20
-155.1402289108677
 30
0.0
 10
97.99091794425227
 20
-155.1529757641632
 30
0.0
 10
98.03949379059429
 20
-155.1571098787454
 30
0.0
 10
98.07980140777173
 20
-155.1571098787454
 30
0.0
 10
98.15593801799574
 20
-155.1571098787454
 30
0.0
 10
98.16644555922575
 20
-155.1340277389943
 30
0.0
 10
98.16644555922575
 20
-155.068226415226
 30
0.0
 10
98.16644555922575
 20
-155.068226415226
 30
0.0
 10
98.16644555922575
 20
-154.6389675177639
 30
0.0
 10
98.16644555922575
 20
-154.6389675177639
 30
0.0
 10
98.06912161176744
 20
-154.6789306253928
 30
0.0
 10
98.05224064388972
 20
-154.6854763068147
 30
0.0
 10
98.00573185483884
 20
-154.7044243319836
 30
0.0
 10
98.00142548548229
 20
-154.7254394144437
 30
0.0
 10
97.99729137089999
 20
-154.7550672356168
 30
0.0
 10
97.97817109095685
 20
-154.7550672356168
 30
0.0
 10
97.969730607018
 20
-154.7550672356168
 30
0.0
 10
97.95922306578798
 20
-154.7509331210345
 30
0.0
 10
97.95284963914027
 20
-154.7278509812833
 30
0.0
 10
97.95284963914027
 20
-154.7278509812833
 30
0.0
 10
97.89996742344168
 20
-154.5352701436579
 30
0.0
 10
97.89996742344168
 20
-154.5352701436579
 30
0.0
 10
98.045867217242
 20
-154.488761354607
 30
0.0
 10
98.11149628623602
 20
-154.4653347053073
 30
0.0
 10
98.16644555922575
 20
-154.4443196228473
 30
0.0
 10
98.16644555922575
 20
-154.4443196228473
 30
0.0
 10
98.16644555922575
 20
-154.0315971837143
 30
0.0
 10
98.16644555922575
 20
-154.0315971837143
 30
0.0
 10
98.16644555922575
 20
-154.0315971837143
 30
0.0
 10
98.11356334352718
 20
-154.0315971837143
 30
0.0
 10
98.11356334352718
 20
-154.0315971837143
 30
0.0
 10
98.11356334352718
 20
-154.0315971837143
 30
0.0
 10
98.03535967601199
 20
-154.0315971837143
 30
0.0
 10
98.03535967601199
 20
-154.0315971837143
 30
0.0
 10
97.96766354972684
 20
-154.0315971837143
 30
0.0
 10
97.95922306578798
 20
-154.0315971837143
 30
0.0
 10
97.92322181796712
 20
-154.0381428651363
 30
0.0
 10
97.92322181796712
 20
-154.0381428651363
 30
0.0
 10
97.92322181796712
 20
-153.8434949702197
 30
0.0
 10
97.92322181796712
 20
-153.8434949702197
 30
0.0
 10
97.95078258184911
 20
-153.8496961420931
 30
0.0
 10
97.95922306578798
 20
-153.8496961420931
 30
0.0
 10
98.02898624936428
 20
-153.8496961420931
 30
0.0
 10
98.02898624936428
 20
-153.8496961420931
 30
0.0
 10
98.16231144464345
 20
-153.8496961420931
 30
0.0
 10
98.16231144464345
 20
-153.8496961420931
 30
0.0
 10
98.16231144464345
 20
-153.7801052132911
 30
0.0
 10
98.16231144464345
 20
-153.6974229216451
 30
0.0
 10
98.16007213257804
 20
-153.6932888070628
 30
0.0
 10
98.15163164863918
 20
-153.5134548227328
 30
0.0
 10
98.15163164863918
 20
-153.4945067975639
 30
0.0
 10
98.14956459134802
 20
-153.447998008513
 30
0.0
 10
98.14956459134802
 20
-153.447998008513
 30
0.0
 10
98.36539982349893
 20
-153.4562662376776
 30
0.0
 10
98.36539982349893
 20
-153.4562662376776
 30
0.0
 10
98.37590736472895
 20
-153.4562662376776
 30
0.0
 10
98.39709470196323
 20
-153.4583332949688
 30
0.0
 10
98.39709470196323
 20
-153.4752142628465
 30
0.0
 10
98.39709470196323
 20
-153.4945067975639
 30
0.0
 10
98.38228079137666
 20
-153.5048420840196
 30
0.0
 10
98.35695933956006
 20
-153.524134618737
 30
0.0
 10
98.35695933956006
 20
-153.5747775223702
 30
0.0
 10
98.35058591291236
 20
-153.8031873530423
 30
0.0
 10
98.35265297020351
 20
-153.8496961420931
 30
0.0
 10
98.48167179612611
 20
-153.8496961420931
 30
0.0
 10
98.49441864942153
 20
-153.8496961420931
 30
0.0
 10
98.59174259687984
 20
-153.8414279129285
 30
0.0
 10
98.59174259687984
 20
-153.8414279129285
 30
0.0
 10
98.59174259687984
 20
-154.0360758078452
 30
0.0
 10
98.59174259687984
 20
-154.0360758078452
 30
0.0
 10
98.55367429176783
 20
-154.0336642410055
 30
0.0
 10
98.48597816548268
 20
-154.0295301264232
 30
0.0
 10
98.35058591291236
 20
-154.0315971837143
 30
0.0
 10
98.35058591291236
 20
-154.0315971837143
 30
0.0
 10
98.35058591291236
 20
-154.3702500699144
 30
0.0
 10
98.35058591291236
 20
-154.3702500699144
 30
0.0
 10
98.4055351859021
 20
-154.3468234206147
 30
0.0
 10
98.4711642548961
 20
-154.3192626567327
 30
0.0
 10
98.51974010123813
 20
-154.2961805169815
 30
0.0
 10
98.51974010123813
 20
-154.2961805169815
 30
0.0
 10
98.51974010123813
 20
-154.1184135899426
 30
0.0
 10
98.51974010123813
 20
-154.1184135899426
 30
0.0
 10
98.63394501657416
 20
-154.1311604432381
 30
0.0
 10
98.75245630126675
 20
-154.1311604432381
 30
0.0
 10
98.86890052866819
 20
-154.1311604432381
 30
0.0
 10
98.84564613414275
 20
-154.0360758078452
 30
0.0
 10
98.81808537026076
 20
-153.9533935161992
 30
0.0
 10
98.7545233585579
 20
-153.82006832092
 30
0.0
 10
98.71025388157244
 20
-153.8221353782111
 30
0.0
 10
98.6277438447007
 20
-153.826614002342
 30
0.0
 10
98.58950328481444
 20
-153.8286810596331
 30
0.0
 10
98.58950328481444
 20
-153.8286810596331
 30
0.0
 10
98.58950328481444
 20
-153.6488470753031
 30
0.0
 10
98.58950328481444
 20
-153.6488470753031
 30
0.0
 10
98.71438799615474
 20
-153.6571153044677
 30
0.0
 10
98.88784855383707
 20
-153.6615939285985
 30
0.0
 10
98.9703585907088
 20
-153.6615939285985
 30
0.0
 10
98.9703585907088
 20
-153.6615939285985
 30
0.0
 10
99.05286862758054
 20
-153.6615939285985
 30
0.0
 10
99.05286862758054
 20
-153.6615939285985
 30
0.0
 10
99.05286862758054
 20
-153.4986409121462
 30
0.0
 10
99.05286862758054
 20
-153.4879611161419
 30
0.0
 10
99.0508015702894
 20
-153.4331840979264
 30
0.0
 10
99.0508015702894
 20
-153.4331840979264
 30
0.0
 10
99.27507728637916
 20
-153.4583332949688
 30
0.0
 10
99.27507728637916
 20
-153.4583332949688
 30
0.0
 10
99.27921140096146
 20
-153.4583332949688
 30
0.0
 10
99.30039873819574
 20
-153.4604003522599
 30
0.0
 10
99.30039873819574
 20
-153.4772813201376
 30
0.0
 10
99.30039873819574
 20
-153.4920952307242
 30
0.0
 10
99.28989119696573
 20
-153.5007079694373
 30
0.0
 10
99.26233043308373
 20
-153.5155218800239
 30
0.0
 10
99.25595700643602
 20
-153.5809786942436
 30
0.0
 10
99.25388994914486
 20
-153.6023382862522
 30
0.0
 10
99.25388994914486
 20
-153.6615939285985
 30
0.0
 10
99.25388994914486
 20
-153.6615939285985
 30
0.0
 10
99.34897458453776
 20
-153.6615939285985
 30
0.0
 10
99.34897458453776
 20
-153.6615939285985
 30
0.0
 10
99.4314846214095
 20
-153.6615939285985
 30
0.0
 10
99.60494517909183
 20
-153.6571153044677
 30
0.0
 10
99.72982989043213
 20
-153.6488470753031
 30
0.0
 10
99.72982989043213
 20
-153.6488470753031
 30
0.0
 10
99.72982989043213
 20
-153.8286810596331
 30
0.0
 10
99.72982989043213
 20
-153.8286810596331
 30
0.0
 10
99.70020206925898
 20
-153.826614002342
 30
0.0
 10
99.58169078456639
 20
-153.8221353782111
 30
0.0
 10
99.54155542216323
 20
-153.82006832092
 30
0.0
 10
99.52674151157666
 20
-153.8710557341017
 30
0.0
 10
99.49297957582121
 20
-153.9830213373723
 30
0.0
 10
99.4273505068272
 20
-154.1225477045249
 30
0.0
 10
99.4695529265215
 20
-154.1225477045249
 30
0.0
 10
99.74671085830985
 20
-154.1035996793561
 30
0.0
 10
99.8080335579473
 20
-154.1015326220649
 30
0.0
 10
99.8080335579473
 20
-154.1015326220649
 30
0.0
 10
99.8080335579473
 20
-154.2855007209772
 30
0.0
 10
99.8080335579473
 20
-154.2855007209772
 30
0.0
 10
99.77857799154842
 20
-154.2855007209772
 30
0.0
 10
99.76152476889644
 20
-154.281366606395
 30
0.0
 10
99.59874400721837
 20
-154.281366606395
 30
0.0
  0
SPLINE
  5
19E
330
199
100
AcDbEntity
  8
_U+30EC_U+30A4_U+30E4_U+30FC 1
370
     0
100
AcDbSpline
210
0.0
220
0.0
230
1.0
 70
    11
 71
     3
 72
    20
 73
    16
 74
     0
 42
0.0000000001
 43
0.0000000001
 12
1.0
 22
0.0
 32
0.0
 13
1.0
 23
0.0
 33
0.0
 40
0.0
 40
0.0
 40
0.0
 40
0.0
 40
1.0
 40
1.0
 40
1.0
 40
2.0
 40
2.0
 40
2.0
 40
3.0
 40
3.0
 40
3.0
 40
4.0
 40
4.0
 40
4.0
 40
5.0
 40
5.0
 40
5.0
 40
5.0
 10
98.9703585907088
 20
-153.8159342063377
 30
0.0
 10
98.9703585907088
 20
-153.8159342063377
 30
0.0
 10
98.9386637122445
 20
-153.8159342063377
 30
0.0
 10
98.9386637122445
 20
-153.8159342063377
 30
0.0
 10
98.98517250129538
 20
-153.9154974658614
 30
0.0
 10
99.01686737975967
 20
-153.9957681906677
 30
0.0
 10
99.0508015702894
 20
-154.1225477045249
 30
0.0
 10
99.0508015702894
 20
-154.1225477045249
 30
0.0
 10
99.25802406372716
 20
-154.1225477045249
 30
0.0
 10
99.25802406372716
 20
-154.1225477045249
 30
0.0
 10
99.28989119696573
 20
-154.0295301264232
 30
0.0
 10
99.31314559149116
 20
-153.9451252870346
 30
0.0
 10
99.3363999860166
 20
-153.8159342063377
 30
0.0
 10
99.3363999860166
 20
-153.8159342063377
 30
0.0
 10
98.9703585907088
 20
-153.8159342063377
 30
0.0
 10
98.9703585907088
 20
-153.8159342063377
 30
0.0
  0
SPLINE
  5
19F
330
199
100
AcDbEntity
  8
_U+30EC_U+30A4_U+30E4_U+30FC 1
370
     0
100
AcDbSpline
210
0.0
220
0.0
230
1.0
 70
    11
 71
     3
 72
    17
 73
    13
 74
     0
 42
0.0000000001
 43
0.0000000001
 12
1.0
 22
0.0
 32
0.0
 13
1.0
 23
0.0
 33
0.0
 40
0.0
 40
0.0
 40
0.0
 40
0.0
 40
1.0
 40
1.0
 40
1.0
 40
2.0
 40
2.0
 40
2.0
 40
3.0
 40
3.0
 40
3.0
 40
4.0
 40
4.0
 40
4.0
 40
4.0
 10
99.03392060241167
 20
-154.6665282816459
 30
0.0
 10
99.01686737975967
 20
-154.6958115932705
 30
0.0
 10
98.9662244761265
 20
-154.7891736809208
 30
0.0
 10
98.95554468012223
 20
-154.8081217060897
 30
0.0
 10
99.14588620568229
 20
-154.867377348436
 30
0.0
 10
99.16707354291657
 20
-154.8735785203094
 30
0.0
 10
99.2390760385583
 20
-154.9011392841914
 30
0.0
 10
99.29402531154803
 20
-154.8143228779631
 30
0.0
 10
99.31727970607346
 20
-154.7402533250302
 30
0.0
 10
99.33209361666003
 20
-154.6665282816459
 30
0.0
 10
99.33209361666003
 20
-154.6665282816459
 30
0.0
 10
99.03392060241167
 20
-154.6665282816459
 30
0.0
 10
99.03392060241167
 20
-154.6665282816459
 30
0.0
  0
HATCH
  5
1A0
330
199
100
AcDbEntity
  8
_U+30EC_U+30A4_U+30E4_U+30FC 1
 62
   179
420
  2234388
100
AcDbHatch
 10
0.0
 20
0.0
 30
0.0
210
0.0
220
0.0
230
1.0
  2
SOLID
 70
     1
 71
     0
 91
        3
 92
        1
 93
        1
 72
     4
 94
        3
 73
     0
 74
     1
 95
      242
 96
      238
 40
0.0
 40
0.0
 40
0.0
 40
0.0
 40
1.0
 40
1.0
 40
1.0
 40
2.0
 40
2.0
 40
2.0
 40
3.0
 40
3.0
 40
3.0
 40
4.0
 40
4.0
 40
4.0
 40
5.0
 40
5.0
 40
5.0
 40
6.0
 40
6.0
 40
6.0
 40
7.0
 40
7.0
 40
7.0
 40
8.0
 40
8.0
 40
8.0
 40
9.0
 40
9.0
 40
9.0
 40
10.0
 40
10.0
 40
10.0
 40
11.0
 40
11.0
 40
11.0
 40
12.0
 40
12.0
 40
12.0
 40
13.0
 40
13.0
 40
13.0
 40
14.0
 40
14.0
 40
14.0
 40
15.0
 40
15.0
 40
15.0
 40
16.0
 40
16.0
 40
16.0
 40
17.0
 40
17.0
 40
17.0
 40
18.0
 40
18.0
 40
18.0
 40
19.0
 40
19.0
 40
19.0
 40
20.0
 40
20.0
 40
20.0
 40
21.0
 40
21.0
 40
21.0
 40
22.0
 40
22.0
 40
22.0
 40
23.0
 40
23.0
 40
23.0
 40
24.0
 40
24.0
 40
24.0
 40
25.0
 40
25.0
 40
25.0
 40
26.0
 40
26.0
 40
26.0
 40
27.0
 40
27.0
 40
27.0
 40
28.0
 40
28.0
 40
28.0
 40
29.0
 40
29.0
 40
29.0
 40
30.0
 40
30.0
 40
30.0
 40
31.0
 40
31.0
 40
31.0
 40
32.0
 40
32.0
 40
32.0
 40
33.0
 40
33.0
 40
33.0
 40
34.0
 40
34.0
 40
34.0
 40
35.0
 40
35.0
 40
35.0
 40
36.0
 40
36.0
 40
36.0
 40
37.0
 40
37.0
 40
37.0
 40
38.0
 40
38.0
 40
38.0
 40
39.0
 40
39.0
 40
39.0
 40
40.0
 40
40.0
 40
40.0
 40
41.0
 40
41.0
 40
41.0
 40
42.0
 40
42.0
 40
42.0
 40
43.0
 40
43.0
 40
43.0
 40
44.0
 40
44.0
 40
44.0
 40
45.0
 40
45.0
 40
45.0
 40
46.0
 40
46.0
 40
46.0
 40
47.0
 40
47.0
 40
47.0
 40
48.0
 40
48.0
 40
48.0
 40
49.0
 40
49.0
 40
49.0
 40
50.0
 40
50.0
 40
50.0
 40
51.0
 40
51.0
 40
51.0
 40
52.0
 40
52.0
 40
52.0
 40
53.0
 40
53.0
 40
53.0
 40
54.0
 40
54.0
 40
54.0
 40
55.0
 40
55.0
 40
55.0
 40
56.0
 40
56.0
 40
56.0
 40
57.0
 40
57.0
 40
57.0
 40
58.0
 40
58.0
 40
58.0
 40
59.0
 40
59.0
 40
59.0
 40
60.0
 40
60.0
 40
60.0
 40
61.0
 40
61.0
 40
61.0
 40
62.0
 40
62.0
 40
62.0
 40
63.0
 40
63.0
 40
63.0
 40
64.0
 40
64.0
 40
64.0
 40
65.0
 40
65.0
 40
65.0
 40
66.0
 40
66.0
 40
66.0
 40
67.0
 40
67.0
 40
67.0
 40
68.0
 40
68.0
 40
68.0
 40
69.0
 40
69.0
 40
69.0
 40
70.0
 40
70.0
 40
70.0
 40
71.0
 40
71.0
 40
71.0
 40
72.0
 40
72.0
 40
72.0
 40
73.0
 40
73.0
 40
73.0
 40
74.0
 40
74.0
 40
74.0
 40
75.0
 40
75.0
 40
75.0
 40
76.0
 40
76.0
 40
76.0
 40
77.0
 40
77.0
 40
77.0
 40
78.0
 40
78.0
 40
78.0
 40
79.0
 40
79.0
 40
79.0
 40
79.0
 10
99.59874400721837
 20
-154.281366606395
 10
99.59874400721837
 20
-154.281366606395
 10
99.34484046995546
 20
-154.281366606395
 10
99.34484046995546
 20
-154.281366606395
 10
99.34484046995546
 20
-154.281366606395
 10
99.0676825381671
 20
-154.281366606395
 10
99.0676825381671
 20
-154.281366606395
 10
99.0676825381671
 20
-154.281366606395
 10
99.19463430679856
 20
-154.3237412808635
 10
99.19463430679856
 20
-154.3237412808635
 10
99.20514184802857
 20
-154.3278753954458
 10
99.217888701324
 20
-154.3340765673193
 10
99.217888701324
 20
-154.3468234206147
 10
99.217888701324
 20
-154.3681830126232
 10
99.1861938228597
 20
-154.3743841844967
 10
99.16500648562543
 20
-154.378518299079
 10
99.15449894439541
 20
-154.4019449483787
 10
99.12487112322226
 20
-154.4674017625984
 10
99.10575084327913
 20
-154.5118434943581
 10
99.10575084327913
 20
-154.5118434943581
 10
99.37653534841976
 20
-154.5118434943581
 10
99.37653534841976
 20
-154.5118434943581
 10
99.46748586923036
 20
-154.5118434943581
 10
99.66420082143811
 20
-154.5077093797759
 10
99.80596650065615
 20
-154.4990966410627
 10
99.80596650065615
 20
-154.4990966410627
 10
99.80596650065615
 20
-154.6768635681016
 10
99.80596650065615
 20
-154.6768635681016
 10
99.72345646378442
 20
-154.6727294535193
 10
99.70226912655014
 20
-154.6727294535193
 10
99.52260739699435
 20
-154.668595338937
 10
99.4907402637558
 20
-154.8229356166762
 10
99.44629853199606
 20
-154.9032063414825
 10
99.40185680023635
 20
-154.9731417798331
 10
99.52260739699435
 20
-155.0323974221794
 10
99.62837182839152
 20
-155.0999212936903
 10
99.73189694772329
 20
-155.1826035853363
 10
99.73189694772329
 20
-155.1826035853363
 10
99.61355791780495
 20
-155.3496907163709
 10
99.61355791780495
 20
-155.3496907163709
 10
99.59013126850525
 20
-155.330742691202
 10
99.57755666998409
 20
-155.3221299524889
 10
99.4654188119392
 20
-155.2373806035518
 10
99.41667071082291
 20
-155.199484553214
 10
99.35758732325088
 20
-155.1636555601674
 10
99.2771443436703
 20
-155.1192138284077
 10
99.06561548087596
 20
-155.3052489846112
 10
98.86028778995507
 20
-155.3286756339109
 10
98.57055525964556
 20
-155.358303455084
 10
98.57055525964556
 20
-155.358303455084
 10
98.46685788553954
 20
-155.178469470754
 10
98.46685788553954
 20
-155.178469470754
 10
98.78415117973105
 20
-155.1739908466232
 10
98.95985104947879
 20
-155.1488416495808
 10
99.11212426992684
 20
-155.0385985940529
 10
98.99361298523424
 20
-154.9879556904197
 10
98.9047295217148
 20
-154.9603949265377
 10
98.86890052866819
 20
-154.9476480732422
 10
98.84978024872505
 20
-154.9752088371243
 10
98.83496633813849
 20
-154.9941568622931
 10
98.80740557425649
 20
-155.0282633075971
 10
98.80740557425649
 20
-155.0282633075971
 10
98.61069062204872
 20
-154.9455810159511
 10
98.61069062204872
 20
-154.9455810159511
 10
98.69320065892046
 20
-154.8653102911448
 10
98.7545233585579
 20
-154.7698811462034
 10
98.81171194361305
 20
-154.668595338937
 10
98.62137041805299
 20
-154.6727294535193
 10
98.60018308081871
 20
-154.6727294535193
 10
98.51767304394697
 20
-154.6768635681016
 10
98.51767304394697
 20
-154.6768635681016
 10
98.51767304394697
 20
-154.4990966410627
 10
98.51767304394697
 20
-154.4990966410627
 10
98.6571994110996
 20
-154.5056423224847
 10
98.86666121660278
 20
-154.509776437067
 10
98.89215492319363
 20
-154.509776437067
 10
98.90903589107135
 20
-154.4760145013116
 10
98.96398516406109
 20
-154.3554361593278
 10
98.98310544400422
 20
-154.281366606395
 10
98.96398516406109
 20
-154.281366606395
 10
98.78639049179647
 20
-154.2875677782684
 10
98.59174259687984
 20
-154.3003146315638
 10
98.59174259687984
 20
-154.3003146315638
 10
98.59174259687984
 20
-154.433639826843
 10
98.59174259687984
 20
-154.433639826843
 10
98.54299449576357
 20
-154.4591335334338
 10
98.48373885341726
 20
-154.4908284118981
 10
98.35058591291236
 20
-154.5562852261179
 10
98.35058591291236
 20
-154.5562852261179
 10
98.35058591291236
 20
-154.7023572746925
 10
98.35058591291236
 20
-154.7023572746925
 10
98.35058591291236
 20
-154.7023572746925
 10
98.35058591291236
 20
-155.1698567320409
 10
98.35058591291236
 20
-155.1698567320409
 10
98.35058591291236
 20
-155.2966362458981
 10
98.3145846650915
 20
-155.3558918882444
 10
98.03105330665544
 20
-155.3476236590798
 10
98.03105330665544
 20
-155.3476236590798
 10
97.92735593254942
 20
-155.1402289108677
 10
97.92735593254942
 20
-155.1402289108677
 10
97.99091794425227
 20
-155.1529757641632
 10
98.03949379059429
 20
-155.1571098787454
 10
98.07980140777173
 20
-155.1571098787454
 10
98.15593801799574
 20
-155.1571098787454
 10
98.16644555922575
 20
-155.1340277389943
 10
98.16644555922575
 20
-155.068226415226
 10
98.16644555922575
 20
-155.068226415226
 10
98.16644555922575
 20
-154.6389675177639
 10
98.16644555922575
 20
-154.6389675177639
 10
98.06912161176744
 20
-154.6789306253928
 10
98.05224064388972
 20
-154.6854763068147
 10
98.00573185483884
 20
-154.7044243319836
 10
98.00142548548229
 20
-154.7254394144437
 10
97.99729137089999
 20
-154.7550672356168
 10
97.97817109095685
 20
-154.7550672356168
 10
97.969730607018
 20
-154.7550672356168
 10
97.95922306578798
 20
-154.7509331210345
 10
97.95284963914027
 20
-154.7278509812833
 10
97.95284963914027
 20
-154.7278509812833
 10
97.89996742344168
 20
-154.5352701436579
 10
97.89996742344168
 20
-154.5352701436579
 10
98.045867217242
 20
-154.488761354607
 10
98.11149628623602
 20
-154.4653347053073
 10
98.16644555922575
 20
-154.4443196228473
 10
98.16644555922575
 20
-154.4443196228473
 10
98.16644555922575
 20
-154.0315971837143
 10
98.16644555922575
 20
-154.0315971837143
 10
98.16644555922575
 20
-154.0315971837143
 10
98.11356334352718
 20
-154.0315971837143
 10
98.11356334352718
 20
-154.0315971837143
 10
98.11356334352718
 20
-154.0315971837143
 10
98.03535967601199
 20
-154.0315971837143
 10
98.03535967601199
 20
-154.0315971837143
 10
97.96766354972684
 20
-154.0315971837143
 10
97.95922306578798
 20
-154.0315971837143
 10
97.92322181796712
 20
-154.0381428651363
 10
97.92322181796712
 20
-154.0381428651363
 10
97.92322181796712
 20
-153.8434949702197
 10
97.92322181796712
 20
-153.8434949702197
 10
97.95078258184911
 20
-153.8496961420931
 10
97.95922306578798
 20
-153.8496961420931
 10
98.02898624936428
 20
-153.8496961420931
 10
98.02898624936428
 20
-153.8496961420931
 10
98.16231144464345
 20
-153.8496961420931
 10
98.16231144464345
 20
-153.8496961420931
 10
98.16231144464345
 20
-153.7801052132911
 10
98.16231144464345
 20
-153.6974229216451
 10
98.16007213257804
 20
-153.6932888070628
 10
98.15163164863918
 20
-153.5134548227328
 10
98.15163164863918
 20
-153.4945067975639
 10
98.14956459134802
 20
-153.447998008513
 10
98.14956459134802
 20
-153.447998008513
 10
98.36539982349893
 20
-153.4562662376776
 10
98.36539982349893
 20
-153.4562662376776
 10
98.37590736472895
 20
-153.4562662376776
 10
98.39709470196323
 20
-153.4583332949688
 10
98.39709470196323
 20
-153.4752142628465
 10
98.39709470196323
 20
-153.4945067975639
 10
98.38228079137666
 20
-153.5048420840196
 10
98.35695933956006
 20
-153.524134618737
 10
98.35695933956006
 20
-153.5747775223702
 10
98.35058591291236
 20
-153.8031873530423
 10
98.35265297020351
 20
-153.8496961420931
 10
98.48167179612611
 20
-153.8496961420931
 10
98.49441864942153
 20
-153.8496961420931
 10
98.59174259687984
 20
-153.8414279129285
 10
98.59174259687984
 20
-153.8414279129285
 10
98.59174259687984
 20
-154.0360758078452
 10
98.59174259687984
 20
-154.0360758078452
 10
98.55367429176783
 20
-154.0336642410055
 10
98.48597816548268
 20
-154.0295301264232
 10
98.35058591291236
 20
-154.0315971837143
 10
98.35058591291236
 20
-154.0315971837143
 10
98.35058591291236
 20
-154.3702500699144
 10
98.35058591291236
 20
-154.3702500699144
 10
98.4055351859021
 20
-154.3468234206147
 10
98.4711642548961
 20
-154.3192626567327
 10
98.51974010123813
 20
-154.2961805169815
 10
98.51974010123813
 20
-154.2961805169815
 10
98.51974010123813
 20
-154.1184135899426
 10
98.51974010123813
 20
-154.1184135899426
 10
98.63394501657416
 20
-154.1311604432381
 10
98.75245630126675
 20
-154.1311604432381
 10
98.86890052866819
 20
-154.1311604432381
 10
98.84564613414275
 20
-154.0360758078452
 10
98.81808537026076
 20
-153.9533935161992
 10
98.7545233585579
 20
-153.82006832092
 10
98.71025388157244
 20
-153.8221353782111
 10
98.6277438447007
 20
-153.826614002342
 10
98.58950328481444
 20
-153.8286810596331
 10
98.58950328481444
 20
-153.8286810596331
 10
98.58950328481444
 20
-153.6488470753031
 10
98.58950328481444
 20
-153.6488470753031
 10
98.71438799615474
 20
-153.6571153044677
 10
98.88784855383707
 20
-153.6615939285985
 10
98.9703585907088
 20
-153.6615939285985
 10
98.9703585907088
 20
-153.6615939285985
 10
99.05286862758054
 20
-153.6615939285985
 10
99.05286862758054
 20
-153.6615939285985
 10
99.05286862758054
 20
-153.4986409121462
 10
99.05286862758054
 20
-153.4879611161419
 10
99.0508015702894
 20
-153.4331840979264
 10
99.0508015702894
 20
-153.4331840979264
 10
99.27507728637916
 20
-153.4583332949688
 10
99.27507728637916
 20
-153.4583332949688
 10
99.27921140096146
 20
-153.4583332949688
 10
99.30039873819574
 20
-153.4604003522599
 10
99.30039873819574
 20
-153.4772813201376
 10
99.30039873819574
 20
-153.4920952307242
 10
99.28989119696573
 20
-153.5007079694373
 10
99.26233043308373
 20
-153.5155218800239
 10
99.25595700643602
 20
-153.5809786942436
 10
99.25388994914486
 20
-153.6023382862522
 10
99.25388994914486
 20
-153.6615939285985
 10
99.25388994914486
 20
-153.6615939285985
 10
99.34897458453776
 20
-153.6615939285985
 10
99.34897458453776
 20
-153.6615939285985
 10
99.4314846214095
 20
-153.6615939285985
 10
99.60494517909183
 20
-153.6571153044677
 10
99.72982989043213
 20
-153.6488470753031
 10
99.72982989043213
 20
-153.6488470753031
 10
99.72982989043213
 20
-153.8286810596331
 10
99.72982989043213
 20
-153.8286810596331
 10
99.70020206925898
 20
-153.826614002342
 10
99.58169078456639
 20
-153.8221353782111
 10
99.54155542216323
 20
-153.82006832092
 10
99.52674151157666
 20
-153.8710557341017
 10
99.49297957582121
 20
-153.9830213373723
 10
99.4273505068272
 20
-154.1225477045249
 10
99.4695529265215
 20
-154.1225477045249
 10
99.74671085830985
 20
-154.1035996793561
 10
99.8080335579473
 20
-154.1015326220649
 10
99.8080335579473
 20
-154.1015326220649
 10
99.8080335579473
 20
-154.2855007209772
 10
99.8080335579473
 20
-154.2855007209772
 10
99.77857799154842
 20
-154.2855007209772
 10
99.76152476889644
 20
-154.281366606395
 10
99.59874400721837
 20
-154.281366606395
 97
        0
 97
        0
 92
        1
 93
        1
 72
     4
 94
        3
 73
     0
 74
     1
 95
       20
 96
       16
 40
0.0
 40
0.0
 40
0.0
 40
0.0
 40
1.0
 40
1.0
 40
1.0
 40
2.0
 40
2.0
 40
2.0
 40
3.0
 40
3.0
 40
3.0
 40
4.0
 40
4.0
 40
4.0
 40
5.0
 40
5.0
 40
5.0
 40
5.0
 10
98.9703585907088
 20
-153.8159342063377
 10
98.9703585907088
 20
-153.8159342063377
 10
98.9386637122445
 20
-153.8159342063377
 10
98.9386637122445
 20
-153.8159342063377
 10
98.98517250129538
 20
-153.9154974658614
 10
99.01686737975967
 20
-153.9957681906677
 10
99.0508015702894
 20
-154.1225477045249
 10
99.0508015702894
 20
-154.1225477045249
 10
99.25802406372716
 20
-154.1225477045249
 10
99.25802406372716
 20
-154.1225477045249
 10
99.28989119696573
 20
-154.0295301264232
 10
99.31314559149116
 20
-153.9451252870346
 10
99.3363999860166
 20
-153.8159342063377
 10
99.3363999860166
 20
-153.8159342063377
 10
98.9703585907088
 20
-153.8159342063377
 10
98.9703585907088
 20
-153.8159342063377
 97
        0
 97
        0
 92
        1
 93
        1
 72
     4
 94
        3
 73
     0
 74
     1
 95
       17
 96
       13
 40
0.0
 40
0.0
 40
0.0
 40
0.0
 40
1.0
 40
1.0
 40
1.0
 40
2.0
 40
2.0
 40
2.0
 40
3.0
 40
3.0
 40
3.0
 40
4.0
 40
4.0
 40
4.0
 40
4.0
 10
99.03392060241167
 20
-154.6665282816459
 10
99.01686737975967
 20
-154.6958115932705
 10
98.9662244761265
 20
-154.7891736809208
 10
98.95554468012223
 20
-154.8081217060897
 10
99.14588620568229
 20
-154.867377348436
 10
99.16707354291657
 20
-154.8735785203094
 10
99.2390760385583
 20
-154.9011392841914
 10
99.29402531154803
 20
-154.8143228779631
 10
99.31727970607346
 20
-154.7402533250302
 10
99.33209361666003
 20
-154.6665282816459
 10
99.33209361666003
 20
-154.6665282816459
 10
99.03392060241167
 20
-154.6665282816459
 10
99.03392060241167
 20
-154.6665282816459
 97
        0
 97
        0
 75
     2
 76
     1
 98
        0
  0
SPLINE
  5
1A1
330
199
100
AcDbEntity
  8
_U+30EC_U+30A4_U+30E4_U+30FC 1
370
     0
100
AcDbSpline
210
0.0
220
0.0
230
1.0
 70
    11
 71
     3
 72
   203
 73
   199
 74
     0
 42
0.0000000001
 43
0.0000000001
 12
1.0
 22
0.0
 32
0.0
 13
1.0
 23
0.0
 33
0.0
 40
0.0
 40
0.0
 40
0.0
 40
0.0
 40
1.0
 40
1.0
 40
1.0
 40
2.0
 40
2.0
 40
2.0
 40
3.0
 40
3.0
 40
3.0
 40
4.0
 40
4.0
 40
4.0
 40
5.0
 40
5.0
 40
5.0
 40
6.0
 40
6.0
 40
6.0
 40
7.0
 40
7.0
 40
7.0
 40
8.0
 40
8.0
 40
8.0
 40
9.0
 40
9.0
 40
9.0
 40
10.0
 40
10.0
 40
10.0
 40
11.0
 40
11.0
 40
11.0
 40
12.0
 40
12.0
 40
12.0
 40
13.0
 40
13.0
 40
13.0
 40
14.0
 40
14.0
 40
14.0
 40
15.0
 40
15.0
 40
15.0
 40
16.0
 40
16.0
 40
16.0
 40
17.0
 40
17.0
 40
17.0
 40
18.0
 40
18.0
 40
18.0
 40
19.0
 40
19.0
 40
19.0
 40
20.0
 40
20.0
 40
20.0
 40
21.0
 40
21.0
 40
21.0
 40
22.0
 40
22.0
 40
22.0
 40
23.0
 40
23.0
 40
23.0
 40
24.0
 40
24.0
 40
24.0
 40
25.0
 40
25.0
 40
25.0
 40
26.0
 40
26.0
 40
26.0
 40
27.0
 40
27.0
 40
27.0
 40
28.0
 40
28.0
 40
28.0
 40
29.0
 40
29.0
 40
29.0
 40
30.0
 40
30.0
 40
30.0
 40
31.0
 40
31.0
 40
31.0
 40
32.0
 40
32.0
 40
32.0
 40
33.0
 40
33.0
 40
33.0
 40
34.0
 40
34.0
 40
34.0
 40
35.0
 40
35.0
 40
35.0
 40
36.0
 40
36.0
 40
36.0
 40
37.0
 40
37.0
 40
37.0
 40
38.0
 40
38.0
 40
38.0
 40
39.0
 40
39.0
 40
39.0
 40
40.0
 40
40.0
 40
40.0
 40
41.0
 40
41.0
 40
41.0
 40
42.0
 40
42.0
 40
42.0
 40
43.0
 40
43.0
 40
43.0
 40
44.0
 40
44.0
 40
44.0
 40
45.0
 40
45.0
 40
45.0
 40
46.0
 40
46.0
 40
46.0
 40
47.0
 40
47.0
 40
47.0
 40
48.0
 40
48.0
 40
48.0
 40
49.0
 40
49.0
 40
49.0
 40
50.0
 40
50.0
 40
50.0
 40
51.0
 40
51.0
 40
51.0
 40
52.0
 40
52.0
 40
52.0
 40
53.0
 40
53.0
 40
53.0
 40
54.0
 40
54.0
 40
54.0
 40
55.0
 40
55.0
 40
55.0
 40
56.0
 40
56.0
 40
56.0
 40
57.0
 40
57.0
 40
57.0
 40
58.0
 40
58.0
 40
58.0
 40
59.0
 40
59.0
 40
59.0
 40
60.0
 40
60.0
 40
60.0
 40
61.0
 40
61.0
 40
61.0
 40
62.0
 40
62.0
 40
62.0
 40
63.0
 40
63.0
 40
63.0
 40
64.0
 40
64.0
 40
64.0
 40
65.0
 40
65.0
 40
65.0
 40
66.0
 40
66.0
 40
66.0
 40
66.0
 10
101.2901136357018
 20
-154.3488904779058
 30
0.0
 10
101.2901136357018
 20
-154.3488904779058
 30
0.0
 10
100.7316636575428
 20
-154.3488904779058
 30
0.0
 10
100.7316636575428
 20
-154.3488904779058
 30
0.0
 10
100.7209838615385
 20
-154.3933322096656
 30
0.0
 10
100.7125433775996
 20
-154.4250270881299
 30
0.0
 10
100.6999687790785
 20
-154.4632676480161
 30
0.0
 10
100.7252902308951
 20
-154.4632676480161
 30
0.0
 10
100.7401041414817
 20
-154.4653347053073
 30
0.0
 10
100.7464775681294
 20
-154.4653347053073
 30
0.0
 10
100.7464775681294
 20
-154.4653347053073
 30
0.0
 10
100.9347520363983
 20
-154.4653347053073
 30
0.0
 10
100.9347520363983
 20
-154.4653347053073
 30
0.0
 10
100.9347520363983
 20
-154.4653347053073
 30
0.0
 10
101.3092339156449
 20
-154.4653347053073
 30
0.0
 10
101.3092339156449
 20
-154.4653347053073
 30
0.0
 10
101.3598768192781
 20
-154.4653347053073
 30
0.0
 10
101.6434081777142
 20
-154.4525878520119
 30
0.0
 10
101.6751030561785
 20
-154.4525878520119
 30
0.0
 10
101.6730359988873
 20
-154.4801486158939
 30
0.0
 10
101.6709689415962
 20
-154.4990966410627
 30
0.0
 10
101.6709689415962
 20
-154.5287244622359
 30
0.0
 10
101.6687296295307
 20
-154.5604193407002
 30
0.0
 10
101.6687296295307
 20
-154.6958115932705
 30
0.0
 10
101.6687296295307
 20
-154.7233723571525
 30
0.0
 10
101.6687296295307
 20
-154.7233723571525
 30
0.0
 10
101.6687296295307
 20
-154.9690076652508
 30
0.0
 10
101.6687296295307
 20
-154.9690076652508
 30
0.0
 10
101.6687296295307
 20
-155.0134493970105
 30
0.0
 10
101.6730359988873
 20
-155.2101643492183
 30
0.0
 10
101.6773423682439
 20
-155.3624375696664
 30
0.0
 10
101.6773423682439
 20
-155.3624375696664
 30
0.0
 10
101.4508273400887
 20
-155.3624375696664
 30
0.0
 10
101.4508273400887
 20
-155.3624375696664
 30
0.0
 10
101.4508273400887
 20
-155.3624375696664
 30
0.0
 10
101.4530666521541
 20
-155.3286756339109
 30
0.0
 10
101.4530666521541
 20
-155.3286756339109
 30
0.0
 10
101.4530666521541
 20
-155.3286756339109
 30
0.0
 10
100.7506116827117
 20
-155.3286756339109
 30
0.0
 10
100.7506116827117
 20
-155.3286756339109
 30
0.0
 10
100.7506116827117
 20
-155.3286756339109
 30
0.0
 10
100.7528509947771
 20
-155.3624375696664
 30
0.0
 10
100.7528509947771
 20
-155.3624375696664
 30
0.0
 10
100.7528509947771
 20
-155.3624375696664
 30
0.0
 10
100.534948705335
 20
-155.3624375696664
 30
0.0
 10
100.534948705335
 20
-155.3624375696664
 30
0.0
 10
100.5390828199173
 20
-155.3073160419023
 30
0.0
 10
100.5390828199173
 20
-155.2945691886069
 30
0.0
 10
100.545456246565
 20
-155.1805365280451
 30
0.0
 10
100.5475233038562
 20
-155.1529757641632
 30
0.0
 10
100.5497626159216
 20
-155.019650568884
 30
0.0
 10
100.5497626159216
 20
-155.0007025437151
 30
0.0
 10
100.5497626159216
 20
-155.0007025437151
 30
0.0
 10
100.5497626159216
 20
-154.7974419100854
 30
0.0
 10
100.5497626159216
 20
-154.7974419100854
 30
0.0
 10
100.4100639939947
 20
-155.047211332766
 30
0.0
 10
100.2409098056689
 20
-155.178469470754
 30
0.0
 10
100.1351453742718
 20
-155.2439262849738
 30
0.0
 10
100.1351453742718
 20
-155.2439262849738
 30
0.0
 10
99.96151256181518
 20
-155.1043999178211
 30
0.0
 10
99.96151256181518
 20
-155.1043999178211
 30
0.0
 10
100.0503960253346
 20
-155.0534125046394
 30
0.0
 10
100.1942287618438
 20
-154.9665960984111
 30
0.0
 10
100.3318603264795
 20
-154.772292713043
 30
0.0
 10
100.4228108472901
 20
-154.6451686896373
 30
0.0
 10
100.4882676615099
 20
-154.5015082079024
 30
0.0
 10
100.5222018520396
 20
-154.3488904779058
 30
0.0
 10
100.2937920213675
 20
-154.3513020447455
 30
0.0
 10
100.1139580370375
 20
-154.357503216619
 30
0.0
 10
100.0187011468703
 20
-154.3595702739101
 30
0.0
 10
100.0187011468703
 20
-154.3595702739101
 30
0.0
 10
100.0187011468703
 20
-154.1818033468712
 30
0.0
 10
100.0187011468703
 20
-154.1818033468712
 30
0.0
 10
100.2154160990781
 20
-154.1883490282932
 30
0.0
 10
100.4989474575142
 20
-154.1924831428755
 30
0.0
 10
100.649153620671
 20
-154.1924831428755
 30
0.0
 10
100.649153620671
 20
-154.1924831428755
 30
0.0
 10
100.8627495407565
 20
-154.1924831428755
 30
0.0
 10
100.8627495407565
 20
-154.1924831428755
 30
0.0
 10
100.8627495407565
 20
-154.1924831428755
 30
0.0
 10
100.8627495407565
 20
-154.0846516541872
 30
0.0
 10
100.8627495407565
 20
-154.0846516541872
 30
0.0
 10
100.8627495407565
 20
-154.0846516541872
 30
0.0
 10
100.7168497469562
 20
-154.0846516541872
 30
0.0
 10
100.7168497469562
 20
-154.0846516541872
 30
0.0
 10
100.5475233038562
 20
-154.0846516541872
 30
0.0
 10
100.3783691155304
 20
-154.0887857687695
 30
0.0
 10
100.2112819844958
 20
-154.0953314501915
 30
0.0
 10
100.2112819844958
 20
-154.0953314501915
 30
0.0
 10
100.2112819844958
 20
-153.923765695026
 30
0.0
 10
100.2112819844958
 20
-153.923765695026
 30
0.0
 10
100.365622262235
 20
-153.9344454910303
 30
0.0
 10
100.5518296732127
 20
-153.9344454910303
 30
0.0
 10
100.7168497469562
 20
-153.9344454910303
 30
0.0
 10
100.7168497469562
 20
-153.9344454910303
 30
0.0
 10
100.8627495407565
 20
-153.9344454910303
 30
0.0
 10
100.8627495407565
 20
-153.9344454910303
 30
0.0
 10
100.8627495407565
 20
-153.9344454910303
 30
0.0
 10
100.8627495407565
 20
-153.8159342063377
 30
0.0
 10
100.8627495407565
 20
-153.8159342063377
 30
0.0
 10
100.8627495407565
 20
-153.8159342063377
 30
0.0
 10
100.7316636575428
 20
-153.8159342063377
 30
0.0
 10
100.7316636575428
 20
-153.8159342063377
 30
0.0
 10
100.6851548684919
 20
-153.8159342063377
 30
0.0
 10
100.4820664896364
 20
-153.8245469450508
 30
0.0
 10
100.4396918151679
 20
-153.8245469450508
 30
0.0
 10
100.2366034363124
 20
-153.8286810596331
 30
0.0
 10
100.1604668260884
 20
-153.8307481169243
 30
0.0
 10
100.0820909037989
 20
-153.8328151742154
 30
0.0
 10
100.0820909037989
 20
-153.8328151742154
 30
0.0
 10
100.0820909037989
 20
-153.6488470753031
 30
0.0
 10
100.0820909037989
 20
-153.6488470753031
 30
0.0
 10
100.1964680739092
 20
-153.6571153044677
 30
0.0
 10
100.2409098056689
 20
-153.6571153044677
 30
0.0
 10
100.6236599140802
 20
-153.6657280431808
 30
0.0
 10
100.5602701571516
 20
-153.5706434077879
 30
0.0
 10
100.5327093932696
 20
-153.5430826439059
 30
0.0
 10
100.496880400223
 20
-153.5069091413108
 30
0.0
 10
100.496880400223
 20
-153.5069091413108
 30
0.0
 10
100.6724080151965
 20
-153.4245713592133
 30
0.0
 10
100.6724080151965
 20
-153.4245713592133
 30
0.0
 10
100.7125433775996
 20
-153.4604003522599
 30
0.0
 10
100.7569851093594
 20
-153.5027750267285
 30
0.0
 10
100.8310546622922
 20
-153.612673572708
 30
0.0
 10
100.8310546622922
 20
-153.612673572708
 30
0.0
 10
100.7168497469562
 20
-153.6677951004719
 30
0.0
 10
100.7168497469562
 20
-153.6677951004719
 30
0.0
 10
100.7168497469562
 20
-153.6677951004719
 30
0.0
 10
100.7273572881862
 20
-153.6677951004719
 30
0.0
 10
100.7273572881862
 20
-153.6677951004719
 30
0.0
 10
100.7273572881862
 20
-153.6677951004719
 30
0.0
 10
101.2499782732986
 20
-153.6677951004719
 30
0.0
 10
101.2499782732986
 20
-153.6677951004719
 30
0.0
 10
101.2499782732986
 20
-153.6677951004719
 30
0.0
 10
101.1547213831315
 20
-153.6233533687122
 30
0.0
 10
101.1547213831315
 20
-153.6233533687122
 30
0.0
 10
101.1822821470135
 20
-153.5854573183745
 30
0.0
 10
101.2392984772943
 20
-153.5048420840196
 30
0.0
 10
101.2541123878809
 20
-153.4307725310867
 30
0.0
 10
101.2541123878809
 20
-153.4307725310867
 30
0.0
 10
101.4678805627407
 20
-153.4945067975639
 30
0.0
 10
101.4678805627407
 20
-153.4945067975639
 30
0.0
 10
101.4763210466795
 20
-153.496573854855
 30
0.0
 10
101.4975083839138
 20
-153.5069091413108
 30
0.0
 10
101.4975083839138
 20
-153.5282687333193
 30
0.0
 10
101.4975083839138
 20
-153.5661647836571
 30
0.0
 10
101.4318793149198
 20
-153.5661647836571
 30
0.0
 10
101.4127590349767
 20
-153.5661647836571
 30
0.0
 10
101.4022514937467
 20
-153.5854573183745
 30
0.0
 10
101.3789970992212
 20
-153.6254204260034
 30
0.0
 10
101.3493692780481
 20
-153.6657280431808
 30
0.0
 10
101.7491726091113
 20
-153.6595268713073
 30
0.0
 10
101.7788004302845
 20
-153.6571153044677
 30
0.0
 10
101.8549370405085
 20
-153.6509141325942
 30
0.0
 10
101.8549370405085
 20
-153.6509141325942
 30
0.0
 10
101.8549370405085
 20
-153.8328151742154
 30
0.0
 10
101.8549370405085
 20
-153.8328151742154
 30
0.0
 10
101.8359890153396
 20
-153.8328151742154
 30
0.0
 10
101.8104953087488
 20
-153.8307481169243
 30
0.0
 10
101.5905259620156
 20
-153.8221353782111
 30
0.0
 10
101.5397108036081
 20
-153.82006832092
 30
0.0
 10
101.3197414568749
 20
-153.8159342063377
 30
0.0
 10
101.2752997251152
 20
-153.8159342063377
 30
0.0
 10
101.2752997251152
 20
-153.8159342063377
 30
0.0
 10
101.0594644929643
 20
-153.8159342063377
 30
0.0
 10
101.0594644929643
 20
-153.8159342063377
 30
0.0
 10
101.0594644929643
 20
-153.8159342063377
 30
0.0
 10
101.0594644929643
 20
-153.9344454910303
 30
0.0
 10
101.0594644929643
 20
-153.9344454910303
 30
0.0
 10
101.0594644929643
 20
-153.9344454910303
 30
0.0
 10
101.2330973054209
 20
-153.9344454910303
 30
0.0
 10
101.2330973054209
 20
-153.9344454910303
 30
0.0
 10
101.3958780670989
 20
-153.9344454910303
 30
0.0
 10
101.586219592659
 20
-153.9344454910303
 30
0.0
 10
101.7427991824636
 20
-153.923765695026
 30
0.0
 10
101.7427991824636
 20
-153.923765695026
 30
0.0
 10
101.7427991824636
 20
-154.0953314501915
 30
0.0
 10
101.7427991824636
 20
-154.0953314501915
 30
0.0
 10
101.5333373769604
 20
-154.0867187114783
 30
0.0
 10
101.3366224247526
 20
-154.0846516541872
 30
0.0
 10
101.2330973054209
 20
-154.0846516541872
 30
0.0
 10
101.2330973054209
 20
-154.0846516541872
 30
0.0
 10
101.0594644929643
 20
-154.0846516541872
 30
0.0
 10
101.0594644929643
 20
-154.0846516541872
 30
0.0
 10
101.0594644929643
 20
-154.0846516541872
 30
0.0
 10
101.0594644929643
 20
-154.1924831428755
 30
0.0
 10
101.0594644929643
 20
-154.1924831428755
 30
0.0
 10
101.0594644929643
 20
-154.1924831428755
 30
0.0
 10
101.2901136357018
 20
-154.1924831428755
 30
0.0
 10
101.2901136357018
 20
-154.1924831428755
 30
0.0
 10
101.423438830981
 20
-154.1924831428755
 30
0.0
 10
101.7111043039993
 20
-154.1883490282932
 30
0.0
 10
101.9205661095025
 20
-154.1818033468712
 30
0.0
 10
101.9205661095025
 20
-154.1818033468712
 30
0.0
 10
101.9205661095025
 20
-154.3595702739101
 30
0.0
 10
101.9205661095025
 20
-154.3595702739101
 30
0.0
 10
101.727985271877
 20
-154.3533691020367
 30
0.0
 10
101.4149983470421
 20
-154.3488904779058
 30
0.0
 10
101.2901136357018
 20
-154.3488904779058
 30
0.0
  0
POLYLINE
  5
1A2
330
199
100
AcDbEntity
  8
_U+30EC_U+30A4_U+30E4_U+30FC 1
370
     0
100
AcDb2dPolyline
 66
     1
 10
0.0
 20
0.0
 30
0.0
  0
VERTEX
  5
1A3
330
1A2
100
AcDbEntity
  8
_U+30EC_U+30A4_U+30E4_U+30FC 1
370
     0
100
AcDbVertex
100
AcDb2dVertex
 10
101.4551337094452
 20
-154.6048610724599
 30
0.0
  0
VERTEX
  5
1A4
330
1A2
100
AcDbEntity
  8
_U+30EC_U+30A4_U+30E4_U+30FC 1
370
     0
100
AcDbVertex
100
AcDb2dVertex
 10
100.7485446254205
 20
-154.6048610724599
 30
0.0
  0
VERTEX
  5
1A5
330
1A2
100
AcDbEntity
  8
_U+30EC_U+30A4_U+30E4_U+30FC 1
370
     0
100
AcDbVertex
100
AcDb2dVertex
 10
100.7485446254205
 20
-154.7130370706967
 30
0.0
  0
VERTEX
  5
1A6
330
1A2
100
AcDbEntity
  8
_U+30EC_U+30A4_U+30E4_U+30FC 1
370
     0
100
AcDbVertex
100
AcDb2dVertex
 10
101.4551337094452
 20
-154.7130370706967
 30
0.0
  0
VERTEX
  5
1A7
330
1A2
100
AcDbEntity
  8
_U+30EC_U+30A4_U+30E4_U+30FC 1
370
     0
100
AcDbVertex
100
AcDb2dVertex
 10
101.4551337094452
 20
-154.6048610724599
 30
0.0
  0
SEQEND
  5
1A8
330
1A2
100
AcDbEntity
  8
_U+30EC_U+30A4_U+30E4_U+30FC 1
370
     0
  0
POLYLINE
  5
1A9
330
199
100
AcDbEntity
  8
_U+30EC_U+30A4_U+30E4_U+30FC 1
370
     0
100
AcDb2dPolyline
 66
     1
 10
0.0
 20
0.0
 30
0.0
  0
VERTEX
  5
1AA
330
1A9
100
AcDbEntity
  8
_U+30EC_U+30A4_U+30E4_U+30FC 1
370
     0
100
AcDbVertex
100
AcDb2dVertex
 10
101.4551337094452
 20
-154.8377495272628
 30
0.0
  0
VERTEX
  5
1AB
330
1A9
100
AcDbEntity
  8
_U+30EC_U+30A4_U+30E4_U+30FC 1
370
     0
100
AcDbVertex
100
AcDb2dVertex
 10
100.7485446254205
 20
-154.8377495272628
 30
0.0
  0
VERTEX
  5
1AC
330
1A9
100
AcDbEntity
  8
_U+30EC_U+30A4_U+30E4_U+30FC 1
370
     0
100
AcDbVertex
100
AcDb2dVertex
 10
100.7485446254205
 20
-154.9521266973731
 30
0.0
  0
VERTEX
  5
1AD
330
1A9
100
AcDbEntity
  8
_U+30EC_U+30A4_U+30E4_U+30FC 1
370
     0
100
AcDbVertex
100
AcDb2dVertex
 10
101.4551337094452
 20
-154.9521266973731
 30
0.0
  0
VERTEX
  5
1AE
330
1A9
100
AcDbEntity
  8
_U+30EC_U+30A4_U+30E4_U+30FC 1
370
     0
100
AcDbVertex
100
AcDb2dVertex
 10
101.4551337094452
 20
-154.8377495272628
 30
0.0
  0
SEQEND
  5
1AF
330
1A9
100
AcDbEntity
  8
_U+30EC_U+30A4_U+30E4_U+30FC 1
370
     0
  0
POLYLINE
  5
1B0
330
199
100
AcDbEntity
  8
_U+30EC_U+30A4_U+30E4_U+30FC 1
370
     0
100
AcDb2dPolyline
 66
     1
 10
0.0
 20
0.0
 30
0.0
  0
VERTEX
  5
1B1
330
1B0
100
AcDbEntity
  8
_U+30EC_U+30A4_U+30E4_U+30FC 1
370
     0
100
AcDbVertex
100
AcDb2dVertex
 10
101.4551337094452
 20
-155.0809732685214
 30
0.0
  0
VERTEX
  5
1B2
330
1B0
100
AcDbEntity
  8
_U+30EC_U+30A4_U+30E4_U+30FC 1
370
     0
100
AcDbVertex
100
AcDb2dVertex
 10
100.7485446254205
 20
-155.0809732685214
 30
0.0
  0
VERTEX
  5
1B3
330
1B0
100
AcDbEntity
  8
_U+30EC_U+30A4_U+30E4_U+30FC 1
370
     0
100
AcDbVertex
100
AcDb2dVertex
 10
100.7485446254205
 20
-155.1953504386317
 30
0.0
  0
VERTEX
  5
1B4
330
1B0
100
AcDbEntity
  8
_U+30EC_U+30A4_U+30E4_U+30FC 1
370
     0
100
AcDbVertex
100
AcDb2dVertex
 10
101.4551337094452
 20
-155.1953504386317
 30
0.0
  0
VERTEX
  5
1B5
330
1B0
100
AcDbEntity
  8
_U+30EC_U+30A4_U+30E4_U+30FC 1
370
     0
100
AcDbVertex
100
AcDb2dVertex
 10
101.4551337094452
 20
-155.0809732685214
 30
0.0
  0
SEQEND
  5
1B6
330
1B0
100
AcDbEntity
  8
_U+30EC_U+30A4_U+30E4_U+30FC 1
370
     0
  0
HATCH
  5
1B7
330
199
100
AcDbEntity
  8
_U+30EC_U+30A4_U+30E4_U+30FC 1
 62
   179
420
  2234388
100
AcDbHatch
 10
0.0
 20
0.0
 30
0.0
210
0.0
220
0.0
230
1.0
  2
SOLID
 70
     1
 71
     0
 91
        4
 92
        1
 93
        1
 72
     4
 94
        3
 73
     0
 74
     1
 95
      203
 96
      199
 40
0.0
 40
0.0
 40
0.0
 40
0.0
 40
1.0
 40
1.0
 40
1.0
 40
2.0
 40
2.0
 40
2.0
 40
3.0
 40
3.0
 40
3.0
 40
4.0
 40
4.0
 40
4.0
 40
5.0
 40
5.0
 40
5.0
 40
6.0
 40
6.0
 40
6.0
 40
7.0
 40
7.0
 40
7.0
 40
8.0
 40
8.0
 40
8.0
 40
9.0
 40
9.0
 40
9.0
 40
10.0
 40
10.0
 40
10.0
 40
11.0
 40
11.0
 40
11.0
 40
12.0
 40
12.0
 40
12.0
 40
13.0
 40
13.0
 40
13.0
 40
14.0
 40
14.0
 40
14.0
 40
15.0
 40
15.0
 40
15.0
 40
16.0
 40
16.0
 40
16.0
 40
17.0
 40
17.0
 40
17.0
 40
18.0
 40
18.0
 40
18.0
 40
19.0
 40
19.0
 40
19.0
 40
20.0
 40
20.0
 40
20.0
 40
21.0
 40
21.0
 40
21.0
 40
22.0
 40
22.0
 40
22.0
 40
23.0
 40
23.0
 40
23.0
 40
24.0
 40
24.0
 40
24.0
 40
25.0
 40
25.0
 40
25.0
 40
26.0
 40
26.0
 40
26.0
 40
27.0
 40
27.0
 40
27.0
 40
28.0
 40
28.0
 40
28.0
 40
29.0
 40
29.0
 40
29.0
 40
30.0
 40
30.0
 40
30.0
 40
31.0
 40
31.0
 40
31.0
 40
32.0
 40
32.0
 40
32.0
 40
33.0
 40
33.0
 40
33.0
 40
34.0
 40
34.0
 40
34.0
 40
35.0
 40
35.0
 40
35.0
 40
36.0
 40
36.0
 40
36.0
 40
37.0
 40
37.0
 40
37.0
 40
38.0
 40
38.0
 40
38.0
 40
39.0
 40
39.0
 40
39.0
 40
40.0
 40
40.0
 40
40.0
 40
41.0
 40
41.0
 40
41.0
 40
42.0
 40
42.0
 40
42.0
 40
43.0
 40
43.0
 40
43.0
 40
44.0
 40
44.0
 40
44.0
 40
45.0
 40
45.0
 40
45.0
 40
46.0
 40
46.0
 40
46.0
 40
47.0
 40
47.0
 40
47.0
 40
48.0
 40
48.0
 40
48.0
 40
49.0
 40
49.0
 40
49.0
 40
50.0
 40
50.0
 40
50.0
 40
51.0
 40
51.0
 40
51.0
 40
52.0
 40
52.0
 40
52.0
 40
53.0
 40
53.0
 40
53.0
 40
54.0
 40
54.0
 40
54.0
 40
55.0
 40
55.0
 40
55.0
 40
56.0
 40
56.0
 40
56.0
 40
57.0
 40
57.0
 40
57.0
 40
58.0
 40
58.0
 40
58.0
 40
59.0
 40
59.0
 40
59.0
 40
60.0
 40
60.0
 40
60.0
 40
61.0
 40
61.0
 40
61.0
 40
62.0
 40
62.0
 40
62.0
 40
63.0
 40
63.0
 40
63.0
 40
64.0
 40
64.0
 40
64.0
 40
65.0
 40
65.0
 40
65.0
 40
66.0
 40
66.0
 40
66.0
 40
66.0
 10
101.2901136357018
 20
-154.3488904779058
 10
101.2901136357018
 20
-154.3488904779058
 10
100.7316636575428
 20
-154.3488904779058
 10
100.7316636575428
 20
-154.3488904779058
 10
100.7209838615385
 20
-154.3933322096656
 10
100.7125433775996
 20
-154.4250270881299
 10
100.6999687790785
 20
-154.4632676480161
 10
100.7252902308951
 20
-154.4632676480161
 10
100.7401041414817
 20
-154.4653347053073
 10
100.7464775681294
 20
-154.4653347053073
 10
100.7464775681294
 20
-154.4653347053073
 10
100.9347520363983
 20
-154.4653347053073
 10
100.9347520363983
 20
-154.4653347053073
 10
100.9347520363983
 20
-154.4653347053073
 10
101.3092339156449
 20
-154.4653347053073
 10
101.3092339156449
 20
-154.4653347053073
 10
101.3598768192781
 20
-154.4653347053073
 10
101.6434081777142
 20
-154.4525878520119
 10
101.6751030561785
 20
-154.4525878520119
 10
101.6730359988873
 20
-154.4801486158939
 10
101.6709689415962
 20
-154.4990966410627
 10
101.6709689415962
 20
-154.5287244622359
 10
101.6687296295307
 20
-154.5604193407002
 10
101.6687296295307
 20
-154.6958115932705
 10
101.6687296295307
 20
-154.7233723571525
 10
101.6687296295307
 20
-154.7233723571525
 10
101.6687296295307
 20
-154.9690076652508
 10
101.6687296295307
 20
-154.9690076652508
 10
101.6687296295307
 20
-155.0134493970105
 10
101.6730359988873
 20
-155.2101643492183
 10
101.6773423682439
 20
-155.3624375696664
 10
101.6773423682439
 20
-155.3624375696664
 10
101.4508273400887
 20
-155.3624375696664
 10
101.4508273400887
 20
-155.3624375696664
 10
101.4508273400887
 20
-155.3624375696664
 10
101.4530666521541
 20
-155.3286756339109
 10
101.4530666521541
 20
-155.3286756339109
 10
101.4530666521541
 20
-155.3286756339109
 10
100.7506116827117
 20
-155.3286756339109
 10
100.7506116827117
 20
-155.3286756339109
 10
100.7506116827117
 20
-155.3286756339109
 10
100.7528509947771
 20
-155.3624375696664
 10
100.7528509947771
 20
-155.3624375696664
 10
100.7528509947771
 20
-155.3624375696664
 10
100.534948705335
 20
-155.3624375696664
 10
100.534948705335
 20
-155.3624375696664
 10
100.5390828199173
 20
-155.3073160419023
 10
100.5390828199173
 20
-155.2945691886069
 10
100.545456246565
 20
-155.1805365280451
 10
100.5475233038562
 20
-155.1529757641632
 10
100.5497626159216
 20
-155.019650568884
 10
100.5497626159216
 20
-155.0007025437151
 10
100.5497626159216
 20
-155.0007025437151
 10
100.5497626159216
 20
-154.7974419100854
 10
100.5497626159216
 20
-154.7974419100854
 10
100.4100639939947
 20
-155.047211332766
 10
100.2409098056689
 20
-155.178469470754
 10
100.1351453742718
 20
-155.2439262849738
 10
100.1351453742718
 20
-155.2439262849738
 10
99.96151256181518
 20
-155.1043999178211
 10
99.96151256181518
 20
-155.1043999178211
 10
100.0503960253346
 20
-155.0534125046394
 10
100.1942287618438
 20
-154.9665960984111
 10
100.3318603264795
 20
-154.772292713043
 10
100.4228108472901
 20
-154.6451686896373
 10
100.4882676615099
 20
-154.5015082079024
 10
100.5222018520396
 20
-154.3488904779058
 10
100.2937920213675
 20
-154.3513020447455
 10
100.1139580370375
 20
-154.357503216619
 10
100.0187011468703
 20
-154.3595702739101
 10
100.0187011468703
 20
-154.3595702739101
 10
100.0187011468703
 20
-154.1818033468712
 10
100.0187011468703
 20
-154.1818033468712
 10
100.2154160990781
 20
-154.1883490282932
 10
100.4989474575142
 20
-154.1924831428755
 10
100.649153620671
 20
-154.1924831428755
 10
100.649153620671
 20
-154.1924831428755
 10
100.8627495407565
 20
-154.1924831428755
 10
100.8627495407565
 20
-154.1924831428755
 10
100.8627495407565
 20
-154.1924831428755
 10
100.8627495407565
 20
-154.0846516541872
 10
100.8627495407565
 20
-154.0846516541872
 10
100.8627495407565
 20
-154.0846516541872
 10
100.7168497469562
 20
-154.0846516541872
 10
100.7168497469562
 20
-154.0846516541872
 10
100.5475233038562
 20
-154.0846516541872
 10
100.3783691155304
 20
-154.0887857687695
 10
100.2112819844958
 20
-154.0953314501915
 10
100.2112819844958
 20
-154.0953314501915
 10
100.2112819844958
 20
-153.923765695026
 10
100.2112819844958
 20
-153.923765695026
 10
100.365622262235
 20
-153.9344454910303
 10
100.5518296732127
 20
-153.9344454910303
 10
100.7168497469562
 20
-153.9344454910303
 10
100.7168497469562
 20
-153.9344454910303
 10
100.8627495407565
 20
-153.9344454910303
 10
100.8627495407565
 20
-153.9344454910303
 10
100.8627495407565
 20
-153.9344454910303
 10
100.8627495407565
 20
-153.8159342063377
 10
100.8627495407565
 20
-153.8159342063377
 10
100.8627495407565
 20
-153.8159342063377
 10
100.7316636575428
 20
-153.8159342063377
 10
100.7316636575428
 20
-153.8159342063377
 10
100.6851548684919
 20
-153.8159342063377
 10
100.4820664896364
 20
-153.8245469450508
 10
100.4396918151679
 20
-153.8245469450508
 10
100.2366034363124
 20
-153.8286810596331
 10
100.1604668260884
 20
-153.8307481169243
 10
100.0820909037989
 20
-153.8328151742154
 10
100.0820909037989
 20
-153.8328151742154
 10
100.0820909037989
 20
-153.6488470753031
 10
100.0820909037989
 20
-153.6488470753031
 10
100.1964680739092
 20
-153.6571153044677
 10
100.2409098056689
 20
-153.6571153044677
 10
100.6236599140802
 20
-153.6657280431808
 10
100.5602701571516
 20
-153.5706434077879
 10
100.5327093932696
 20
-153.5430826439059
 10
100.496880400223
 20
-153.5069091413108
 10
100.496880400223
 20
-153.5069091413108
 10
100.6724080151965
 20
-153.4245713592133
 10
100.6724080151965
 20
-153.4245713592133
 10
100.7125433775996
 20
-153.4604003522599
 10
100.7569851093594
 20
-153.5027750267285
 10
100.8310546622922
 20
-153.612673572708
 10
100.8310546622922
 20
-153.612673572708
 10
100.7168497469562
 20
-153.6677951004719
 10
100.7168497469562
 20
-153.6677951004719
 10
100.7168497469562
 20
-153.6677951004719
 10
100.7273572881862
 20
-153.6677951004719
 10
100.7273572881862
 20
-153.6677951004719
 10
100.7273572881862
 20
-153.6677951004719
 10
101.2499782732986
 20
-153.6677951004719
 10
101.2499782732986
 20
-153.6677951004719
 10
101.2499782732986
 20
-153.6677951004719
 10
101.1547213831315
 20
-153.6233533687122
 10
101.1547213831315
 20
-153.6233533687122
 10
101.1822821470135
 20
-153.5854573183745
 10
101.2392984772943
 20
-153.5048420840196
 10
101.2541123878809
 20
-153.4307725310867
 10
101.2541123878809
 20
-153.4307725310867
 10
101.4678805627407
 20
-153.4945067975639
 10
101.4678805627407
 20
-153.4945067975639
 10
101.4763210466795
 20
-153.496573854855
 10
101.4975083839138
 20
-153.5069091413108
 10
101.4975083839138
 20
-153.5282687333193
 10
101.4975083839138
 20
-153.5661647836571
 10
101.4318793149198
 20
-153.5661647836571
 10
101.4127590349767
 20
-153.5661647836571
 10
101.4022514937467
 20
-153.5854573183745
 10
101.3789970992212
 20
-153.6254204260034
 10
101.3493692780481
 20
-153.6657280431808
 10
101.7491726091113
 20
-153.6595268713073
 10
101.7788004302845
 20
-153.6571153044677
 10
101.8549370405085
 20
-153.6509141325942
 10
101.8549370405085
 20
-153.6509141325942
 10
101.8549370405085
 20
-153.8328151742154
 10
101.8549370405085
 20
-153.8328151742154
 10
101.8359890153396
 20
-153.8328151742154
 10
101.8104953087488
 20
-153.8307481169243
 10
101.5905259620156
 20
-153.8221353782111
 10
101.5397108036081
 20
-153.82006832092
 10
101.3197414568749
 20
-153.8159342063377
 10
101.2752997251152
 20
-153.8159342063377
 10
101.2752997251152
 20
-153.8159342063377
 10
101.0594644929643
 20
-153.8159342063377
 10
101.0594644929643
 20
-153.8159342063377
 10
101.0594644929643
 20
-153.8159342063377
 10
101.0594644929643
 20
-153.9344454910303
 10
101.0594644929643
 20
-153.9344454910303
 10
101.0594644929643
 20
-153.9344454910303
 10
101.2330973054209
 20
-153.9344454910303
 10
101.2330973054209
 20
-153.9344454910303
 10
101.3958780670989
 20
-153.9344454910303
 10
101.586219592659
 20
-153.9344454910303
 10
101.7427991824636
 20
-153.923765695026
 10
101.7427991824636
 20
-153.923765695026
 10
101.7427991824636
 20
-154.0953314501915
 10
101.7427991824636
 20
-154.0953314501915
 10
101.5333373769604
 20
-154.0867187114783
 10
101.3366224247526
 20
-154.0846516541872
 10
101.2330973054209
 20
-154.0846516541872
 10
101.2330973054209
 20
-154.0846516541872
 10
101.0594644929643
 20
-154.0846516541872
 10
101.0594644929643
 20
-154.0846516541872
 10
101.0594644929643
 20
-154.0846516541872
 10
101.0594644929643
 20
-154.1924831428755
 10
101.0594644929643
 20
-154.1924831428755
 10
101.0594644929643
 20
-154.1924831428755
 10
101.2901136357018
 20
-154.1924831428755
 10
101.2901136357018
 20
-154.1924831428755
 10
101.423438830981
 20
-154.1924831428755
 10
101.7111043039993
 20
-154.1883490282932
 10
101.9205661095025
 20
-154.1818033468712
 10
101.9205661095025
 20
-154.1818033468712
 10
101.9205661095025
 20
-154.3595702739101
 10
101.9205661095025
 20
-154.3595702739101
 10
101.727985271877
 20
-154.3533691020367
 10
101.4149983470421
 20
-154.3488904779058
 10
101.2901136357018
 20
-154.3488904779058
 97
        0
 97
        0
 92
        1
 93
        4
 72
     1
 10
101.4551337094452
 20
-154.6048610724599
 11
100.7485446254205
 21
-154.6048610724599
 72
     1
 10
100.7485446254205
 20
-154.6048610724599
 11
100.7485446254205
 21
-154.7130370706967
 72
     1
 10
100.7485446254205
 20
-154.7130370706967
 11
101.4551337094452
 21
-154.7130370706967
 72
     1
 10
101.4551337094452
 20
-154.7130370706967
 11
101.4551337094452
 21
-154.6048610724599
 97
        0
 92
        1
 93
        4
 72
     1
 10
101.4551337094452
 20
-154.8377495272628
 11
100.7485446254205
 21
-154.8377495272628
 72
     1
 10
100.7485446254205
 20
-154.8377495272628
 11
100.7485446254205
 21
-154.9521266973731
 72
     1
 10
100.7485446254205
 20
-154.9521266973731
 11
101.4551337094452
 21
-154.9521266973731
 72
     1
 10
101.4551337094452
 20
-154.9521266973731
 11
101.4551337094452
 21
-154.8377495272628
 97
        0
 92
        1
 93
        4
 72
     1
 10
101.4551337094452
 20
-155.0809732685214
 11
100.7485446254205
 21
-155.0809732685214
 72
     1
 10
100.7485446254205
 20
-155.0809732685214
 11
100.7485446254205
 21
-155.1953504386317
 72
     1
 10
100.7485446254205
 20
-155.1953504386317
 11
101.4551337094452
 21
-155.1953504386317
 72
     1
 10
101.4551337094452
 20
-155.1953504386317
 11
101.4551337094452
 21
-155.0809732685214
 97
        0
 75
     2
 76
     1
 98
        0
  0
SPLINE
  5
1B8
330
199
100
AcDbEntity
  8
_U+30EC_U+30A4_U+30E4_U+30FC 1
370
     0
100
AcDbSpline
210
0.0
220
0.0
230
1.0
 70
    11
 71
     3
 72
    47
 73
    43
 74
     0
 42
0.0000000001
 43
0.0000000001
 12
1.0
 22
0.0
 32
0.0
 13
1.0
 23
0.0
 33
0.0
 40
0.0
 40
0.0
 40
0.0
 40
0.0
 40
1.0
 40
1.0
 40
1.0
 40
2.0
 40
2.0
 40
2.0
 40
3.0
 40
3.0
 40
3.0
 40
4.0
 40
4.0
 40
4.0
 40
5.0
 40
5.0
 40
5.0
 40
6.0
 40
6.0
 40
6.0
 40
7.0
 40
7.0
 40
7.0
 40
8.0
 40
8.0
 40
8.0
 40
9.0
 40
9.0
 40
9.0
 40
10.0
 40
10.0
 40
10.0
 40
11.0
 40
11.0
 40
11.0
 40
12.0
 40
12.0
 40
12.0
 40
13.0
 40
13.0
 40
13.0
 40
14.0
 40
14.0
 40
14.0
 40
14.0
 10
103.2670816799124
 20
-154.3258083381547
 30
0.0
 10
103.2670816799124
 20
-154.3258083381547
 30
0.0
 10
103.1656236178718
 20
-154.3258083381547
 30
0.0
 10
103.1656236178718
 20
-154.3258083381547
 30
0.0
 10
103.1656236178718
 20
-154.412624744383
 30
0.0
 10
103.1444362806375
 20
-154.8019205342162
 30
0.0
 10
102.9477213284297
 20
-155.0217176261751
 30
0.0
 10
102.7954481079817
 20
-155.1908718145009
 30
0.0
 10
102.5880533597697
 20
-155.2608072528515
 30
0.0
 10
102.5034762656068
 20
-155.2883680167335
 30
0.0
 10
102.5034762656068
 20
-155.2883680167335
 30
0.0
 10
102.3088283706902
 20
-155.1212808856989
 30
0.0
 10
102.3088283706902
 20
-155.1212808856989
 30
0.0
 10
102.4061523181485
 20
-155.1085340324034
 30
0.0
 10
102.5816799331219
 20
-155.0851073831037
 30
0.0
 10
102.7699544013908
 20
-154.8970051696091
 30
0.0
 10
102.8440239543237
 20
-154.8250026739674
 30
0.0
 10
102.9477213284297
 20
-154.6854763068147
 30
0.0
 10
102.9477213284297
 20
-154.3258083381547
 30
0.0
 10
102.9477213284297
 20
-154.3258083381547
 30
0.0
 10
102.7170721856923
 20
-154.3258083381547
 30
0.0
 10
102.7170721856923
 20
-154.3258083381547
 30
0.0
 10
102.5310370294888
 20
-154.3258083381547
 30
0.0
 10
102.344829618511
 20
-154.329942452737
 30
0.0
 10
102.1586222075333
 20
-154.3447563633235
 30
0.0
 10
102.1586222075333
 20
-154.3447563633235
 30
0.0
 10
102.1586222075333
 20
-154.1249592713646
 30
0.0
 10
102.1586222075333
 20
-154.1249592713646
 30
0.0
 10
102.3468966758022
 20
-154.1397731819512
 30
0.0
 10
102.6324950915294
 20
-154.1439072965335
 30
0.0
 10
102.7170721856923
 20
-154.1439072965335
 30
0.0
 10
102.7170721856923
 20
-154.1439072965335
 30
0.0
 10
103.2670816799124
 20
-154.1439072965335
 30
0.0
 10
103.2670816799124
 20
-154.1439072965335
 30
0.0
 10
103.2862019598555
 20
-154.1439072965335
 30
0.0
 10
103.603495254047
 20
-154.1439072965335
 30
0.0
 10
103.8320773394934
 20
-154.1249592713646
 30
0.0
 10
103.8320773394934
 20
-154.1249592713646
 30
0.0
 10
103.8320773394934
 20
-154.3447563633235
 30
0.0
 10
103.8320773394934
 20
-154.3447563633235
 30
0.0
 10
103.6438028712245
 20
-154.329942452737
 30
0.0
 10
103.4555284029556
 20
-154.3258083381547
 30
0.0
 10
103.2670816799124
 20
-154.3258083381547
 30
0.0
  0
SPLINE
  5
1B9
330
199
100
AcDbEntity
  8
_U+30EC_U+30A4_U+30E4_U+30FC 1
370
     0
100
AcDbSpline
210
0.0
220
0.0
230
1.0
 70
    11
 71
     3
 72
    29
 73
    25
 74
     0
 42
0.0000000001
 43
0.0000000001
 12
1.0
 22
0.0
 32
0.0
 13
1.0
 23
0.0
 33
0.0
 40
0.0
 40
0.0
 40
0.0
 40
0.0
 40
1.0
 40
1.0
 40
1.0
 40
2.0
 40
2.0
 40
2.0
 40
3.0
 40
3.0
 40
3.0
 40
4.0
 40
4.0
 40
4.0
 40
5.0
 40
5.0
 40
5.0
 40
6.0
 40
6.0
 40
6.0
 40
7.0
 40
7.0
 40
7.0
 40
8.0
 40
8.0
 40
8.0
 40
8.0
 10
103.1656236178718
 20
-153.7969861811688
 30
0.0
 10
103.1656236178718
 20
-153.7969861811688
 30
0.0
 10
102.8123290758594
 20
-153.7969861811688
 30
0.0
 10
102.8123290758594
 20
-153.7969861811688
 30
0.0
 10
102.7001912178145
 20
-153.7969861811688
 30
0.0
 10
102.5606648506619
 20
-153.8031873530423
 30
0.0
 10
102.4526611071993
 20
-153.8159342063377
 30
0.0
 10
102.4526611071993
 20
-153.8159342063377
 30
0.0
 10
102.4526611071993
 20
-153.5809786942436
 30
0.0
 10
102.4526611071993
 20
-153.5809786942436
 30
0.0
 10
102.5711723918919
 20
-153.5957926048302
 30
0.0
 10
102.7551404908043
 20
-153.600271228961
 30
0.0
 10
102.8123290758594
 20
-153.600271228961
 30
0.0
 10
102.8123290758594
 20
-153.600271228961
 30
0.0
 10
103.1656236178718
 20
-153.600271228961
 30
0.0
 10
103.1656236178718
 20
-153.600271228961
 30
0.0
 10
103.1847438978149
 20
-153.600271228961
 30
0.0
 10
103.3876600218961
 20
-153.600271228961
 30
0.0
 10
103.5294257011142
 20
-153.5809786942436
 30
0.0
 10
103.5294257011142
 20
-153.5809786942436
 30
0.0
 10
103.5294257011142
 20
-153.8159342063377
 30
0.0
 10
103.5294257011142
 20
-153.8159342063377
 30
0.0
 10
103.3730183660838
 20
-153.7969861811688
 30
0.0
 10
103.1825045857495
 20
-153.7969861811688
 30
0.0
 10
103.1656236178718
 20
-153.7969861811688
 30
0.0
  0
HATCH
  5
1BA
330
199
100
AcDbEntity
  8
_U+30EC_U+30A4_U+30E4_U+30FC 1
 62
   179
420
  2234388
100
AcDbHatch
 10
0.0
 20
0.0
 30
0.0
210
0.0
220
0.0
230
1.0
  2
SOLID
 70
     1
 71
     0
 91
        2
 92
        1
 93
        1
 72
     4
 94
        3
 73
     0
 74
     1
 95
       47
 96
       43
 40
0.0
 40
0.0
 40
0.0
 40
0.0
 40
1.0
 40
1.0
 40
1.0
 40
2.0
 40
2.0
 40
2.0
 40
3.0
 40
3.0
 40
3.0
 40
4.0
 40
4.0
 40
4.0
 40
5.0
 40
5.0
 40
5.0
 40
6.0
 40
6.0
 40
6.0
 40
7.0
 40
7.0
 40
7.0
 40
8.0
 40
8.0
 40
8.0
 40
9.0
 40
9.0
 40
9.0
 40
10.0
 40
10.0
 40
10.0
 40
11.0
 40
11.0
 40
11.0
 40
12.0
 40
12.0
 40
12.0
 40
13.0
 40
13.0
 40
13.0
 40
14.0
 40
14.0
 40
14.0
 40
14.0
 10
103.2670816799124
 20
-154.3258083381547
 10
103.2670816799124
 20
-154.3258083381547
 10
103.1656236178718
 20
-154.3258083381547
 10
103.1656236178718
 20
-154.3258083381547
 10
103.1656236178718
 20
-154.412624744383
 10
103.1444362806375
 20
-154.8019205342162
 10
102.9477213284297
 20
-155.0217176261751
 10
102.7954481079817
 20
-155.1908718145009
 10
102.5880533597697
 20
-155.2608072528515
 10
102.5034762656068
 20
-155.2883680167335
 10
102.5034762656068
 20
-155.2883680167335
 10
102.3088283706902
 20
-155.1212808856989
 10
102.3088283706902
 20
-155.1212808856989
 10
102.4061523181485
 20
-155.1085340324034
 10
102.5816799331219
 20
-155.0851073831037
 10
102.7699544013908
 20
-154.8970051696091
 10
102.8440239543237
 20
-154.8250026739674
 10
102.9477213284297
 20
-154.6854763068147
 10
102.9477213284297
 20
-154.3258083381547
 10
102.9477213284297
 20
-154.3258083381547
 10
102.7170721856923
 20
-154.3258083381547
 10
102.7170721856923
 20
-154.3258083381547
 10
102.5310370294888
 20
-154.3258083381547
 10
102.344829618511
 20
-154.329942452737
 10
102.1586222075333
 20
-154.3447563633235
 10
102.1586222075333
 20
-154.3447563633235
 10
102.1586222075333
 20
-154.1249592713646
 10
102.1586222075333
 20
-154.1249592713646
 10
102.3468966758022
 20
-154.1397731819512
 10
102.6324950915294
 20
-154.1439072965335
 10
102.7170721856923
 20
-154.1439072965335
 10
102.7170721856923
 20
-154.1439072965335
 10
103.2670816799124
 20
-154.1439072965335
 10
103.2670816799124
 20
-154.1439072965335
 10
103.2862019598555
 20
-154.1439072965335
 10
103.603495254047
 20
-154.1439072965335
 10
103.8320773394934
 20
-154.1249592713646
 10
103.8320773394934
 20
-154.1249592713646
 10
103.8320773394934
 20
-154.3447563633235
 10
103.8320773394934
 20
-154.3447563633235
 10
103.6438028712245
 20
-154.329942452737
 10
103.4555284029556
 20
-154.3258083381547
 10
103.2670816799124
 20
-154.3258083381547
 97
        0
 97
        0
 92
        1
 93
        1
 72
     4
 94
        3
 73
     0
 74
     1
 95
       29
 96
       25
 40
0.0
 40
0.0
 40
0.0
 40
0.0
 40
1.0
 40
1.0
 40
1.0
 40
2.0
 40
2.0
 40
2.0
 40
3.0
 40
3.0
 40
3.0
 40
4.0
 40
4.0
 40
4.0
 40
5.0
 40
5.0
 40
5.0
 40
6.0
 40
6.0
 40
6.0
 40
7.0
 40
7.0
 40
7.0
 40
8.0
 40
8.0
 40
8.0
 40
8.0
 10
103.1656236178718
 20
-153.7969861811688
 10
103.1656236178718
 20
-153.7969861811688
 10
102.8123290758594
 20
-153.7969861811688
 10
102.8123290758594
 20
-153.7969861811688
 10
102.7001912178145
 20
-153.7969861811688
 10
102.5606648506619
 20
-153.8031873530423
 10
102.4526611071993
 20
-153.8159342063377
 10
102.4526611071993
 20
-153.8159342063377
 10
102.4526611071993
 20
-153.5809786942436
 10
102.4526611071993
 20
-153.5809786942436
 10
102.5711723918919
 20
-153.5957926048302
 10
102.7551404908043
 20
-153.600271228961
 10
102.8123290758594
 20
-153.600271228961
 10
102.8123290758594
 20
-153.600271228961
 10
103.1656236178718
 20
-153.600271228961
 10
103.1656236178718
 20
-153.600271228961
 10
103.1847438978149
 20
-153.600271228961
 10
103.3876600218961
 20
-153.600271228961
 10
103.5294257011142
 20
-153.5809786942436
 10
103.5294257011142
 20
-153.5809786942436
 10
103.5294257011142
 20
-153.8159342063377
 10
103.5294257011142
 20
-153.8159342063377
 10
103.3730183660838
 20
-153.7969861811688
 10
103.1825045857495
 20
-153.7969861811688
 10
103.1656236178718
 20
-153.7969861811688
 97
        0
 97
        0
 75
     2
 76
     1
 98
        0
  0
SPLINE
  5
1BB
330
199
100
AcDbEntity
  8
_U+30EC_U+30A4_U+30E4_U+30FC 1
370
     0
100
AcDbSpline
210
0.0
220
0.0
230
1.0
 70
    11
 71
     3
 72
    29
 73
    25
 74
     0
 42
0.0000000001
 43
0.0000000001
 12
1.0
 22
0.0
 32
0.0
 13
1.0
 23
0.0
 33
0.0
 40
0.0
 40
0.0
 40
0.0
 40
0.0
 40
1.0
 40
1.0
 40
1.0
 40
2.0
 40
2.0
 40
2.0
 40
3.0
 40
3.0
 40
3.0
 40
4.0
 40
4.0
 40
4.0
 40
5.0
 40
5.0
 40
5.0
 40
6.0
 40
6.0
 40
6.0
 40
7.0
 40
7.0
 40
7.0
 40
8.0
 40
8.0
 40
8.0
 40
8.0
 10
105.1150308982004
 20
-154.488761354607
 30
0.0
 10
105.1150308982004
 20
-154.488761354607
 30
0.0
 10
104.6306504729743
 20
-154.488761354607
 30
0.0
 10
104.6306504729743
 20
-154.488761354607
 30
0.0
 10
104.6030897090923
 20
-154.488761354607
 30
0.0
 10
104.2857964149008
 20
-154.488761354607
 30
0.0
 10
104.0742675521064
 20
-154.5139105516493
 30
0.0
 10
104.0742675521064
 20
-154.5139105516493
 30
0.0
 10
104.0742675521064
 20
-154.2834336636861
 30
0.0
 10
104.0742675521064
 20
-154.2834336636861
 30
0.0
 10
104.2329141992022
 20
-154.3068603129858
 30
0.0
 10
104.4232557247622
 20
-154.3089273702769
 30
0.0
 10
104.6306504729743
 20
-154.3089273702769
 30
0.0
 10
104.6306504729743
 20
-154.3089273702769
 30
0.0
 10
105.1150308982004
 20
-154.3089273702769
 30
0.0
 10
105.1150308982004
 20
-154.3089273702769
 30
0.0
 10
105.3012383091782
 20
-154.3089273702769
 30
0.0
 10
105.4874457201559
 20
-154.3068603129858
 30
0.0
 10
105.6714138190683
 20
-154.2834336636861
 30
0.0
 10
105.6714138190683
 20
-154.2834336636861
 30
0.0
 10
105.6714138190683
 20
-154.5139105516493
 30
0.0
 10
105.6714138190683
 20
-154.5139105516493
 30
0.0
 10
105.4874457201559
 20
-154.4908284118981
 30
0.0
 10
105.2399156095407
 20
-154.488761354607
 30
0.0
 10
105.1150308982004
 20
-154.488761354607
 30
0.0
  0
HATCH
  5
1BC
330
199
100
AcDbEntity
  8
_U+30EC_U+30A4_U+30E4_U+30FC 1
 62
   179
420
  2234388
100
AcDbHatch
 10
0.0
 20
0.0
 30
0.0
210
0.0
220
0.0
230
1.0
  2
SOLID
 70
     1
 71
     0
 91
        1
 92
        1
 93
        1
 72
     4
 94
        3
 73
     0
 74
     1
 95
       29
 96
       25
 40
0.0
 40
0.0
 40
0.0
 40
0.0
 40
1.0
 40
1.0
 40
1.0
 40
2.0
 40
2.0
 40
2.0
 40
3.0
 40
3.0
 40
3.0
 40
4.0
 40
4.0
 40
4.0
 40
5.0
 40
5.0
 40
5.0
 40
6.0
 40
6.0
 40
6.0
 40
7.0
 40
7.0
 40
7.0
 40
8.0
 40
8.0
 40
8.0
 40
8.0
 10
105.1150308982004
 20
-154.488761354607
 10
105.1150308982004
 20
-154.488761354607
 10
104.6306504729743
 20
-154.488761354607
 10
104.6306504729743
 20
-154.488761354607
 10
104.6030897090923
 20
-154.488761354607
 10
104.2857964149008
 20
-154.488761354607
 10
104.0742675521064
 20
-154.5139105516493
 10
104.0742675521064
 20
-154.5139105516493
 10
104.0742675521064
 20
-154.2834336636861
 10
104.0742675521064
 20
-154.2834336636861
 10
104.2329141992022
 20
-154.3068603129858
 10
104.4232557247622
 20
-154.3089273702769
 10
104.6306504729743
 20
-154.3089273702769
 10
104.6306504729743
 20
-154.3089273702769
 10
105.1150308982004
 20
-154.3089273702769
 10
105.1150308982004
 20
-154.3089273702769
 10
105.3012383091782
 20
-154.3089273702769
 10
105.4874457201559
 20
-154.3068603129858
 10
105.6714138190683
 20
-154.2834336636861
 10
105.6714138190683
 20
-154.2834336636861
 10
105.6714138190683
 20
-154.5139105516493
 10
105.6714138190683
 20
-154.5139105516493
 10
105.4874457201559
 20
-154.4908284118981
 10
105.2399156095407
 20
-154.488761354607
 10
105.1150308982004
 20
-154.488761354607
 97
        0
 97
        0
 75
     2
 76
     1
 98
        0
  0
SPLINE
  5
1BD
330
199
100
AcDbEntity
  8
_U+30EC_U+30A4_U+30E4_U+30FC 1
370
     0
100
AcDbSpline
210
0.0
220
0.0
230
1.0
 70
    11
 71
     3
 72
    44
 73
    40
 74
     0
 42
0.0000000001
 43
0.0000000001
 12
1.0
 22
0.0
 32
0.0
 13
1.0
 23
0.0
 33
0.0
 40
0.0
 40
0.0
 40
0.0
 40
0.0
 40
1.0
 40
1.0
 40
1.0
 40
2.0
 40
2.0
 40
2.0
 40
3.0
 40
3.0
 40
3.0
 40
4.0
 40
4.0
 40
4.0
 40
5.0
 40
5.0
 40
5.0
 40
6.0
 40
6.0
 40
6.0
 40
7.0
 40
7.0
 40
7.0
 40
8.0
 40
8.0
 40
8.0
 40
9.0
 40
9.0
 40
9.0
 40
10.0
 40
10.0
 40
10.0
 40
11.0
 40
11.0
 40
11.0
 40
12.0
 40
12.0
 40
12.0
 40
13.0
 40
13.0
 40
13.0
 40
13.0
 10
107.328849257022
 20
-154.0508897184317
 30
0.0
 10
107.2168836537513
 20
-154.4188259162564
 30
0.0
 10
107.1658962405696
 20
-154.5776448181264
 30
0.0
 10
106.9691812883619
 20
-154.8270697312585
 30
0.0
 10
106.7852131894495
 20
-155.0578911287703
 30
0.0
 10
106.5481906200643
 20
-155.2439262849738
 30
0.0
 10
106.2687933762106
 20
-155.3369438630755
 30
0.0
 10
106.2687933762106
 20
-155.3369438630755
 30
0.0
 10
106.0765570481336
 20
-155.1571098787454
 30
0.0
 10
106.0765570481336
 20
-155.1571098787454
 30
0.0
 10
106.7173448083901
 20
-155.0048366582974
 30
0.0
 10
107.047384955877
 20
-154.4484537374296
 30
0.0
 10
107.1107747128057
 20
-154.0085150439631
 30
0.0
 10
107.1107747128057
 20
-154.0085150439631
 30
0.0
 10
106.3452744959831
 20
-154.0085150439631
 30
0.0
 10
106.3452744959831
 20
-154.0085150439631
 30
0.0
 10
106.2522569178814
 20
-154.0085150439631
 30
0.0
 10
106.0679443094205
 20
-154.0126491585455
 30
0.0
 10
105.9111924648416
 20
-154.0315971837143
 30
0.0
 10
105.9111924648416
 20
-154.0315971837143
 30
0.0
 10
105.9111924648416
 20
-153.8118000917554
 30
0.0
 10
105.9111924648416
 20
-153.8118000917554
 30
0.0
 10
105.9980088710699
 20
-153.8328151742154
 30
0.0
 10
106.2498453510417
 20
-153.8328151742154
 30
0.0
 10
106.3494086105654
 20
-153.8328151742154
 30
0.0
 10
106.3494086105654
 20
-153.8328151742154
 30
0.0
 10
106.7807345653187
 20
-153.8328151742154
 30
0.0
 10
106.7807345653187
 20
-153.8328151742154
 30
0.0
 10
106.8234537493358
 20
-153.8328151742154
 30
0.0
 10
107.0580647518813
 20
-153.8307481169243
 30
0.0
 10
107.0963053117676
 20
-153.8245469450508
 30
0.0
 10
107.1383354766876
 20
-153.8180012636288
 30
0.0
 10
107.1404025339788
 20
-153.8159342063377
 30
0.0
 10
107.2017252336162
 20
-153.7756265891603
 30
0.0
 10
107.2017252336162
 20
-153.7756265891603
 30
0.0
 10
107.3901719566594
 20
-153.930311376448
 30
0.0
 10
107.3901719566594
 20
-153.930311376448
 30
0.0
 10
107.3605441354863
 20
-153.9599391976211
 30
0.0
 10
107.3457302248997
 20
-153.9916340760854
 30
0.0
 10
107.328849257022
 20
-154.0508897184317
 30
0.0
  0
SPLINE
  5
1BE
330
199
100
AcDbEntity
  8
_U+30EC_U+30A4_U+30E4_U+30FC 1
370
     0
100
AcDbSpline
210
0.0
220
0.0
230
1.0
 70
    11
 71
     3
 72
    17
 73
    13
 74
     0
 42
0.0000000001
 43
0.0000000001
 12
1.0
 22
0.0
 32
0.0
 13
1.0
 23
0.0
 33
0.0
 40
0.0
 40
0.0
 40
0.0
 40
0.0
 40
1.0
 40
1.0
 40
1.0
 40
2.0
 40
2.0
 40
2.0
 40
3.0
 40
3.0
 40
3.0
 40
4.0
 40
4.0
 40
4.0
 40
4.0
 10
107.5383110625252
 20
-153.8517631993843
 30
0.0
 10
107.4111870391194
 20
-153.8517631993843
 30
0.0
 10
107.3099012318531
 20
-153.7504773921179
 30
0.0
 10
107.3099012318531
 20
-153.6233533687122
 30
0.0
 10
107.3099012318531
 20
-153.496573854855
 30
0.0
 10
107.4111870391194
 20
-153.392876480749
 30
0.0
 10
107.5383110625252
 20
-153.392876480749
 30
0.0
 10
107.6654350859309
 20
-153.392876480749
 30
0.0
 10
107.7687879504884
 20
-153.496573854855
 30
0.0
 10
107.7687879504884
 20
-153.6233533687122
 30
0.0
 10
107.7687879504884
 20
-153.7504773921179
 30
0.0
 10
107.6654350859309
 20
-153.8517631993843
 30
0.0
 10
107.5383110625252
 20
-153.8517631993843
 30
0.0
  0
SPLINE
  5
1BF
330
199
100
AcDbEntity
  8
_U+30EC_U+30A4_U+30E4_U+30FC 1
370
     0
100
AcDbSpline
210
0.0
220
0.0
230
1.0
 70
    11
 71
     3
 72
    17
 73
    13
 74
     0
 42
0.0000000001
 43
0.0000000001
 12
1.0
 22
0.0
 32
0.0
 13
1.0
 23
0.0
 33
0.0
 40
0.0
 40
0.0
 40
0.0
 40
0.0
 40
1.0
 40
1.0
 40
1.0
 40
2.0
 40
2.0
 40
2.0
 40
3.0
 40
3.0
 40
3.0
 40
4.0
 40
4.0
 40
4.0
 40
4.0
 10
107.5358994956855
 20
-153.5217230518974
 30
0.0
 10
107.48112247747
 20
-153.5217230518974
 30
0.0
 10
107.4366807457103
 20
-153.5661647836571
 30
0.0
 10
107.4366807457103
 20
-153.6212863114211
 30
0.0
 10
107.4366807457103
 20
-153.6784748964762
 30
0.0
 10
107.48112247747
 20
-153.7270507428182
 30
0.0
 10
107.5403781198163
 20
-153.7270507428182
 30
0.0
 10
107.5996337621626
 20
-153.7270507428182
 30
0.0
 10
107.63994137934
 20
-153.6764078391851
 30
0.0
 10
107.63994137934
 20
-153.6233533687122
 30
0.0
 10
107.63994137934
 20
-153.5661647836571
 30
0.0
 10
107.5930880807406
 20
-153.5217230518974
 30
0.0
 10
107.5358994956855
 20
-153.5217230518974
 30
0.0
  0
HATCH
  5
1C0
330
199
100
AcDbEntity
  8
_U+30EC_U+30A4_U+30E4_U+30FC 1
 62
   179
420
  2234388
100
AcDbHatch
 10
0.0
 20
0.0
 30
0.0
210
0.0
220
0.0
230
1.0
  2
SOLID
 70
     1
 71
     0
 91
        3
 92
        1
 93
        1
 72
     4
 94
        3
 73
     0
 74
     1
 95
       44
 96
       40
 40
0.0
 40
0.0
 40
0.0
 40
0.0
 40
1.0
 40
1.0
 40
1.0
 40
2.0
 40
2.0
 40
2.0
 40
3.0
 40
3.0
 40
3.0
 40
4.0
 40
4.0
 40
4.0
 40
5.0
 40
5.0
 40
5.0
 40
6.0
 40
6.0
 40
6.0
 40
7.0
 40
7.0
 40
7.0
 40
8.0
 40
8.0
 40
8.0
 40
9.0
 40
9.0
 40
9.0
 40
10.0
 40
10.0
 40
10.0
 40
11.0
 40
11.0
 40
11.0
 40
12.0
 40
12.0
 40
12.0
 40
13.0
 40
13.0
 40
13.0
 40
13.0
 10
107.328849257022
 20
-154.0508897184317
 10
107.2168836537513
 20
-154.4188259162564
 10
107.1658962405696
 20
-154.5776448181264
 10
106.9691812883619
 20
-154.8270697312585
 10
106.7852131894495
 20
-155.0578911287703
 10
106.5481906200643
 20
-155.2439262849738
 10
106.2687933762106
 20
-155.3369438630755
 10
106.2687933762106
 20
-155.3369438630755
 10
106.0765570481336
 20
-155.1571098787454
 10
106.0765570481336
 20
-155.1571098787454
 10
106.7173448083901
 20
-155.0048366582974
 10
107.047384955877
 20
-154.4484537374296
 10
107.1107747128057
 20
-154.0085150439631
 10
107.1107747128057
 20
-154.0085150439631
 10
106.3452744959831
 20
-154.0085150439631
 10
106.3452744959831
 20
-154.0085150439631
 10
106.2522569178814
 20
-154.0085150439631
 10
106.0679443094205
 20
-154.0126491585455
 10
105.9111924648416
 20
-154.0315971837143
 10
105.9111924648416
 20
-154.0315971837143
 10
105.9111924648416
 20
-153.8118000917554
 10
105.9111924648416
 20
-153.8118000917554
 10
105.9980088710699
 20
-153.8328151742154
 10
106.2498453510417
 20
-153.8328151742154
 10
106.3494086105654
 20
-153.8328151742154
 10
106.3494086105654
 20
-153.8328151742154
 10
106.7807345653187
 20
-153.8328151742154
 10
106.7807345653187
 20
-153.8328151742154
 10
106.8234537493358
 20
-153.8328151742154
 10
107.0580647518813
 20
-153.8307481169243
 10
107.0963053117676
 20
-153.8245469450508
 10
107.1383354766876
 20
-153.8180012636288
 10
107.1404025339788
 20
-153.8159342063377
 10
107.2017252336162
 20
-153.7756265891603
 10
107.2017252336162
 20
-153.7756265891603
 10
107.3901719566594
 20
-153.930311376448
 10
107.3901719566594
 20
-153.930311376448
 10
107.3605441354863
 20
-153.9599391976211
 10
107.3457302248997
 20
-153.9916340760854
 10
107.328849257022
 20
-154.0508897184317
 97
        0
 97
        0
 92
        1
 93
        1
 72
     4
 94
        3
 73
     0
 74
     1
 95
       17
 96
       13
 40
0.0
 40
0.0
 40
0.0
 40
0.0
 40
1.0
 40
1.0
 40
1.0
 40
2.0
 40
2.0
 40
2.0
 40
3.0
 40
3.0
 40
3.0
 40
4.0
 40
4.0
 40
4.0
 40
4.0
 10
107.5383110625252
 20
-153.8517631993843
 10
107.4111870391194
 20
-153.8517631993843
 10
107.3099012318531
 20
-153.7504773921179
 10
107.3099012318531
 20
-153.6233533687122
 10
107.3099012318531
 20
-153.496573854855
 10
107.4111870391194
 20
-153.392876480749
 10
107.5383110625252
 20
-153.392876480749
 10
107.6654350859309
 20
-153.392876480749
 10
107.7687879504884
 20
-153.496573854855
 10
107.7687879504884
 20
-153.6233533687122
 10
107.7687879504884
 20
-153.7504773921179
 10
107.6654350859309
 20
-153.8517631993843
 10
107.5383110625252
 20
-153.8517631993843
 97
        0
 97
        0
 92
        1
 93
        1
 72
     4
 94
        3
 73
     0
 74
     1
 95
       17
 96
       13
 40
0.0
 40
0.0
 40
0.0
 40
0.0
 40
1.0
 40
1.0
 40
1.0
 40
2.0
 40
2.0
 40
2.0
 40
3.0
 40
3.0
 40
3.0
 40
4.0
 40
4.0
 40
4.0
 40
4.0
 10
107.5358994956855
 20
-153.5217230518974
 10
107.48112247747
 20
-153.5217230518974
 10
107.4366807457103
 20
-153.5661647836571
 10
107.4366807457103
 20
-153.6212863114211
 10
107.4366807457103
 20
-153.6784748964762
 10
107.48112247747
 20
-153.7270507428182
 10
107.5403781198163
 20
-153.7270507428182
 10
107.5996337621626
 20
-153.7270507428182
 10
107.63994137934
 20
-153.6764078391851
 10
107.63994137934
 20
-153.6233533687122
 10
107.63994137934
 20
-153.5661647836571
 10
107.5930880807406
 20
-153.5217230518974
 10
107.5358994956855
 20
-153.5217230518974
 97
        0
 97
        0
 75
     2
 76
     1
 98
        0
  0
ENDBLK
  5
19C
330
199
100
AcDbEntity
  8
0
100
AcDbBlockEnd
  0
ENDSEC
  0
SECTION
  2
ENTITIES
  0
SPLINE
  5
41
330
1F
100
AcDbEntity
  8
_U+30EC_U+30A4_U+30E4_U+30FC 1
 62
   179
420
  2234388
370
     9
100
AcDbSpline
210
0.0
220
0.0
230
1.0
 70
    11
 71
     3
 72
    17
 73
    13
 74
     0
 42
0.0000000001
 43
0.0000000001
 12
1.0
 22
0.0
 32
0.0
 13
1.0
 23
0.0
 33
0.0
 40
0.0
 40
0.0
 40
0.0
 40
0.0
 40
1.0
 40
1.0
 40
1.0
 40
2.0
 40
2.0
 40
2.0
 40
3.0
 40
3.0
 40
3.0
 40
4.0
 40
4.0
 40
4.0
 40
4.0
 10
88.93904798191564
 20
-163.4415955876661
 30
0.0
 10
88.93904798191564
 20
-163.4966309880429
 30
0.0
 10
88.9838449891476
 20
-163.541438761198
 30
0.0
 10
89.03888038952446
 20
-163.541438761198
 30
0.0
 10
89.09391578990133
 20
-163.541438761198
 30
0.0
 10
89.13871279713264
 20
-163.4966309880429
 30
0.0
 10
89.13871279713264
 20
-163.4415955876661
 30
0.0
 10
89.13871279713264
 20
-163.386581719136
 30
0.0
 10
89.09391578990133
 20
-163.341773945981
 30
0.0
 10
89.03888038952446
 20
-163.341773945981
 30
0.0
 10
88.9838449891476
 20
-163.341773945981
 30
0.0
 10
88.93904798191564
 20
-163.386581719136
 30
0.0
 10
88.93904798191564
 20
-163.4415955876661
 30
0.0
  0
SPLINE
  5
42
330
1F
100
AcDbEntity
  8
_U+30EC_U+30A4_U+30E4_U+30FC 1
 62
   179
420
  2234388
370
     9
100
AcDbSpline
210
0.0
220
0.0
230
1.0
 70
    11
 71
     3
 72
    17
 73
    13
 74
     0
 42
0.0000000001
 43
0.0000000001
 12
1.0
 22
0.0
 32
0.0
 13
1.0
 23
0.0
 33
0.0
 40
0.0
 40
0.0
 40
0.0
 40
0.0
 40
1.0
 40
1.0
 40
1.0
 40
2.0
 40
2.0
 40
2.0
 40
3.0
 40
3.0
 40
3.0
 40
4.0
 40
4.0
 40
4.0
 40
4.0
 10
86.93919158457489
 20
-163.4415955876661
 30
0.0
 10
86.93919158457489
 20
-163.4966309880429
 30
0.0
 10
86.98398859180652
 20
-163.541438761198
 30
0.0
 10
87.03902399218339
 20
-163.541438761198
 30
0.0
 10
87.0947591775807
 20
-163.541438761198
 30
0.0
 10
87.13956695073573
 20
-163.4966309880429
 30
0.0
 10
87.13956695073573
 20
-163.4415955876661
 30
0.0
 10
87.13956695073573
 20
-163.386581719136
 30
0.0
 10
87.0947591775807
 20
-163.341773945981
 30
0.0
 10
87.03902399218339
 20
-163.341773945981
 30
0.0
 10
86.98398859180652
 20
-163.341773945981
 30
0.0
 10
86.93919158457489
 20
-163.386581719136
 30
0.0
 10
86.93919158457489
 20
-163.4415955876661
 30
0.0
  0
POLYLINE
  5
43
330
1F
100
AcDbEntity
  8
_U+30EC_U+30A4_U+30E4_U+30FC 1
 62
   179
420
  2234388
370
     9
100
AcDb2dPolyline
 66
     1
 10
0.0
 20
0.0
 30
0.0
  0
VERTEX
  5
44
330
43
100
AcDbEntity
  8
_U+30EC_U+30A4_U+30E4_U+30FC 1
 62
   179
420
  2234388
370
     9
100
AcDbVertex
100
AcDb2dVertex
 10
87.03906705587696
 20
-145.7858042034627
 30
0.0
  0
VERTEX
  5
45
330
43
100
AcDbEntity
  8
_U+30EC_U+30A4_U+30E4_U+30FC 1
 62
   179
420
  2234388
370
     9
100
AcDbVertex
100
AcDb2dVertex
 10
87.03906705587696
 20
-164.4417714025745
 30
0.0
  0
SEQEND
  5
46
330
43
100
AcDbEntity
  8
_U+30EC_U+30A4_U+30E4_U+30FC 1
 62
   179
420
  2234388
370
     9
  0
POLYLINE
  5
47
330
1F
100
AcDbEntity
  8
_U+30EC_U+30A4_U+30E4_U+30FC 1
 62
   179
420
  2234388
370
     9
100
AcDb2dPolyline
 66
     1
 10
0.0
 20
0.0
 30
0.0
  0
VERTEX
  5
48
330
47
100
AcDbEntity
  8
_U+30EC_U+30A4_U+30E4_U+30FC 1
 62
   179
420
  2234388
370
     9
100
AcDbVertex
100
AcDb2dVertex
 10
87.03906705587696
 20
-163.4415955876661
 30
0.0
  0
VERTEX
  5
49
330
47
100
AcDbEntity
  8
_U+30EC_U+30A4_U+30E4_U+30FC 1
 62
   179
420
  2234388
370
     9
100
AcDbVertex
100
AcDb2dVertex
 10
89.03895575098788
 20
-163.4415955876661
 30
0.0
  0
SEQEND
  5
4A
330
47
100
AcDbEntity
  8
_U+30EC_U+30A4_U+30E4_U+30FC 1
 62
   179
420
  2234388
370
     9
  0
POLYLINE
  5
4B
330
1F
100
AcDbEntity
  8
_U+30EC_U+30A4_U+30E4_U+30FC 1
 62
   179
420
  2234388
370
     9
100
AcDb2dPolyline
 66
     1
 10
0.0
 20
0.0
 30
0.0
  0
VERTEX
  5
4C
330
4B
100
AcDbEntity
  8
_U+30EC_U+30A4_U+30E4_U+30FC 1
 62
   179
420
  2234388
370
     9
100
AcDbVertex
100
AcDb2dVertex
 10
89.03895575098788
 20
-145.7858042034627
 30
0.0
  0
VERTEX
  5
4D
330
4B
100
AcDbEntity
  8
_U+30EC_U+30A4_U+30E4_U+30FC 1
 62
   179
420
  2234388
370
     9
100
AcDbVertex
100
AcDb2dVertex
 10
89.03895575098788
 20
-164.4417714025745
 30
0.0
  0
SEQEND
  5
4E
330
4B
100
AcDbEntity
  8
_U+30EC_U+30A4_U+30E4_U+30FC 1
 62
   179
420
  2234388
370
     9
  0
INSERT
  5
50
330
1F
100
AcDbEntity
  8
_U+30EC_U+30A4_U+30E4_U+30FC 1
100
AcDbBlockReference
  2
block 2
 10
0.0
 20
0.0
 30
0.0
  0
POLYLINE
  5
55
330
1F
100
AcDbEntity
  8
_U+30EC_U+30A4_U+30E4_U+30FC 1
 62
   179
420
  2234388
370
    25
100
AcDb2dPolyline
 66
     1
 10
0.0
 20
0.0
 30
0.0
  0
VERTEX
  5
56
330
55
100
AcDbEntity
  8
_U+30EC_U+30A4_U+30E4_U+30FC 1
 62
   179
420
  2234388
370
    25
100
AcDbVertex
100
AcDb2dVertex
 10
87.23682630265368
 20
-138.3914450405432
 30
0.0
  0
VERTEX
  5
57
330
55
100
AcDbEntity
  8
_U+30EC_U+30A4_U+30E4_U+30FC 1
 62
   179
420
  2234388
370
    25
100
AcDbVertex
100
AcDb2dVertex
 10
87.02409165643951
 20
-138.8754594243744
 30
0.0
  0
VERTEX
  5
58
330
55
100
AcDbEntity
  8
_U+30EC_U+30A4_U+30E4_U+30FC 1
 62
   179
420
  2234388
370
    25
100
AcDbVertex
100
AcDb2dVertex
 10
87.21141872344997
 20
-139.3697014354267
 30
0.0
  0
VERTEX
  5
59
330
55
100
AcDbEntity
  8
_U+30EC_U+30A4_U+30E4_U+30FC 1
 62
   179
420
  2234388
370
    25
100
AcDbVertex
100
AcDb2dVertex
 10
86.9990501186311
 20
-139.8544263702013
 30
0.0
  0
VERTEX
  5
5A
330
55
100
AcDbEntity
  8
_U+30EC_U+30A4_U+30E4_U+30FC 1
 62
   179
420
  2234388
370
    25
100
AcDbVertex
100
AcDb2dVertex
 10
87.18602191016997
 20
-140.3497234417463
 30
0.0
  0
VERTEX
  5
5B
330
55
100
AcDbEntity
  8
_U+30EC_U+30A4_U+30E4_U+30FC 1
 62
   179
420
  2234388
370
    25
100
AcDbVertex
100
AcDb2dVertex
 10
86.97329802987886
 20
-140.834082335126
 30
0.0
  0
VERTEX
  5
5C
330
55
100
AcDbEntity
  8
_U+30EC_U+30A4_U+30E4_U+30FC 1
 62
   179
420
  2234388
370
    25
100
AcDbVertex
100
AcDb2dVertex
 10
87.16062509688932
 20
-141.3290348971222
 30
0.0
  0
VERTEX
  5
5D
330
55
100
AcDbEntity
  8
_U+30EC_U+30A4_U+30E4_U+30FC 1
 62
   179
420
  2234388
370
    25
100
AcDbVertex
100
AcDb2dVertex
 10
86.94790121659854
 20
-141.813049280953
 30
0.0
  0
VERTEX
  5
5E
330
55
100
AcDbEntity
  8
_U+30EC_U+30A4_U+30E4_U+30FC 1
 62
   179
420
  2234388
370
    25
100
AcDbVertex
100
AcDb2dVertex
 10
87.1352175176856
 20
-142.3076358015545
 30
0.0
  0
VERTEX
  5
5F
330
55
100
AcDbEntity
  8
_U+30EC_U+30A4_U+30E4_U+30FC 1
 62
   179
420
  2234388
370
    25
100
AcDbVertex
100
AcDb2dVertex
 10
86.92249363739481
 20
-142.791650185385
 30
0.0
  0
VERTEX
  5
60
330
55
100
AcDbEntity
  8
_U+30EC_U+30A4_U+30E4_U+30FC 1
 62
   179
420
  2234388
370
    25
100
AcDbVertex
100
AcDb2dVertex
 10
87.10982070440528
 20
-143.2862367059862
 30
0.0
  0
VERTEX
  5
61
330
55
100
AcDbEntity
  8
_U+30EC_U+30A4_U+30E4_U+30FC 1
 62
   179
420
  2234388
370
    25
100
AcDbVertex
100
AcDb2dVertex
 10
86.89709682411448
 20
-143.7713061503094
 30
0.0
  0
VERTEX
  5
62
330
55
100
AcDbEntity
  8
_U+30EC_U+30A4_U+30E4_U+30FC 1
 62
   179
420
  2234388
370
    25
100
AcDbVertex
100
AcDb2dVertex
 10
87.08406861565304
 20
-144.2662587123062
 30
0.0
  0
VERTEX
  5
63
330
55
100
AcDbEntity
  8
_U+30EC_U+30A4_U+30E4_U+30FC 1
 62
   179
420
  2234388
370
    25
100
AcDbVertex
100
AcDb2dVertex
 10
86.87170001083416
 20
-144.7509836470808
 30
0.0
  0
VERTEX
  5
64
330
55
100
AcDbEntity
  8
_U+30EC_U+30A4_U+30E4_U+30FC 1
 62
   179
420
  2234388
370
    25
100
AcDbVertex
100
AcDb2dVertex
 10
87.05901631192123
 20
-145.2455701676817
 30
0.0
  0
VERTEX
  5
65
330
55
100
AcDbEntity
  8
_U+30EC_U+30A4_U+30E4_U+30FC 1
 62
   179
420
  2234388
370
    25
100
AcDbVertex
100
AcDb2dVertex
 10
86.84629243163045
 20
-145.729929061061
 30
0.0
  0
VERTEX
  5
66
330
55
100
AcDbEntity
  8
_U+30EC_U+30A4_U+30E4_U+30FC 1
 62
   179
420
  2234388
370
    25
100
AcDbVertex
100
AcDb2dVertex
 10
87.03326422316898
 20
-146.2231160116213
 30
0.0
  0
VERTEX
  5
67
330
55
100
AcDbEntity
  8
_U+30EC_U+30A4_U+30E4_U+30FC 1
 62
   179
420
  2234388
370
    25
100
AcDbVertex
100
AcDb2dVertex
 10
86.82089561835012
 20
-146.7057308254116
 30
0.0
  0
VERTEX
  5
68
330
55
100
AcDbEntity
  8
_U+30EC_U+30A4_U+30E4_U+30FC 1
 62
   179
420
  2234388
370
    25
100
AcDbVertex
100
AcDb2dVertex
 10
87.00822268536058
 20
-147.1988962441251
 30
0.0
  0
VERTEX
  5
69
330
55
100
AcDbEntity
  8
_U+30EC_U+30A4_U+30E4_U+30FC 1
 62
   179
420
  2234388
370
    25
100
AcDbVertex
100
AcDb2dVertex
 10
86.7954988050698
 20
-147.6818555674632
 30
0.0
  0
VERTEX
  5
6A
330
55
100
AcDbEntity
  8
_U+30EC_U+30A4_U+30E4_U+30FC 1
 62
   179
420
  2234388
370
    25
100
AcDbVertex
100
AcDb2dVertex
 10
86.98282587208026
 20
-148.1757530689677
 30
0.0
  0
VERTEX
  5
6B
330
55
100
AcDbEntity
  8
_U+30EC_U+30A4_U+30E4_U+30FC 1
 62
   179
420
  2234388
370
    25
100
AcDbVertex
100
AcDb2dVertex
 10
86.77009122586607
 20
-148.6604564718952
 30
0.0
  0
VERTEX
  5
6C
330
55
100
AcDbEntity
  8
_U+30EC_U+30A4_U+30E4_U+30FC 1
 62
   179
420
  2234388
370
    25
100
AcDbVertex
100
AcDb2dVertex
 10
86.95741829287654
 20
-149.1561195848356
 30
0.0
  0
VERTEX
  5
6D
330
55
100
AcDbEntity
  8
_U+30EC_U+30A4_U+30E4_U+30FC 1
 62
   179
420
  2234388
370
    25
100
AcDbVertex
100
AcDb2dVertex
 10
86.74469441258574
 20
-149.6404784782149
 30
0.0
  0
VERTEX
  5
6E
330
55
100
AcDbEntity
  8
_U+30EC_U+30A4_U+30E4_U+30FC 1
 62
   179
420
  2234388
370
    25
100
AcDbVertex
100
AcDb2dVertex
 10
86.9316662041243
 20
-150.1350649988161
 30
0.0
  0
VERTEX
  5
6F
330
55
100
AcDbEntity
  8
_U+30EC_U+30A4_U+30E4_U+30FC 1
 62
   179
420
  2234388
370
    25
100
AcDbVertex
100
AcDb2dVertex
 10
86.71929759930575
 20
-150.6187348730984
 30
0.0
  0
VERTEX
  5
70
330
55
100
AcDbEntity
  8
_U+30EC_U+30A4_U+30E4_U+30FC 1
 62
   179
420
  2234388
370
    25
100
AcDbVertex
100
AcDb2dVertex
 10
86.90626939084396
 20
-151.112976884151
 30
0.0
  0
VERTEX
  5
71
330
55
100
AcDbEntity
  8
_U+30EC_U+30A4_U+30E4_U+30FC 1
 62
   179
420
  2234388
370
    25
100
AcDbVertex
100
AcDb2dVertex
 10
86.6939007860251
 20
-151.5969912679818
 30
0.0
  0
VERTEX
  5
72
330
55
100
AcDbEntity
  8
_U+30EC_U+30A4_U+30E4_U+30FC 1
 62
   179
420
  2234388
370
    25
100
AcDbVertex
100
AcDb2dVertex
 10
86.88087257756396
 20
-152.0922883395268
 30
0.0
  0
VERTEX
  5
73
330
55
100
AcDbEntity
  8
_U+30EC_U+30A4_U+30E4_U+30FC 1
 62
   179
420
  2234388
370
    25
100
AcDbVertex
100
AcDb2dVertex
 10
86.66849320682138
 20
-152.5777022933985
 30
0.0
  0
VERTEX
  5
74
330
55
100
AcDbEntity
  8
_U+30EC_U+30A4_U+30E4_U+30FC 1
 62
   179
420
  2234388
370
    25
100
AcDbVertex
100
AcDb2dVertex
 10
86.85546499836025
 20
-153.072654855395
 30
0.0
  0
VERTEX
  5
75
330
55
100
AcDbEntity
  8
_U+30EC_U+30A4_U+30E4_U+30FC 1
 62
   179
420
  2234388
370
    25
100
AcDbVertex
100
AcDb2dVertex
 10
86.64309639354106
 20
-153.5570137487744
 30
0.0
  0
VERTEX
  5
76
330
55
100
AcDbEntity
  8
_U+30EC_U+30A4_U+30E4_U+30FC 1
 62
   179
420
  2234388
370
    25
100
AcDbVertex
100
AcDb2dVertex
 10
86.8300681850796
 20
-154.0523108203194
 30
0.0
  0
VERTEX
  5
77
330
55
100
AcDbEntity
  8
_U+30EC_U+30A4_U+30E4_U+30FC 1
 62
   179
420
  2234388
370
    25
100
AcDbVertex
100
AcDb2dVertex
 10
86.61769958026073
 20
-154.5377463060379
 30
0.0
  0
VERTEX
  5
78
330
55
100
AcDbEntity
  8
_U+30EC_U+30A4_U+30E4_U+30FC 1
 62
   179
420
  2234388
370
    25
100
AcDbVertex
100
AcDb2dVertex
 10
86.80467137179927
 20
-155.0333878871314
 30
0.0
  0
VERTEX
  5
79
330
55
100
AcDbEntity
  8
_U+30EC_U+30A4_U+30E4_U+30FC 1
 62
   179
420
  2234388
370
    25
100
AcDbVertex
100
AcDb2dVertex
 10
86.59194749150848
 20
-155.5181128219061
 30
0.0
  0
VERTEX
  5
7A
330
55
100
AcDbEntity
  8
_U+30EC_U+30A4_U+30E4_U+30FC 1
 62
   179
420
  2234388
370
    25
100
AcDbVertex
100
AcDb2dVertex
 10
86.77926379259556
 20
-156.0137544029996
 30
0.0
  0
VERTEX
  5
7B
330
55
100
AcDbEntity
  8
_U+30EC_U+30A4_U+30E4_U+30FC 1
 62
   179
420
  2234388
370
    25
100
AcDbVertex
100
AcDb2dVertex
 10
86.56653991230476
 20
-156.4995343982666
 30
0.0
  0
VERTEX
  5
7C
330
55
100
AcDbEntity
  8
_U+30EC_U+30A4_U+30E4_U+30FC 1
 62
   179
420
  2234388
370
    25
100
AcDbVertex
100
AcDb2dVertex
 10
86.75351170384332
 20
-156.9951975112069
 30
0.0
  0
VERTEX
  5
7D
330
55
100
AcDbEntity
  8
_U+30EC_U+30A4_U+30E4_U+30FC 1
 62
   179
420
  2234388
370
    25
100
AcDbVertex
100
AcDb2dVertex
 10
86.54114309902444
 20
-157.4809559746272
 30
0.0
  0
VERTEX
  5
7E
330
55
100
AcDbEntity
  8
_U+30EC_U+30A4_U+30E4_U+30FC 1
 62
   179
420
  2234388
370
    25
100
AcDbVertex
100
AcDb2dVertex
 10
86.72811489056298
 20
-157.976963597116
 30
0.0
  0
VERTEX
  5
7F
330
55
100
AcDbEntity
  8
_U+30EC_U+30A4_U+30E4_U+30FC 1
 62
   179
420
  2234388
370
    25
100
AcDbVertex
100
AcDb2dVertex
 10
86.51574628574411
 20
-158.462743592383
 30
0.0
  0
VERTEX
  5
80
330
55
100
AcDbEntity
  8
_U+30EC_U+30A4_U+30E4_U+30FC 1
 62
   179
420
  2234388
370
    25
100
AcDbVertex
100
AcDb2dVertex
 10
86.70271807728265
 20
-158.9576961543795
 30
0.0
  0
VERTEX
  5
81
330
55
100
AcDbEntity
  8
_U+30EC_U+30A4_U+30E4_U+30FC 1
 62
   179
420
  2234388
370
    25
100
AcDbVertex
100
AcDb2dVertex
 10
86.48999419699187
 20
-159.4424210891542
 30
0.0
  0
VERTEX
  5
82
330
55
100
AcDbEntity
  8
_U+30EC_U+30A4_U+30E4_U+30FC 1
 62
   179
420
  2234388
370
    25
100
AcDbVertex
100
AcDb2dVertex
 10
86.67731049807894
 20
-159.9391177307401
 30
0.0
  0
VERTEX
  5
83
330
55
100
AcDbEntity
  8
_U+30EC_U+30A4_U+30E4_U+30FC 1
 62
   179
420
  2234388
370
    25
100
AcDbVertex
100
AcDb2dVertex
 10
86.46458661778816
 20
-160.4248977260071
 30
0.0
  0
VERTEX
  5
84
330
55
100
AcDbEntity
  8
_U+30EC_U+30A4_U+30E4_U+30FC 1
 62
   179
420
  2234388
370
    25
100
AcDbVertex
100
AcDb2dVertex
 10
86.6515584093267
 20
-160.9212498580444
 30
0.0
  0
VERTEX
  5
85
330
55
100
AcDbEntity
  8
_U+30EC_U+30A4_U+30E4_U+30FC 1
 62
   179
420
  2234388
370
    25
100
AcDbVertex
100
AcDb2dVertex
 10
86.43918980450783
 20
-161.4077404042553
 30
0.0
  0
VERTEX
  5
86
330
55
100
AcDbEntity
  8
_U+30EC_U+30A4_U+30E4_U+30FC 1
 62
   179
420
  2234388
370
    25
100
AcDbVertex
100
AcDb2dVertex
 10
86.62616159604637
 20
-161.9040925362926
 30
0.0
  0
VERTEX
  5
87
330
55
100
AcDbEntity
  8
_U+30EC_U+30A4_U+30E4_U+30FC 1
 62
   179
420
  2234388
370
    25
100
AcDbVertex
100
AcDb2dVertex
 10
86.4137929912275
 20
-162.3912721016005
 30
0.0
  0
VERTEX
  5
88
330
55
100
AcDbEntity
  8
_U+30EC_U+30A4_U+30E4_U+30FC 1
 62
   179
420
  2234388
370
    25
100
AcDbVertex
100
AcDb2dVertex
 10
86.60040950729413
 20
-162.8897558864694
 30
0.0
  0
VERTEX
  5
89
330
55
100
AcDbEntity
  8
_U+30EC_U+30A4_U+30E4_U+30FC 1
 62
   179
420
  2234388
370
    25
100
AcDbVertex
100
AcDb2dVertex
 10
86.38804090247525
 20
-163.3776460027211
 30
0.0
  0
SEQEND
  5
8A
330
55
100
AcDbEntity
  8
_U+30EC_U+30A4_U+30E4_U+30FC 1
 62
   179
420
  2234388
370
    25
  0
POLYLINE
  5
8B
330
1F
100
AcDbEntity
  8
_U+30EC_U+30A4_U+30E4_U+30FC 1
 62
   179
420
  2234388
370
    25
100
AcDb2dPolyline
 66
     1
 10
0.0
 20
0.0
 30
0.0
  0
VERTEX
  5
8C
330
8B
100
AcDbEntity
  8
_U+30EC_U+30A4_U+30E4_U+30FC 1
 62
   179
420
  2234388
370
    25
100
AcDbVertex
100
AcDb2dVertex
 10
86.48785177823699
 20
-163.3802944198754
 30
0.0
  0
VERTEX
  5
8D
330
8B
100
AcDbEntity
  8
_U+30EC_U+30A4_U+30E4_U+30FC 1
 62
   179
420
  2234388
370
    25
100
AcDbVertex
100
AcDb2dVertex
 10
86.08744555546382
 20
-163.3697222831051
 30
0.0
  0
SEQEND
  5
8E
330
8B
100
AcDbEntity
  8
_U+30EC_U+30A4_U+30E4_U+30FC 1
 62
   179
420
  2234388
370
    25
  0
POLYLINE
  5
8F
330
1F
100
AcDbEntity
  8
_U+30EC_U+30A4_U+30E4_U+30FC 1
 62
   179
420
  2234388
370
    25
100
AcDb2dPolyline
 66
     1
 10
0.0
 20
0.0
 30
0.0
  0
VERTEX
  5
90
330
8F
100
AcDbEntity
  8
_U+30EC_U+30A4_U+30E4_U+30FC 1
 62
   179
420
  2234388
370
    25
100
AcDbVertex
100
AcDb2dVertex
 10
86.08751015100417
 20
-163.3695930920244
 30
0.0
  0
VERTEX
  5
91
330
8F
100
AcDbEntity
  8
_U+30EC_U+30A4_U+30E4_U+30FC 1
 62
   179
420
  2234388
370
    25
100
AcDbVertex
100
AcDb2dVertex
 10
86.14219027590912
 20
-137.3695220603845
 30
0.0
  0
SEQEND
  5
92
330
8F
100
AcDbEntity
  8
_U+30EC_U+30A4_U+30E4_U+30FC 1
 62
   179
420
  2234388
370
    25
  0
POLYLINE
  5
93
330
1F
100
AcDbEntity
  8
_U+30EC_U+30A4_U+30E4_U+30FC 1
 62
   179
420
  2234388
370
    25
100
AcDb2dPolyline
 66
     1
 10
0.0
 20
0.0
 30
0.0
  0
VERTEX
  5
94
330
93
100
AcDbEntity
  8
_U+30EC_U+30A4_U+30E4_U+30FC 1
 62
   179
420
  2234388
370
    25
100
AcDbVertex
100
AcDb2dVertex
 10
89.1591895834231
 20
-144.5287534564351
 30
0.0
  0
VERTEX
  5
95
330
93
100
AcDbEntity
  8
_U+30EC_U+30A4_U+30E4_U+30FC 1
 62
   179
420
  2234388
370
    25
100
AcDbVertex
100
AcDb2dVertex
 10
89.69223198237837
 20
-144.715736013897
 30
0.0
  0
VERTEX
  5
96
330
93
100
AcDbEntity
  8
_U+30EC_U+30A4_U+30E4_U+30FC 1
 62
   179
420
  2234388
370
    25
100
AcDbVertex
100
AcDb2dVertex
 10
90.21610181460419
 20
-144.5033674090785
 30
0.0
  0
VERTEX
  5
97
330
93
100
AcDbEntity
  8
_U+30EC_U+30A4_U+30E4_U+30FC 1
 62
   179
420
  2234388
370
    25
100
AcDbVertex
100
AcDb2dVertex
 10
90.74951025495477
 20
-144.6903284346933
 30
0.0
  0
VERTEX
  5
98
330
93
100
AcDbEntity
  8
_U+30EC_U+30A4_U+30E4_U+30FC 1
 62
   179
420
  2234388
370
    25
100
AcDbVertex
100
AcDb2dVertex
 10
91.2740906381244
 20
-144.4779598298747
 30
0.0
  0
VERTEX
  5
99
330
93
100
AcDbEntity
  8
_U+30EC_U+30A4_U+30E4_U+30FC 1
 62
   179
420
  2234388
370
    25
100
AcDbVertex
100
AcDb2dVertex
 10
91.80784358802352
 20
-144.6649423873367
 30
0.0
  0
VERTEX
  5
9A
330
93
100
AcDbEntity
  8
_U+30EC_U+30A4_U+30E4_U+30FC 1
 62
   179
420
  2234388
370
    25
100
AcDbVertex
100
AcDb2dVertex
 10
92.33171342024933
 20
-144.4525737825175
 30
0.0
  0
VERTEX
  5
9B
330
93
100
AcDbEntity
  8
_U+30EC_U+30A4_U+30E4_U+30FC 1
 62
   179
420
  2234388
370
    25
100
AcDbVertex
100
AcDb2dVertex
 10
92.864766585128
 20
-144.639534808133
 30
0.0
  0
VERTEX
  5
9C
330
93
100
AcDbEntity
  8
_U+30EC_U+30A4_U+30E4_U+30FC 1
 62
   179
420
  2234388
370
    25
100
AcDbVertex
100
AcDb2dVertex
 10
93.3886364173538
 20
-144.4271662033138
 30
0.0
  0
VERTEX
  5
9D
330
93
100
AcDbEntity
  8
_U+30EC_U+30A4_U+30E4_U+30FC 1
 62
   179
420
  2234388
370
    25
100
AcDbVertex
100
AcDb2dVertex
 10
93.92168958223247
 20
-144.6141272289292
 30
0.0
  0
VERTEX
  5
9E
330
93
100
AcDbEntity
  8
_U+30EC_U+30A4_U+30E4_U+30FC 1
 62
   179
420
  2234388
370
    25
100
AcDbVertex
100
AcDb2dVertex
 10
94.44591468993019
 20
-144.4017586241101
 30
0.0
  0
VERTEX
  5
9F
330
93
100
AcDbEntity
  8
_U+30EC_U+30A4_U+30E4_U+30FC 1
 62
   179
420
  2234388
370
    25
100
AcDbVertex
100
AcDb2dVertex
 10
94.98002291530122
 20
-144.588741181572
 30
0.0
  0
VERTEX
  5
A0
330
93
100
AcDbEntity
  8
_U+30EC_U+30A4_U+30E4_U+30FC 1
 62
   179
420
  2234388
370
    25
100
AcDbVertex
100
AcDb2dVertex
 10
95.50424802299894
 20
-144.3760065353578
 30
0.0
  0
VERTEX
  5
A1
330
93
100
AcDbEntity
  8
_U+30EC_U+30A4_U+30E4_U+30FC 1
 62
   179
420
  2234388
370
    25
100
AcDbVertex
100
AcDb2dVertex
 10
96.03800097289806
 20
-144.5633336023683
 30
0.0
  0
VERTEX
  5
A2
330
93
100
AcDbEntity
  8
_U+30EC_U+30A4_U+30E4_U+30FC 1
 62
   179
420
  2234388
370
    25
100
AcDbVertex
100
AcDb2dVertex
 10
96.56187080512386
 20
-144.3506204880009
 30
0.0
  0
VERTEX
  5
A3
330
93
100
AcDbEntity
  8
_U+30EC_U+30A4_U+30E4_U+30FC 1
 62
   179
420
  2234388
370
    25
100
AcDbVertex
100
AcDb2dVertex
 10
97.09526847955105
 20
-144.5379260231646
 30
0.0
  0
VERTEX
  5
A4
330
93
100
AcDbEntity
  8
_U+30EC_U+30A4_U+30E4_U+30FC 1
 62
   179
420
  2234388
370
    25
100
AcDbVertex
100
AcDb2dVertex
 10
97.61914907770057
 20
-144.3252129087972
 30
0.0
  0
VERTEX
  5
A5
330
93
100
AcDbEntity
  8
_U+30EC_U+30A4_U+30E4_U+30FC 1
 62
   179
420
  2234388
370
    25
100
AcDbVertex
100
AcDb2dVertex
 10
98.15360181261981
 20
-144.5125399758076
 30
0.0
  0
VERTEX
  5
A6
330
93
100
AcDbEntity
  8
_U+30EC_U+30A4_U+30E4_U+30FC 1
 62
   179
420
  2234388
370
    25
100
AcDbVertex
100
AcDb2dVertex
 10
98.67571679933282
 20
-144.3001713709888
 30
0.0
  0
VERTEX
  5
A7
330
93
100
AcDbEntity
  8
_U+30EC_U+30A4_U+30E4_U+30FC 1
 62
   179
420
  2234388
370
    25
100
AcDbVertex
100
AcDb2dVertex
 10
99.20734886232381
 20
-144.4871323966039
 30
0.0
  0
VERTEX
  5
A8
330
93
100
AcDbEntity
  8
_U+30EC_U+30A4_U+30E4_U+30FC 1
 62
   179
420
  2234388
370
    25
100
AcDbVertex
100
AcDb2dVertex
 10
99.73051890952918
 20
-144.2744192822365
 30
0.0
  0
VERTEX
  5
A9
330
93
100
AcDbEntity
  8
_U+30EC_U+30A4_U+30E4_U+30FC 1
 62
   179
420
  2234388
370
    25
100
AcDbVertex
100
AcDb2dVertex
 10
100.2642718594283
 20
-144.461746349247
 30
0.0
  0
VERTEX
  5
AA
330
93
100
AcDbEntity
  8
_U+30EC_U+30A4_U+30E4_U+30FC 1
 62
   179
420
  2234388
370
    25
100
AcDbVertex
100
AcDb2dVertex
 10
100.7888522425979
 20
-144.2490117030328
 30
0.0
  0
VERTEX
  5
AB
330
93
100
AcDbEntity
  8
_U+30EC_U+30A4_U+30E4_U+30FC 1
 62
   179
420
  2234388
370
    25
100
AcDbVertex
100
AcDb2dVertex
 10
101.3226051924971
 20
-144.4363387700433
 30
0.0
  0
VERTEX
  5
AC
330
93
100
AcDbEntity
  8
_U+30EC_U+30A4_U+30E4_U+30FC 1
 62
   179
420
  2234388
370
    25
100
AcDbVertex
100
AcDb2dVertex
 10
101.8457752397024
 20
-144.2236041238291
 30
0.0
  0
VERTEX
  5
AD
330
93
100
AcDbEntity
  8
_U+30EC_U+30A4_U+30E4_U+30FC 1
 62
   179
420
  2234388
370
    25
100
AcDbVertex
100
AcDb2dVertex
 10
102.3784731291092
 20
-144.4109311908395
 30
0.0
  0
VERTEX
  5
AE
330
93
100
AcDbEntity
  8
_U+30EC_U+30A4_U+30E4_U+30FC 1
 62
   179
420
  2234388
370
    25
100
AcDbVertex
100
AcDb2dVertex
 10
102.9016431763145
 20
-144.1982180764725
 30
0.0
  0
VERTEX
  5
AF
330
93
100
AcDbEntity
  8
_U+30EC_U+30A4_U+30E4_U+30FC 1
 62
   179
420
  2234388
370
    25
100
AcDbVertex
100
AcDb2dVertex
 10
103.4350408507417
 20
-144.3855451434829
 30
0.0
  0
VERTEX
  5
B0
330
93
100
AcDbEntity
  8
_U+30EC_U+30A4_U+30E4_U+30FC 1
 62
   179
420
  2234388
370
    25
100
AcDbVertex
100
AcDb2dVertex
 10
103.9592659584394
 20
-144.1728104972688
 30
0.0
  0
VERTEX
  5
B1
330
93
100
AcDbEntity
  8
_U+30EC_U+30A4_U+30E4_U+30FC 1
 62
   179
420
  2234388
370
    25
100
AcDbVertex
100
AcDb2dVertex
 10
104.4937294592824
 20
-144.3597930547307
 30
0.0
  0
VERTEX
  5
B2
330
93
100
AcDbEntity
  8
_U+30EC_U+30A4_U+30E4_U+30FC 1
 62
   179
420
  2234388
370
    25
100
AcDbVertex
100
AcDb2dVertex
 10
105.0179545669801
 20
-144.147402918065
 30
0.0
  0
VERTEX
  5
B3
330
93
100
AcDbEntity
  8
_U+30EC_U+30A4_U+30E4_U+30FC 1
 62
   179
420
  2234388
370
    25
100
AcDbVertex
100
AcDb2dVertex
 10
105.5513522414073
 20
-144.334385475527
 30
0.0
  0
VERTEX
  5
B4
330
93
100
AcDbEntity
  8
_U+30EC_U+30A4_U+30E4_U+30FC 1
 62
   179
420
  2234388
370
    25
100
AcDbVertex
100
AcDb2dVertex
 10
106.0755881150284
 20
-144.1220168707078
 30
0.0
  0
VERTEX
  5
B5
330
93
100
AcDbEntity
  8
_U+30EC_U+30A4_U+30E4_U+30FC 1
 62
   179
420
  2234388
370
    25
100
AcDbVertex
100
AcDb2dVertex
 10
106.610040849948
 20
-144.3089778963233
 30
0.0
  0
VERTEX
  5
B6
330
93
100
AcDbEntity
  8
_U+30EC_U+30A4_U+30E4_U+30FC 1
 62
   179
420
  2234388
370
    25
100
AcDbVertex
100
AcDb2dVertex
 10
107.1349765085895
 20
-144.0966092915041
 30
0.0
  0
VERTEX
  5
B7
330
93
100
AcDbEntity
  8
_U+30EC_U+30A4_U+30E4_U+30FC 1
 62
   179
420
  2234388
370
    25
100
AcDbVertex
100
AcDb2dVertex
 10
107.6690847339606
 20
-144.283591848966
 30
0.0
  0
VERTEX
  5
B8
330
93
100
AcDbEntity
  8
_U+30EC_U+30A4_U+30E4_U+30FC 1
 62
   179
420
  2234388
370
    25
100
AcDbVertex
100
AcDb2dVertex
 10
108.1936651171302
 20
-144.0712017123003
 30
0.0
  0
VERTEX
  5
B9
330
93
100
AcDbEntity
  8
_U+30EC_U+30A4_U+30E4_U+30FC 1
 62
   179
420
  2234388
370
    25
100
AcDbVertex
100
AcDb2dVertex
 10
108.7288284029936
 20
-144.2581842697623
 30
0.0
  0
VERTEX
  5
BA
330
93
100
AcDbEntity
  8
_U+30EC_U+30A4_U+30E4_U+30FC 1
 62
   179
420
  2234388
370
    25
100
AcDbVertex
100
AcDb2dVertex
 10
109.2534087861632
 20
-144.0454496235481
 30
0.0
  0
VERTEX
  5
BB
330
93
100
AcDbEntity
  8
_U+30EC_U+30A4_U+30E4_U+30FC 1
 62
   179
420
  2234388
370
    25
100
AcDbVertex
100
AcDb2dVertex
 10
109.7878615210828
 20
-144.2327766905586
 30
0.0
  0
VERTEX
  5
BC
330
93
100
AcDbEntity
  8
_U+30EC_U+30A4_U+30E4_U+30FC 1
 62
   179
420
  2234388
370
    25
100
AcDbVertex
100
AcDb2dVertex
 10
110.3120973947039
 20
-144.0200635761912
 30
0.0
  0
VERTEX
  5
BD
330
93
100
AcDbEntity
  8
_U+30EC_U+30A4_U+30E4_U+30FC 1
 62
   179
420
  2234388
370
    25
100
AcDbVertex
100
AcDb2dVertex
 10
110.8472606805673
 20
-144.2073906432016
 30
0.0
  0
VERTEX
  5
BE
330
93
100
AcDbEntity
  8
_U+30EC_U+30A4_U+30E4_U+30FC 1
 62
   179
420
  2234388
370
    25
100
AcDbVertex
100
AcDb2dVertex
 10
111.3718410637369
 20
-143.9946559969875
 30
0.0
  0
VERTEX
  5
BF
330
93
100
AcDbEntity
  8
_U+30EC_U+30A4_U+30E4_U+30FC 1
 62
   179
420
  2234388
370
    25
100
AcDbVertex
100
AcDb2dVertex
 10
111.9070043496003
 20
-144.1816385544494
 30
0.0
  0
VERTEX
  5
C0
330
93
100
AcDbEntity
  8
_U+30EC_U+30A4_U+30E4_U+30FC 1
 62
   179
420
  2234388
370
    25
100
AcDbVertex
100
AcDb2dVertex
 10
112.4329950687342
 20
-143.9692484177837
 30
0.0
  0
VERTEX
  5
C1
330
93
100
AcDbEntity
  8
_U+30EC_U+30A4_U+30E4_U+30FC 1
 62
   179
420
  2234388
370
    25
100
AcDbVertex
100
AcDb2dVertex
 10
112.9699239660338
 20
-144.1562309752457
 30
0.0
  0
VERTEX
  5
C2
330
93
100
AcDbEntity
  8
_U+30EC_U+30A4_U+30E4_U+30FC 1
 62
   179
420
  2234388
370
    25
100
AcDbVertex
100
AcDb2dVertex
 10
113.4966144701881
 20
-143.9434963290315
 30
0.0
  0
VERTEX
  5
C3
330
93
100
AcDbEntity
  8
_U+30EC_U+30A4_U+30E4_U+30FC 1
 62
   179
420
  2234388
370
    25
100
AcDbVertex
100
AcDb2dVertex
 10
114.0321330315234
 20
-144.1304788864934
 30
0.0
  0
VERTEX
  5
C4
330
93
100
AcDbEntity
  8
_U+30EC_U+30A4_U+30E4_U+30FC 1
 62
   179
420
  2234388
370
    25
100
AcDbVertex
100
AcDb2dVertex
 10
114.5591895770731
 20
-143.9181102816746
 30
0.0
  0
VERTEX
  5
C5
330
93
100
AcDbEntity
  8
_U+30EC_U+30A4_U+30E4_U+30FC 1
 62
   179
420
  2234388
370
    25
100
AcDbVertex
100
AcDb2dVertex
 10
115.0954079234288
 20
-144.1050713072897
 30
0.0
  0
VERTEX
  5
C6
330
93
100
AcDbEntity
  8
_U+30EC_U+30A4_U+30E4_U+30FC 1
 62
   179
420
  2234388
370
    25
100
AcDbVertex
100
AcDb2dVertex
 10
115.6206988575423
 20
-143.8923581929223
 30
0.0
  0
VERTEX
  5
C7
330
93
100
AcDbEntity
  8
_U+30EC_U+30A4_U+30E4_U+30FC 1
 62
   179
420
  2234388
370
    25
100
AcDbVertex
100
AcDb2dVertex
 10
116.1551515924619
 20
-144.0796852599328
 30
0.0
  0
SEQEND
  5
C8
330
93
100
AcDbEntity
  8
_U+30EC_U+30A4_U+30E4_U+30FC 1
 62
   179
420
  2234388
370
    25
  0
POLYLINE
  5
C9
330
1F
100
AcDbEntity
  8
_U+30EC_U+30A4_U+30E4_U+30FC 1
 62
   179
420
  2234388
370
    25
100
AcDb2dPolyline
 66
     1
 10
0.0
 20
0.0
 30
0.0
  0
VERTEX
  5
CA
330
C9
100
AcDbEntity
  8
_U+30EC_U+30A4_U+30E4_U+30FC 1
 62
   179
420
  2234388
370
    25
100
AcDbVertex
100
AcDb2dVertex
 10
116.1528907485497
 20
-143.9795837042395
 30
0.0
  0
VERTEX
  5
CB
330
C9
100
AcDbEntity
  8
_U+30EC_U+30A4_U+30E4_U+30FC 1
 62
   179
420
  2234388
370
    25
100
AcDbVertex
100
AcDb2dVertex
 10
116.1426523554045
 20
-143.5791990133131
 30
0.0
  0
SEQEND
  5
CC
330
C9
100
AcDbEntity
  8
_U+30EC_U+30A4_U+30E4_U+30FC 1
 62
   179
420
  2234388
370
    25
  0
POLYLINE
  5
CD
330
1F
100
AcDbEntity
  8
_U+30EC_U+30A4_U+30E4_U+30FC 1
 62
   179
420
  2234388
370
    25
100
AcDb2dPolyline
 66
     1
 10
0.0
 20
0.0
 30
0.0
  0
VERTEX
  5
CE
330
CD
100
AcDbEntity
  8
_U+30EC_U+30A4_U+30E4_U+30FC 1
 62
   179
420
  2234388
370
    25
100
AcDbVertex
100
AcDb2dVertex
 10
116.1425554620939
 20
-143.5792851407003
 30
0.0
  0
VERTEX
  5
CF
330
CD
100
AcDbEntity
  8
_U+30EC_U+30A4_U+30E4_U+30FC 1
 62
   179
420
  2234388
370
    25
100
AcDbVertex
100
AcDb2dVertex
 10
89.18644890145013
 20
-143.6339760315286
 30
0.0
  0
SEQEND
  5
D0
330
CD
100
AcDbEntity
  8
_U+30EC_U+30A4_U+30E4_U+30FC 1
 62
   179
420
  2234388
370
    25
  0
SPLINE
  5
D1
330
1F
100
AcDbEntity
  8
_U+30EC_U+30A4_U+30E4_U+30FC 1
 62
   179
420
  2234388
370
     9
100
AcDbSpline
210
0.0
220
0.0
230
1.0
 70
    11
 71
     3
 72
    17
 73
    13
 74
     0
 42
0.0000000001
 43
0.0000000001
 12
1.0
 22
0.0
 32
0.0
 13
1.0
 23
0.0
 33
0.0
 40
0.0
 40
0.0
 40
0.0
 40
0.0
 40
1.0
 40
1.0
 40
1.0
 40
2.0
 40
2.0
 40
2.0
 40
3.0
 40
3.0
 40
3.0
 40
4.0
 40
4.0
 40
4.0
 40
4.0
 10
90.14209685721165
 20
-133.3700891797109
 30
0.0
 10
90.14209685721165
 20
-133.4251245800877
 30
0.0
 10
90.18689386444329
 20
-133.4699323532431
 30
0.0
 10
90.24192926482016
 20
-133.4699323532431
 30
0.0
 10
90.29696466519702
 20
-133.4699323532431
 30
0.0
 10
90.34176167242867
 20
-133.4251245800877
 30
0.0
 10
90.34176167242867
 20
-133.3700891797109
 30
0.0
 10
90.34176167242867
 20
-133.3150753111811
 30
0.0
 10
90.29696466519702
 20
-133.2702675380258
 30
0.0
 10
90.24192926482016
 20
-133.2702675380258
 30
0.0
 10
90.18689386444329
 20
-133.2702675380258
 30
0.0
 10
90.14209685721165
 20
-133.3150753111811
 30
0.0
 10
90.14209685721165
 20
-133.3700891797109
 30
0.0
  0
SPLINE
  5
D2
330
1F
100
AcDbEntity
  8
_U+30EC_U+30A4_U+30E4_U+30FC 1
 62
   179
420
  2234388
370
     9
100
AcDbSpline
210
0.0
220
0.0
230
1.0
 70
    11
 71
     3
 72
    17
 73
    13
 74
     0
 42
0.0000000001
 43
0.0000000001
 12
1.0
 22
0.0
 32
0.0
 13
1.0
 23
0.0
 33
0.0
 40
0.0
 40
0.0
 40
0.0
 40
0.0
 40
1.0
 40
1.0
 40
1.0
 40
2.0
 40
2.0
 40
2.0
 40
3.0
 40
3.0
 40
3.0
 40
4.0
 40
4.0
 40
4.0
 40
4.0
 10
81.01569440723631
 20
-137.4693867657629
 30
0.0
 10
81.01569440723631
 20
-137.5244221661397
 30
0.0
 10
81.06049141446795
 20
-137.5692299392948
 30
0.0
 10
81.11552681484481
 20
-137.5692299392948
 30
0.0
 10
81.17056221522168
 20
-137.5692299392948
 30
0.0
 10
81.21535922245333
 20
-137.5244221661397
 30
0.0
 10
81.21535922245333
 20
-137.4693867657629
 30
0.0
 10
81.21535922245333
 20
-137.413662346289
 30
0.0
 10
81.17056221522168
 20
-137.3695651240778
 30
0.0
 10
81.11552681484481
 20
-137.3695651240778
 30
0.0
 10
81.06049141446795
 20
-137.3695651240778
 30
0.0
 10
81.01569440723631
 20
-137.413662346289
 30
0.0
 10
81.01569440723631
 20
-137.4693867657629
 30
0.0
  0
SPLINE
  5
D3
330
1F
100
AcDbEntity
  8
_U+30EC_U+30A4_U+30E4_U+30FC 1
 62
   179
420
  2234388
370
     9
100
AcDbSpline
210
0.0
220
0.0
230
1.0
 70
    11
 71
     3
 72
    17
 73
    13
 74
     0
 42
0.0000000001
 43
0.0000000001
 12
1.0
 22
0.0
 32
0.0
 13
1.0
 23
0.0
 33
0.0
 40
0.0
 40
0.0
 40
0.0
 40
0.0
 40
1.0
 40
1.0
 40
1.0
 40
2.0
 40
2.0
 40
2.0
 40
3.0
 40
3.0
 40
3.0
 40
4.0
 40
4.0
 40
4.0
 40
4.0
 10
116.1418556770735
 20
-133.3700891797109
 30
0.0
 10
116.1418556770735
 20
-133.4251245800877
 30
0.0
 10
116.1866526843051
 20
-133.4699323532431
 30
0.0
 10
116.241688084682
 20
-133.4699323532431
 30
0.0
 10
116.2967234850588
 20
-133.4699323532431
 30
0.0
 10
116.3415204922905
 20
-133.4251245800877
 30
0.0
 10
116.3415204922905
 20
-133.3700891797109
 30
0.0
 10
116.3415204922905
 20
-133.3150753111811
 30
0.0
 10
116.2967234850588
 20
-133.2702675380258
 30
0.0
 10
116.241688084682
 20
-133.2702675380258
 30
0.0
 10
116.1866526843051
 20
-133.2702675380258
 30
0.0
 10
116.1418556770735
 20
-133.3150753111811
 30
0.0
 10
116.1418556770735
 20
-133.3700891797109
 30
0.0
  0
SPLINE
  5
D4
330
1F
100
AcDbEntity
  8
_U+30EC_U+30A4_U+30E4_U+30FC 1
 62
   179
420
  2234388
370
     9
100
AcDbSpline
210
0.0
220
0.0
230
1.0
 70
    11
 71
     3
 72
    17
 73
    13
 74
     0
 42
0.0000000001
 43
0.0000000001
 12
1.0
 22
0.0
 32
0.0
 13
1.0
 23
0.0
 33
0.0
 40
0.0
 40
0.0
 40
0.0
 40
0.0
 40
1.0
 40
1.0
 40
1.0
 40
2.0
 40
2.0
 40
2.0
 40
3.0
 40
3.0
 40
3.0
 40
4.0
 40
4.0
 40
4.0
 40
4.0
 10
81.01569440723631
 20
-163.4691778833949
 30
0.0
 10
81.01569440723631
 20
-163.5242132837717
 30
0.0
 10
81.06049141446795
 20
-163.5690210569268
 30
0.0
 10
81.11552681484481
 20
-163.5690210569268
 30
0.0
 10
81.17056221522168
 20
-163.5690210569268
 30
0.0
 10
81.21535922245333
 20
-163.5242132837717
 30
0.0
 10
81.21535922245333
 20
-163.4691778833949
 30
0.0
 10
81.21535922245333
 20
-163.4141640148648
 30
0.0
 10
81.17056221522168
 20
-163.3693562417097
 30
0.0
 10
81.11552681484481
 20
-163.3693562417097
 30
0.0
 10
81.06049141446795
 20
-163.3693562417097
 30
0.0
 10
81.01569440723631
 20
-163.4141640148648
 30
0.0
 10
81.01569440723631
 20
-163.4691778833949
 30
0.0
  0
POLYLINE
  5
D5
330
1F
100
AcDbEntity
  8
_U+30EC_U+30A4_U+30E4_U+30FC 1
 62
   179
420
  2234388
370
     9
100
AcDb2dPolyline
 66
     1
 10
0.0
 20
0.0
 30
0.0
  0
VERTEX
  5
D6
330
D5
100
AcDbEntity
  8
_U+30EC_U+30A4_U+30E4_U+30FC 1
 62
   179
420
  2234388
370
     9
100
AcDbVertex
100
AcDb2dVertex
 10
116.2417634461457
 20
-133.3700891797109
 30
0.0
  0
VERTEX
  5
D7
330
D5
100
AcDbEntity
  8
_U+30EC_U+30A4_U+30E4_U+30FC 1
 62
   179
420
  2234388
370
     9
100
AcDbVertex
100
AcDb2dVertex
 10
90.24203692405408
 20
-133.3700891797109
 30
0.0
  0
SEQEND
  5
D8
330
D5
100
AcDbEntity
  8
_U+30EC_U+30A4_U+30E4_U+30FC 1
 62
   179
420
  2234388
370
     9
  0
POLYLINE
  5
D9
330
1F
100
AcDbEntity
  8
_U+30EC_U+30A4_U+30E4_U+30FC 1
 62
   179
420
  2234388
370
     9
100
AcDb2dPolyline
 66
     1
 10
0.0
 20
0.0
 30
0.0
  0
VERTEX
  5
DA
330
D9
100
AcDbEntity
  8
_U+30EC_U+30A4_U+30E4_U+30FC 1
 62
   179
420
  2234388
370
     9
100
AcDbVertex
100
AcDb2dVertex
 10
116.2417634461457
 20
-135.630050286188
 30
0.0
  0
VERTEX
  5
DB
330
D9
100
AcDbEntity
  8
_U+30EC_U+30A4_U+30E4_U+30FC 1
 62
   179
420
  2234388
370
     9
100
AcDbVertex
100
AcDb2dVertex
 10
116.2417634461457
 20
-132.3703870654317
 30
0.0
  0
SEQEND
  5
DC
330
D9
100
AcDbEntity
  8
_U+30EC_U+30A4_U+30E4_U+30FC 1
 62
   179
420
  2234388
370
     9
  0
POLYLINE
  5
DD
330
1F
100
AcDbEntity
  8
_U+30EC_U+30A4_U+30E4_U+30FC 1
 62
   179
420
  2234388
370
     9
100
AcDb2dPolyline
 66
     1
 10
0.0
 20
0.0
 30
0.0
  0
VERTEX
  5
DE
330
DD
100
AcDbEntity
  8
_U+30EC_U+30A4_U+30E4_U+30FC 1
 62
   179
420
  2234388
370
     9
100
AcDbVertex
100
AcDb2dVertex
 10
90.24196156259033
 20
-135.4301916843502
 30
0.0
  0
VERTEX
  5
DF
330
DD
100
AcDbEntity
  8
_U+30EC_U+30A4_U+30E4_U+30FC 1
 62
   179
420
  2234388
370
     9
100
AcDbVertex
100
AcDb2dVertex
 10
90.24196156259033
 20
-132.3702148106574
 30
0.0
  0
SEQEND
  5
E0
330
DD
100
AcDbEntity
  8
_U+30EC_U+30A4_U+30E4_U+30FC 1
 62
   179
420
  2234388
370
     9
  0
INSERT
  5
E2
330
1F
100
AcDbEntity
  8
_U+30EC_U+30A4_U+30E4_U+30FC 1
100
AcDbBlockReference
  2
block 3
 10
0.0
 20
0.0
 30
0.0
  0
SPLINE
  5
EA
330
1F
100
AcDbEntity
  8
_U+30EC_U+30A4_U+30E4_U+30FC 1
 62
   179
420
  2234388
370
     9
100
AcDbSpline
210
0.0
220
0.0
230
1.0
 70
    11
 71
     3
 72
    17
 73
    13
 74
     0
 42
0.0000000001
 43
0.0000000001
 12
1.0
 22
0.0
 32
0.0
 13
1.0
 23
0.0
 33
0.0
 40
0.0
 40
0.0
 40
0.0
 40
0.0
 40
1.0
 40
1.0
 40
1.0
 40
2.0
 40
2.0
 40
2.0
 40
3.0
 40
3.0
 40
3.0
 40
4.0
 40
4.0
 40
4.0
 40
4.0
 10
119.088811887003
 20
-143.5792851407003
 30
0.0
 10
119.1438365214564
 20
-143.5792851407003
 30
0.0
 10
119.1886442946115
 20
-143.534498899392
 30
0.0
 10
119.1886442946115
 20
-143.4794634990151
 30
0.0
 10
119.1886442946115
 20
-143.4244280986383
 30
0.0
 10
119.1438365214564
 20
-143.3796203254832
 30
0.0
 10
119.088811887003
 20
-143.3796203254832
 30
0.0
 10
119.0337764866261
 20
-143.3796203254832
 30
0.0
 10
118.9889687134711
 20
-143.4244280986383
 30
0.0
 10
118.9889687134711
 20
-143.4794634990151
 30
0.0
 10
118.9889687134711
 20
-143.534498899392
 30
0.0
 10
119.0337764866261
 20
-143.5792851407003
 30
0.0
 10
119.088811887003
 20
-143.5792851407003
 30
0.0
  0
SPLINE
  5
EB
330
1F
100
AcDbEntity
  8
_U+30EC_U+30A4_U+30E4_U+30FC 1
 62
   179
420
  2234388
370
     9
100
AcDbSpline
210
0.0
220
0.0
230
1.0
 70
    11
 71
     3
 72
    17
 73
    13
 74
     0
 42
0.0000000001
 43
0.0000000001
 12
1.0
 22
0.0
 32
0.0
 13
1.0
 23
0.0
 33
0.0
 40
0.0
 40
0.0
 40
0.0
 40
0.0
 40
1.0
 40
1.0
 40
1.0
 40
2.0
 40
2.0
 40
2.0
 40
3.0
 40
3.0
 40
3.0
 40
4.0
 40
4.0
 40
4.0
 40
4.0
 10
119.088811887003
 20
-137.5796298212909
 30
0.0
 10
119.1438365214564
 20
-137.5796298212909
 30
0.0
 10
119.1886442946115
 20
-137.5348435799826
 30
0.0
 10
119.1886442946115
 20
-137.4794421382104
 30
0.0
 10
119.1886442946115
 20
-137.4244282696804
 30
0.0
 10
119.1438365214564
 20
-137.3796204965253
 30
0.0
 10
119.088811887003
 20
-137.3796204965253
 30
0.0
 10
119.0337764866261
 20
-137.3796204965253
 30
0.0
 10
118.9889687134711
 20
-137.4244282696804
 30
0.0
 10
118.9889687134711
 20
-137.4794421382104
 30
0.0
 10
118.9889687134711
 20
-137.5348435799826
 30
0.0
 10
119.0337764866261
 20
-137.5796298212909
 30
0.0
 10
119.088811887003
 20
-137.5796298212909
 30
0.0
  0
POLYLINE
  5
EC
330
1F
100
AcDbEntity
  8
_U+30EC_U+30A4_U+30E4_U+30FC 1
 62
   179
420
  2234388
370
     9
100
AcDb2dPolyline
 66
     1
 10
0.0
 20
0.0
 30
0.0
  0
VERTEX
  5
ED
330
EC
100
AcDbEntity
  8
_U+30EC_U+30A4_U+30E4_U+30FC 1
 62
   179
420
  2234388
370
     9
100
AcDbVertex
100
AcDb2dVertex
 10
119.088811887003
 20
-137.4793344789769
 30
0.0
  0
VERTEX
  5
EE
330
EC
100
AcDbEntity
  8
_U+30EC_U+30A4_U+30E4_U+30FC 1
 62
   179
420
  2234388
370
     9
100
AcDbVertex
100
AcDb2dVertex
 10
119.088811887003
 20
-143.4793989034751
 30
0.0
  0
SEQEND
  5
EF
330
EC
100
AcDbEntity
  8
_U+30EC_U+30A4_U+30E4_U+30FC 1
 62
   179
420
  2234388
370
     9
  0
POLYLINE
  5
F0
330
1F
100
AcDbEntity
  8
_U+30EC_U+30A4_U+30E4_U+30FC 1
 62
   179
420
  2234388
370
     9
100
AcDb2dPolyline
 66
     1
 10
0.0
 20
0.0
 30
0.0
  0
VERTEX
  5
F1
330
F0
100
AcDbEntity
  8
_U+30EC_U+30A4_U+30E4_U+30FC 1
 62
   179
420
  2234388
370
     9
100
AcDbVertex
100
AcDb2dVertex
 10
120.082377424949
 20
-137.4793344789769
 30
0.0
  0
VERTEX
  5
F2
330
F0
100
AcDbEntity
  8
_U+30EC_U+30A4_U+30E4_U+30FC 1
 62
   179
420
  2234388
370
     9
100
AcDbVertex
100
AcDb2dVertex
 10
116.8227034382694
 20
-137.4793344789769
 30
0.0
  0
SEQEND
  5
F3
330
F0
100
AcDbEntity
  8
_U+30EC_U+30A4_U+30E4_U+30FC 1
 62
   179
420
  2234388
370
     9
  0
POLYLINE
  5
F4
330
1F
100
AcDbEntity
  8
_U+30EC_U+30A4_U+30E4_U+30FC 1
 62
   179
420
  2234388
370
     9
100
AcDb2dPolyline
 66
     1
 10
0.0
 20
0.0
 30
0.0
  0
VERTEX
  5
F5
330
F4
100
AcDbEntity
  8
_U+30EC_U+30A4_U+30E4_U+30FC 1
 62
   179
420
  2234388
370
     9
100
AcDbVertex
100
AcDb2dVertex
 10
120.082377424949
 20
-143.4793558397812
 30
0.0
  0
VERTEX
  5
F6
330
F4
100
AcDbEntity
  8
_U+30EC_U+30A4_U+30E4_U+30FC 1
 62
   179
420
  2234388
370
     9
100
AcDbVertex
100
AcDb2dVertex
 10
116.8227034382694
 20
-143.4793558397812
 30
0.0
  0
SEQEND
  5
F7
330
F4
100
AcDbEntity
  8
_U+30EC_U+30A4_U+30E4_U+30FC 1
 62
   179
420
  2234388
370
     9
  0
INSERT
  5
F9
330
1F
100
AcDbEntity
  8
_U+30EC_U+30A4_U+30E4_U+30FC 1
100
AcDbBlockReference
  2
block 4
 10
0.0
 20
0.0
 30
0.0
  0
POLYLINE
  5
FF
330
1F
100
AcDbEntity
  8
_U+30EC_U+30A4_U+30E4_U+30FC 1
 62
   179
420
  2234388
370
     9
100
AcDb2dPolyline
 66
     1
 10
0.0
 20
0.0
 30
0.0
  0
VERTEX
  5
100
330
FF
100
AcDbEntity
  8
_U+30EC_U+30A4_U+30E4_U+30FC 1
 62
   179
420
  2234388
370
     9
100
AcDbVertex
100
AcDb2dVertex
 10
81.11560217630856
 20
-137.4693867657629
 30
0.0
  0
VERTEX
  5
101
330
FF
100
AcDbEntity
  8
_U+30EC_U+30A4_U+30E4_U+30FC 1
 62
   179
420
  2234388
370
     9
100
AcDbVertex
100
AcDb2dVertex
 10
81.11560217630856
 20
-163.4691132878545
 30
0.0
  0
SEQEND
  5
102
330
FF
100
AcDbEntity
  8
_U+30EC_U+30A4_U+30E4_U+30FC 1
 62
   179
420
  2234388
370
     9
  0
POLYLINE
  5
103
330
1F
100
AcDbEntity
  8
_U+30EC_U+30A4_U+30E4_U+30FC 1
 62
   179
420
  2234388
370
     9
100
AcDb2dPolyline
 66
     1
 10
0.0
 20
0.0
 30
0.0
  0
VERTEX
  5
104
330
103
100
AcDbEntity
  8
_U+30EC_U+30A4_U+30E4_U+30FC 1
 62
   179
420
  2234388
370
     9
100
AcDbVertex
100
AcDb2dVertex
 10
79.82570459701407
 20
-137.4693867657629
 30
0.0
  0
VERTEX
  5
105
330
103
100
AcDbEntity
  8
_U+30EC_U+30A4_U+30E4_U+30FC 1
 62
   179
420
  2234388
370
     9
100
AcDbVertex
100
AcDb2dVertex
 10
84.18567748614217
 20
-137.4693867657629
 30
0.0
  0
SEQEND
  5
106
330
103
100
AcDbEntity
  8
_U+30EC_U+30A4_U+30E4_U+30FC 1
 62
   179
420
  2234388
370
     9
  0
POLYLINE
  5
107
330
1F
100
AcDbEntity
  8
_U+30EC_U+30A4_U+30E4_U+30FC 1
 62
   179
420
  2234388
370
     9
100
AcDb2dPolyline
 66
     1
 10
0.0
 20
0.0
 30
0.0
  0
VERTEX
  5
108
330
107
100
AcDbEntity
  8
_U+30EC_U+30A4_U+30E4_U+30FC 1
 62
   179
420
  2234388
370
     9
100
AcDbVertex
100
AcDb2dVertex
 10
79.82570459701407
 20
-163.4691778833949
 30
0.0
  0
VERTEX
  5
109
330
107
100
AcDbEntity
  8
_U+30EC_U+30A4_U+30E4_U+30FC 1
 62
   179
420
  2234388
370
     9
100
AcDbVertex
100
AcDb2dVertex
 10
84.18567748614217
 20
-163.4691778833949
 30
0.0
  0
SEQEND
  5
10A
330
107
100
AcDbEntity
  8
_U+30EC_U+30A4_U+30E4_U+30FC 1
 62
   179
420
  2234388
370
     9
  0
INSERT
  5
10C
330
1F
100
AcDbEntity
  8
_U+30EC_U+30A4_U+30E4_U+30FC 1
100
AcDbBlockReference
  2
block 5
 10
0.0
 20
0.0
 30
0.0
  0
POLYLINE
  5
114
330
1F
100
AcDbEntity
  8
_U+30EC_U+30A4_U+30E4_U+30FC 1
 62
   179
420
  2234388
370
    25
100
AcDb2dPolyline
 66
     1
 10
0.0
 20
0.0
 30
0.0
  0
VERTEX
  5
115
330
114
100
AcDbEntity
  8
_U+30EC_U+30A4_U+30E4_U+30FC 1
 62
   179
420
  2234388
370
    25
100
AcDbVertex
100
AcDb2dVertex
 10
87.13691853358144
 20
-138.3889042826228
 30
0.0
  0
VERTEX
  5
116
330
114
100
AcDbEntity
  8
_U+30EC_U+30A4_U+30E4_U+30FC 1
 62
   179
420
  2234388
370
    25
100
AcDbVertex
100
AcDb2dVertex
 10
89.13680722869269
 20
-138.3889042826228
 30
0.0
  0
SEQEND
  5
117
330
114
100
AcDbEntity
  8
_U+30EC_U+30A4_U+30E4_U+30FC 1
 62
   179
420
  2234388
370
    25
  0
POLYLINE
  5
118
330
1F
100
AcDbEntity
  8
_U+30EC_U+30A4_U+30E4_U+30FC 1
 62
   179
420
  2234388
370
    25
100
AcDb2dPolyline
 66
     1
 10
0.0
 20
0.0
 30
0.0
  0
VERTEX
  5
119
330
118
100
AcDbEntity
  8
_U+30EC_U+30A4_U+30E4_U+30FC 1
 62
   179
420
  2234388
370
    25
100
AcDbVertex
100
AcDb2dVertex
 10
86.1423409988366
 20
-137.3694789966906
 30
0.0
  0
VERTEX
  5
11A
330
118
100
AcDbEntity
  8
_U+30EC_U+30A4_U+30E4_U+30FC 1
 62
   179
420
  2234388
370
    25
100
AcDbVertex
100
AcDb2dVertex
 10
90.14212915498183
 20
-137.3694789966906
 30
0.0
  0
SEQEND
  5
11B
330
118
100
AcDbEntity
  8
_U+30EC_U+30A4_U+30E4_U+30FC 1
 62
   179
420
  2234388
370
    25
  0
POLYLINE
  5
11C
330
1F
100
AcDbEntity
  8
_U+30EC_U+30A4_U+30E4_U+30FC 1
 62
   179
420
  2234388
370
    25
100
AcDb2dPolyline
 66
     1
 10
0.0
 20
0.0
 30
0.0
  0
VERTEX
  5
11D
330
11C
100
AcDbEntity
  8
_U+30EC_U+30A4_U+30E4_U+30FC 1
 62
   179
420
  2234388
370
    25
100
AcDbVertex
100
AcDb2dVertex
 10
90.14209685721165
 20
-143.5062275845661
 30
0.0
  0
VERTEX
  5
11E
330
11C
100
AcDbEntity
  8
_U+30EC_U+30A4_U+30E4_U+30FC 1
 62
   179
420
  2234388
370
    25
100
AcDbVertex
100
AcDb2dVertex
 10
90.14209685721165
 20
-137.5061846919147
 30
0.0
  0
SEQEND
  5
11F
330
11C
100
AcDbEntity
  8
_U+30EC_U+30A4_U+30E4_U+30FC 1
 62
   179
420
  2234388
370
    25
  0
POLYLINE
  5
120
330
1F
100
AcDbEntity
  8
_U+30EC_U+30A4_U+30E4_U+30FC 1
 62
   179
420
  2234388
370
    25
100
AcDb2dPolyline
 66
     1
 10
0.0
 20
0.0
 30
0.0
  0
VERTEX
  5
121
330
120
100
AcDbEntity
  8
_U+30EC_U+30A4_U+30E4_U+30FC 1
 62
   179
420
  2234388
370
    25
100
AcDbVertex
100
AcDb2dVertex
 10
89.13681799461575
 20
-144.5666064430793
 30
0.0
  0
VERTEX
  5
122
330
120
100
AcDbEntity
  8
_U+30EC_U+30A4_U+30E4_U+30FC 1
 62
   179
420
  2234388
370
    25
100
AcDbVertex
100
AcDb2dVertex
 10
89.13681799461575
 20
-138.3887750915421
 30
0.0
  0
SEQEND
  5
123
330
120
100
AcDbEntity
  8
_U+30EC_U+30A4_U+30E4_U+30FC 1
 62
   179
420
  2234388
370
    25
  0
POLYLINE
  5
124
330
1F
100
AcDbEntity
  8
_U+30EC_U+30A4_U+30E4_U+30FC 1
 62
   179
420
  2234388
370
     9
100
AcDb2dPolyline
 66
     1
 10
0.0
 20
0.0
 30
0.0
  0
VERTEX
  5
125
330
124
100
AcDbEntity
  8
_U+30EC_U+30A4_U+30E4_U+30FC 1
 62
   179
420
  2234388
370
     9
100
AcDbVertex
100
AcDb2dVertex
 10
86.71520654841669
 20
-136.3989525348025
 30
0.0
  0
VERTEX
  5
126
330
124
100
AcDbEntity
  8
_U+30EC_U+30A4_U+30E4_U+30FC 1
 62
   179
420
  2234388
370
     9
100
AcDbVertex
100
AcDb2dVertex
 10
87.27223542468835
 20
-137.229758842917
 30
0.0
  0
SEQEND
  5
127
330
124
100
AcDbEntity
  8
_U+30EC_U+30A4_U+30E4_U+30FC 1
 62
   179
420
  2234388
370
     9
  0
POLYLINE
  5
128
330
1F
100
AcDbEntity
  8
_U+30EC_U+30A4_U+30E4_U+30FC 1
 62
   179
420
  2234388
370
     9
100
AcDb2dPolyline
 66
     1
 10
0.0
 20
0.0
 30
0.0
  0
VERTEX
  5
129
330
128
100
AcDbEntity
  8
_U+30EC_U+30A4_U+30E4_U+30FC 1
 62
   179
420
  2234388
370
     9
100
AcDbVertex
100
AcDb2dVertex
 10
87.2054974655847
 20
-136.2322314451629
 30
0.0
  0
VERTEX
  5
12A
330
128
100
AcDbEntity
  8
_U+30EC_U+30A4_U+30E4_U+30FC 1
 62
   179
420
  2234388
370
     9
100
AcDbVertex
100
AcDb2dVertex
 10
87.27217082914767
 20
-137.2298880339977
 30
0.0
  0
SEQEND
  5
12B
330
128
100
AcDbEntity
  8
_U+30EC_U+30A4_U+30E4_U+30FC 1
 62
   179
420
  2234388
370
     9
  0
POLYLINE
  5
12C
330
1F
100
AcDbEntity
  8
_U+30EC_U+30A4_U+30E4_U+30FC 1
 62
   179
420
  2234388
370
     9
100
AcDb2dPolyline
 66
     1
 10
0.0
 20
0.0
 30
0.0
  0
VERTEX
  5
12D
330
12C
100
AcDbEntity
  8
_U+30EC_U+30A4_U+30E4_U+30FC 1
 62
   179
420
  2234388
370
     9
100
AcDbVertex
100
AcDb2dVertex
 10
86.49645375102672
 20
-134.8696961807466
 30
0.0
  0
VERTEX
  5
12E
330
12C
100
AcDbEntity
  8
_U+30EC_U+30A4_U+30E4_U+30FC 1
 62
   179
420
  2234388
370
     9
100
AcDbVertex
100
AcDb2dVertex
 10
87.27220312691784
 20
-137.2297803747637
 30
0.0
  0
SEQEND
  5
12F
330
12C
100
AcDbEntity
  8
_U+30EC_U+30A4_U+30E4_U+30FC 1
 62
   179
420
  2234388
370
     9
  0
INSERT
  5
131
330
1F
100
AcDbEntity
  8
_U+30EC_U+30A4_U+30E4_U+30FC 1
100
AcDbBlockReference
  2
block 6
 10
0.0
 20
0.0
 30
0.0
  0
POLYLINE
  5
18C
330
1F
100
AcDbEntity
  8
_U+30EC_U+30A4_U+30E4_U+30FC 1
 62
   179
420
  2234388
370
    25
100
AcDb2dPolyline
 66
     1
 10
0.0
 20
0.0
 30
0.0
  0
VERTEX
  5
18D
330
18C
100
AcDbEntity
  8
_U+30EC_U+30A4_U+30E4_U+30FC 1
 62
   179
420
  2234388
370
    25
100
AcDbVertex
100
AcDb2dVertex
 10
86.1423409988366
 20
-138.3889042826228
 30
0.0
  0
VERTEX
  5
18E
330
18C
100
AcDbEntity
  8
_U+30EC_U+30A4_U+30E4_U+30FC 1
 62
   179
420
  2234388
370
    25
100
AcDbVertex
100
AcDb2dVertex
 10
87.13681087434753
 20
-138.3889042826228
 30
0.0
  0
SEQEND
  5
18F
330
18C
100
AcDbEntity
  8
_U+30EC_U+30A4_U+30E4_U+30FC 1
 62
   179
420
  2234388
370
    25
  0
POLYLINE
  5
190
330
1F
100
AcDbEntity
  8
_U+30EC_U+30A4_U+30E4_U+30FC 1
  6
AI-Linetype-1
 62
   154
420
    23468
370
    25
100
AcDb2dPolyline
 66
     1
 10
0.0
 20
0.0
 30
0.0
  0
VERTEX
  5
191
330
190
100
AcDbEntity
  8
_U+30EC_U+30A4_U+30E4_U+30FC 1
  6
AI-Linetype-1
 62
   154
420
    23468
370
    25
100
AcDbVertex
100
AcDb2dVertex
 10
116.1425554620939
 20
-143.0791864673227
 30
0.0
  0
VERTEX
  5
192
330
190
100
AcDbEntity
  8
_U+30EC_U+30A4_U+30E4_U+30FC 1
  6
AI-Linetype-1
 62
   154
420
    23468
370
    25
100
AcDbVertex
100
AcDb2dVertex
 10
101.1424374645419
 20
-143.0791864673227
 30
0.0
  0
SEQEND
  5
194
330
190
100
AcDbEntity
  8
_U+30EC_U+30A4_U+30E4_U+30FC 1
  6
AI-Linetype-1
 62
   154
420
    23468
370
    25
  0
POLYLINE
  5
195
330
1F
100
AcDbEntity
  8
_U+30EC_U+30A4_U+30E4_U+30FC 1
 62
   179
420
  2234388
370
     9
100
AcDb2dPolyline
 66
     1
 10
0.0
 20
0.0
 30
0.0
  0
VERTEX
  5
196
330
195
100
AcDbEntity
  8
_U+30EC_U+30A4_U+30E4_U+30FC 1
 62
   179
420
  2234388
370
     9
100
AcDbVertex
100
AcDb2dVertex
 10
102.9588317613697
 20
-143.1599739564518
 30
0.0
  0
VERTEX
  5
197
330
195
100
AcDbEntity
  8
_U+30EC_U+30A4_U+30E4_U+30FC 1
 62
   179
420
  2234388
370
     9
100
AcDbVertex
100
AcDb2dVertex
 10
102.9588317613697
 20
-153.0377517317601
 30
0.0
  0
SEQEND
  5
198
330
195
100
AcDbEntity
  8
_U+30EC_U+30A4_U+30E4_U+30FC 1
 62
   179
420
  2234388
370
     9
  0
INSERT
  5
19A
330
1F
100
AcDbEntity
  8
_U+30EC_U+30A4_U+30E4_U+30FC 1
100
AcDbBlockReference
  2
block 7
 10
0.0
 20
0.0
 30
0.0
  0
POLYLINE
  5
1C1
330
1F
100
AcDbEntity
  8
_U+30EC_U+30A4_U+30E4_U+30FC 1
  6
AI-Linetype-2
 62
   154
420
    23468
370
    25
100
AcDb2dPolyline
 66
     1
 10
0.0
 20
0.0
 30
0.0
  0
VERTEX
  5
1C2
330
1C1
100
AcDbEntity
  8
_U+30EC_U+30A4_U+30E4_U+30FC 1
  6
AI-Linetype-2
 62
   154
420
    23468
370
    25
100
AcDbVertex
100
AcDb2dVertex
 10
85.58748683909033
 20
-163.3695930920244
 30
0.0
  0
VERTEX
  5
1C3
330
1C1
100
AcDbEntity
  8
_U+30EC_U+30A4_U+30E4_U+30FC 1
  6
AI-Linetype-2
 62
   154
420
    23468
370
    25
100
AcDbVertex
100
AcDb2dVertex
 10
85.58748683909033
 20
-148.3694966263191
 30
0.0
  0
SEQEND
  5
1C5
330
1C1
100
AcDbEntity
  8
_U+30EC_U+30A4_U+30E4_U+30FC 1
  6
AI-Linetype-2
 62
   154
420
    23468
370
    25
  0
POLYLINE
  5
1C6
330
1F
100
AcDbEntity
  8
_U+30EC_U+30A4_U+30E4_U+30FC 1
 62
   179
420
  2234388
370
     9
100
AcDb2dPolyline
 66
     1
 10
0.0
 20
0.0
 30
0.0
  0
VERTEX
  5
1C7
330
1C6
100
AcDbEntity
  8
_U+30EC_U+30A4_U+30E4_U+30FC 1
 62
   179
420
  2234388
370
     9
100
AcDbVertex
100
AcDb2dVertex
 10
97.19762011323316
 20
-154.5665128533397
 30
0.0
  0
VERTEX
  5
1C8
330
1C6
100
AcDbEntity
  8
_U+30EC_U+30A4_U+30E4_U+30FC 1
 62
   179
420
  2234388
370
     9
100
AcDbVertex
100
AcDb2dVertex
 10
85.61486458227468
 20
-154.5665128533397
 30
0.0
  0
SEQEND
  5
1C9
330
1C6
100
AcDbEntity
  8
_U+30EC_U+30A4_U+30E4_U+30FC 1
 62
   179
420
  2234388
370
     9
  0
POLYLINE
  5
1CA
330
1F
100
AcDbEntity
  8
_U+30EC_U+30A4_U+30E4_U+30FC 1
 62
   179
420
  2234388
370
     9
100
AcDb2dPolyline
 66
     1
 10
0.0
 20
0.0
 30
0.0
  0
VERTEX
  5
1CB
330
1CA
100
AcDbEntity
  8
_U+30EC_U+30A4_U+30E4_U+30FC 1
 62
   179
420
  2234388
370
     9
100
AcDbVertex
100
AcDb2dVertex
 10
110.9221915073715
 20
-151.3474156319223
 30
0.0
  0
VERTEX
  5
1CC
330
1CA
100
AcDbEntity
  8
_U+30EC_U+30A4_U+30E4_U+30FC 1
 62
   179
420
  2234388
370
     9
100
AcDbVertex
100
AcDb2dVertex
 10
110.5831618138527
 20
-159.0467949363668
 30
0.0
  0
VERTEX
  5
1CD
330
1CA
100
AcDbEntity
  8
_U+30EC_U+30A4_U+30E4_U+30FC 1
 62
   179
420
  2234388
370
     9
100
AcDbVertex
100
AcDb2dVertex
 10
110.3944351768014
 20
-159.1537005556434
 30
0.0
  0
VERTEX
  5
1CE
330
1CA
100
AcDbEntity
  8
_U+30EC_U+30A4_U+30E4_U+30FC 1
 62
   179
420
  2234388
370
     9
100
AcDbVertex
100
AcDb2dVertex
 10
110.5948105429622
 20
-151.2366558120715
 30
0.0
  0
VERTEX
  5
1CF
330
1CA
100
AcDbEntity
  8
_U+30EC_U+30A4_U+30E4_U+30FC 1
 62
   179
420
  2234388
370
     9
100
AcDbVertex
100
AcDb2dVertex
 10
112.2232318173761
 20
-150.3779872942197
 30
0.0
  0
VERTEX
  5
1D0
330
1CA
100
AcDbEntity
  8
_U+30EC_U+30A4_U+30E4_U+30FC 1
 62
   179
420
  2234388
370
     9
100
AcDbVertex
100
AcDb2dVertex
 10
112.174903587272
 20
-152.2815748045946
 30
0.0
  0
SEQEND
  5
1D1
330
1CA
100
AcDbEntity
  8
_U+30EC_U+30A4_U+30E4_U+30FC 1
 62
   179
420
  2234388
370
     9
  0
POLYLINE
  5
1D2
330
1F
100
AcDbEntity
  8
_U+30EC_U+30A4_U+30E4_U+30FC 1
 62
   179
420
  2234388
370
     9
100
AcDb2dPolyline
 66
     1
 10
0.0
 20
0.0
 30
0.0
  0
VERTEX
  5
1D3
330
1D2
100
AcDbEntity
  8
_U+30EC_U+30A4_U+30E4_U+30FC 1
 62
   179
420
  2234388
370
     9
100
AcDbVertex
100
AcDb2dVertex
 10
119.456371277509
 20
-148.1934091833296
 30
0.0
  0
VERTEX
  5
1D4
330
1D2
100
AcDbEntity
  8
_U+30EC_U+30A4_U+30E4_U+30FC 1
 62
   179
420
  2234388
370
     9
100
AcDbVertex
100
AcDb2dVertex
 10
119.4521295036927
 20
-148.3281770123429
 30
0.0
  0
VERTEX
  5
1D5
330
1D2
100
AcDbEntity
  8
_U+30EC_U+30A4_U+30E4_U+30FC 1
 62
   179
420
  2234388
370
     9
100
AcDbVertex
100
AcDb2dVertex
 10
111.8314275673926
 20
-152.7964658567119
 30
0.0
  0
VERTEX
  5
1D6
330
1D2
100
AcDbEntity
  8
_U+30EC_U+30A4_U+30E4_U+30FC 1
 62
   179
420
  2234388
370
     9
100
AcDbVertex
100
AcDb2dVertex
 10
111.880810857989
 20
-150.8540779584345
 30
0.0
  0
SEQEND
  5
1D7
330
1D2
100
AcDbEntity
  8
_U+30EC_U+30A4_U+30E4_U+30FC 1
 62
   179
420
  2234388
370
     9
  0
POLYLINE
  5
1D8
330
1F
100
AcDbEntity
  8
_U+30EC_U+30A4_U+30E4_U+30FC 1
 62
   179
420
  2234388
370
     9
100
AcDb2dPolyline
 66
     1
 10
0.0
 20
0.0
 30
0.0
  0
VERTEX
  5
1D9
330
1D8
100
AcDbEntity
  8
_U+30EC_U+30A4_U+30E4_U+30FC 1
 62
   179
420
  2234388
370
     9
100
AcDbVertex
100
AcDb2dVertex
 10
111.8809723468399
 20
-150.8540564265877
 30
0.0
  0
VERTEX
  5
1DA
330
1D8
100
AcDbEntity
  8
_U+30EC_U+30A4_U+30E4_U+30FC 1
 62
   179
420
  2234388
370
     9
100
AcDbVertex
100
AcDb2dVertex
 10
110.6077942465722
 20
-151.4936599352711
 30
0.0
  0
SEQEND
  5
1DB
330
1D8
100
AcDbEntity
  8
_U+30EC_U+30A4_U+30E4_U+30FC 1
 62
   179
420
  2234388
370
     9
  0
POLYLINE
  5
1DC
330
1F
100
AcDbEntity
  8
_U+30EC_U+30A4_U+30E4_U+30FC 1
 62
   179
420
  2234388
370
     9
100
AcDb2dPolyline
 66
     1
 10
0.0
 20
0.0
 30
0.0
  0
VERTEX
  5
1DD
330
1DC
100
AcDbEntity
  8
_U+30EC_U+30A4_U+30E4_U+30FC 1
 62
   179
420
  2234388
370
     9
100
AcDbVertex
100
AcDb2dVertex
 10
111.8499987852428
 20
-152.4784620115766
 30
0.0
  0
VERTEX
  5
1DE
330
1DC
100
AcDbEntity
  8
_U+30EC_U+30A4_U+30E4_U+30FC 1
 62
   179
420
  2234388
370
     9
100
AcDbVertex
100
AcDb2dVertex
 10
119.4565865959768
 20
-148.1936245017971
 30
0.0
  0
SEQEND
  5
1DF
330
1DC
100
AcDbEntity
  8
_U+30EC_U+30A4_U+30E4_U+30FC 1
 62
   179
420
  2234388
370
     9
  0
POLYLINE
  5
1E0
330
1F
100
AcDbEntity
  8
_U+30EC_U+30A4_U+30E4_U+30FC 1
 62
   179
420
  2234388
370
     9
100
AcDb2dPolyline
 66
     1
 10
0.0
 20
0.0
 30
0.0
  0
VERTEX
  5
1E1
330
1E0
100
AcDbEntity
  8
_U+30EC_U+30A4_U+30E4_U+30FC 1
 62
   179
420
  2234388
370
     9
100
AcDbVertex
100
AcDb2dVertex
 10
132.380324012722
 20
-155.9917703874343
 30
0.0
  0
VERTEX
  5
1E2
330
1E0
100
AcDbEntity
  8
_U+30EC_U+30A4_U+30E4_U+30FC 1
 62
   179
420
  2234388
370
     9
100
AcDbVertex
100
AcDb2dVertex
 10
119.4524201836243
 20
-148.3280262894157
 30
0.0
  0
VERTEX
  5
1E3
330
1E0
100
AcDbEntity
  8
_U+30EC_U+30A4_U+30E4_U+30FC 1
 62
   179
420
  2234388
370
     9
100
AcDbVertex
100
AcDb2dVertex
 10
119.4563066819686
 20
-148.1936245017971
 30
0.0
  0
VERTEX
  5
1E4
330
1E0
100
AcDbEntity
  8
_U+30EC_U+30A4_U+30E4_U+30FC 1
 62
   179
420
  2234388
370
     9
100
AcDbVertex
100
AcDb2dVertex
 10
132.3944273723647
 20
-155.8474854821427
 30
0.0
  0
SEQEND
  5
1E5
330
1E0
100
AcDbEntity
  8
_U+30EC_U+30A4_U+30E4_U+30FC 1
 62
   179
420
  2234388
370
     9
  0
POLYLINE
  5
1E6
330
1F
100
AcDbEntity
  8
_U+30EC_U+30A4_U+30E4_U+30FC 1
 62
   179
420
  2234388
370
     9
100
AcDb2dPolyline
 66
     1
 10
0.0
 20
0.0
 30
0.0
  0
VERTEX
  5
1E7
330
1E6
100
AcDbEntity
  8
_U+30EC_U+30A4_U+30E4_U+30FC 1
 62
   179
420
  2234388
370
     9
100
AcDbVertex
100
AcDb2dVertex
 10
123.3225004947499
 20
-166.8172939307349
 30
0.0
  0
VERTEX
  5
1E8
330
1E6
100
AcDbEntity
  8
_U+30EC_U+30A4_U+30E4_U+30FC 1
 62
   179
420
  2234388
370
     9
100
AcDbVertex
100
AcDb2dVertex
 10
110.3945966656522
 20
-159.153549832716
 30
0.0
  0
VERTEX
  5
1E9
330
1E6
100
AcDbEntity
  8
_U+30EC_U+30A4_U+30E4_U+30FC 1
 62
   179
420
  2234388
370
     9
100
AcDbVertex
100
AcDb2dVertex
 10
110.583334068627
 20
-159.0470317866814
 30
0.0
  0
VERTEX
  5
1EA
330
1E6
100
AcDbEntity
  8
_U+30EC_U+30A4_U+30E4_U+30FC 1
 62
   179
420
  2234388
370
     9
100
AcDbVertex
100
AcDb2dVertex
 10
123.5680281436143
 20
-166.6747746368795
 30
0.0
  0
SEQEND
  5
1EB
330
1E6
100
AcDbEntity
  8
_U+30EC_U+30A4_U+30E4_U+30FC 1
 62
   179
420
  2234388
370
     9
  0
POLYLINE
  5
1EC
330
1F
100
AcDbEntity
  8
_U+30EC_U+30A4_U+30E4_U+30FC 1
 62
   179
420
  2234388
370
     9
100
AcDb2dPolyline
 66
     1
 10
0.0
 20
0.0
 30
0.0
  0
VERTEX
  5
1ED
330
1EC
100
AcDbEntity
  8
_U+30EC_U+30A4_U+30E4_U+30FC 1
 62
   179
420
  2234388
370
     9
100
AcDbVertex
100
AcDb2dVertex
 10
111.8313629718523
 20
-152.7964658567119
 30
0.0
  0
VERTEX
  5
1EE
330
1EC
100
AcDbEntity
  8
_U+30EC_U+30A4_U+30E4_U+30FC 1
 62
   179
420
  2234388
370
     9
100
AcDbVertex
100
AcDb2dVertex
 10
124.8343914143752
 20
-160.4898593077508
 30
0.0
  0
SEQEND
  5
1EF
330
1EC
100
AcDbEntity
  8
_U+30EC_U+30A4_U+30E4_U+30FC 1
 62
   179
420
  2234388
370
     9
  0
POLYLINE
  5
1F0
330
1F
100
AcDbEntity
  8
_U+30EC_U+30A4_U+30E4_U+30FC 1
 62
   179
420
  2234388
370
     9
100
AcDb2dPolyline
 66
     1
 10
0.0
 20
0.0
 30
0.0
  0
VERTEX
  5
1F1
330
1F0
100
AcDbEntity
  8
_U+30EC_U+30A4_U+30E4_U+30FC 1
 62
   179
420
  2234388
370
     9
100
AcDbVertex
100
AcDb2dVertex
 10
112.2234040721503
 20
-150.3779872942197
 30
0.0
  0
VERTEX
  5
1F2
330
1F0
100
AcDbEntity
  8
_U+30EC_U+30A4_U+30E4_U+30FC 1
 62
   179
420
  2234388
370
     9
100
AcDbVertex
100
AcDb2dVertex
 10
113.8451181762913
 20
-151.3439059408967
 30
0.0
  0
SEQEND
  5
1F3
330
1F0
100
AcDbEntity
  8
_U+30EC_U+30A4_U+30E4_U+30FC 1
 62
   179
420
  2234388
370
     9
  0
POLYLINE
  5
1F4
330
1F
100
AcDbEntity
  8
_U+30EC_U+30A4_U+30E4_U+30FC 1
 62
   179
420
  2234388
370
     9
100
AcDb2dPolyline
 66
     1
 10
0.0
 20
0.0
 30
0.0
  0
VERTEX
  5
1F5
330
1F4
100
AcDbEntity
  8
_U+30EC_U+30A4_U+30E4_U+30FC 1
 62
   179
420
  2234388
370
     9
100
AcDbVertex
100
AcDb2dVertex
 10
110.9221915073715
 20
-151.3474156319223
 30
0.0
  0
VERTEX
  5
1F6
330
1F4
100
AcDbEntity
  8
_U+30EC_U+30A4_U+30E4_U+30FC 1
 62
   179
420
  2234388
370
     9
100
AcDbVertex
100
AcDb2dVertex
 10
111.8542297931356
 20
-151.910451893446
 30
0.0
  0
SEQEND
  5
1F7
330
1F4
100
AcDbEntity
  8
_U+30EC_U+30A4_U+30E4_U+30FC 1
 62
   179
420
  2234388
370
     9
  0
SPLINE
  5
1F8
330
1F
100
AcDbEntity
  8
_U+30EC_U+30A4_U+30E4_U+30FC 1
 62
   179
420
  2234388
370
     9
100
AcDbSpline
210
0.0
220
0.0
230
1.0
 70
     8
 71
     3
 72
    11
 73
     7
 74
     0
 42
0.0000000001
 43
0.0000000001
 12
1.0
 22
0.0
 32
0.0
 13
1.0
 23
0.0
 33
0.0
 40
0.0
 40
0.0
 40
0.0
 40
0.0
 40
1.0
 40
1.0
 40
1.0
 40
2.0
 40
2.0
 40
2.0
 40
2.0
 10
112.6543962832785
 20
-155.9866242760533
 30
0.0
 10
112.7535181399431
 20
-155.7746217126297
 30
0.0
 10
112.7200038204257
 20
-155.4405335779476
 30
0.0
 10
112.5464356035095
 20
-155.1251566181197
 30
0.0
 10
112.3210186995402
 20
-154.7141567267294
 30
0.0
 10
111.9414230066826
 20
-154.4859191508316
 30
0.0
 10
111.6793158357954
 20
-154.5956239101901
 30
0.0
  0
SPLINE
  5
1F9
330
1F
100
AcDbEntity
  8
_U+30EC_U+30A4_U+30E4_U+30FC 1
 62
   179
420
  2234388
370
     9
100
AcDbSpline
210
0.0
220
0.0
230
1.0
 70
    11
 71
     3
 72
    17
 73
    13
 74
     0
 42
0.0000000001
 43
0.0000000001
 12
1.0
 22
0.0
 32
0.0
 13
1.0
 23
0.0
 33
0.0
 40
0.0
 40
0.0
 40
0.0
 40
0.0
 40
1.0
 40
1.0
 40
1.0
 40
2.0
 40
2.0
 40
2.0
 40
3.0
 40
3.0
 40
3.0
 40
4.0
 40
4.0
 40
4.0
 40
4.0
 10
112.6871031585416
 20
-155.9720902794749
 30
0.0
 10
112.4253404972029
 20
-156.1156861656694
 30
0.0
 10
112.0224688779731
 20
-155.8853169369401
 30
0.0
 10
111.7875133658791
 20
-155.4573930139785
 30
0.0
 10
111.5522133442365
 20
-155.0287800719199
 30
0.0
 10
111.5740789346445
 20
-154.5655654520813
 30
0.0
 10
111.8351418109627
 20
-154.421646588185
 30
0.0
 10
112.0969044723013
 20
-154.2777061924419
 30
0.0
 10
112.4997760915311
 20
-154.508785972115
 30
0.0
 10
112.7350761131737
 20
-154.9363438536813
 30
0.0
 10
112.9700208593443
 20
-155.3646122861914
 30
0.0
 10
112.9485105444083
 20
-155.8281714155786
 30
0.0
 10
112.6871031585416
 20
-155.9720902794749
 30
0.0
  0
SPLINE
  5
1FA
330
1F
100
AcDbEntity
  8
_U+30EC_U+30A4_U+30E4_U+30FC 1
 62
   179
420
  2234388
370
     9
100
AcDbSpline
210
0.0
220
0.0
230
1.0
 70
     8
 71
     3
 72
    11
 73
     7
 74
     0
 42
0.0000000001
 43
0.0000000001
 12
1.0
 22
0.0
 32
0.0
 13
1.0
 23
0.0
 33
0.0
 40
0.0
 40
0.0
 40
0.0
 40
0.0
 40
1.0
 40
1.0
 40
1.0
 40
2.0
 40
2.0
 40
2.0
 40
2.0
 10
112.6543962832785
 20
-159.1478438933185
 30
0.0
 10
112.7535181399431
 20
-158.9358413298949
 30
0.0
 10
112.7200038204257
 20
-158.6017531952128
 30
0.0
 10
112.5464356035095
 20
-158.286376235385
 30
0.0
 10
112.3210186995402
 20
-157.8753763439947
 30
0.0
 10
111.9414230066826
 20
-157.6471387680969
 30
0.0
 10
111.6793158357954
 20
-157.7568435274553
 30
0.0
  0
SPLINE
  5
1FB
330
1F
100
AcDbEntity
  8
_U+30EC_U+30A4_U+30E4_U+30FC 1
 62
   179
420
  2234388
370
     9
100
AcDbSpline
210
0.0
220
0.0
230
1.0
 70
    11
 71
     3
 72
    17
 73
    13
 74
     0
 42
0.0000000001
 43
0.0000000001
 12
1.0
 22
0.0
 32
0.0
 13
1.0
 23
0.0
 33
0.0
 40
0.0
 40
0.0
 40
0.0
 40
0.0
 40
1.0
 40
1.0
 40
1.0
 40
2.0
 40
2.0
 40
2.0
 40
3.0
 40
3.0
 40
3.0
 40
4.0
 40
4.0
 40
4.0
 40
4.0
 10
112.6871031585416
 20
-159.1333314285869
 30
0.0
 10
112.4253404972029
 20
-159.2769273147815
 30
0.0
 10
112.0224688779731
 20
-159.0462135765036
 30
0.0
 10
111.7875133658791
 20
-158.618289653542
 30
0.0
 10
111.5522133442365
 20
-158.1900212210319
 30
0.0
 10
111.5740789346445
 20
-157.7264620916448
 30
0.0
 10
111.8351418109627
 20
-157.582887737297
 30
0.0
 10
112.0969044723013
 20
-157.4389473415539
 30
0.0
 10
112.4997760915311
 20
-157.670027121227
 30
0.0
 10
112.7350761131737
 20
-158.0975850027933
 30
0.0
 10
112.9700208593443
 20
-158.5258534353034
 30
0.0
 10
112.9485105444083
 20
-158.9897570742391
 30
0.0
 10
112.6871031585416
 20
-159.1333314285869
 30
0.0
  0
SPLINE
  5
1FC
330
1F
100
AcDbEntity
  8
_U+30EC_U+30A4_U+30E4_U+30FC 1
 62
   179
420
  2234388
370
     9
100
AcDbSpline
210
0.0
220
0.0
230
1.0
 70
     8
 71
     3
 72
    11
 73
     7
 74
     0
 42
0.0000000001
 43
0.0000000001
 12
1.0
 22
0.0
 32
0.0
 13
1.0
 23
0.0
 33
0.0
 40
0.0
 40
0.0
 40
0.0
 40
0.0
 40
1.0
 40
1.0
 40
1.0
 40
2.0
 40
2.0
 40
2.0
 40
2.0
 10
116.4874310520142
 20
-158.2631433727064
 30
0.0
 10
116.5858531236585
 20
-158.0514853188313
 30
0.0
 10
116.5530385891614
 20
-157.7173971841492
 30
0.0
 10
116.3791258626967
 20
-157.4020202243214
 30
0.0
 10
116.153698192804
 20
-156.9906758233826
 30
0.0
 10
115.7737579903979
 20
-156.7627827570333
 30
0.0
 10
115.5123506045312
 20
-156.8725090482385
 30
0.0
  0
SPLINE
  5
1FD
330
1F
100
AcDbEntity
  8
_U+30EC_U+30A4_U+30E4_U+30FC 1
 62
   179
420
  2234388
370
     9
100
AcDbSpline
210
0.0
220
0.0
230
1.0
 70
    11
 71
     3
 72
    17
 73
    13
 74
     0
 42
0.0000000001
 43
0.0000000001
 12
1.0
 22
0.0
 32
0.0
 13
1.0
 23
0.0
 33
0.0
 40
0.0
 40
0.0
 40
0.0
 40
0.0
 40
1.0
 40
1.0
 40
1.0
 40
2.0
 40
2.0
 40
2.0
 40
3.0
 40
3.0
 40
3.0
 40
4.0
 40
4.0
 40
4.0
 40
4.0
 10
116.5198149495756
 20
-158.2489969493701
 30
0.0
 10
116.2580522882369
 20
-158.3925928355646
 30
0.0
 10
115.8555251785557
 20
-158.1618790972868
 30
0.0
 10
115.6202251569131
 20
-157.7339551743252
 30
0.0
 10
115.3849251352705
 20
-157.3056867418151
 30
0.0
 10
115.40644621613
 20
-156.8421276124279
 30
0.0
 10
115.6682088774686
 20
-156.6981872166848
 30
0.0
 10
115.9299607728838
 20
-156.5546128623371
 30
0.0
 10
116.3324878825651
 20
-156.7853266006149
 30
0.0
 10
116.5677879042077
 20
-157.2129060140279
 30
0.0
 10
116.8030879258502
 20
-157.6415189560866
 30
0.0
 10
116.7815668449908
 20
-158.1050780854737
 30
0.0
 10
116.5198149495756
 20
-158.2489969493701
 30
0.0
  0
SPLINE
  5
1FE
330
1F
100
AcDbEntity
  8
_U+30EC_U+30A4_U+30E4_U+30FC 1
 62
   179
420
  2234388
370
     9
100
AcDbSpline
210
0.0
220
0.0
230
1.0
 70
     8
 71
     3
 72
    11
 73
     7
 74
     0
 42
0.0000000001
 43
0.0000000001
 12
1.0
 22
0.0
 32
0.0
 13
1.0
 23
0.0
 33
0.0
 40
0.0
 40
0.0
 40
0.0
 40
0.0
 40
1.0
 40
1.0
 40
1.0
 40
2.0
 40
2.0
 40
2.0
 40
2.0
 10
116.4874310520142
 20
-161.4243414581248
 30
0.0
 10
116.5858531236585
 20
-161.2126834042498
 30
0.0
 10
116.5530385891614
 20
-160.8785952695677
 30
0.0
 10
116.3791258626967
 20
-160.5628738001913
 30
0.0
 10
116.153698192804
 20
-160.151873908801
 30
0.0
 10
115.7737579903979
 20
-159.9239808424517
 30
0.0
 10
115.5123506045312
 20
-160.0337071336569
 30
0.0
  0
SPLINE
  5
1FF
330
1F
100
AcDbEntity
  8
_U+30EC_U+30A4_U+30E4_U+30FC 1
 62
   179
420
  2234388
370
     9
100
AcDbSpline
210
0.0
220
0.0
230
1.0
 70
    11
 71
     3
 72
    17
 73
    13
 74
     0
 42
0.0000000001
 43
0.0000000001
 12
1.0
 22
0.0
 32
0.0
 13
1.0
 23
0.0
 33
0.0
 40
0.0
 40
0.0
 40
0.0
 40
0.0
 40
1.0
 40
1.0
 40
1.0
 40
2.0
 40
2.0
 40
2.0
 40
3.0
 40
3.0
 40
3.0
 40
4.0
 40
4.0
 40
4.0
 40
4.0
 10
116.5198149495756
 20
-161.4101950347885
 30
0.0
 10
116.2580522882369
 20
-161.5537909209831
 30
0.0
 10
115.8555251785557
 20
-161.3230771827053
 30
0.0
 10
115.6202251569131
 20
-160.8951532597437
 30
0.0
 10
115.3849251352705
 20
-160.4668848272335
 30
0.0
 10
115.40644621613
 20
-160.0033256978464
 30
0.0
 10
115.6682088774686
 20
-159.8593853021033
 30
0.0
 10
115.9299607728838
 20
-159.7158109477555
 30
0.0
 10
116.3324878825651
 20
-159.9465246860333
 30
0.0
 10
116.5677879042077
 20
-160.3744486089949
 30
0.0
 10
116.8030879258502
 20
-160.802717041505
 30
0.0
 10
116.7815668449908
 20
-161.2662761708922
 30
0.0
 10
116.5198149495756
 20
-161.4101950347885
 30
0.0
  0
SPLINE
  5
200
330
1F
100
AcDbEntity
  8
_U+30EC_U+30A4_U+30E4_U+30FC 1
 62
   179
420
  2234388
370
     9
100
AcDbSpline
210
0.0
220
0.0
230
1.0
 70
     8
 71
     3
 72
    11
 73
     7
 74
     0
 42
0.0000000001
 43
0.0000000001
 12
1.0
 22
0.0
 32
0.0
 13
1.0
 23
0.0
 33
0.0
 40
0.0
 40
0.0
 40
0.0
 40
0.0
 40
1.0
 40
1.0
 40
1.0
 40
2.0
 40
2.0
 40
2.0
 40
2.0
 10
114.6036313088328
 20
-158.738545017824
 30
0.0
 10
114.702408655949
 20
-158.5265424544005
 30
0.0
 10
114.66923884598
 20
-158.1921098101699
 30
0.0
 10
114.4953261195153
 20
-157.8767113184952
 30
0.0
 10
114.2702537250945
 20
-157.4660774685002
 30
0.0
 10
113.8903135226884
 20
-157.2378398926024
 30
0.0
 10
113.6285508613498
 20
-157.3475446519609
 30
0.0
  0
SPLINE
  5
201
330
1F
100
AcDbEntity
  8
_U+30EC_U+30A4_U+30E4_U+30FC 1
 62
   179
420
  2234388
370
     9
100
AcDbSpline
210
0.0
220
0.0
230
1.0
 70
    11
 71
     3
 72
    17
 73
    13
 74
     0
 42
0.0000000001
 43
0.0000000001
 12
1.0
 22
0.0
 32
0.0
 13
1.0
 23
0.0
 33
0.0
 40
0.0
 40
0.0
 40
0.0
 40
0.0
 40
1.0
 40
1.0
 40
1.0
 40
2.0
 40
2.0
 40
2.0
 40
3.0
 40
3.0
 40
3.0
 40
4.0
 40
4.0
 40
4.0
 40
4.0
 10
114.6360259723176
 20
-158.724075616786
 30
0.0
 10
114.3746078205274
 20
-158.8676715029806
 30
0.0
 10
113.9717362012977
 20
-158.6369577647027
 30
0.0
 10
113.736791455127
 20
-158.2086678003458
 30
0.0
 10
113.5014914334844
 20
-157.780765409231
 30
0.0
 10
113.5230017484205
 20
-157.3172062798439
 30
0.0
 10
113.7844199002106
 20
-157.1732658841008
 30
0.0
 10
114.0461717956258
 20
-157.029691529753
 30
0.0
 10
114.4486989053071
 20
-157.2604052680308
 30
0.0
 10
114.6843542024216
 20
-157.6883291909924
 30
0.0
 10
114.9192989485922
 20
-158.1165976235025
 30
0.0
 10
114.8977778677328
 20
-158.5801567528897
 30
0.0
 10
114.6360259723176
 20
-158.724075616786
 30
0.0
  0
SPLINE
  5
202
330
1F
100
AcDbEntity
  8
_U+30EC_U+30A4_U+30E4_U+30FC 1
 62
   179
420
  2234388
370
     9
100
AcDbSpline
210
0.0
220
0.0
230
1.0
 70
     8
 71
     3
 72
    11
 73
     7
 74
     0
 42
0.0000000001
 43
0.0000000001
 12
1.0
 22
0.0
 32
0.0
 13
1.0
 23
0.0
 33
0.0
 40
0.0
 40
0.0
 40
0.0
 40
0.0
 40
1.0
 40
1.0
 40
1.0
 40
2.0
 40
2.0
 40
2.0
 40
2.0
 10
120.1564685097287
 20
-160.4497239453476
 30
0.0
 10
120.2548905813729
 20
-160.2380658914726
 30
0.0
 10
120.2217315373274
 20
-159.9039777567905
 30
0.0
 10
120.0481633204111
 20
-159.5886007969627
 30
0.0
 10
119.8223803750466
 20
-159.1776224374191
 30
0.0
 10
119.4427954481124
 20
-158.9493633296746
 30
0.0
 10
119.1810327867738
 20
-159.0590896208798
 30
0.0
  0
SPLINE
  5
203
330
1F
100
AcDbEntity
  8
_U+30EC_U+30A4_U+30E4_U+30FC 1
 62
   179
420
  2234388
370
     9
100
AcDbSpline
210
0.0
220
0.0
230
1.0
 70
    11
 71
     3
 72
    17
 73
    13
 74
     0
 42
0.0000000001
 43
0.0000000001
 12
1.0
 22
0.0
 32
0.0
 13
1.0
 23
0.0
 33
0.0
 40
0.0
 40
0.0
 40
0.0
 40
0.0
 40
1.0
 40
1.0
 40
1.0
 40
2.0
 40
2.0
 40
2.0
 40
3.0
 40
3.0
 40
3.0
 40
4.0
 40
4.0
 40
4.0
 40
4.0
 10
120.1888093435965
 20
-160.4356205857049
 30
0.0
 10
119.9270466822578
 20
-160.5792164718995
 30
0.0
 10
119.524175063028
 20
-160.3485027336216
 30
0.0
 10
119.2888642754621
 20
-159.9205788106601
 30
0.0
 10
119.0539195292914
 20
-159.4923103781499
 30
0.0
 10
119.0754406101508
 20
-159.0287512487628
 30
0.0
 10
119.3372032714895
 20
-158.8848108530197
 30
0.0
 10
119.5986106573562
 20
-158.7412364986719
 30
0.0
 10
120.001482276586
 20
-158.9719502369497
 30
0.0
 10
120.2367822982286
 20
-159.3998741599113
 30
0.0
 10
120.4720823198711
 20
-159.8281425924214
 30
0.0
 10
120.4505612390117
 20
-160.2917017218086
 30
0.0
 10
120.1888093435965
 20
-160.4356205857049
 30
0.0
  0
SPLINE
  5
204
330
1F
100
AcDbEntity
  8
_U+30EC_U+30A4_U+30E4_U+30FC 1
 62
   179
420
  2234388
370
     9
100
AcDbSpline
210
0.0
220
0.0
230
1.0
 70
     8
 71
     3
 72
    11
 73
     7
 74
     0
 42
0.0000000001
 43
0.0000000001
 12
1.0
 22
0.0
 32
0.0
 13
1.0
 23
0.0
 33
0.0
 40
0.0
 40
0.0
 40
0.0
 40
0.0
 40
1.0
 40
1.0
 40
1.0
 40
2.0
 40
2.0
 40
2.0
 40
2.0
 10
120.1564685097287
 20
-163.6109435626129
 30
0.0
 10
120.2548905813729
 20
-163.3992855087378
 30
0.0
 10
120.2217315373274
 20
-163.0651973740558
 30
0.0
 10
120.0481633204111
 20
-162.7498204142279
 30
0.0
 10
119.8223803750466
 20
-162.3384760132891
 30
0.0
 10
119.4427954481124
 20
-162.1105829469398
 30
0.0
 10
119.1810327867738
 20
-162.220309238145
 30
0.0
  0
SPLINE
  5
205
330
1F
100
AcDbEntity
  8
_U+30EC_U+30A4_U+30E4_U+30FC 1
 62
   179
420
  2234388
370
     9
100
AcDbSpline
210
0.0
220
0.0
230
1.0
 70
    11
 71
     3
 72
    17
 73
    13
 74
     0
 42
0.0000000001
 43
0.0000000001
 12
1.0
 22
0.0
 32
0.0
 13
1.0
 23
0.0
 33
0.0
 40
0.0
 40
0.0
 40
0.0
 40
0.0
 40
1.0
 40
1.0
 40
1.0
 40
2.0
 40
2.0
 40
2.0
 40
3.0
 40
3.0
 40
3.0
 40
4.0
 40
4.0
 40
4.0
 40
4.0
 10
120.1888093435965
 20
-163.5968186711234
 30
0.0
 10
119.9270466822578
 20
-163.7404145573179
 30
0.0
 10
119.524175063028
 20
-163.5097008190401
 30
0.0
 10
119.2888642754621
 20
-163.0817768960785
 30
0.0
 10
119.0539195292914
 20
-162.6535084635684
 30
0.0
 10
119.0754406101508
 20
-162.1899493341813
 30
0.0
 10
119.3372032714895
 20
-162.0460089384381
 30
0.0
 10
119.5986106573562
 20
-161.9024345840904
 30
0.0
 10
120.001482276586
 20
-162.1331483223682
 30
0.0
 10
120.2367822982286
 20
-162.5610722453298
 30
0.0
 10
120.4720823198711
 20
-162.9893406778399
 30
0.0
 10
120.4505612390117
 20
-163.4528998072271
 30
0.0
 10
120.1888093435965
 20
-163.5968186711234
 30
0.0
  0
SPLINE
  5
206
330
1F
100
AcDbEntity
  8
_U+30EC_U+30A4_U+30E4_U+30FC 1
 62
   179
420
  2234388
370
     9
100
AcDbSpline
210
0.0
220
0.0
230
1.0
 70
     8
 71
     3
 72
    11
 73
     7
 74
     0
 42
0.0000000001
 43
0.0000000001
 12
1.0
 22
0.0
 32
0.0
 13
1.0
 23
0.0
 33
0.0
 40
0.0
 40
0.0
 40
0.0
 40
0.0
 40
1.0
 40
1.0
 40
1.0
 40
2.0
 40
2.0
 40
2.0
 40
2.0
 10
118.2726257028537
 20
-160.9251255904653
 30
0.0
 10
118.3714030499699
 20
-160.7131230270418
 30
0.0
 10
118.3382332400009
 20
-160.3790348923597
 30
0.0
 10
118.1643205135362
 20
-160.0632918911365
 30
0.0
 10
117.9388928436435
 20
-159.6526580411415
 30
0.0
 10
117.5593079167094
 20
-159.4244204652437
 30
0.0
 10
117.2975452553707
 20
-159.5341252246021
 30
0.0
  0
SPLINE
  5
207
330
1F
100
AcDbEntity
  8
_U+30EC_U+30A4_U+30E4_U+30FC 1
 62
   179
420
  2234388
370
     9
100
AcDbSpline
210
0.0
220
0.0
230
1.0
 70
    11
 71
     3
 72
    17
 73
    13
 74
     0
 42
0.0000000001
 43
0.0000000001
 12
1.0
 22
0.0
 32
0.0
 13
1.0
 23
0.0
 33
0.0
 40
0.0
 40
0.0
 40
0.0
 40
0.0
 40
1.0
 40
1.0
 40
1.0
 40
2.0
 40
2.0
 40
2.0
 40
3.0
 40
3.0
 40
3.0
 40
4.0
 40
4.0
 40
4.0
 40
4.0
 10
118.3050203663385
 20
-160.9106561894273
 30
0.0
 10
118.0432577049998
 20
-161.0542520756219
 30
0.0
 10
117.6407305953186
 20
-160.823538337344
 30
0.0
 10
117.405430573676
 20
-160.3956144143824
 30
0.0
 10
117.1701305520334
 20
-159.9673459818723
 30
0.0
 10
117.1916516328928
 20
-159.5037868524852
 30
0.0
 10
117.4534142942315
 20
-159.3598464567421
 30
0.0
 10
117.7151661896467
 20
-159.2162721023943
 30
0.0
 10
118.1180378088765
 20
-159.4473518820674
 30
0.0
 10
118.3533485964425
 20
-159.8749097636337
 30
0.0
 10
118.5882933426131
 20
-160.3031781961438
 30
0.0
 10
118.5667722617537
 20
-160.766737325531
 30
0.0
 10
118.3050203663385
 20
-160.9106561894273
 30
0.0
  0
SPLINE
  5
208
330
1F
100
AcDbEntity
  8
_U+30EC_U+30A4_U+30E4_U+30FC 1
 62
   179
420
  2234388
370
     9
100
AcDbSpline
210
0.0
220
0.0
230
1.0
 70
     8
 71
     3
 72
    11
 73
     7
 74
     0
 42
0.0000000001
 43
0.0000000001
 12
1.0
 22
0.0
 32
0.0
 13
1.0
 23
0.0
 33
0.0
 40
0.0
 40
0.0
 40
0.0
 40
0.0
 40
1.0
 40
1.0
 40
1.0
 40
2.0
 40
2.0
 40
2.0
 40
2.0
 10
123.8581913108595
 20
-162.5629455159999
 30
0.0
 10
123.9566133825037
 20
-162.3509429525763
 30
0.0
 10
123.9234543384582
 20
-162.0165103083457
 30
0.0
 10
123.7498861215419
 20
-161.7014778580664
 30
0.0
 10
123.5241031761774
 20
-161.2904779666761
 30
0.0
 10
123.1445182492432
 20
-161.0622403907783
 30
0.0
 10
122.8827555879045
 20
-161.1719451501367
 30
0.0
  0
SPLINE
  5
209
330
1F
100
AcDbEntity
  8
_U+30EC_U+30A4_U+30E4_U+30FC 1
 62
   179
420
  2234388
370
     9
100
AcDbSpline
210
0.0
220
0.0
230
1.0
 70
    11
 71
     3
 72
    17
 73
    13
 74
     0
 42
0.0000000001
 43
0.0000000001
 12
1.0
 22
0.0
 32
0.0
 13
1.0
 23
0.0
 33
0.0
 40
0.0
 40
0.0
 40
0.0
 40
0.0
 40
1.0
 40
1.0
 40
1.0
 40
2.0
 40
2.0
 40
2.0
 40
3.0
 40
3.0
 40
3.0
 40
4.0
 40
4.0
 40
4.0
 40
4.0
 10
123.8905859743442
 20
-162.5484761149619
 30
0.0
 10
123.6288233130056
 20
-162.6924165107049
 30
0.0
 10
123.2259516937758
 20
-162.4617027724271
 30
0.0
 10
122.9909961816817
 20
-162.033434339917
 30
0.0
 10
122.7556961600392
 20
-161.6055104169554
 30
0.0
 10
122.7768619654267
 20
-161.1419512875682
 30
0.0
 10
123.0386246267653
 20
-160.9980324236719
 30
0.0
 10
123.3003872881039
 20
-160.8544580693242
 30
0.0
 10
123.7032589073337
 20
-161.0848057662067
 30
0.0
 10
123.9382036535044
 20
-161.5127296891683
 30
0.0
 10
124.1735036751469
 20
-161.9409981216784
 30
0.0
 10
124.1519933602109
 20
-162.4049017606141
 30
0.0
 10
123.8905859743442
 20
-162.5484761149619
 30
0.0
  0
SPLINE
  5
20A
330
1F
100
AcDbEntity
  8
_U+30EC_U+30A4_U+30E4_U+30FC 1
 62
   179
420
  2234388
370
     9
100
AcDbSpline
210
0.0
220
0.0
230
1.0
 70
     8
 71
     3
 72
    11
 73
     7
 74
     0
 42
0.0000000001
 43
0.0000000001
 12
1.0
 22
0.0
 32
0.0
 13
1.0
 23
0.0
 33
0.0
 40
0.0
 40
0.0
 40
0.0
 40
0.0
 40
1.0
 40
1.0
 40
1.0
 40
2.0
 40
2.0
 40
2.0
 40
2.0
 10
123.8581913108595
 20
-165.7241866651119
 30
0.0
 10
123.9566133825037
 20
-165.5121841016884
 30
0.0
 10
123.9234543384582
 20
-165.1777514574577
 30
0.0
 10
123.7498861215419
 20
-164.8627190071784
 30
0.0
 10
123.5241031761774
 20
-164.4517191157881
 30
0.0
 10
123.1445182492432
 20
-164.2234815398903
 30
0.0
 10
122.8827555879045
 20
-164.3331862992488
 30
0.0
  0
SPLINE
  5
20B
330
1F
100
AcDbEntity
  8
_U+30EC_U+30A4_U+30E4_U+30FC 1
 62
   179
420
  2234388
370
     9
100
AcDbSpline
210
0.0
220
0.0
230
1.0
 70
    11
 71
     3
 72
    17
 73
    13
 74
     0
 42
0.0000000001
 43
0.0000000001
 12
1.0
 22
0.0
 32
0.0
 13
1.0
 23
0.0
 33
0.0
 40
0.0
 40
0.0
 40
0.0
 40
0.0
 40
1.0
 40
1.0
 40
1.0
 40
2.0
 40
2.0
 40
2.0
 40
3.0
 40
3.0
 40
3.0
 40
4.0
 40
4.0
 40
4.0
 40
4.0
 10
123.8905859743442
 20
-165.7096742003803
 30
0.0
 10
123.6288233130056
 20
-165.8532700865749
 30
0.0
 10
123.2259516937758
 20
-165.6229008578456
 30
0.0
 10
122.9909961816817
 20
-165.1946324253355
 30
0.0
 10
122.7556961600392
 20
-164.7667085023739
 30
0.0
 10
122.7768619654267
 20
-164.3028048634382
 30
0.0
 10
123.0386246267653
 20
-164.1592305090904
 30
0.0
 10
123.3003872881039
 20
-164.0152901133473
 30
0.0
 10
123.7032589073337
 20
-164.2460038516251
 30
0.0
 10
123.9382036535044
 20
-164.6739277745867
 30
0.0
 10
124.1735036751469
 20
-165.1021962070969
 30
0.0
 10
124.1519933602109
 20
-165.565755336484
 30
0.0
 10
123.8905859743442
 20
-165.7096742003803
 30
0.0
  0
SPLINE
  5
20C
330
1F
100
AcDbEntity
  8
_U+30EC_U+30A4_U+30E4_U+30FC 1
 62
   179
420
  2234388
370
     9
100
AcDbSpline
210
0.0
220
0.0
230
1.0
 70
     8
 71
     3
 72
    11
 73
     7
 74
     0
 42
0.0000000001
 43
0.0000000001
 12
1.0
 22
0.0
 32
0.0
 13
1.0
 23
0.0
 33
0.0
 40
0.0
 40
0.0
 40
0.0
 40
0.0
 40
1.0
 40
1.0
 40
1.0
 40
2.0
 40
2.0
 40
2.0
 40
2.0
 10
121.9744023336015
 20
-163.0376796738673
 30
0.0
 10
122.0728244052457
 20
-162.8260216199923
 30
0.0
 10
122.0400098707487
 20
-162.4919334853102
 30
0.0
 10
121.8664416538324
 20
-162.1765565254823
 30
0.0
 10
121.6406694743913
 20
-161.7652121245435
 30
0.0
 10
121.2610845474571
 20
-161.5373190581942
 30
0.0
 10
120.9989666106465
 20
-161.6470453493994
 30
0.0
  0
SPLINE
  5
20D
330
1F
100
AcDbEntity
  8
_U+30EC_U+30A4_U+30E4_U+30FC 1
 62
   179
420
  2234388
370
     9
100
AcDbSpline
210
0.0
220
0.0
230
1.0
 70
    11
 71
     3
 72
    17
 73
    13
 74
     0
 42
0.0000000001
 43
0.0000000001
 12
1.0
 22
0.0
 32
0.0
 13
1.0
 23
0.0
 33
0.0
 40
0.0
 40
0.0
 40
0.0
 40
0.0
 40
1.0
 40
1.0
 40
1.0
 40
2.0
 40
2.0
 40
2.0
 40
3.0
 40
3.0
 40
3.0
 40
4.0
 40
4.0
 40
4.0
 40
4.0
 10
122.0067862311628
 20
-163.023231804676
 30
0.0
 10
121.7453680793727
 20
-163.1671722004191
 30
0.0
 10
121.3421519505944
 20
-162.9364584621413
 30
0.0
 10
121.1071964385003
 20
-162.5085345391797
 30
0.0
 10
120.8718964168578
 20
-162.0802661066696
 30
0.0
 10
120.8937620072657
 20
-161.6167069772825
 30
0.0
 10
121.1551801590558
 20
-161.4727881133861
 30
0.0
 10
121.4165875449225
 20
-161.3292137590384
 30
0.0
 10
121.8198036737009
 20
-161.5599274973162
 30
0.0
 10
122.0547591857949
 20
-161.987829888431
 30
0.0
 10
122.2900592074375
 20
-162.4161198527879
 30
0.0
 10
122.2685381265781
 20
-162.8796574503283
 30
0.0
 10
122.0067862311628
 20
-163.023231804676
 30
0.0
  0
SPLINE
  5
20E
330
1F
100
AcDbEntity
  8
_U+30EC_U+30A4_U+30E4_U+30FC 1
 62
   179
420
  2234388
370
     9
100
AcDbSpline
210
0.0
220
0.0
230
1.0
 70
     8
 71
     3
 72
    11
 73
     7
 74
     0
 42
0.0000000001
 43
0.0000000001
 12
1.0
 22
0.0
 32
0.0
 13
1.0
 23
0.0
 33
0.0
 40
0.0
 40
0.0
 40
0.0
 40
0.0
 40
1.0
 40
1.0
 40
1.0
 40
2.0
 40
2.0
 40
2.0
 40
2.0
 10
115.7298114911142
 20
-151.9169114474809
 30
0.0
 10
115.8278782872865
 20
-152.1501013481387
 30
0.0
 10
116.1732491096828
 20
-152.3222699950141
 30
0.0
 10
116.5852932956421
 20
-152.3222699950141
 30
0.0
 10
116.9973374816014
 20
-152.3222699950141
 30
0.0
 10
117.3423530285257
 20
-152.1501013481387
 30
0.0
 10
117.4411303756419
 20
-151.9169114474809
 30
0.0
  0
SPLINE
  5
20F
330
1F
100
AcDbEntity
  8
_U+30EC_U+30A4_U+30E4_U+30FC 1
 62
   179
420
  2234388
370
     9
100
AcDbSpline
210
0.0
220
0.0
230
1.0
 70
    11
 71
     3
 72
    17
 73
    13
 74
     0
 42
0.0000000001
 43
0.0000000001
 12
1.0
 22
0.0
 32
0.0
 13
1.0
 23
0.0
 33
0.0
 40
0.0
 40
0.0
 40
0.0
 40
0.0
 40
1.0
 40
1.0
 40
1.0
 40
2.0
 40
2.0
 40
2.0
 40
3.0
 40
3.0
 40
3.0
 40
4.0
 40
4.0
 40
4.0
 40
4.0
 10
117.4699507525607
 20
-152.0523037000512
 30
0.0
 10
117.4699507525607
 20
-152.3507566283077
 30
0.0
 10
117.0737755376803
 20
-152.5924085447512
 30
0.0
 10
116.5851748704848
 20
-152.5924085447512
 30
0.0
 10
116.0965849692126
 20
-152.5924085447512
 30
0.0
 10
115.7004097543323
 20
-152.3507566283077
 30
0.0
 10
115.7004097543323
 20
-152.0523037000512
 30
0.0
 10
115.7004097543323
 20
-151.7535062622461
 30
0.0
 10
116.0965849692126
 20
-151.5115098362541
 30
0.0
 10
116.5851748704848
 20
-151.5115098362541
 30
0.0
 10
117.0737755376803
 20
-151.5115098362541
 30
0.0
 10
117.4699507525607
 20
-151.7535062622461
 30
0.0
 10
117.4699507525607
 20
-152.0523037000512
 30
0.0
  0
SPLINE
  5
210
330
1F
100
AcDbEntity
  8
_U+30EC_U+30A4_U+30E4_U+30FC 1
 62
   179
420
  2234388
370
     9
100
AcDbSpline
210
0.0
220
0.0
230
1.0
 70
     8
 71
     3
 72
    11
 73
     7
 74
     0
 42
0.0000000001
 43
0.0000000001
 12
1.0
 22
0.0
 32
0.0
 13
1.0
 23
0.0
 33
0.0
 40
0.0
 40
0.0
 40
0.0
 40
0.0
 40
1.0
 40
1.0
 40
1.0
 40
2.0
 40
2.0
 40
2.0
 40
2.0
 10
119.545986823819
 20
-152.4085050413792
 30
0.0
 10
119.6444088954633
 20
-152.6413504324885
 30
0.0
 10
119.9897797178595
 20
-152.8134975475171
 30
0.0
 10
120.4018239038188
 20
-152.8134975475171
 30
0.0
 10
120.8138680897781
 20
-152.8134975475171
 30
0.0
 10
121.1588836367025
 20
-152.6413504324885
 30
0.0
 10
121.2573057083467
 20
-152.4085050413792
 30
0.0
  0
SPLINE
  5
211
330
1F
100
AcDbEntity
  8
_U+30EC_U+30A4_U+30E4_U+30FC 1
 62
   179
420
  2234388
370
     9
100
AcDbSpline
210
0.0
220
0.0
230
1.0
 70
    11
 71
     3
 72
    17
 73
    13
 74
     0
 42
0.0000000001
 43
0.0000000001
 12
1.0
 22
0.0
 32
0.0
 13
1.0
 23
0.0
 33
0.0
 40
0.0
 40
0.0
 40
0.0
 40
0.0
 40
1.0
 40
1.0
 40
1.0
 40
2.0
 40
2.0
 40
2.0
 40
3.0
 40
3.0
 40
3.0
 40
4.0
 40
4.0
 40
4.0
 40
4.0
 10
121.2860614897251
 20
-152.5435958480946
 30
0.0
 10
121.2860614897251
 20
-152.8420487763511
 30
0.0
 10
120.8902415503167
 20
-153.0840667341899
 30
0.0
 10
120.4016408831212
 20
-153.0840667341899
 30
0.0
 10
119.9130402159256
 20
-153.0840667341899
 30
0.0
 10
119.5168757669687
 20
-152.8420487763511
 30
0.0
 10
119.5168757669687
 20
-152.5435958480946
 30
0.0
 10
119.5168757669687
 20
-152.2447984102895
 30
0.0
 10
119.9130402159256
 20
-152.0028019842975
 30
0.0
 10
120.4016408831212
 20
-152.0028019842975
 30
0.0
 10
120.8902415503167
 20
-152.0028019842975
 30
0.0
 10
121.2860614897251
 20
-152.2447984102895
 30
0.0
 10
121.2860614897251
 20
-152.5435958480946
 30
0.0
  0
SPLINE
  5
212
330
1F
100
AcDbEntity
  8
_U+30EC_U+30A4_U+30E4_U+30FC 1
 62
   179
420
  2234388
370
     9
100
AcDbSpline
210
0.0
220
0.0
230
1.0
 70
     8
 71
     3
 72
    11
 73
     7
 74
     0
 42
0.0000000001
 43
0.0000000001
 12
1.0
 22
0.0
 32
0.0
 13
1.0
 23
0.0
 33
0.0
 40
0.0
 40
0.0
 40
0.0
 40
0.0
 40
1.0
 40
1.0
 40
1.0
 40
2.0
 40
2.0
 40
2.0
 40
2.0
 10
128.226895363858
 20
-157.4859082993872
 30
0.0
 10
128.3253174355022
 20
-157.7187536904965
 30
0.0
 10
128.6706882578985
 20
-157.8909008055251
 30
0.0
 10
129.0827324438578
 20
-157.8909008055251
 30
0.0
 10
129.4947766298171
 20
-157.8909008055251
 30
0.0
 10
129.8397921767414
 20
-157.7187536904965
 30
0.0
 10
129.9385695238576
 20
-157.4859082993872
 30
0.0
  0
SPLINE
  5
213
330
1F
100
AcDbEntity
  8
_U+30EC_U+30A4_U+30E4_U+30FC 1
 62
   179
420
  2234388
370
     9
100
AcDbSpline
210
0.0
220
0.0
230
1.0
 70
    11
 71
     3
 72
    17
 73
    13
 74
     0
 42
0.0000000001
 43
0.0000000001
 12
1.0
 22
0.0
 32
0.0
 13
1.0
 23
0.0
 33
0.0
 40
0.0
 40
0.0
 40
0.0
 40
0.0
 40
1.0
 40
1.0
 40
1.0
 40
2.0
 40
2.0
 40
2.0
 40
3.0
 40
3.0
 40
3.0
 40
4.0
 40
4.0
 40
4.0
 40
4.0
 10
129.9670346253045
 20
-157.6209345105622
 30
0.0
 10
129.9670346253045
 20
-157.9197534802141
 30
0.0
 10
129.5712146858961
 20
-158.1614053966576
 30
0.0
 10
129.0826140187005
 20
-158.1614053966576
 30
0.0
 10
128.5940133515049
 20
-158.1614053966576
 30
0.0
 10
128.1982041780199
 20
-157.9197534802141
 30
0.0
 10
128.1982041780199
 20
-157.6209345105622
 30
0.0
 10
128.1982041780199
 20
-157.3225031141525
 30
0.0
 10
128.5940133515049
 20
-157.080851197709
 30
0.0
 10
129.0826140187005
 20
-157.080851197709
 30
0.0
 10
129.5712146858961
 20
-157.080851197709
 30
0.0
 10
129.9670346253045
 20
-157.3225031141525
 30
0.0
 10
129.9670346253045
 20
-157.6209345105622
 30
0.0
  0
SPLINE
  5
214
330
1F
100
AcDbEntity
  8
_U+30EC_U+30A4_U+30E4_U+30FC 1
 62
   179
420
  2234388
370
     9
100
AcDbSpline
210
0.0
220
0.0
230
1.0
 70
     8
 71
     3
 72
    11
 73
     7
 74
     0
 42
0.0000000001
 43
0.0000000001
 12
1.0
 22
0.0
 32
0.0
 13
1.0
 23
0.0
 33
0.0
 40
0.0
 40
0.0
 40
0.0
 40
0.0
 40
1.0
 40
1.0
 40
1.0
 40
2.0
 40
2.0
 40
2.0
 40
2.0
 10
118.7273998387535
 20
-150.1726811351456
 30
0.0
 10
118.8254666349258
 20
-150.405526526255
 30
0.0
 10
119.1708374573221
 20
-150.5780396826788
 30
0.0
 10
119.5825263678095
 20
-150.5780396826788
 30
0.0
 10
119.9945705537687
 20
-150.5780396826788
 30
0.0
 10
120.3395861006931
 20
-150.405526526255
 30
0.0
 10
120.4383634478093
 20
-150.1726811351456
 30
0.0
  0
SPLINE
  5
215
330
1F
100
AcDbEntity
  8
_U+30EC_U+30A4_U+30E4_U+30FC 1
 62
   179
420
  2234388
370
     9
100
AcDbSpline
210
0.0
220
0.0
230
1.0
 70
    11
 71
     3
 72
    17
 73
    13
 74
     0
 42
0.0000000001
 43
0.0000000001
 12
1.0
 22
0.0
 32
0.0
 13
1.0
 23
0.0
 33
0.0
 40
0.0
 40
0.0
 40
0.0
 40
0.0
 40
1.0
 40
1.0
 40
1.0
 40
2.0
 40
2.0
 40
2.0
 40
3.0
 40
3.0
 40
3.0
 40
4.0
 40
4.0
 40
4.0
 40
4.0
 10
120.4671945906514
 20
-150.3077288781674
 30
0.0
 10
120.4671945906514
 20
-150.606181806424
 30
0.0
 10
120.071374651243
 20
-150.8481997642628
 30
0.0
 10
119.5824187085755
 20
-150.8481997642628
 30
0.0
 10
119.0941733168519
 20
-150.8481997642628
 30
0.0
 10
118.6983641433669
 20
-150.606181806424
 30
0.0
 10
118.6983641433669
 20
-150.3077288781674
 30
0.0
 10
118.6983641433669
 20
-150.0092974817577
 30
0.0
 10
119.0941733168519
 20
-149.7672795239189
 30
0.0
 10
119.5824187085755
 20
-149.7672795239189
 30
0.0
 10
120.071374651243
 20
-149.7672795239189
 30
0.0
 10
120.4671945906514
 20
-150.0092974817577
 30
0.0
 10
120.4671945906514
 20
-150.3077288781674
 30
0.0
  0
SPLINE
  5
216
330
1F
100
AcDbEntity
  8
_U+30EC_U+30A4_U+30E4_U+30FC 1
 62
   179
420
  2234388
370
     9
100
AcDbSpline
210
0.0
220
0.0
230
1.0
 70
     8
 71
     3
 72
    11
 73
     7
 74
     0
 42
0.0000000001
 43
0.0000000001
 12
1.0
 22
0.0
 32
0.0
 13
1.0
 23
0.0
 33
0.0
 40
0.0
 40
0.0
 40
0.0
 40
0.0
 40
1.0
 40
1.0
 40
1.0
 40
2.0
 40
2.0
 40
2.0
 40
2.0
 10
120.250519616476
 20
-154.5868819803962
 30
0.0
 10
120.3485864126483
 20
-154.8197273715056
 30
0.0
 10
120.6939572350446
 20
-154.9922405279295
 30
0.0
 10
121.1060014210039
 20
-154.9922405279295
 30
0.0
 10
121.5180456069632
 20
-154.9922405279295
 30
0.0
 10
121.8630611538875
 20
-154.8197273715056
 30
0.0
 10
121.9614832255318
 20
-154.5868819803962
 30
0.0
  0
SPLINE
  5
217
330
1F
100
AcDbEntity
  8
_U+30EC_U+30A4_U+30E4_U+30FC 1
 62
   179
420
  2234388
370
     9
100
AcDbSpline
210
0.0
220
0.0
230
1.0
 70
    11
 71
     3
 72
    17
 73
    13
 74
     0
 42
0.0000000001
 43
0.0000000001
 12
1.0
 22
0.0
 32
0.0
 13
1.0
 23
0.0
 33
0.0
 40
0.0
 40
0.0
 40
0.0
 40
0.0
 40
1.0
 40
1.0
 40
1.0
 40
2.0
 40
2.0
 40
2.0
 40
3.0
 40
3.0
 40
3.0
 40
4.0
 40
4.0
 40
4.0
 40
4.0
 10
121.9902713046804
 20
-154.721929723418
 30
0.0
 10
121.9902713046804
 20
-155.0207486930699
 30
0.0
 10
121.594451365272
 20
-155.2624006095134
 30
0.0
 10
121.1058506980764
 20
-155.2624006095134
 30
0.0
 10
120.6172500308809
 20
-155.2624006095134
 30
0.0
 10
120.2210855819239
 20
-155.0207486930699
 30
0.0
 10
120.2210855819239
 20
-154.721929723418
 30
0.0
 10
120.2210855819239
 20
-154.423132285613
 30
0.0
 10
120.6172500308809
 20
-154.1814803691695
 30
0.0
 10
121.1058506980764
 20
-154.1814803691695
 30
0.0
 10
121.594451365272
 20
-154.1814803691695
 30
0.0
 10
121.9902713046804
 20
-154.423132285613
 30
0.0
 10
121.9902713046804
 20
-154.721929723418
 30
0.0
  0
SPLINE
  5
218
330
1F
100
AcDbEntity
  8
_U+30EC_U+30A4_U+30E4_U+30FC 1
 62
   179
420
  2234388
370
     9
100
AcDbSpline
210
0.0
220
0.0
230
1.0
 70
     8
 71
     3
 72
    11
 73
     7
 74
     0
 42
0.0000000001
 43
0.0000000001
 12
1.0
 22
0.0
 32
0.0
 13
1.0
 23
0.0
 33
0.0
 40
0.0
 40
0.0
 40
0.0
 40
0.0
 40
1.0
 40
1.0
 40
1.0
 40
2.0
 40
2.0
 40
2.0
 40
2.0
 10
123.2477096249498
 20
-152.8426301362143
 30
0.0
 10
123.3457764211221
 20
-153.0754755273236
 30
0.0
 10
123.6911472435184
 20
-153.2476226423522
 30
0.0
 10
124.1035467049496
 20
-153.2476226423522
 30
0.0
 10
124.5155908909089
 20
-153.2476226423522
 30
0.0
 10
124.8606064378333
 20
-153.0754755273236
 30
0.0
 10
124.9590285094775
 20
-152.8426301362143
 30
0.0
  0
SPLINE
  5
219
330
1F
100
AcDbEntity
  8
_U+30EC_U+30A4_U+30E4_U+30FC 1
 62
   179
420
  2234388
370
     9
100
AcDbSpline
210
0.0
220
0.0
230
1.0
 70
    11
 71
     3
 72
    17
 73
    13
 74
     0
 42
0.0000000001
 43
0.0000000001
 12
1.0
 22
0.0
 32
0.0
 13
1.0
 23
0.0
 33
0.0
 40
0.0
 40
0.0
 40
0.0
 40
0.0
 40
1.0
 40
1.0
 40
1.0
 40
2.0
 40
2.0
 40
2.0
 40
3.0
 40
3.0
 40
3.0
 40
4.0
 40
4.0
 40
4.0
 40
4.0
 10
124.9878596523197
 20
-152.9776778792361
 30
0.0
 10
124.9878596523197
 20
-153.2761308074926
 30
0.0
 10
124.5916844374393
 20
-153.5177827239361
 30
0.0
 10
124.1034390457157
 20
-153.5177827239361
 30
0.0
 10
123.6148383785201
 20
-153.5177827239361
 30
0.0
 10
123.2190292050351
 20
-153.2761308074926
 30
0.0
 10
123.2190292050351
 20
-152.9776778792361
 30
0.0
 10
123.2190292050351
 20
-152.678880441431
 30
0.0
 10
123.6148383785201
 20
-152.4372285249875
 30
0.0
 10
124.1034390457157
 20
-152.4372285249875
 30
0.0
 10
124.5916844374393
 20
-152.4372285249875
 30
0.0
 10
124.9878596523197
 20
-152.678880441431
 30
0.0
 10
124.9878596523197
 20
-152.9776778792361
 30
0.0
  0
SPLINE
  5
21A
330
1F
100
AcDbEntity
  8
_U+30EC_U+30A4_U+30E4_U+30FC 1
 62
   179
420
  2234388
370
     9
100
AcDbSpline
210
0.0
220
0.0
230
1.0
 70
     8
 71
     3
 72
    11
 73
     7
 74
     0
 42
0.0000000001
 43
0.0000000001
 12
1.0
 22
0.0
 32
0.0
 13
1.0
 23
0.0
 33
0.0
 40
0.0
 40
0.0
 40
0.0
 40
0.0
 40
1.0
 40
1.0
 40
1.0
 40
2.0
 40
2.0
 40
2.0
 40
2.0
 10
123.919158735025
 20
-155.0047720627571
 30
0.0
 10
124.0175808066692
 20
-155.2376174538664
 30
0.0
 10
124.3629516290655
 20
-155.409764568895
 30
0.0
 10
124.7749958150248
 20
-155.409764568895
 30
0.0
 10
125.1870400009841
 20
-155.409764568895
 30
0.0
 10
125.5320555479084
 20
-155.2376174538664
 30
0.0
 10
125.6304776195527
 20
-155.0047720627571
 30
0.0
  0
SPLINE
  5
21B
330
1F
100
AcDbEntity
  8
_U+30EC_U+30A4_U+30E4_U+30FC 1
 62
   179
420
  2234388
370
     9
100
AcDbSpline
210
0.0
220
0.0
230
1.0
 70
    11
 71
     3
 72
    17
 73
    13
 74
     0
 42
0.0000000001
 43
0.0000000001
 12
1.0
 22
0.0
 32
0.0
 13
1.0
 23
0.0
 33
0.0
 40
0.0
 40
0.0
 40
0.0
 40
0.0
 40
1.0
 40
1.0
 40
1.0
 40
2.0
 40
2.0
 40
2.0
 40
3.0
 40
3.0
 40
3.0
 40
4.0
 40
4.0
 40
4.0
 40
4.0
 10
125.6592979964715
 20
-155.1397767420853
 30
0.0
 10
125.6592979964715
 20
-155.4382296703418
 30
0.0
 10
125.263478057063
 20
-155.6798815867853
 30
0.0
 10
124.7748773898675
 20
-155.6798815867853
 30
0.0
 10
124.2862767226719
 20
-155.6798815867853
 30
0.0
 10
123.8904675491869
 20
-155.4382296703418
 30
0.0
 10
123.8904675491869
 20
-155.1397767420853
 30
0.0
 10
123.8904675491869
 20
-154.8409793042802
 30
0.0
 10
124.2862767226719
 20
-154.5989828782882
 30
0.0
 10
124.7748773898675
 20
-154.5989828782882
 30
0.0
 10
125.263478057063
 20
-154.5989828782882
 30
0.0
 10
125.6592979964715
 20
-154.8409793042802
 30
0.0
 10
125.6592979964715
 20
-155.1397767420853
 30
0.0
  0
SPLINE
  5
21C
330
1F
100
AcDbEntity
  8
_U+30EC_U+30A4_U+30E4_U+30FC 1
 62
   179
420
  2234388
370
     9
100
AcDbSpline
210
0.0
220
0.0
230
1.0
 70
     8
 71
     3
 72
    11
 73
     7
 74
     0
 42
0.0000000001
 43
0.0000000001
 12
1.0
 22
0.0
 32
0.0
 13
1.0
 23
0.0
 33
0.0
 40
0.0
 40
0.0
 40
0.0
 40
0.0
 40
1.0
 40
1.0
 40
1.0
 40
2.0
 40
2.0
 40
2.0
 40
2.0
 10
124.623691527682
 20
-157.182761428532
 30
0.0
 10
124.7217583238543
 20
-157.4156068196413
 30
0.0
 10
125.0671291462506
 20
-157.5881199760652
 30
0.0
 10
125.4791733322099
 20
-157.5881199760652
 30
0.0
 10
125.8912175181691
 20
-157.5881199760652
 30
0.0
 10
126.2362330650935
 20
-157.4156068196413
 30
0.0
 10
126.3346551367377
 20
-157.182761428532
 30
0.0
  0
SPLINE
  5
21D
330
1F
100
AcDbEntity
  8
_U+30EC_U+30A4_U+30E4_U+30FC 1
 62
   179
420
  2234388
370
     9
100
AcDbSpline
210
0.0
220
0.0
230
1.0
 70
    11
 71
     3
 72
    17
 73
    13
 74
     0
 42
0.0000000001
 43
0.0000000001
 12
1.0
 22
0.0
 32
0.0
 13
1.0
 23
0.0
 33
0.0
 40
0.0
 40
0.0
 40
0.0
 40
0.0
 40
1.0
 40
1.0
 40
1.0
 40
2.0
 40
2.0
 40
2.0
 40
3.0
 40
3.0
 40
3.0
 40
4.0
 40
4.0
 40
4.0
 40
4.0
 10
126.3634432158864
 20
-157.3178091715538
 30
0.0
 10
126.3634432158864
 20
-157.6166281412057
 30
0.0
 10
125.9676232764779
 20
-157.8586245671977
 30
0.0
 10
125.4790226092824
 20
-157.8586245671977
 30
0.0
 10
124.9907772175587
 20
-157.8586245671977
 30
0.0
 10
124.5946127686018
 20
-157.6166281412057
 30
0.0
 10
124.5946127686018
 20
-157.3178091715538
 30
0.0
 10
124.5946127686018
 20
-157.019377775144
 30
0.0
 10
124.9907772175587
 20
-156.7777258587005
 30
0.0
 10
125.4790226092824
 20
-156.7777258587005
 30
0.0
 10
125.9676232764779
 20
-156.7777258587005
 30
0.0
 10
126.3634432158864
 20
-157.019377775144
 30
0.0
 10
126.3634432158864
 20
-157.3178091715538
 30
0.0
  0
SPLINE
  5
21E
330
1F
100
AcDbEntity
  8
_U+30EC_U+30A4_U+30E4_U+30FC 1
 62
   179
420
  2234388
370
     9
100
AcDbSpline
210
0.0
220
0.0
230
1.0
 70
     8
 71
     3
 72
    11
 73
     7
 74
     0
 42
0.0000000001
 43
0.0000000001
 12
1.0
 22
0.0
 32
0.0
 13
1.0
 23
0.0
 33
0.0
 40
0.0
 40
0.0
 40
0.0
 40
0.0
 40
1.0
 40
1.0
 40
1.0
 40
2.0
 40
2.0
 40
2.0
 40
2.0
 10
127.6209568976195
 20
-155.4388325620517
 30
0.0
 10
127.7193789692637
 20
-155.6716779531611
 30
0.0
 10
128.0643945161881
 20
-155.8438250681897
 30
0.0
 10
128.4767939776193
 20
-155.8438250681897
 30
0.0
 10
128.8888381635786
 20
-155.8438250681897
 30
0.0
 10
129.233853710503
 20
-155.6716779531611
 30
0.0
 10
129.3322757821472
 20
-155.4388325620517
 30
0.0
  0
SPLINE
  5
21F
330
1F
100
AcDbEntity
  8
_U+30EC_U+30A4_U+30E4_U+30FC 1
 62
   179
420
  2234388
370
     9
100
AcDbSpline
210
0.0
220
0.0
230
1.0
 70
    11
 71
     3
 72
    17
 73
    13
 74
     0
 42
0.0000000001
 43
0.0000000001
 12
1.0
 22
0.0
 32
0.0
 13
1.0
 23
0.0
 33
0.0
 40
0.0
 40
0.0
 40
0.0
 40
0.0
 40
1.0
 40
1.0
 40
1.0
 40
2.0
 40
2.0
 40
2.0
 40
3.0
 40
3.0
 40
3.0
 40
4.0
 40
4.0
 40
4.0
 40
4.0
 10
129.3610315635256
 20
-155.57383724138
 30
0.0
 10
129.3610315635256
 20
-155.8722901696365
 30
0.0
 10
128.9648563486453
 20
-156.11394208608
 30
0.0
 10
128.4766109569217
 20
-156.11394208608
 30
0.0
 10
127.9880102897261
 20
-156.11394208608
 30
0.0
 10
127.5922011162411
 20
-155.8722901696365
 30
0.0
 10
127.5922011162411
 20
-155.57383724138
 30
0.0
 10
127.5922011162411
 20
-155.2750398035749
 30
0.0
 10
127.9880102897261
 20
-155.0330433775829
 30
0.0
 10
128.4766109569217
 20
-155.0330433775829
 30
0.0
 10
128.9648563486453
 20
-155.0330433775829
 30
0.0
 10
129.3610315635256
 20
-155.2750398035749
 30
0.0
 10
129.3610315635256
 20
-155.57383724138
 30
0.0
  0
ENDSEC
  0
SECTION
  2
OBJECTS
  0
DICTIONARY
  5
C
330
0
100
AcDbDictionary
281
     1
  3
ACAD_GROUP
350
D
  3
ACAD_LAYOUT
350
1A
  3
ACAD_MATERIAL
350
3B
  3
ACAD_MLEADERSTYLE
350
221
  3
ACAD_MLINESTYLE
350
17
  3
ACAD_PLOTSETTINGS
350
19
  3
ACAD_PLOTSTYLENAME
350
E
  3
ACAD_TABLESTYLE
350
220
  3
ACAD_VISUALSTYLE
350
2A
  0
SUN
  5
3F
330
29
100
AcDbSun
 90
        1
290
     0
 63
     7
421
 16777215
 40
1.0
291
     1
 91
  2455826
 92
 54000000
292
     0
 70
     2
 71
   256
280
     1
  0
DICTIONARY
  5
D
102
{ACAD_REACTORS
330
C
102
}
330
C
100
AcDbDictionary
281
     1
  0
DICTIONARY
  5
1A
102
{ACAD_REACTORS
330
C
102
}
330
C
100
AcDbDictionary
281
     1
  3
Layout1
350
1E
  3
Layout2
350
26
  3
Model
350
22
  0
DICTIONARY
  5
3B
102
{ACAD_REACTORS
330
C
102
}
330
C
100
AcDbDictionary
281
     1
  3
ByBlock
350
3D
  3
ByLayer
350
3C
  3
Global
350
3E
  0
DICTIONARY
  5
221
102
{ACAD_REACTORS
330
C
102
}
330
C
100
AcDbDictionary
281
     1
  0
DICTIONARY
  5
17
102
{ACAD_REACTORS
330
C
102
}
330
C
100
AcDbDictionary
281
     1
  3
Standard
350
18
  0
DICTIONARY
  5
19
102
{ACAD_REACTORS
330
C
102
}
330
C
100
AcDbDictionary
281
     1
  0
ACDBDICTIONARYWDFLT
  5
E
102
{ACAD_REACTORS
330
C
102
}
330
C
100
AcDbDictionary
281
     1
  3
Normal
350
F
100
AcDbDictionaryWithDefault
340
F
  0
DICTIONARY
  5
220
102
{ACAD_REACTORS
330
C
102
}
330
C
100
AcDbDictionary
281
     1
  0
DICTIONARY
  5
2A
102
{ACAD_REACTORS
330
C
102
}
330
C
100
AcDbDictionary
281
     1
  3
2dWireframe
350
2F
  3
3D Hidden
350
31
  3
3dWireframe
350
30
  3
Basic
350
32
  3
Brighten
350
36
  3
ColorChange
350
3A
  3
Conceptual
350
34
  3
Dim
350
35
  3
Facepattern
350
39
  3
Flat
350
2B
  3
FlatWithEdges
350
2C
  3
Gouraud
350
2D
  3
GouraudWithEdges
350
2E
  3
Linepattern
350
38
  3
Realistic
350
33
  3
Thicken
350
37
  0
LAYOUT
  5
1E
102
{ACAD_REACTORS
330
1A
102
}
330
1A
100
AcDbPlotSettings
  1

  2
none_device
  4

  6

 40
0.0
 41
0.0
 42
0.0
 43
0.0
 44
0.0
 45
0.0
 46
0.0
 47
0.0
 48
0.0
 49
0.0
140
0.0
141
0.0
142
1.0
143
1.0
 70
   688
 72
     0
 73
     0
 74
     5
  7

 75
    16
 76
     0
 77
     2
 78
   300
147
1.0
148
0.0
149
0.0
100
AcDbLayout
  1
Layout1
 70
     1
 71
     1
 10
0.0
 20
0.0
 11
12.0
 21
9.0
 12
0.0
 22
0.0
 32
0.0
 14
1.000000000000000E+20
 24
1.000000000000000E+20
 34
1.000000000000000E+20
 15
-1.000000000000000E+20
 25
-1.000000000000000E+20
 35
-1.000000000000000E+20
146
0.0
 13
0.0
 23
0.0
 33
0.0
 16
1.0
 26
0.0
 36
0.0
 17
0.0
 27
1.0
 37
0.0
 76
     0
330
1B
  0
LAYOUT
  5
26
102
{ACAD_REACTORS
330
1A
102
}
330
1A
100
AcDbPlotSettings
  1

  2
none_device
  4

  6

 40
0.0
 41
0.0
 42
0.0
 43
0.0
 44
0.0
 45
0.0
 46
0.0
 47
0.0
 48
0.0
 49
0.0
140
0.0
141
0.0
142
1.0
143
1.0
 70
   688
 72
     0
 73
     0
 74
     5
  7

 75
    16
 76
     0
 77
     2
 78
   300
147
1.0
148
0.0
149
0.0
100
AcDbLayout
  1
Layout2
 70
     1
 71
     2
 10
0.0
 20
0.0
 11
0.0
 21
0.0
 12
0.0
 22
0.0
 32
0.0
 14
0.0
 24
0.0
 34
0.0
 15
0.0
 25
0.0
 35
0.0
146
0.0
 13
0.0
 23
0.0
 33
0.0
 16
1.0
 26
0.0
 36
0.0
 17
0.0
 27
1.0
 37
0.0
 76
     0
330
23
  0
LAYOUT
  5
22
102
{ACAD_REACTORS
330
1A
102
}
330
1A
100
AcDbPlotSettings
  1

  2
none_device
  4

  6

 40
0.0
 41
0.0
 42
0.0
 43
0.0
 44
0.0
 45
0.0
 46
0.0
 47
0.0
 48
0.0
 49
0.0
140
0.0
141
0.0
142
1.0
143
1.0
 70
  1712
 72
     0
 73
     0
 74
     0
  7

 75
     0
 76
     0
 77
     2
 78
   300
147
1.0
148
0.0
149
0.0
100
AcDbLayout
  1
Model
 70
     1
 71
     0
 10
0.0
 20
0.0
 11
12.0
 21
9.0
 12
0.0
 22
0.0
 32
0.0
 14
1.000000000000000E+20
 24
1.000000000000000E+20
 34
1.000000000000000E+20
 15
-1.000000000000000E+20
 25
-1.000000000000000E+20
 35
-1.000000000000000E+20
146
0.0
 13
0.0
 23
0.0
 33
0.0
 16
1.0
 26
0.0
 36
0.0
 17
0.0
 27
1.0
 37
0.0
 76
     0
330
1F
331
29
  0
MATERIAL
  5
3D
102
{ACAD_REACTORS
330
3B
102
}
330
3B
100
AcDbMaterial
  1
ByBlock
 72
     1
 94
      127
  0
MATERIAL
  5
3C
102
{ACAD_REACTORS
330
3B
102
}
330
3B
100
AcDbMaterial
  1
ByLayer
 72
     1
 94
      127
  0
MATERIAL
  5
3E
102
{ACAD_REACTORS
330
3B
102
}
330
3B
100
AcDbMaterial
  1
Global
 72
     1
 94
      127
  0
MLINESTYLE
  5
18
102
{ACAD_REACTORS
330
17
102
}
330
17
100
AcDbMlineStyle
  2
Standard
 70
     0
  3

 62
   256
 51
90.0
 52
90.0
 71
     2
 49
0.5
 62
   256
  6
BYLAYER
 49
-0.5
 62
   256
  6
BYLAYER
  0
ACDBPLACEHOLDER
  5
F
102
{ACAD_REACTORS
330
E
102
}
330
E
  0
VISUALSTYLE
  5
2F
102
{ACAD_REACTORS
330
2A
102
}
330
2A
100
AcDbVisualStyle
  2
2dWireframe
 70
     4
177
     2
291
     0
 71
     0
176
     1
 72
     2
176
     1
 73
     0
176
     1
 90
        0
176
     1
 40
-0.6
176
     1
 41
-30.0
176
     1
 62
     5
 63
     7
421
 16777215
176
     1
 74
     1
176
     1
 91
        4
176
     1
 64
     7
176
     1
 65
   257
176
     1
 75
     1
176
     1
175
     1
176
     1
 42
1.0
176
     1
 92
        0
176
     1
 66
   257
176
     1
 43
1.0
176
     1
 76
     1
176
     1
 77
     6
176
     1
 78
     2
176
     1
 67
     7
176
     1
 79
     5
176
     1
170
     0
176
     1
171
     0
176
     1
290
     0
176
     1
 93
        1
176
     1
 44
0.0
176
     1
173
     0
176
     1
  0
VISUALSTYLE
  5
31
102
{ACAD_REACTORS
330
2A
102
}
330
2A
100
AcDbVisualStyle
  2
3D Hidden
 70
     6
177
     2
291
     0
 71
     1
176
     1
 72
     2
176
     1
 73
     2
176
     1
 90
        0
176
     1
 40
-0.6
176
     1
 41
-30.0
176
     1
 62
     5
 63
     7
421
 16777215
176
     1
 74
     2
176
     1
 91
        2
176
     1
 64
     7
176
     1
 65
   257
176
     1
 75
     2
176
     1
175
     1
176
     1
 42
40.0
176
     1
 92
        0
176
     1
 66
   257
176
     1
 43
1.0
176
     1
 76
     1
176
     1
 77
     6
176
     1
 78
     2
176
     1
 67
     7
176
     1
 79
     3
176
     1
170
     0
176
     1
171
     0
176
     1
290
     0
176
     1
 93
        1
176
     1
 44
0.0
176
     1
173
     0
176
     1
  0
VISUALSTYLE
  5
30
102
{ACAD_REACTORS
330
2A
102
}
330
2A
100
AcDbVisualStyle
  2
3dWireframe
 70
     5
177
     2
291
     0
 71
     0
176
     1
 72
     2
176
     1
 73
     0
176
     1
 90
        0
176
     1
 40
-0.6
176
     1
 41
-30.0
176
     1
 62
     5
 63
     7
421
 16777215
176
     1
 74
     1
176
     1
 91
        4
176
     1
 64
     7
176
     1
 65
   257
176
     1
 75
     1
176
     1
175
     1
176
     1
 42
1.0
176
     1
 92
        0
176
     1
 66
   257
176
     1
 43
1.0
176
     1
 76
     1
176
     1
 77
     6
176
     1
 78
     2
176
     1
 67
     7
176
     1
 79
     5
176
     1
170
     0
176
     1
171
     0
176
     1
290
     0
176
     1
 93
        1
176
     1
 44
0.0
176
     1
173
     0
176
     1
  0
VISUALSTYLE
  5
32
102
{ACAD_REACTORS
330
2A
102
}
330
2A
100
AcDbVisualStyle
  2
Basic
 70
     7
177
     2
291
     1
 71
     1
176
     1
 72
     0
176
     1
 73
     1
176
     1
 90
        0
176
     1
 40
-0.6
176
     1
 41
-30.0
176
     1
 62
     5
 63
     7
421
 16777215
176
     1
 74
     0
176
     1
 91
        4
176
     1
 64
     7
176
     1
 65
   257
176
     1
 75
     1
176
     1
175
     1
176
     1
 42
1.0
176
     1
 92
        8
176
     1
 66
     7
176
     1
 43
1.0
176
     1
 76
     1
176
     1
 77
     6
176
     1
 78
     2
176
     1
 67
     7
176
     1
 79
     5
176
     1
170
     0
176
     1
171
     0
176
     1
290
     0
176
     1
 93
        1
176
     1
 44
0.0
176
     1
173
     0
176
     1
  0
VISUALSTYLE
  5
36
102
{ACAD_REACTORS
330
2A
102
}
330
2A
100
AcDbVisualStyle
  2
Brighten
 70
    12
177
     2
291
     1
 71
     2
176
     1
 72
     2
176
     1
 73
     0
176
     1
 90
        0
176
     1
 40
-0.6
176
     1
 41
-30.0
176
     1
 62
     5
 63
     7
421
 16777215
176
     1
 74
     1
176
     1
 91
        4
176
     1
 64
     7
176
     1
 65
   257
176
     1
 75
     1
176
     1
175
     1
176
     1
 42
1.0
176
     1
 92
        8
176
     1
 66
     7
176
     1
 43
1.0
176
     1
 76
     1
176
     1
 77
     6
176
     1
 78
     2
176
     1
 67
     7
176
     1
 79
     5
176
     1
170
     0
176
     1
171
     0
176
     1
290
     0
176
     1
 93
        1
176
     1
 44
50.0
176
     1
173
     0
176
     1
  0
VISUALSTYLE
  5
3A
102
{ACAD_REACTORS
330
2A
102
}
330
2A
100
AcDbVisualStyle
  2
ColorChange
 70
    16
177
     2
291
     1
 71
     2
176
     1
 72
     2
176
     1
 73
     3
176
     1
 90
        0
176
     1
 40
-0.6
176
     1
 41
-30.0
176
     1
 62
     5
 63
     8
421
  8421504
176
     1
 74
     1
176
     1
 91
        4
176
     1
 64
     7
176
     1
 65
   257
176
     1
 75
     1
176
     1
175
     1
176
     1
 42
1.0
176
     1
 92
        8
176
     1
 66
     8
424
  8421504
176
     1
 43
1.0
176
     1
 76
     1
176
     1
 77
     6
176
     1
 78
     2
176
     1
 67
     7
176
     1
 79
     5
176
     1
170
     0
176
     1
171
     0
176
     1
290
     0
176
     1
 93
        1
176
     1
 44
0.0
176
     1
173
     0
176
     1
  0
VISUALSTYLE
  5
34
102
{ACAD_REACTORS
330
2A
102
}
330
2A
100
AcDbVisualStyle
  2
Conceptual
 70
     9
177
     2
291
     0
 71
     3
176
     1
 72
     2
176
     1
 73
     0
176
     1
 90
        0
176
     1
 40
-0.6
176
     1
 41
-30.0
176
     1
 62
     5
 63
     7
421
 16777215
176
     1
 74
     2
176
     1
 91
        2
176
     1
 64
     7
176
     1
 65
   257
176
     1
 75
     1
176
     1
175
     1
176
     1
 42
40.0
176
     1
 92
        8
176
     1
 66
     7
176
     1
 43
1.0
176
     1
 76
     1
176
     1
 77
     6
176
     1
 78
     2
176
     1
 67
     7
176
     1
 79
     3
176
     1
170
     0
176
     1
171
     0
176
     1
290
     0
176
     1
 93
        1
176
     1
 44
0.0
176
     1
173
     0
176
     1
  0
VISUALSTYLE
  5
35
102
{ACAD_REACTORS
330
2A
102
}
330
2A
100
AcDbVisualStyle
  2
Dim
 70
    11
177
     2
291
     1
 71
     2
176
     1
 72
     2
176
     1
 73
     0
176
     1
 90
        0
176
     1
 40
-0.6
176
     1
 41
-30.0
176
     1
 62
     5
 63
     7
421
 16777215
176
     1
 74
     1
176
     1
 91
        4
176
     1
 64
     7
176
     1
 65
   257
176
     1
 75
     1
176
     1
175
     1
176
     1
 42
1.0
176
     1
 92
        8
176
     1
 66
     7
176
     1
 43
1.0
176
     1
 76
     1
176
     1
 77
     6
176
     1
 78
     2
176
     1
 67
     7
176
     1
 79
     5
176
     1
170
     0
176
     1
171
     0
176
     1
290
     0
176
     1
 93
        1
176
     1
 44
-50.0
176
     1
173
     0
176
     1
  0
VISUALSTYLE
  5
39
102
{ACAD_REACTORS
330
2A
102
}
330
2A
100
AcDbVisualStyle
  2
Facepattern
 70
    15
177
     2
291
     1
 71
     2
176
     1
 72
     2
176
     1
 73
     0
176
     1
 90
        0
176
     1
 40
-0.6
176
     1
 41
-30.0
176
     1
 62
     5
 63
     7
421
 16777215
176
     1
 74
     1
176
     1
 91
        4
176
     1
 64
     7
176
     1
 65
   257
176
     1
 75
     1
176
     1
175
     1
176
     1
 42
1.0
176
     1
 92
        8
176
     1
 66
     7
176
     1
 43
1.0
176
     1
 76
     1
176
     1
 77
     6
176
     1
 78
     2
176
     1
 67
     7
176
     1
 79
     5
176
     1
170
     0
176
     1
171
     0
176
     1
290
     0
176
     1
 93
        1
176
     1
 44
0.0
176
     1
173
     0
176
     1
  0
VISUALSTYLE
  5
2B
102
{ACAD_REACTORS
330
2A
102
}
330
2A
100
AcDbVisualStyle
  2
Flat
 70
     0
177
     2
291
     1
 71
     2
176
     1
 72
     1
176
     1
 73
     1
176
     1
 90
        2
176
     1
 40
-0.6
176
     1
 41
30.0
176
     1
 62
     5
 63
     7
421
 16777215
176
     1
 74
     0
176
     1
 91
        4
176
     1
 64
     7
176
     1
 65
   257
176
     1
 75
     1
176
     1
175
     1
176
     1
 42
1.0
176
     1
 92
        8
176
     1
 66
     7
176
     1
 43
1.0
176
     1
 76
     1
176
     1
 77
     6
176
     1
 78
     2
176
     1
 67
     7
176
     1
 79
     5
176
     1
170
     0
176
     1
171
     0
176
     1
290
     0
176
     1
 93
       13
176
     1
 44
0.0
176
     1
173
     0
176
     1
  0
VISUALSTYLE
  5
2C
102
{ACAD_REACTORS
330
2A
102
}
330
2A
100
AcDbVisualStyle
  2
FlatWithEdges
 70
     1
177
     2
291
     1
 71
     2
176
     1
 72
     1
176
     1
 73
     1
176
     1
 90
        2
176
     1
 40
-0.6
176
     1
 41
30.0
176
     1
 62
     5
 63
     7
421
 16777215
176
     1
 74
     1
176
     1
 91
        4
176
     1
 64
     7
176
     1
 65
   257
176
     1
 75
     1
176
     1
175
     1
176
     1
 42
1.0
176
     1
 92
        0
176
     1
 66
   257
176
     1
 43
1.0
176
     1
 76
     1
176
     1
 77
     6
176
     1
 78
     2
176
     1
 67
     7
176
     1
 79
     5
176
     1
170
     0
176
     1
171
     0
176
     1
290
     0
176
     1
 93
       13
176
     1
 44
0.0
176
     1
173
     0
176
     1
  0
VISUALSTYLE
  5
2D
102
{ACAD_REACTORS
330
2A
102
}
330
2A
100
AcDbVisualStyle
  2
Gouraud
 70
     2
177
     2
291
     1
 71
     2
176
     1
 72
     2
176
     1
 73
     1
176
     1
 90
        2
176
     1
 40
-0.6
176
     1
 41
30.0
176
     1
 62
     5
 63
     7
421
 16777215
176
     1
 74
     0
176
     1
 91
        4
176
     1
 64
     7
176
     1
 65
   257
176
     1
 75
     1
176
     1
175
     1
176
     1
 42
1.0
176
     1
 92
        0
176
     1
 66
     7
176
     1
 43
1.0
176
     1
 76
     1
176
     1
 77
     6
176
     1
 78
     2
176
     1
 67
     7
176
     1
 79
     5
176
     1
170
     0
176
     1
171
     0
176
     1
290
     0
176
     1
 93
       13
176
     1
 44
0.0
176
     1
173
     0
176
     1
  0
VISUALSTYLE
  5
2E
102
{ACAD_REACTORS
330
2A
102
}
330
2A
100
AcDbVisualStyle
  2
GouraudWithEdges
 70
     3
177
     2
291
     1
 71
     2
176
     1
 72
     2
176
     1
 73
     1
176
     1
 90
        2
176
     1
 40
-0.6
176
     1
 41
30.0
176
     1
 62
     5
 63
     7
421
 16777215
176
     1
 74
     1
176
     1
 91
        4
176
     1
 64
     7
176
     1
 65
   257
176
     1
 75
     1
176
     1
175
     1
176
     1
 42
1.0
176
     1
 92
        0
176
     1
 66
   257
176
     1
 43
1.0
176
     1
 76
     1
176
     1
 77
     6
176
     1
 78
     2
176
     1
 67
     7
176
     1
 79
     5
176
     1
170
     0
176
     1
171
     0
176
     1
290
     0
176
     1
 93
       13
176
     1
 44
0.0
176
     1
173
     0
176
     1
  0
VISUALSTYLE
  5
38
102
{ACAD_REACTORS
330
2A
102
}
330
2A
100
AcDbVisualStyle
  2
Linepattern
 70
    14
177
     2
291
     1
 71
     2
176
     1
 72
     2
176
     1
 73
     0
176
     1
 90
        0
176
     1
 40
-0.6
176
     1
 41
-30.0
176
     1
 62
     5
 63
     7
421
 16777215
176
     1
 74
     1
176
     1
 91
        4
176
     1
 64
     7
176
     1
 65
   257
176
     1
 75
     7
176
     1
175
     7
176
     1
 42
1.0
176
     1
 92
        8
176
     1
 66
     7
176
     1
 43
1.0
176
     1
 76
     1
176
     1
 77
     6
176
     1
 78
     2
176
     1
 67
     7
176
     1
 79
     5
176
     1
170
     0
176
     1
171
     0
176
     1
290
     0
176
     1
 93
        1
176
     1
 44
0.0
176
     1
173
     0
176
     1
  0
VISUALSTYLE
  5
33
102
{ACAD_REACTORS
330
2A
102
}
330
2A
100
AcDbVisualStyle
  2
Realistic
 70
     8
177
     2
291
     0
 71
     2
176
     1
 72
     2
176
     1
 73
     0
176
     1
 90
        0
176
     1
 40
-0.6
176
     1
 41
-30.0
176
     1
 62
     5
 63
     7
421
 16777215
176
     1
 74
     1
176
     1
 91
        0
176
     1
 64
     7
176
     1
 65
   257
176
     1
 75
     1
176
     1
175
     1
176
     1
 42
1.0
176
     1
 92
        8
176
     1
 66
     8
424
  7895160
176
     1
 43
1.0
176
     1
 76
     1
176
     1
 77
     6
176
     1
 78
     2
176
     1
 67
     7
176
     1
 79
     5
176
     1
170
     0
176
     1
171
     0
176
     1
290
     0
176
     1
 93
       13
176
     1
 44
0.0
176
     1
173
     0
176
     1
  0
VISUALSTYLE
  5
37
102
{ACAD_REACTORS
330
2A
102
}
330
2A
100
AcDbVisualStyle
  2
Thicken
 70
    13
177
     2
291
     1
 71
     2
176
     1
 72
     2
176
     1
 73
     0
176
     1
 90
        0
176
     1
 40
-0.6
176
     1
 41
-30.0
176
     1
 62
     5
 63
     7
421
 16777215
176
     1
 74
     1
176
     1
 91
        4
176
     1
 64
     7
176
     1
 65
   257
176
     1
 75
     1
176
     1
175
     1
176
     1
 42
1.0
176
     1
 92
       12
176
     1
 66
     7
176
     1
 43
1.0
176
     1
 76
     1
176
     1
 77
     6
176
     1
 78
     2
176
     1
 67
     7
176
     1
 79
     5
176
     1
170
     0
176
     1
171
     0
176
     1
290
     0
176
     1
 93
        1
176
     1
 44
0.0
176
     1
173
     0
176
     1
  0
ENDSEC
  0
EOF
