  0
SECTION
  2
HEADER
  9
$ACADVER
  1
AC1024
  9
$ACADMAINTVER
 70
     6
  9
$DWGCODEPAGE
  3
UNDEFINED
  9
$INSBASE
 10
0.0
 20
0.0
 30
0.0
  9
$EXTMIN
 10
1.000000000000000E+20
 20
1.000000000000000E+20
 30
1.000000000000000E+20
  9
$EXTMAX
 10
-1.000000000000000E+20
 20
-1.000000000000000E+20
 30
-1.000000000000000E+20
  9
$LIMMIN
 10
0.0
 20
0.0
  9
$LIMMAX
 10
12.0
 20
9.0
  9
$ORTHOMODE
 70
     0
  9
$REGENMODE
 70
     1
  9
$FILLMODE
 70
     1
  9
$QTEXTMODE
 70
     0
  9
$MIRRTEXT
 70
     1
  9
$LTSCALE
 40
1.0
  9
$ATTMODE
 70
     1
  9
$TEXTSIZE
 40
0.2
  9
$TRACEWID
 40
0.05
  9
$TEXTSTYLE
  7
Standard
  9
$CLAYER
  8
0
  9
$CELTYPE
  6
ByLayer
  9
$CECOLOR
 62
   256
  9
$CELTSCALE
 40
1.0
  9
$DISPSILH
 70
     0
  9
$DIMSCALE
 40
1.0
  9
$DIMASZ
 40
0.18
  9
$DIMEXO
 40
0.0625
  9
$DIMDLI
 40
0.38
  9
$DIMRND
 40
0.0
  9
$DIMDLE
 40
0.0
  9
$DIMEXE
 40
0.18
  9
$DIMTP
 40
0.0
  9
$DIMTM
 40
0.0
  9
$DIMTXT
 40
0.18
  9
$DIMCEN
 40
0.09
  9
$DIMTSZ
 40
0.0
  9
$DIMTOL
 70
     0
  9
$DIMLIM
 70
     0
  9
$DIMTIH
 70
     1
  9
$DIMTOH
 70
     1
  9
$DIMSE1
 70
     0
  9
$DIMSE2
 70
     0
  9
$DIMTAD
 70
     0
  9
$DIMZIN
 70
     0
  9
$DIMBLK
  1

  9
$DIMASO
 70
     1
  9
$DIMSHO
 70
     1
  9
$DIMPOST
  1

  9
$DIMAPOST
  1

  9
$DIMALT
 70
     0
  9
$DIMALTD
 70
     2
  9
$DIMALTF
 40
25.4
  9
$DIMLFAC
 40
1.0
  9
$DIMTOFL
 70
     0
  9
$DIMTVP
 40
0.0
  9
$DIMTIX
 70
     0
  9
$DIMSOXD
 70
     0
  9
$DIMSAH
 70
     0
  9
$DIMBLK1
  1

  9
$DIMBLK2
  1

  9
$DIMSTYLE
  2
Standard
  9
$DIMCLRD
 70
     0
  9
$DIMCLRE
 70
     0
  9
$DIMCLRT
 70
     0
  9
$DIMTFAC
 40
1.0
  9
$DIMGAP
 40
0.09
  9
$DIMJUST
 70
     0
  9
$DIMSD1
 70
     0
  9
$DIMSD2
 70
     0
  9
$DIMTOLJ
 70
     1
  9
$DIMTZIN
 70
     0
  9
$DIMALTZ
 70
     0
  9
$DIMALTTZ
 70
     0
  9
$DIMUPT
 70
     0
  9
$DIMDEC
 70
     4
  9
$DIMTDEC
 70
     4
  9
$DIMALTU
 70
     2
  9
$DIMALTTD
 70
     2
  9
$DIMTXSTY
  7
Standard
  9
$DIMAUNIT
 70
     0
  9
$DIMADEC
 70
     0
  9
$DIMALTRND
 40
0.0
  9
$DIMAZIN
 70
     0
  9
$DIMDSEP
 70
    46
  9
$DIMATFIT
 70
     3
  9
$DIMFRAC
 70
     0
  9
$DIMLDRBLK
  1

  9
$DIMLUNIT
 70
     2
  9
$DIMLWD
 70
    -2
  9
$DIMLWE
 70
    -2
  9
$DIMTMOVE
 70
     0
  9
$DIMFXL
 40
1.0
  9
$DIMFXLON
 70
     0
  9
$DIMJOGANG
 40
0.7853981633974483
  9
$DIMTFILL
 70
     0
  9
$DIMTFILLCLR
 70
     0
  9
$DIMARCSYM
 70
     0
  9
$DIMLTYPE
  6

  9
$DIMLTEX1
  6

  9
$DIMLTEX2
  6

  9
$DIMTXTDIRECTION
 70
     0
  9
$LUNITS
 70
     2
  9
$LUPREC
 70
     4
  9
$SKETCHINC
 40
0.1
  9
$FILLETRAD
 40
0.5
  9
$AUNITS
 70
     0
  9
$AUPREC
 70
     0
  9
$MENU
  1
.
  9
$ELEVATION
 40
0.0
  9
$PELEVATION
 40
0.0
  9
$THICKNESS
 40
0.0
  9
$LIMCHECK
 70
     0
  9
$CHAMFERA
 40
0.5
  9
$CHAMFERB
 40
0.5
  9
$CHAMFERC
 40
1.0
  9
$CHAMFERD
 40
0.0
  9
$SKPOLY
 70
     0
  9
$TDCREATE
 40
2458270.587708334
  9
$TDUCREATE
 40
2458270.212708334
  9
$TDUPDATE
 40
2458270.587708334
  9
$TDUUPDATE
 40
2458270.212708334
  9
$TDINDWG
 40
0.0000000116
  9
$TDUSRTIMER
 40
0.0000000116
  9
$USRTIMER
 70
     1
  9
$ANGBASE
 50
0.0
  9
$ANGDIR
 70
     0
  9
$PDMODE
 70
     0
  9
$PDSIZE
 40
0.0
  9
$PLINEWID
 40
0.0
  9
$SPLFRAME
 70
     0
  9
$SPLINETYPE
 70
     6
  9
$SPLINESEGS
 70
     8
  9
$HANDSEED
  5
1CC
  9
$SURFTAB1
 70
     6
  9
$SURFTAB2
 70
     6
  9
$SURFTYPE
 70
     6
  9
$SURFU
 70
     6
  9
$SURFV
 70
     6
  9
$UCSBASE
  2

  9
$UCSNAME
  2

  9
$UCSORG
 10
0.0
 20
0.0
 30
0.0
  9
$UCSXDIR
 10
1.0
 20
0.0
 30
0.0
  9
$UCSYDIR
 10
0.0
 20
1.0
 30
0.0
  9
$UCSORTHOREF
  2

  9
$UCSORTHOVIEW
 70
     0
  9
$UCSORGTOP
 10
0.0
 20
0.0
 30
0.0
  9
$UCSORGBOTTOM
 10
0.0
 20
0.0
 30
0.0
  9
$UCSORGLEFT
 10
0.0
 20
0.0
 30
0.0
  9
$UCSORGRIGHT
 10
0.0
 20
0.0
 30
0.0
  9
$UCSORGFRONT
 10
0.0
 20
0.0
 30
0.0
  9
$UCSORGBACK
 10
0.0
 20
0.0
 30
0.0
  9
$PUCSBASE
  2

  9
$PUCSNAME
  2

  9
$PUCSORG
 10
0.0
 20
0.0
 30
0.0
  9
$PUCSXDIR
 10
1.0
 20
0.0
 30
0.0
  9
$PUCSYDIR
 10
0.0
 20
1.0
 30
0.0
  9
$PUCSORTHOREF
  2

  9
$PUCSORTHOVIEW
 70
     0
  9
$PUCSORGTOP
 10
0.0
 20
0.0
 30
0.0
  9
$PUCSORGBOTTOM
 10
0.0
 20
0.0
 30
0.0
  9
$PUCSORGLEFT
 10
0.0
 20
0.0
 30
0.0
  9
$PUCSORGRIGHT
 10
0.0
 20
0.0
 30
0.0
  9
$PUCSORGFRONT
 10
0.0
 20
0.0
 30
0.0
  9
$PUCSORGBACK
 10
0.0
 20
0.0
 30
0.0
  9
$USERI1
 70
     0
  9
$USERI2
 70
     0
  9
$USERI3
 70
     0
  9
$USERI4
 70
     0
  9
$USERI5
 70
     0
  9
$USERR1
 40
0.0
  9
$USERR2
 40
0.0
  9
$USERR3
 40
0.0
  9
$USERR4
 40
0.0
  9
$USERR5
 40
0.0
  9
$WORLDVIEW
 70
     1
  9
$SHADEDGE
 70
     3
  9
$SHADEDIF
 70
    70
  9
$TILEMODE
 70
     1
  9
$MAXACTVP
 70
    64
  9
$PINSBASE
 10
0.0
 20
0.0
 30
0.0
  9
$PLIMCHECK
 70
     0
  9
$PEXTMIN
 10
1.000000000000000E+20
 20
1.000000000000000E+20
 30
1.000000000000000E+20
  9
$PEXTMAX
 10
-1.000000000000000E+20
 20
-1.000000000000000E+20
 30
-1.000000000000000E+20
  9
$PLIMMIN
 10
0.0
 20
0.0
  9
$PLIMMAX
 10
12.0
 20
9.0
  9
$UNITMODE
 70
     0
  9
$VISRETAIN
 70
     1
  9
$PLINEGEN
 70
     0
  9
$PSLTSCALE
 70
     1
  9
$TREEDEPTH
 70
  3020
  9
$CMLSTYLE
  2
Standard
  9
$CMLJUST
 70
     0
  9
$CMLSCALE
 40
1.0
  9
$PROXYGRAPHICS
 70
     1
  9
$MEASUREMENT
 70
     0
  9
$CELWEIGHT
370
    -1
  9
$ENDCAPS
280
     0
  9
$JOINSTYLE
280
     0
  9
$LWDISPLAY
290
     1
  9
$INSUNITS
 70
     1
  9
$HYPERLINKBASE
  1

  9
$STYLESHEET
  1

  9
$XEDIT
290
     1
  9
$CEPSNTYPE
380
     0
  9
$PSTYLEMODE
290
     1
  9
$FINGERPRINTGUID
  2
{68B93250-7617-B122-3439-72CDB8E6990A}
  9
$VERSIONGUID
  2
{FAEB1C32-E019-11D5-929B-00C0DF256EC4}
  9
$EXTNAMES
290
     1
  9
$PSVPSCALE
 40
0.0
  9
$OLESTARTUP
290
     0
  9
$SORTENTS
280
   127
  9
$INDEXCTL
280
     0
  9
$HIDETEXT
280
     1
  9
$XCLIPFRAME
280
     2
  9
$HALOGAP
280
     0
  9
$OBSCOLOR
 70
   257
  9
$OBSLTYPE
280
     0
  9
$INTERSECTIONDISPLAY
280
     0
  9
$INTERSECTIONCOLOR
 70
   257
  9
$DIMASSOC
280
     2
  9
$PROJECTNAME
  1

  9
$CAMERADISPLAY
290
     0
  9
$LENSLENGTH
 40
50.0
  9
$CAMERAHEIGHT
 40
0.0
  9
$STEPSPERSEC
 40
2.0
  9
$STEPSIZE
 40
6.0
  9
$3DDWFPREC
 40
2.0
  9
$PSOLWIDTH
 40
0.25
  9
$PSOLHEIGHT
 40
4.0
  9
$LOFTANG1
 40
1.570796326794897
  9
$LOFTANG2
 40
1.570796326794897
  9
$LOFTMAG1
 40
0.0
  9
$LOFTMAG2
 40
0.0
  9
$LOFTPARAM
 70
     7
  9
$LOFTNORMALS
280
     1
  9
$LATITUDE
 40
37.795
  9
$LONGITUDE
 40
-122.394
  9
$NORTHDIRECTION
 40
0.0
  9
$TIMEZONE
 70
 -8000
  9
$LIGHTGLYPHDISPLAY
280
     1
  9
$TILEMODELIGHTSYNCH
280
     1
  9
$CMATERIAL
347
3C
  9
$SOLIDHIST
280
     1
  9
$SHOWHIST
280
     1
  9
$DWFFRAME
280
     2
  9
$DGNFRAME
280
     2
  9
$REALWORLDSCALE
290
     1
  9
$INTERFERECOLOR
 62
   256
  9
$CSHADOW
280
     0
  9
$SHADOWPLANELOCATION
 40
0.0
  0
ENDSEC
  0
SECTION
  2
CLASSES
  0
CLASS
  1
ACDBDICTIONARYWDFLT
  2
AcDbDictionaryWithDefault
  3
ObjectDBX Classes
 90
        0
 91
        4
280
     0
281
     0
  0
CLASS
  1
VISUALSTYLE
  2
AcDbVisualStyle
  3
ObjectDBX Classes
 90
     4095
 91
        4
280
     0
281
     0
  0
CLASS
  1
MATERIAL
  2
AcDbMaterial
  3
ObjectDBX Classes
 90
     1153
 91
        4
280
     0
281
     0
  0
CLASS
  1
SUN
  2
AcDbSun
  3
SCENEOE
 90
     1024
 91
        4
280
     0
281
     0
  0
ENDSEC
  0
SECTION
  2
TABLES
  0
TABLE
  2
VPORT
  5
8
330
0
100
AcDbSymbolTable
 70
     1
  0
VPORT
  5
29
330
8
100
AcDbSymbolTableRecord
100
AcDbViewportTableRecord
  2
*Active
 70
     0
 10
0.0
 20
0.0
 11
1.0
 21
1.0
 12
0.0
 22
0.0
 13
0.0
 23
0.0
 14
0.5
 24
0.5
 15
0.5
 25
0.5
 16
0.0
 26
0.0
 36
1.0
 17
105.0007777515277
 27
-148.5000416295416
 37
0.0
 40
297.0000832590831
 41
0.7070757462376333
 42
50.0
 43
0.0
 44
0.0
 50
0.0
 51
0.0
 71
     0
 72
   100
 73
     1
 74
     3
 75
     0
 76
     0
 77
     0
 78
     0
281
     0
 65
     1
110
0.0
120
0.0
130
0.0
111
1.0
121
0.0
131
0.0
112
0.0
122
1.0
132
0.0
 79
     0
146
0.0
 60
     3
 61
     5
292
     1
282
     1
141
0.0
142
0.0
 63
   250
361
3F
  0
ENDTAB
  0
TABLE
  2
LTYPE
  5
5
330
0
100
AcDbSymbolTable
 70
     3
  0
LTYPE
  5
14
330
5
100
AcDbSymbolTableRecord
100
AcDbLinetypeTableRecord
  2
ByBlock
 70
     0
  3

 72
    65
 73
     0
 40
0.0
  0
LTYPE
  5
15
330
5
100
AcDbSymbolTableRecord
100
AcDbLinetypeTableRecord
  2
ByLayer
 70
     0
  3

 72
    65
 73
     0
 40
0.0
  0
LTYPE
  5
16
330
5
100
AcDbSymbolTableRecord
100
AcDbLinetypeTableRecord
  2
Continuous
 70
     0
  3
Solid line
 72
    65
 73
     0
 40
0.0
  0
LTYPE
  5
193
330
5
100
AcDbSymbolTableRecord
100
AcDbLinetypeTableRecord
  2
AI-Linetype-1
 70
     0
  3
Adobe Illustrator Linetype No. 1
 72
    65
 73
     2
 40
1.411111110758333
 49
0.7055555553791667
 74
     0
 49
-0.7055555553791667
 74
     0
  0
LTYPE
  5
1C4
330
5
100
AcDbSymbolTableRecord
100
AcDbLinetypeTableRecord
  2
AI-Linetype-2
 70
     0
  3
Adobe Illustrator Linetype No. 2
 72
    65
 73
     2
 40
1.411111110758333
 49
0.7055555553791667
 74
     0
 49
-0.7055555553791667
 74
     0
  0
ENDTAB
  0
TABLE
  2
LAYER
  5
2
330
0
100
AcDbSymbolTable
 70
     2
  0
LAYER
  5
10
330
2
100
AcDbSymbolTableRecord
100
AcDbLayerTableRecord
  2
0
 70
     0
 62
     7
  6
Continuous
370
    -3
390
F
347
3E
  0
LAYER
  5
40
330
2
100
AcDbSymbolTableRecord
100
AcDbLayerTableRecord
  2
_U+30EC_U+30A4_U+30E4_U+30FC 1
 70
     0
 62
     7
  6
Continuous
370
    -3
390
F
347
3E
  0
ENDTAB
  0
TABLE
  2
STYLE
  5
3
330
0
100
AcDbSymbolTable
 70
     1
  0
STYLE
  5
11
330
3
100
AcDbSymbolTableRecord
100
AcDbTextStyleTableRecord
  2
Standard
 70
     0
 40
0.0
 41
1.0
 50
0.0
 71
     0
 42
0.2
  3
txt
  4

  0
ENDTAB
  0
TABLE
  2
VIEW
  5
6
330
0
100
AcDbSymbolTable
 70
     0
  0
ENDTAB
  0
TABLE
  2
UCS
  5
7
330
0
100
AcDbSymbolTable
 70
     0
  0
ENDTAB
  0
TABLE
  2
APPID
  5
9
330
0
100
AcDbSymbolTable
 70
     1
  0
APPID
  5
12
330
9
100
AcDbSymbolTableRecord
100
AcDbRegAppTableRecord
  2
ACAD
 70
     0
  0
ENDTAB
  0
TABLE
  2
DIMSTYLE
  5
A
330
0
100
AcDbSymbolTable
 70
     1
100
AcDbDimStyleTable
  0
DIMSTYLE
105
27
330
A
100
AcDbSymbolTableRecord
100
AcDbDimStyleTableRecord
  2
Standard
 70
     0
178
     0
340
11
  0
ENDTAB
  0
TABLE
  2
BLOCK_RECORD
  5
1
330
0
100
AcDbSymbolTable
 70
     7
  0
BLOCK_RECORD
  5
1F
330
1
100
AcDbSymbolTableRecord
100
AcDbBlockTableRecord
  2
*Model_Space
340
22
 70
     0
280
     1
281
     0
  0
BLOCK_RECORD
  5
1B
330
1
100
AcDbSymbolTableRecord
100
AcDbBlockTableRecord
  2
*Paper_Space
340
1E
 70
     0
280
     1
281
     0
  0
BLOCK_RECORD
  5
23
330
1
100
AcDbSymbolTableRecord
100
AcDbBlockTableRecord
  2
*Paper_Space0
340
26
 70
     0
280
     1
281
     0
  0
BLOCK_RECORD
  5
4F
330
1
100
AcDbSymbolTableRecord
100
AcDbBlockTableRecord
  2
block 2
340
0
102
{BLKREFS
331
50
102
}
 70
     0
280
     1
281
     0
  0
BLOCK_RECORD
  5
E1
330
1
100
AcDbSymbolTableRecord
100
AcDbBlockTableRecord
  2
block 3
340
0
102
{BLKREFS
331
E2
102
}
 70
     0
280
     1
281
     0
  0
BLOCK_RECORD
  5
F8
330
1
100
AcDbSymbolTableRecord
100
AcDbBlockTableRecord
  2
block 4
340
0
102
{BLKREFS
331
F9
102
}
 70
     0
280
     1
281
     0
  0
BLOCK_RECORD
  5
10B
330
1
100
AcDbSymbolTableRecord
100
AcDbBlockTableRecord
  2
block 5
340
0
102
{BLKREFS
331
10C
102
}
 70
     0
280
     1
281
     0
  0
BLOCK_RECORD
  5
130
330
1
100
AcDbSymbolTableRecord
100
AcDbBlockTableRecord
  2
block 6
340
0
102
{BLKREFS
331
131
102
}
 70
     0
280
     1
281
     0
  0
BLOCK_RECORD
  5
199
330
1
100
AcDbSymbolTableRecord
100
AcDbBlockTableRecord
  2
block 7
340
0
102
{BLKREFS
331
19A
102
}
 70
     0
280
     1
281
     0
  0
ENDTAB
  0
ENDSEC
  0
SECTION
  2
BLOCKS
  0
BLOCK
  5
20
330
1F
100
AcDbEntity
  8
0
100
AcDbBlockBegin
  2
*Model_Space
 70
     0
 10
0.0
 20
0.0
 30
0.0
  3
*Model_Space
  1

  0
ENDBLK
  5
21
330
1F
100
AcDbEntity
  8
0
100
AcDbBlockEnd
  0
BLOCK
  5
1C
330
1B
100
AcDbEntity
 67
     1
  8
0
100
AcDbBlockBegin
  2
*Paper_Space
 70
     0
 10
0.0
 20
0.0
 30
0.0
  3
*Paper_Space
  1

  0
ENDBLK
  5
1D
330
1B
100
AcDbEntity
 67
     1
  8
0
100
AcDbBlockEnd
  0
BLOCK
  5
24
330
23
100
AcDbEntity
  8
0
100
AcDbBlockBegin
  2
*Paper_Space0
 70
     0
 10
0.0
 20
0.0
 30
0.0
  3
*Paper_Space0
  1

  0
ENDBLK
  5
25
330
23
100
AcDbEntity
  8
0
100
AcDbBlockEnd
  0
BLOCK
  5
51
330
4F
100
AcDbEntity
  8
0
100
AcDbBlockBegin
  2
block 2
 70
     0
 10
0.0
 20
0.0
 30
0.0
  3
block 2
  1

  0
SPLINE
  5
53
330
4F
100
AcDbEntity
  8
_U+30EC_U+30A4_U+30E4_U+30FC 1
370
     0
100
AcDbSpline
210
0.0
220
0.0
230
1.0
 70
    11
 71
     3
 72
    44
 73
    40
 74
     0
 42
0.0000000001
 43
0.0000000001
 12
1.0
 22
0.0
 32
0.0
 13
1.0
 23
0.0
 33
0.0
 40
0.0
 40
0.0
 40
0.0
 40
0.0
 40
1.0
 40
1.0
 40
1.0
 40
2.0
 40
2.0
 40
2.0
 40
3.0
 40
3.0
 40
3.0
 40
4.0
 40
4.0
 40
4.0
 40
5.0
 40
5.0
 40
5.0
 40
6.0
 40
6.0
 40
6.0
 40
7.0
 40
7.0
 40
7.0
 40
8.0
 40
8.0
 40
8.0
 40
9.0
 40
9.0
 40
9.0
 40
10.0
 40
10.0
 40
10.0
 40
11.0
 40
11.0
 40
11.0
 40
12.0
 40
12.0
 40
12.0
 40
13.0
 40
13.0
 40
13.0
 40
13.0
 10
93.07080482699271
 20
-163.4394639348346
 30
0.0
 10
92.85290253755066
 20
-163.5979383271561
 30
0.0
 10
92.75971270467466
 20
-163.672007880089
 30
0.0
 10
92.71113685833264
 20
-163.8160128713724
 30
0.0
 10
92.71113685833264
 20
-163.8160128713724
 30
0.0
 10
93.48955618322483
 20
-163.8160128713724
 30
0.0
 10
93.48955618322483
 20
-163.8160128713724
 30
0.0
 10
93.48955618322483
 20
-163.8160128713724
 30
0.0
 10
93.48955618322483
 20
-164.0209960527447
 30
0.0
 10
93.48955618322483
 20
-164.0209960527447
 30
0.0
 10
93.48955618322483
 20
-164.0209960527447
 30
0.0
 10
92.46153969042629
 20
-164.0209960527447
 30
0.0
 10
92.46153969042629
 20
-164.0209960527447
 30
0.0
 10
92.49323456889059
 20
-163.6633951413758
 30
0.0
 10
92.55869138311033
 20
-163.5851914738606
 30
0.0
 10
92.94385305836126
 20
-163.286846204838
 30
0.0
 10
93.19982365291533
 20
-163.0880641953391
 30
0.0
 10
93.26528046713507
 20
-163.0205403238282
 30
0.0
 10
93.26528046713507
 20
-162.8830810139667
 30
0.0
 10
93.26528046713507
 20
-162.7645697292741
 30
0.0
 10
93.19345022626761
 20
-162.6333115912861
 30
0.0
 10
92.99673527405984
 20
-162.6333115912861
 30
0.0
 10
92.73645831014922
 20
-162.6333115912861
 30
0.0
 10
92.72801782621036
 20
-162.8637884792493
 30
0.0
 10
92.72371145685379
 20
-162.9802327066508
 30
0.0
 10
92.72371145685379
 20
-162.9802327066508
 30
0.0
 10
92.4996079955383
 20
-162.9802327066508
 30
0.0
 10
92.4996079955383
 20
-162.9802327066508
 30
0.0
 10
92.50804847947715
 20
-162.8534531927936
 30
0.0
 10
92.51855602070717
 20
-162.7411430799744
 30
0.0
 10
92.59899900028775
 20
-162.6226317952818
 30
0.0
 10
92.70889754626722
 20
-162.4620903456692
 30
0.0
 10
92.89510495724498
 20
-162.4279839003652
 30
0.0
 10
93.01154918464643
 20
-162.4279839003652
 30
0.0
 10
93.28870711643478
 20
-162.4279839003652
 30
0.0
 10
93.49592960987255
 20
-162.6122965088261
 30
0.0
 10
93.49592960987255
 20
-162.8851480712579
 30
0.0
 10
93.49592960987255
 20
-163.11355790193
 30
0.0
 10
93.37965763724537
 20
-163.2131211614537
 30
0.0
 10
93.07080482699271
 20
-163.4394639348346
 30
0.0
  0
HATCH
  5
54
330
4F
100
AcDbEntity
  8
_U+30EC_U+30A4_U+30E4_U+30FC 1
 62
   179
420
  2234388
100
AcDbHatch
 10
0.0
 20
0.0
 30
0.0
210
0.0
220
0.0
230
1.0
  2
SOLID
 70
     1
 71
     0
 91
        1
 92
        1
 93
        1
 72
     4
 94
        3
 73
     0
 74
     1
 95
       44
 96
       40
 40
0.0
 40
0.0
 40
0.0
 40
0.0
 40
1.0
 40
1.0
 40
1.0
 40
2.0
 40
2.0
 40
2.0
 40
3.0
 40
3.0
 40
3.0
 40
4.0
 40
4.0
 40
4.0
 40
5.0
 40
5.0
 40
5.0
 40
6.0
 40
6.0
 40
6.0
 40
7.0
 40
7.0
 40
7.0
 40
8.0
 40
8.0
 40
8.0
 40
9.0
 40
9.0
 40
9.0
 40
10.0
 40
10.0
 40
10.0
 40
11.0
 40
11.0
 40
11.0
 40
12.0
 40
12.0
 40
12.0
 40
13.0
 40
13.0
 40
13.0
 40
13.0
 10
93.07080482699271
 20
-163.4394639348346
 10
92.85290253755066
 20
-163.5979383271561
 10
92.75971270467466
 20
-163.672007880089
 10
92.71113685833264
 20
-163.8160128713724
 10
92.71113685833264
 20
-163.8160128713724
 10
93.48955618322483
 20
-163.8160128713724
 10
93.48955618322483
 20
-163.8160128713724
 10
93.48955618322483
 20
-163.8160128713724
 10
93.48955618322483
 20
-164.0209960527447
 10
93.48955618322483
 20
-164.0209960527447
 10
93.48955618322483
 20
-164.0209960527447
 10
92.46153969042629
 20
-164.0209960527447
 10
92.46153969042629
 20
-164.0209960527447
 10
92.49323456889059
 20
-163.6633951413758
 10
92.55869138311033
 20
-163.5851914738606
 10
92.94385305836126
 20
-163.286846204838
 10
93.19982365291533
 20
-163.0880641953391
 10
93.26528046713507
 20
-163.0205403238282
 10
93.26528046713507
 20
-162.8830810139667
 10
93.26528046713507
 20
-162.7645697292741
 10
93.19345022626761
 20
-162.6333115912861
 10
92.99673527405984
 20
-162.6333115912861
 10
92.73645831014922
 20
-162.6333115912861
 10
92.72801782621036
 20
-162.8637884792493
 10
92.72371145685379
 20
-162.9802327066508
 10
92.72371145685379
 20
-162.9802327066508
 10
92.4996079955383
 20
-162.9802327066508
 10
92.4996079955383
 20
-162.9802327066508
 10
92.50804847947715
 20
-162.8534531927936
 10
92.51855602070717
 20
-162.7411430799744
 10
92.59899900028775
 20
-162.6226317952818
 10
92.70889754626722
 20
-162.4620903456692
 10
92.89510495724498
 20
-162.4279839003652
 10
93.01154918464643
 20
-162.4279839003652
 10
93.28870711643478
 20
-162.4279839003652
 10
93.49592960987255
 20
-162.6122965088261
 10
93.49592960987255
 20
-162.8851480712579
 10
93.49592960987255
 20
-163.11355790193
 10
93.37965763724537
 20
-163.2131211614537
 10
93.07080482699271
 20
-163.4394639348346
 97
        0
 97
        0
 75
     2
 76
     1
 98
        0
  0
ENDBLK
  5
52
330
4F
100
AcDbEntity
  8
0
100
AcDbBlockEnd
  0
BLOCK
  5
E3
330
E1
100
AcDbEntity
  8
0
100
AcDbBlockBegin
  2
block 3
 70
     0
 10
0.0
 20
0.0
 30
0.0
  3
block 3
  1

  0
SPLINE
  5
E5
330
E1
100
AcDbEntity
  8
_U+30EC_U+30A4_U+30E4_U+30FC 1
370
     0
100
AcDbSpline
210
0.0
220
0.0
230
1.0
 70
    11
 71
     3
 72
    44
 73
    40
 74
     0
 42
0.0000000001
 43
0.0000000001
 12
1.0
 22
0.0
 32
0.0
 13
1.0
 23
0.0
 33
0.0
 40
0.0
 40
0.0
 40
0.0
 40
0.0
 40
1.0
 40
1.0
 40
1.0
 40
2.0
 40
2.0
 40
2.0
 40
3.0
 40
3.0
 40
3.0
 40
4.0
 40
4.0
 40
4.0
 40
5.0
 40
5.0
 40
5.0
 40
6.0
 40
6.0
 40
6.0
 40
7.0
 40
7.0
 40
7.0
 40
8.0
 40
8.0
 40
8.0
 40
9.0
 40
9.0
 40
9.0
 40
10.0
 40
10.0
 40
10.0
 40
11.0
 40
11.0
 40
11.0
 40
12.0
 40
12.0
 40
12.0
 40
13.0
 40
13.0
 40
13.0
 40
13.0
 10
107.6850721301968
 20
-133.2828206047001
 30
0.0
 10
107.4669975859805
 20
-133.4414672517959
 30
0.0
 10
107.3739800078787
 20
-133.5155368047288
 30
0.0
 10
107.3254041615367
 20
-133.6593695412379
 30
0.0
 10
107.3254041615367
 20
-133.6593695412379
 30
0.0
 10
108.1036512316547
 20
-133.6593695412379
 30
0.0
 10
108.1036512316547
 20
-133.6593695412379
 30
0.0
 10
108.1036512316547
 20
-133.6593695412379
 30
0.0
 10
108.1036512316547
 20
-133.8645249773846
 30
0.0
 10
108.1036512316547
 20
-133.8645249773846
 30
0.0
 10
108.1036512316547
 20
-133.8645249773846
 30
0.0
 10
107.0756347388561
 20
-133.8645249773846
 30
0.0
 10
107.0756347388561
 20
-133.8645249773846
 30
0.0
 10
107.1073296173204
 20
-133.5069240660156
 30
0.0
 10
107.1731309410887
 20
-133.4287203985005
 30
0.0
 10
107.5579481067911
 20
-133.1303751294778
 30
0.0
 10
107.8142632108937
 20
-132.9315931199789
 30
0.0
 10
107.8797200251134
 20
-132.8638969936937
 30
0.0
 10
107.8797200251134
 20
-132.7264376838323
 30
0.0
 10
107.8797200251134
 20
-132.6079263991397
 30
0.0
 10
107.8077175294717
 20
-132.4768405159259
 30
0.0
 10
107.6110025772639
 20
-132.4768405159259
 30
0.0
 10
107.350553358579
 20
-132.4768405159259
 30
0.0
 10
107.3422851294144
 20
-132.7073174038891
 30
0.0
 10
107.3381510148321
 20
-132.8237616312906
 30
0.0
 10
107.3381510148321
 20
-132.8237616312906
 30
0.0
 10
107.1138752987424
 20
-132.8237616312906
 30
0.0
 10
107.1138752987424
 20
-132.8237616312906
 30
0.0
 10
107.1224880374555
 20
-132.6968098626591
 30
0.0
 10
107.1328233239112
 20
-132.5846720046142
 30
0.0
 10
107.2134385582661
 20
-132.4661607199216
 30
0.0
 10
107.322992594697
 20
-132.3054470155348
 30
0.0
 10
107.5093722604491
 20
-132.271512825005
 30
0.0
 10
107.6258164878505
 20
-132.271512825005
 30
0.0
 10
107.9031466744131
 20
-132.271512825005
 30
0.0
 10
108.1101969130766
 20
-132.4556531786916
 30
0.0
 10
108.1101969130766
 20
-132.7285047411234
 30
0.0
 10
108.1101969130766
 20
-132.9569145717955
 30
0.0
 10
107.9940971952237
 20
-133.0564778313192
 30
0.0
 10
107.6850721301968
 20
-133.2828206047001
 30
0.0
  0
HATCH
  5
E6
330
E1
100
AcDbEntity
  8
_U+30EC_U+30A4_U+30E4_U+30FC 1
 62
   179
420
  2234388
100
AcDbHatch
 10
0.0
 20
0.0
 30
0.0
210
0.0
220
0.0
230
1.0
  2
SOLID
 70
     1
 71
     0
 91
        1
 92
        1
 93
        1
 72
     4
 94
        3
 73
     0
 74
     1
 95
       44
 96
       40
 40
0.0
 40
0.0
 40
0.0
 40
0.0
 40
1.0
 40
1.0
 40
1.0
 40
2.0
 40
2.0
 40
2.0
 40
3.0
 40
3.0
 40
3.0
 40
4.0
 40
4.0
 40
4.0
 40
5.0
 40
5.0
 40
5.0
 40
6.0
 40
6.0
 40
6.0
 40
7.0
 40
7.0
 40
7.0
 40
8.0
 40
8.0
 40
8.0
 40
9.0
 40
9.0
 40
9.0
 40
10.0
 40
10.0
 40
10.0
 40
11.0
 40
11.0
 40
11.0
 40
12.0
 40
12.0
 40
12.0
 40
13.0
 40
13.0
 40
13.0
 40
13.0
 10
107.6850721301968
 20
-133.2828206047001
 10
107.4669975859805
 20
-133.4414672517959
 10
107.3739800078787
 20
-133.5155368047288
 10
107.3254041615367
 20
-133.6593695412379
 10
107.3254041615367
 20
-133.6593695412379
 10
108.1036512316547
 20
-133.6593695412379
 10
108.1036512316547
 20
-133.6593695412379
 10
108.1036512316547
 20
-133.6593695412379
 10
108.1036512316547
 20
-133.8645249773846
 10
108.1036512316547
 20
-133.8645249773846
 10
108.1036512316547
 20
-133.8645249773846
 10
107.0756347388561
 20
-133.8645249773846
 10
107.0756347388561
 20
-133.8645249773846
 10
107.1073296173204
 20
-133.5069240660156
 10
107.1731309410887
 20
-133.4287203985005
 10
107.5579481067911
 20
-133.1303751294778
 10
107.8142632108937
 20
-132.9315931199789
 10
107.8797200251134
 20
-132.8638969936937
 10
107.8797200251134
 20
-132.7264376838323
 10
107.8797200251134
 20
-132.6079263991397
 10
107.8077175294717
 20
-132.4768405159259
 10
107.6110025772639
 20
-132.4768405159259
 10
107.350553358579
 20
-132.4768405159259
 10
107.3422851294144
 20
-132.7073174038891
 10
107.3381510148321
 20
-132.8237616312906
 10
107.3381510148321
 20
-132.8237616312906
 10
107.1138752987424
 20
-132.8237616312906
 10
107.1138752987424
 20
-132.8237616312906
 10
107.1224880374555
 20
-132.6968098626591
 10
107.1328233239112
 20
-132.5846720046142
 10
107.2134385582661
 20
-132.4661607199216
 10
107.322992594697
 20
-132.3054470155348
 10
107.5093722604491
 20
-132.271512825005
 10
107.6258164878505
 20
-132.271512825005
 10
107.9031466744131
 20
-132.271512825005
 10
108.1101969130766
 20
-132.4556531786916
 10
108.1101969130766
 20
-132.7285047411234
 10
108.1101969130766
 20
-132.9569145717955
 10
107.9940971952237
 20
-133.0564778313192
 10
107.6850721301968
 20
-133.2828206047001
 97
        0
 97
        0
 75
     2
 76
     1
 98
        0
  0
SPLINE
  5
E7
330
E1
100
AcDbEntity
  8
_U+30EC_U+30A4_U+30E4_U+30FC 1
370
     0
100
AcDbSpline
210
0.0
220
0.0
230
1.0
 70
    11
 71
     3
 72
    32
 73
    28
 74
     0
 42
0.0000000001
 43
0.0000000001
 12
1.0
 22
0.0
 32
0.0
 13
1.0
 23
0.0
 33
0.0
 40
0.0
 40
0.0
 40
0.0
 40
0.0
 40
1.0
 40
1.0
 40
1.0
 40
2.0
 40
2.0
 40
2.0
 40
3.0
 40
3.0
 40
3.0
 40
4.0
 40
4.0
 40
4.0
 40
5.0
 40
5.0
 40
5.0
 40
6.0
 40
6.0
 40
6.0
 40
7.0
 40
7.0
 40
7.0
 40
8.0
 40
8.0
 40
8.0
 40
9.0
 40
9.0
 40
9.0
 40
9.0
 10
108.7730332844387
 20
-133.915340135792
 30
0.0
 10
108.2566134711997
 20
-133.915340135792
 30
0.0
 10
108.2483452420351
 20
-133.3610242722153
 30
0.0
 10
108.2483452420351
 20
-133.1474283521298
 30
0.0
 10
108.2483452420351
 20
-132.9167792093923
 30
0.0
 10
108.2676377767525
 20
-132.2694457677139
 30
0.0
 10
108.811273844325
 20
-132.2694457677139
 30
0.0
 10
108.984562147233
 20
-132.2694457677139
 30
0.0
 10
109.2298529457828
 20
-132.3392089512902
 30
0.0
 10
109.2680935056691
 20
-132.6713161560683
 30
0.0
 10
109.2680935056691
 20
-132.6713161560683
 30
0.0
 10
109.0544975855836
 20
-132.6713161560683
 30
0.0
 10
109.0544975855836
 20
-132.6713161560683
 30
0.0
 10
109.0438177895793
 20
-132.6142998257874
 30
0.0
 10
109.012122911115
 20
-132.4661607199216
 30
0.0
 10
108.8092067870338
 20
-132.4661607199216
 30
0.0
 10
108.5170626898846
 20
-132.4661607199216
 30
0.0
 10
108.4767550727072
 20
-132.7941338101174
 30
0.0
 10
108.4640082194118
 20
-132.9992892462641
 30
0.0
 10
108.5570257975135
 20
-132.9210855787489
 30
0.0
 10
108.6248941785729
 20
-132.8618299364026
 30
0.0
 10
108.8067952201941
 20
-132.8618299364026
 30
0.0
 10
108.9866292045242
 20
-132.8618299364026
 30
0.0
 10
109.2891085881291
 20
-132.9696614250909
 30
0.0
 10
109.2891085881291
 20
-133.3758381828019
 30
0.0
 10
109.2891085881291
 20
-133.6953707890588
 30
0.0
 10
109.0903265786302
 20
-133.915340135792
 30
0.0
 10
108.7730332844387
 20
-133.915340135792
 30
0.0
  0
SPLINE
  5
E8
330
E1
100
AcDbEntity
  8
_U+30EC_U+30A4_U+30E4_U+30FC 1
370
     0
100
AcDbSpline
210
0.0
220
0.0
230
1.0
 70
    11
 71
     3
 72
    17
 73
    13
 74
     0
 42
0.0000000001
 43
0.0000000001
 12
1.0
 22
0.0
 32
0.0
 13
1.0
 23
0.0
 33
0.0
 40
0.0
 40
0.0
 40
0.0
 40
0.0
 40
1.0
 40
1.0
 40
1.0
 40
2.0
 40
2.0
 40
2.0
 40
3.0
 40
3.0
 40
3.0
 40
4.0
 40
4.0
 40
4.0
 40
4.0
 10
108.7899142523164
 20
-133.0564778313192
 30
0.0
 10
108.5273979763404
 20
-133.0564778313192
 30
0.0
 10
108.4895019260026
 20
-133.2680066941136
 30
0.0
 10
108.4895019260026
 20
-133.3842786667408
 30
0.0
 10
108.4895019260026
 20
-133.5599785364885
 30
0.0
 10
108.5845865613955
 20
-133.7227592981666
 30
0.0
 10
108.7685546603079
 20
-133.7227592981666
 30
0.0
 10
108.8891330022916
 20
-133.7227592981666
 30
0.0
 10
109.0648328720393
 20
-133.6635036558203
 30
0.0
 10
109.0648328720393
 20
-133.377905240093
 30
0.0
 10
109.0648328720393
 20
-133.1538017787775
 30
0.0
 10
108.9253065048867
 20
-133.0564778313192
 30
0.0
 10
108.7899142523164
 20
-133.0564778313192
 30
0.0
  0
HATCH
  5
E9
330
E1
100
AcDbEntity
  8
_U+30EC_U+30A4_U+30E4_U+30FC 1
 62
   179
420
  2234388
100
AcDbHatch
 10
0.0
 20
0.0
 30
0.0
210
0.0
220
0.0
230
1.0
  2
SOLID
 70
     1
 71
     0
 91
        2
 92
        1
 93
        1
 72
     4
 94
        3
 73
     0
 74
     1
 95
       32
 96
       28
 40
0.0
 40
0.0
 40
0.0
 40
0.0
 40
1.0
 40
1.0
 40
1.0
 40
2.0
 40
2.0
 40
2.0
 40
3.0
 40
3.0
 40
3.0
 40
4.0
 40
4.0
 40
4.0
 40
5.0
 40
5.0
 40
5.0
 40
6.0
 40
6.0
 40
6.0
 40
7.0
 40
7.0
 40
7.0
 40
8.0
 40
8.0
 40
8.0
 40
9.0
 40
9.0
 40
9.0
 40
9.0
 10
108.7730332844387
 20
-133.915340135792
 10
108.2566134711997
 20
-133.915340135792
 10
108.2483452420351
 20
-133.3610242722153
 10
108.2483452420351
 20
-133.1474283521298
 10
108.2483452420351
 20
-132.9167792093923
 10
108.2676377767525
 20
-132.2694457677139
 10
108.811273844325
 20
-132.2694457677139
 10
108.984562147233
 20
-132.2694457677139
 10
109.2298529457828
 20
-132.3392089512902
 10
109.2680935056691
 20
-132.6713161560683
 10
109.2680935056691
 20
-132.6713161560683
 10
109.0544975855836
 20
-132.6713161560683
 10
109.0544975855836
 20
-132.6713161560683
 10
109.0438177895793
 20
-132.6142998257874
 10
109.012122911115
 20
-132.4661607199216
 10
108.8092067870338
 20
-132.4661607199216
 10
108.5170626898846
 20
-132.4661607199216
 10
108.4767550727072
 20
-132.7941338101174
 10
108.4640082194118
 20
-132.9992892462641
 10
108.5570257975135
 20
-132.9210855787489
 10
108.6248941785729
 20
-132.8618299364026
 10
108.8067952201941
 20
-132.8618299364026
 10
108.9866292045242
 20
-132.8618299364026
 10
109.2891085881291
 20
-132.9696614250909
 10
109.2891085881291
 20
-133.3758381828019
 10
109.2891085881291
 20
-133.6953707890588
 10
109.0903265786302
 20
-133.915340135792
 10
108.7730332844387
 20
-133.915340135792
 97
        0
 97
        0
 92
        1
 93
        1
 72
     4
 94
        3
 73
     0
 74
     1
 95
       17
 96
       13
 40
0.0
 40
0.0
 40
0.0
 40
0.0
 40
1.0
 40
1.0
 40
1.0
 40
2.0
 40
2.0
 40
2.0
 40
3.0
 40
3.0
 40
3.0
 40
4.0
 40
4.0
 40
4.0
 40
4.0
 10
108.7899142523164
 20
-133.0564778313192
 10
108.5273979763404
 20
-133.0564778313192
 10
108.4895019260026
 20
-133.2680066941136
 10
108.4895019260026
 20
-133.3842786667408
 10
108.4895019260026
 20
-133.5599785364885
 10
108.5845865613955
 20
-133.7227592981666
 10
108.7685546603079
 20
-133.7227592981666
 10
108.8891330022916
 20
-133.7227592981666
 10
109.0648328720393
 20
-133.6635036558203
 10
109.0648328720393
 20
-133.377905240093
 10
109.0648328720393
 20
-133.1538017787775
 10
108.9253065048867
 20
-133.0564778313192
 10
108.7899142523164
 20
-133.0564778313192
 97
        0
 97
        0
 75
     2
 76
     1
 98
        0
  0
ENDBLK
  5
E4
330
E1
100
AcDbEntity
  8
0
100
AcDbBlockEnd
  0
BLOCK
  5
FA
330
F8
100
AcDbEntity
  8
0
100
AcDbBlockBegin
  2
block 4
 70
     0
 10
0.0
 20
0.0
 30
0.0
  3
block 4
  1

  0
SPLINE
  5
FC
330
F8
100
AcDbEntity
  8
_U+30EC_U+30A4_U+30E4_U+30FC 1
370
     0
100
AcDbSpline
210
0.0
220
0.0
230
1.0
 70
    11
 71
     3
 72
    32
 73
    28
 74
     0
 42
0.0000000001
 43
0.0000000001
 12
1.0
 22
0.0
 32
0.0
 13
1.0
 23
0.0
 33
0.0
 40
0.0
 40
0.0
 40
0.0
 40
0.0
 40
1.0
 40
1.0
 40
1.0
 40
2.0
 40
2.0
 40
2.0
 40
3.0
 40
3.0
 40
3.0
 40
4.0
 40
4.0
 40
4.0
 40
5.0
 40
5.0
 40
5.0
 40
6.0
 40
6.0
 40
6.0
 40
7.0
 40
7.0
 40
7.0
 40
8.0
 40
8.0
 40
8.0
 40
9.0
 40
9.0
 40
9.0
 40
9.0
 10
126.4167453025972
 20
-141.727783167693
 30
0.0
 10
126.4167453025972
 20
-142.2438584713835
 30
0.0
 10
125.8624294390205
 20
-142.2521267005481
 30
0.0
 10
125.648833518935
 20
-142.2521267005481
 30
0.0
 10
125.4180121214233
 20
-142.2521267005481
 30
0.0
 10
124.7710231892934
 20
-142.2331786753792
 30
0.0
 10
124.7710231892934
 20
-141.6895426078068
 30
0.0
 10
124.7710231892934
 20
-141.5162543048987
 30
0.0
 10
124.8406141180954
 20
-141.2706189968004
 30
0.0
 10
125.1727213228735
 20
-141.2327229464627
 30
0.0
 10
125.1727213228735
 20
-141.2327229464627
 30
0.0
 10
125.1727213228735
 20
-141.4463188665482
 30
0.0
 10
125.1727213228735
 20
-141.4463188665482
 30
0.0
 10
125.1155327378183
 20
-141.4569986625524
 30
0.0
 10
124.9673936319526
 20
-141.4886935410167
 30
0.0
 10
124.9673936319526
 20
-141.6916096650979
 30
0.0
 10
124.9673936319526
 20
-141.9837537622471
 30
0.0
 10
125.2953667221484
 20
-142.023716869876
 30
0.0
 10
125.5006944130693
 20
-142.0364637231714
 30
0.0
 10
125.4224907455541
 20
-141.9434461450697
 30
0.0
 10
125.3632351032078
 20
-141.8755777640103
 30
0.0
 10
125.3632351032078
 20
-141.6936767223891
 30
0.0
 10
125.3632351032078
 20
-141.5138427380591
 30
0.0
 10
125.4710665918961
 20
-141.2113633544541
 30
0.0
 10
125.8772433496071
 20
-141.2113633544541
 30
0.0
 10
126.1966037010897
 20
-141.2113633544541
 30
0.0
 10
126.4167453025972
 20
-141.4104898735015
 30
0.0
 10
126.4167453025972
 20
-141.727783167693
 30
0.0
  0
SPLINE
  5
FD
330
F8
100
AcDbEntity
  8
_U+30EC_U+30A4_U+30E4_U+30FC 1
370
     0
100
AcDbSpline
210
0.0
220
0.0
230
1.0
 70
    11
 71
     3
 72
    17
 73
    13
 74
     0
 42
0.0000000001
 43
0.0000000001
 12
1.0
 22
0.0
 32
0.0
 13
1.0
 23
0.0
 33
0.0
 40
0.0
 40
0.0
 40
0.0
 40
0.0
 40
1.0
 40
1.0
 40
1.0
 40
2.0
 40
2.0
 40
2.0
 40
3.0
 40
3.0
 40
3.0
 40
4.0
 40
4.0
 40
4.0
 40
4.0
 10
125.5578829981244
 20
-141.7105576902668
 30
0.0
 10
125.5578829981244
 20
-141.9730739662429
 30
0.0
 10
125.7694118609188
 20
-142.0109700165806
 30
0.0
 10
125.8858560883202
 20
-142.0109700165806
 30
0.0
 10
126.061555958068
 20
-142.0109700165806
 30
0.0
 10
126.2241644649717
 20
-141.9158853811877
 30
0.0
 10
126.2241644649717
 20
-141.7319172822754
 30
0.0
 10
126.2241644649717
 20
-141.6113389402916
 30
0.0
 10
126.1649088226254
 20
-141.4356390705439
 30
0.0
 10
125.8793104068982
 20
-141.4356390705439
 30
0.0
 10
125.6550346908085
 20
-141.4356390705439
 30
0.0
 10
125.5578829981244
 20
-141.575509947245
 30
0.0
 10
125.5578829981244
 20
-141.7105576902668
 30
0.0
  0
HATCH
  5
FE
330
F8
100
AcDbEntity
  8
_U+30EC_U+30A4_U+30E4_U+30FC 1
 62
   179
420
  2234388
100
AcDbHatch
 10
0.0
 20
0.0
 30
0.0
210
0.0
220
0.0
230
1.0
  2
SOLID
 70
     1
 71
     0
 91
        2
 92
        1
 93
        1
 72
     4
 94
        3
 73
     0
 74
     1
 95
       32
 96
       28
 40
0.0
 40
0.0
 40
0.0
 40
0.0
 40
1.0
 40
1.0
 40
1.0
 40
2.0
 40
2.0
 40
2.0
 40
3.0
 40
3.0
 40
3.0
 40
4.0
 40
4.0
 40
4.0
 40
5.0
 40
5.0
 40
5.0
 40
6.0
 40
6.0
 40
6.0
 40
7.0
 40
7.0
 40
7.0
 40
8.0
 40
8.0
 40
8.0
 40
9.0
 40
9.0
 40
9.0
 40
9.0
 10
126.4167453025972
 20
-141.727783167693
 10
126.4167453025972
 20
-142.2438584713835
 10
125.8624294390205
 20
-142.2521267005481
 10
125.648833518935
 20
-142.2521267005481
 10
125.4180121214233
 20
-142.2521267005481
 10
124.7710231892934
 20
-142.2331786753792
 10
124.7710231892934
 20
-141.6895426078068
 10
124.7710231892934
 20
-141.5162543048987
 10
124.8406141180954
 20
-141.2706189968004
 10
125.1727213228735
 20
-141.2327229464627
 10
125.1727213228735
 20
-141.2327229464627
 10
125.1727213228735
 20
-141.4463188665482
 10
125.1727213228735
 20
-141.4463188665482
 10
125.1155327378183
 20
-141.4569986625524
 10
124.9673936319526
 20
-141.4886935410167
 10
124.9673936319526
 20
-141.6916096650979
 10
124.9673936319526
 20
-141.9837537622471
 10
125.2953667221484
 20
-142.023716869876
 10
125.5006944130693
 20
-142.0364637231714
 10
125.4224907455541
 20
-141.9434461450697
 10
125.3632351032078
 20
-141.8755777640103
 10
125.3632351032078
 20
-141.6936767223891
 10
125.3632351032078
 20
-141.5138427380591
 10
125.4710665918961
 20
-141.2113633544541
 10
125.8772433496071
 20
-141.2113633544541
 10
126.1966037010897
 20
-141.2113633544541
 10
126.4167453025972
 20
-141.4104898735015
 10
126.4167453025972
 20
-141.727783167693
 97
        0
 97
        0
 92
        1
 93
        1
 72
     4
 94
        3
 73
     0
 74
     1
 95
       17
 96
       13
 40
0.0
 40
0.0
 40
0.0
 40
0.0
 40
1.0
 40
1.0
 40
1.0
 40
2.0
 40
2.0
 40
2.0
 40
3.0
 40
3.0
 40
3.0
 40
4.0
 40
4.0
 40
4.0
 40
4.0
 10
125.5578829981244
 20
-141.7105576902668
 10
125.5578829981244
 20
-141.9730739662429
 10
125.7694118609188
 20
-142.0109700165806
 10
125.8858560883202
 20
-142.0109700165806
 10
126.061555958068
 20
-142.0109700165806
 10
126.2241644649717
 20
-141.9158853811877
 10
126.2241644649717
 20
-141.7319172822754
 10
126.2241644649717
 20
-141.6113389402916
 10
126.1649088226254
 20
-141.4356390705439
 10
125.8793104068982
 20
-141.4356390705439
 10
125.6550346908085
 20
-141.4356390705439
 10
125.5578829981244
 20
-141.575509947245
 10
125.5578829981244
 20
-141.7105576902668
 97
        0
 97
        0
 75
     2
 76
     1
 98
        0
  0
ENDBLK
  5
FB
330
F8
100
AcDbEntity
  8
0
100
AcDbBlockEnd
  0
BLOCK
  5
10D
330
10B
100
AcDbEntity
  8
0
100
AcDbBlockBegin
  2
block 5
 70
     0
 10
0.0
 20
0.0
 30
0.0
  3
block 5
  1

  0
SPLINE
  5
10F
330
10B
100
AcDbEntity
  8
_U+30EC_U+30A4_U+30E4_U+30FC 1
370
     0
100
AcDbSpline
210
0.0
220
0.0
230
1.0
 70
    11
 71
     3
 72
    44
 73
    40
 74
     0
 42
0.0000000001
 43
0.0000000001
 12
1.0
 22
0.0
 32
0.0
 13
1.0
 23
0.0
 33
0.0
 40
0.0
 40
0.0
 40
0.0
 40
0.0
 40
1.0
 40
1.0
 40
1.0
 40
2.0
 40
2.0
 40
2.0
 40
3.0
 40
3.0
 40
3.0
 40
4.0
 40
4.0
 40
4.0
 40
5.0
 40
5.0
 40
5.0
 40
6.0
 40
6.0
 40
6.0
 40
7.0
 40
7.0
 40
7.0
 40
8.0
 40
8.0
 40
8.0
 40
9.0
 40
9.0
 40
9.0
 40
10.0
 40
10.0
 40
10.0
 40
11.0
 40
11.0
 40
11.0
 40
12.0
 40
12.0
 40
12.0
 40
13.0
 40
13.0
 40
13.0
 40
13.0
 10
84.7291951285573
 20
-152.2160318629877
 30
0.0
 10
84.88784177565304
 20
-152.434106407204
 30
0.0
 10
84.96191132858591
 20
-152.5274684948542
 30
0.0
 10
85.1057440650951
 20
-152.5756998316477
 30
0.0
 10
85.1057440650951
 20
-152.5756998316477
 30
0.0
 10
85.1057440650951
 20
-151.7974527615298
 30
0.0
 10
85.1057440650951
 20
-151.7974527615298
 30
0.0
 10
85.1057440650951
 20
-151.7974527615298
 30
0.0
 10
85.31089950124172
 20
-151.7974527615298
 30
0.0
 10
85.31089950124172
 20
-151.7974527615298
 30
0.0
 10
85.31089950124172
 20
-151.7974527615298
 30
0.0
 10
85.31089950124172
 20
-152.8254692543284
 30
0.0
 10
85.31089950124172
 20
-152.8254692543284
 30
0.0
 10
84.95329858987279
 20
-152.7937743758641
 30
0.0
 10
84.87509492235762
 20
-152.7283175616443
 30
0.0
 10
84.57674965333499
 20
-152.3431558863934
 30
0.0
 10
84.37796764383607
 20
-152.0871852918393
 30
0.0
 10
84.3102715175509
 20
-152.0217284776196
 30
0.0
 10
84.17281220768945
 20
-152.0217284776196
 30
0.0
 10
84.05430092299684
 20
-152.0217284776196
 30
0.0
 10
83.92321503978309
 20
-152.0933864637128
 30
0.0
 10
83.92321503978309
 20
-152.2904459254691
 30
0.0
 10
83.92321503978309
 20
-152.5505506346054
 30
0.0
 10
84.15369192774631
 20
-152.5591633733185
 30
0.0
 10
84.27013615514775
 20
-152.5632974879009
 30
0.0
 10
84.27013615514775
 20
-152.5632974879009
 30
0.0
 10
84.27013615514775
 20
-152.7872286944421
 30
0.0
 10
84.27013615514775
 20
-152.7872286944421
 30
0.0
 10
84.1431843865163
 20
-152.7789604652775
 30
0.0
 10
84.0310465284714
 20
-152.7686251788217
 30
0.0
 10
83.91253524377882
 20
-152.6880099444669
 30
0.0
 10
83.75182153939191
 20
-152.5781113984874
 30
0.0
 10
83.71788734886219
 20
-152.3917317327354
 30
0.0
 10
83.71788734886219
 20
-152.2752875053339
 30
0.0
 10
83.71788734886219
 20
-151.9983018283199
 30
0.0
 10
83.9020277025488
 20
-151.7909070801078
 30
0.0
 10
84.17487926498059
 20
-151.7909070801078
 30
0.0
 10
84.40328909565265
 20
-151.7909070801078
 30
0.0
 10
84.50285235517637
 20
-151.9073513075093
 30
0.0
 10
84.7291951285573
 20
-152.2160318629877
 30
0.0
  0
HATCH
  5
110
330
10B
100
AcDbEntity
  8
_U+30EC_U+30A4_U+30E4_U+30FC 1
 62
   179
420
  2234388
100
AcDbHatch
 10
0.0
 20
0.0
 30
0.0
210
0.0
220
0.0
230
1.0
  2
SOLID
 70
     1
 71
     0
 91
        1
 92
        1
 93
        1
 72
     4
 94
        3
 73
     0
 74
     1
 95
       44
 96
       40
 40
0.0
 40
0.0
 40
0.0
 40
0.0
 40
1.0
 40
1.0
 40
1.0
 40
2.0
 40
2.0
 40
2.0
 40
3.0
 40
3.0
 40
3.0
 40
4.0
 40
4.0
 40
4.0
 40
5.0
 40
5.0
 40
5.0
 40
6.0
 40
6.0
 40
6.0
 40
7.0
 40
7.0
 40
7.0
 40
8.0
 40
8.0
 40
8.0
 40
9.0
 40
9.0
 40
9.0
 40
10.0
 40
10.0
 40
10.0
 40
11.0
 40
11.0
 40
11.0
 40
12.0
 40
12.0
 40
12.0
 40
13.0
 40
13.0
 40
13.0
 40
13.0
 10
84.7291951285573
 20
-152.2160318629877
 10
84.88784177565304
 20
-152.434106407204
 10
84.96191132858591
 20
-152.5274684948542
 10
85.1057440650951
 20
-152.5756998316477
 10
85.1057440650951
 20
-152.5756998316477
 10
85.1057440650951
 20
-151.7974527615298
 10
85.1057440650951
 20
-151.7974527615298
 10
85.1057440650951
 20
-151.7974527615298
 10
85.31089950124172
 20
-151.7974527615298
 10
85.31089950124172
 20
-151.7974527615298
 10
85.31089950124172
 20
-151.7974527615298
 10
85.31089950124172
 20
-152.8254692543284
 10
85.31089950124172
 20
-152.8254692543284
 10
84.95329858987279
 20
-152.7937743758641
 10
84.87509492235762
 20
-152.7283175616443
 10
84.57674965333499
 20
-152.3431558863934
 10
84.37796764383607
 20
-152.0871852918393
 10
84.3102715175509
 20
-152.0217284776196
 10
84.17281220768945
 20
-152.0217284776196
 10
84.05430092299684
 20
-152.0217284776196
 10
83.92321503978309
 20
-152.0933864637128
 10
83.92321503978309
 20
-152.2904459254691
 10
83.92321503978309
 20
-152.5505506346054
 10
84.15369192774631
 20
-152.5591633733185
 10
84.27013615514775
 20
-152.5632974879009
 10
84.27013615514775
 20
-152.5632974879009
 10
84.27013615514775
 20
-152.7872286944421
 10
84.27013615514775
 20
-152.7872286944421
 10
84.1431843865163
 20
-152.7789604652775
 10
84.0310465284714
 20
-152.7686251788217
 10
83.91253524377882
 20
-152.6880099444669
 10
83.75182153939191
 20
-152.5781113984874
 10
83.71788734886219
 20
-152.3917317327354
 10
83.71788734886219
 20
-152.2752875053339
 10
83.71788734886219
 20
-151.9983018283199
 10
83.9020277025488
 20
-151.7909070801078
 10
84.17487926498059
 20
-151.7909070801078
 10
84.40328909565265
 20
-151.7909070801078
 10
84.50285235517637
 20
-151.9073513075093
 10
84.7291951285573
 20
-152.2160318629877
 97
        0
 97
        0
 75
     2
 76
     1
 98
        0
  0
SPLINE
  5
111
330
10B
100
AcDbEntity
  8
_U+30EC_U+30A4_U+30E4_U+30FC 1
370
     0
100
AcDbSpline
210
0.0
220
0.0
230
1.0
 70
    11
 71
     3
 72
    32
 73
    28
 74
     0
 42
0.0000000001
 43
0.0000000001
 12
1.0
 22
0.0
 32
0.0
 13
1.0
 23
0.0
 33
0.0
 40
0.0
 40
0.0
 40
0.0
 40
0.0
 40
1.0
 40
1.0
 40
1.0
 40
2.0
 40
2.0
 40
2.0
 40
3.0
 40
3.0
 40
3.0
 40
4.0
 40
4.0
 40
4.0
 40
5.0
 40
5.0
 40
5.0
 40
6.0
 40
6.0
 40
6.0
 40
7.0
 40
7.0
 40
7.0
 40
8.0
 40
8.0
 40
8.0
 40
9.0
 40
9.0
 40
9.0
 40
9.0
 10
85.36171465964915
 20
-151.1280707087458
 30
0.0
 10
85.36171465964915
 20
-151.6444905219847
 30
0.0
 10
84.80739879607246
 20
-151.6531032606978
 30
0.0
 10
84.59380287598697
 20
-151.6531032606978
 30
0.0
 10
84.36315373324949
 20
-151.6531032606978
 30
0.0
 10
83.71582029157105
 20
-151.6338107259805
 30
0.0
 10
83.71582029157105
 20
-151.090174658408
 30
0.0
 10
83.71582029157105
 20
-150.9165418459514
 30
0.0
 10
83.78558347514736
 20
-150.6712510474016
 30
0.0
 10
84.11769067992545
 20
-150.6333549970639
 30
0.0
 10
84.11769067992545
 20
-150.6333549970639
 30
0.0
 10
84.11769067992545
 20
-150.8469509171494
 30
0.0
 10
84.11769067992545
 20
-150.8469509171494
 30
0.0
 10
84.06067434964456
 20
-150.8572862036051
 30
0.0
 10
83.91253524377882
 20
-150.8889810820694
 30
0.0
 10
83.91253524377882
 20
-151.0922417156992
 30
0.0
 10
83.91253524377882
 20
-151.3843858128484
 30
0.0
 10
84.2405083339746
 20
-151.4243489204773
 30
0.0
 10
84.44566377012123
 20
-151.4370957737727
 30
0.0
 10
84.36746010260606
 20
-151.3440781956709
 30
0.0
 10
84.30820446025976
 20
-151.2762098146115
 30
0.0
 10
84.30820446025976
 20
-151.0943087729903
 30
0.0
 10
84.30820446025976
 20
-150.9144747886603
 30
0.0
 10
84.41603594894808
 20
-150.6119954050554
 30
0.0
 10
84.82221270665903
 20
-150.6119954050554
 30
0.0
 10
85.14174531291596
 20
-150.6119954050554
 30
0.0
 10
85.36171465964915
 20
-150.8111219241028
 30
0.0
 10
85.36171465964915
 20
-151.1280707087458
 30
0.0
  0
SPLINE
  5
112
330
10B
100
AcDbEntity
  8
_U+30EC_U+30A4_U+30E4_U+30FC 1
370
     0
100
AcDbSpline
210
0.0
220
0.0
230
1.0
 70
    11
 71
     3
 72
    17
 73
    13
 74
     0
 42
0.0000000001
 43
0.0000000001
 12
1.0
 22
0.0
 32
0.0
 13
1.0
 23
0.0
 33
0.0
 40
0.0
 40
0.0
 40
0.0
 40
0.0
 40
1.0
 40
1.0
 40
1.0
 40
2.0
 40
2.0
 40
2.0
 40
3.0
 40
3.0
 40
3.0
 40
4.0
 40
4.0
 40
4.0
 40
4.0
 10
84.50285235517637
 20
-151.1115342504166
 30
0.0
 10
84.50285235517637
 20
-151.3737060168441
 30
0.0
 10
84.71438121797071
 20
-151.4119465767303
 30
0.0
 10
84.8306531905979
 20
-151.4119465767303
 30
0.0
 10
85.00635306034563
 20
-151.4119465767303
 30
0.0
 10
85.1691338220237
 20
-151.3165174317889
 30
0.0
 10
85.1691338220237
 20
-151.1325493328766
 30
0.0
 10
85.1691338220237
 20
-151.0119709908928
 30
0.0
 10
85.1098781796774
 20
-150.8362711211451
 30
0.0
 10
84.82427976395019
 20
-150.8362711211451
 30
0.0
 10
84.60017630263468
 20
-150.8362711211451
 30
0.0
 10
84.50285235517637
 20
-150.9757974882977
 30
0.0
 10
84.50285235517637
 20
-151.1115342504166
 30
0.0
  0
HATCH
  5
113
330
10B
100
AcDbEntity
  8
_U+30EC_U+30A4_U+30E4_U+30FC 1
 62
   179
420
  2234388
100
AcDbHatch
 10
0.0
 20
0.0
 30
0.0
210
0.0
220
0.0
230
1.0
  2
SOLID
 70
     1
 71
     0
 91
        2
 92
        1
 93
        1
 72
     4
 94
        3
 73
     0
 74
     1
 95
       32
 96
       28
 40
0.0
 40
0.0
 40
0.0
 40
0.0
 40
1.0
 40
1.0
 40
1.0
 40
2.0
 40
2.0
 40
2.0
 40
3.0
 40
3.0
 40
3.0
 40
4.0
 40
4.0
 40
4.0
 40
5.0
 40
5.0
 40
5.0
 40
6.0
 40
6.0
 40
6.0
 40
7.0
 40
7.0
 40
7.0
 40
8.0
 40
8.0
 40
8.0
 40
9.0
 40
9.0
 40
9.0
 40
9.0
 10
85.36171465964915
 20
-151.1280707087458
 10
85.36171465964915
 20
-151.6444905219847
 10
84.80739879607246
 20
-151.6531032606978
 10
84.59380287598697
 20
-151.6531032606978
 10
84.36315373324949
 20
-151.6531032606978
 10
83.71582029157105
 20
-151.6338107259805
 10
83.71582029157105
 20
-151.090174658408
 10
83.71582029157105
 20
-150.9165418459514
 10
83.78558347514736
 20
-150.6712510474016
 10
84.11769067992545
 20
-150.6333549970639
 10
84.11769067992545
 20
-150.6333549970639
 10
84.11769067992545
 20
-150.8469509171494
 10
84.11769067992545
 20
-150.8469509171494
 10
84.06067434964456
 20
-150.8572862036051
 10
83.91253524377882
 20
-150.8889810820694
 10
83.91253524377882
 20
-151.0922417156992
 10
83.91253524377882
 20
-151.3843858128484
 10
84.2405083339746
 20
-151.4243489204773
 10
84.44566377012123
 20
-151.4370957737727
 10
84.36746010260606
 20
-151.3440781956709
 10
84.30820446025976
 20
-151.2762098146115
 10
84.30820446025976
 20
-151.0943087729903
 10
84.30820446025976
 20
-150.9144747886603
 10
84.41603594894808
 20
-150.6119954050554
 10
84.82221270665903
 20
-150.6119954050554
 10
85.14174531291596
 20
-150.6119954050554
 10
85.36171465964915
 20
-150.8111219241028
 10
85.36171465964915
 20
-151.1280707087458
 97
        0
 97
        0
 92
        1
 93
        1
 72
     4
 94
        3
 73
     0
 74
     1
 95
       17
 96
       13
 40
0.0
 40
0.0
 40
0.0
 40
0.0
 40
1.0
 40
1.0
 40
1.0
 40
2.0
 40
2.0
 40
2.0
 40
3.0
 40
3.0
 40
3.0
 40
4.0
 40
4.0
 40
4.0
 40
4.0
 10
84.50285235517637
 20
-151.1115342504166
 10
84.50285235517637
 20
-151.3737060168441
 10
84.71438121797071
 20
-151.4119465767303
 10
84.8306531905979
 20
-151.4119465767303
 10
85.00635306034563
 20
-151.4119465767303
 10
85.1691338220237
 20
-151.3165174317889
 10
85.1691338220237
 20
-151.1325493328766
 10
85.1691338220237
 20
-151.0119709908928
 10
85.1098781796774
 20
-150.8362711211451
 10
84.82427976395019
 20
-150.8362711211451
 10
84.60017630263468
 20
-150.8362711211451
 10
84.50285235517637
 20
-150.9757974882977
 10
84.50285235517637
 20
-151.1115342504166
 97
        0
 97
        0
 75
     2
 76
     1
 98
        0
  0
ENDBLK
  5
10E
330
10B
100
AcDbEntity
  8
0
100
AcDbBlockEnd
  0
BLOCK
  5
132
330
130
100
AcDbEntity
  8
0
100
AcDbBlockBegin
  2
block 6
 70
     0
 10
0.0
 20
0.0
 30
0.0
  3
block 6
  1

  0
POLYLINE
  5
134
330
130
100
AcDbEntity
  8
_U+30EC_U+30A4_U+30E4_U+30FC 1
370
     0
100
AcDb2dPolyline
 66
     1
 10
0.0
 20
0.0
 30
0.0
  0
VERTEX
  5
135
330
134
100
AcDbEntity
  8
_U+30EC_U+30A4_U+30E4_U+30FC 1
370
     0
100
AcDbVertex
100
AcDb2dVertex
 10
89.32426348678352
 20
-133.8986314226885
 30
0.0
  0
VERTEX
  5
136
330
134
100
AcDbEntity
  8
_U+30EC_U+30A4_U+30E4_U+30FC 1
370
     0
100
AcDbVertex
100
AcDb2dVertex
 10
89.32426348678352
 20
-133.7379177183016
 30
0.0
  0
VERTEX
  5
137
330
134
100
AcDbEntity
  8
_U+30EC_U+30A4_U+30E4_U+30FC 1
370
     0
100
AcDbVertex
100
AcDb2dVertex
 10
89.47860376452272
 20
-133.7379177183016
 30
0.0
  0
VERTEX
  5
138
330
134
100
AcDbEntity
  8
_U+30EC_U+30A4_U+30E4_U+30FC 1
370
     0
100
AcDbVertex
100
AcDb2dVertex
 10
89.47860376452272
 20
-133.8986314226885
 30
0.0
  0
VERTEX
  5
139
330
134
100
AcDbEntity
  8
_U+30EC_U+30A4_U+30E4_U+30FC 1
370
     0
100
AcDbVertex
100
AcDb2dVertex
 10
89.87220592371251
 20
-133.8986314226885
 30
0.0
  0
VERTEX
  5
13A
330
134
100
AcDbEntity
  8
_U+30EC_U+30A4_U+30E4_U+30FC 1
370
     0
100
AcDbVertex
100
AcDb2dVertex
 10
89.87220592371251
 20
-134.053143955202
 30
0.0
  0
VERTEX
  5
13B
330
134
100
AcDbEntity
  8
_U+30EC_U+30A4_U+30E4_U+30FC 1
370
     0
100
AcDbVertex
100
AcDb2dVertex
 10
89.47860376452272
 20
-134.053143955202
 30
0.0
  0
VERTEX
  5
13C
330
134
100
AcDbEntity
  8
_U+30EC_U+30A4_U+30E4_U+30FC 1
370
     0
100
AcDbVertex
100
AcDb2dVertex
 10
89.47860376452272
 20
-134.2074842329412
 30
0.0
  0
VERTEX
  5
13D
330
134
100
AcDbEntity
  8
_U+30EC_U+30A4_U+30E4_U+30FC 1
370
     0
100
AcDbVertex
100
AcDb2dVertex
 10
89.83396536382624
 20
-134.2074842329412
 30
0.0
  0
VERTEX
  5
13E
330
134
100
AcDbEntity
  8
_U+30EC_U+30A4_U+30E4_U+30FC 1
370
     0
100
AcDbVertex
100
AcDb2dVertex
 10
89.83396536382624
 20
-135.0198377483631
 30
0.0
  0
VERTEX
  5
13F
330
134
100
AcDbEntity
  8
_U+30EC_U+30A4_U+30E4_U+30FC 1
370
     0
100
AcDbVertex
100
AcDb2dVertex
 10
89.47860376452272
 20
-135.0198377483631
 30
0.0
  0
VERTEX
  5
140
330
134
100
AcDbEntity
  8
_U+30EC_U+30A4_U+30E4_U+30FC 1
370
     0
100
AcDbVertex
100
AcDb2dVertex
 10
89.47860376452272
 20
-135.1891641914631
 30
0.0
  0
VERTEX
  5
141
330
134
100
AcDbEntity
  8
_U+30EC_U+30A4_U+30E4_U+30FC 1
370
     0
100
AcDbVertex
100
AcDb2dVertex
 10
89.88701983429908
 20
-135.1891641914631
 30
0.0
  0
VERTEX
  5
142
330
134
100
AcDbEntity
  8
_U+30EC_U+30A4_U+30E4_U+30FC 1
370
     0
100
AcDbVertex
100
AcDb2dVertex
 10
89.88701983429908
 20
-135.3435044692023
 30
0.0
  0
VERTEX
  5
143
330
134
100
AcDbEntity
  8
_U+30EC_U+30A4_U+30E4_U+30FC 1
370
     0
100
AcDbVertex
100
AcDb2dVertex
 10
89.47860376452272
 20
-135.3435044692023
 30
0.0
  0
VERTEX
  5
144
330
134
100
AcDbEntity
  8
_U+30EC_U+30A4_U+30E4_U+30FC 1
370
     0
100
AcDbVertex
100
AcDb2dVertex
 10
89.47860376452272
 20
-135.6967990112147
 30
0.0
  0
VERTEX
  5
145
330
134
100
AcDbEntity
  8
_U+30EC_U+30A4_U+30E4_U+30FC 1
370
     0
100
AcDbVertex
100
AcDb2dVertex
 10
89.32426348678352
 20
-135.6967990112147
 30
0.0
  0
VERTEX
  5
146
330
134
100
AcDbEntity
  8
_U+30EC_U+30A4_U+30E4_U+30FC 1
370
     0
100
AcDbVertex
100
AcDb2dVertex
 10
89.32426348678352
 20
-135.3435044692023
 30
0.0
  0
VERTEX
  5
147
330
134
100
AcDbEntity
  8
_U+30EC_U+30A4_U+30E4_U+30FC 1
370
     0
100
AcDbVertex
100
AcDb2dVertex
 10
88.913780359716
 20
-135.3435044692023
 30
0.0
  0
VERTEX
  5
148
330
134
100
AcDbEntity
  8
_U+30EC_U+30A4_U+30E4_U+30FC 1
370
     0
100
AcDbVertex
100
AcDb2dVertex
 10
88.913780359716
 20
-135.1891641914631
 30
0.0
  0
VERTEX
  5
149
330
134
100
AcDbEntity
  8
_U+30EC_U+30A4_U+30E4_U+30FC 1
370
     0
100
AcDbVertex
100
AcDb2dVertex
 10
89.32426348678352
 20
-135.1891641914631
 30
0.0
  0
VERTEX
  5
14A
330
134
100
AcDbEntity
  8
_U+30EC_U+30A4_U+30E4_U+30FC 1
370
     0
100
AcDbVertex
100
AcDb2dVertex
 10
89.32426348678352
 20
-135.0198377483631
 30
0.0
  0
VERTEX
  5
14B
330
134
100
AcDbEntity
  8
_U+30EC_U+30A4_U+30E4_U+30FC 1
370
     0
100
AcDbVertex
100
AcDb2dVertex
 10
88.97510305935344
 20
-135.0198377483631
 30
0.0
  0
VERTEX
  5
14C
330
134
100
AcDbEntity
  8
_U+30EC_U+30A4_U+30E4_U+30FC 1
370
     0
100
AcDbVertex
100
AcDb2dVertex
 10
88.97510305935344
 20
-134.2074842329412
 30
0.0
  0
VERTEX
  5
14D
330
134
100
AcDbEntity
  8
_U+30EC_U+30A4_U+30E4_U+30FC 1
370
     0
100
AcDbVertex
100
AcDb2dVertex
 10
89.32426348678352
 20
-134.2074842329412
 30
0.0
  0
VERTEX
  5
14E
330
134
100
AcDbEntity
  8
_U+30EC_U+30A4_U+30E4_U+30FC 1
370
     0
100
AcDbVertex
100
AcDb2dVertex
 10
89.32426348678352
 20
-134.053143955202
 30
0.0
  0
VERTEX
  5
14F
330
134
100
AcDbEntity
  8
_U+30EC_U+30A4_U+30E4_U+30FC 1
370
     0
100
AcDbVertex
100
AcDb2dVertex
 10
88.9349676969503
 20
-134.053143955202
 30
0.0
  0
VERTEX
  5
150
330
134
100
AcDbEntity
  8
_U+30EC_U+30A4_U+30E4_U+30FC 1
370
     0
100
AcDbVertex
100
AcDb2dVertex
 10
88.9349676969503
 20
-133.8986314226885
 30
0.0
  0
VERTEX
  5
151
330
134
100
AcDbEntity
  8
_U+30EC_U+30A4_U+30E4_U+30FC 1
370
     0
100
AcDbVertex
100
AcDb2dVertex
 10
89.32426348678352
 20
-133.8986314226885
 30
0.0
  0
SEQEND
  5
152
330
134
100
AcDbEntity
  8
_U+30EC_U+30A4_U+30E4_U+30FC 1
370
     0
  0
POLYLINE
  5
153
330
130
100
AcDbEntity
  8
_U+30EC_U+30A4_U+30E4_U+30FC 1
370
     0
100
AcDb2dPolyline
 66
     1
 10
0.0
 20
0.0
 30
0.0
  0
VERTEX
  5
154
330
153
100
AcDbEntity
  8
_U+30EC_U+30A4_U+30E4_U+30FC 1
370
     0
100
AcDbVertex
100
AcDb2dVertex
 10
89.32426348678352
 20
-134.3471828548681
 30
0.0
  0
VERTEX
  5
155
330
153
100
AcDbEntity
  8
_U+30EC_U+30A4_U+30E4_U+30FC 1
370
     0
100
AcDbVertex
100
AcDb2dVertex
 10
89.11686873857148
 20
-134.3471828548681
 30
0.0
  0
VERTEX
  5
156
330
153
100
AcDbEntity
  8
_U+30EC_U+30A4_U+30E4_U+30FC 1
370
     0
100
AcDbVertex
100
AcDb2dVertex
 10
89.11686873857148
 20
-134.5502712337235
 30
0.0
  0
VERTEX
  5
157
330
153
100
AcDbEntity
  8
_U+30EC_U+30A4_U+30E4_U+30FC 1
370
     0
100
AcDbVertex
100
AcDb2dVertex
 10
89.32426348678352
 20
-134.5502712337235
 30
0.0
  0
VERTEX
  5
158
330
153
100
AcDbEntity
  8
_U+30EC_U+30A4_U+30E4_U+30FC 1
370
     0
100
AcDbVertex
100
AcDb2dVertex
 10
89.32426348678352
 20
-134.3471828548681
 30
0.0
  0
SEQEND
  5
159
330
153
100
AcDbEntity
  8
_U+30EC_U+30A4_U+30E4_U+30FC 1
370
     0
  0
POLYLINE
  5
15A
330
130
100
AcDbEntity
  8
_U+30EC_U+30A4_U+30E4_U+30FC 1
370
     0
100
AcDb2dPolyline
 66
     1
 10
0.0
 20
0.0
 30
0.0
  0
VERTEX
  5
15B
330
15A
100
AcDbEntity
  8
_U+30EC_U+30A4_U+30E4_U+30FC 1
370
     0
100
AcDbVertex
100
AcDb2dVertex
 10
89.32426348678352
 20
-134.6729166329984
 30
0.0
  0
VERTEX
  5
15C
330
15A
100
AcDbEntity
  8
_U+30EC_U+30A4_U+30E4_U+30FC 1
370
     0
100
AcDbVertex
100
AcDb2dVertex
 10
89.11686873857148
 20
-134.6729166329984
 30
0.0
  0
VERTEX
  5
15D
330
15A
100
AcDbEntity
  8
_U+30EC_U+30A4_U+30E4_U+30FC 1
370
     0
100
AcDbVertex
100
AcDb2dVertex
 10
89.11686873857148
 20
-134.8803113812105
 30
0.0
  0
VERTEX
  5
15E
330
15A
100
AcDbEntity
  8
_U+30EC_U+30A4_U+30E4_U+30FC 1
370
     0
100
AcDbVertex
100
AcDb2dVertex
 10
89.32426348678352
 20
-134.8803113812105
 30
0.0
  0
VERTEX
  5
15F
330
15A
100
AcDbEntity
  8
_U+30EC_U+30A4_U+30E4_U+30FC 1
370
     0
100
AcDbVertex
100
AcDb2dVertex
 10
89.32426348678352
 20
-134.6729166329984
 30
0.0
  0
SEQEND
  5
160
330
15A
100
AcDbEntity
  8
_U+30EC_U+30A4_U+30E4_U+30FC 1
370
     0
  0
POLYLINE
  5
161
330
130
100
AcDbEntity
  8
_U+30EC_U+30A4_U+30E4_U+30FC 1
370
     0
100
AcDb2dPolyline
 66
     1
 10
0.0
 20
0.0
 30
0.0
  0
VERTEX
  5
162
330
161
100
AcDbEntity
  8
_U+30EC_U+30A4_U+30E4_U+30FC 1
370
     0
100
AcDbVertex
100
AcDb2dVertex
 10
89.69013262731706
 20
-134.3471828548681
 30
0.0
  0
VERTEX
  5
163
330
161
100
AcDbEntity
  8
_U+30EC_U+30A4_U+30E4_U+30FC 1
370
     0
100
AcDbVertex
100
AcDb2dVertex
 10
89.47860376452272
 20
-134.3471828548681
 30
0.0
  0
VERTEX
  5
164
330
161
100
AcDbEntity
  8
_U+30EC_U+30A4_U+30E4_U+30FC 1
370
     0
100
AcDbVertex
100
AcDb2dVertex
 10
89.47860376452272
 20
-134.5502712337235
 30
0.0
  0
VERTEX
  5
165
330
161
100
AcDbEntity
  8
_U+30EC_U+30A4_U+30E4_U+30FC 1
370
     0
100
AcDbVertex
100
AcDb2dVertex
 10
89.69013262731706
 20
-134.5502712337235
 30
0.0
  0
VERTEX
  5
166
330
161
100
AcDbEntity
  8
_U+30EC_U+30A4_U+30E4_U+30FC 1
370
     0
100
AcDbVertex
100
AcDb2dVertex
 10
89.69013262731706
 20
-134.3471828548681
 30
0.0
  0
SEQEND
  5
167
330
161
100
AcDbEntity
  8
_U+30EC_U+30A4_U+30E4_U+30FC 1
370
     0
  0
POLYLINE
  5
168
330
130
100
AcDbEntity
  8
_U+30EC_U+30A4_U+30E4_U+30FC 1
370
     0
100
AcDb2dPolyline
 66
     1
 10
0.0
 20
0.0
 30
0.0
  0
VERTEX
  5
169
330
168
100
AcDbEntity
  8
_U+30EC_U+30A4_U+30E4_U+30FC 1
370
     0
100
AcDbVertex
100
AcDb2dVertex
 10
89.69013262731706
 20
-134.6729166329984
 30
0.0
  0
VERTEX
  5
16A
330
168
100
AcDbEntity
  8
_U+30EC_U+30A4_U+30E4_U+30FC 1
370
     0
100
AcDbVertex
100
AcDb2dVertex
 10
89.47860376452272
 20
-134.6729166329984
 30
0.0
  0
VERTEX
  5
16B
330
168
100
AcDbEntity
  8
_U+30EC_U+30A4_U+30E4_U+30FC 1
370
     0
100
AcDbVertex
100
AcDb2dVertex
 10
89.47860376452272
 20
-134.8803113812105
 30
0.0
  0
VERTEX
  5
16C
330
168
100
AcDbEntity
  8
_U+30EC_U+30A4_U+30E4_U+30FC 1
370
     0
100
AcDbVertex
100
AcDb2dVertex
 10
89.69013262731706
 20
-134.8803113812105
 30
0.0
  0
VERTEX
  5
16D
330
168
100
AcDbEntity
  8
_U+30EC_U+30A4_U+30E4_U+30FC 1
370
     0
100
AcDbVertex
100
AcDb2dVertex
 10
89.69013262731706
 20
-134.6729166329984
 30
0.0
  0
SEQEND
  5
16E
330
168
100
AcDbEntity
  8
_U+30EC_U+30A4_U+30E4_U+30FC 1
370
     0
  0
SPLINE
  5
16F
330
130
100
AcDbEntity
  8
_U+30EC_U+30A4_U+30E4_U+30FC 1
370
     0
100
AcDbSpline
210
0.0
220
0.0
230
1.0
 70
    11
 71
     3
 72
    38
 73
    34
 74
     0
 42
0.0000000001
 43
0.0000000001
 12
1.0
 22
0.0
 32
0.0
 13
1.0
 23
0.0
 33
0.0
 40
0.0
 40
0.0
 40
0.0
 40
0.0
 40
1.0
 40
1.0
 40
1.0
 40
2.0
 40
2.0
 40
2.0
 40
3.0
 40
3.0
 40
3.0
 40
4.0
 40
4.0
 40
4.0
 40
5.0
 40
5.0
 40
5.0
 40
6.0
 40
6.0
 40
6.0
 40
7.0
 40
7.0
 40
7.0
 40
8.0
 40
8.0
 40
8.0
 40
9.0
 40
9.0
 40
9.0
 40
10.0
 40
10.0
 40
10.0
 40
11.0
 40
11.0
 40
11.0
 40
11.0
 10
89.73250730178563
 20
-135.5614067586444
 30
0.0
 10
89.81501733865736
 20
-135.5085245429458
 30
0.0
 10
89.98003741240083
 20
-135.4006930542575
 30
0.0
 10
90.085801843798
 20
-135.1932983060454
 30
0.0
 10
90.23394094966375
 20
-134.9014987184448
 30
0.0
 10
90.23394094966375
 20
-134.6751559450639
 30
0.0
 10
90.23394094966375
 20
-134.5904065961267
 30
0.0
 10
90.23394094966375
 20
-134.5904065961267
 30
0.0
 10
90.23394094966375
 20
-134.3556233388069
 30
0.0
 10
90.23394094966375
 20
-134.3556233388069
 30
0.0
 10
90.23394094966375
 20
-134.3556233388069
 30
0.0
 10
90.39896102340721
 20
-134.3556233388069
 30
0.0
 10
90.39896102340721
 20
-134.3556233388069
 30
0.0
 10
90.39896102340721
 20
-134.3556233388069
 30
0.0
 10
90.39896102340721
 20
-134.5819661121878
 30
0.0
 10
90.39896102340721
 20
-134.5819661121878
 30
0.0
 10
90.39896102340721
 20
-134.780920376461
 30
0.0
 10
90.46441783762695
 20
-135.0177706910719
 30
0.0
 10
90.56604815444183
 20
-135.1912312487543
 30
0.0
 10
90.682320127069
 20
-135.3901855130275
 30
0.0
 10
90.81133895299162
 20
-135.4895765177769
 30
0.0
 10
90.89608830192876
 20
-135.5508992174144
 30
0.0
 10
90.89608830192876
 20
-135.5508992174144
 30
0.0
 10
90.78808455846618
 20
-135.7011053805712
 30
0.0
 10
90.78808455846618
 20
-135.7011053805712
 30
0.0
 10
90.61048988620155
 20
-135.5720865546486
 30
0.0
 10
90.41153562192837
 20
-135.3329969279723
 30
0.0
 10
90.3333319544132
 20
-134.9797023859599
 30
0.0
 10
90.26770288541918
 20
-135.2187920126363
 30
0.0
 10
90.16624482337858
 20
-135.4875094604858
 30
0.0
 10
89.85739201312593
 20
-135.6967990112147
 30
0.0
 10
89.85739201312593
 20
-135.6967990112147
 30
0.0
 10
89.73250730178563
 20
-135.5614067586444
 30
0.0
 10
89.73250730178563
 20
-135.5614067586444
 30
0.0
  0
SPLINE
  5
170
330
130
100
AcDbEntity
  8
_U+30EC_U+30A4_U+30E4_U+30FC 1
370
     0
100
AcDbSpline
210
0.0
220
0.0
230
1.0
 70
    11
 71
     3
 72
    38
 73
    34
 74
     0
 42
0.0000000001
 43
0.0000000001
 12
1.0
 22
0.0
 32
0.0
 13
1.0
 23
0.0
 33
0.0
 40
0.0
 40
0.0
 40
0.0
 40
0.0
 40
1.0
 40
1.0
 40
1.0
 40
2.0
 40
2.0
 40
2.0
 40
3.0
 40
3.0
 40
3.0
 40
4.0
 40
4.0
 40
4.0
 40
5.0
 40
5.0
 40
5.0
 40
6.0
 40
6.0
 40
6.0
 40
7.0
 40
7.0
 40
7.0
 40
8.0
 40
8.0
 40
8.0
 40
9.0
 40
9.0
 40
9.0
 40
10.0
 40
10.0
 40
10.0
 40
11.0
 40
11.0
 40
11.0
 40
11.0
 10
89.84671221712166
 20
-134.4889485340861
 30
0.0
 10
89.93990204999767
 20
-134.3661308800369
 30
0.0
 10
90.06461450656371
 20
-134.1864691504812
 30
0.0
 10
90.15987139673086
 20
-133.7379177183016
 30
0.0
 10
90.15987139673086
 20
-133.7379177183016
 30
0.0
 10
90.32695852776548
 20
-133.7568657434705
 30
0.0
 10
90.32695852776548
 20
-133.7568657434705
 30
0.0
 10
90.3016370759489
 20
-133.8774440854542
 30
0.0
 10
90.27838268142347
 20
-133.9685668610391
 30
0.0
 10
90.24014212153719
 20
-134.0763983497274
 30
0.0
 10
90.24014212153719
 20
-134.0763983497274
 30
0.0
 10
90.86852753804676
 20
-134.0763983497274
 30
0.0
 10
90.86852753804676
 20
-134.0763983497274
 30
0.0
 10
90.86852753804676
 20
-134.0763983497274
 30
0.0
 10
90.86852753804676
 20
-134.2286715701755
 30
0.0
 10
90.86852753804676
 20
-134.2286715701755
 30
0.0
 10
90.83476560229131
 20
-134.3704372493935
 30
0.0
 10
90.73950871212415
 20
-134.6284749012387
 30
0.0
 10
90.66543915919128
 20
-134.7469861859313
 30
0.0
 10
90.66543915919128
 20
-134.7469861859313
 30
0.0
 10
90.51316593874324
 20
-134.6687825184162
 30
0.0
 10
90.51316593874324
 20
-134.6687825184162
 30
0.0
 10
90.60825057413614
 20
-134.5333902658458
 30
0.0
 10
90.67387964313015
 20
-134.3451157975769
 30
0.0
 10
90.70144040701214
 20
-134.2350449968232
 30
0.0
 10
90.70144040701214
 20
-134.2350449968232
 30
0.0
 10
90.1831257912563
 20
-134.2350449968232
 30
0.0
 10
90.1831257912563
 20
-134.2350449968232
 30
0.0
 10
90.08373478650685
 20
-134.4762016807907
 30
0.0
 10
90.00966523357398
 20
-134.5650851443101
 30
0.0
 10
89.97159692846196
 20
-134.6095268760699
 30
0.0
 10
89.97159692846196
 20
-134.6095268760699
 30
0.0
 10
89.84671221712166
 20
-134.4889485340861
 30
0.0
 10
89.84671221712166
 20
-134.4889485340861
 30
0.0
  0
HATCH
  5
171
330
130
100
AcDbEntity
  8
_U+30EC_U+30A4_U+30E4_U+30FC 1
 62
    12
420
 15007761
100
AcDbHatch
 10
0.0
 20
0.0
 30
0.0
210
0.0
220
0.0
230
1.0
  2
SOLID
 70
     1
 71
     0
 91
        7
 92
        1
 93
       28
 72
     1
 10
89.32426348678352
 20
-133.8986314226885
 11
89.32426348678352
 21
-133.7379177183016
 72
     1
 10
89.32426348678352
 20
-133.7379177183016
 11
89.47860376452272
 21
-133.7379177183016
 72
     1
 10
89.47860376452272
 20
-133.7379177183016
 11
89.47860376452272
 21
-133.8986314226885
 72
     1
 10
89.47860376452272
 20
-133.8986314226885
 11
89.87220592371251
 21
-133.8986314226885
 72
     1
 10
89.87220592371251
 20
-133.8986314226885
 11
89.87220592371251
 21
-134.053143955202
 72
     1
 10
89.87220592371251
 20
-134.053143955202
 11
89.47860376452272
 21
-134.053143955202
 72
     1
 10
89.47860376452272
 20
-134.053143955202
 11
89.47860376452272
 21
-134.2074842329412
 72
     1
 10
89.47860376452272
 20
-134.2074842329412
 11
89.83396536382624
 21
-134.2074842329412
 72
     1
 10
89.83396536382624
 20
-134.2074842329412
 11
89.83396536382624
 21
-135.0198377483631
 72
     1
 10
89.83396536382624
 20
-135.0198377483631
 11
89.47860376452272
 21
-135.0198377483631
 72
     1
 10
89.47860376452272
 20
-135.0198377483631
 11
89.47860376452272
 21
-135.1891641914631
 72
     1
 10
89.47860376452272
 20
-135.1891641914631
 11
89.88701983429908
 21
-135.1891641914631
 72
     1
 10
89.88701983429908
 20
-135.1891641914631
 11
89.88701983429908
 21
-135.3435044692023
 72
     1
 10
89.88701983429908
 20
-135.3435044692023
 11
89.47860376452272
 21
-135.3435044692023
 72
     1
 10
89.47860376452272
 20
-135.3435044692023
 11
89.47860376452272
 21
-135.6967990112147
 72
     1
 10
89.47860376452272
 20
-135.6967990112147
 11
89.32426348678352
 21
-135.6967990112147
 72
     1
 10
89.32426348678352
 20
-135.6967990112147
 11
89.32426348678352
 21
-135.3435044692023
 72
     1
 10
89.32426348678352
 20
-135.3435044692023
 11
88.913780359716
 21
-135.3435044692023
 72
     1
 10
88.913780359716
 20
-135.3435044692023
 11
88.913780359716
 21
-135.1891641914631
 72
     1
 10
88.913780359716
 20
-135.1891641914631
 11
89.32426348678352
 21
-135.1891641914631
 72
     1
 10
89.32426348678352
 20
-135.1891641914631
 11
89.32426348678352
 21
-135.0198377483631
 72
     1
 10
89.32426348678352
 20
-135.0198377483631
 11
88.97510305935344
 21
-135.0198377483631
 72
     1
 10
88.97510305935344
 20
-135.0198377483631
 11
88.97510305935344
 21
-134.2074842329412
 72
     1
 10
88.97510305935344
 20
-134.2074842329412
 11
89.32426348678352
 21
-134.2074842329412
 72
     1
 10
89.32426348678352
 20
-134.2074842329412
 11
89.32426348678352
 21
-134.053143955202
 72
     1
 10
89.32426348678352
 20
-134.053143955202
 11
88.9349676969503
 21
-134.053143955202
 72
     1
 10
88.9349676969503
 20
-134.053143955202
 11
88.9349676969503
 21
-133.8986314226885
 72
     1
 10
88.9349676969503
 20
-133.8986314226885
 11
89.32426348678352
 21
-133.8986314226885
 97
        0
 92
        1
 93
        4
 72
     1
 10
89.32426348678352
 20
-134.3471828548681
 11
89.11686873857148
 21
-134.3471828548681
 72
     1
 10
89.11686873857148
 20
-134.3471828548681
 11
89.11686873857148
 21
-134.5502712337235
 72
     1
 10
89.11686873857148
 20
-134.5502712337235
 11
89.32426348678352
 21
-134.5502712337235
 72
     1
 10
89.32426348678352
 20
-134.5502712337235
 11
89.32426348678352
 21
-134.3471828548681
 97
        0
 92
        1
 93
        4
 72
     1
 10
89.32426348678352
 20
-134.6729166329984
 11
89.11686873857148
 21
-134.6729166329984
 72
     1
 10
89.11686873857148
 20
-134.6729166329984
 11
89.11686873857148
 21
-134.8803113812105
 72
     1
 10
89.11686873857148
 20
-134.8803113812105
 11
89.32426348678352
 21
-134.8803113812105
 72
     1
 10
89.32426348678352
 20
-134.8803113812105
 11
89.32426348678352
 21
-134.6729166329984
 97
        0
 92
        1
 93
        4
 72
     1
 10
89.69013262731706
 20
-134.3471828548681
 11
89.47860376452272
 21
-134.3471828548681
 72
     1
 10
89.47860376452272
 20
-134.3471828548681
 11
89.47860376452272
 21
-134.5502712337235
 72
     1
 10
89.47860376452272
 20
-134.5502712337235
 11
89.69013262731706
 21
-134.5502712337235
 72
     1
 10
89.69013262731706
 20
-134.5502712337235
 11
89.69013262731706
 21
-134.3471828548681
 97
        0
 92
        1
 93
        4
 72
     1
 10
89.69013262731706
 20
-134.6729166329984
 11
89.47860376452272
 21
-134.6729166329984
 72
     1
 10
89.47860376452272
 20
-134.6729166329984
 11
89.47860376452272
 21
-134.8803113812105
 72
     1
 10
89.47860376452272
 20
-134.8803113812105
 11
89.69013262731706
 21
-134.8803113812105
 72
     1
 10
89.69013262731706
 20
-134.8803113812105
 11
89.69013262731706
 21
-134.6729166329984
 97
        0
 92
        1
 93
        1
 72
     4
 94
        3
 73
     0
 74
     1
 95
       38
 96
       34
 40
0.0
 40
0.0
 40
0.0
 40
0.0
 40
1.0
 40
1.0
 40
1.0
 40
2.0
 40
2.0
 40
2.0
 40
3.0
 40
3.0
 40
3.0
 40
4.0
 40
4.0
 40
4.0
 40
5.0
 40
5.0
 40
5.0
 40
6.0
 40
6.0
 40
6.0
 40
7.0
 40
7.0
 40
7.0
 40
8.0
 40
8.0
 40
8.0
 40
9.0
 40
9.0
 40
9.0
 40
10.0
 40
10.0
 40
10.0
 40
11.0
 40
11.0
 40
11.0
 40
11.0
 10
89.73250730178563
 20
-135.5614067586444
 10
89.81501733865736
 20
-135.5085245429458
 10
89.98003741240083
 20
-135.4006930542575
 10
90.085801843798
 20
-135.1932983060454
 10
90.23394094966375
 20
-134.9014987184448
 10
90.23394094966375
 20
-134.6751559450639
 10
90.23394094966375
 20
-134.5904065961267
 10
90.23394094966375
 20
-134.5904065961267
 10
90.23394094966375
 20
-134.3556233388069
 10
90.23394094966375
 20
-134.3556233388069
 10
90.23394094966375
 20
-134.3556233388069
 10
90.39896102340721
 20
-134.3556233388069
 10
90.39896102340721
 20
-134.3556233388069
 10
90.39896102340721
 20
-134.3556233388069
 10
90.39896102340721
 20
-134.5819661121878
 10
90.39896102340721
 20
-134.5819661121878
 10
90.39896102340721
 20
-134.780920376461
 10
90.46441783762695
 20
-135.0177706910719
 10
90.56604815444183
 20
-135.1912312487543
 10
90.682320127069
 20
-135.3901855130275
 10
90.81133895299162
 20
-135.4895765177769
 10
90.89608830192876
 20
-135.5508992174144
 10
90.89608830192876
 20
-135.5508992174144
 10
90.78808455846618
 20
-135.7011053805712
 10
90.78808455846618
 20
-135.7011053805712
 10
90.61048988620155
 20
-135.5720865546486
 10
90.41153562192837
 20
-135.3329969279723
 10
90.3333319544132
 20
-134.9797023859599
 10
90.26770288541918
 20
-135.2187920126363
 10
90.16624482337858
 20
-135.4875094604858
 10
89.85739201312593
 20
-135.6967990112147
 10
89.85739201312593
 20
-135.6967990112147
 10
89.73250730178563
 20
-135.5614067586444
 10
89.73250730178563
 20
-135.5614067586444
 97
        0
 97
        0
 92
        1
 93
        1
 72
     4
 94
        3
 73
     0
 74
     1
 95
       38
 96
       34
 40
0.0
 40
0.0
 40
0.0
 40
0.0
 40
1.0
 40
1.0
 40
1.0
 40
2.0
 40
2.0
 40
2.0
 40
3.0
 40
3.0
 40
3.0
 40
4.0
 40
4.0
 40
4.0
 40
5.0
 40
5.0
 40
5.0
 40
6.0
 40
6.0
 40
6.0
 40
7.0
 40
7.0
 40
7.0
 40
8.0
 40
8.0
 40
8.0
 40
9.0
 40
9.0
 40
9.0
 40
10.0
 40
10.0
 40
10.0
 40
11.0
 40
11.0
 40
11.0
 40
11.0
 10
89.84671221712166
 20
-134.4889485340861
 10
89.93990204999767
 20
-134.3661308800369
 10
90.06461450656371
 20
-134.1864691504812
 10
90.15987139673086
 20
-133.7379177183016
 10
90.15987139673086
 20
-133.7379177183016
 10
90.32695852776548
 20
-133.7568657434705
 10
90.32695852776548
 20
-133.7568657434705
 10
90.3016370759489
 20
-133.8774440854542
 10
90.27838268142347
 20
-133.9685668610391
 10
90.24014212153719
 20
-134.0763983497274
 10
90.24014212153719
 20
-134.0763983497274
 10
90.86852753804676
 20
-134.0763983497274
 10
90.86852753804676
 20
-134.0763983497274
 10
90.86852753804676
 20
-134.0763983497274
 10
90.86852753804676
 20
-134.2286715701755
 10
90.86852753804676
 20
-134.2286715701755
 10
90.83476560229131
 20
-134.3704372493935
 10
90.73950871212415
 20
-134.6284749012387
 10
90.66543915919128
 20
-134.7469861859313
 10
90.66543915919128
 20
-134.7469861859313
 10
90.51316593874324
 20
-134.6687825184162
 10
90.51316593874324
 20
-134.6687825184162
 10
90.60825057413614
 20
-134.5333902658458
 10
90.67387964313015
 20
-134.3451157975769
 10
90.70144040701214
 20
-134.2350449968232
 10
90.70144040701214
 20
-134.2350449968232
 10
90.1831257912563
 20
-134.2350449968232
 10
90.1831257912563
 20
-134.2350449968232
 10
90.08373478650685
 20
-134.4762016807907
 10
90.00966523357398
 20
-134.5650851443101
 10
89.97159692846196
 20
-134.6095268760699
 10
89.97159692846196
 20
-134.6095268760699
 10
89.84671221712166
 20
-134.4889485340861
 10
89.84671221712166
 20
-134.4889485340861
 97
        0
 97
        0
 75
     2
 76
     1
 98
        0
  0
SPLINE
  5
172
330
130
100
AcDbEntity
  8
_U+30EC_U+30A4_U+30E4_U+30FC 1
370
     0
100
AcDbSpline
210
0.0
220
0.0
230
1.0
 70
    11
 71
     3
 72
    50
 73
    46
 74
     0
 42
0.0000000001
 43
0.0000000001
 12
1.0
 22
0.0
 32
0.0
 13
1.0
 23
0.0
 33
0.0
 40
0.0
 40
0.0
 40
0.0
 40
0.0
 40
1.0
 40
1.0
 40
1.0
 40
2.0
 40
2.0
 40
2.0
 40
3.0
 40
3.0
 40
3.0
 40
4.0
 40
4.0
 40
4.0
 40
5.0
 40
5.0
 40
5.0
 40
6.0
 40
6.0
 40
6.0
 40
7.0
 40
7.0
 40
7.0
 40
8.0
 40
8.0
 40
8.0
 40
9.0
 40
9.0
 40
9.0
 40
10.0
 40
10.0
 40
10.0
 40
11.0
 40
11.0
 40
11.0
 40
12.0
 40
12.0
 40
12.0
 40
13.0
 40
13.0
 40
13.0
 40
14.0
 40
14.0
 40
14.0
 40
15.0
 40
15.0
 40
15.0
 40
15.0
 10
91.3413668933973
 20
-134.0362629873243
 30
0.0
 10
91.3413668933973
 20
-134.0362629873243
 30
0.0
 10
91.9930067044323
 20
-134.0362629873243
 30
0.0
 10
91.9930067044323
 20
-134.0362629873243
 30
0.0
 10
91.9930067044323
 20
-134.0362629873243
 30
0.0
 10
91.9930067044323
 20
-134.1609754438903
 30
0.0
 10
91.9930067044323
 20
-134.1609754438903
 30
0.0
 10
91.9930067044323
 20
-134.1609754438903
 30
0.0
 10
91.71584877264395
 20
-134.1609754438903
 30
0.0
 10
91.71584877264395
 20
-134.1609754438903
 30
0.0
 10
91.71584877264395
 20
-134.1609754438903
 30
0.0
 10
91.71584877264395
 20
-134.4360663183875
 30
0.0
 10
91.71584877264395
 20
-134.4360663183875
 30
0.0
 10
91.71584877264395
 20
-134.4360663183875
 30
0.0
 10
91.55513506825706
 20
-134.4360663183875
 30
0.0
 10
91.55513506825706
 20
-134.4360663183875
 30
0.0
 10
91.55513506825706
 20
-134.4360663183875
 30
0.0
 10
91.55513506825706
 20
-134.1609754438903
 30
0.0
 10
91.55513506825706
 20
-134.1609754438903
 30
0.0
 10
91.55513506825706
 20
-134.1609754438903
 30
0.0
 10
91.33516572152385
 20
-134.1609754438903
 30
0.0
 10
91.33516572152385
 20
-134.1609754438903
 30
0.0
 10
91.32448592551958
 20
-134.2307386274666
 30
0.0
 10
91.29916447370299
 20
-134.4253865223832
 30
0.0
 10
91.14465194118954
 20
-134.5755926855401
 30
0.0
 10
91.14465194118954
 20
-134.5755926855401
 30
0.0
 10
91.02200654191464
 20
-134.4656941395607
 30
0.0
 10
91.02200654191464
 20
-134.4656941395607
 30
0.0
 10
91.14258488389838
 20
-134.3661308800369
 30
0.0
 10
91.18495955836696
 20
-134.1609754438903
 30
0.0
 10
91.18495955836696
 20
-134.0784654070186
 30
0.0
 10
91.18495955836696
 20
-134.0784654070186
 30
0.0
 10
91.18495955836696
 20
-133.7928669912914
 30
0.0
 10
91.18495955836696
 20
-133.7928669912914
 30
0.0
 10
91.66933998359309
 20
-133.7928669912914
 30
0.0
 10
91.82385251610654
 20
-133.7463582022405
 30
0.0
 10
91.91893715149943
 20
-133.7187974383585
 30
0.0
 10
91.91893715149943
 20
-133.7187974383585
 30
0.0
 10
91.97181936719802
 20
-133.8584960602854
 30
0.0
 10
91.97181936719802
 20
-133.8584960602854
 30
0.0
 10
91.76235756169483
 20
-133.9070719066274
 30
0.0
 10
91.59957680001678
 20
-133.9177517026317
 30
0.0
 10
91.3413668933973
 20
-133.921885817214
 30
0.0
 10
91.3413668933973
 20
-133.921885817214
 30
0.0
 10
91.3413668933973
 20
-134.0362629873243
 30
0.0
 10
91.3413668933973
 20
-134.0362629873243
 30
0.0
  0
SPLINE
  5
173
330
130
100
AcDbEntity
  8
_U+30EC_U+30A4_U+30E4_U+30FC 1
370
     0
100
AcDbSpline
210
0.0
220
0.0
230
1.0
 70
    11
 71
     3
 72
    32
 73
    28
 74
     0
 42
0.0000000001
 43
0.0000000001
 12
1.0
 22
0.0
 32
0.0
 13
1.0
 23
0.0
 33
0.0
 40
0.0
 40
0.0
 40
0.0
 40
0.0
 40
1.0
 40
1.0
 40
1.0
 40
2.0
 40
2.0
 40
2.0
 40
3.0
 40
3.0
 40
3.0
 40
4.0
 40
4.0
 40
4.0
 40
5.0
 40
5.0
 40
5.0
 40
6.0
 40
6.0
 40
6.0
 40
7.0
 40
7.0
 40
7.0
 40
8.0
 40
8.0
 40
8.0
 40
9.0
 40
9.0
 40
9.0
 40
9.0
 10
91.25678979923441
 20
-135.3815727743143
 30
0.0
 10
91.25678979923441
 20
-135.3815727743143
 30
0.0
 10
91.25678979923441
 20
-134.4825751074384
 30
0.0
 10
91.25678979923441
 20
-134.4825751074384
 30
0.0
 10
91.25678979923441
 20
-134.4825751074384
 30
0.0
 10
92.75454506144679
 20
-134.4825751074384
 30
0.0
 10
92.75454506144679
 20
-134.4825751074384
 30
0.0
 10
92.75454506144679
 20
-134.4825751074384
 30
0.0
 10
92.75454506144679
 20
-135.3815727743143
 30
0.0
 10
92.75454506144679
 20
-135.3815727743143
 30
0.0
 10
92.75454506144679
 20
-135.3815727743143
 30
0.0
 10
91.61008434124679
 20
-135.3815727743143
 30
0.0
 10
91.61008434124679
 20
-135.3815727743143
 30
0.0
 10
91.61008434124679
 20
-135.3815727743143
 30
0.0
 10
91.71584877264395
 20
-135.4916435750681
 30
0.0
 10
91.71584877264395
 20
-135.4916435750681
 30
0.0
 10
91.55082869890049
 20
-135.5869004652352
 30
0.0
 10
91.38580862515703
 20
-135.6482231648727
 30
0.0
 10
91.0897026681998
 20
-135.6990383232801
 30
0.0
 10
91.0897026681998
 20
-135.6990383232801
 30
0.0
 10
91.02407359920579
 20
-135.5465928480578
 30
0.0
 10
91.02407359920579
 20
-135.5465928480578
 30
0.0
 10
91.402861847809
 20
-135.4937106323592
 30
0.0
 10
91.52550724708391
 20
-135.4260145060741
 30
0.0
 10
91.60595022666449
 20
-135.3815727743143
 30
0.0
 10
91.60595022666449
 20
-135.3815727743143
 30
0.0
 10
91.25678979923441
 20
-135.3815727743143
 30
0.0
 10
91.25678979923441
 20
-135.3815727743143
 30
0.0
  0
POLYLINE
  5
174
330
130
100
AcDbEntity
  8
_U+30EC_U+30A4_U+30E4_U+30FC 1
370
     0
100
AcDb2dPolyline
 66
     1
 10
0.0
 20
0.0
 30
0.0
  0
VERTEX
  5
175
330
174
100
AcDbEntity
  8
_U+30EC_U+30A4_U+30E4_U+30FC 1
370
     0
100
AcDbVertex
100
AcDb2dVertex
 10
92.58539087312101
 20
-134.6159003027176
 30
0.0
  0
VERTEX
  5
176
330
174
100
AcDbEntity
  8
_U+30EC_U+30A4_U+30E4_U+30FC 1
370
     0
100
AcDbVertex
100
AcDb2dVertex
 10
91.42611624233444
 20
-134.6159003027176
 30
0.0
  0
VERTEX
  5
177
330
174
100
AcDbEntity
  8
_U+30EC_U+30A4_U+30E4_U+30FC 1
370
     0
100
AcDbVertex
100
AcDb2dVertex
 10
91.42611624233444
 20
-134.7449191286402
 30
0.0
  0
VERTEX
  5
178
330
174
100
AcDbEntity
  8
_U+30EC_U+30A4_U+30E4_U+30FC 1
370
     0
100
AcDbVertex
100
AcDb2dVertex
 10
92.58539087312101
 20
-134.7449191286402
 30
0.0
  0
VERTEX
  5
179
330
174
100
AcDbEntity
  8
_U+30EC_U+30A4_U+30E4_U+30FC 1
370
     0
100
AcDbVertex
100
AcDb2dVertex
 10
92.58539087312101
 20
-134.6159003027176
 30
0.0
  0
SEQEND
  5
17A
330
174
100
AcDbEntity
  8
_U+30EC_U+30A4_U+30E4_U+30FC 1
370
     0
  0
POLYLINE
  5
17B
330
130
100
AcDbEntity
  8
_U+30EC_U+30A4_U+30E4_U+30FC 1
370
     0
100
AcDb2dPolyline
 66
     1
 10
0.0
 20
0.0
 30
0.0
  0
VERTEX
  5
17C
330
17B
100
AcDbEntity
  8
_U+30EC_U+30A4_U+30E4_U+30FC 1
370
     0
100
AcDbVertex
100
AcDb2dVertex
 10
92.58539087312101
 20
-134.8548176746196
 30
0.0
  0
VERTEX
  5
17D
330
17B
100
AcDbEntity
  8
_U+30EC_U+30A4_U+30E4_U+30FC 1
370
     0
100
AcDbVertex
100
AcDb2dVertex
 10
91.42611624233444
 20
-134.8548176746196
 30
0.0
  0
VERTEX
  5
17E
330
17B
100
AcDbEntity
  8
_U+30EC_U+30A4_U+30E4_U+30FC 1
370
     0
100
AcDbVertex
100
AcDb2dVertex
 10
91.42611624233444
 20
-134.9965833538377
 30
0.0
  0
VERTEX
  5
17F
330
17B
100
AcDbEntity
  8
_U+30EC_U+30A4_U+30E4_U+30FC 1
370
     0
100
AcDbVertex
100
AcDb2dVertex
 10
92.58539087312101
 20
-134.9965833538377
 30
0.0
  0
VERTEX
  5
180
330
17B
100
AcDbEntity
  8
_U+30EC_U+30A4_U+30E4_U+30FC 1
370
     0
100
AcDbVertex
100
AcDb2dVertex
 10
92.58539087312101
 20
-134.8548176746196
 30
0.0
  0
SEQEND
  5
181
330
17B
100
AcDbEntity
  8
_U+30EC_U+30A4_U+30E4_U+30FC 1
370
     0
  0
POLYLINE
  5
182
330
130
100
AcDbEntity
  8
_U+30EC_U+30A4_U+30E4_U+30FC 1
370
     0
100
AcDb2dPolyline
 66
     1
 10
0.0
 20
0.0
 30
0.0
  0
VERTEX
  5
183
330
182
100
AcDbEntity
  8
_U+30EC_U+30A4_U+30E4_U+30FC 1
370
     0
100
AcDbVertex
100
AcDb2dVertex
 10
92.58539087312101
 20
-135.1066541545914
 30
0.0
  0
VERTEX
  5
184
330
182
100
AcDbEntity
  8
_U+30EC_U+30A4_U+30E4_U+30FC 1
370
     0
100
AcDbVertex
100
AcDb2dVertex
 10
91.42611624233444
 20
-135.1066541545914
 30
0.0
  0
VERTEX
  5
185
330
182
100
AcDbEntity
  8
_U+30EC_U+30A4_U+30E4_U+30FC 1
370
     0
100
AcDbVertex
100
AcDb2dVertex
 10
91.42611624233444
 20
-135.246180521744
 30
0.0
  0
VERTEX
  5
186
330
182
100
AcDbEntity
  8
_U+30EC_U+30A4_U+30E4_U+30FC 1
370
     0
100
AcDbVertex
100
AcDb2dVertex
 10
92.58539087312101
 20
-135.246180521744
 30
0.0
  0
VERTEX
  5
187
330
182
100
AcDbEntity
  8
_U+30EC_U+30A4_U+30E4_U+30FC 1
370
     0
100
AcDbVertex
100
AcDb2dVertex
 10
92.58539087312101
 20
-135.1066541545914
 30
0.0
  0
SEQEND
  5
188
330
182
100
AcDbEntity
  8
_U+30EC_U+30A4_U+30E4_U+30FC 1
370
     0
  0
SPLINE
  5
189
330
130
100
AcDbEntity
  8
_U+30EC_U+30A4_U+30E4_U+30FC 1
370
     0
100
AcDbSpline
210
0.0
220
0.0
230
1.0
 70
    11
 71
     3
 72
    50
 73
    46
 74
     0
 42
0.0000000001
 43
0.0000000001
 12
1.0
 22
0.0
 32
0.0
 13
1.0
 23
0.0
 33
0.0
 40
0.0
 40
0.0
 40
0.0
 40
0.0
 40
1.0
 40
1.0
 40
1.0
 40
2.0
 40
2.0
 40
2.0
 40
3.0
 40
3.0
 40
3.0
 40
4.0
 40
4.0
 40
4.0
 40
5.0
 40
5.0
 40
5.0
 40
6.0
 40
6.0
 40
6.0
 40
7.0
 40
7.0
 40
7.0
 40
8.0
 40
8.0
 40
8.0
 40
9.0
 40
9.0
 40
9.0
 40
10.0
 40
10.0
 40
10.0
 40
11.0
 40
11.0
 40
11.0
 40
12.0
 40
12.0
 40
12.0
 40
13.0
 40
13.0
 40
13.0
 40
14.0
 40
14.0
 40
14.0
 40
15.0
 40
15.0
 40
15.0
 40
15.0
 10
92.24897729898638
 20
-134.0362629873243
 30
0.0
 10
92.24897729898638
 20
-134.0362629873243
 30
0.0
 10
92.98519420418427
 20
-134.0362629873243
 30
0.0
 10
92.98519420418427
 20
-134.0362629873243
 30
0.0
 10
92.98519420418427
 20
-134.0362629873243
 30
0.0
 10
92.98519420418427
 20
-134.1609754438903
 30
0.0
 10
92.98519420418427
 20
-134.1609754438903
 30
0.0
 10
92.98519420418427
 20
-134.1609754438903
 30
0.0
 10
92.65515405669733
 20
-134.1609754438903
 30
0.0
 10
92.65515405669733
 20
-134.1609754438903
 30
0.0
 10
92.65515405669733
 20
-134.1609754438903
 30
0.0
 10
92.65515405669733
 20
-134.4360663183875
 30
0.0
 10
92.65515405669733
 20
-134.4360663183875
 30
0.0
 10
92.65515405669733
 20
-134.4360663183875
 30
0.0
 10
92.49857446689272
 20
-134.4360663183875
 30
0.0
 10
92.49857446689272
 20
-134.4360663183875
 30
0.0
 10
92.49857446689272
 20
-134.4360663183875
 30
0.0
 10
92.49857446689272
 20
-134.1609754438903
 30
0.0
 10
92.49857446689272
 20
-134.1609754438903
 30
0.0
 10
92.49857446689272
 20
-134.1609754438903
 30
0.0
 10
92.23416338839979
 20
-134.1609754438903
 30
0.0
 10
92.23416338839979
 20
-134.1609754438903
 30
0.0
 10
92.20884193658321
 20
-134.2899942698129
 30
0.0
 10
92.15802677817578
 20
-134.3809447906235
 30
0.0
 10
92.06070283071747
 20
-134.4634548274952
 30
0.0
 10
92.06070283071747
 20
-134.4634548274952
 30
0.0
 10
91.93805743144257
 20
-134.3556233388069
 30
0.0
 10
91.93805743144257
 20
-134.3556233388069
 30
0.0
 10
92.07344968401289
 20
-134.2455525380532
 30
0.0
 10
92.09670407853832
 20
-134.1080932281917
 30
0.0
 10
92.09670407853832
 20
-134.0340236752589
 30
0.0
 10
92.09670407853832
 20
-134.0340236752589
 30
0.0
 10
92.09670407853832
 20
-133.7907999340002
 30
0.0
 10
92.09670407853832
 20
-133.7907999340002
 30
0.0
 10
92.56627059317788
 20
-133.7907999340002
 30
0.0
 10
92.73352997898677
 20
-133.7506645715971
 30
0.0
 10
92.87736271549593
 20
-133.7082898971285
 30
0.0
 10
92.87736271549593
 20
-133.7082898971285
 30
0.0
 10
92.93661835784224
 20
-133.84574920699
 30
0.0
 10
92.93661835784224
 20
-133.84574920699
 30
0.0
 10
92.6658338527016
 20
-133.9156846453405
 30
0.0
 10
92.35060761580124
 20
-133.9198187599228
 30
0.0
 10
92.24897729898638
 20
-133.9198187599228
 30
0.0
 10
92.24897729898638
 20
-133.9198187599228
 30
0.0
 10
92.24897729898638
 20
-134.0362629873243
 30
0.0
 10
92.24897729898638
 20
-134.0362629873243
 30
0.0
  0
SPLINE
  5
18A
330
130
100
AcDbEntity
  8
_U+30EC_U+30A4_U+30E4_U+30FC 1
370
     0
100
AcDbSpline
210
0.0
220
0.0
230
1.0
 70
    11
 71
     3
 72
    17
 73
    13
 74
     0
 42
0.0000000001
 43
0.0000000001
 12
1.0
 22
0.0
 32
0.0
 13
1.0
 23
0.0
 33
0.0
 40
0.0
 40
0.0
 40
0.0
 40
0.0
 40
1.0
 40
1.0
 40
1.0
 40
2.0
 40
2.0
 40
2.0
 40
3.0
 40
3.0
 40
3.0
 40
4.0
 40
4.0
 40
4.0
 40
4.0
 10
92.36111515703125
 20
-135.387946200962
 30
0.0
 10
92.58108450376446
 20
-135.5000840590069
 30
0.0
 10
92.8477348943228
 20
-135.5381523641189
 30
0.0
 10
92.9767537202454
 20
-135.5488321601232
 30
0.0
 10
92.9767537202454
 20
-135.5488321601232
 30
0.0
 10
92.90699053666908
 20
-135.7031724378624
 30
0.0
 10
92.90699053666908
 20
-135.7031724378624
 30
0.0
 10
92.78641219468534
 20
-135.6883585272758
 30
0.0
 10
92.52406817348357
 20
-135.6482231648727
 30
0.0
 10
92.25965709499064
 20
-135.5021511162981
 30
0.0
 10
92.25965709499064
 20
-135.5021511162981
 30
0.0
 10
92.36111515703125
 20
-135.387946200962
 30
0.0
 10
92.36111515703125
 20
-135.387946200962
 30
0.0
  0
HATCH
  5
18B
330
130
100
AcDbEntity
  8
_U+30EC_U+30A4_U+30E4_U+30FC 1
 62
    12
420
 15007761
100
AcDbHatch
 10
0.0
 20
0.0
 30
0.0
210
0.0
220
0.0
230
1.0
  2
SOLID
 70
     1
 71
     0
 91
        7
 92
        1
 93
        1
 72
     4
 94
        3
 73
     0
 74
     1
 95
       50
 96
       46
 40
0.0
 40
0.0
 40
0.0
 40
0.0
 40
1.0
 40
1.0
 40
1.0
 40
2.0
 40
2.0
 40
2.0
 40
3.0
 40
3.0
 40
3.0
 40
4.0
 40
4.0
 40
4.0
 40
5.0
 40
5.0
 40
5.0
 40
6.0
 40
6.0
 40
6.0
 40
7.0
 40
7.0
 40
7.0
 40
8.0
 40
8.0
 40
8.0
 40
9.0
 40
9.0
 40
9.0
 40
10.0
 40
10.0
 40
10.0
 40
11.0
 40
11.0
 40
11.0
 40
12.0
 40
12.0
 40
12.0
 40
13.0
 40
13.0
 40
13.0
 40
14.0
 40
14.0
 40
14.0
 40
15.0
 40
15.0
 40
15.0
 40
15.0
 10
91.3413668933973
 20
-134.0362629873243
 10
91.3413668933973
 20
-134.0362629873243
 10
91.9930067044323
 20
-134.0362629873243
 10
91.9930067044323
 20
-134.0362629873243
 10
91.9930067044323
 20
-134.0362629873243
 10
91.9930067044323
 20
-134.1609754438903
 10
91.9930067044323
 20
-134.1609754438903
 10
91.9930067044323
 20
-134.1609754438903
 10
91.71584877264395
 20
-134.1609754438903
 10
91.71584877264395
 20
-134.1609754438903
 10
91.71584877264395
 20
-134.1609754438903
 10
91.71584877264395
 20
-134.4360663183875
 10
91.71584877264395
 20
-134.4360663183875
 10
91.71584877264395
 20
-134.4360663183875
 10
91.55513506825706
 20
-134.4360663183875
 10
91.55513506825706
 20
-134.4360663183875
 10
91.55513506825706
 20
-134.4360663183875
 10
91.55513506825706
 20
-134.1609754438903
 10
91.55513506825706
 20
-134.1609754438903
 10
91.55513506825706
 20
-134.1609754438903
 10
91.33516572152385
 20
-134.1609754438903
 10
91.33516572152385
 20
-134.1609754438903
 10
91.32448592551958
 20
-134.2307386274666
 10
91.29916447370299
 20
-134.4253865223832
 10
91.14465194118954
 20
-134.5755926855401
 10
91.14465194118954
 20
-134.5755926855401
 10
91.02200654191464
 20
-134.4656941395607
 10
91.02200654191464
 20
-134.4656941395607
 10
91.14258488389838
 20
-134.3661308800369
 10
91.18495955836696
 20
-134.1609754438903
 10
91.18495955836696
 20
-134.0784654070186
 10
91.18495955836696
 20
-134.0784654070186
 10
91.18495955836696
 20
-133.7928669912914
 10
91.18495955836696
 20
-133.7928669912914
 10
91.66933998359309
 20
-133.7928669912914
 10
91.82385251610654
 20
-133.7463582022405
 10
91.91893715149943
 20
-133.7187974383585
 10
91.91893715149943
 20
-133.7187974383585
 10
91.97181936719802
 20
-133.8584960602854
 10
91.97181936719802
 20
-133.8584960602854
 10
91.76235756169483
 20
-133.9070719066274
 10
91.59957680001678
 20
-133.9177517026317
 10
91.3413668933973
 20
-133.921885817214
 10
91.3413668933973
 20
-133.921885817214
 10
91.3413668933973
 20
-134.0362629873243
 10
91.3413668933973
 20
-134.0362629873243
 97
        0
 97
        0
 92
        1
 93
        1
 72
     4
 94
        3
 73
     0
 74
     1
 95
       32
 96
       28
 40
0.0
 40
0.0
 40
0.0
 40
0.0
 40
1.0
 40
1.0
 40
1.0
 40
2.0
 40
2.0
 40
2.0
 40
3.0
 40
3.0
 40
3.0
 40
4.0
 40
4.0
 40
4.0
 40
5.0
 40
5.0
 40
5.0
 40
6.0
 40
6.0
 40
6.0
 40
7.0
 40
7.0
 40
7.0
 40
8.0
 40
8.0
 40
8.0
 40
9.0
 40
9.0
 40
9.0
 40
9.0
 10
91.25678979923441
 20
-135.3815727743143
 10
91.25678979923441
 20
-135.3815727743143
 10
91.25678979923441
 20
-134.4825751074384
 10
91.25678979923441
 20
-134.4825751074384
 10
91.25678979923441
 20
-134.4825751074384
 10
92.75454506144679
 20
-134.4825751074384
 10
92.75454506144679
 20
-134.4825751074384
 10
92.75454506144679
 20
-134.4825751074384
 10
92.75454506144679
 20
-135.3815727743143
 10
92.75454506144679
 20
-135.3815727743143
 10
92.75454506144679
 20
-135.3815727743143
 10
91.61008434124679
 20
-135.3815727743143
 10
91.61008434124679
 20
-135.3815727743143
 10
91.61008434124679
 20
-135.3815727743143
 10
91.71584877264395
 20
-135.4916435750681
 10
91.71584877264395
 20
-135.4916435750681
 10
91.55082869890049
 20
-135.5869004652352
 10
91.38580862515703
 20
-135.6482231648727
 10
91.0897026681998
 20
-135.6990383232801
 10
91.0897026681998
 20
-135.6990383232801
 10
91.02407359920579
 20
-135.5465928480578
 10
91.02407359920579
 20
-135.5465928480578
 10
91.402861847809
 20
-135.4937106323592
 10
91.52550724708391
 20
-135.4260145060741
 10
91.60595022666449
 20
-135.3815727743143
 10
91.60595022666449
 20
-135.3815727743143
 10
91.25678979923441
 20
-135.3815727743143
 10
91.25678979923441
 20
-135.3815727743143
 97
        0
 97
        0
 92
        1
 93
        4
 72
     1
 10
92.58539087312101
 20
-134.6159003027176
 11
91.42611624233444
 21
-134.6159003027176
 72
     1
 10
91.42611624233444
 20
-134.6159003027176
 11
91.42611624233444
 21
-134.7449191286402
 72
     1
 10
91.42611624233444
 20
-134.7449191286402
 11
92.58539087312101
 21
-134.7449191286402
 72
     1
 10
92.58539087312101
 20
-134.7449191286402
 11
92.58539087312101
 21
-134.6159003027176
 97
        0
 92
        1
 93
        4
 72
     1
 10
92.58539087312101
 20
-134.8548176746196
 11
91.42611624233444
 21
-134.8548176746196
 72
     1
 10
91.42611624233444
 20
-134.8548176746196
 11
91.42611624233444
 21
-134.9965833538377
 72
     1
 10
91.42611624233444
 20
-134.9965833538377
 11
92.58539087312101
 21
-134.9965833538377
 72
     1
 10
92.58539087312101
 20
-134.9965833538377
 11
92.58539087312101
 21
-134.8548176746196
 97
        0
 92
        1
 93
        4
 72
     1
 10
92.58539087312101
 20
-135.1066541545914
 11
91.42611624233444
 21
-135.1066541545914
 72
     1
 10
91.42611624233444
 20
-135.1066541545914
 11
91.42611624233444
 21
-135.246180521744
 72
     1
 10
91.42611624233444
 20
-135.246180521744
 11
92.58539087312101
 21
-135.246180521744
 72
     1
 10
92.58539087312101
 20
-135.246180521744
 11
92.58539087312101
 21
-135.1066541545914
 97
        0
 92
        1
 93
        1
 72
     4
 94
        3
 73
     0
 74
     1
 95
       50
 96
       46
 40
0.0
 40
0.0
 40
0.0
 40
0.0
 40
1.0
 40
1.0
 40
1.0
 40
2.0
 40
2.0
 40
2.0
 40
3.0
 40
3.0
 40
3.0
 40
4.0
 40
4.0
 40
4.0
 40
5.0
 40
5.0
 40
5.0
 40
6.0
 40
6.0
 40
6.0
 40
7.0
 40
7.0
 40
7.0
 40
8.0
 40
8.0
 40
8.0
 40
9.0
 40
9.0
 40
9.0
 40
10.0
 40
10.0
 40
10.0
 40
11.0
 40
11.0
 40
11.0
 40
12.0
 40
12.0
 40
12.0
 40
13.0
 40
13.0
 40
13.0
 40
14.0
 40
14.0
 40
14.0
 40
15.0
 40
15.0
 40
15.0
 40
15.0
 10
92.24897729898638
 20
-134.0362629873243
 10
92.24897729898638
 20
-134.0362629873243
 10
92.98519420418427
 20
-134.0362629873243
 10
92.98519420418427
 20
-134.0362629873243
 10
92.98519420418427
 20
-134.0362629873243
 10
92.98519420418427
 20
-134.1609754438903
 10
92.98519420418427
 20
-134.1609754438903
 10
92.98519420418427
 20
-134.1609754438903
 10
92.65515405669733
 20
-134.1609754438903
 10
92.65515405669733
 20
-134.1609754438903
 10
92.65515405669733
 20
-134.1609754438903
 10
92.65515405669733
 20
-134.4360663183875
 10
92.65515405669733
 20
-134.4360663183875
 10
92.65515405669733
 20
-134.4360663183875
 10
92.49857446689272
 20
-134.4360663183875
 10
92.49857446689272
 20
-134.4360663183875
 10
92.49857446689272
 20
-134.4360663183875
 10
92.49857446689272
 20
-134.1609754438903
 10
92.49857446689272
 20
-134.1609754438903
 10
92.49857446689272
 20
-134.1609754438903
 10
92.23416338839979
 20
-134.1609754438903
 10
92.23416338839979
 20
-134.1609754438903
 10
92.20884193658321
 20
-134.2899942698129
 10
92.15802677817578
 20
-134.3809447906235
 10
92.06070283071747
 20
-134.4634548274952
 10
92.06070283071747
 20
-134.4634548274952
 10
91.93805743144257
 20
-134.3556233388069
 10
91.93805743144257
 20
-134.3556233388069
 10
92.07344968401289
 20
-134.2455525380532
 10
92.09670407853832
 20
-134.1080932281917
 10
92.09670407853832
 20
-134.0340236752589
 10
92.09670407853832
 20
-134.0340236752589
 10
92.09670407853832
 20
-133.7907999340002
 10
92.09670407853832
 20
-133.7907999340002
 10
92.56627059317788
 20
-133.7907999340002
 10
92.73352997898677
 20
-133.7506645715971
 10
92.87736271549593
 20
-133.7082898971285
 10
92.87736271549593
 20
-133.7082898971285
 10
92.93661835784224
 20
-133.84574920699
 10
92.93661835784224
 20
-133.84574920699
 10
92.6658338527016
 20
-133.9156846453405
 10
92.35060761580124
 20
-133.9198187599228
 10
92.24897729898638
 20
-133.9198187599228
 10
92.24897729898638
 20
-133.9198187599228
 10
92.24897729898638
 20
-134.0362629873243
 10
92.24897729898638
 20
-134.0362629873243
 97
        0
 97
        0
 92
        1
 93
        1
 72
     4
 94
        3
 73
     0
 74
     1
 95
       17
 96
       13
 40
0.0
 40
0.0
 40
0.0
 40
0.0
 40
1.0
 40
1.0
 40
1.0
 40
2.0
 40
2.0
 40
2.0
 40
3.0
 40
3.0
 40
3.0
 40
4.0
 40
4.0
 40
4.0
 40
4.0
 10
92.36111515703125
 20
-135.387946200962
 10
92.58108450376446
 20
-135.5000840590069
 10
92.8477348943228
 20
-135.5381523641189
 10
92.9767537202454
 20
-135.5488321601232
 10
92.9767537202454
 20
-135.5488321601232
 10
92.90699053666908
 20
-135.7031724378624
 10
92.90699053666908
 20
-135.7031724378624
 10
92.78641219468534
 20
-135.6883585272758
 10
92.52406817348357
 20
-135.6482231648727
 10
92.25965709499064
 20
-135.5021511162981
 10
92.25965709499064
 20
-135.5021511162981
 10
92.36111515703125
 20
-135.387946200962
 10
92.36111515703125
 20
-135.387946200962
 97
        0
 97
        0
 75
     2
 76
     1
 98
        0
  0
ENDBLK
  5
133
330
130
100
AcDbEntity
  8
0
100
AcDbBlockEnd
  0
BLOCK
  5
19B
330
199
100
AcDbEntity
  8
0
100
AcDbBlockBegin
  2
block 7
 70
     0
 10
0.0
 20
0.0
 30
0.0
  3
block 7
  1

  0
SPLINE
  5
19D
330
199
100
AcDbEntity
  8
_U+30EC_U+30A4_U+30E4_U+30FC 1
370
     0
100
AcDbSpline
210
0.0
220
0.0
230
1.0
 70
    11
 71
     3
 72
   242
 73
   238
 74
     0
 42
0.0000000001
 43
0.0000000001
 12
1.0
 22
0.0
 32
0.0
 13
1.0
 23
0.0
 33
0.0
 40
0.0
 40
0.0
 40
0.0
 40
0.0
 40
1.0
 40
1.0
 40
1.0
 40
2.0
 40
2.0
 40
2.0
 40
3.0
 40
3.0
 40
3.0
 40
4.0
 40
4.0
 40
4.0
 40
5.0
 40
5.0
 40
5.0
 40
6.0
 40
6.0
 40
6.0
 40
7.0
 40
7.0
 40
7.0
 40
8.0
 40
8.0
 40
8.0
 40
9.0
 40
9.0
 40
9.0
 40
10.0
 40
10.0
 40
10.0
 40
11.0
 40
11.0
 40
11.0
 40
12.0
 40
12.0
 40
12.0
 40
13.0
 40
13.0
 40
13.0
 40
14.0
 40
14.0
 40
14.0
 40
15.0
 40
15.0
 40
15.0
 40
16.0
 40
16.0
 40
16.0
 40
17.0
 40
17.0
 40
17.0
 40
18.0
 40
18.0
 40
18.0
 40
19.0
 40
19.0
 40
19.0
 40
20.0
 40
20.0
 40
20.0
 40
21.0
 40
21.0
 40
21.0
 40
22.0
 40
22.0
 40
22.0
 40
23.0
 40
23.0
 40
23.0
 40
24.0
 40
24.0
 40
24.0
 40
25.0
 40
25.0
 40
25.0
 40
26.0
 40
26.0
 40
26.0
 40
27.0
 40
27.0
 40
27.0
 40
28.0
 40
28.0
 40
28.0
 40
29.0
 40
29.0
 40
29.0
 40
30.0
 40
30.0
 40
30.0
 40
31.0
 40
31.0
 40
31.0
 40
32.0
 40
32.0
 40
32.0
 40
33.0
 40
33.0
 40
33.0
 40
34.0
 40
34.0
 40
34.0
 40
35.0
 40
35.0
 40
35.0
 40
36.0
 40
36.0
 40
36.0
 40
37.0
 40
37.0
 40
37.0
 40
38.0
 40
38.0
 40
38.0
 40
39.0
 40
39.0
 40
39.0
 40
40.0
 40
40.0
 40
40.0
 40
41.0
 40
41.0
 40
41.0
 40
42.0
 40
42.0
 40
42.0
 40
43.0
 40
43.0
 40
43.0
 40
44.0
 40
44.0
 40
44.0
 40
45.0
 40
45.0
 40
45.0
 40
46.0
 40
46.0
 40
46.0
 40
47.0
 40
47.0
 40
47.0
 40
48.0
 40
48.0
 40
48.0
 40
49.0
 40
49.0
 40
49.0
 40
50.0
 40
50.0
 40
50.0
 40
51.0
 40
51.0
 40
51.0
 40
52.0
 40
52.0
 40
52.0
 40
53.0
 40
53.0
 40
53.0
 40
54.0
 40
54.0
 40
54.0
 40
55.0
 40
55.0
 40
55.0
 40
56.0
 40
56.0
 40
56.0
 40
57.0
 40
57.0
 40
57.0
 40
58.0
 40
58.0
 40
58.0
 40
59.0
 40
59.0
 40
59.0
 40
60.0
 40
60.0
 40
60.0
 40
61.0
 40
61.0
 40
61.0
 40
62.0
 40
62.0
 40
62.0
 40
63.0
 40
63.0
 40
63.0
 40
64.0
 40
64.0
 40
64.0
 40
65.0
 40
65.0
 40
65.0
 40
66.0
 40
66.0
 40
66.0
 40
67.0
 40
67.0
 40
67.0
 40
68.0
 40
68.0
 40
68.0
 40
69.0
 40
69.0
 40
69.0
 40
70.0
 40
70.0
 40
70.0
 40
71.0
 40
71.0
 40
71.0
 40
72.0
 40
72.0
 40
72.0
 40
73.0
 40
73.0
 40
73.0
 40
74.0
 40
74.0
 40
74.0
 40
75.0
 40
75.0
 40
75.0
 40
76.0
 40
76.0
 40
76.0
 40
77.0
 40
77.0
 40
77.0
 40
78.0
 40
78.0
 40
78.0
 40
79.0
 40
79.0
 40
79.0
 40
79.0
 10
108.5945773383028
 20
-155.5322807770892
 30
0.0
 10
108.5945773383028
 20
-155.5322807770892
 30
0.0
 10
108.3406738010398
 20
-155.5322807770892
 30
0.0
 10
108.3406738010398
 20
-155.5322807770892
 30
0.0
 10
108.3406738010398
 20
-155.5322807770892
 30
0.0
 10
108.0636881240257
 20
-155.5322807770892
 30
0.0
 10
108.0636881240257
 20
-155.5322807770892
 30
0.0
 10
108.0636881240257
 20
-155.5322807770892
 30
0.0
 10
108.1904676378829
 20
-155.5746554515577
 30
0.0
 10
108.1904676378829
 20
-155.5746554515577
 30
0.0
 10
108.2008029243387
 20
-155.57878956614
 30
0.0
 10
108.2138942871826
 20
-155.5849907380135
 30
0.0
 10
108.2138942871826
 20
-155.5977375913089
 30
0.0
 10
108.2138942871826
 20
-155.6190971833175
 30
0.0
 10
108.1821994087183
 20
-155.6252983551909
 30
0.0
 10
108.1608398167098
 20
-155.6294324697732
 30
0.0
 10
108.150504530254
 20
-155.6528591190729
 30
0.0
 10
108.1208767090809
 20
-155.7183159332926
 30
0.0
 10
108.1015841743635
 20
-155.7627576650524
 30
0.0
 10
108.1015841743635
 20
-155.7627576650524
 30
0.0
 10
108.3723686795041
 20
-155.7627576650524
 30
0.0
 10
108.3723686795041
 20
-155.7627576650524
 30
0.0
 10
108.4633192003147
 20
-155.7627576650524
 30
0.0
 10
108.6600341525225
 20
-155.7586235504701
 30
0.0
 10
108.8016275769663
 20
-155.7500108117569
 30
0.0
 10
108.8016275769663
 20
-155.7500108117569
 30
0.0
 10
108.8016275769663
 20
-155.9277777387958
 30
0.0
 10
108.8016275769663
 20
-155.9277777387958
 30
0.0
 10
108.7192897948688
 20
-155.9236436242136
 30
0.0
 10
108.6982747124088
 20
-155.9236436242136
 30
0.0
 10
108.5184407280787
 20
-155.9195095096312
 30
0.0
 10
108.4867458496144
 20
-156.0738497873704
 30
0.0
 10
108.4419596083062
 20
-156.1541205121767
 30
0.0
 10
108.397862386095
 20
-156.2240559505273
 30
0.0
 10
108.5184407280787
 20
-156.2833115928736
 30
0.0
 10
108.6242051594759
 20
-156.3508354643845
 30
0.0
 10
108.7279025335819
 20
-156.4335177560305
 30
0.0
 10
108.7279025335819
 20
-156.4335177560305
 30
0.0
 10
108.6093912488893
 20
-156.6006048870651
 30
0.0
 10
108.6093912488893
 20
-156.6006048870651
 30
0.0
 10
108.5859645995896
 20
-156.5816568618962
 30
0.0
 10
108.5735622558427
 20
-156.5730441231831
 30
0.0
 10
108.4612521430236
 20
-156.488294774246
 30
0.0
 10
108.412331787133
 20
-156.4503987239083
 30
0.0
 10
108.3534206543353
 20
-156.4145697308616
 30
0.0
 10
108.2731499295289
 20
-156.3701279991019
 30
0.0
 10
108.0616210667346
 20
-156.5561631553054
 30
0.0
 10
107.8562933758137
 20
-156.5795898046051
 30
0.0
 10
107.5662163359557
 20
-156.6092176257783
 30
0.0
 10
107.5662163359557
 20
-156.6092176257783
 30
0.0
 10
107.4628634713982
 20
-156.4293836414482
 30
0.0
 10
107.4628634713982
 20
-156.4293836414482
 30
0.0
 10
107.7798122560412
 20
-156.4249050173174
 30
0.0
 10
107.9555121257889
 20
-156.3997558202751
 30
0.0
 10
108.107785346237
 20
-156.2895127647471
 30
0.0
 10
107.9892740615444
 20
-156.2388698611139
 30
0.0
 10
107.9003905980249
 20
-156.2113090972319
 30
0.0
 10
107.8645616049783
 20
-156.1985622439365
 30
0.0
 10
107.8456135798094
 20
-156.2261230078185
 30
0.0
 10
107.8307996692229
 20
-156.2450710329873
 30
0.0
 10
107.8032389053409
 20
-156.2791774782913
 30
0.0
 10
107.8032389053409
 20
-156.2791774782913
 30
0.0
 10
107.6065239531331
 20
-156.1964951866453
 30
0.0
 10
107.6065239531331
 20
-156.1964951866453
 30
0.0
 10
107.6888617352306
 20
-156.116224461839
 30
0.0
 10
107.750184434868
 20
-156.0207953168976
 30
0.0
 10
107.8073730199232
 20
-155.9195095096312
 30
0.0
 10
107.6172037491374
 20
-155.9236436242136
 30
0.0
 10
107.5958441571288
 20
-155.9236436242136
 30
0.0
 10
107.5135063750314
 20
-155.9277777387958
 30
0.0
 10
107.5135063750314
 20
-155.9277777387958
 30
0.0
 10
107.5135063750314
 20
-155.7500108117569
 30
0.0
 10
107.5135063750314
 20
-155.7500108117569
 30
0.0
 10
107.653032742184
 20
-155.7565564931789
 30
0.0
 10
107.8624945476872
 20
-155.7606906077612
 30
0.0
 10
107.887988254278
 20
-155.7606906077612
 30
0.0
 10
107.9048692221557
 20
-155.7269286720058
 30
0.0
 10
107.9596462403712
 20
-155.606350330022
 30
0.0
 10
107.9789387750886
 20
-155.5322807770892
 30
0.0
 10
107.9596462403712
 20
-155.5322807770892
 30
0.0
 10
107.7822238228808
 20
-155.5384819489626
 30
0.0
 10
107.5875759279642
 20
-155.551228802258
 30
0.0
 10
107.5875759279642
 20
-155.551228802258
 30
0.0
 10
107.5875759279642
 20
-155.6845539975372
 30
0.0
 10
107.5875759279642
 20
-155.6845539975372
 30
0.0
 10
107.5386555720737
 20
-155.710047704128
 30
0.0
 10
107.4793999297274
 20
-155.7417425825923
 30
0.0
 10
107.3464192439967
 20
-155.8071993968121
 30
0.0
 10
107.3464192439967
 20
-155.8071993968121
 30
0.0
 10
107.3464192439967
 20
-155.9532714453867
 30
0.0
 10
107.3464192439967
 20
-155.9532714453867
 30
0.0
 10
107.3464192439967
 20
-155.9532714453867
 30
0.0
 10
107.3464192439967
 20
-156.4207709027351
 30
0.0
 10
107.3464192439967
 20
-156.4207709027351
 30
0.0
 10
107.3464192439967
 20
-156.5475504165923
 30
0.0
 10
107.3105902509501
 20
-156.6068060589386
 30
0.0
 10
107.0267143829656
 20
-156.598537829774
 30
0.0
 10
107.0267143829656
 20
-156.598537829774
 30
0.0
 10
106.9233615184081
 20
-156.3911430815619
 30
0.0
 10
106.9233615184081
 20
-156.3911430815619
 30
0.0
 10
106.9867512753366
 20
-156.4038899348574
 30
0.0
 10
107.0353271216787
 20
-156.4080240494397
 30
0.0
 10
107.0756347388561
 20
-156.4080240494397
 30
0.0
 10
107.1517713490801
 20
-156.4080240494397
 30
0.0
 10
107.1624511450844
 20
-156.3849419096885
 30
0.0
 10
107.1624511450844
 20
-156.3191405859202
 30
0.0
 10
107.1624511450844
 20
-156.3191405859202
 30
0.0
 10
107.1624511450844
 20
-155.8898816884581
 30
0.0
 10
107.1624511450844
 20
-155.8898816884581
 30
0.0
 10
107.0649549428518
 20
-155.929844796087
 30
0.0
 10
107.0480739749741
 20
-155.936390477509
 30
0.0
 10
107.0015651859232
 20
-155.9553385026778
 30
0.0
 10
106.9970865617924
 20
-155.9763535851379
 30
0.0
 10
106.9929524472101
 20
-156.005981406311
 30
0.0
 10
106.9740044220412
 20
-156.005981406311
 30
0.0
 10
106.9653916833281
 20
-156.005981406311
 30
0.0
 10
106.9550563968724
 20
-156.0018472917287
 30
0.0
 10
106.9488552249989
 20
-155.9787651519775
 30
0.0
 10
106.9488552249989
 20
-155.9787651519775
 30
0.0
 10
106.8958007545261
 20
-155.7861843143521
 30
0.0
 10
106.8958007545261
 20
-155.7861843143521
 30
0.0
 10
107.0418728031006
 20
-155.7396755253012
 30
0.0
 10
107.1073296173204
 20
-155.7162488760015
 30
0.0
 10
107.1624511450844
 20
-155.6952337935415
 30
0.0
 10
107.1624511450844
 20
-155.6952337935415
 30
0.0
 10
107.1624511450844
 20
-155.2825113544085
 30
0.0
 10
107.1624511450844
 20
-155.2825113544085
 30
0.0
 10
107.1624511450844
 20
-155.2825113544085
 30
0.0
 10
107.1093966746115
 20
-155.2825113544085
 30
0.0
 10
107.1093966746115
 20
-155.2825113544085
 30
0.0
 10
107.1093966746115
 20
-155.2825113544085
 30
0.0
 10
107.0311930070964
 20
-155.2825113544085
 30
0.0
 10
107.0311930070964
 20
-155.2825113544085
 30
0.0
 10
106.963324626037
 20
-155.2825113544085
 30
0.0
 10
106.9550563968724
 20
-155.2825113544085
 30
0.0
 10
106.9192274038258
 20
-155.2890570358305
 30
0.0
 10
106.9192274038258
 20
-155.2890570358305
 30
0.0
 10
106.9192274038258
 20
-155.0944091409139
 30
0.0
 10
106.9192274038258
 20
-155.0944091409139
 30
0.0
 10
106.9467881677078
 20
-155.1006103127874
 30
0.0
 10
106.9550563968724
 20
-155.1006103127874
 30
0.0
 10
107.0246473256744
 20
-155.1006103127874
 30
0.0
 10
107.0246473256744
 20
-155.1006103127874
 30
0.0
 10
107.1583170305021
 20
-155.1006103127874
 30
0.0
 10
107.1583170305021
 20
-155.1006103127874
 30
0.0
 10
107.1583170305021
 20
-155.0310193839853
 30
0.0
 10
107.1583170305021
 20
-154.9483370923393
 30
0.0
 10
107.1559054636624
 20
-154.944202977757
 30
0.0
 10
107.1472927249493
 20
-154.764368993427
 30
0.0
 10
107.1472927249493
 20
-154.7454209682581
 30
0.0
 10
107.1452256676581
 20
-154.6989121792072
 30
0.0
 10
107.1452256676581
 20
-154.6989121792072
 30
0.0
 10
107.3612331545833
 20
-154.7071804083718
 30
0.0
 10
107.3612331545833
 20
-154.7071804083718
 30
0.0
 10
107.3719129505876
 20
-154.7071804083718
 30
0.0
 10
107.3929280330476
 20
-154.709247465663
 30
0.0
 10
107.3929280330476
 20
-154.7261284335407
 30
0.0
 10
107.3929280330476
 20
-154.7454209682581
 30
0.0
 10
107.378114122461
 20
-154.7557562547138
 30
0.0
 10
107.3526204158702
 20
-154.7750487894313
 30
0.0
 10
107.3526204158702
 20
-154.8256916930644
 30
0.0
 10
107.3464192439967
 20
-155.0541015237365
 30
0.0
 10
107.3484863012879
 20
-155.1006103127874
 30
0.0
 10
107.4773328724362
 20
-155.1006103127874
 30
0.0
 10
107.4904242352802
 20
-155.1006103127874
 30
0.0
 10
107.5875759279642
 20
-155.0923420836228
 30
0.0
 10
107.5875759279642
 20
-155.0923420836228
 30
0.0
 10
107.5875759279642
 20
-155.2869899785394
 30
0.0
 10
107.5875759279642
 20
-155.2869899785394
 30
0.0
 10
107.5496798776265
 20
-155.2845784116997
 30
0.0
 10
107.481811496567
 20
-155.2804442971174
 30
0.0
 10
107.3464192439967
 20
-155.2825113544085
 30
0.0
 10
107.3464192439967
 20
-155.2825113544085
 30
0.0
 10
107.3464192439967
 20
-155.6211642406086
 30
0.0
 10
107.3464192439967
 20
-155.6211642406086
 30
0.0
 10
107.4015407717607
 20
-155.5977375913089
 30
0.0
 10
107.4669975859805
 20
-155.5701768274269
 30
0.0
 10
107.5155734323225
 20
-155.5470946876757
 30
0.0
 10
107.5155734323225
 20
-155.5470946876757
 30
0.0
 10
107.5155734323225
 20
-155.3693277606368
 30
0.0
 10
107.5155734323225
 20
-155.3693277606368
 30
0.0
 10
107.6296060928843
 20
-155.3820746139323
 30
0.0
 10
107.7481173775769
 20
-155.3820746139323
 30
0.0
 10
107.8645616049783
 20
-155.3820746139323
 30
0.0
 10
107.8414794652271
 20
-155.2869899785394
 30
0.0
 10
107.8139187013451
 20
-155.2043076868934
 30
0.0
 10
107.750184434868
 20
-155.0709824916142
 30
0.0
 10
107.7060872126568
 20
-155.0730495489053
 30
0.0
 10
107.6234049210108
 20
-155.0775281730362
 30
0.0
 10
107.5855088706731
 20
-155.0795952303273
 30
0.0
 10
107.5855088706731
 20
-155.0795952303273
 30
0.0
 10
107.5855088706731
 20
-154.8997612459973
 30
0.0
 10
107.5855088706731
 20
-154.8997612459973
 30
0.0
 10
107.7102213272391
 20
-154.9080294751619
 30
0.0
 10
107.8838541396957
 20
-154.9125080992927
 30
0.0
 10
107.9661919217932
 20
-154.9125080992927
 30
0.0
 10
107.9661919217932
 20
-154.9125080992927
 30
0.0
 10
108.0485297038907
 20
-154.9125080992927
 30
0.0
 10
108.0485297038907
 20
-154.9125080992927
 30
0.0
 10
108.0485297038907
 20
-154.7495550828404
 30
0.0
 10
108.0485297038907
 20
-154.7388752868361
 30
0.0
 10
108.0464626465995
 20
-154.6840982686207
 30
0.0
 10
108.0464626465995
 20
-154.6840982686207
 30
0.0
 10
108.2710828722378
 20
-154.709247465663
 30
0.0
 10
108.2710828722378
 20
-154.709247465663
 30
0.0
 10
108.2752169868201
 20
-154.709247465663
 30
0.0
 10
108.2962320692801
 20
-154.7113145229541
 30
0.0
 10
108.2962320692801
 20
-154.7281954908318
 30
0.0
 10
108.2962320692801
 20
-154.7430094014184
 30
0.0
 10
108.2855522732758
 20
-154.7516221401316
 30
0.0
 10
108.2579915093938
 20
-154.7664360507181
 30
0.0
 10
108.2517903375204
 20
-154.8318928649379
 30
0.0
 10
108.2497232802292
 20
-154.8532524569464
 30
0.0
 10
108.2497232802292
 20
-154.9125080992927
 30
0.0
 10
108.2497232802292
 20
-154.9125080992927
 30
0.0
 10
108.3448079156221
 20
-154.9125080992927
 30
0.0
 10
108.3448079156221
 20
-154.9125080992927
 30
0.0
 10
108.4274902072681
 20
-154.9125080992927
 30
0.0
 10
108.6007785101762
 20
-154.9080294751619
 30
0.0
 10
108.7258354762908
 20
-154.8997612459973
 30
0.0
 10
108.7258354762908
 20
-154.8997612459973
 30
0.0
 10
108.7258354762908
 20
-155.0795952303273
 30
0.0
 10
108.7258354762908
 20
-155.0795952303273
 30
0.0
 10
108.6962076551176
 20
-155.0775281730362
 30
0.0
 10
108.577696370425
 20
-155.0730495489053
 30
0.0
 10
108.5373887532476
 20
-155.0709824916142
 30
0.0
 10
108.522574842661
 20
-155.1219699047959
 30
0.0
 10
108.4888129069056
 20
-155.2339355080665
 30
0.0
 10
108.4233560926858
 20
-155.3734618752191
 30
0.0
 10
108.4653862576059
 20
-155.3734618752191
 30
0.0
 10
108.74237193462
 20
-155.3545138500503
 30
0.0
 10
108.8036946342574
 20
-155.3524467927591
 30
0.0
 10
108.8036946342574
 20
-155.3524467927591
 30
0.0
 10
108.8036946342574
 20
-155.5364148916715
 30
0.0
 10
108.8036946342574
 20
-155.5364148916715
 30
0.0
 10
108.7744113226328
 20
-155.5364148916715
 30
0.0
 10
108.7575303547551
 20
-155.5322807770892
 30
0.0
 10
108.5945773383028
 20
-155.5322807770892
 30
0.0
  0
SPLINE
  5
19E
330
199
100
AcDbEntity
  8
_U+30EC_U+30A4_U+30E4_U+30FC 1
370
     0
100
AcDbSpline
210
0.0
220
0.0
230
1.0
 70
    11
 71
     3
 72
    20
 73
    16
 74
     0
 42
0.0000000001
 43
0.0000000001
 12
1.0
 22
0.0
 32
0.0
 13
1.0
 23
0.0
 33
0.0
 40
0.0
 40
0.0
 40
0.0
 40
0.0
 40
1.0
 40
1.0
 40
1.0
 40
2.0
 40
2.0
 40
2.0
 40
3.0
 40
3.0
 40
3.0
 40
4.0
 40
4.0
 40
4.0
 40
5.0
 40
5.0
 40
5.0
 40
5.0
 10
107.9661919217932
 20
-155.0668483770319
 30
0.0
 10
107.9661919217932
 20
-155.0668483770319
 30
0.0
 10
107.9344970433289
 20
-155.0668483770319
 30
0.0
 10
107.9344970433289
 20
-155.0668483770319
 30
0.0
 10
107.9810058323798
 20
-155.1664116365556
 30
0.0
 10
108.0127007108441
 20
-155.2466823613619
 30
0.0
 10
108.0464626465995
 20
-155.3734618752191
 30
0.0
 10
108.0464626465995
 20
-155.3734618752191
 30
0.0
 10
108.2538573948115
 20
-155.3734618752191
 30
0.0
 10
108.2538573948115
 20
-155.3734618752191
 30
0.0
 10
108.2855522732758
 20
-155.2804442971174
 30
0.0
 10
108.3089789225755
 20
-155.1960394577288
 30
0.0
 10
108.3324055718752
 20
-155.0668483770319
 30
0.0
 10
108.3324055718752
 20
-155.0668483770319
 30
0.0
 10
107.9661919217932
 20
-155.0668483770319
 30
0.0
 10
107.9661919217932
 20
-155.0668483770319
 30
0.0
  0
SPLINE
  5
19F
330
199
100
AcDbEntity
  8
_U+30EC_U+30A4_U+30E4_U+30FC 1
370
     0
100
AcDbSpline
210
0.0
220
0.0
230
1.0
 70
    11
 71
     3
 72
    17
 73
    13
 74
     0
 42
0.0000000001
 43
0.0000000001
 12
1.0
 22
0.0
 32
0.0
 13
1.0
 23
0.0
 33
0.0
 40
0.0
 40
0.0
 40
0.0
 40
0.0
 40
1.0
 40
1.0
 40
1.0
 40
2.0
 40
2.0
 40
2.0
 40
3.0
 40
3.0
 40
3.0
 40
4.0
 40
4.0
 40
4.0
 40
4.0
 10
108.0299261882703
 20
-155.9174424523401
 30
0.0
 10
108.0127007108441
 20
-155.9467257639647
 30
0.0
 10
107.9620578072109
 20
-156.040087851615
 30
0.0
 10
107.9513780112066
 20
-156.0590358767839
 30
0.0
 10
108.1415472819924
 20
-156.1182915191302
 30
0.0
 10
108.1629068740009
 20
-156.1244926910036
 30
0.0
 10
108.2349093696427
 20
-156.1520534548856
 30
0.0
 10
108.2896863878581
 20
-156.0652370486573
 30
0.0
 10
108.3131130371578
 20
-155.9911674957244
 30
0.0
 10
108.3279269477444
 20
-155.9174424523401
 30
0.0
 10
108.3279269477444
 20
-155.9174424523401
 30
0.0
 10
108.0299261882703
 20
-155.9174424523401
 30
0.0
 10
108.0299261882703
 20
-155.9174424523401
 30
0.0
  0
HATCH
  5
1A0
330
199
100
AcDbEntity
  8
_U+30EC_U+30A4_U+30E4_U+30FC 1
 62
   179
420
  2234388
100
AcDbHatch
 10
0.0
 20
0.0
 30
0.0
210
0.0
220
0.0
230
1.0
  2
SOLID
 70
     1
 71
     0
 91
        3
 92
        1
 93
        1
 72
     4
 94
        3
 73
     0
 74
     1
 95
      242
 96
      238
 40
0.0
 40
0.0
 40
0.0
 40
0.0
 40
1.0
 40
1.0
 40
1.0
 40
2.0
 40
2.0
 40
2.0
 40
3.0
 40
3.0
 40
3.0
 40
4.0
 40
4.0
 40
4.0
 40
5.0
 40
5.0
 40
5.0
 40
6.0
 40
6.0
 40
6.0
 40
7.0
 40
7.0
 40
7.0
 40
8.0
 40
8.0
 40
8.0
 40
9.0
 40
9.0
 40
9.0
 40
10.0
 40
10.0
 40
10.0
 40
11.0
 40
11.0
 40
11.0
 40
12.0
 40
12.0
 40
12.0
 40
13.0
 40
13.0
 40
13.0
 40
14.0
 40
14.0
 40
14.0
 40
15.0
 40
15.0
 40
15.0
 40
16.0
 40
16.0
 40
16.0
 40
17.0
 40
17.0
 40
17.0
 40
18.0
 40
18.0
 40
18.0
 40
19.0
 40
19.0
 40
19.0
 40
20.0
 40
20.0
 40
20.0
 40
21.0
 40
21.0
 40
21.0
 40
22.0
 40
22.0
 40
22.0
 40
23.0
 40
23.0
 40
23.0
 40
24.0
 40
24.0
 40
24.0
 40
25.0
 40
25.0
 40
25.0
 40
26.0
 40
26.0
 40
26.0
 40
27.0
 40
27.0
 40
27.0
 40
28.0
 40
28.0
 40
28.0
 40
29.0
 40
29.0
 40
29.0
 40
30.0
 40
30.0
 40
30.0
 40
31.0
 40
31.0
 40
31.0
 40
32.0
 40
32.0
 40
32.0
 40
33.0
 40
33.0
 40
33.0
 40
34.0
 40
34.0
 40
34.0
 40
35.0
 40
35.0
 40
35.0
 40
36.0
 40
36.0
 40
36.0
 40
37.0
 40
37.0
 40
37.0
 40
38.0
 40
38.0
 40
38.0
 40
39.0
 40
39.0
 40
39.0
 40
40.0
 40
40.0
 40
40.0
 40
41.0
 40
41.0
 40
41.0
 40
42.0
 40
42.0
 40
42.0
 40
43.0
 40
43.0
 40
43.0
 40
44.0
 40
44.0
 40
44.0
 40
45.0
 40
45.0
 40
45.0
 40
46.0
 40
46.0
 40
46.0
 40
47.0
 40
47.0
 40
47.0
 40
48.0
 40
48.0
 40
48.0
 40
49.0
 40
49.0
 40
49.0
 40
50.0
 40
50.0
 40
50.0
 40
51.0
 40
51.0
 40
51.0
 40
52.0
 40
52.0
 40
52.0
 40
53.0
 40
53.0
 40
53.0
 40
54.0
 40
54.0
 40
54.0
 40
55.0
 40
55.0
 40
55.0
 40
56.0
 40
56.0
 40
56.0
 40
57.0
 40
57.0
 40
57.0
 40
58.0
 40
58.0
 40
58.0
 40
59.0
 40
59.0
 40
59.0
 40
60.0
 40
60.0
 40
60.0
 40
61.0
 40
61.0
 40
61.0
 40
62.0
 40
62.0
 40
62.0
 40
63.0
 40
63.0
 40
63.0
 40
64.0
 40
64.0
 40
64.0
 40
65.0
 40
65.0
 40
65.0
 40
66.0
 40
66.0
 40
66.0
 40
67.0
 40
67.0
 40
67.0
 40
68.0
 40
68.0
 40
68.0
 40
69.0
 40
69.0
 40
69.0
 40
70.0
 40
70.0
 40
70.0
 40
71.0
 40
71.0
 40
71.0
 40
72.0
 40
72.0
 40
72.0
 40
73.0
 40
73.0
 40
73.0
 40
74.0
 40
74.0
 40
74.0
 40
75.0
 40
75.0
 40
75.0
 40
76.0
 40
76.0
 40
76.0
 40
77.0
 40
77.0
 40
77.0
 40
78.0
 40
78.0
 40
78.0
 40
79.0
 40
79.0
 40
79.0
 40
79.0
 10
108.5945773383028
 20
-155.5322807770892
 10
108.5945773383028
 20
-155.5322807770892
 10
108.3406738010398
 20
-155.5322807770892
 10
108.3406738010398
 20
-155.5322807770892
 10
108.3406738010398
 20
-155.5322807770892
 10
108.0636881240257
 20
-155.5322807770892
 10
108.0636881240257
 20
-155.5322807770892
 10
108.0636881240257
 20
-155.5322807770892
 10
108.1904676378829
 20
-155.5746554515577
 10
108.1904676378829
 20
-155.5746554515577
 10
108.2008029243387
 20
-155.57878956614
 10
108.2138942871826
 20
-155.5849907380135
 10
108.2138942871826
 20
-155.5977375913089
 10
108.2138942871826
 20
-155.6190971833175
 10
108.1821994087183
 20
-155.6252983551909
 10
108.1608398167098
 20
-155.6294324697732
 10
108.150504530254
 20
-155.6528591190729
 10
108.1208767090809
 20
-155.7183159332926
 10
108.1015841743635
 20
-155.7627576650524
 10
108.1015841743635
 20
-155.7627576650524
 10
108.3723686795041
 20
-155.7627576650524
 10
108.3723686795041
 20
-155.7627576650524
 10
108.4633192003147
 20
-155.7627576650524
 10
108.6600341525225
 20
-155.7586235504701
 10
108.8016275769663
 20
-155.7500108117569
 10
108.8016275769663
 20
-155.7500108117569
 10
108.8016275769663
 20
-155.9277777387958
 10
108.8016275769663
 20
-155.9277777387958
 10
108.7192897948688
 20
-155.9236436242136
 10
108.6982747124088
 20
-155.9236436242136
 10
108.5184407280787
 20
-155.9195095096312
 10
108.4867458496144
 20
-156.0738497873704
 10
108.4419596083062
 20
-156.1541205121767
 10
108.397862386095
 20
-156.2240559505273
 10
108.5184407280787
 20
-156.2833115928736
 10
108.6242051594759
 20
-156.3508354643845
 10
108.7279025335819
 20
-156.4335177560305
 10
108.7279025335819
 20
-156.4335177560305
 10
108.6093912488893
 20
-156.6006048870651
 10
108.6093912488893
 20
-156.6006048870651
 10
108.5859645995896
 20
-156.5816568618962
 10
108.5735622558427
 20
-156.5730441231831
 10
108.4612521430236
 20
-156.488294774246
 10
108.412331787133
 20
-156.4503987239083
 10
108.3534206543353
 20
-156.4145697308616
 10
108.2731499295289
 20
-156.3701279991019
 10
108.0616210667346
 20
-156.5561631553054
 10
107.8562933758137
 20
-156.5795898046051
 10
107.5662163359557
 20
-156.6092176257783
 10
107.5662163359557
 20
-156.6092176257783
 10
107.4628634713982
 20
-156.4293836414482
 10
107.4628634713982
 20
-156.4293836414482
 10
107.7798122560412
 20
-156.4249050173174
 10
107.9555121257889
 20
-156.3997558202751
 10
108.107785346237
 20
-156.2895127647471
 10
107.9892740615444
 20
-156.2388698611139
 10
107.9003905980249
 20
-156.2113090972319
 10
107.8645616049783
 20
-156.1985622439365
 10
107.8456135798094
 20
-156.2261230078185
 10
107.8307996692229
 20
-156.2450710329873
 10
107.8032389053409
 20
-156.2791774782913
 10
107.8032389053409
 20
-156.2791774782913
 10
107.6065239531331
 20
-156.1964951866453
 10
107.6065239531331
 20
-156.1964951866453
 10
107.6888617352306
 20
-156.116224461839
 10
107.750184434868
 20
-156.0207953168976
 10
107.8073730199232
 20
-155.9195095096312
 10
107.6172037491374
 20
-155.9236436242136
 10
107.5958441571288
 20
-155.9236436242136
 10
107.5135063750314
 20
-155.9277777387958
 10
107.5135063750314
 20
-155.9277777387958
 10
107.5135063750314
 20
-155.7500108117569
 10
107.5135063750314
 20
-155.7500108117569
 10
107.653032742184
 20
-155.7565564931789
 10
107.8624945476872
 20
-155.7606906077612
 10
107.887988254278
 20
-155.7606906077612
 10
107.9048692221557
 20
-155.7269286720058
 10
107.9596462403712
 20
-155.606350330022
 10
107.9789387750886
 20
-155.5322807770892
 10
107.9596462403712
 20
-155.5322807770892
 10
107.7822238228808
 20
-155.5384819489626
 10
107.5875759279642
 20
-155.551228802258
 10
107.5875759279642
 20
-155.551228802258
 10
107.5875759279642
 20
-155.6845539975372
 10
107.5875759279642
 20
-155.6845539975372
 10
107.5386555720737
 20
-155.710047704128
 10
107.4793999297274
 20
-155.7417425825923
 10
107.3464192439967
 20
-155.8071993968121
 10
107.3464192439967
 20
-155.8071993968121
 10
107.3464192439967
 20
-155.9532714453867
 10
107.3464192439967
 20
-155.9532714453867
 10
107.3464192439967
 20
-155.9532714453867
 10
107.3464192439967
 20
-156.4207709027351
 10
107.3464192439967
 20
-156.4207709027351
 10
107.3464192439967
 20
-156.5475504165923
 10
107.3105902509501
 20
-156.6068060589386
 10
107.0267143829656
 20
-156.598537829774
 10
107.0267143829656
 20
-156.598537829774
 10
106.9233615184081
 20
-156.3911430815619
 10
106.9233615184081
 20
-156.3911430815619
 10
106.9867512753366
 20
-156.4038899348574
 10
107.0353271216787
 20
-156.4080240494397
 10
107.0756347388561
 20
-156.4080240494397
 10
107.1517713490801
 20
-156.4080240494397
 10
107.1624511450844
 20
-156.3849419096885
 10
107.1624511450844
 20
-156.3191405859202
 10
107.1624511450844
 20
-156.3191405859202
 10
107.1624511450844
 20
-155.8898816884581
 10
107.1624511450844
 20
-155.8898816884581
 10
107.0649549428518
 20
-155.929844796087
 10
107.0480739749741
 20
-155.936390477509
 10
107.0015651859232
 20
-155.9553385026778
 10
106.9970865617924
 20
-155.9763535851379
 10
106.9929524472101
 20
-156.005981406311
 10
106.9740044220412
 20
-156.005981406311
 10
106.9653916833281
 20
-156.005981406311
 10
106.9550563968724
 20
-156.0018472917287
 10
106.9488552249989
 20
-155.9787651519775
 10
106.9488552249989
 20
-155.9787651519775
 10
106.8958007545261
 20
-155.7861843143521
 10
106.8958007545261
 20
-155.7861843143521
 10
107.0418728031006
 20
-155.7396755253012
 10
107.1073296173204
 20
-155.7162488760015
 10
107.1624511450844
 20
-155.6952337935415
 10
107.1624511450844
 20
-155.6952337935415
 10
107.1624511450844
 20
-155.2825113544085
 10
107.1624511450844
 20
-155.2825113544085
 10
107.1624511450844
 20
-155.2825113544085
 10
107.1093966746115
 20
-155.2825113544085
 10
107.1093966746115
 20
-155.2825113544085
 10
107.1093966746115
 20
-155.2825113544085
 10
107.0311930070964
 20
-155.2825113544085
 10
107.0311930070964
 20
-155.2825113544085
 10
106.963324626037
 20
-155.2825113544085
 10
106.9550563968724
 20
-155.2825113544085
 10
106.9192274038258
 20
-155.2890570358305
 10
106.9192274038258
 20
-155.2890570358305
 10
106.9192274038258
 20
-155.0944091409139
 10
106.9192274038258
 20
-155.0944091409139
 10
106.9467881677078
 20
-155.1006103127874
 10
106.9550563968724
 20
-155.1006103127874
 10
107.0246473256744
 20
-155.1006103127874
 10
107.0246473256744
 20
-155.1006103127874
 10
107.1583170305021
 20
-155.1006103127874
 10
107.1583170305021
 20
-155.1006103127874
 10
107.1583170305021
 20
-155.0310193839853
 10
107.1583170305021
 20
-154.9483370923393
 10
107.1559054636624
 20
-154.944202977757
 10
107.1472927249493
 20
-154.764368993427
 10
107.1472927249493
 20
-154.7454209682581
 10
107.1452256676581
 20
-154.6989121792072
 10
107.1452256676581
 20
-154.6989121792072
 10
107.3612331545833
 20
-154.7071804083718
 10
107.3612331545833
 20
-154.7071804083718
 10
107.3719129505876
 20
-154.7071804083718
 10
107.3929280330476
 20
-154.709247465663
 10
107.3929280330476
 20
-154.7261284335407
 10
107.3929280330476
 20
-154.7454209682581
 10
107.378114122461
 20
-154.7557562547138
 10
107.3526204158702
 20
-154.7750487894313
 10
107.3526204158702
 20
-154.8256916930644
 10
107.3464192439967
 20
-155.0541015237365
 10
107.3484863012879
 20
-155.1006103127874
 10
107.4773328724362
 20
-155.1006103127874
 10
107.4904242352802
 20
-155.1006103127874
 10
107.5875759279642
 20
-155.0923420836228
 10
107.5875759279642
 20
-155.0923420836228
 10
107.5875759279642
 20
-155.2869899785394
 10
107.5875759279642
 20
-155.2869899785394
 10
107.5496798776265
 20
-155.2845784116997
 10
107.481811496567
 20
-155.2804442971174
 10
107.3464192439967
 20
-155.2825113544085
 10
107.3464192439967
 20
-155.2825113544085
 10
107.3464192439967
 20
-155.6211642406086
 10
107.3464192439967
 20
-155.6211642406086
 10
107.4015407717607
 20
-155.5977375913089
 10
107.4669975859805
 20
-155.5701768274269
 10
107.5155734323225
 20
-155.5470946876757
 10
107.5155734323225
 20
-155.5470946876757
 10
107.5155734323225
 20
-155.3693277606368
 10
107.5155734323225
 20
-155.3693277606368
 10
107.6296060928843
 20
-155.3820746139323
 10
107.7481173775769
 20
-155.3820746139323
 10
107.8645616049783
 20
-155.3820746139323
 10
107.8414794652271
 20
-155.2869899785394
 10
107.8139187013451
 20
-155.2043076868934
 10
107.750184434868
 20
-155.0709824916142
 10
107.7060872126568
 20
-155.0730495489053
 10
107.6234049210108
 20
-155.0775281730362
 10
107.5855088706731
 20
-155.0795952303273
 10
107.5855088706731
 20
-155.0795952303273
 10
107.5855088706731
 20
-154.8997612459973
 10
107.5855088706731
 20
-154.8997612459973
 10
107.7102213272391
 20
-154.9080294751619
 10
107.8838541396957
 20
-154.9125080992927
 10
107.9661919217932
 20
-154.9125080992927
 10
107.9661919217932
 20
-154.9125080992927
 10
108.0485297038907
 20
-154.9125080992927
 10
108.0485297038907
 20
-154.9125080992927
 10
108.0485297038907
 20
-154.7495550828404
 10
108.0485297038907
 20
-154.7388752868361
 10
108.0464626465995
 20
-154.6840982686207
 10
108.0464626465995
 20
-154.6840982686207
 10
108.2710828722378
 20
-154.709247465663
 10
108.2710828722378
 20
-154.709247465663
 10
108.2752169868201
 20
-154.709247465663
 10
108.2962320692801
 20
-154.7113145229541
 10
108.2962320692801
 20
-154.7281954908318
 10
108.2962320692801
 20
-154.7430094014184
 10
108.2855522732758
 20
-154.7516221401316
 10
108.2579915093938
 20
-154.7664360507181
 10
108.2517903375204
 20
-154.8318928649379
 10
108.2497232802292
 20
-154.8532524569464
 10
108.2497232802292
 20
-154.9125080992927
 10
108.2497232802292
 20
-154.9125080992927
 10
108.3448079156221
 20
-154.9125080992927
 10
108.3448079156221
 20
-154.9125080992927
 10
108.4274902072681
 20
-154.9125080992927
 10
108.6007785101762
 20
-154.9080294751619
 10
108.7258354762908
 20
-154.8997612459973
 10
108.7258354762908
 20
-154.8997612459973
 10
108.7258354762908
 20
-155.0795952303273
 10
108.7258354762908
 20
-155.0795952303273
 10
108.6962076551176
 20
-155.0775281730362
 10
108.577696370425
 20
-155.0730495489053
 10
108.5373887532476
 20
-155.0709824916142
 10
108.522574842661
 20
-155.1219699047959
 10
108.4888129069056
 20
-155.2339355080665
 10
108.4233560926858
 20
-155.3734618752191
 10
108.4653862576059
 20
-155.3734618752191
 10
108.74237193462
 20
-155.3545138500503
 10
108.8036946342574
 20
-155.3524467927591
 10
108.8036946342574
 20
-155.3524467927591
 10
108.8036946342574
 20
-155.5364148916715
 10
108.8036946342574
 20
-155.5364148916715
 10
108.7744113226328
 20
-155.5364148916715
 10
108.7575303547551
 20
-155.5322807770892
 10
108.5945773383028
 20
-155.5322807770892
 97
        0
 97
        0
 92
        1
 93
        1
 72
     4
 94
        3
 73
     0
 74
     1
 95
       20
 96
       16
 40
0.0
 40
0.0
 40
0.0
 40
0.0
 40
1.0
 40
1.0
 40
1.0
 40
2.0
 40
2.0
 40
2.0
 40
3.0
 40
3.0
 40
3.0
 40
4.0
 40
4.0
 40
4.0
 40
5.0
 40
5.0
 40
5.0
 40
5.0
 10
107.9661919217932
 20
-155.0668483770319
 10
107.9661919217932
 20
-155.0668483770319
 10
107.9344970433289
 20
-155.0668483770319
 10
107.9344970433289
 20
-155.0668483770319
 10
107.9810058323798
 20
-155.1664116365556
 10
108.0127007108441
 20
-155.2466823613619
 10
108.0464626465995
 20
-155.3734618752191
 10
108.0464626465995
 20
-155.3734618752191
 10
108.2538573948115
 20
-155.3734618752191
 10
108.2538573948115
 20
-155.3734618752191
 10
108.2855522732758
 20
-155.2804442971174
 10
108.3089789225755
 20
-155.1960394577288
 10
108.3324055718752
 20
-155.0668483770319
 10
108.3324055718752
 20
-155.0668483770319
 10
107.9661919217932
 20
-155.0668483770319
 10
107.9661919217932
 20
-155.0668483770319
 97
        0
 97
        0
 92
        1
 93
        1
 72
     4
 94
        3
 73
     0
 74
     1
 95
       17
 96
       13
 40
0.0
 40
0.0
 40
0.0
 40
0.0
 40
1.0
 40
1.0
 40
1.0
 40
2.0
 40
2.0
 40
2.0
 40
3.0
 40
3.0
 40
3.0
 40
4.0
 40
4.0
 40
4.0
 40
4.0
 10
108.0299261882703
 20
-155.9174424523401
 10
108.0127007108441
 20
-155.9467257639647
 10
107.9620578072109
 20
-156.040087851615
 10
107.9513780112066
 20
-156.0590358767839
 10
108.1415472819924
 20
-156.1182915191302
 10
108.1629068740009
 20
-156.1244926910036
 10
108.2349093696427
 20
-156.1520534548856
 10
108.2896863878581
 20
-156.0652370486573
 10
108.3131130371578
 20
-155.9911674957244
 10
108.3279269477444
 20
-155.9174424523401
 10
108.3279269477444
 20
-155.9174424523401
 10
108.0299261882703
 20
-155.9174424523401
 10
108.0299261882703
 20
-155.9174424523401
 97
        0
 97
        0
 75
     2
 76
     1
 98
        0
  0
SPLINE
  5
1A1
330
199
100
AcDbEntity
  8
_U+30EC_U+30A4_U+30E4_U+30FC 1
370
     0
100
AcDbSpline
210
0.0
220
0.0
230
1.0
 70
    11
 71
     3
 72
   203
 73
   199
 74
     0
 42
0.0000000001
 43
0.0000000001
 12
1.0
 22
0.0
 32
0.0
 13
1.0
 23
0.0
 33
0.0
 40
0.0
 40
0.0
 40
0.0
 40
0.0
 40
1.0
 40
1.0
 40
1.0
 40
2.0
 40
2.0
 40
2.0
 40
3.0
 40
3.0
 40
3.0
 40
4.0
 40
4.0
 40
4.0
 40
5.0
 40
5.0
 40
5.0
 40
6.0
 40
6.0
 40
6.0
 40
7.0
 40
7.0
 40
7.0
 40
8.0
 40
8.0
 40
8.0
 40
9.0
 40
9.0
 40
9.0
 40
10.0
 40
10.0
 40
10.0
 40
11.0
 40
11.0
 40
11.0
 40
12.0
 40
12.0
 40
12.0
 40
13.0
 40
13.0
 40
13.0
 40
14.0
 40
14.0
 40
14.0
 40
15.0
 40
15.0
 40
15.0
 40
16.0
 40
16.0
 40
16.0
 40
17.0
 40
17.0
 40
17.0
 40
18.0
 40
18.0
 40
18.0
 40
19.0
 40
19.0
 40
19.0
 40
20.0
 40
20.0
 40
20.0
 40
21.0
 40
21.0
 40
21.0
 40
22.0
 40
22.0
 40
22.0
 40
23.0
 40
23.0
 40
23.0
 40
24.0
 40
24.0
 40
24.0
 40
25.0
 40
25.0
 40
25.0
 40
26.0
 40
26.0
 40
26.0
 40
27.0
 40
27.0
 40
27.0
 40
28.0
 40
28.0
 40
28.0
 40
29.0
 40
29.0
 40
29.0
 40
30.0
 40
30.0
 40
30.0
 40
31.0
 40
31.0
 40
31.0
 40
32.0
 40
32.0
 40
32.0
 40
33.0
 40
33.0
 40
33.0
 40
34.0
 40
34.0
 40
34.0
 40
35.0
 40
35.0
 40
35.0
 40
36.0
 40
36.0
 40
36.0
 40
37.0
 40
37.0
 40
37.0
 40
38.0
 40
38.0
 40
38.0
 40
39.0
 40
39.0
 40
39.0
 40
40.0
 40
40.0
 40
40.0
 40
41.0
 40
41.0
 40
41.0
 40
42.0
 40
42.0
 40
42.0
 40
43.0
 40
43.0
 40
43.0
 40
44.0
 40
44.0
 40
44.0
 40
45.0
 40
45.0
 40
45.0
 40
46.0
 40
46.0
 40
46.0
 40
47.0
 40
47.0
 40
47.0
 40
48.0
 40
48.0
 40
48.0
 40
49.0
 40
49.0
 40
49.0
 40
50.0
 40
50.0
 40
50.0
 40
51.0
 40
51.0
 40
51.0
 40
52.0
 40
52.0
 40
52.0
 40
53.0
 40
53.0
 40
53.0
 40
54.0
 40
54.0
 40
54.0
 40
55.0
 40
55.0
 40
55.0
 40
56.0
 40
56.0
 40
56.0
 40
57.0
 40
57.0
 40
57.0
 40
58.0
 40
58.0
 40
58.0
 40
59.0
 40
59.0
 40
59.0
 40
60.0
 40
60.0
 40
60.0
 40
61.0
 40
61.0
 40
61.0
 40
62.0
 40
62.0
 40
62.0
 40
63.0
 40
63.0
 40
63.0
 40
64.0
 40
64.0
 40
64.0
 40
65.0
 40
65.0
 40
65.0
 40
66.0
 40
66.0
 40
66.0
 40
66.0
 10
110.2857747120119
 20
-155.5998046486
 30
0.0
 10
110.2857747120119
 20
-155.5998046486
 30
0.0
 10
109.7276692434014
 20
-155.5998046486
 30
0.0
 10
109.7276692434014
 20
-155.5998046486
 30
0.0
 10
109.7166449378486
 20
-155.6442463803598
 30
0.0
 10
109.708376708684
 20
-155.6759412588241
 30
0.0
 10
109.6959743649371
 20
-155.7141818187104
 30
0.0
 10
109.7211235619794
 20
-155.7141818187104
 30
0.0
 10
109.735937472566
 20
-155.7162488760015
 30
0.0
 10
109.7421386444395
 20
-155.7162488760015
 30
0.0
 10
109.7421386444395
 20
-155.7162488760015
 30
0.0
 10
109.9305853674826
 20
-155.7162488760015
 30
0.0
 10
109.9305853674826
 20
-155.7162488760015
 30
0.0
 10
109.9305853674826
 20
-155.7162488760015
 30
0.0
 10
110.3050672467293
 20
-155.7162488760015
 30
0.0
 10
110.3050672467293
 20
-155.7162488760015
 30
0.0
 10
110.3557101503625
 20
-155.7162488760015
 30
0.0
 10
110.6392415087985
 20
-155.7035020227061
 30
0.0
 10
110.6709363872628
 20
-155.7035020227061
 30
0.0
 10
110.6688693299717
 20
-155.7310627865881
 30
0.0
 10
110.6668022726805
 20
-155.7500108117569
 30
0.0
 10
110.6668022726805
 20
-155.7796386329301
 30
0.0
 10
110.6647352153894
 20
-155.8113335113944
 30
0.0
 10
110.6647352153894
 20
-155.9467257639647
 30
0.0
 10
110.6647352153894
 20
-155.9742865278467
 30
0.0
 10
110.6647352153894
 20
-155.9742865278467
 30
0.0
 10
110.6647352153894
 20
-156.219921835945
 30
0.0
 10
110.6647352153894
 20
-156.219921835945
 30
0.0
 10
110.6647352153894
 20
-156.2643635677047
 30
0.0
 10
110.6688693299717
 20
-156.4610785199125
 30
0.0
 10
110.673003444554
 20
-156.6133517403606
 30
0.0
 10
110.673003444554
 20
-156.6133517403606
 30
0.0
 10
110.4466606711731
 20
-156.6133517403606
 30
0.0
 10
110.4466606711731
 20
-156.6133517403606
 30
0.0
 10
110.4466606711731
 20
-156.6133517403606
 30
0.0
 10
110.4490722380127
 20
-156.5795898046051
 30
0.0
 10
110.4490722380127
 20
-156.5795898046051
 30
0.0
 10
110.4490722380127
 20
-156.5795898046051
 30
0.0
 10
109.7462727590218
 20
-156.5795898046051
 30
0.0
 10
109.7462727590218
 20
-156.5795898046051
 30
0.0
 10
109.7462727590218
 20
-156.5795898046051
 30
0.0
 10
109.7486843258614
 20
-156.6133517403606
 30
0.0
 10
109.7486843258614
 20
-156.6133517403606
 30
0.0
 10
109.7486843258614
 20
-156.6133517403606
 30
0.0
 10
109.5306097816451
 20
-156.6133517403606
 30
0.0
 10
109.5306097816451
 20
-156.6133517403606
 30
0.0
 10
109.5347438962274
 20
-156.5582302125966
 30
0.0
 10
109.5347438962274
 20
-156.5454833593011
 30
0.0
 10
109.5412895776494
 20
-156.4314506987394
 30
0.0
 10
109.5433566349406
 20
-156.4038899348574
 30
0.0
 10
109.5457682017802
 20
-156.2705647395782
 30
0.0
 10
109.5457682017802
 20
-156.2516167144093
 30
0.0
 10
109.5457682017802
 20
-156.2516167144093
 30
0.0
 10
109.5457682017802
 20
-156.0483560807796
 30
0.0
 10
109.5457682017802
 20
-156.0483560807796
 30
0.0
 10
109.4058973250791
 20
-156.2981255034602
 30
0.0
 10
109.2367431367533
 20
-156.4293836414482
 30
0.0
 10
109.1309787053561
 20
-156.494840455668
 30
0.0
 10
109.1309787053561
 20
-156.494840455668
 30
0.0
 10
108.9573458928996
 20
-156.3553140885153
 30
0.0
 10
108.9573458928996
 20
-156.3553140885153
 30
0.0
 10
109.046229356419
 20
-156.3043266753336
 30
0.0
 10
109.1902343477024
 20
-156.2175102691054
 30
0.0
 10
109.3276936575639
 20
-156.0232068837373
 30
0.0
 10
109.4186441783745
 20
-155.8960828603315
 30
0.0
 10
109.4841009925943
 20
-155.7524223785966
 30
0.0
 10
109.5182074378982
 20
-155.5998046486
 30
0.0
 10
109.2894530976776
 20
-155.6022162154397
 30
0.0
 10
109.1096191133476
 20
-155.6084173873132
 30
0.0
 10
109.0145344779547
 20
-155.6104844446043
 30
0.0
 10
109.0145344779547
 20
-155.6104844446043
 30
0.0
 10
109.0145344779547
 20
-155.4327175175654
 30
0.0
 10
109.0145344779547
 20
-155.4327175175654
 30
0.0
 10
109.2112494301625
 20
-155.4392631989874
 30
0.0
 10
109.4947807885985
 20
-155.4433973135697
 30
0.0
 10
109.6449869517554
 20
-155.4433973135697
 30
0.0
 10
109.6449869517554
 20
-155.4433973135697
 30
0.0
 10
109.8585828718409
 20
-155.4433973135697
 30
0.0
 10
109.8585828718409
 20
-155.4433973135697
 30
0.0
 10
109.8585828718409
 20
-155.4433973135697
 30
0.0
 10
109.8585828718409
 20
-155.3355658248814
 30
0.0
 10
109.8585828718409
 20
-155.3355658248814
 30
0.0
 10
109.8585828718409
 20
-155.3355658248814
 30
0.0
 10
109.7125108232663
 20
-155.3355658248814
 30
0.0
 10
109.7125108232663
 20
-155.3355658248814
 30
0.0
 10
109.5433566349406
 20
-155.3355658248814
 30
0.0
 10
109.3742024466148
 20
-155.3396999394637
 30
0.0
 10
109.2071153155802
 20
-155.3462456208857
 30
0.0
 10
109.2071153155802
 20
-155.3462456208857
 30
0.0
 10
109.2071153155802
 20
-155.1746798657202
 30
0.0
 10
109.2071153155802
 20
-155.1746798657202
 30
0.0
 10
109.3614555933194
 20
-155.1853596617245
 30
0.0
 10
109.5478352590714
 20
-155.1853596617245
 30
0.0
 10
109.7125108232663
 20
-155.1853596617245
 30
0.0
 10
109.7125108232663
 20
-155.1853596617245
 30
0.0
 10
109.8585828718409
 20
-155.1853596617245
 30
0.0
 10
109.8585828718409
 20
-155.1853596617245
 30
0.0
 10
109.8585828718409
 20
-155.1853596617245
 30
0.0
 10
109.8585828718409
 20
-155.0668483770319
 30
0.0
 10
109.8585828718409
 20
-155.0668483770319
 30
0.0
 10
109.8585828718409
 20
-155.0668483770319
 30
0.0
 10
109.7276692434014
 20
-155.0668483770319
 30
0.0
 10
109.7276692434014
 20
-155.0668483770319
 30
0.0
 10
109.680815944802
 20
-155.0668483770319
 30
0.0
 10
109.4778998207208
 20
-155.075461115745
 30
0.0
 10
109.4355251462522
 20
-155.075461115745
 30
0.0
 10
109.2322645126225
 20
-155.0795952303273
 30
0.0
 10
109.156472411947
 20
-155.0816622876185
 30
0.0
 10
109.0779242348833
 20
-155.0837293449096
 30
0.0
 10
109.0779242348833
 20
-155.0837293449096
 30
0.0
 10
109.0779242348833
 20
-154.8997612459973
 30
0.0
 10
109.0779242348833
 20
-154.8997612459973
 30
0.0
 10
109.1923014049936
 20
-154.9080294751619
 30
0.0
 10
109.2367431367533
 20
-154.9080294751619
 30
0.0
 10
109.6194932451646
 20
-154.916642213875
 30
0.0
 10
109.556103488236
 20
-154.8215575784821
 30
0.0
 10
109.528542724354
 20
-154.7939968146001
 30
0.0
 10
109.4927137313074
 20
-154.757823312005
 30
0.0
 10
109.4927137313074
 20
-154.757823312005
 30
0.0
 10
109.6684136010551
 20
-154.6754855299075
 30
0.0
 10
109.6684136010551
 20
-154.6754855299075
 30
0.0
 10
109.708376708684
 20
-154.7113145229541
 30
0.0
 10
109.7528184404437
 20
-154.7536891974227
 30
0.0
 10
109.8268879933766
 20
-154.8635877434022
 30
0.0
 10
109.8268879933766
 20
-154.8635877434022
 30
0.0
 10
109.7125108232663
 20
-154.9187092711662
 30
0.0
 10
109.7125108232663
 20
-154.9187092711662
 30
0.0
 10
109.7125108232663
 20
-154.9187092711662
 30
0.0
 10
109.7231906192706
 20
-154.9187092711662
 30
0.0
 10
109.7231906192706
 20
-154.9187092711662
 30
0.0
 10
109.7231906192706
 20
-154.9187092711662
 30
0.0
 10
110.245811604383
 20
-154.9187092711662
 30
0.0
 10
110.245811604383
 20
-154.9187092711662
 30
0.0
 10
110.245811604383
 20
-154.9187092711662
 30
0.0
 10
110.1507269689901
 20
-154.8742675394064
 30
0.0
 10
110.1507269689901
 20
-154.8742675394064
 30
0.0
 10
110.1782877328721
 20
-154.8363714890687
 30
0.0
 10
110.2351318083787
 20
-154.7557562547138
 30
0.0
 10
110.2499457189653
 20
-154.681686701781
 30
0.0
 10
110.2499457189653
 20
-154.681686701781
 30
0.0
 10
110.4635416390508
 20
-154.7454209682581
 30
0.0
 10
110.4635416390508
 20
-154.7454209682581
 30
0.0
 10
110.4721543777639
 20
-154.7474880255492
 30
0.0
 10
110.4931694602239
 20
-154.757823312005
 30
0.0
 10
110.4931694602239
 20
-154.7791829040135
 30
0.0
 10
110.4931694602239
 20
-154.8170789543513
 30
0.0
 10
110.4277126460042
 20
-154.8170789543513
 30
0.0
 10
110.4084201112868
 20
-154.8170789543513
 30
0.0
 10
110.398084824831
 20
-154.8363714890687
 30
0.0
 10
110.3746581755313
 20
-154.8763345966976
 30
0.0
 10
110.3450303543582
 20
-154.916642213875
 30
0.0
 10
110.7450059401957
 20
-154.9104410420016
 30
0.0
 10
110.7746337613688
 20
-154.9080294751619
 30
0.0
 10
110.8507703715929
 20
-154.9018283032884
 30
0.0
 10
110.8507703715929
 20
-154.9018283032884
 30
0.0
 10
110.8507703715929
 20
-155.0837293449096
 30
0.0
 10
110.8507703715929
 20
-155.0837293449096
 30
0.0
 10
110.831822346424
 20
-155.0837293449096
 30
0.0
 10
110.8063286398331
 20
-155.0816622876185
 30
0.0
 10
110.5861870383257
 20
-155.0730495489053
 30
0.0
 10
110.5355441346925
 20
-155.0709824916142
 30
0.0
 10
110.315402533185
 20
-155.0668483770319
 30
0.0
 10
110.2713053109738
 20
-155.0668483770319
 30
0.0
 10
110.2713053109738
 20
-155.0668483770319
 30
0.0
 10
110.0552978240487
 20
-155.0668483770319
 30
0.0
 10
110.0552978240487
 20
-155.0668483770319
 30
0.0
 10
110.0552978240487
 20
-155.0668483770319
 30
0.0
 10
110.0552978240487
 20
-155.1853596617245
 30
0.0
 10
110.0552978240487
 20
-155.1853596617245
 30
0.0
 10
110.0552978240487
 20
-155.1853596617245
 30
0.0
 10
110.2289306365053
 20
-155.1853596617245
 30
0.0
 10
110.2289306365053
 20
-155.1853596617245
 30
0.0
 10
110.3918836529576
 20
-155.1853596617245
 30
0.0
 10
110.5820529237434
 20
-155.1853596617245
 30
0.0
 10
110.7384602587737
 20
-155.1746798657202
 30
0.0
 10
110.7384602587737
 20
-155.1746798657202
 30
0.0
 10
110.7384602587737
 20
-155.3462456208857
 30
0.0
 10
110.7384602587737
 20
-155.3462456208857
 30
0.0
 10
110.5289984532705
 20
-155.3376328821726
 30
0.0
 10
110.3326280106113
 20
-155.3355658248814
 30
0.0
 10
110.2289306365053
 20
-155.3355658248814
 30
0.0
 10
110.2289306365053
 20
-155.3355658248814
 30
0.0
 10
110.0552978240487
 20
-155.3355658248814
 30
0.0
 10
110.0552978240487
 20
-155.3355658248814
 30
0.0
 10
110.0552978240487
 20
-155.3355658248814
 30
0.0
 10
110.0552978240487
 20
-155.4433973135697
 30
0.0
 10
110.0552978240487
 20
-155.4433973135697
 30
0.0
 10
110.0552978240487
 20
-155.4433973135697
 30
0.0
 10
110.2857747120119
 20
-155.4433973135697
 30
0.0
 10
110.2857747120119
 20
-155.4433973135697
 30
0.0
 10
110.4194444168396
 20
-155.4433973135697
 30
0.0
 10
110.7067653803094
 20
-155.4392631989874
 30
0.0
 10
110.9162271858126
 20
-155.4327175175654
 30
0.0
 10
110.9162271858126
 20
-155.4327175175654
 30
0.0
 10
110.9162271858126
 20
-155.6104844446043
 30
0.0
 10
110.9162271858126
 20
-155.6104844446043
 30
0.0
 10
110.7239908577357
 20
-155.6042832727309
 30
0.0
 10
110.4108316781265
 20
-155.5998046486
 30
0.0
 10
110.2857747120119
 20
-155.5998046486
 30
0.0
  0
POLYLINE
  5
1A2
330
199
100
AcDbEntity
  8
_U+30EC_U+30A4_U+30E4_U+30FC 1
370
     0
100
AcDb2dPolyline
 66
     1
 10
0.0
 20
0.0
 30
0.0
  0
VERTEX
  5
1A3
330
1A2
100
AcDbEntity
  8
_U+30EC_U+30A4_U+30E4_U+30FC 1
370
     0
100
AcDbVertex
100
AcDb2dVertex
 10
110.4511392953039
 20
-155.8557752431541
 30
0.0
  0
VERTEX
  5
1A4
330
1A2
100
AcDbEntity
  8
_U+30EC_U+30A4_U+30E4_U+30FC 1
370
     0
100
AcDbVertex
100
AcDb2dVertex
 10
109.7442057017306
 20
-155.8557752431541
 30
0.0
  0
VERTEX
  5
1A5
330
1A2
100
AcDbEntity
  8
_U+30EC_U+30A4_U+30E4_U+30FC 1
370
     0
100
AcDbVertex
100
AcDb2dVertex
 10
109.7442057017306
 20
-155.963951241391
 30
0.0
  0
VERTEX
  5
1A6
330
1A2
100
AcDbEntity
  8
_U+30EC_U+30A4_U+30E4_U+30FC 1
370
     0
100
AcDbVertex
100
AcDb2dVertex
 10
110.4511392953039
 20
-155.963951241391
 30
0.0
  0
VERTEX
  5
1A7
330
1A2
100
AcDbEntity
  8
_U+30EC_U+30A4_U+30E4_U+30FC 1
370
     0
100
AcDbVertex
100
AcDb2dVertex
 10
110.4511392953039
 20
-155.8557752431541
 30
0.0
  0
SEQEND
  5
1A8
330
1A2
100
AcDbEntity
  8
_U+30EC_U+30A4_U+30E4_U+30FC 1
370
     0
  0
POLYLINE
  5
1A9
330
199
100
AcDbEntity
  8
_U+30EC_U+30A4_U+30E4_U+30FC 1
370
     0
100
AcDb2dPolyline
 66
     1
 10
0.0
 20
0.0
 30
0.0
  0
VERTEX
  5
1AA
330
1A9
100
AcDbEntity
  8
_U+30EC_U+30A4_U+30E4_U+30FC 1
370
     0
100
AcDbVertex
100
AcDb2dVertex
 10
110.4511392953039
 20
-156.088663697957
 30
0.0
  0
VERTEX
  5
1AB
330
1A9
100
AcDbEntity
  8
_U+30EC_U+30A4_U+30E4_U+30FC 1
370
     0
100
AcDbVertex
100
AcDb2dVertex
 10
109.7442057017306
 20
-156.088663697957
 30
0.0
  0
VERTEX
  5
1AC
330
1A9
100
AcDbEntity
  8
_U+30EC_U+30A4_U+30E4_U+30FC 1
370
     0
100
AcDbVertex
100
AcDb2dVertex
 10
109.7442057017306
 20
-156.2030408680673
 30
0.0
  0
VERTEX
  5
1AD
330
1A9
100
AcDbEntity
  8
_U+30EC_U+30A4_U+30E4_U+30FC 1
370
     0
100
AcDbVertex
100
AcDb2dVertex
 10
110.4511392953039
 20
-156.2030408680673
 30
0.0
  0
VERTEX
  5
1AE
330
1A9
100
AcDbEntity
  8
_U+30EC_U+30A4_U+30E4_U+30FC 1
370
     0
100
AcDbVertex
100
AcDb2dVertex
 10
110.4511392953039
 20
-156.088663697957
 30
0.0
  0
SEQEND
  5
1AF
330
1A9
100
AcDbEntity
  8
_U+30EC_U+30A4_U+30E4_U+30FC 1
370
     0
  0
POLYLINE
  5
1B0
330
199
100
AcDbEntity
  8
_U+30EC_U+30A4_U+30E4_U+30FC 1
370
     0
100
AcDb2dPolyline
 66
     1
 10
0.0
 20
0.0
 30
0.0
  0
VERTEX
  5
1B1
330
1B0
100
AcDbEntity
  8
_U+30EC_U+30A4_U+30E4_U+30FC 1
370
     0
100
AcDbVertex
100
AcDb2dVertex
 10
110.4511392953039
 20
-156.3318874392156
 30
0.0
  0
VERTEX
  5
1B2
330
1B0
100
AcDbEntity
  8
_U+30EC_U+30A4_U+30E4_U+30FC 1
370
     0
100
AcDbVertex
100
AcDb2dVertex
 10
109.7442057017306
 20
-156.3318874392156
 30
0.0
  0
VERTEX
  5
1B3
330
1B0
100
AcDbEntity
  8
_U+30EC_U+30A4_U+30E4_U+30FC 1
370
     0
100
AcDbVertex
100
AcDb2dVertex
 10
109.7442057017306
 20
-156.4462646093259
 30
0.0
  0
VERTEX
  5
1B4
330
1B0
100
AcDbEntity
  8
_U+30EC_U+30A4_U+30E4_U+30FC 1
370
     0
100
AcDbVertex
100
AcDb2dVertex
 10
110.4511392953039
 20
-156.4462646093259
 30
0.0
  0
VERTEX
  5
1B5
330
1B0
100
AcDbEntity
  8
_U+30EC_U+30A4_U+30E4_U+30FC 1
370
     0
100
AcDbVertex
100
AcDb2dVertex
 10
110.4511392953039
 20
-156.3318874392156
 30
0.0
  0
SEQEND
  5
1B6
330
1B0
100
AcDbEntity
  8
_U+30EC_U+30A4_U+30E4_U+30FC 1
370
     0
  0
HATCH
  5
1B7
330
199
100
AcDbEntity
  8
_U+30EC_U+30A4_U+30E4_U+30FC 1
 62
   179
420
  2234388
100
AcDbHatch
 10
0.0
 20
0.0
 30
0.0
210
0.0
220
0.0
230
1.0
  2
SOLID
 70
     1
 71
     0
 91
        4
 92
        1
 93
        1
 72
     4
 94
        3
 73
     0
 74
     1
 95
      203
 96
      199
 40
0.0
 40
0.0
 40
0.0
 40
0.0
 40
1.0
 40
1.0
 40
1.0
 40
2.0
 40
2.0
 40
2.0
 40
3.0
 40
3.0
 40
3.0
 40
4.0
 40
4.0
 40
4.0
 40
5.0
 40
5.0
 40
5.0
 40
6.0
 40
6.0
 40
6.0
 40
7.0
 40
7.0
 40
7.0
 40
8.0
 40
8.0
 40
8.0
 40
9.0
 40
9.0
 40
9.0
 40
10.0
 40
10.0
 40
10.0
 40
11.0
 40
11.0
 40
11.0
 40
12.0
 40
12.0
 40
12.0
 40
13.0
 40
13.0
 40
13.0
 40
14.0
 40
14.0
 40
14.0
 40
15.0
 40
15.0
 40
15.0
 40
16.0
 40
16.0
 40
16.0
 40
17.0
 40
17.0
 40
17.0
 40
18.0
 40
18.0
 40
18.0
 40
19.0
 40
19.0
 40
19.0
 40
20.0
 40
20.0
 40
20.0
 40
21.0
 40
21.0
 40
21.0
 40
22.0
 40
22.0
 40
22.0
 40
23.0
 40
23.0
 40
23.0
 40
24.0
 40
24.0
 40
24.0
 40
25.0
 40
25.0
 40
25.0
 40
26.0
 40
26.0
 40
26.0
 40
27.0
 40
27.0
 40
27.0
 40
28.0
 40
28.0
 40
28.0
 40
29.0
 40
29.0
 40
29.0
 40
30.0
 40
30.0
 40
30.0
 40
31.0
 40
31.0
 40
31.0
 40
32.0
 40
32.0
 40
32.0
 40
33.0
 40
33.0
 40
33.0
 40
34.0
 40
34.0
 40
34.0
 40
35.0
 40
35.0
 40
35.0
 40
36.0
 40
36.0
 40
36.0
 40
37.0
 40
37.0
 40
37.0
 40
38.0
 40
38.0
 40
38.0
 40
39.0
 40
39.0
 40
39.0
 40
40.0
 40
40.0
 40
40.0
 40
41.0
 40
41.0
 40
41.0
 40
42.0
 40
42.0
 40
42.0
 40
43.0
 40
43.0
 40
43.0
 40
44.0
 40
44.0
 40
44.0
 40
45.0
 40
45.0
 40
45.0
 40
46.0
 40
46.0
 40
46.0
 40
47.0
 40
47.0
 40
47.0
 40
48.0
 40
48.0
 40
48.0
 40
49.0
 40
49.0
 40
49.0
 40
50.0
 40
50.0
 40
50.0
 40
51.0
 40
51.0
 40
51.0
 40
52.0
 40
52.0
 40
52.0
 40
53.0
 40
53.0
 40
53.0
 40
54.0
 40
54.0
 40
54.0
 40
55.0
 40
55.0
 40
55.0
 40
56.0
 40
56.0
 40
56.0
 40
57.0
 40
57.0
 40
57.0
 40
58.0
 40
58.0
 40
58.0
 40
59.0
 40
59.0
 40
59.0
 40
60.0
 40
60.0
 40
60.0
 40
61.0
 40
61.0
 40
61.0
 40
62.0
 40
62.0
 40
62.0
 40
63.0
 40
63.0
 40
63.0
 40
64.0
 40
64.0
 40
64.0
 40
65.0
 40
65.0
 40
65.0
 40
66.0
 40
66.0
 40
66.0
 40
66.0
 10
110.2857747120119
 20
-155.5998046486
 10
110.2857747120119
 20
-155.5998046486
 10
109.7276692434014
 20
-155.5998046486
 10
109.7276692434014
 20
-155.5998046486
 10
109.7166449378486
 20
-155.6442463803598
 10
109.708376708684
 20
-155.6759412588241
 10
109.6959743649371
 20
-155.7141818187104
 10
109.7211235619794
 20
-155.7141818187104
 10
109.735937472566
 20
-155.7162488760015
 10
109.7421386444395
 20
-155.7162488760015
 10
109.7421386444395
 20
-155.7162488760015
 10
109.9305853674826
 20
-155.7162488760015
 10
109.9305853674826
 20
-155.7162488760015
 10
109.9305853674826
 20
-155.7162488760015
 10
110.3050672467293
 20
-155.7162488760015
 10
110.3050672467293
 20
-155.7162488760015
 10
110.3557101503625
 20
-155.7162488760015
 10
110.6392415087985
 20
-155.7035020227061
 10
110.6709363872628
 20
-155.7035020227061
 10
110.6688693299717
 20
-155.7310627865881
 10
110.6668022726805
 20
-155.7500108117569
 10
110.6668022726805
 20
-155.7796386329301
 10
110.6647352153894
 20
-155.8113335113944
 10
110.6647352153894
 20
-155.9467257639647
 10
110.6647352153894
 20
-155.9742865278467
 10
110.6647352153894
 20
-155.9742865278467
 10
110.6647352153894
 20
-156.219921835945
 10
110.6647352153894
 20
-156.219921835945
 10
110.6647352153894
 20
-156.2643635677047
 10
110.6688693299717
 20
-156.4610785199125
 10
110.673003444554
 20
-156.6133517403606
 10
110.673003444554
 20
-156.6133517403606
 10
110.4466606711731
 20
-156.6133517403606
 10
110.4466606711731
 20
-156.6133517403606
 10
110.4466606711731
 20
-156.6133517403606
 10
110.4490722380127
 20
-156.5795898046051
 10
110.4490722380127
 20
-156.5795898046051
 10
110.4490722380127
 20
-156.5795898046051
 10
109.7462727590218
 20
-156.5795898046051
 10
109.7462727590218
 20
-156.5795898046051
 10
109.7462727590218
 20
-156.5795898046051
 10
109.7486843258614
 20
-156.6133517403606
 10
109.7486843258614
 20
-156.6133517403606
 10
109.7486843258614
 20
-156.6133517403606
 10
109.5306097816451
 20
-156.6133517403606
 10
109.5306097816451
 20
-156.6133517403606
 10
109.5347438962274
 20
-156.5582302125966
 10
109.5347438962274
 20
-156.5454833593011
 10
109.5412895776494
 20
-156.4314506987394
 10
109.5433566349406
 20
-156.4038899348574
 10
109.5457682017802
 20
-156.2705647395782
 10
109.5457682017802
 20
-156.2516167144093
 10
109.5457682017802
 20
-156.2516167144093
 10
109.5457682017802
 20
-156.0483560807796
 10
109.5457682017802
 20
-156.0483560807796
 10
109.4058973250791
 20
-156.2981255034602
 10
109.2367431367533
 20
-156.4293836414482
 10
109.1309787053561
 20
-156.494840455668
 10
109.1309787053561
 20
-156.494840455668
 10
108.9573458928996
 20
-156.3553140885153
 10
108.9573458928996
 20
-156.3553140885153
 10
109.046229356419
 20
-156.3043266753336
 10
109.1902343477024
 20
-156.2175102691054
 10
109.3276936575639
 20
-156.0232068837373
 10
109.4186441783745
 20
-155.8960828603315
 10
109.4841009925943
 20
-155.7524223785966
 10
109.5182074378982
 20
-155.5998046486
 10
109.2894530976776
 20
-155.6022162154397
 10
109.1096191133476
 20
-155.6084173873132
 10
109.0145344779547
 20
-155.6104844446043
 10
109.0145344779547
 20
-155.6104844446043
 10
109.0145344779547
 20
-155.4327175175654
 10
109.0145344779547
 20
-155.4327175175654
 10
109.2112494301625
 20
-155.4392631989874
 10
109.4947807885985
 20
-155.4433973135697
 10
109.6449869517554
 20
-155.4433973135697
 10
109.6449869517554
 20
-155.4433973135697
 10
109.8585828718409
 20
-155.4433973135697
 10
109.8585828718409
 20
-155.4433973135697
 10
109.8585828718409
 20
-155.4433973135697
 10
109.8585828718409
 20
-155.3355658248814
 10
109.8585828718409
 20
-155.3355658248814
 10
109.8585828718409
 20
-155.3355658248814
 10
109.7125108232663
 20
-155.3355658248814
 10
109.7125108232663
 20
-155.3355658248814
 10
109.5433566349406
 20
-155.3355658248814
 10
109.3742024466148
 20
-155.3396999394637
 10
109.2071153155802
 20
-155.3462456208857
 10
109.2071153155802
 20
-155.3462456208857
 10
109.2071153155802
 20
-155.1746798657202
 10
109.2071153155802
 20
-155.1746798657202
 10
109.3614555933194
 20
-155.1853596617245
 10
109.5478352590714
 20
-155.1853596617245
 10
109.7125108232663
 20
-155.1853596617245
 10
109.7125108232663
 20
-155.1853596617245
 10
109.8585828718409
 20
-155.1853596617245
 10
109.8585828718409
 20
-155.1853596617245
 10
109.8585828718409
 20
-155.1853596617245
 10
109.8585828718409
 20
-155.0668483770319
 10
109.8585828718409
 20
-155.0668483770319
 10
109.8585828718409
 20
-155.0668483770319
 10
109.7276692434014
 20
-155.0668483770319
 10
109.7276692434014
 20
-155.0668483770319
 10
109.680815944802
 20
-155.0668483770319
 10
109.4778998207208
 20
-155.075461115745
 10
109.4355251462522
 20
-155.075461115745
 10
109.2322645126225
 20
-155.0795952303273
 10
109.156472411947
 20
-155.0816622876185
 10
109.0779242348833
 20
-155.0837293449096
 10
109.0779242348833
 20
-155.0837293449096
 10
109.0779242348833
 20
-154.8997612459973
 10
109.0779242348833
 20
-154.8997612459973
 10
109.1923014049936
 20
-154.9080294751619
 10
109.2367431367533
 20
-154.9080294751619
 10
109.6194932451646
 20
-154.916642213875
 10
109.556103488236
 20
-154.8215575784821
 10
109.528542724354
 20
-154.7939968146001
 10
109.4927137313074
 20
-154.757823312005
 10
109.4927137313074
 20
-154.757823312005
 10
109.6684136010551
 20
-154.6754855299075
 10
109.6684136010551
 20
-154.6754855299075
 10
109.708376708684
 20
-154.7113145229541
 10
109.7528184404437
 20
-154.7536891974227
 10
109.8268879933766
 20
-154.8635877434022
 10
109.8268879933766
 20
-154.8635877434022
 10
109.7125108232663
 20
-154.9187092711662
 10
109.7125108232663
 20
-154.9187092711662
 10
109.7125108232663
 20
-154.9187092711662
 10
109.7231906192706
 20
-154.9187092711662
 10
109.7231906192706
 20
-154.9187092711662
 10
109.7231906192706
 20
-154.9187092711662
 10
110.245811604383
 20
-154.9187092711662
 10
110.245811604383
 20
-154.9187092711662
 10
110.245811604383
 20
-154.9187092711662
 10
110.1507269689901
 20
-154.8742675394064
 10
110.1507269689901
 20
-154.8742675394064
 10
110.1782877328721
 20
-154.8363714890687
 10
110.2351318083787
 20
-154.7557562547138
 10
110.2499457189653
 20
-154.681686701781
 10
110.2499457189653
 20
-154.681686701781
 10
110.4635416390508
 20
-154.7454209682581
 10
110.4635416390508
 20
-154.7454209682581
 10
110.4721543777639
 20
-154.7474880255492
 10
110.4931694602239
 20
-154.757823312005
 10
110.4931694602239
 20
-154.7791829040135
 10
110.4931694602239
 20
-154.8170789543513
 10
110.4277126460042
 20
-154.8170789543513
 10
110.4084201112868
 20
-154.8170789543513
 10
110.398084824831
 20
-154.8363714890687
 10
110.3746581755313
 20
-154.8763345966976
 10
110.3450303543582
 20
-154.916642213875
 10
110.7450059401957
 20
-154.9104410420016
 10
110.7746337613688
 20
-154.9080294751619
 10
110.8507703715929
 20
-154.9018283032884
 10
110.8507703715929
 20
-154.9018283032884
 10
110.8507703715929
 20
-155.0837293449096
 10
110.8507703715929
 20
-155.0837293449096
 10
110.831822346424
 20
-155.0837293449096
 10
110.8063286398331
 20
-155.0816622876185
 10
110.5861870383257
 20
-155.0730495489053
 10
110.5355441346925
 20
-155.0709824916142
 10
110.315402533185
 20
-155.0668483770319
 10
110.2713053109738
 20
-155.0668483770319
 10
110.2713053109738
 20
-155.0668483770319
 10
110.0552978240487
 20
-155.0668483770319
 10
110.0552978240487
 20
-155.0668483770319
 10
110.0552978240487
 20
-155.0668483770319
 10
110.0552978240487
 20
-155.1853596617245
 10
110.0552978240487
 20
-155.1853596617245
 10
110.0552978240487
 20
-155.1853596617245
 10
110.2289306365053
 20
-155.1853596617245
 10
110.2289306365053
 20
-155.1853596617245
 10
110.3918836529576
 20
-155.1853596617245
 10
110.5820529237434
 20
-155.1853596617245
 10
110.7384602587737
 20
-155.1746798657202
 10
110.7384602587737
 20
-155.1746798657202
 10
110.7384602587737
 20
-155.3462456208857
 10
110.7384602587737
 20
-155.3462456208857
 10
110.5289984532705
 20
-155.3376328821726
 10
110.3326280106113
 20
-155.3355658248814
 10
110.2289306365053
 20
-155.3355658248814
 10
110.2289306365053
 20
-155.3355658248814
 10
110.0552978240487
 20
-155.3355658248814
 10
110.0552978240487
 20
-155.3355658248814
 10
110.0552978240487
 20
-155.3355658248814
 10
110.0552978240487
 20
-155.4433973135697
 10
110.0552978240487
 20
-155.4433973135697
 10
110.0552978240487
 20
-155.4433973135697
 10
110.2857747120119
 20
-155.4433973135697
 10
110.2857747120119
 20
-155.4433973135697
 10
110.4194444168396
 20
-155.4433973135697
 10
110.7067653803094
 20
-155.4392631989874
 10
110.9162271858126
 20
-155.4327175175654
 10
110.9162271858126
 20
-155.4327175175654
 10
110.9162271858126
 20
-155.6104844446043
 10
110.9162271858126
 20
-155.6104844446043
 10
110.7239908577357
 20
-155.6042832727309
 10
110.4108316781265
 20
-155.5998046486
 10
110.2857747120119
 20
-155.5998046486
 97
        0
 97
        0
 92
        1
 93
        4
 72
     1
 10
110.4511392953039
 20
-155.8557752431541
 11
109.7442057017306
 21
-155.8557752431541
 72
     1
 10
109.7442057017306
 20
-155.8557752431541
 11
109.7442057017306
 21
-155.963951241391
 72
     1
 10
109.7442057017306
 20
-155.963951241391
 11
110.4511392953039
 21
-155.963951241391
 72
     1
 10
110.4511392953039
 20
-155.963951241391
 11
110.4511392953039
 21
-155.8557752431541
 97
        0
 92
        1
 93
        4
 72
     1
 10
110.4511392953039
 20
-156.088663697957
 11
109.7442057017306
 21
-156.088663697957
 72
     1
 10
109.7442057017306
 20
-156.088663697957
 11
109.7442057017306
 21
-156.2030408680673
 72
     1
 10
109.7442057017306
 20
-156.2030408680673
 11
110.4511392953039
 21
-156.2030408680673
 72
     1
 10
110.4511392953039
 20
-156.2030408680673
 11
110.4511392953039
 21
-156.088663697957
 97
        0
 92
        1
 93
        4
 72
     1
 10
110.4511392953039
 20
-156.3318874392156
 11
109.7442057017306
 21
-156.3318874392156
 72
     1
 10
109.7442057017306
 20
-156.3318874392156
 11
109.7442057017306
 21
-156.4462646093259
 72
     1
 10
109.7442057017306
 20
-156.4462646093259
 11
110.4511392953039
 21
-156.4462646093259
 72
     1
 10
110.4511392953039
 20
-156.4462646093259
 11
110.4511392953039
 21
-156.3318874392156
 97
        0
 75
     2
 76
     1
 98
        0
  0
SPLINE
  5
1B8
330
199
100
AcDbEntity
  8
_U+30EC_U+30A4_U+30E4_U+30FC 1
370
     0
100
AcDbSpline
210
0.0
220
0.0
230
1.0
 70
    11
 71
     3
 72
    47
 73
    43
 74
     0
 42
0.0000000001
 43
0.0000000001
 12
1.0
 22
0.0
 32
0.0
 13
1.0
 23
0.0
 33
0.0
 40
0.0
 40
0.0
 40
0.0
 40
0.0
 40
1.0
 40
1.0
 40
1.0
 40
2.0
 40
2.0
 40
2.0
 40
3.0
 40
3.0
 40
3.0
 40
4.0
 40
4.0
 40
4.0
 40
5.0
 40
5.0
 40
5.0
 40
6.0
 40
6.0
 40
6.0
 40
7.0
 40
7.0
 40
7.0
 40
8.0
 40
8.0
 40
8.0
 40
9.0
 40
9.0
 40
9.0
 40
10.0
 40
10.0
 40
10.0
 40
11.0
 40
11.0
 40
11.0
 40
12.0
 40
12.0
 40
12.0
 40
13.0
 40
13.0
 40
13.0
 40
14.0
 40
14.0
 40
14.0
 40
14.0
 10
112.2629150109968
 20
-155.5767225088489
 30
0.0
 10
112.2629150109968
 20
-155.5767225088489
 30
0.0
 10
112.1612846941819
 20
-155.5767225088489
 30
0.0
 10
112.1612846941819
 20
-155.5767225088489
 30
0.0
 10
112.1612846941819
 20
-155.6635389150772
 30
0.0
 10
112.1402696117219
 20
-156.0528347049104
 30
0.0
 10
111.9435546595141
 20
-156.2726317968693
 30
0.0
 10
111.7912814390661
 20
-156.4417859851951
 30
0.0
 10
111.583886690854
 20
-156.5117214235457
 30
0.0
 10
111.4991373419169
 20
-156.5392821874277
 30
0.0
 10
111.4991373419169
 20
-156.5392821874277
 30
0.0
 10
111.3048339565488
 20
-156.3721950563931
 30
0.0
 10
111.3048339565488
 20
-156.3721950563931
 30
0.0
 10
111.4019856492328
 20
-156.3594482030977
 30
0.0
 10
111.5776855189806
 20
-156.3360215537979
 30
0.0
 10
111.7657877324752
 20
-156.1479193403033
 30
0.0
 10
111.8398572854081
 20
-156.0759168446616
 30
0.0
 10
111.9435546595141
 20
-155.936390477509
 30
0.0
 10
111.9435546595141
 20
-155.5767225088489
 30
0.0
 10
111.9435546595141
 20
-155.5767225088489
 30
0.0
 10
111.7127332620024
 20
-155.5767225088489
 30
0.0
 10
111.7127332620024
 20
-155.5767225088489
 30
0.0
 10
111.5266981057989
 20
-155.5767225088489
 30
0.0
 10
111.3406629495954
 20
-155.5808566234312
 30
0.0
 10
111.1546277933919
 20
-155.5956705340178
 30
0.0
 10
111.1546277933919
 20
-155.5956705340178
 30
0.0
 10
111.1546277933919
 20
-155.3758734420588
 30
0.0
 10
111.1546277933919
 20
-155.3758734420588
 30
0.0
 10
111.3427300068865
 20
-155.3906873526454
 30
0.0
 10
111.6283284226138
 20
-155.3948214672277
 30
0.0
 10
111.7127332620024
 20
-155.3948214672277
 30
0.0
 10
111.7127332620024
 20
-155.3948214672277
 30
0.0
 10
112.2629150109968
 20
-155.3948214672277
 30
0.0
 10
112.2629150109968
 20
-155.3948214672277
 30
0.0
 10
112.2818630361656
 20
-155.3948214672277
 30
0.0
 10
112.5995008399057
 20
-155.3948214672277
 30
0.0
 10
112.8279106705778
 20
-155.3758734420588
 30
0.0
 10
112.8279106705778
 20
-155.3758734420588
 30
0.0
 10
112.8279106705778
 20
-155.5956705340178
 30
0.0
 10
112.8279106705778
 20
-155.5956705340178
 30
0.0
 10
112.6394639475346
 20
-155.5808566234312
 30
0.0
 10
112.4513617340399
 20
-155.5767225088489
 30
0.0
 10
112.2629150109968
 20
-155.5767225088489
 30
0.0
  0
SPLINE
  5
1B9
330
199
100
AcDbEntity
  8
_U+30EC_U+30A4_U+30E4_U+30FC 1
370
     0
100
AcDbSpline
210
0.0
220
0.0
230
1.0
 70
    11
 71
     3
 72
    29
 73
    25
 74
     0
 42
0.0000000001
 43
0.0000000001
 12
1.0
 22
0.0
 32
0.0
 13
1.0
 23
0.0
 33
0.0
 40
0.0
 40
0.0
 40
0.0
 40
0.0
 40
1.0
 40
1.0
 40
1.0
 40
2.0
 40
2.0
 40
2.0
 40
3.0
 40
3.0
 40
3.0
 40
4.0
 40
4.0
 40
4.0
 40
5.0
 40
5.0
 40
5.0
 40
6.0
 40
6.0
 40
6.0
 40
7.0
 40
7.0
 40
7.0
 40
8.0
 40
8.0
 40
8.0
 40
8.0
 10
112.1612846941819
 20
-155.047900351863
 30
0.0
 10
112.1612846941819
 20
-155.047900351863
 30
0.0
 10
111.8081624069438
 20
-155.047900351863
 30
0.0
 10
111.8081624069438
 20
-155.047900351863
 30
0.0
 10
111.6961968036732
 20
-155.047900351863
 30
0.0
 10
111.556325926972
 20
-155.0541015237365
 30
0.0
 10
111.4484944382837
 20
-155.0668483770319
 30
0.0
 10
111.4484944382837
 20
-155.0668483770319
 30
0.0
 10
111.4484944382837
 20
-154.8318928649379
 30
0.0
 10
111.4484944382837
 20
-154.8318928649379
 30
0.0
 10
111.5670057229763
 20
-154.8467067755244
 30
0.0
 10
111.7509738218886
 20
-154.8511853996553
 30
0.0
 10
111.8081624069438
 20
-154.8511853996553
 30
0.0
 10
111.8081624069438
 20
-154.8511853996553
 30
0.0
 10
112.1612846941819
 20
-154.8511853996553
 30
0.0
 10
112.1612846941819
 20
-154.8511853996553
 30
0.0
 10
112.1805772288993
 20
-154.8511853996553
 30
0.0
 10
112.3834933529805
 20
-154.8511853996553
 30
0.0
 10
112.5250867774243
 20
-154.8318928649379
 30
0.0
 10
112.5250867774243
 20
-154.8318928649379
 30
0.0
 10
112.5250867774243
 20
-155.0668483770319
 30
0.0
 10
112.5250867774243
 20
-155.0668483770319
 30
0.0
 10
112.3686794423939
 20
-155.047900351863
 30
0.0
 10
112.1785101716082
 20
-155.047900351863
 30
0.0
 10
112.1612846941819
 20
-155.047900351863
 30
0.0
  0
HATCH
  5
1BA
330
199
100
AcDbEntity
  8
_U+30EC_U+30A4_U+30E4_U+30FC 1
 62
   179
420
  2234388
100
AcDbHatch
 10
0.0
 20
0.0
 30
0.0
210
0.0
220
0.0
230
1.0
  2
SOLID
 70
     1
 71
     0
 91
        2
 92
        1
 93
        1
 72
     4
 94
        3
 73
     0
 74
     1
 95
       47
 96
       43
 40
0.0
 40
0.0
 40
0.0
 40
0.0
 40
1.0
 40
1.0
 40
1.0
 40
2.0
 40
2.0
 40
2.0
 40
3.0
 40
3.0
 40
3.0
 40
4.0
 40
4.0
 40
4.0
 40
5.0
 40
5.0
 40
5.0
 40
6.0
 40
6.0
 40
6.0
 40
7.0
 40
7.0
 40
7.0
 40
8.0
 40
8.0
 40
8.0
 40
9.0
 40
9.0
 40
9.0
 40
10.0
 40
10.0
 40
10.0
 40
11.0
 40
11.0
 40
11.0
 40
12.0
 40
12.0
 40
12.0
 40
13.0
 40
13.0
 40
13.0
 40
14.0
 40
14.0
 40
14.0
 40
14.0
 10
112.2629150109968
 20
-155.5767225088489
 10
112.2629150109968
 20
-155.5767225088489
 10
112.1612846941819
 20
-155.5767225088489
 10
112.1612846941819
 20
-155.5767225088489
 10
112.1612846941819
 20
-155.6635389150772
 10
112.1402696117219
 20
-156.0528347049104
 10
111.9435546595141
 20
-156.2726317968693
 10
111.7912814390661
 20
-156.4417859851951
 10
111.583886690854
 20
-156.5117214235457
 10
111.4991373419169
 20
-156.5392821874277
 10
111.4991373419169
 20
-156.5392821874277
 10
111.3048339565488
 20
-156.3721950563931
 10
111.3048339565488
 20
-156.3721950563931
 10
111.4019856492328
 20
-156.3594482030977
 10
111.5776855189806
 20
-156.3360215537979
 10
111.7657877324752
 20
-156.1479193403033
 10
111.8398572854081
 20
-156.0759168446616
 10
111.9435546595141
 20
-155.936390477509
 10
111.9435546595141
 20
-155.5767225088489
 10
111.9435546595141
 20
-155.5767225088489
 10
111.7127332620024
 20
-155.5767225088489
 10
111.7127332620024
 20
-155.5767225088489
 10
111.5266981057989
 20
-155.5767225088489
 10
111.3406629495954
 20
-155.5808566234312
 10
111.1546277933919
 20
-155.5956705340178
 10
111.1546277933919
 20
-155.5956705340178
 10
111.1546277933919
 20
-155.3758734420588
 10
111.1546277933919
 20
-155.3758734420588
 10
111.3427300068865
 20
-155.3906873526454
 10
111.6283284226138
 20
-155.3948214672277
 10
111.7127332620024
 20
-155.3948214672277
 10
111.7127332620024
 20
-155.3948214672277
 10
112.2629150109968
 20
-155.3948214672277
 10
112.2629150109968
 20
-155.3948214672277
 10
112.2818630361656
 20
-155.3948214672277
 10
112.5995008399057
 20
-155.3948214672277
 10
112.8279106705778
 20
-155.3758734420588
 10
112.8279106705778
 20
-155.3758734420588
 10
112.8279106705778
 20
-155.5956705340178
 10
112.8279106705778
 20
-155.5956705340178
 10
112.6394639475346
 20
-155.5808566234312
 10
112.4513617340399
 20
-155.5767225088489
 10
112.2629150109968
 20
-155.5767225088489
 97
        0
 97
        0
 92
        1
 93
        1
 72
     4
 94
        3
 73
     0
 74
     1
 95
       29
 96
       25
 40
0.0
 40
0.0
 40
0.0
 40
0.0
 40
1.0
 40
1.0
 40
1.0
 40
2.0
 40
2.0
 40
2.0
 40
3.0
 40
3.0
 40
3.0
 40
4.0
 40
4.0
 40
4.0
 40
5.0
 40
5.0
 40
5.0
 40
6.0
 40
6.0
 40
6.0
 40
7.0
 40
7.0
 40
7.0
 40
8.0
 40
8.0
 40
8.0
 40
8.0
 10
112.1612846941819
 20
-155.047900351863
 10
112.1612846941819
 20
-155.047900351863
 10
111.8081624069438
 20
-155.047900351863
 10
111.8081624069438
 20
-155.047900351863
 10
111.6961968036732
 20
-155.047900351863
 10
111.556325926972
 20
-155.0541015237365
 10
111.4484944382837
 20
-155.0668483770319
 10
111.4484944382837
 20
-155.0668483770319
 10
111.4484944382837
 20
-154.8318928649379
 10
111.4484944382837
 20
-154.8318928649379
 10
111.5670057229763
 20
-154.8467067755244
 10
111.7509738218886
 20
-154.8511853996553
 10
111.8081624069438
 20
-154.8511853996553
 10
111.8081624069438
 20
-154.8511853996553
 10
112.1612846941819
 20
-154.8511853996553
 10
112.1612846941819
 20
-154.8511853996553
 10
112.1805772288993
 20
-154.8511853996553
 10
112.3834933529805
 20
-154.8511853996553
 10
112.5250867774243
 20
-154.8318928649379
 10
112.5250867774243
 20
-154.8318928649379
 10
112.5250867774243
 20
-155.0668483770319
 10
112.5250867774243
 20
-155.0668483770319
 10
112.3686794423939
 20
-155.047900351863
 10
112.1785101716082
 20
-155.047900351863
 10
112.1612846941819
 20
-155.047900351863
 97
        0
 97
        0
 75
     2
 76
     1
 98
        0
  0
SPLINE
  5
1BB
330
199
100
AcDbEntity
  8
_U+30EC_U+30A4_U+30E4_U+30FC 1
370
     0
100
AcDbSpline
210
0.0
220
0.0
230
1.0
 70
    11
 71
     3
 72
    29
 73
    25
 74
     0
 42
0.0000000001
 43
0.0000000001
 12
1.0
 22
0.0
 32
0.0
 13
1.0
 23
0.0
 33
0.0
 40
0.0
 40
0.0
 40
0.0
 40
0.0
 40
1.0
 40
1.0
 40
1.0
 40
2.0
 40
2.0
 40
2.0
 40
3.0
 40
3.0
 40
3.0
 40
4.0
 40
4.0
 40
4.0
 40
5.0
 40
5.0
 40
5.0
 40
6.0
 40
6.0
 40
6.0
 40
7.0
 40
7.0
 40
7.0
 40
8.0
 40
8.0
 40
8.0
 40
8.0
 10
114.1108642292848
 20
-155.7396755253012
 30
0.0
 10
114.1108642292848
 20
-155.7396755253012
 30
0.0
 10
113.6264838040587
 20
-155.7396755253012
 30
0.0
 10
113.6264838040587
 20
-155.7396755253012
 30
0.0
 10
113.5989230401767
 20
-155.7396755253012
 30
0.0
 10
113.2816297459852
 20
-155.7396755253012
 30
0.0
 10
113.0701008831908
 20
-155.7648247223435
 30
0.0
 10
113.0701008831908
 20
-155.7648247223435
 30
0.0
 10
113.0701008831908
 20
-155.5343478343803
 30
0.0
 10
113.0701008831908
 20
-155.5343478343803
 30
0.0
 10
113.2285752755123
 20
-155.55777448368
 30
0.0
 10
113.4190890558466
 20
-155.5598415409711
 30
0.0
 10
113.6264838040587
 20
-155.5598415409711
 30
0.0
 10
113.6264838040587
 20
-155.5598415409711
 30
0.0
 10
114.1108642292848
 20
-155.5598415409711
 30
0.0
 10
114.1108642292848
 20
-155.5598415409711
 30
0.0
 10
114.2968993854883
 20
-155.5598415409711
 30
0.0
 10
114.4832790512403
 20
-155.55777448368
 30
0.0
 10
114.6672471501526
 20
-155.5343478343803
 30
0.0
 10
114.6672471501526
 20
-155.5343478343803
 30
0.0
 10
114.6672471501526
 20
-155.7648247223435
 30
0.0
 10
114.6672471501526
 20
-155.7648247223435
 30
0.0
 10
114.4832790512403
 20
-155.7417425825923
 30
0.0
 10
114.2355766858508
 20
-155.7396755253012
 30
0.0
 10
114.1108642292848
 20
-155.7396755253012
 30
0.0
  0
HATCH
  5
1BC
330
199
100
AcDbEntity
  8
_U+30EC_U+30A4_U+30E4_U+30FC 1
 62
   179
420
  2234388
100
AcDbHatch
 10
0.0
 20
0.0
 30
0.0
210
0.0
220
0.0
230
1.0
  2
SOLID
 70
     1
 71
     0
 91
        1
 92
        1
 93
        1
 72
     4
 94
        3
 73
     0
 74
     1
 95
       29
 96
       25
 40
0.0
 40
0.0
 40
0.0
 40
0.0
 40
1.0
 40
1.0
 40
1.0
 40
2.0
 40
2.0
 40
2.0
 40
3.0
 40
3.0
 40
3.0
 40
4.0
 40
4.0
 40
4.0
 40
5.0
 40
5.0
 40
5.0
 40
6.0
 40
6.0
 40
6.0
 40
7.0
 40
7.0
 40
7.0
 40
8.0
 40
8.0
 40
8.0
 40
8.0
 10
114.1108642292848
 20
-155.7396755253012
 10
114.1108642292848
 20
-155.7396755253012
 10
113.6264838040587
 20
-155.7396755253012
 10
113.6264838040587
 20
-155.7396755253012
 10
113.5989230401767
 20
-155.7396755253012
 10
113.2816297459852
 20
-155.7396755253012
 10
113.0701008831908
 20
-155.7648247223435
 10
113.0701008831908
 20
-155.7648247223435
 10
113.0701008831908
 20
-155.5343478343803
 10
113.0701008831908
 20
-155.5343478343803
 10
113.2285752755123
 20
-155.55777448368
 10
113.4190890558466
 20
-155.5598415409711
 10
113.6264838040587
 20
-155.5598415409711
 10
113.6264838040587
 20
-155.5598415409711
 10
114.1108642292848
 20
-155.5598415409711
 10
114.1108642292848
 20
-155.5598415409711
 10
114.2968993854883
 20
-155.5598415409711
 10
114.4832790512403
 20
-155.55777448368
 10
114.6672471501526
 20
-155.5343478343803
 10
114.6672471501526
 20
-155.5343478343803
 10
114.6672471501526
 20
-155.7648247223435
 10
114.6672471501526
 20
-155.7648247223435
 10
114.4832790512403
 20
-155.7417425825923
 10
114.2355766858508
 20
-155.7396755253012
 10
114.1108642292848
 20
-155.7396755253012
 97
        0
 97
        0
 75
     2
 76
     1
 98
        0
  0
SPLINE
  5
1BD
330
199
100
AcDbEntity
  8
_U+30EC_U+30A4_U+30E4_U+30FC 1
370
     0
100
AcDbSpline
210
0.0
220
0.0
230
1.0
 70
    11
 71
     3
 72
    44
 73
    40
 74
     0
 42
0.0000000001
 43
0.0000000001
 12
1.0
 22
0.0
 32
0.0
 13
1.0
 23
0.0
 33
0.0
 40
0.0
 40
0.0
 40
0.0
 40
0.0
 40
1.0
 40
1.0
 40
1.0
 40
2.0
 40
2.0
 40
2.0
 40
3.0
 40
3.0
 40
3.0
 40
4.0
 40
4.0
 40
4.0
 40
5.0
 40
5.0
 40
5.0
 40
6.0
 40
6.0
 40
6.0
 40
7.0
 40
7.0
 40
7.0
 40
8.0
 40
8.0
 40
8.0
 40
9.0
 40
9.0
 40
9.0
 40
10.0
 40
10.0
 40
10.0
 40
11.0
 40
11.0
 40
11.0
 40
12.0
 40
12.0
 40
12.0
 40
13.0
 40
13.0
 40
13.0
 40
13.0
 10
116.3246825881063
 20
-155.3018038891259
 30
0.0
 10
116.2127169848357
 20
-155.6697400869506
 30
0.0
 10
116.1620740812025
 20
-155.8285589888206
 30
0.0
 10
115.9653591289948
 20
-156.0779839019527
 30
0.0
 10
115.7810465205339
 20
-156.3088052994645
 30
0.0
 10
115.5443684606972
 20
-156.494840455668
 30
0.0
 10
115.2649712168435
 20
-156.5878580337697
 30
0.0
 10
115.2649712168435
 20
-156.5878580337697
 30
0.0
 10
115.072390379218
 20
-156.4080240494397
 30
0.0
 10
115.072390379218
 20
-156.4080240494397
 30
0.0
 10
115.713522649023
 20
-156.2557508289916
 30
0.0
 10
116.0435627965099
 20
-155.6993679081238
 30
0.0
 10
116.1069525534385
 20
-155.2594292146574
 30
0.0
 10
116.1069525534385
 20
-155.2594292146574
 30
0.0
 10
115.3411078270675
 20
-155.2594292146574
 30
0.0
 10
115.3411078270675
 20
-155.2594292146574
 30
0.0
 10
115.2480902489658
 20
-155.2594292146574
 30
0.0
 10
115.0641221500534
 20
-155.2635633292397
 30
0.0
 10
114.9073703054746
 20
-155.2825113544085
 30
0.0
 10
114.9073703054746
 20
-155.2825113544085
 30
0.0
 10
114.9073703054746
 20
-155.0627142624496
 30
0.0
 10
114.9073703054746
 20
-155.0627142624496
 30
0.0
 10
114.9941867117029
 20
-155.0837293449096
 30
0.0
 10
115.2460231916746
 20
-155.0837293449096
 30
0.0
 10
115.3452419416498
 20
-155.0837293449096
 30
0.0
 10
115.3452419416498
 20
-155.0837293449096
 30
0.0
 10
115.7769124059516
 20
-155.0837293449096
 30
0.0
 10
115.7769124059516
 20
-155.0837293449096
 30
0.0
 10
115.8192870804202
 20
-155.0837293449096
 30
0.0
 10
116.0538980829657
 20
-155.0816622876185
 30
0.0
 10
116.092138642852
 20
-155.075461115745
 30
0.0
 10
116.1345133173205
 20
-155.0689154343231
 30
0.0
 10
116.1365803746117
 20
-155.0668483770319
 30
0.0
 10
116.1979030742491
 20
-155.0265407598545
 30
0.0
 10
116.1979030742491
 20
-155.0265407598545
 30
0.0
 10
116.3863497972923
 20
-155.1812255471422
 30
0.0
 10
116.3863497972923
 20
-155.1812255471422
 30
0.0
 10
116.3567219761192
 20
-155.2108533683154
 30
0.0
 10
116.3419080655326
 20
-155.2425482467796
 30
0.0
 10
116.3246825881063
 20
-155.3018038891259
 30
0.0
  0
SPLINE
  5
1BE
330
199
100
AcDbEntity
  8
_U+30EC_U+30A4_U+30E4_U+30FC 1
370
     0
100
AcDbSpline
210
0.0
220
0.0
230
1.0
 70
    11
 71
     3
 72
    17
 73
    13
 74
     0
 42
0.0000000001
 43
0.0000000001
 12
1.0
 22
0.0
 32
0.0
 13
1.0
 23
0.0
 33
0.0
 40
0.0
 40
0.0
 40
0.0
 40
0.0
 40
1.0
 40
1.0
 40
1.0
 40
2.0
 40
2.0
 40
2.0
 40
3.0
 40
3.0
 40
3.0
 40
4.0
 40
4.0
 40
4.0
 40
4.0
 10
116.5341443936095
 20
-155.1026773700785
 30
0.0
 10
116.4073648797523
 20
-155.1026773700785
 30
0.0
 10
116.3057345629375
 20
-155.0013915628122
 30
0.0
 10
116.3057345629375
 20
-154.8742675394064
 30
0.0
 10
116.3057345629375
 20
-154.7474880255492
 30
0.0
 10
116.4073648797523
 20
-154.6437906514432
 30
0.0
 10
116.5341443936095
 20
-154.6437906514432
 30
0.0
 10
116.6612684170153
 20
-154.6437906514432
 30
0.0
 10
116.7649657911213
 20
-154.7474880255492
 30
0.0
 10
116.7649657911213
 20
-154.8742675394064
 30
0.0
 10
116.7649657911213
 20
-155.0013915628122
 30
0.0
 10
116.6612684170153
 20
-155.1026773700785
 30
0.0
 10
116.5341443936095
 20
-155.1026773700785
 30
0.0
  0
SPLINE
  5
1BF
330
199
100
AcDbEntity
  8
_U+30EC_U+30A4_U+30E4_U+30FC 1
370
     0
100
AcDbSpline
210
0.0
220
0.0
230
1.0
 70
    11
 71
     3
 72
    17
 73
    13
 74
     0
 42
0.0000000001
 43
0.0000000001
 12
1.0
 22
0.0
 32
0.0
 13
1.0
 23
0.0
 33
0.0
 40
0.0
 40
0.0
 40
0.0
 40
0.0
 40
1.0
 40
1.0
 40
1.0
 40
2.0
 40
2.0
 40
2.0
 40
3.0
 40
3.0
 40
3.0
 40
4.0
 40
4.0
 40
4.0
 40
4.0
 10
116.5320773363184
 20
-154.7726372225916
 30
0.0
 10
116.4773003181029
 20
-154.7726372225916
 30
0.0
 10
116.4328585863432
 20
-154.8170789543513
 30
0.0
 10
116.4328585863432
 20
-154.8722004821153
 30
0.0
 10
116.4328585863432
 20
-154.9293890671704
 30
0.0
 10
116.4773003181029
 20
-154.9779649135125
 30
0.0
 10
116.5362114509007
 20
-154.9779649135125
 30
0.0
 10
116.595467093247
 20
-154.9779649135125
 30
0.0
 10
116.6357747104244
 20
-154.9273220098793
 30
0.0
 10
116.6357747104244
 20
-154.8742675394064
 30
0.0
 10
116.6357747104244
 20
-154.8170789543513
 30
0.0
 10
116.5892659213735
 20
-154.7726372225916
 30
0.0
 10
116.5320773363184
 20
-154.7726372225916
 30
0.0
  0
HATCH
  5
1C0
330
199
100
AcDbEntity
  8
_U+30EC_U+30A4_U+30E4_U+30FC 1
 62
   179
420
  2234388
100
AcDbHatch
 10
0.0
 20
0.0
 30
0.0
210
0.0
220
0.0
230
1.0
  2
SOLID
 70
     1
 71
     0
 91
        3
 92
        1
 93
        1
 72
     4
 94
        3
 73
     0
 74
     1
 95
       44
 96
       40
 40
0.0
 40
0.0
 40
0.0
 40
0.0
 40
1.0
 40
1.0
 40
1.0
 40
2.0
 40
2.0
 40
2.0
 40
3.0
 40
3.0
 40
3.0
 40
4.0
 40
4.0
 40
4.0
 40
5.0
 40
5.0
 40
5.0
 40
6.0
 40
6.0
 40
6.0
 40
7.0
 40
7.0
 40
7.0
 40
8.0
 40
8.0
 40
8.0
 40
9.0
 40
9.0
 40
9.0
 40
10.0
 40
10.0
 40
10.0
 40
11.0
 40
11.0
 40
11.0
 40
12.0
 40
12.0
 40
12.0
 40
13.0
 40
13.0
 40
13.0
 40
13.0
 10
116.3246825881063
 20
-155.3018038891259
 10
116.2127169848357
 20
-155.6697400869506
 10
116.1620740812025
 20
-155.8285589888206
 10
115.9653591289948
 20
-156.0779839019527
 10
115.7810465205339
 20
-156.3088052994645
 10
115.5443684606972
 20
-156.494840455668
 10
115.2649712168435
 20
-156.5878580337697
 10
115.2649712168435
 20
-156.5878580337697
 10
115.072390379218
 20
-156.4080240494397
 10
115.072390379218
 20
-156.4080240494397
 10
115.713522649023
 20
-156.2557508289916
 10
116.0435627965099
 20
-155.6993679081238
 10
116.1069525534385
 20
-155.2594292146574
 10
116.1069525534385
 20
-155.2594292146574
 10
115.3411078270675
 20
-155.2594292146574
 10
115.3411078270675
 20
-155.2594292146574
 10
115.2480902489658
 20
-155.2594292146574
 10
115.0641221500534
 20
-155.2635633292397
 10
114.9073703054746
 20
-155.2825113544085
 10
114.9073703054746
 20
-155.2825113544085
 10
114.9073703054746
 20
-155.0627142624496
 10
114.9073703054746
 20
-155.0627142624496
 10
114.9941867117029
 20
-155.0837293449096
 10
115.2460231916746
 20
-155.0837293449096
 10
115.3452419416498
 20
-155.0837293449096
 10
115.3452419416498
 20
-155.0837293449096
 10
115.7769124059516
 20
-155.0837293449096
 10
115.7769124059516
 20
-155.0837293449096
 10
115.8192870804202
 20
-155.0837293449096
 10
116.0538980829657
 20
-155.0816622876185
 10
116.092138642852
 20
-155.075461115745
 10
116.1345133173205
 20
-155.0689154343231
 10
116.1365803746117
 20
-155.0668483770319
 10
116.1979030742491
 20
-155.0265407598545
 10
116.1979030742491
 20
-155.0265407598545
 10
116.3863497972923
 20
-155.1812255471422
 10
116.3863497972923
 20
-155.1812255471422
 10
116.3567219761192
 20
-155.2108533683154
 10
116.3419080655326
 20
-155.2425482467796
 10
116.3246825881063
 20
-155.3018038891259
 97
        0
 97
        0
 92
        1
 93
        1
 72
     4
 94
        3
 73
     0
 74
     1
 95
       17
 96
       13
 40
0.0
 40
0.0
 40
0.0
 40
0.0
 40
1.0
 40
1.0
 40
1.0
 40
2.0
 40
2.0
 40
2.0
 40
3.0
 40
3.0
 40
3.0
 40
4.0
 40
4.0
 40
4.0
 40
4.0
 10
116.5341443936095
 20
-155.1026773700785
 10
116.4073648797523
 20
-155.1026773700785
 10
116.3057345629375
 20
-155.0013915628122
 10
116.3057345629375
 20
-154.8742675394064
 10
116.3057345629375
 20
-154.7474880255492
 10
116.4073648797523
 20
-154.6437906514432
 10
116.5341443936095
 20
-154.6437906514432
 10
116.6612684170153
 20
-154.6437906514432
 10
116.7649657911213
 20
-154.7474880255492
 10
116.7649657911213
 20
-154.8742675394064
 10
116.7649657911213
 20
-155.0013915628122
 10
116.6612684170153
 20
-155.1026773700785
 10
116.5341443936095
 20
-155.1026773700785
 97
        0
 97
        0
 92
        1
 93
        1
 72
     4
 94
        3
 73
     0
 74
     1
 95
       17
 96
       13
 40
0.0
 40
0.0
 40
0.0
 40
0.0
 40
1.0
 40
1.0
 40
1.0
 40
2.0
 40
2.0
 40
2.0
 40
3.0
 40
3.0
 40
3.0
 40
4.0
 40
4.0
 40
4.0
 40
4.0
 10
116.5320773363184
 20
-154.7726372225916
 10
116.4773003181029
 20
-154.7726372225916
 10
116.4328585863432
 20
-154.8170789543513
 10
116.4328585863432
 20
-154.8722004821153
 10
116.4328585863432
 20
-154.9293890671704
 10
116.4773003181029
 20
-154.9779649135125
 10
116.5362114509007
 20
-154.9779649135125
 10
116.595467093247
 20
-154.9779649135125
 10
116.6357747104244
 20
-154.9273220098793
 10
116.6357747104244
 20
-154.8742675394064
 10
116.6357747104244
 20
-154.8170789543513
 10
116.5892659213735
 20
-154.7726372225916
 10
116.5320773363184
 20
-154.7726372225916
 97
        0
 97
        0
 75
     2
 76
     1
 98
        0
  0
ENDBLK
  5
19C
330
199
100
AcDbEntity
  8
0
100
AcDbBlockEnd
  0
ENDSEC
  0
SECTION
  2
ENTITIES
  0
SPLINE
  5
41
330
1F
100
AcDbEntity
  8
_U+30EC_U+30A4_U+30E4_U+30FC 1
 62
   179
420
  2234388
370
     9
100
AcDbSpline
210
0.0
220
0.0
230
1.0
 70
    11
 71
     3
 72
    17
 73
    13
 74
     0
 42
0.0000000001
 43
0.0000000001
 12
1.0
 22
0.0
 32
0.0
 13
1.0
 23
0.0
 33
0.0
 40
0.0
 40
0.0
 40
0.0
 40
0.0
 40
1.0
 40
1.0
 40
1.0
 40
2.0
 40
2.0
 40
2.0
 40
3.0
 40
3.0
 40
3.0
 40
4.0
 40
4.0
 40
4.0
 40
4.0
 10
93.8779368695698
 20
-164.6928973316024
 30
0.0
 10
93.8779368695698
 20
-164.7479327319793
 30
0.0
 10
93.92273387680176
 20
-164.7927405051343
 30
0.0
 10
93.97776927717862
 20
-164.7927405051343
 30
0.0
 10
94.03280467755549
 20
-164.7927405051343
 30
0.0
 10
94.07760168478681
 20
-164.7479327319793
 30
0.0
 10
94.07760168478681
 20
-164.6928973316024
 30
0.0
 10
94.07760168478681
 20
-164.6378834630723
 30
0.0
 10
94.03280467755549
 20
-164.5930756899173
 30
0.0
 10
93.97776927717862
 20
-164.5930756899173
 30
0.0
 10
93.92273387680176
 20
-164.5930756899173
 30
0.0
 10
93.8779368695698
 20
-164.6378834630723
 30
0.0
 10
93.8779368695698
 20
-164.6928973316024
 30
0.0
  0
SPLINE
  5
42
330
1F
100
AcDbEntity
  8
_U+30EC_U+30A4_U+30E4_U+30FC 1
 62
   179
420
  2234388
370
     9
100
AcDbSpline
210
0.0
220
0.0
230
1.0
 70
    11
 71
     3
 72
    17
 73
    13
 74
     0
 42
0.0000000001
 43
0.0000000001
 12
1.0
 22
0.0
 32
0.0
 13
1.0
 23
0.0
 33
0.0
 40
0.0
 40
0.0
 40
0.0
 40
0.0
 40
1.0
 40
1.0
 40
1.0
 40
2.0
 40
2.0
 40
2.0
 40
3.0
 40
3.0
 40
3.0
 40
4.0
 40
4.0
 40
4.0
 40
4.0
 10
91.87808047222906
 20
-164.6928973316024
 30
0.0
 10
91.87808047222906
 20
-164.7479327319793
 30
0.0
 10
91.9228774794607
 20
-164.7927405051343
 30
0.0
 10
91.97791287983756
 20
-164.7927405051343
 30
0.0
 10
92.03364806523487
 20
-164.7927405051343
 30
0.0
 10
92.0784558383899
 20
-164.7479327319793
 30
0.0
 10
92.0784558383899
 20
-164.6928973316024
 30
0.0
 10
92.0784558383899
 20
-164.6378834630723
 30
0.0
 10
92.03364806523487
 20
-164.5930756899173
 30
0.0
 10
91.97791287983756
 20
-164.5930756899173
 30
0.0
 10
91.9228774794607
 20
-164.5930756899173
 30
0.0
 10
91.87808047222906
 20
-164.6378834630723
 30
0.0
 10
91.87808047222906
 20
-164.6928973316024
 30
0.0
  0
POLYLINE
  5
43
330
1F
100
AcDbEntity
  8
_U+30EC_U+30A4_U+30E4_U+30FC 1
 62
   179
420
  2234388
370
     9
100
AcDb2dPolyline
 66
     1
 10
0.0
 20
0.0
 30
0.0
  0
VERTEX
  5
44
330
43
100
AcDbEntity
  8
_U+30EC_U+30A4_U+30E4_U+30FC 1
 62
   179
420
  2234388
370
     9
100
AcDbVertex
100
AcDb2dVertex
 10
91.97795594353113
 20
-147.0371059473987
 30
0.0
  0
VERTEX
  5
45
330
43
100
AcDbEntity
  8
_U+30EC_U+30A4_U+30E4_U+30FC 1
 62
   179
420
  2234388
370
     9
100
AcDbVertex
100
AcDb2dVertex
 10
91.97795594353113
 20
-165.6930731465108
 30
0.0
  0
SEQEND
  5
46
330
43
100
AcDbEntity
  8
_U+30EC_U+30A4_U+30E4_U+30FC 1
 62
   179
420
  2234388
370
     9
  0
POLYLINE
  5
47
330
1F
100
AcDbEntity
  8
_U+30EC_U+30A4_U+30E4_U+30FC 1
 62
   179
420
  2234388
370
     9
100
AcDb2dPolyline
 66
     1
 10
0.0
 20
0.0
 30
0.0
  0
VERTEX
  5
48
330
47
100
AcDbEntity
  8
_U+30EC_U+30A4_U+30E4_U+30FC 1
 62
   179
420
  2234388
370
     9
100
AcDbVertex
100
AcDb2dVertex
 10
91.97795594353113
 20
-164.6928973316024
 30
0.0
  0
VERTEX
  5
49
330
47
100
AcDbEntity
  8
_U+30EC_U+30A4_U+30E4_U+30FC 1
 62
   179
420
  2234388
370
     9
100
AcDbVertex
100
AcDb2dVertex
 10
93.97784463864204
 20
-164.6928973316024
 30
0.0
  0
SEQEND
  5
4A
330
47
100
AcDbEntity
  8
_U+30EC_U+30A4_U+30E4_U+30FC 1
 62
   179
420
  2234388
370
     9
  0
POLYLINE
  5
4B
330
1F
100
AcDbEntity
  8
_U+30EC_U+30A4_U+30E4_U+30FC 1
 62
   179
420
  2234388
370
     9
100
AcDb2dPolyline
 66
     1
 10
0.0
 20
0.0
 30
0.0
  0
VERTEX
  5
4C
330
4B
100
AcDbEntity
  8
_U+30EC_U+30A4_U+30E4_U+30FC 1
 62
   179
420
  2234388
370
     9
100
AcDbVertex
100
AcDb2dVertex
 10
93.97784463864204
 20
-147.0371059473987
 30
0.0
  0
VERTEX
  5
4D
330
4B
100
AcDbEntity
  8
_U+30EC_U+30A4_U+30E4_U+30FC 1
 62
   179
420
  2234388
370
     9
100
AcDbVertex
100
AcDb2dVertex
 10
93.97784463864204
 20
-165.6930731465108
 30
0.0
  0
SEQEND
  5
4E
330
4B
100
AcDbEntity
  8
_U+30EC_U+30A4_U+30E4_U+30FC 1
 62
   179
420
  2234388
370
     9
  0
INSERT
  5
50
330
1F
100
AcDbEntity
  8
_U+30EC_U+30A4_U+30E4_U+30FC 1
100
AcDbBlockReference
  2
block 2
 10
0.0
 20
0.0
 30
0.0
  0
POLYLINE
  5
55
330
1F
100
AcDbEntity
  8
_U+30EC_U+30A4_U+30E4_U+30FC 1
 62
   179
420
  2234388
370
    25
100
AcDb2dPolyline
 66
     1
 10
0.0
 20
0.0
 30
0.0
  0
VERTEX
  5
56
330
55
100
AcDbEntity
  8
_U+30EC_U+30A4_U+30E4_U+30FC 1
 62
   179
420
  2234388
370
    25
100
AcDbVertex
100
AcDb2dVertex
 10
92.17571519030786
 20
-139.6427467844795
 30
0.0
  0
VERTEX
  5
57
330
55
100
AcDbEntity
  8
_U+30EC_U+30A4_U+30E4_U+30FC 1
 62
   179
420
  2234388
370
    25
100
AcDbVertex
100
AcDb2dVertex
 10
91.96298054409368
 20
-140.1267611683103
 30
0.0
  0
VERTEX
  5
58
330
55
100
AcDbEntity
  8
_U+30EC_U+30A4_U+30E4_U+30FC 1
 62
   179
420
  2234388
370
    25
100
AcDbVertex
100
AcDb2dVertex
 10
92.15030761110414
 20
-140.6210031793633
 30
0.0
  0
VERTEX
  5
59
330
55
100
AcDbEntity
  8
_U+30EC_U+30A4_U+30E4_U+30FC 1
 62
   179
420
  2234388
370
    25
100
AcDbVertex
100
AcDb2dVertex
 10
91.93793900628526
 20
-141.1057281141379
 30
0.0
  0
VERTEX
  5
5A
330
55
100
AcDbEntity
  8
_U+30EC_U+30A4_U+30E4_U+30FC 1
 62
   179
420
  2234388
370
    25
100
AcDbVertex
100
AcDb2dVertex
 10
92.12491079782413
 20
-141.6006806761341
 30
0.0
  0
VERTEX
  5
5B
330
55
100
AcDbEntity
  8
_U+30EC_U+30A4_U+30E4_U+30FC 1
 62
   179
420
  2234388
370
    25
100
AcDbVertex
100
AcDb2dVertex
 10
91.91218691753302
 20
-142.084695059965
 30
0.0
  0
VERTEX
  5
5C
330
55
100
AcDbEntity
  8
_U+30EC_U+30A4_U+30E4_U+30FC 1
 62
   179
420
  2234388
370
    25
100
AcDbVertex
100
AcDb2dVertex
 10
92.09951398454349
 20
-142.5789370710179
 30
0.0
  0
VERTEX
  5
5D
330
55
100
AcDbEntity
  8
_U+30EC_U+30A4_U+30E4_U+30FC 1
 62
   179
420
  2234388
370
    25
100
AcDbVertex
100
AcDb2dVertex
 10
91.88713461380122
 20
-143.0625854134531
 30
0.0
  0
VERTEX
  5
5E
330
55
100
AcDbEntity
  8
_U+30EC_U+30A4_U+30E4_U+30FC 1
 62
   179
420
  2234388
370
    25
100
AcDbVertex
100
AcDb2dVertex
 10
92.07410640533976
 20
-143.5564829149576
 30
0.0
  0
VERTEX
  5
5F
330
55
100
AcDbEntity
  8
_U+30EC_U+30A4_U+30E4_U+30FC 1
 62
   179
420
  2234388
370
    25
100
AcDbVertex
100
AcDb2dVertex
 10
91.86138252504898
 20
-144.0397867478442
 30
0.0
  0
VERTEX
  5
60
330
55
100
AcDbEntity
  8
_U+30EC_U+30A4_U+30E4_U+30FC 1
 62
   179
420
  2234388
370
    25
100
AcDbVertex
100
AcDb2dVertex
 10
92.04870959205944
 20
-144.5340287588972
 30
0.0
  0
VERTEX
  5
61
330
55
100
AcDbEntity
  8
_U+30EC_U+30A4_U+30E4_U+30FC 1
 62
   179
420
  2234388
370
    25
100
AcDbVertex
100
AcDb2dVertex
 10
91.83634098724058
 20
-145.0180431427277
 30
0.0
  0
VERTEX
  5
62
330
55
100
AcDbEntity
  8
_U+30EC_U+30A4_U+30E4_U+30FC 1
 62
   179
420
  2234388
370
    25
100
AcDbVertex
100
AcDb2dVertex
 10
92.02331277877911
 20
-145.5126296633289
 30
0.0
  0
VERTEX
  5
63
330
55
100
AcDbEntity
  8
_U+30EC_U+30A4_U+30E4_U+30FC 1
 62
   179
420
  2234388
370
    25
100
AcDbVertex
100
AcDb2dVertex
 10
91.81058889848833
 20
-145.9969885567085
 30
0.0
  0
VERTEX
  5
64
330
55
100
AcDbEntity
  8
_U+30EC_U+30A4_U+30E4_U+30FC 1
 62
   179
420
  2234388
370
    25
100
AcDbVertex
100
AcDb2dVertex
 10
91.9979051995754
 20
-146.4915750773094
 30
0.0
  0
VERTEX
  5
65
330
55
100
AcDbEntity
  8
_U+30EC_U+30A4_U+30E4_U+30FC 1
 62
   179
420
  2234388
370
    25
100
AcDbVertex
100
AcDb2dVertex
 10
91.78553659475652
 20
-146.9763000120841
 30
0.0
  0
VERTEX
  5
66
330
55
100
AcDbEntity
  8
_U+30EC_U+30A4_U+30E4_U+30FC 1
 62
   179
420
  2234388
370
    25
100
AcDbVertex
100
AcDb2dVertex
 10
91.97250838629508
 20
-147.4698314721929
 30
0.0
  0
VERTEX
  5
67
330
55
100
AcDbEntity
  8
_U+30EC_U+30A4_U+30E4_U+30FC 1
 62
   179
420
  2234388
370
    25
100
AcDbVertex
100
AcDb2dVertex
 10
91.75978450600428
 20
-147.9535013464752
 30
0.0
  0
VERTEX
  5
68
330
55
100
AcDbEntity
  8
_U+30EC_U+30A4_U+30E4_U+30FC 1
 62
   179
420
  2234388
370
    25
100
AcDbVertex
100
AcDb2dVertex
 10
91.94711157301475
 20
-148.4477433575281
 30
0.0
  0
VERTEX
  5
69
330
55
100
AcDbEntity
  8
_U+30EC_U+30A4_U+30E4_U+30FC 1
 62
   179
420
  2234388
370
    25
100
AcDbVertex
100
AcDb2dVertex
 10
91.73474296819587
 20
-148.9321022509072
 30
0.0
  0
VERTEX
  5
6A
330
55
100
AcDbEntity
  8
_U+30EC_U+30A4_U+30E4_U+30FC 1
 62
   179
420
  2234388
370
    25
100
AcDbVertex
100
AcDb2dVertex
 10
91.92171475973441
 20
-149.4266887715083
 30
0.0
  0
VERTEX
  5
6B
330
55
100
AcDbEntity
  8
_U+30EC_U+30A4_U+30E4_U+30FC 1
 62
   179
420
  2234388
370
    25
100
AcDbVertex
100
AcDb2dVertex
 10
91.70898011352024
 20
-149.911413706283
 30
0.0
  0
VERTEX
  5
6C
330
55
100
AcDbEntity
  8
_U+30EC_U+30A4_U+30E4_U+30FC 1
 62
   179
420
  2234388
370
    25
100
AcDbVertex
100
AcDb2dVertex
 10
91.8963071805307
 20
-150.406710777828
 30
0.0
  0
VERTEX
  5
6D
330
55
100
AcDbEntity
  8
_U+30EC_U+30A4_U+30E4_U+30FC 1
 62
   179
420
  2234388
370
    25
100
AcDbVertex
100
AcDb2dVertex
 10
91.68358330023992
 20
-150.8903806521103
 30
0.0
  0
VERTEX
  5
6E
330
55
100
AcDbEntity
  8
_U+30EC_U+30A4_U+30E4_U+30FC 1
 62
   179
420
  2234388
370
    25
100
AcDbVertex
100
AcDb2dVertex
 10
91.87091036725037
 20
-151.384622663163
 30
0.0
  0
VERTEX
  5
6F
330
55
100
AcDbEntity
  8
_U+30EC_U+30A4_U+30E4_U+30FC 1
 62
   179
420
  2234388
370
    25
100
AcDbVertex
100
AcDb2dVertex
 10
91.6581864869599
 20
-151.8693260660908
 30
0.0
  0
VERTEX
  5
70
330
55
100
AcDbEntity
  8
_U+30EC_U+30A4_U+30E4_U+30FC 1
 62
   179
420
  2234388
370
    25
100
AcDbVertex
100
AcDb2dVertex
 10
91.84515827849813
 20
-152.3649891790311
 30
0.0
  0
VERTEX
  5
71
330
55
100
AcDbEntity
  8
_U+30EC_U+30A4_U+30E4_U+30FC 1
 62
   179
420
  2234388
370
    25
100
AcDbVertex
100
AcDb2dVertex
 10
91.63278967367927
 20
-152.8511136838467
 30
0.0
  0
VERTEX
  5
72
330
55
100
AcDbEntity
  8
_U+30EC_U+30A4_U+30E4_U+30FC 1
 62
   179
420
  2234388
370
    25
100
AcDbVertex
100
AcDb2dVertex
 10
91.81976146521812
 20
-153.3478103254326
 30
0.0
  0
VERTEX
  5
73
330
55
100
AcDbEntity
  8
_U+30EC_U+30A4_U+30E4_U+30FC 1
 62
   179
420
  2234388
370
    25
100
AcDbVertex
100
AcDb2dVertex
 10
91.60702681900395
 20
-153.8343008716434
 30
0.0
  0
VERTEX
  5
74
330
55
100
AcDbEntity
  8
_U+30EC_U+30A4_U+30E4_U+30FC 1
 62
   179
420
  2234388
370
    25
100
AcDbVertex
100
AcDb2dVertex
 10
91.79400937646588
 20
-154.3317080641731
 30
0.0
  0
VERTEX
  5
75
330
55
100
AcDbEntity
  8
_U+30EC_U+30A4_U+30E4_U+30FC 1
 62
   179
420
  2234388
370
    25
100
AcDbVertex
100
AcDb2dVertex
 10
91.5816300057233
 20
-154.8189091613278
 30
0.0
  0
VERTEX
  5
76
330
55
100
AcDbEntity
  8
_U+30EC_U+30A4_U+30E4_U+30FC 1
 62
   179
420
  2234388
370
    25
100
AcDbVertex
100
AcDb2dVertex
 10
91.76860179726216
 20
-155.3166823952529
 30
0.0
  0
VERTEX
  5
77
330
55
100
AcDbEntity
  8
_U+30EC_U+30A4_U+30E4_U+30FC 1
 62
   179
420
  2234388
370
    25
100
AcDbVertex
100
AcDb2dVertex
 10
91.55623319244297
 20
-155.8042064701093
 30
0.0
  0
VERTEX
  5
78
330
55
100
AcDbEntity
  8
_U+30EC_U+30A4_U+30E4_U+30FC 1
 62
   179
420
  2234388
370
    25
100
AcDbVertex
100
AcDb2dVertex
 10
91.74284970850992
 20
-156.3019797040343
 30
0.0
  0
VERTEX
  5
79
330
55
100
AcDbEntity
  8
_U+30EC_U+30A4_U+30E4_U+30FC 1
 62
   179
420
  2234388
370
    25
100
AcDbVertex
100
AcDb2dVertex
 10
91.53048110369073
 20
-156.787393657906
 30
0.0
  0
VERTEX
  5
7A
330
55
100
AcDbEntity
  8
_U+30EC_U+30A4_U+30E4_U+30FC 1
 62
   179
420
  2234388
370
    25
100
AcDbVertex
100
AcDb2dVertex
 10
91.71745289522927
 20
-157.2827122612978
 30
0.0
  0
VERTEX
  5
7B
330
55
100
AcDbEntity
  8
_U+30EC_U+30A4_U+30E4_U+30FC 1
 62
   179
420
  2234388
370
    25
100
AcDbVertex
100
AcDb2dVertex
 10
91.50508429041041
 20
-157.768470724718
 30
0.0
  0
VERTEX
  5
7C
330
55
100
AcDbEntity
  8
_U+30EC_U+30A4_U+30E4_U+30FC 1
 62
   179
420
  2234388
370
    25
100
AcDbVertex
100
AcDb2dVertex
 10
91.69205608194895
 20
-158.2644783472069
 30
0.0
  0
VERTEX
  5
7D
330
55
100
AcDbEntity
  8
_U+30EC_U+30A4_U+30E4_U+30FC 1
 62
   179
420
  2234388
370
    25
100
AcDbVertex
100
AcDb2dVertex
 10
91.47932143573478
 20
-158.7499138329254
 30
0.0
  0
VERTEX
  5
7E
330
55
100
AcDbEntity
  8
_U+30EC_U+30A4_U+30E4_U+30FC 1
 62
   179
420
  2234388
370
    25
100
AcDbVertex
100
AcDb2dVertex
 10
91.66664850274523
 20
-159.2455554140189
 30
0.0
  0
VERTEX
  5
7F
330
55
100
AcDbEntity
  8
_U+30EC_U+30A4_U+30E4_U+30FC 1
 62
   179
420
  2234388
370
    25
100
AcDbVertex
100
AcDb2dVertex
 10
91.45392462245445
 20
-159.7306248583421
 30
0.0
  0
VERTEX
  5
80
330
55
100
AcDbEntity
  8
_U+30EC_U+30A4_U+30E4_U+30FC 1
 62
   179
420
  2234388
370
    25
100
AcDbVertex
100
AcDb2dVertex
 10
91.64089641399299
 20
-160.2266324808309
 30
0.0
  0
VERTEX
  5
81
330
55
100
AcDbEntity
  8
_U+30EC_U+30A4_U+30E4_U+30FC 1
 62
   179
420
  2234388
370
    25
100
AcDbVertex
100
AcDb2dVertex
 10
91.42852780917413
 20
-160.7113574156056
 30
0.0
  0
VERTEX
  5
82
330
55
100
AcDbEntity
  8
_U+30EC_U+30A4_U+30E4_U+30FC 1
 62
   179
420
  2234388
370
    25
100
AcDbVertex
100
AcDb2dVertex
 10
91.61585487618459
 20
-161.2073650380944
 30
0.0
  0
VERTEX
  5
83
330
55
100
AcDbEntity
  8
_U+30EC_U+30A4_U+30E4_U+30FC 1
 62
   179
420
  2234388
370
    25
100
AcDbVertex
100
AcDb2dVertex
 10
91.40313099589379
 20
-161.69348954291
 30
0.0
  0
VERTEX
  5
84
330
55
100
AcDbEntity
  8
_U+30EC_U+30A4_U+30E4_U+30FC 1
 62
   179
420
  2234388
370
    25
100
AcDbVertex
100
AcDb2dVertex
 10
91.59010278743234
 20
-162.1901861844959
 30
0.0
  0
VERTEX
  5
85
330
55
100
AcDbEntity
  8
_U+30EC_U+30A4_U+30E4_U+30FC 1
 62
   179
420
  2234388
370
    25
100
AcDbVertex
100
AcDb2dVertex
 10
91.37772341669007
 20
-162.6749111192705
 30
0.0
  0
VERTEX
  5
86
330
55
100
AcDbEntity
  8
_U+30EC_U+30A4_U+30E4_U+30FC 1
 62
   179
420
  2234388
370
    25
100
AcDbVertex
100
AcDb2dVertex
 10
91.56469520822863
 20
-163.1694976398717
 30
0.0
  0
VERTEX
  5
87
330
55
100
AcDbEntity
  8
_U+30EC_U+30A4_U+30E4_U+30FC 1
 62
   179
420
  2234388
370
    25
100
AcDbVertex
100
AcDb2dVertex
 10
91.35232660340975
 20
-163.653167514154
 30
0.0
  0
VERTEX
  5
88
330
55
100
AcDbEntity
  8
_U+30EC_U+30A4_U+30E4_U+30FC 1
 62
   179
420
  2234388
370
    25
100
AcDbVertex
100
AcDb2dVertex
 10
91.53929839494829
 20
-164.1466989742628
 30
0.0
  0
VERTEX
  5
89
330
55
100
AcDbEntity
  8
_U+30EC_U+30A4_U+30E4_U+30FC 1
 62
   179
420
  2234388
370
    25
100
AcDbVertex
100
AcDb2dVertex
 10
91.32692979012943
 20
-164.6289477466574
 30
0.0
  0
SEQEND
  5
8A
330
55
100
AcDbEntity
  8
_U+30EC_U+30A4_U+30E4_U+30FC 1
 62
   179
420
  2234388
370
    25
  0
POLYLINE
  5
8B
330
1F
100
AcDbEntity
  8
_U+30EC_U+30A4_U+30E4_U+30FC 1
 62
   179
420
  2234388
370
    25
100
AcDb2dPolyline
 66
     1
 10
0.0
 20
0.0
 30
0.0
  0
VERTEX
  5
8C
330
8B
100
AcDbEntity
  8
_U+30EC_U+30A4_U+30E4_U+30FC 1
 62
   179
420
  2234388
370
    25
100
AcDbVertex
100
AcDb2dVertex
 10
91.42674066589115
 20
-164.6315100364246
 30
0.0
  0
VERTEX
  5
8D
330
8B
100
AcDbEntity
  8
_U+30EC_U+30A4_U+30E4_U+30FC 1
 62
   179
420
  2234388
370
    25
100
AcDbVertex
100
AcDb2dVertex
 10
91.02633444311799
 20
-164.6209378996542
 30
0.0
  0
SEQEND
  5
8E
330
8B
100
AcDbEntity
  8
_U+30EC_U+30A4_U+30E4_U+30FC 1
 62
   179
420
  2234388
370
    25
  0
POLYLINE
  5
8F
330
1F
100
AcDbEntity
  8
_U+30EC_U+30A4_U+30E4_U+30FC 1
 62
   179
420
  2234388
370
    25
100
AcDb2dPolyline
 66
     1
 10
0.0
 20
0.0
 30
0.0
  0
VERTEX
  5
90
330
8F
100
AcDbEntity
  8
_U+30EC_U+30A4_U+30E4_U+30FC 1
 62
   179
420
  2234388
370
    25
100
AcDbVertex
100
AcDb2dVertex
 10
91.02639903865834
 20
-164.6208948359607
 30
0.0
  0
VERTEX
  5
91
330
8F
100
AcDbEntity
  8
_U+30EC_U+30A4_U+30E4_U+30FC 1
 62
   179
420
  2234388
370
    25
100
AcDbVertex
100
AcDb2dVertex
 10
91.08107916356329
 20
-138.6208238043205
 30
0.0
  0
SEQEND
  5
92
330
8F
100
AcDbEntity
  8
_U+30EC_U+30A4_U+30E4_U+30FC 1
 62
   179
420
  2234388
370
    25
  0
POLYLINE
  5
93
330
1F
100
AcDbEntity
  8
_U+30EC_U+30A4_U+30E4_U+30FC 1
 62
   179
420
  2234388
370
    25
100
AcDb2dPolyline
 66
     1
 10
0.0
 20
0.0
 30
0.0
  0
VERTEX
  5
94
330
93
100
AcDbEntity
  8
_U+30EC_U+30A4_U+30E4_U+30FC 1
 62
   179
420
  2234388
370
    25
100
AcDbVertex
100
AcDb2dVertex
 10
94.09807847107726
 20
-145.7799475411378
 30
0.0
  0
VERTEX
  5
95
330
93
100
AcDbEntity
  8
_U+30EC_U+30A4_U+30E4_U+30FC 1
 62
   179
420
  2234388
370
    25
100
AcDbVertex
100
AcDb2dVertex
 10
94.63112087003255
 20
-145.9669300985997
 30
0.0
  0
VERTEX
  5
96
330
93
100
AcDbEntity
  8
_U+30EC_U+30A4_U+30E4_U+30FC 1
 62
   179
420
  2234388
370
    25
100
AcDbVertex
100
AcDb2dVertex
 10
95.15499070225835
 20
-145.7545614937806
 30
0.0
  0
VERTEX
  5
97
330
93
100
AcDbEntity
  8
_U+30EC_U+30A4_U+30E4_U+30FC 1
 62
   179
420
  2234388
370
    25
100
AcDbVertex
100
AcDb2dVertex
 10
95.68839914260894
 20
-145.941522519396
 30
0.0
  0
VERTEX
  5
98
330
93
100
AcDbEntity
  8
_U+30EC_U+30A4_U+30E4_U+30FC 1
 62
   179
420
  2234388
370
    25
100
AcDbVertex
100
AcDb2dVertex
 10
96.21297952577858
 20
-145.7291539145768
 30
0.0
  0
VERTEX
  5
99
330
93
100
AcDbEntity
  8
_U+30EC_U+30A4_U+30E4_U+30FC 1
 62
   179
420
  2234388
370
    25
100
AcDbVertex
100
AcDb2dVertex
 10
96.74673247567769
 20
-145.9161364720388
 30
0.0
  0
VERTEX
  5
9A
330
93
100
AcDbEntity
  8
_U+30EC_U+30A4_U+30E4_U+30FC 1
 62
   179
420
  2234388
370
    25
100
AcDbVertex
100
AcDb2dVertex
 10
97.27060230790349
 20
-145.7037678672199
 30
0.0
  0
VERTEX
  5
9B
330
93
100
AcDbEntity
  8
_U+30EC_U+30A4_U+30E4_U+30FC 1
 62
   179
420
  2234388
370
    25
100
AcDbVertex
100
AcDb2dVertex
 10
97.80365547278217
 20
-145.8907288928351
 30
0.0
  0
VERTEX
  5
9C
330
93
100
AcDbEntity
  8
_U+30EC_U+30A4_U+30E4_U+30FC 1
 62
   179
420
  2234388
370
    25
100
AcDbVertex
100
AcDb2dVertex
 10
98.32752530500797
 20
-145.6783602880162
 30
0.0
  0
VERTEX
  5
9D
330
93
100
AcDbEntity
  8
_U+30EC_U+30A4_U+30E4_U+30FC 1
 62
   179
420
  2234388
370
    25
100
AcDbVertex
100
AcDb2dVertex
 10
98.86092297943516
 20
-145.8653213136313
 30
0.0
  0
VERTEX
  5
9E
330
93
100
AcDbEntity
  8
_U+30EC_U+30A4_U+30E4_U+30FC 1
 62
   179
420
  2234388
370
    25
100
AcDbVertex
100
AcDb2dVertex
 10
99.38480357758436
 20
-145.6529527088124
 30
0.0
  0
VERTEX
  5
9F
330
93
100
AcDbEntity
  8
_U+30EC_U+30A4_U+30E4_U+30FC 1
 62
   179
420
  2234388
370
    25
100
AcDbVertex
100
AcDb2dVertex
 10
99.91891180295539
 20
-145.8399352662744
 30
0.0
  0
VERTEX
  5
A0
330
93
100
AcDbEntity
  8
_U+30EC_U+30A4_U+30E4_U+30FC 1
 62
   179
420
  2234388
370
    25
100
AcDbVertex
100
AcDb2dVertex
 10
100.4431369106531
 20
-145.6272006200602
 30
0.0
  0
VERTEX
  5
A1
330
93
100
AcDbEntity
  8
_U+30EC_U+30A4_U+30E4_U+30FC 1
 62
   179
420
  2234388
370
    25
100
AcDbVertex
100
AcDb2dVertex
 10
100.9768898605522
 20
-145.8145276870707
 30
0.0
  0
VERTEX
  5
A2
330
93
100
AcDbEntity
  8
_U+30EC_U+30A4_U+30E4_U+30FC 1
 62
   179
420
  2234388
370
    25
100
AcDbVertex
100
AcDb2dVertex
 10
101.500759692778
 20
-145.6021590822518
 30
0.0
  0
VERTEX
  5
A3
330
93
100
AcDbEntity
  8
_U+30EC_U+30A4_U+30E4_U+30FC 1
 62
   179
420
  2234388
370
    25
100
AcDbVertex
100
AcDb2dVertex
 10
102.0341573672052
 20
-145.7891201078669
 30
0.0
  0
VERTEX
  5
A4
330
93
100
AcDbEntity
  8
_U+30EC_U+30A4_U+30E4_U+30FC 1
 62
   179
420
  2234388
370
    25
100
AcDbVertex
100
AcDb2dVertex
 10
102.5583932408263
 20
-145.5764069934996
 30
0.0
  0
VERTEX
  5
A5
330
93
100
AcDbEntity
  8
_U+30EC_U+30A4_U+30E4_U+30FC 1
 62
   179
420
  2234388
370
    25
100
AcDbVertex
100
AcDb2dVertex
 10
103.092490700274
 20
-145.76373406051
 30
0.0
  0
VERTEX
  5
A6
330
93
100
AcDbEntity
  8
_U+30EC_U+30A4_U+30E4_U+30FC 1
 62
   179
420
  2234388
370
    25
100
AcDbVertex
100
AcDb2dVertex
 10
103.614605686987
 20
-145.5513654556915
 30
0.0
  0
VERTEX
  5
A7
330
93
100
AcDbEntity
  8
_U+30EC_U+30A4_U+30E4_U+30FC 1
 62
   179
420
  2234388
370
    25
100
AcDbVertex
100
AcDb2dVertex
 10
104.1465930254499
 20
-145.7383264813063
 30
0.0
  0
VERTEX
  5
A8
330
93
100
AcDbEntity
  8
_U+30EC_U+30A4_U+30E4_U+30FC 1
 62
   179
420
  2234388
370
    25
100
AcDbVertex
100
AcDb2dVertex
 10
104.6694077971834
 20
-145.5256133669392
 30
0.0
  0
VERTEX
  5
A9
330
93
100
AcDbEntity
  8
_U+30EC_U+30A4_U+30E4_U+30FC 1
 62
   179
420
  2234388
370
    25
100
AcDbVertex
100
AcDb2dVertex
 10
105.2031607470825
 20
-145.7129404339497
 30
0.0
  0
VERTEX
  5
AA
330
93
100
AcDbEntity
  8
_U+30EC_U+30A4_U+30E4_U+30FC 1
 62
   179
420
  2234388
370
    25
100
AcDbVertex
100
AcDb2dVertex
 10
105.7277411302521
 20
-145.5002057877355
 30
0.0
  0
VERTEX
  5
AB
330
93
100
AcDbEntity
  8
_U+30EC_U+30A4_U+30E4_U+30FC 1
 62
   179
420
  2234388
370
    25
100
AcDbVertex
100
AcDb2dVertex
 10
106.2614940801512
 20
-145.6871883451975
 30
0.0
  0
VERTEX
  5
AC
330
93
100
AcDbEntity
  8
_U+30EC_U+30A4_U+30E4_U+30FC 1
 62
   179
420
  2234388
370
    25
100
AcDbVertex
100
AcDb2dVertex
 10
106.7846641273566
 20
-145.4747982085318
 30
0.0
  0
VERTEX
  5
AD
330
93
100
AcDbEntity
  8
_U+30EC_U+30A4_U+30E4_U+30FC 1
 62
   179
420
  2234388
370
    25
100
AcDbVertex
100
AcDb2dVertex
 10
107.3177172922352
 20
-145.6621252755423
 30
0.0
  0
VERTEX
  5
AE
330
93
100
AcDbEntity
  8
_U+30EC_U+30A4_U+30E4_U+30FC 1
 62
   179
420
  2234388
370
    25
100
AcDbVertex
100
AcDb2dVertex
 10
107.8408873394406
 20
-145.4494121611745
 30
0.0
  0
VERTEX
  5
AF
330
93
100
AcDbEntity
  8
_U+30EC_U+30A4_U+30E4_U+30FC 1
 62
   179
420
  2234388
370
    25
100
AcDbVertex
100
AcDb2dVertex
 10
108.3739297383959
 20
-145.636739228185
 30
0.0
  0
VERTEX
  5
B0
330
93
100
AcDbEntity
  8
_U+30EC_U+30A4_U+30E4_U+30FC 1
 62
   179
420
  2234388
370
    25
100
AcDbVertex
100
AcDb2dVertex
 10
108.8981548460936
 20
-145.4240045819708
 30
0.0
  0
VERTEX
  5
B1
330
93
100
AcDbEntity
  8
_U+30EC_U+30A4_U+30E4_U+30FC 1
 62
   179
420
  2234388
370
    25
100
AcDbVertex
100
AcDb2dVertex
 10
109.4329736224085
 20
-145.6109871394328
 30
0.0
  0
VERTEX
  5
B2
330
93
100
AcDbEntity
  8
_U+30EC_U+30A4_U+30E4_U+30FC 1
 62
   179
420
  2234388
370
    25
100
AcDbVertex
100
AcDb2dVertex
 10
109.9575540055781
 20
-145.3985970027671
 30
0.0
  0
VERTEX
  5
B3
330
93
100
AcDbEntity
  8
_U+30EC_U+30A4_U+30E4_U+30FC 1
 62
   179
420
  2234388
370
    25
100
AcDbVertex
100
AcDb2dVertex
 10
110.4920067404977
 20
-145.585579560229
 30
0.0
  0
VERTEX
  5
B4
330
93
100
AcDbEntity
  8
_U+30EC_U+30A4_U+30E4_U+30FC 1
 62
   179
420
  2234388
370
    25
100
AcDbVertex
100
AcDb2dVertex
 10
111.015176787703
 20
-145.3732109554102
 30
0.0
  0
VERTEX
  5
B5
330
93
100
AcDbEntity
  8
_U+30EC_U+30A4_U+30E4_U+30FC 1
 62
   179
420
  2234388
370
    25
100
AcDbVertex
100
AcDb2dVertex
 10
111.5485744621302
 20
-145.5601719810253
 30
0.0
  0
VERTEX
  5
B6
330
93
100
AcDbEntity
  8
_U+30EC_U+30A4_U+30E4_U+30FC 1
 62
   179
420
  2234388
370
    25
100
AcDbVertex
100
AcDb2dVertex
 10
112.0731548452999
 20
-145.3478033762065
 30
0.0
  0
VERTEX
  5
B7
330
93
100
AcDbEntity
  8
_U+30EC_U+30A4_U+30E4_U+30FC 1
 62
   179
420
  2234388
370
    25
100
AcDbVertex
100
AcDb2dVertex
 10
112.6072630706709
 20
-145.5347859336684
 30
0.0
  0
VERTEX
  5
B8
330
93
100
AcDbEntity
  8
_U+30EC_U+30A4_U+30E4_U+30FC 1
 62
   179
420
  2234388
370
    25
100
AcDbVertex
100
AcDb2dVertex
 10
113.1325540047844
 20
-145.3223957970027
 30
0.0
  0
VERTEX
  5
B9
330
93
100
AcDbEntity
  8
_U+30EC_U+30A4_U+30E4_U+30FC 1
 62
   179
420
  2234388
370
    25
100
AcDbVertex
100
AcDb2dVertex
 10
113.6666622301554
 20
-145.5093783544647
 30
0.0
  0
VERTEX
  5
BA
330
93
100
AcDbEntity
  8
_U+30EC_U+30A4_U+30E4_U+30FC 1
 62
   179
420
  2234388
370
    25
100
AcDbVertex
100
AcDb2dVertex
 10
114.1919423983455
 20
-145.2966437082505
 30
0.0
  0
VERTEX
  5
BB
330
93
100
AcDbEntity
  8
_U+30EC_U+30A4_U+30E4_U+30FC 1
 62
   179
420
  2234388
370
    25
100
AcDbVertex
100
AcDb2dVertex
 10
114.7274609596808
 20
-145.483970775261
 30
0.0
  0
VERTEX
  5
BC
330
93
100
AcDbEntity
  8
_U+30EC_U+30A4_U+30E4_U+30FC 1
 62
   179
420
  2234388
370
    25
100
AcDbVertex
100
AcDb2dVertex
 10
115.2534516788147
 20
-145.2712576608936
 30
0.0
  0
VERTEX
  5
BD
330
93
100
AcDbEntity
  8
_U+30EC_U+30A4_U+30E4_U+30FC 1
 62
   179
420
  2234388
370
    25
100
AcDbVertex
100
AcDb2dVertex
 10
115.78897024015
 20
-145.4582186865087
 30
0.0
  0
VERTEX
  5
BE
330
93
100
AcDbEntity
  8
_U+30EC_U+30A4_U+30E4_U+30FC 1
 62
   179
420
  2234388
370
    25
100
AcDbVertex
100
AcDb2dVertex
 10
116.3149609592839
 20
-145.2458500816898
 30
0.0
  0
VERTEX
  5
BF
330
93
100
AcDbEntity
  8
_U+30EC_U+30A4_U+30E4_U+30FC 1
 62
   179
420
  2234388
370
    25
100
AcDbVertex
100
AcDb2dVertex
 10
116.8508347960911
 20
-145.4328326391518
 30
0.0
  0
VERTEX
  5
C0
330
93
100
AcDbEntity
  8
_U+30EC_U+30A4_U+30E4_U+30FC 1
 62
   179
420
  2234388
370
    25
100
AcDbVertex
100
AcDb2dVertex
 10
117.3771700247735
 20
-145.2204425024861
 30
0.0
  0
VERTEX
  5
C1
330
93
100
AcDbEntity
  8
_U+30EC_U+30A4_U+30E4_U+30FC 1
 62
   179
420
  2234388
370
    25
100
AcDbVertex
100
AcDb2dVertex
 10
117.9140989220731
 20
-145.4070805503995
 30
0.0
  0
VERTEX
  5
C2
330
93
100
AcDbEntity
  8
_U+30EC_U+30A4_U+30E4_U+30FC 1
 62
   179
420
  2234388
370
    25
100
AcDbVertex
100
AcDb2dVertex
 10
118.4411554676228
 20
-145.1946904137339
 30
0.0
  0
VERTEX
  5
C3
330
93
100
AcDbEntity
  8
_U+30EC_U+30A4_U+30E4_U+30FC 1
 62
   179
420
  2234388
370
    25
100
AcDbVertex
100
AcDb2dVertex
 10
118.9763187534862
 20
-145.3816729711958
 30
0.0
  0
VERTEX
  5
C4
330
93
100
AcDbEntity
  8
_U+30EC_U+30A4_U+30E4_U+30FC 1
 62
   179
420
  2234388
370
    25
100
AcDbVertex
100
AcDb2dVertex
 10
119.5023094726201
 20
-145.1693043663773
 30
0.0
  0
VERTEX
  5
C5
330
93
100
AcDbEntity
  8
_U+30EC_U+30A4_U+30E4_U+30FC 1
 62
   179
420
  2234388
370
    25
100
AcDbVertex
100
AcDb2dVertex
 10
120.0367622075396
 20
-145.3562653919921
 30
0.0
  0
VERTEX
  5
C6
330
93
100
AcDbEntity
  8
_U+30EC_U+30A4_U+30E4_U+30FC 1
 62
   179
420
  2234388
370
    25
100
AcDbVertex
100
AcDb2dVertex
 10
120.5613425907093
 20
-145.143552277625
 30
0.0
  0
VERTEX
  5
C7
330
93
100
AcDbEntity
  8
_U+30EC_U+30A4_U+30E4_U+30FC 1
 62
   179
420
  2234388
370
    25
100
AcDbVertex
100
AcDb2dVertex
 10
121.094395755588
 20
-145.3308793446355
 30
0.0
  0
SEQEND
  5
C8
330
93
100
AcDbEntity
  8
_U+30EC_U+30A4_U+30E4_U+30FC 1
 62
   179
420
  2234388
370
    25
  0
POLYLINE
  5
C9
330
1F
100
AcDbEntity
  8
_U+30EC_U+30A4_U+30E4_U+30FC 1
 62
   179
420
  2234388
370
    25
100
AcDb2dPolyline
 66
     1
 10
0.0
 20
0.0
 30
0.0
  0
VERTEX
  5
CA
330
C9
100
AcDbEntity
  8
_U+30EC_U+30A4_U+30E4_U+30FC 1
 62
   179
420
  2234388
370
    25
100
AcDbVertex
100
AcDb2dVertex
 10
121.0917796362038
 20
-145.230863916329
 30
0.0
  0
VERTEX
  5
CB
330
C9
100
AcDbEntity
  8
_U+30EC_U+30A4_U+30E4_U+30FC 1
 62
   179
420
  2234388
370
    25
100
AcDbVertex
100
AcDb2dVertex
 10
121.0815412430586
 20
-144.8304792254029
 30
0.0
  0
SEQEND
  5
CC
330
C9
100
AcDbEntity
  8
_U+30EC_U+30A4_U+30E4_U+30FC 1
 62
   179
420
  2234388
370
    25
  0
POLYLINE
  5
CD
330
1F
100
AcDbEntity
  8
_U+30EC_U+30A4_U+30E4_U+30FC 1
 62
   179
420
  2234388
370
    25
100
AcDb2dPolyline
 66
     1
 10
0.0
 20
0.0
 30
0.0
  0
VERTEX
  5
CE
330
CD
100
AcDbEntity
  8
_U+30EC_U+30A4_U+30E4_U+30FC 1
 62
   179
420
  2234388
370
    25
100
AcDbVertex
100
AcDb2dVertex
 10
121.0814443497481
 20
-144.8305222890962
 30
0.0
  0
VERTEX
  5
CF
330
CD
100
AcDbEntity
  8
_U+30EC_U+30A4_U+30E4_U+30FC 1
 62
   179
420
  2234388
370
    25
100
AcDbVertex
100
AcDb2dVertex
 10
94.12533778910431
 20
-144.8852131799245
 30
0.0
  0
SEQEND
  5
D0
330
CD
100
AcDbEntity
  8
_U+30EC_U+30A4_U+30E4_U+30FC 1
 62
   179
420
  2234388
370
    25
  0
SPLINE
  5
D1
330
1F
100
AcDbEntity
  8
_U+30EC_U+30A4_U+30E4_U+30FC 1
 62
   179
420
  2234388
370
     9
100
AcDbSpline
210
0.0
220
0.0
230
1.0
 70
    11
 71
     3
 72
    17
 73
    13
 74
     0
 42
0.0000000001
 43
0.0000000001
 12
1.0
 22
0.0
 32
0.0
 13
1.0
 23
0.0
 33
0.0
 40
0.0
 40
0.0
 40
0.0
 40
0.0
 40
1.0
 40
1.0
 40
1.0
 40
2.0
 40
2.0
 40
2.0
 40
3.0
 40
3.0
 40
3.0
 40
4.0
 40
4.0
 40
4.0
 40
4.0
 10
95.08098574486583
 20
-134.62130479626
 30
0.0
 10
95.08098574486583
 20
-134.6763401966369
 30
0.0
 10
95.12578275209746
 20
-134.7211479697919
 30
0.0
 10
95.18081815247433
 20
-134.7211479697919
 30
0.0
 10
95.2358535528512
 20
-134.7211479697919
 30
0.0
 10
95.28065056008283
 20
-134.6763401966369
 30
0.0
 10
95.28065056008283
 20
-134.62130479626
 30
0.0
 10
95.28065056008283
 20
-134.56629092773
 30
0.0
 10
95.2358535528512
 20
-134.5214831545749
 30
0.0
 10
95.18081815247433
 20
-134.5214831545749
 30
0.0
 10
95.12578275209746
 20
-134.5214831545749
 30
0.0
 10
95.08098574486583
 20
-134.56629092773
 30
0.0
 10
95.08098574486583
 20
-134.62130479626
 30
0.0
  0
SPLINE
  5
D2
330
1F
100
AcDbEntity
  8
_U+30EC_U+30A4_U+30E4_U+30FC 1
 62
   179
420
  2234388
370
     9
100
AcDbSpline
210
0.0
220
0.0
230
1.0
 70
    11
 71
     3
 72
    17
 73
    13
 74
     0
 42
0.0000000001
 43
0.0000000001
 12
1.0
 22
0.0
 32
0.0
 13
1.0
 23
0.0
 33
0.0
 40
0.0
 40
0.0
 40
0.0
 40
0.0
 40
1.0
 40
1.0
 40
1.0
 40
2.0
 40
2.0
 40
2.0
 40
3.0
 40
3.0
 40
3.0
 40
4.0
 40
4.0
 40
4.0
 40
4.0
 10
85.95458329489048
 20
-138.7206669778524
 30
0.0
 10
85.95458329489048
 20
-138.7757023782293
 30
0.0
 10
85.99938030212212
 20
-138.8205101513846
 30
0.0
 10
86.05441570249899
 20
-138.8205101513846
 30
0.0
 10
86.10945110287585
 20
-138.8205101513846
 30
0.0
 10
86.15424811010749
 20
-138.7757023782293
 30
0.0
 10
86.15424811010749
 20
-138.7206669778524
 30
0.0
 10
86.15424811010749
 20
-138.6649425583785
 30
0.0
 10
86.10945110287585
 20
-138.6208453361673
 30
0.0
 10
86.05441570249899
 20
-138.6208453361673
 30
0.0
 10
85.99938030212212
 20
-138.6208453361673
 30
0.0
 10
85.95458329489048
 20
-138.6649425583785
 30
0.0
 10
85.95458329489048
 20
-138.7206669778524
 30
0.0
  0
SPLINE
  5
D3
330
1F
100
AcDbEntity
  8
_U+30EC_U+30A4_U+30E4_U+30FC 1
 62
   179
420
  2234388
370
     9
100
AcDbSpline
210
0.0
220
0.0
230
1.0
 70
    11
 71
     3
 72
    17
 73
    13
 74
     0
 42
0.0000000001
 43
0.0000000001
 12
1.0
 22
0.0
 32
0.0
 13
1.0
 23
0.0
 33
0.0
 40
0.0
 40
0.0
 40
0.0
 40
0.0
 40
1.0
 40
1.0
 40
1.0
 40
2.0
 40
2.0
 40
2.0
 40
3.0
 40
3.0
 40
3.0
 40
4.0
 40
4.0
 40
4.0
 40
4.0
 10
121.0807445647277
 20
-134.62130479626
 30
0.0
 10
121.0807445647277
 20
-134.6763401966369
 30
0.0
 10
121.1255415719593
 20
-134.7211479697919
 30
0.0
 10
121.1805769723362
 20
-134.7211479697919
 30
0.0
 10
121.235612372713
 20
-134.7211479697919
 30
0.0
 10
121.2804093799447
 20
-134.6763401966369
 30
0.0
 10
121.2804093799447
 20
-134.62130479626
 30
0.0
 10
121.2804093799447
 20
-134.56629092773
 30
0.0
 10
121.235612372713
 20
-134.5214831545749
 30
0.0
 10
121.1805769723362
 20
-134.5214831545749
 30
0.0
 10
121.1255415719593
 20
-134.5214831545749
 30
0.0
 10
121.0807445647277
 20
-134.56629092773
 30
0.0
 10
121.0807445647277
 20
-134.62130479626
 30
0.0
  0
SPLINE
  5
D4
330
1F
100
AcDbEntity
  8
_U+30EC_U+30A4_U+30E4_U+30FC 1
 62
   179
420
  2234388
370
     9
100
AcDbSpline
210
0.0
220
0.0
230
1.0
 70
    11
 71
     3
 72
    17
 73
    13
 74
     0
 42
0.0000000001
 43
0.0000000001
 12
1.0
 22
0.0
 32
0.0
 13
1.0
 23
0.0
 33
0.0
 40
0.0
 40
0.0
 40
0.0
 40
0.0
 40
1.0
 40
1.0
 40
1.0
 40
2.0
 40
2.0
 40
2.0
 40
3.0
 40
3.0
 40
3.0
 40
4.0
 40
4.0
 40
4.0
 40
4.0
 10
85.95458329489048
 20
-164.7204150317908
 30
0.0
 10
85.95458329489048
 20
-164.7754504321677
 30
0.0
 10
85.99938030212212
 20
-164.8202582053227
 30
0.0
 10
86.05441570249899
 20
-164.8202582053227
 30
0.0
 10
86.10945110287585
 20
-164.8202582053227
 30
0.0
 10
86.15424811010749
 20
-164.7754504321677
 30
0.0
 10
86.15424811010749
 20
-164.7204150317908
 30
0.0
 10
86.15424811010749
 20
-164.6654011632608
 30
0.0
 10
86.10945110287585
 20
-164.6205933901057
 30
0.0
 10
86.05441570249899
 20
-164.6205933901057
 30
0.0
 10
85.99938030212212
 20
-164.6205933901057
 30
0.0
 10
85.95458329489048
 20
-164.6654011632608
 30
0.0
 10
85.95458329489048
 20
-164.7204150317908
 30
0.0
  0
POLYLINE
  5
D5
330
1F
100
AcDbEntity
  8
_U+30EC_U+30A4_U+30E4_U+30FC 1
 62
   179
420
  2234388
370
     9
100
AcDb2dPolyline
 66
     1
 10
0.0
 20
0.0
 30
0.0
  0
VERTEX
  5
D6
330
D5
100
AcDbEntity
  8
_U+30EC_U+30A4_U+30E4_U+30FC 1
 62
   179
420
  2234388
370
     9
100
AcDbVertex
100
AcDb2dVertex
 10
121.1806523337999
 20
-134.62130479626
 30
0.0
  0
VERTEX
  5
D7
330
D5
100
AcDbEntity
  8
_U+30EC_U+30A4_U+30E4_U+30FC 1
 62
   179
420
  2234388
370
     9
100
AcDbVertex
100
AcDb2dVertex
 10
95.18092581170825
 20
-134.62130479626
 30
0.0
  0
SEQEND
  5
D8
330
D5
100
AcDbEntity
  8
_U+30EC_U+30A4_U+30E4_U+30FC 1
 62
   179
420
  2234388
370
     9
  0
POLYLINE
  5
D9
330
1F
100
AcDbEntity
  8
_U+30EC_U+30A4_U+30E4_U+30FC 1
 62
   179
420
  2234388
370
     9
100
AcDb2dPolyline
 66
     1
 10
0.0
 20
0.0
 30
0.0
  0
VERTEX
  5
DA
330
D9
100
AcDbEntity
  8
_U+30EC_U+30A4_U+30E4_U+30FC 1
 62
   179
420
  2234388
370
     9
100
AcDbVertex
100
AcDb2dVertex
 10
121.1806523337999
 20
-136.8813089664307
 30
0.0
  0
VERTEX
  5
DB
330
D9
100
AcDbEntity
  8
_U+30EC_U+30A4_U+30E4_U+30FC 1
 62
   179
420
  2234388
370
     9
100
AcDbVertex
100
AcDb2dVertex
 10
121.1806523337999
 20
-133.6216457456744
 30
0.0
  0
SEQEND
  5
DC
330
D9
100
AcDbEntity
  8
_U+30EC_U+30A4_U+30E4_U+30FC 1
 62
   179
420
  2234388
370
     9
  0
POLYLINE
  5
DD
330
1F
100
AcDbEntity
  8
_U+30EC_U+30A4_U+30E4_U+30FC 1
 62
   179
420
  2234388
370
     9
100
AcDb2dPolyline
 66
     1
 10
0.0
 20
0.0
 30
0.0
  0
VERTEX
  5
DE
330
DD
100
AcDbEntity
  8
_U+30EC_U+30A4_U+30E4_U+30FC 1
 62
   179
420
  2234388
370
     9
100
AcDbVertex
100
AcDb2dVertex
 10
95.1808504502445
 20
-136.6814934282862
 30
0.0
  0
VERTEX
  5
DF
330
DD
100
AcDbEntity
  8
_U+30EC_U+30A4_U+30E4_U+30FC 1
 62
   179
420
  2234388
370
     9
100
AcDbVertex
100
AcDb2dVertex
 10
95.1808504502445
 20
-133.6215165545941
 30
0.0
  0
SEQEND
  5
E0
330
DD
100
AcDbEntity
  8
_U+30EC_U+30A4_U+30E4_U+30FC 1
 62
   179
420
  2234388
370
     9
  0
INSERT
  5
E2
330
1F
100
AcDbEntity
  8
_U+30EC_U+30A4_U+30E4_U+30FC 1
100
AcDbBlockReference
  2
block 3
 10
0.0
 20
0.0
 30
0.0
  0
SPLINE
  5
EA
330
1F
100
AcDbEntity
  8
_U+30EC_U+30A4_U+30E4_U+30FC 1
 62
   179
420
  2234388
370
     9
100
AcDbSpline
210
0.0
220
0.0
230
1.0
 70
    11
 71
     3
 72
    17
 73
    13
 74
     0
 42
0.0000000001
 43
0.0000000001
 12
1.0
 22
0.0
 32
0.0
 13
1.0
 23
0.0
 33
0.0
 40
0.0
 40
0.0
 40
0.0
 40
0.0
 40
1.0
 40
1.0
 40
1.0
 40
2.0
 40
2.0
 40
2.0
 40
3.0
 40
3.0
 40
3.0
 40
4.0
 40
4.0
 40
4.0
 40
4.0
 10
124.0277007746571
 20
-144.8305222890962
 30
0.0
 10
124.0827254091106
 20
-144.8305222890962
 30
0.0
 10
124.1275331822657
 20
-144.7857360477879
 30
0.0
 10
124.1275331822657
 20
-144.7307006474111
 30
0.0
 10
124.1275331822657
 20
-144.6756652470342
 30
0.0
 10
124.0827254091106
 20
-144.6308574738792
 30
0.0
 10
124.0277007746571
 20
-144.6308574738792
 30
0.0
 10
123.9726653742803
 20
-144.6308574738792
 30
0.0
 10
123.9278576011252
 20
-144.6756652470342
 30
0.0
 10
123.9278576011252
 20
-144.7307006474111
 30
0.0
 10
123.9278576011252
 20
-144.7857360477879
 30
0.0
 10
123.9726653742803
 20
-144.8305222890962
 30
0.0
 10
124.0277007746571
 20
-144.8305222890962
 30
0.0
  0
SPLINE
  5
EB
330
1F
100
AcDbEntity
  8
_U+30EC_U+30A4_U+30E4_U+30FC 1
 62
   179
420
  2234388
370
     9
100
AcDbSpline
210
0.0
220
0.0
230
1.0
 70
    11
 71
     3
 72
    17
 73
    13
 74
     0
 42
0.0000000001
 43
0.0000000001
 12
1.0
 22
0.0
 32
0.0
 13
1.0
 23
0.0
 33
0.0
 40
0.0
 40
0.0
 40
0.0
 40
0.0
 40
1.0
 40
1.0
 40
1.0
 40
2.0
 40
2.0
 40
2.0
 40
3.0
 40
3.0
 40
3.0
 40
4.0
 40
4.0
 40
4.0
 40
4.0
 10
124.0277007746571
 20
-138.8309100333804
 30
0.0
 10
124.0827254091106
 20
-138.8309100333804
 30
0.0
 10
124.1275331822657
 20
-138.7861237920721
 30
0.0
 10
124.1275331822657
 20
-138.7307223503
 30
0.0
 10
124.1275331822657
 20
-138.6757084817699
 30
0.0
 10
124.0827254091106
 20
-138.6309007086149
 30
0.0
 10
124.0277007746571
 20
-138.6309007086149
 30
0.0
 10
123.9726653742803
 20
-138.6309007086149
 30
0.0
 10
123.9278576011252
 20
-138.6757084817699
 30
0.0
 10
123.9278576011252
 20
-138.7307223503
 30
0.0
 10
123.9278576011252
 20
-138.7861237920721
 30
0.0
 10
123.9726653742803
 20
-138.8309100333804
 30
0.0
 10
124.0277007746571
 20
-138.8309100333804
 30
0.0
  0
POLYLINE
  5
EC
330
1F
100
AcDbEntity
  8
_U+30EC_U+30A4_U+30E4_U+30FC 1
 62
   179
420
  2234388
370
     9
100
AcDb2dPolyline
 66
     1
 10
0.0
 20
0.0
 30
0.0
  0
VERTEX
  5
ED
330
EC
100
AcDbEntity
  8
_U+30EC_U+30A4_U+30E4_U+30FC 1
 62
   179
420
  2234388
370
     9
100
AcDbVertex
100
AcDb2dVertex
 10
124.0277007746571
 20
-138.7306362229128
 30
0.0
  0
VERTEX
  5
EE
330
EC
100
AcDbEntity
  8
_U+30EC_U+30A4_U+30E4_U+30FC 1
 62
   179
420
  2234388
370
     9
100
AcDbVertex
100
AcDb2dVertex
 10
124.0277007746571
 20
-144.7307006474111
 30
0.0
  0
SEQEND
  5
EF
330
EC
100
AcDbEntity
  8
_U+30EC_U+30A4_U+30E4_U+30FC 1
 62
   179
420
  2234388
370
     9
  0
POLYLINE
  5
F0
330
1F
100
AcDbEntity
  8
_U+30EC_U+30A4_U+30E4_U+30FC 1
 62
   179
420
  2234388
370
     9
100
AcDb2dPolyline
 66
     1
 10
0.0
 20
0.0
 30
0.0
  0
VERTEX
  5
F1
330
F0
100
AcDbEntity
  8
_U+30EC_U+30A4_U+30E4_U+30FC 1
 62
   179
420
  2234388
370
     9
100
AcDbVertex
100
AcDb2dVertex
 10
125.0212663126032
 20
-138.7306362229128
 30
0.0
  0
VERTEX
  5
F2
330
F0
100
AcDbEntity
  8
_U+30EC_U+30A4_U+30E4_U+30FC 1
 62
   179
420
  2234388
370
     9
100
AcDbVertex
100
AcDb2dVertex
 10
121.7615923259235
 20
-138.7306362229128
 30
0.0
  0
SEQEND
  5
F3
330
F0
100
AcDbEntity
  8
_U+30EC_U+30A4_U+30E4_U+30FC 1
 62
   179
420
  2234388
370
     9
  0
POLYLINE
  5
F4
330
1F
100
AcDbEntity
  8
_U+30EC_U+30A4_U+30E4_U+30FC 1
 62
   179
420
  2234388
370
     9
100
AcDb2dPolyline
 66
     1
 10
0.0
 20
0.0
 30
0.0
  0
VERTEX
  5
F5
330
F4
100
AcDbEntity
  8
_U+30EC_U+30A4_U+30E4_U+30FC 1
 62
   179
420
  2234388
370
     9
100
AcDbVertex
100
AcDb2dVertex
 10
125.0212663126032
 20
-144.7306145200239
 30
0.0
  0
VERTEX
  5
F6
330
F4
100
AcDbEntity
  8
_U+30EC_U+30A4_U+30E4_U+30FC 1
 62
   179
420
  2234388
370
     9
100
AcDbVertex
100
AcDb2dVertex
 10
121.7615923259235
 20
-144.7306145200239
 30
0.0
  0
SEQEND
  5
F7
330
F4
100
AcDbEntity
  8
_U+30EC_U+30A4_U+30E4_U+30FC 1
 62
   179
420
  2234388
370
     9
  0
INSERT
  5
F9
330
1F
100
AcDbEntity
  8
_U+30EC_U+30A4_U+30E4_U+30FC 1
100
AcDbBlockReference
  2
block 4
 10
0.0
 20
0.0
 30
0.0
  0
POLYLINE
  5
FF
330
1F
100
AcDbEntity
  8
_U+30EC_U+30A4_U+30E4_U+30FC 1
 62
   179
420
  2234388
370
     9
100
AcDb2dPolyline
 66
     1
 10
0.0
 20
0.0
 30
0.0
  0
VERTEX
  5
100
330
FF
100
AcDbEntity
  8
_U+30EC_U+30A4_U+30E4_U+30FC 1
 62
   179
420
  2234388
370
     9
100
AcDbVertex
100
AcDb2dVertex
 10
86.05449106396273
 20
-138.7206669778524
 30
0.0
  0
VERTEX
  5
101
330
FF
100
AcDbEntity
  8
_U+30EC_U+30A4_U+30E4_U+30FC 1
 62
   179
420
  2234388
370
     9
100
AcDbVertex
100
AcDb2dVertex
 10
86.05449106396273
 20
-164.720393499944
 30
0.0
  0
SEQEND
  5
102
330
FF
100
AcDbEntity
  8
_U+30EC_U+30A4_U+30E4_U+30FC 1
 62
   179
420
  2234388
370
     9
  0
POLYLINE
  5
103
330
1F
100
AcDbEntity
  8
_U+30EC_U+30A4_U+30E4_U+30FC 1
 62
   179
420
  2234388
370
     9
100
AcDb2dPolyline
 66
     1
 10
0.0
 20
0.0
 30
0.0
  0
VERTEX
  5
104
330
103
100
AcDbEntity
  8
_U+30EC_U+30A4_U+30E4_U+30FC 1
 62
   179
420
  2234388
370
     9
100
AcDbVertex
100
AcDb2dVertex
 10
84.76459348466823
 20
-138.7206669778524
 30
0.0
  0
VERTEX
  5
105
330
103
100
AcDbEntity
  8
_U+30EC_U+30A4_U+30E4_U+30FC 1
 62
   179
420
  2234388
370
     9
100
AcDbVertex
100
AcDb2dVertex
 10
89.12456637379634
 20
-138.7206669778524
 30
0.0
  0
SEQEND
  5
106
330
103
100
AcDbEntity
  8
_U+30EC_U+30A4_U+30E4_U+30FC 1
 62
   179
420
  2234388
370
     9
  0
POLYLINE
  5
107
330
1F
100
AcDbEntity
  8
_U+30EC_U+30A4_U+30E4_U+30FC 1
 62
   179
420
  2234388
370
     9
100
AcDb2dPolyline
 66
     1
 10
0.0
 20
0.0
 30
0.0
  0
VERTEX
  5
108
330
107
100
AcDbEntity
  8
_U+30EC_U+30A4_U+30E4_U+30FC 1
 62
   179
420
  2234388
370
     9
100
AcDbVertex
100
AcDb2dVertex
 10
84.76459348466823
 20
-164.7204150317908
 30
0.0
  0
VERTEX
  5
109
330
107
100
AcDbEntity
  8
_U+30EC_U+30A4_U+30E4_U+30FC 1
 62
   179
420
  2234388
370
     9
100
AcDbVertex
100
AcDb2dVertex
 10
89.12456637379634
 20
-164.7204150317908
 30
0.0
  0
SEQEND
  5
10A
330
107
100
AcDbEntity
  8
_U+30EC_U+30A4_U+30E4_U+30FC 1
 62
   179
420
  2234388
370
     9
  0
INSERT
  5
10C
330
1F
100
AcDbEntity
  8
_U+30EC_U+30A4_U+30E4_U+30FC 1
100
AcDbBlockReference
  2
block 5
 10
0.0
 20
0.0
 30
0.0
  0
POLYLINE
  5
114
330
1F
100
AcDbEntity
  8
_U+30EC_U+30A4_U+30E4_U+30FC 1
 62
   179
420
  2234388
370
    25
100
AcDb2dPolyline
 66
     1
 10
0.0
 20
0.0
 30
0.0
  0
VERTEX
  5
115
330
114
100
AcDbEntity
  8
_U+30EC_U+30A4_U+30E4_U+30FC 1
 62
   179
420
  2234388
370
    25
100
AcDbVertex
100
AcDb2dVertex
 10
92.07580742123561
 20
-139.6400983673255
 30
0.0
  0
VERTEX
  5
116
330
114
100
AcDbEntity
  8
_U+30EC_U+30A4_U+30E4_U+30FC 1
 62
   179
420
  2234388
370
    25
100
AcDbVertex
100
AcDb2dVertex
 10
94.07569611634685
 20
-139.6400983673255
 30
0.0
  0
SEQEND
  5
117
330
114
100
AcDbEntity
  8
_U+30EC_U+30A4_U+30E4_U+30FC 1
 62
   179
420
  2234388
370
    25
  0
POLYLINE
  5
118
330
1F
100
AcDbEntity
  8
_U+30EC_U+30A4_U+30E4_U+30FC 1
 62
   179
420
  2234388
370
    25
100
AcDb2dPolyline
 66
     1
 10
0.0
 20
0.0
 30
0.0
  0
VERTEX
  5
119
330
118
100
AcDbEntity
  8
_U+30EC_U+30A4_U+30E4_U+30FC 1
 62
   179
420
  2234388
370
    25
100
AcDbVertex
100
AcDb2dVertex
 10
91.08122988649076
 20
-138.6207592087802
 30
0.0
  0
VERTEX
  5
11A
330
118
100
AcDbEntity
  8
_U+30EC_U+30A4_U+30E4_U+30FC 1
 62
   179
420
  2234388
370
    25
100
AcDbVertex
100
AcDb2dVertex
 10
95.081018042636
 20
-138.6207592087802
 30
0.0
  0
SEQEND
  5
11B
330
118
100
AcDbEntity
  8
_U+30EC_U+30A4_U+30E4_U+30FC 1
 62
   179
420
  2234388
370
    25
  0
POLYLINE
  5
11C
330
1F
100
AcDbEntity
  8
_U+30EC_U+30A4_U+30E4_U+30FC 1
 62
   179
420
  2234388
370
    25
100
AcDb2dPolyline
 66
     1
 10
0.0
 20
0.0
 30
0.0
  0
VERTEX
  5
11D
330
11C
100
AcDbEntity
  8
_U+30EC_U+30A4_U+30E4_U+30FC 1
 62
   179
420
  2234388
370
    25
100
AcDbVertex
100
AcDb2dVertex
 10
95.08098574486583
 20
-144.7575077966557
 30
0.0
  0
VERTEX
  5
11E
330
11C
100
AcDbEntity
  8
_U+30EC_U+30A4_U+30E4_U+30FC 1
 62
   179
420
  2234388
370
    25
100
AcDbVertex
100
AcDb2dVertex
 10
95.08098574486583
 20
-138.7574649040045
 30
0.0
  0
SEQEND
  5
11F
330
11C
100
AcDbEntity
  8
_U+30EC_U+30A4_U+30E4_U+30FC 1
 62
   179
420
  2234388
370
    25
  0
POLYLINE
  5
120
330
1F
100
AcDbEntity
  8
_U+30EC_U+30A4_U+30E4_U+30FC 1
 62
   179
420
  2234388
370
    25
100
AcDb2dPolyline
 66
     1
 10
0.0
 20
0.0
 30
0.0
  0
VERTEX
  5
121
330
120
100
AcDbEntity
  8
_U+30EC_U+30A4_U+30E4_U+30FC 1
 62
   179
420
  2234388
370
    25
100
AcDbVertex
100
AcDb2dVertex
 10
94.07570688226993
 20
-145.8179081870156
 30
0.0
  0
VERTEX
  5
122
330
120
100
AcDbEntity
  8
_U+30EC_U+30A4_U+30E4_U+30FC 1
 62
   179
420
  2234388
370
    25
100
AcDbVertex
100
AcDb2dVertex
 10
94.07570688226993
 20
-139.6400768354785
 30
0.0
  0
SEQEND
  5
123
330
120
100
AcDbEntity
  8
_U+30EC_U+30A4_U+30E4_U+30FC 1
 62
   179
420
  2234388
370
    25
  0
POLYLINE
  5
124
330
1F
100
AcDbEntity
  8
_U+30EC_U+30A4_U+30E4_U+30FC 1
 62
   179
420
  2234388
370
     9
100
AcDb2dPolyline
 66
     1
 10
0.0
 20
0.0
 30
0.0
  0
VERTEX
  5
125
330
124
100
AcDbEntity
  8
_U+30EC_U+30A4_U+30E4_U+30FC 1
 62
   179
420
  2234388
370
     9
100
AcDbVertex
100
AcDb2dVertex
 10
91.65409543607086
 20
-137.6502542787385
 30
0.0
  0
VERTEX
  5
126
330
124
100
AcDbEntity
  8
_U+30EC_U+30A4_U+30E4_U+30FC 1
 62
   179
420
  2234388
370
     9
100
AcDbVertex
100
AcDb2dVertex
 10
92.2111243123425
 20
-138.4810605868533
 30
0.0
  0
SEQEND
  5
127
330
124
100
AcDbEntity
  8
_U+30EC_U+30A4_U+30E4_U+30FC 1
 62
   179
420
  2234388
370
     9
  0
POLYLINE
  5
128
330
1F
100
AcDbEntity
  8
_U+30EC_U+30A4_U+30E4_U+30FC 1
 62
   179
420
  2234388
370
     9
100
AcDb2dPolyline
 66
     1
 10
0.0
 20
0.0
 30
0.0
  0
VERTEX
  5
129
330
128
100
AcDbEntity
  8
_U+30EC_U+30A4_U+30E4_U+30FC 1
 62
   179
420
  2234388
370
     9
100
AcDbVertex
100
AcDb2dVertex
 10
92.14438635323886
 20
-137.4835331890992
 30
0.0
  0
VERTEX
  5
12A
330
128
100
AcDbEntity
  8
_U+30EC_U+30A4_U+30E4_U+30FC 1
 62
   179
420
  2234388
370
     9
100
AcDbVertex
100
AcDb2dVertex
 10
92.21105971680184
 20
-138.481189777934
 30
0.0
  0
SEQEND
  5
12B
330
128
100
AcDbEntity
  8
_U+30EC_U+30A4_U+30E4_U+30FC 1
 62
   179
420
  2234388
370
     9
  0
POLYLINE
  5
12C
330
1F
100
AcDbEntity
  8
_U+30EC_U+30A4_U+30E4_U+30FC 1
 62
   179
420
  2234388
370
     9
100
AcDb2dPolyline
 66
     1
 10
0.0
 20
0.0
 30
0.0
  0
VERTEX
  5
12D
330
12C
100
AcDbEntity
  8
_U+30EC_U+30A4_U+30E4_U+30FC 1
 62
   179
420
  2234388
370
     9
100
AcDbVertex
100
AcDb2dVertex
 10
91.43534263868088
 20
-136.1209979246829
 30
0.0
  0
VERTEX
  5
12E
330
12C
100
AcDbEntity
  8
_U+30EC_U+30A4_U+30E4_U+30FC 1
 62
   179
420
  2234388
370
     9
100
AcDbVertex
100
AcDb2dVertex
 10
92.21109201457202
 20
-138.4810821187004
 30
0.0
  0
SEQEND
  5
12F
330
12C
100
AcDbEntity
  8
_U+30EC_U+30A4_U+30E4_U+30FC 1
 62
   179
420
  2234388
370
     9
  0
INSERT
  5
131
330
1F
100
AcDbEntity
  8
_U+30EC_U+30A4_U+30E4_U+30FC 1
100
AcDbBlockReference
  2
block 6
 10
0.0
 20
0.0
 30
0.0
  0
POLYLINE
  5
18C
330
1F
100
AcDbEntity
  8
_U+30EC_U+30A4_U+30E4_U+30FC 1
 62
   179
420
  2234388
370
    25
100
AcDb2dPolyline
 66
     1
 10
0.0
 20
0.0
 30
0.0
  0
VERTEX
  5
18D
330
18C
100
AcDbEntity
  8
_U+30EC_U+30A4_U+30E4_U+30FC 1
 62
   179
420
  2234388
370
    25
100
AcDbVertex
100
AcDb2dVertex
 10
91.08122988649076
 20
-139.6400983673255
 30
0.0
  0
VERTEX
  5
18E
330
18C
100
AcDbEntity
  8
_U+30EC_U+30A4_U+30E4_U+30FC 1
 62
   179
420
  2234388
370
    25
100
AcDbVertex
100
AcDb2dVertex
 10
92.07569976200169
 20
-139.6400983673255
 30
0.0
  0
SEQEND
  5
18F
330
18C
100
AcDbEntity
  8
_U+30EC_U+30A4_U+30E4_U+30FC 1
 62
   179
420
  2234388
370
    25
  0
POLYLINE
  5
190
330
1F
100
AcDbEntity
  8
_U+30EC_U+30A4_U+30E4_U+30FC 1
  6
AI-Linetype-1
 62
   154
420
    23468
370
    25
100
AcDb2dPolyline
 66
     1
 10
0.0
 20
0.0
 30
0.0
  0
VERTEX
  5
191
330
190
100
AcDbEntity
  8
_U+30EC_U+30A4_U+30E4_U+30FC 1
  6
AI-Linetype-1
 62
   154
420
    23468
370
    25
100
AcDbVertex
100
AcDb2dVertex
 10
121.0814443497481
 20
-144.3304236157189
 30
0.0
  0
VERTEX
  5
192
330
190
100
AcDbEntity
  8
_U+30EC_U+30A4_U+30E4_U+30FC 1
  6
AI-Linetype-1
 62
   154
420
    23468
370
    25
100
AcDbVertex
100
AcDb2dVertex
 10
106.081326352196
 20
-144.3304236157189
 30
0.0
  0
SEQEND
  5
194
330
190
100
AcDbEntity
  8
_U+30EC_U+30A4_U+30E4_U+30FC 1
  6
AI-Linetype-1
 62
   154
420
    23468
370
    25
  0
POLYLINE
  5
195
330
1F
100
AcDbEntity
  8
_U+30EC_U+30A4_U+30E4_U+30FC 1
 62
   179
420
  2234388
370
     9
100
AcDb2dPolyline
 66
     1
 10
0.0
 20
0.0
 30
0.0
  0
VERTEX
  5
196
330
195
100
AcDbEntity
  8
_U+30EC_U+30A4_U+30E4_U+30FC 1
 62
   179
420
  2234388
370
     9
100
AcDbVertex
100
AcDb2dVertex
 10
111.9546650924541
 20
-144.4112757003881
 30
0.0
  0
VERTEX
  5
197
330
195
100
AcDbEntity
  8
_U+30EC_U+30A4_U+30E4_U+30FC 1
 62
   179
420
  2234388
370
     9
100
AcDbVertex
100
AcDb2dVertex
 10
111.9546650924541
 20
-154.2890534756964
 30
0.0
  0
SEQEND
  5
198
330
195
100
AcDbEntity
  8
_U+30EC_U+30A4_U+30E4_U+30FC 1
 62
   179
420
  2234388
370
     9
  0
INSERT
  5
19A
330
1F
100
AcDbEntity
  8
_U+30EC_U+30A4_U+30E4_U+30FC 1
100
AcDbBlockReference
  2
block 7
 10
0.0
 20
0.0
 30
0.0
  0
POLYLINE
  5
1C1
330
1F
100
AcDbEntity
  8
_U+30EC_U+30A4_U+30E4_U+30FC 1
  6
AI-Linetype-2
 62
   154
420
    23468
370
    25
100
AcDb2dPolyline
 66
     1
 10
0.0
 20
0.0
 30
0.0
  0
VERTEX
  5
1C2
330
1C1
100
AcDbEntity
  8
_U+30EC_U+30A4_U+30E4_U+30FC 1
  6
AI-Linetype-2
 62
   154
420
    23468
370
    25
100
AcDbVertex
100
AcDb2dVertex
 10
90.52637572674449
 20
-164.6208948359607
 30
0.0
  0
VERTEX
  5
1C3
330
1C1
100
AcDbEntity
  8
_U+30EC_U+30A4_U+30E4_U+30FC 1
  6
AI-Linetype-2
 62
   154
420
    23468
370
    25
100
AcDbVertex
100
AcDb2dVertex
 10
90.52637572674449
 20
-149.6207983702554
 30
0.0
  0
SEQEND
  5
1C5
330
1C1
100
AcDbEntity
  8
_U+30EC_U+30A4_U+30E4_U+30FC 1
  6
AI-Linetype-2
 62
   154
420
    23468
370
    25
  0
POLYLINE
  5
1C6
330
1F
100
AcDbEntity
  8
_U+30EC_U+30A4_U+30E4_U+30FC 1
 62
   179
420
  2234388
370
     9
100
AcDb2dPolyline
 66
     1
 10
0.0
 20
0.0
 30
0.0
  0
VERTEX
  5
1C7
330
1C6
100
AcDbEntity
  8
_U+30EC_U+30A4_U+30E4_U+30FC 1
 62
   179
420
  2234388
370
     9
100
AcDbVertex
100
AcDb2dVertex
 10
106.1934534443175
 20
-155.8177500017357
 30
0.0
  0
VERTEX
  5
1C8
330
1C6
100
AcDbEntity
  8
_U+30EC_U+30A4_U+30E4_U+30FC 1
 62
   179
420
  2234388
370
     9
100
AcDbVertex
100
AcDb2dVertex
 10
90.55375346992884
 20
-155.8177500017357
 30
0.0
  0
SEQEND
  5
1C9
330
1C6
100
AcDbEntity
  8
_U+30EC_U+30A4_U+30E4_U+30FC 1
 62
   179
420
  2234388
370
     9
  0
ENDSEC
  0
SECTION
  2
OBJECTS
  0
DICTIONARY
  5
C
330
0
100
AcDbDictionary
281
     1
  3
ACAD_GROUP
350
D
  3
ACAD_LAYOUT
350
1A
  3
ACAD_MATERIAL
350
3B
  3
ACAD_MLEADERSTYLE
350
1CB
  3
ACAD_MLINESTYLE
350
17
  3
ACAD_PLOTSETTINGS
350
19
  3
ACAD_PLOTSTYLENAME
350
E
  3
ACAD_TABLESTYLE
350
1CA
  3
ACAD_VISUALSTYLE
350
2A
  0
SUN
  5
3F
330
29
100
AcDbSun
 90
        1
290
     0
 63
     7
421
 16777215
 40
1.0
291
     1
 91
  2455826
 92
 54000000
292
     0
 70
     2
 71
   256
280
     1
  0
DICTIONARY
  5
D
102
{ACAD_REACTORS
330
C
102
}
330
C
100
AcDbDictionary
281
     1
  0
DICTIONARY
  5
1A
102
{ACAD_REACTORS
330
C
102
}
330
C
100
AcDbDictionary
281
     1
  3
Layout1
350
1E
  3
Layout2
350
26
  3
Model
350
22
  0
DICTIONARY
  5
3B
102
{ACAD_REACTORS
330
C
102
}
330
C
100
AcDbDictionary
281
     1
  3
ByBlock
350
3D
  3
ByLayer
350
3C
  3
Global
350
3E
  0
DICTIONARY
  5
1CB
102
{ACAD_REACTORS
330
C
102
}
330
C
100
AcDbDictionary
281
     1
  0
DICTIONARY
  5
17
102
{ACAD_REACTORS
330
C
102
}
330
C
100
AcDbDictionary
281
     1
  3
Standard
350
18
  0
DICTIONARY
  5
19
102
{ACAD_REACTORS
330
C
102
}
330
C
100
AcDbDictionary
281
     1
  0
ACDBDICTIONARYWDFLT
  5
E
102
{ACAD_REACTORS
330
C
102
}
330
C
100
AcDbDictionary
281
     1
  3
Normal
350
F
100
AcDbDictionaryWithDefault
340
F
  0
DICTIONARY
  5
1CA
102
{ACAD_REACTORS
330
C
102
}
330
C
100
AcDbDictionary
281
     1
  0
DICTIONARY
  5
2A
102
{ACAD_REACTORS
330
C
102
}
330
C
100
AcDbDictionary
281
     1
  3
2dWireframe
350
2F
  3
3D Hidden
350
31
  3
3dWireframe
350
30
  3
Basic
350
32
  3
Brighten
350
36
  3
ColorChange
350
3A
  3
Conceptual
350
34
  3
Dim
350
35
  3
Facepattern
350
39
  3
Flat
350
2B
  3
FlatWithEdges
350
2C
  3
Gouraud
350
2D
  3
GouraudWithEdges
350
2E
  3
Linepattern
350
38
  3
Realistic
350
33
  3
Thicken
350
37
  0
LAYOUT
  5
1E
102
{ACAD_REACTORS
330
1A
102
}
330
1A
100
AcDbPlotSettings
  1

  2
none_device
  4

  6

 40
0.0
 41
0.0
 42
0.0
 43
0.0
 44
0.0
 45
0.0
 46
0.0
 47
0.0
 48
0.0
 49
0.0
140
0.0
141
0.0
142
1.0
143
1.0
 70
   688
 72
     0
 73
     0
 74
     5
  7

 75
    16
 76
     0
 77
     2
 78
   300
147
1.0
148
0.0
149
0.0
100
AcDbLayout
  1
Layout1
 70
     1
 71
     1
 10
0.0
 20
0.0
 11
12.0
 21
9.0
 12
0.0
 22
0.0
 32
0.0
 14
1.000000000000000E+20
 24
1.000000000000000E+20
 34
1.000000000000000E+20
 15
-1.000000000000000E+20
 25
-1.000000000000000E+20
 35
-1.000000000000000E+20
146
0.0
 13
0.0
 23
0.0
 33
0.0
 16
1.0
 26
0.0
 36
0.0
 17
0.0
 27
1.0
 37
0.0
 76
     0
330
1B
  0
LAYOUT
  5
26
102
{ACAD_REACTORS
330
1A
102
}
330
1A
100
AcDbPlotSettings
  1

  2
none_device
  4

  6

 40
0.0
 41
0.0
 42
0.0
 43
0.0
 44
0.0
 45
0.0
 46
0.0
 47
0.0
 48
0.0
 49
0.0
140
0.0
141
0.0
142
1.0
143
1.0
 70
   688
 72
     0
 73
     0
 74
     5
  7

 75
    16
 76
     0
 77
     2
 78
   300
147
1.0
148
0.0
149
0.0
100
AcDbLayout
  1
Layout2
 70
     1
 71
     2
 10
0.0
 20
0.0
 11
0.0
 21
0.0
 12
0.0
 22
0.0
 32
0.0
 14
0.0
 24
0.0
 34
0.0
 15
0.0
 25
0.0
 35
0.0
146
0.0
 13
0.0
 23
0.0
 33
0.0
 16
1.0
 26
0.0
 36
0.0
 17
0.0
 27
1.0
 37
0.0
 76
     0
330
23
  0
LAYOUT
  5
22
102
{ACAD_REACTORS
330
1A
102
}
330
1A
100
AcDbPlotSettings
  1

  2
none_device
  4

  6

 40
0.0
 41
0.0
 42
0.0
 43
0.0
 44
0.0
 45
0.0
 46
0.0
 47
0.0
 48
0.0
 49
0.0
140
0.0
141
0.0
142
1.0
143
1.0
 70
  1712
 72
     0
 73
     0
 74
     0
  7

 75
     0
 76
     0
 77
     2
 78
   300
147
1.0
148
0.0
149
0.0
100
AcDbLayout
  1
Model
 70
     1
 71
     0
 10
0.0
 20
0.0
 11
12.0
 21
9.0
 12
0.0
 22
0.0
 32
0.0
 14
1.000000000000000E+20
 24
1.000000000000000E+20
 34
1.000000000000000E+20
 15
-1.000000000000000E+20
 25
-1.000000000000000E+20
 35
-1.000000000000000E+20
146
0.0
 13
0.0
 23
0.0
 33
0.0
 16
1.0
 26
0.0
 36
0.0
 17
0.0
 27
1.0
 37
0.0
 76
     0
330
1F
331
29
  0
MATERIAL
  5
3D
102
{ACAD_REACTORS
330
3B
102
}
330
3B
100
AcDbMaterial
  1
ByBlock
 72
     1
 94
      127
  0
MATERIAL
  5
3C
102
{ACAD_REACTORS
330
3B
102
}
330
3B
100
AcDbMaterial
  1
ByLayer
 72
     1
 94
      127
  0
MATERIAL
  5
3E
102
{ACAD_REACTORS
330
3B
102
}
330
3B
100
AcDbMaterial
  1
Global
 72
     1
 94
      127
  0
MLINESTYLE
  5
18
102
{ACAD_REACTORS
330
17
102
}
330
17
100
AcDbMlineStyle
  2
Standard
 70
     0
  3

 62
   256
 51
90.0
 52
90.0
 71
     2
 49
0.5
 62
   256
  6
BYLAYER
 49
-0.5
 62
   256
  6
BYLAYER
  0
ACDBPLACEHOLDER
  5
F
102
{ACAD_REACTORS
330
E
102
}
330
E
  0
VISUALSTYLE
  5
2F
102
{ACAD_REACTORS
330
2A
102
}
330
2A
100
AcDbVisualStyle
  2
2dWireframe
 70
     4
177
     2
291
     0
 71
     0
176
     1
 72
     2
176
     1
 73
     0
176
     1
 90
        0
176
     1
 40
-0.6
176
     1
 41
-30.0
176
     1
 62
     5
 63
     7
421
 16777215
176
     1
 74
     1
176
     1
 91
        4
176
     1
 64
     7
176
     1
 65
   257
176
     1
 75
     1
176
     1
175
     1
176
     1
 42
1.0
176
     1
 92
        0
176
     1
 66
   257
176
     1
 43
1.0
176
     1
 76
     1
176
     1
 77
     6
176
     1
 78
     2
176
     1
 67
     7
176
     1
 79
     5
176
     1
170
     0
176
     1
171
     0
176
     1
290
     0
176
     1
 93
        1
176
     1
 44
0.0
176
     1
173
     0
176
     1
  0
VISUALSTYLE
  5
31
102
{ACAD_REACTORS
330
2A
102
}
330
2A
100
AcDbVisualStyle
  2
3D Hidden
 70
     6
177
     2
291
     0
 71
     1
176
     1
 72
     2
176
     1
 73
     2
176
     1
 90
        0
176
     1
 40
-0.6
176
     1
 41
-30.0
176
     1
 62
     5
 63
     7
421
 16777215
176
     1
 74
     2
176
     1
 91
        2
176
     1
 64
     7
176
     1
 65
   257
176
     1
 75
     2
176
     1
175
     1
176
     1
 42
40.0
176
     1
 92
        0
176
     1
 66
   257
176
     1
 43
1.0
176
     1
 76
     1
176
     1
 77
     6
176
     1
 78
     2
176
     1
 67
     7
176
     1
 79
     3
176
     1
170
     0
176
     1
171
     0
176
     1
290
     0
176
     1
 93
        1
176
     1
 44
0.0
176
     1
173
     0
176
     1
  0
VISUALSTYLE
  5
30
102
{ACAD_REACTORS
330
2A
102
}
330
2A
100
AcDbVisualStyle
  2
3dWireframe
 70
     5
177
     2
291
     0
 71
     0
176
     1
 72
     2
176
     1
 73
     0
176
     1
 90
        0
176
     1
 40
-0.6
176
     1
 41
-30.0
176
     1
 62
     5
 63
     7
421
 16777215
176
     1
 74
     1
176
     1
 91
        4
176
     1
 64
     7
176
     1
 65
   257
176
     1
 75
     1
176
     1
175
     1
176
     1
 42
1.0
176
     1
 92
        0
176
     1
 66
   257
176
     1
 43
1.0
176
     1
 76
     1
176
     1
 77
     6
176
     1
 78
     2
176
     1
 67
     7
176
     1
 79
     5
176
     1
170
     0
176
     1
171
     0
176
     1
290
     0
176
     1
 93
        1
176
     1
 44
0.0
176
     1
173
     0
176
     1
  0
VISUALSTYLE
  5
32
102
{ACAD_REACTORS
330
2A
102
}
330
2A
100
AcDbVisualStyle
  2
Basic
 70
     7
177
     2
291
     1
 71
     1
176
     1
 72
     0
176
     1
 73
     1
176
     1
 90
        0
176
     1
 40
-0.6
176
     1
 41
-30.0
176
     1
 62
     5
 63
     7
421
 16777215
176
     1
 74
     0
176
     1
 91
        4
176
     1
 64
     7
176
     1
 65
   257
176
     1
 75
     1
176
     1
175
     1
176
     1
 42
1.0
176
     1
 92
        8
176
     1
 66
     7
176
     1
 43
1.0
176
     1
 76
     1
176
     1
 77
     6
176
     1
 78
     2
176
     1
 67
     7
176
     1
 79
     5
176
     1
170
     0
176
     1
171
     0
176
     1
290
     0
176
     1
 93
        1
176
     1
 44
0.0
176
     1
173
     0
176
     1
  0
VISUALSTYLE
  5
36
102
{ACAD_REACTORS
330
2A
102
}
330
2A
100
AcDbVisualStyle
  2
Brighten
 70
    12
177
     2
291
     1
 71
     2
176
     1
 72
     2
176
     1
 73
     0
176
     1
 90
        0
176
     1
 40
-0.6
176
     1
 41
-30.0
176
     1
 62
     5
 63
     7
421
 16777215
176
     1
 74
     1
176
     1
 91
        4
176
     1
 64
     7
176
     1
 65
   257
176
     1
 75
     1
176
     1
175
     1
176
     1
 42
1.0
176
     1
 92
        8
176
     1
 66
     7
176
     1
 43
1.0
176
     1
 76
     1
176
     1
 77
     6
176
     1
 78
     2
176
     1
 67
     7
176
     1
 79
     5
176
     1
170
     0
176
     1
171
     0
176
     1
290
     0
176
     1
 93
        1
176
     1
 44
50.0
176
     1
173
     0
176
     1
  0
VISUALSTYLE
  5
3A
102
{ACAD_REACTORS
330
2A
102
}
330
2A
100
AcDbVisualStyle
  2
ColorChange
 70
    16
177
     2
291
     1
 71
     2
176
     1
 72
     2
176
     1
 73
     3
176
     1
 90
        0
176
     1
 40
-0.6
176
     1
 41
-30.0
176
     1
 62
     5
 63
     8
421
  8421504
176
     1
 74
     1
176
     1
 91
        4
176
     1
 64
     7
176
     1
 65
   257
176
     1
 75
     1
176
     1
175
     1
176
     1
 42
1.0
176
     1
 92
        8
176
     1
 66
     8
424
  8421504
176
     1
 43
1.0
176
     1
 76
     1
176
     1
 77
     6
176
     1
 78
     2
176
     1
 67
     7
176
     1
 79
     5
176
     1
170
     0
176
     1
171
     0
176
     1
290
     0
176
     1
 93
        1
176
     1
 44
0.0
176
     1
173
     0
176
     1
  0
VISUALSTYLE
  5
34
102
{ACAD_REACTORS
330
2A
102
}
330
2A
100
AcDbVisualStyle
  2
Conceptual
 70
     9
177
     2
291
     0
 71
     3
176
     1
 72
     2
176
     1
 73
     0
176
     1
 90
        0
176
     1
 40
-0.6
176
     1
 41
-30.0
176
     1
 62
     5
 63
     7
421
 16777215
176
     1
 74
     2
176
     1
 91
        2
176
     1
 64
     7
176
     1
 65
   257
176
     1
 75
     1
176
     1
175
     1
176
     1
 42
40.0
176
     1
 92
        8
176
     1
 66
     7
176
     1
 43
1.0
176
     1
 76
     1
176
     1
 77
     6
176
     1
 78
     2
176
     1
 67
     7
176
     1
 79
     3
176
     1
170
     0
176
     1
171
     0
176
     1
290
     0
176
     1
 93
        1
176
     1
 44
0.0
176
     1
173
     0
176
     1
  0
VISUALSTYLE
  5
35
102
{ACAD_REACTORS
330
2A
102
}
330
2A
100
AcDbVisualStyle
  2
Dim
 70
    11
177
     2
291
     1
 71
     2
176
     1
 72
     2
176
     1
 73
     0
176
     1
 90
        0
176
     1
 40
-0.6
176
     1
 41
-30.0
176
     1
 62
     5
 63
     7
421
 16777215
176
     1
 74
     1
176
     1
 91
        4
176
     1
 64
     7
176
     1
 65
   257
176
     1
 75
     1
176
     1
175
     1
176
     1
 42
1.0
176
     1
 92
        8
176
     1
 66
     7
176
     1
 43
1.0
176
     1
 76
     1
176
     1
 77
     6
176
     1
 78
     2
176
     1
 67
     7
176
     1
 79
     5
176
     1
170
     0
176
     1
171
     0
176
     1
290
     0
176
     1
 93
        1
176
     1
 44
-50.0
176
     1
173
     0
176
     1
  0
VISUALSTYLE
  5
39
102
{ACAD_REACTORS
330
2A
102
}
330
2A
100
AcDbVisualStyle
  2
Facepattern
 70
    15
177
     2
291
     1
 71
     2
176
     1
 72
     2
176
     1
 73
     0
176
     1
 90
        0
176
     1
 40
-0.6
176
     1
 41
-30.0
176
     1
 62
     5
 63
     7
421
 16777215
176
     1
 74
     1
176
     1
 91
        4
176
     1
 64
     7
176
     1
 65
   257
176
     1
 75
     1
176
     1
175
     1
176
     1
 42
1.0
176
     1
 92
        8
176
     1
 66
     7
176
     1
 43
1.0
176
     1
 76
     1
176
     1
 77
     6
176
     1
 78
     2
176
     1
 67
     7
176
     1
 79
     5
176
     1
170
     0
176
     1
171
     0
176
     1
290
     0
176
     1
 93
        1
176
     1
 44
0.0
176
     1
173
     0
176
     1
  0
VISUALSTYLE
  5
2B
102
{ACAD_REACTORS
330
2A
102
}
330
2A
100
AcDbVisualStyle
  2
Flat
 70
     0
177
     2
291
     1
 71
     2
176
     1
 72
     1
176
     1
 73
     1
176
     1
 90
        2
176
     1
 40
-0.6
176
     1
 41
30.0
176
     1
 62
     5
 63
     7
421
 16777215
176
     1
 74
     0
176
     1
 91
        4
176
     1
 64
     7
176
     1
 65
   257
176
     1
 75
     1
176
     1
175
     1
176
     1
 42
1.0
176
     1
 92
        8
176
     1
 66
     7
176
     1
 43
1.0
176
     1
 76
     1
176
     1
 77
     6
176
     1
 78
     2
176
     1
 67
     7
176
     1
 79
     5
176
     1
170
     0
176
     1
171
     0
176
     1
290
     0
176
     1
 93
       13
176
     1
 44
0.0
176
     1
173
     0
176
     1
  0
VISUALSTYLE
  5
2C
102
{ACAD_REACTORS
330
2A
102
}
330
2A
100
AcDbVisualStyle
  2
FlatWithEdges
 70
     1
177
     2
291
     1
 71
     2
176
     1
 72
     1
176
     1
 73
     1
176
     1
 90
        2
176
     1
 40
-0.6
176
     1
 41
30.0
176
     1
 62
     5
 63
     7
421
 16777215
176
     1
 74
     1
176
     1
 91
        4
176
     1
 64
     7
176
     1
 65
   257
176
     1
 75
     1
176
     1
175
     1
176
     1
 42
1.0
176
     1
 92
        0
176
     1
 66
   257
176
     1
 43
1.0
176
     1
 76
     1
176
     1
 77
     6
176
     1
 78
     2
176
     1
 67
     7
176
     1
 79
     5
176
     1
170
     0
176
     1
171
     0
176
     1
290
     0
176
     1
 93
       13
176
     1
 44
0.0
176
     1
173
     0
176
     1
  0
VISUALSTYLE
  5
2D
102
{ACAD_REACTORS
330
2A
102
}
330
2A
100
AcDbVisualStyle
  2
Gouraud
 70
     2
177
     2
291
     1
 71
     2
176
     1
 72
     2
176
     1
 73
     1
176
     1
 90
        2
176
     1
 40
-0.6
176
     1
 41
30.0
176
     1
 62
     5
 63
     7
421
 16777215
176
     1
 74
     0
176
     1
 91
        4
176
     1
 64
     7
176
     1
 65
   257
176
     1
 75
     1
176
     1
175
     1
176
     1
 42
1.0
176
     1
 92
        0
176
     1
 66
     7
176
     1
 43
1.0
176
     1
 76
     1
176
     1
 77
     6
176
     1
 78
     2
176
     1
 67
     7
176
     1
 79
     5
176
     1
170
     0
176
     1
171
     0
176
     1
290
     0
176
     1
 93
       13
176
     1
 44
0.0
176
     1
173
     0
176
     1
  0
VISUALSTYLE
  5
2E
102
{ACAD_REACTORS
330
2A
102
}
330
2A
100
AcDbVisualStyle
  2
GouraudWithEdges
 70
     3
177
     2
291
     1
 71
     2
176
     1
 72
     2
176
     1
 73
     1
176
     1
 90
        2
176
     1
 40
-0.6
176
     1
 41
30.0
176
     1
 62
     5
 63
     7
421
 16777215
176
     1
 74
     1
176
     1
 91
        4
176
     1
 64
     7
176
     1
 65
   257
176
     1
 75
     1
176
     1
175
     1
176
     1
 42
1.0
176
     1
 92
        0
176
     1
 66
   257
176
     1
 43
1.0
176
     1
 76
     1
176
     1
 77
     6
176
     1
 78
     2
176
     1
 67
     7
176
     1
 79
     5
176
     1
170
     0
176
     1
171
     0
176
     1
290
     0
176
     1
 93
       13
176
     1
 44
0.0
176
     1
173
     0
176
     1
  0
VISUALSTYLE
  5
38
102
{ACAD_REACTORS
330
2A
102
}
330
2A
100
AcDbVisualStyle
  2
Linepattern
 70
    14
177
     2
291
     1
 71
     2
176
     1
 72
     2
176
     1
 73
     0
176
     1
 90
        0
176
     1
 40
-0.6
176
     1
 41
-30.0
176
     1
 62
     5
 63
     7
421
 16777215
176
     1
 74
     1
176
     1
 91
        4
176
     1
 64
     7
176
     1
 65
   257
176
     1
 75
     7
176
     1
175
     7
176
     1
 42
1.0
176
     1
 92
        8
176
     1
 66
     7
176
     1
 43
1.0
176
     1
 76
     1
176
     1
 77
     6
176
     1
 78
     2
176
     1
 67
     7
176
     1
 79
     5
176
     1
170
     0
176
     1
171
     0
176
     1
290
     0
176
     1
 93
        1
176
     1
 44
0.0
176
     1
173
     0
176
     1
  0
VISUALSTYLE
  5
33
102
{ACAD_REACTORS
330
2A
102
}
330
2A
100
AcDbVisualStyle
  2
Realistic
 70
     8
177
     2
291
     0
 71
     2
176
     1
 72
     2
176
     1
 73
     0
176
     1
 90
        0
176
     1
 40
-0.6
176
     1
 41
-30.0
176
     1
 62
     5
 63
     7
421
 16777215
176
     1
 74
     1
176
     1
 91
        0
176
     1
 64
     7
176
     1
 65
   257
176
     1
 75
     1
176
     1
175
     1
176
     1
 42
1.0
176
     1
 92
        8
176
     1
 66
     8
424
  7895160
176
     1
 43
1.0
176
     1
 76
     1
176
     1
 77
     6
176
     1
 78
     2
176
     1
 67
     7
176
     1
 79
     5
176
     1
170
     0
176
     1
171
     0
176
     1
290
     0
176
     1
 93
       13
176
     1
 44
0.0
176
     1
173
     0
176
     1
  0
VISUALSTYLE
  5
37
102
{ACAD_REACTORS
330
2A
102
}
330
2A
100
AcDbVisualStyle
  2
Thicken
 70
    13
177
     2
291
     1
 71
     2
176
     1
 72
     2
176
     1
 73
     0
176
     1
 90
        0
176
     1
 40
-0.6
176
     1
 41
-30.0
176
     1
 62
     5
 63
     7
421
 16777215
176
     1
 74
     1
176
     1
 91
        4
176
     1
 64
     7
176
     1
 65
   257
176
     1
 75
     1
176
     1
175
     1
176
     1
 42
1.0
176
     1
 92
       12
176
     1
 66
     7
176
     1
 43
1.0
176
     1
 76
     1
176
     1
 77
     6
176
     1
 78
     2
176
     1
 67
     7
176
     1
 79
     5
176
     1
170
     0
176
     1
171
     0
176
     1
290
     0
176
     1
 93
        1
176
     1
 44
0.0
176
     1
173
     0
176
     1
  0
ENDSEC
  0
EOF
