  0
SECTION
  2
HEADER
  9
$ACADVER
  1
AC1024
  9
$ACADMAINTVER
 70
     6
  9
$DWGCODEPAGE
  3
UNDEFINED
  9
$INSBASE
 10
0.0
 20
0.0
 30
0.0
  9
$EXTMIN
 10
1.000000000000000E+20
 20
1.000000000000000E+20
 30
1.000000000000000E+20
  9
$EXTMAX
 10
-1.000000000000000E+20
 20
-1.000000000000000E+20
 30
-1.000000000000000E+20
  9
$LIMMIN
 10
0.0
 20
0.0
  9
$LIMMAX
 10
12.0
 20
9.0
  9
$ORTHOMODE
 70
     0
  9
$REGENMODE
 70
     1
  9
$FILLMODE
 70
     1
  9
$QTEXTMODE
 70
     0
  9
$MIRRTEXT
 70
     1
  9
$LTSCALE
 40
1.0
  9
$ATTMODE
 70
     1
  9
$TEXTSIZE
 40
0.2
  9
$TRACEWID
 40
0.05
  9
$TEXTSTYLE
  7
Standard
  9
$CLAYER
  8
0
  9
$CELTYPE
  6
ByLayer
  9
$CECOLOR
 62
   256
  9
$CELTSCALE
 40
1.0
  9
$DISPSILH
 70
     0
  9
$DIMSCALE
 40
1.0
  9
$DIMASZ
 40
0.18
  9
$DIMEXO
 40
0.0625
  9
$DIMDLI
 40
0.38
  9
$DIMRND
 40
0.0
  9
$DIMDLE
 40
0.0
  9
$DIMEXE
 40
0.18
  9
$DIMTP
 40
0.0
  9
$DIMTM
 40
0.0
  9
$DIMTXT
 40
0.18
  9
$DIMCEN
 40
0.09
  9
$DIMTSZ
 40
0.0
  9
$DIMTOL
 70
     0
  9
$DIMLIM
 70
     0
  9
$DIMTIH
 70
     1
  9
$DIMTOH
 70
     1
  9
$DIMSE1
 70
     0
  9
$DIMSE2
 70
     0
  9
$DIMTAD
 70
     0
  9
$DIMZIN
 70
     0
  9
$DIMBLK
  1

  9
$DIMASO
 70
     1
  9
$DIMSHO
 70
     1
  9
$DIMPOST
  1

  9
$DIMAPOST
  1

  9
$DIMALT
 70
     0
  9
$DIMALTD
 70
     2
  9
$DIMALTF
 40
25.4
  9
$DIMLFAC
 40
1.0
  9
$DIMTOFL
 70
     0
  9
$DIMTVP
 40
0.0
  9
$DIMTIX
 70
     0
  9
$DIMSOXD
 70
     0
  9
$DIMSAH
 70
     0
  9
$DIMBLK1
  1

  9
$DIMBLK2
  1

  9
$DIMSTYLE
  2
Standard
  9
$DIMCLRD
 70
     0
  9
$DIMCLRE
 70
     0
  9
$DIMCLRT
 70
     0
  9
$DIMTFAC
 40
1.0
  9
$DIMGAP
 40
0.09
  9
$DIMJUST
 70
     0
  9
$DIMSD1
 70
     0
  9
$DIMSD2
 70
     0
  9
$DIMTOLJ
 70
     1
  9
$DIMTZIN
 70
     0
  9
$DIMALTZ
 70
     0
  9
$DIMALTTZ
 70
     0
  9
$DIMUPT
 70
     0
  9
$DIMDEC
 70
     4
  9
$DIMTDEC
 70
     4
  9
$DIMALTU
 70
     2
  9
$DIMALTTD
 70
     2
  9
$DIMTXSTY
  7
Standard
  9
$DIMAUNIT
 70
     0
  9
$DIMADEC
 70
     0
  9
$DIMALTRND
 40
0.0
  9
$DIMAZIN
 70
     0
  9
$DIMDSEP
 70
    46
  9
$DIMATFIT
 70
     3
  9
$DIMFRAC
 70
     0
  9
$DIMLDRBLK
  1

  9
$DIMLUNIT
 70
     2
  9
$DIMLWD
 70
    -2
  9
$DIMLWE
 70
    -2
  9
$DIMTMOVE
 70
     0
  9
$DIMFXL
 40
1.0
  9
$DIMFXLON
 70
     0
  9
$DIMJOGANG
 40
0.7853981633974483
  9
$DIMTFILL
 70
     0
  9
$DIMTFILLCLR
 70
     0
  9
$DIMARCSYM
 70
     0
  9
$DIMLTYPE
  6

  9
$DIMLTEX1
  6

  9
$DIMLTEX2
  6

  9
$DIMTXTDIRECTION
 70
     0
  9
$LUNITS
 70
     2
  9
$LUPREC
 70
     4
  9
$SKETCHINC
 40
0.1
  9
$FILLETRAD
 40
0.5
  9
$AUNITS
 70
     0
  9
$AUPREC
 70
     0
  9
$MENU
  1
.
  9
$ELEVATION
 40
0.0
  9
$PELEVATION
 40
0.0
  9
$THICKNESS
 40
0.0
  9
$LIMCHECK
 70
     0
  9
$CHAMFERA
 40
0.5
  9
$CHAMFERB
 40
0.5
  9
$CHAMFERC
 40
1.0
  9
$CHAMFERD
 40
0.0
  9
$SKPOLY
 70
     0
  9
$TDCREATE
 40
2458270.587534722
  9
$TDUCREATE
 40
2458270.212534722
  9
$TDUPDATE
 40
2458270.587534722
  9
$TDUUPDATE
 40
2458270.212534722
  9
$TDINDWG
 40
0.0000000116
  9
$TDUSRTIMER
 40
0.0000000116
  9
$USRTIMER
 70
     1
  9
$ANGBASE
 50
0.0
  9
$ANGDIR
 70
     0
  9
$PDMODE
 70
     0
  9
$PDSIZE
 40
0.0
  9
$PLINEWID
 40
0.0
  9
$SPLFRAME
 70
     0
  9
$SPLINETYPE
 70
     6
  9
$SPLINESEGS
 70
     8
  9
$HANDSEED
  5
192
  9
$SURFTAB1
 70
     6
  9
$SURFTAB2
 70
     6
  9
$SURFTYPE
 70
     6
  9
$SURFU
 70
     6
  9
$SURFV
 70
     6
  9
$UCSBASE
  2

  9
$UCSNAME
  2

  9
$UCSORG
 10
0.0
 20
0.0
 30
0.0
  9
$UCSXDIR
 10
1.0
 20
0.0
 30
0.0
  9
$UCSYDIR
 10
0.0
 20
1.0
 30
0.0
  9
$UCSORTHOREF
  2

  9
$UCSORTHOVIEW
 70
     0
  9
$UCSORGTOP
 10
0.0
 20
0.0
 30
0.0
  9
$UCSORGBOTTOM
 10
0.0
 20
0.0
 30
0.0
  9
$UCSORGLEFT
 10
0.0
 20
0.0
 30
0.0
  9
$UCSORGRIGHT
 10
0.0
 20
0.0
 30
0.0
  9
$UCSORGFRONT
 10
0.0
 20
0.0
 30
0.0
  9
$UCSORGBACK
 10
0.0
 20
0.0
 30
0.0
  9
$PUCSBASE
  2

  9
$PUCSNAME
  2

  9
$PUCSORG
 10
0.0
 20
0.0
 30
0.0
  9
$PUCSXDIR
 10
1.0
 20
0.0
 30
0.0
  9
$PUCSYDIR
 10
0.0
 20
1.0
 30
0.0
  9
$PUCSORTHOREF
  2

  9
$PUCSORTHOVIEW
 70
     0
  9
$PUCSORGTOP
 10
0.0
 20
0.0
 30
0.0
  9
$PUCSORGBOTTOM
 10
0.0
 20
0.0
 30
0.0
  9
$PUCSORGLEFT
 10
0.0
 20
0.0
 30
0.0
  9
$PUCSORGRIGHT
 10
0.0
 20
0.0
 30
0.0
  9
$PUCSORGFRONT
 10
0.0
 20
0.0
 30
0.0
  9
$PUCSORGBACK
 10
0.0
 20
0.0
 30
0.0
  9
$USERI1
 70
     0
  9
$USERI2
 70
     0
  9
$USERI3
 70
     0
  9
$USERI4
 70
     0
  9
$USERI5
 70
     0
  9
$USERR1
 40
0.0
  9
$USERR2
 40
0.0
  9
$USERR3
 40
0.0
  9
$USERR4
 40
0.0
  9
$USERR5
 40
0.0
  9
$WORLDVIEW
 70
     1
  9
$SHADEDGE
 70
     3
  9
$SHADEDIF
 70
    70
  9
$TILEMODE
 70
     1
  9
$MAXACTVP
 70
    64
  9
$PINSBASE
 10
0.0
 20
0.0
 30
0.0
  9
$PLIMCHECK
 70
     0
  9
$PEXTMIN
 10
1.000000000000000E+20
 20
1.000000000000000E+20
 30
1.000000000000000E+20
  9
$PEXTMAX
 10
-1.000000000000000E+20
 20
-1.000000000000000E+20
 30
-1.000000000000000E+20
  9
$PLIMMIN
 10
0.0
 20
0.0
  9
$PLIMMAX
 10
12.0
 20
9.0
  9
$UNITMODE
 70
     0
  9
$VISRETAIN
 70
     1
  9
$PLINEGEN
 70
     0
  9
$PSLTSCALE
 70
     1
  9
$TREEDEPTH
 70
  3020
  9
$CMLSTYLE
  2
Standard
  9
$CMLJUST
 70
     0
  9
$CMLSCALE
 40
1.0
  9
$PROXYGRAPHICS
 70
     1
  9
$MEASUREMENT
 70
     0
  9
$CELWEIGHT
370
    -1
  9
$ENDCAPS
280
     0
  9
$JOINSTYLE
280
     0
  9
$LWDISPLAY
290
     1
  9
$INSUNITS
 70
     1
  9
$HYPERLINKBASE
  1

  9
$STYLESHEET
  1

  9
$XEDIT
290
     1
  9
$CEPSNTYPE
380
     0
  9
$PSTYLEMODE
290
     1
  9
$FINGERPRINTGUID
  2
{09E53AF2-5D1D-2CAD-4A6C-26DCCD7559AE}
  9
$VERSIONGUID
  2
{FAEB1C32-E019-11D5-929B-00C0DF256EC4}
  9
$EXTNAMES
290
     1
  9
$PSVPSCALE
 40
0.0
  9
$OLESTARTUP
290
     0
  9
$SORTENTS
280
   127
  9
$INDEXCTL
280
     0
  9
$HIDETEXT
280
     1
  9
$XCLIPFRAME
280
     2
  9
$HALOGAP
280
     0
  9
$OBSCOLOR
 70
   257
  9
$OBSLTYPE
280
     0
  9
$INTERSECTIONDISPLAY
280
     0
  9
$INTERSECTIONCOLOR
 70
   257
  9
$DIMASSOC
280
     2
  9
$PROJECTNAME
  1

  9
$CAMERADISPLAY
290
     0
  9
$LENSLENGTH
 40
50.0
  9
$CAMERAHEIGHT
 40
0.0
  9
$STEPSPERSEC
 40
2.0
  9
$STEPSIZE
 40
6.0
  9
$3DDWFPREC
 40
2.0
  9
$PSOLWIDTH
 40
0.25
  9
$PSOLHEIGHT
 40
4.0
  9
$LOFTANG1
 40
1.570796326794897
  9
$LOFTANG2
 40
1.570796326794897
  9
$LOFTMAG1
 40
0.0
  9
$LOFTMAG2
 40
0.0
  9
$LOFTPARAM
 70
     7
  9
$LOFTNORMALS
280
     1
  9
$LATITUDE
 40
37.795
  9
$LONGITUDE
 40
-122.394
  9
$NORTHDIRECTION
 40
0.0
  9
$TIMEZONE
 70
 -8000
  9
$LIGHTGLYPHDISPLAY
280
     1
  9
$TILEMODELIGHTSYNCH
280
     1
  9
$CMATERIAL
347
3C
  9
$SOLIDHIST
280
     1
  9
$SHOWHIST
280
     1
  9
$DWFFRAME
280
     2
  9
$DGNFRAME
280
     2
  9
$REALWORLDSCALE
290
     1
  9
$INTERFERECOLOR
 62
   256
  9
$CSHADOW
280
     0
  9
$SHADOWPLANELOCATION
 40
0.0
  0
ENDSEC
  0
SECTION
  2
CLASSES
  0
CLASS
  1
ACDBDICTIONARYWDFLT
  2
AcDbDictionaryWithDefault
  3
ObjectDBX Classes
 90
        0
 91
        4
280
     0
281
     0
  0
CLASS
  1
VISUALSTYLE
  2
AcDbVisualStyle
  3
ObjectDBX Classes
 90
     4095
 91
        4
280
     0
281
     0
  0
CLASS
  1
MATERIAL
  2
AcDbMaterial
  3
ObjectDBX Classes
 90
     1153
 91
        4
280
     0
281
     0
  0
CLASS
  1
SUN
  2
AcDbSun
  3
SCENEOE
 90
     1024
 91
        4
280
     0
281
     0
  0
ENDSEC
  0
SECTION
  2
TABLES
  0
TABLE
  2
VPORT
  5
8
330
0
100
AcDbSymbolTable
 70
     1
  0
VPORT
  5
29
330
8
100
AcDbSymbolTableRecord
100
AcDbViewportTableRecord
  2
*Active
 70
     0
 10
0.0
 20
0.0
 11
1.0
 21
1.0
 12
0.0
 22
0.0
 13
0.0
 23
0.0
 14
0.5
 24
0.5
 15
0.5
 25
0.5
 16
0.0
 26
0.0
 36
1.0
 17
105.0007777515277
 27
-148.5000416295416
 37
0.0
 40
297.0000832590831
 41
0.7070757462376333
 42
50.0
 43
0.0
 44
0.0
 50
0.0
 51
0.0
 71
     0
 72
   100
 73
     1
 74
     3
 75
     0
 76
     0
 77
     0
 78
     0
281
     0
 65
     1
110
0.0
120
0.0
130
0.0
111
1.0
121
0.0
131
0.0
112
0.0
122
1.0
132
0.0
 79
     0
146
0.0
 60
     3
 61
     5
292
     1
282
     1
141
0.0
142
0.0
 63
   250
361
3F
  0
ENDTAB
  0
TABLE
  2
LTYPE
  5
5
330
0
100
AcDbSymbolTable
 70
     1
  0
LTYPE
  5
14
330
5
100
AcDbSymbolTableRecord
100
AcDbLinetypeTableRecord
  2
ByBlock
 70
     0
  3

 72
    65
 73
     0
 40
0.0
  0
LTYPE
  5
15
330
5
100
AcDbSymbolTableRecord
100
AcDbLinetypeTableRecord
  2
ByLayer
 70
     0
  3

 72
    65
 73
     0
 40
0.0
  0
LTYPE
  5
16
330
5
100
AcDbSymbolTableRecord
100
AcDbLinetypeTableRecord
  2
Continuous
 70
     0
  3
Solid line
 72
    65
 73
     0
 40
0.0
  0
ENDTAB
  0
TABLE
  2
LAYER
  5
2
330
0
100
AcDbSymbolTable
 70
     2
  0
LAYER
  5
10
330
2
100
AcDbSymbolTableRecord
100
AcDbLayerTableRecord
  2
0
 70
     0
 62
     7
  6
Continuous
370
    -3
390
F
347
3E
  0
LAYER
  5
40
330
2
100
AcDbSymbolTableRecord
100
AcDbLayerTableRecord
  2
_U+30EC_U+30A4_U+30E4_U+30FC 1
 70
     0
 62
     7
  6
Continuous
370
    -3
390
F
347
3E
  0
ENDTAB
  0
TABLE
  2
STYLE
  5
3
330
0
100
AcDbSymbolTable
 70
     1
  0
STYLE
  5
11
330
3
100
AcDbSymbolTableRecord
100
AcDbTextStyleTableRecord
  2
Standard
 70
     0
 40
0.0
 41
1.0
 50
0.0
 71
     0
 42
0.2
  3
txt
  4

  0
ENDTAB
  0
TABLE
  2
VIEW
  5
6
330
0
100
AcDbSymbolTable
 70
     0
  0
ENDTAB
  0
TABLE
  2
UCS
  5
7
330
0
100
AcDbSymbolTable
 70
     0
  0
ENDTAB
  0
TABLE
  2
APPID
  5
9
330
0
100
AcDbSymbolTable
 70
     1
  0
APPID
  5
12
330
9
100
AcDbSymbolTableRecord
100
AcDbRegAppTableRecord
  2
ACAD
 70
     0
  0
ENDTAB
  0
TABLE
  2
DIMSTYLE
  5
A
330
0
100
AcDbSymbolTable
 70
     1
100
AcDbDimStyleTable
  0
DIMSTYLE
105
27
330
A
100
AcDbSymbolTableRecord
100
AcDbDimStyleTableRecord
  2
Standard
 70
     0
178
     0
340
11
  0
ENDTAB
  0
TABLE
  2
BLOCK_RECORD
  5
1
330
0
100
AcDbSymbolTable
 70
     6
  0
BLOCK_RECORD
  5
1F
330
1
100
AcDbSymbolTableRecord
100
AcDbBlockTableRecord
  2
*Model_Space
340
22
 70
     0
280
     1
281
     0
  0
BLOCK_RECORD
  5
1B
330
1
100
AcDbSymbolTableRecord
100
AcDbBlockTableRecord
  2
*Paper_Space
340
1E
 70
     0
280
     1
281
     0
  0
BLOCK_RECORD
  5
23
330
1
100
AcDbSymbolTableRecord
100
AcDbBlockTableRecord
  2
*Paper_Space0
340
26
 70
     0
280
     1
281
     0
  0
BLOCK_RECORD
  5
4F
330
1
100
AcDbSymbolTableRecord
100
AcDbBlockTableRecord
  2
block 2
340
0
102
{BLKREFS
331
50
102
}
 70
     0
280
     1
281
     0
  0
BLOCK_RECORD
  5
E1
330
1
100
AcDbSymbolTableRecord
100
AcDbBlockTableRecord
  2
block 3
340
0
102
{BLKREFS
331
E2
102
}
 70
     0
280
     1
281
     0
  0
BLOCK_RECORD
  5
F8
330
1
100
AcDbSymbolTableRecord
100
AcDbBlockTableRecord
  2
block 4
340
0
102
{BLKREFS
331
F9
102
}
 70
     0
280
     1
281
     0
  0
BLOCK_RECORD
  5
10B
330
1
100
AcDbSymbolTableRecord
100
AcDbBlockTableRecord
  2
block 5
340
0
102
{BLKREFS
331
10C
102
}
 70
     0
280
     1
281
     0
  0
BLOCK_RECORD
  5
130
330
1
100
AcDbSymbolTableRecord
100
AcDbBlockTableRecord
  2
block 6
340
0
102
{BLKREFS
331
131
102
}
 70
     0
280
     1
281
     0
  0
ENDTAB
  0
ENDSEC
  0
SECTION
  2
BLOCKS
  0
BLOCK
  5
20
330
1F
100
AcDbEntity
  8
0
100
AcDbBlockBegin
  2
*Model_Space
 70
     0
 10
0.0
 20
0.0
 30
0.0
  3
*Model_Space
  1

  0
ENDBLK
  5
21
330
1F
100
AcDbEntity
  8
0
100
AcDbBlockEnd
  0
BLOCK
  5
1C
330
1B
100
AcDbEntity
 67
     1
  8
0
100
AcDbBlockBegin
  2
*Paper_Space
 70
     0
 10
0.0
 20
0.0
 30
0.0
  3
*Paper_Space
  1

  0
ENDBLK
  5
1D
330
1B
100
AcDbEntity
 67
     1
  8
0
100
AcDbBlockEnd
  0
BLOCK
  5
24
330
23
100
AcDbEntity
  8
0
100
AcDbBlockBegin
  2
*Paper_Space0
 70
     0
 10
0.0
 20
0.0
 30
0.0
  3
*Paper_Space0
  1

  0
ENDBLK
  5
25
330
23
100
AcDbEntity
  8
0
100
AcDbBlockEnd
  0
BLOCK
  5
51
330
4F
100
AcDbEntity
  8
0
100
AcDbBlockBegin
  2
block 2
 70
     0
 10
0.0
 20
0.0
 30
0.0
  3
block 2
  1

  0
SPLINE
  5
53
330
4F
100
AcDbEntity
  8
_U+30EC_U+30A4_U+30E4_U+30FC 1
370
     0
100
AcDbSpline
210
0.0
220
0.0
230
1.0
 70
    11
 71
     3
 72
    44
 73
    40
 74
     0
 42
0.0000000001
 43
0.0000000001
 12
1.0
 22
0.0
 32
0.0
 13
1.0
 23
0.0
 33
0.0
 40
0.0
 40
0.0
 40
0.0
 40
0.0
 40
1.0
 40
1.0
 40
1.0
 40
2.0
 40
2.0
 40
2.0
 40
3.0
 40
3.0
 40
3.0
 40
4.0
 40
4.0
 40
4.0
 40
5.0
 40
5.0
 40
5.0
 40
6.0
 40
6.0
 40
6.0
 40
7.0
 40
7.0
 40
7.0
 40
8.0
 40
8.0
 40
8.0
 40
9.0
 40
9.0
 40
9.0
 40
10.0
 40
10.0
 40
10.0
 40
11.0
 40
11.0
 40
11.0
 40
12.0
 40
12.0
 40
12.0
 40
13.0
 40
13.0
 40
13.0
 40
13.0
 10
93.30610484863529
 20
-163.4394639348346
 30
0.0
 10
93.08820255919323
 20
-163.5979383271561
 30
0.0
 10
92.99501272631723
 20
-163.672007880089
 30
0.0
 10
92.9464368799752
 20
-163.8160128713724
 30
0.0
 10
92.9464368799752
 20
-163.8160128713724
 30
0.0
 10
93.72485620486741
 20
-163.8160128713724
 30
0.0
 10
93.72485620486741
 20
-163.8160128713724
 30
0.0
 10
93.72485620486741
 20
-163.8160128713724
 30
0.0
 10
93.72485620486741
 20
-164.0209960527447
 30
0.0
 10
93.72485620486741
 20
-164.0209960527447
 30
0.0
 10
93.72485620486741
 20
-164.0209960527447
 30
0.0
 10
92.69683971206885
 20
-164.0209960527447
 30
0.0
 10
92.69683971206885
 20
-164.0209960527447
 30
0.0
 10
92.72853459053314
 20
-163.6633951413758
 30
0.0
 10
92.7939914047529
 20
-163.5851914738606
 30
0.0
 10
93.17915308000383
 20
-163.286846204838
 30
0.0
 10
93.43512367455789
 20
-163.0880641953391
 30
0.0
 10
93.50058048877764
 20
-163.0205403238282
 30
0.0
 10
93.50058048877764
 20
-162.8830810139667
 30
0.0
 10
93.50058048877764
 20
-162.7645697292741
 30
0.0
 10
93.42875024791017
 20
-162.6333115912861
 30
0.0
 10
93.23203529570242
 20
-162.6333115912861
 30
0.0
 10
92.97175833179179
 20
-162.6333115912861
 30
0.0
 10
92.96331784785292
 20
-162.8637884792493
 30
0.0
 10
92.95901147849636
 20
-162.9802327066508
 30
0.0
 10
92.95901147849636
 20
-162.9802327066508
 30
0.0
 10
92.73490801718086
 20
-162.9802327066508
 30
0.0
 10
92.73490801718086
 20
-162.9802327066508
 30
0.0
 10
92.74334850111973
 20
-162.8534531927936
 30
0.0
 10
92.75385604234974
 20
-162.7411430799744
 30
0.0
 10
92.83429902193032
 20
-162.6226317952818
 30
0.0
 10
92.94419756790978
 20
-162.4620903456692
 30
0.0
 10
93.13040497888754
 20
-162.4279839003652
 30
0.0
 10
93.24684920628899
 20
-162.4279839003652
 30
0.0
 10
93.52400713807734
 20
-162.4279839003652
 30
0.0
 10
93.73122963151512
 20
-162.6122965088261
 30
0.0
 10
93.73122963151512
 20
-162.8851480712579
 30
0.0
 10
93.73122963151512
 20
-163.11355790193
 30
0.0
 10
93.61495765888793
 20
-163.2131211614537
 30
0.0
 10
93.30610484863529
 20
-163.4394639348346
 30
0.0
  0
HATCH
  5
54
330
4F
100
AcDbEntity
  8
_U+30EC_U+30A4_U+30E4_U+30FC 1
 62
   179
420
  2234388
100
AcDbHatch
 10
0.0
 20
0.0
 30
0.0
210
0.0
220
0.0
230
1.0
  2
SOLID
 70
     1
 71
     0
 91
        1
 92
        1
 93
        1
 72
     4
 94
        3
 73
     0
 74
     1
 95
       44
 96
       40
 40
0.0
 40
0.0
 40
0.0
 40
0.0
 40
1.0
 40
1.0
 40
1.0
 40
2.0
 40
2.0
 40
2.0
 40
3.0
 40
3.0
 40
3.0
 40
4.0
 40
4.0
 40
4.0
 40
5.0
 40
5.0
 40
5.0
 40
6.0
 40
6.0
 40
6.0
 40
7.0
 40
7.0
 40
7.0
 40
8.0
 40
8.0
 40
8.0
 40
9.0
 40
9.0
 40
9.0
 40
10.0
 40
10.0
 40
10.0
 40
11.0
 40
11.0
 40
11.0
 40
12.0
 40
12.0
 40
12.0
 40
13.0
 40
13.0
 40
13.0
 40
13.0
 10
93.30610484863529
 20
-163.4394639348346
 10
93.08820255919323
 20
-163.5979383271561
 10
92.99501272631723
 20
-163.672007880089
 10
92.9464368799752
 20
-163.8160128713724
 10
92.9464368799752
 20
-163.8160128713724
 10
93.72485620486741
 20
-163.8160128713724
 10
93.72485620486741
 20
-163.8160128713724
 10
93.72485620486741
 20
-163.8160128713724
 10
93.72485620486741
 20
-164.0209960527447
 10
93.72485620486741
 20
-164.0209960527447
 10
93.72485620486741
 20
-164.0209960527447
 10
92.69683971206885
 20
-164.0209960527447
 10
92.69683971206885
 20
-164.0209960527447
 10
92.72853459053314
 20
-163.6633951413758
 10
92.7939914047529
 20
-163.5851914738606
 10
93.17915308000383
 20
-163.286846204838
 10
93.43512367455789
 20
-163.0880641953391
 10
93.50058048877764
 20
-163.0205403238282
 10
93.50058048877764
 20
-162.8830810139667
 10
93.50058048877764
 20
-162.7645697292741
 10
93.42875024791017
 20
-162.6333115912861
 10
93.23203529570242
 20
-162.6333115912861
 10
92.97175833179179
 20
-162.6333115912861
 10
92.96331784785292
 20
-162.8637884792493
 10
92.95901147849636
 20
-162.9802327066508
 10
92.95901147849636
 20
-162.9802327066508
 10
92.73490801718086
 20
-162.9802327066508
 10
92.73490801718086
 20
-162.9802327066508
 10
92.74334850111973
 20
-162.8534531927936
 10
92.75385604234974
 20
-162.7411430799744
 10
92.83429902193032
 20
-162.6226317952818
 10
92.94419756790978
 20
-162.4620903456692
 10
93.13040497888754
 20
-162.4279839003652
 10
93.24684920628899
 20
-162.4279839003652
 10
93.52400713807734
 20
-162.4279839003652
 10
93.73122963151512
 20
-162.6122965088261
 10
93.73122963151512
 20
-162.8851480712579
 10
93.73122963151512
 20
-163.11355790193
 10
93.61495765888793
 20
-163.2131211614537
 10
93.30610484863529
 20
-163.4394639348346
 97
        0
 97
        0
 75
     2
 76
     1
 98
        0
  0
ENDBLK
  5
52
330
4F
100
AcDbEntity
  8
0
100
AcDbBlockEnd
  0
BLOCK
  5
E3
330
E1
100
AcDbEntity
  8
0
100
AcDbBlockBegin
  2
block 3
 70
     0
 10
0.0
 20
0.0
 30
0.0
  3
block 3
  1

  0
SPLINE
  5
E5
330
E1
100
AcDbEntity
  8
_U+30EC_U+30A4_U+30E4_U+30FC 1
370
     0
100
AcDbSpline
210
0.0
220
0.0
230
1.0
 70
    11
 71
     3
 72
    44
 73
    40
 74
     0
 42
0.0000000001
 43
0.0000000001
 12
1.0
 22
0.0
 32
0.0
 13
1.0
 23
0.0
 33
0.0
 40
0.0
 40
0.0
 40
0.0
 40
0.0
 40
1.0
 40
1.0
 40
1.0
 40
2.0
 40
2.0
 40
2.0
 40
3.0
 40
3.0
 40
3.0
 40
4.0
 40
4.0
 40
4.0
 40
5.0
 40
5.0
 40
5.0
 40
6.0
 40
6.0
 40
6.0
 40
7.0
 40
7.0
 40
7.0
 40
8.0
 40
8.0
 40
8.0
 40
9.0
 40
9.0
 40
9.0
 40
10.0
 40
10.0
 40
10.0
 40
11.0
 40
11.0
 40
11.0
 40
12.0
 40
12.0
 40
12.0
 40
13.0
 40
13.0
 40
13.0
 40
13.0
 10
107.9203721518394
 20
-133.2828206047001
 30
0.0
 10
107.7026421171716
 20
-133.4414672517959
 30
0.0
 10
107.6092800295213
 20
-133.5155368047288
 30
0.0
 10
107.5607041831793
 20
-133.6593695412379
 30
0.0
 10
107.5607041831793
 20
-133.6593695412379
 30
0.0
 10
108.3392957628457
 20
-133.6593695412379
 30
0.0
 10
108.3392957628457
 20
-133.6593695412379
 30
0.0
 10
108.3392957628457
 20
-133.6593695412379
 30
0.0
 10
108.3392957628457
 20
-133.8645249773846
 30
0.0
 10
108.3392957628457
 20
-133.8645249773846
 30
0.0
 10
108.3392957628457
 20
-133.8645249773846
 30
0.0
 10
107.3112792700472
 20
-133.8645249773846
 30
0.0
 10
107.3112792700472
 20
-133.8645249773846
 30
0.0
 10
107.3429741485115
 20
-133.5069240660156
 30
0.0
 10
107.4084309627312
 20
-133.4287203985005
 30
0.0
 10
107.7935926379822
 20
-133.1303751294778
 30
0.0
 10
108.0492187229877
 20
-132.9315931199789
 30
0.0
 10
108.1146755372074
 20
-132.8638969936937
 30
0.0
 10
108.1146755372074
 20
-132.7264376838323
 30
0.0
 10
108.1146755372074
 20
-132.6079263991397
 30
0.0
 10
108.0430175511142
 20
-132.4768405159259
 30
0.0
 10
107.8463025989065
 20
-132.4768405159259
 30
0.0
 10
107.5861978897701
 20
-132.4768405159259
 30
0.0
 10
107.577585151057
 20
-132.7073174038891
 30
0.0
 10
107.5731065269262
 20
-132.8237616312906
 30
0.0
 10
107.5731065269262
 20
-132.8237616312906
 30
0.0
 10
107.3491753203849
 20
-132.8237616312906
 30
0.0
 10
107.3491753203849
 20
-132.8237616312906
 30
0.0
 10
107.3574435495495
 20
-132.6968098626591
 30
0.0
 10
107.3681233455538
 20
-132.5846720046142
 30
0.0
 10
107.4483940703601
 20
-132.4661607199216
 30
0.0
 10
107.5586371258881
 20
-132.3054470155348
 30
0.0
 10
107.7446722820916
 20
-132.271512825005
 30
0.0
 10
107.8611165094931
 20
-132.271512825005
 30
0.0
 10
108.1381021865071
 20
-132.271512825005
 30
0.0
 10
108.3454969347192
 20
-132.4556531786916
 30
0.0
 10
108.3454969347192
 20
-132.7285047411234
 30
0.0
 10
108.3454969347192
 20
-132.9569145717955
 30
0.0
 10
108.2290527073177
 20
-133.0564778313192
 30
0.0
 10
107.9203721518394
 20
-133.2828206047001
 30
0.0
  0
HATCH
  5
E6
330
E1
100
AcDbEntity
  8
_U+30EC_U+30A4_U+30E4_U+30FC 1
 62
   179
420
  2234388
100
AcDbHatch
 10
0.0
 20
0.0
 30
0.0
210
0.0
220
0.0
230
1.0
  2
SOLID
 70
     1
 71
     0
 91
        1
 92
        1
 93
        1
 72
     4
 94
        3
 73
     0
 74
     1
 95
       44
 96
       40
 40
0.0
 40
0.0
 40
0.0
 40
0.0
 40
1.0
 40
1.0
 40
1.0
 40
2.0
 40
2.0
 40
2.0
 40
3.0
 40
3.0
 40
3.0
 40
4.0
 40
4.0
 40
4.0
 40
5.0
 40
5.0
 40
5.0
 40
6.0
 40
6.0
 40
6.0
 40
7.0
 40
7.0
 40
7.0
 40
8.0
 40
8.0
 40
8.0
 40
9.0
 40
9.0
 40
9.0
 40
10.0
 40
10.0
 40
10.0
 40
11.0
 40
11.0
 40
11.0
 40
12.0
 40
12.0
 40
12.0
 40
13.0
 40
13.0
 40
13.0
 40
13.0
 10
107.9203721518394
 20
-133.2828206047001
 10
107.7026421171716
 20
-133.4414672517959
 10
107.6092800295213
 20
-133.5155368047288
 10
107.5607041831793
 20
-133.6593695412379
 10
107.5607041831793
 20
-133.6593695412379
 10
108.3392957628457
 20
-133.6593695412379
 10
108.3392957628457
 20
-133.6593695412379
 10
108.3392957628457
 20
-133.6593695412379
 10
108.3392957628457
 20
-133.8645249773846
 10
108.3392957628457
 20
-133.8645249773846
 10
108.3392957628457
 20
-133.8645249773846
 10
107.3112792700472
 20
-133.8645249773846
 10
107.3112792700472
 20
-133.8645249773846
 10
107.3429741485115
 20
-133.5069240660156
 10
107.4084309627312
 20
-133.4287203985005
 10
107.7935926379822
 20
-133.1303751294778
 10
108.0492187229877
 20
-132.9315931199789
 10
108.1146755372074
 20
-132.8638969936937
 10
108.1146755372074
 20
-132.7264376838323
 10
108.1146755372074
 20
-132.6079263991397
 10
108.0430175511142
 20
-132.4768405159259
 10
107.8463025989065
 20
-132.4768405159259
 10
107.5861978897701
 20
-132.4768405159259
 10
107.577585151057
 20
-132.7073174038891
 10
107.5731065269262
 20
-132.8237616312906
 10
107.5731065269262
 20
-132.8237616312906
 10
107.3491753203849
 20
-132.8237616312906
 10
107.3491753203849
 20
-132.8237616312906
 10
107.3574435495495
 20
-132.6968098626591
 10
107.3681233455538
 20
-132.5846720046142
 10
107.4483940703601
 20
-132.4661607199216
 10
107.5586371258881
 20
-132.3054470155348
 10
107.7446722820916
 20
-132.271512825005
 10
107.8611165094931
 20
-132.271512825005
 10
108.1381021865071
 20
-132.271512825005
 10
108.3454969347192
 20
-132.4556531786916
 10
108.3454969347192
 20
-132.7285047411234
 10
108.3454969347192
 20
-132.9569145717955
 10
108.2290527073177
 20
-133.0564778313192
 10
107.9203721518394
 20
-133.2828206047001
 97
        0
 97
        0
 75
     2
 76
     1
 98
        0
  0
SPLINE
  5
E7
330
E1
100
AcDbEntity
  8
_U+30EC_U+30A4_U+30E4_U+30FC 1
370
     0
100
AcDbSpline
210
0.0
220
0.0
230
1.0
 70
    11
 71
     3
 72
    32
 73
    28
 74
     0
 42
0.0000000001
 43
0.0000000001
 12
1.0
 22
0.0
 32
0.0
 13
1.0
 23
0.0
 33
0.0
 40
0.0
 40
0.0
 40
0.0
 40
0.0
 40
1.0
 40
1.0
 40
1.0
 40
2.0
 40
2.0
 40
2.0
 40
3.0
 40
3.0
 40
3.0
 40
4.0
 40
4.0
 40
4.0
 40
5.0
 40
5.0
 40
5.0
 40
6.0
 40
6.0
 40
6.0
 40
7.0
 40
7.0
 40
7.0
 40
8.0
 40
8.0
 40
8.0
 40
9.0
 40
9.0
 40
9.0
 40
9.0
 10
109.0083333060813
 20
-133.915340135792
 30
0.0
 10
108.4922580023908
 20
-133.915340135792
 30
0.0
 10
108.4836452636777
 20
-133.3610242722153
 30
0.0
 10
108.4836452636777
 20
-133.1474283521298
 30
0.0
 10
108.4836452636777
 20
-132.9167792093923
 30
0.0
 10
108.5025932888466
 20
-132.2694457677139
 30
0.0
 10
109.046229356419
 20
-132.2694457677139
 30
0.0
 10
109.2198621688756
 20
-132.2694457677139
 30
0.0
 10
109.4651529674254
 20
-132.3392089512902
 30
0.0
 10
109.5033935273117
 20
-132.6713161560683
 30
0.0
 10
109.5033935273117
 20
-132.6713161560683
 30
0.0
 10
109.2894530976776
 20
-132.6713161560683
 30
0.0
 10
109.2894530976776
 20
-132.6713161560683
 30
0.0
 10
109.2791178112219
 20
-132.6142998257874
 30
0.0
 10
109.2474229327576
 20
-132.4661607199216
 30
0.0
 10
109.0441622991278
 20
-132.4661607199216
 30
0.0
 10
108.7523627115272
 20
-132.4661607199216
 30
0.0
 10
108.7120550943498
 20
-132.7941338101174
 30
0.0
 10
108.6996527506029
 20
-132.9992892462641
 30
0.0
 10
108.7926703287046
 20
-132.9210855787489
 30
0.0
 10
108.8601942002155
 20
-132.8618299364026
 30
0.0
 10
109.0420952418367
 20
-132.8618299364026
 30
0.0
 10
109.2219292261668
 20
-132.8618299364026
 30
0.0
 10
109.5244086097717
 20
-132.9696614250909
 30
0.0
 10
109.5244086097717
 20
-133.3758381828019
 30
0.0
 10
109.5244086097717
 20
-133.6953707890588
 30
0.0
 10
109.3256266002728
 20
-133.915340135792
 30
0.0
 10
109.0083333060813
 20
-133.915340135792
 30
0.0
  0
SPLINE
  5
E8
330
E1
100
AcDbEntity
  8
_U+30EC_U+30A4_U+30E4_U+30FC 1
370
     0
100
AcDbSpline
210
0.0
220
0.0
230
1.0
 70
    11
 71
     3
 72
    17
 73
    13
 74
     0
 42
0.0000000001
 43
0.0000000001
 12
1.0
 22
0.0
 32
0.0
 13
1.0
 23
0.0
 33
0.0
 40
0.0
 40
0.0
 40
0.0
 40
0.0
 40
1.0
 40
1.0
 40
1.0
 40
2.0
 40
2.0
 40
2.0
 40
3.0
 40
3.0
 40
3.0
 40
4.0
 40
4.0
 40
4.0
 40
4.0
 10
109.025214273959
 20
-133.0564778313192
 30
0.0
 10
108.7630425075315
 20
-133.0564778313192
 30
0.0
 10
108.7248019476452
 20
-133.2680066941136
 30
0.0
 10
108.7248019476452
 20
-133.3842786667408
 30
0.0
 10
108.7248019476452
 20
-133.5599785364885
 30
0.0
 10
108.8202310925866
 20
-133.7227592981666
 30
0.0
 10
109.004199191499
 20
-133.7227592981666
 30
0.0
 10
109.1247775334827
 20
-133.7227592981666
 30
0.0
 10
109.3004774032304
 20
-133.6635036558203
 30
0.0
 10
109.3004774032304
 20
-133.377905240093
 30
0.0
 10
109.3004774032304
 20
-133.1538017787775
 30
0.0
 10
109.1606065265293
 20
-133.0564778313192
 30
0.0
 10
109.025214273959
 20
-133.0564778313192
 30
0.0
  0
HATCH
  5
E9
330
E1
100
AcDbEntity
  8
_U+30EC_U+30A4_U+30E4_U+30FC 1
 62
   179
420
  2234388
100
AcDbHatch
 10
0.0
 20
0.0
 30
0.0
210
0.0
220
0.0
230
1.0
  2
SOLID
 70
     1
 71
     0
 91
        2
 92
        1
 93
        1
 72
     4
 94
        3
 73
     0
 74
     1
 95
       32
 96
       28
 40
0.0
 40
0.0
 40
0.0
 40
0.0
 40
1.0
 40
1.0
 40
1.0
 40
2.0
 40
2.0
 40
2.0
 40
3.0
 40
3.0
 40
3.0
 40
4.0
 40
4.0
 40
4.0
 40
5.0
 40
5.0
 40
5.0
 40
6.0
 40
6.0
 40
6.0
 40
7.0
 40
7.0
 40
7.0
 40
8.0
 40
8.0
 40
8.0
 40
9.0
 40
9.0
 40
9.0
 40
9.0
 10
109.0083333060813
 20
-133.915340135792
 10
108.4922580023908
 20
-133.915340135792
 10
108.4836452636777
 20
-133.3610242722153
 10
108.4836452636777
 20
-133.1474283521298
 10
108.4836452636777
 20
-132.9167792093923
 10
108.5025932888466
 20
-132.2694457677139
 10
109.046229356419
 20
-132.2694457677139
 10
109.2198621688756
 20
-132.2694457677139
 10
109.4651529674254
 20
-132.3392089512902
 10
109.5033935273117
 20
-132.6713161560683
 10
109.5033935273117
 20
-132.6713161560683
 10
109.2894530976776
 20
-132.6713161560683
 10
109.2894530976776
 20
-132.6713161560683
 10
109.2791178112219
 20
-132.6142998257874
 10
109.2474229327576
 20
-132.4661607199216
 10
109.0441622991278
 20
-132.4661607199216
 10
108.7523627115272
 20
-132.4661607199216
 10
108.7120550943498
 20
-132.7941338101174
 10
108.6996527506029
 20
-132.9992892462641
 10
108.7926703287046
 20
-132.9210855787489
 10
108.8601942002155
 20
-132.8618299364026
 10
109.0420952418367
 20
-132.8618299364026
 10
109.2219292261668
 20
-132.8618299364026
 10
109.5244086097717
 20
-132.9696614250909
 10
109.5244086097717
 20
-133.3758381828019
 10
109.5244086097717
 20
-133.6953707890588
 10
109.3256266002728
 20
-133.915340135792
 10
109.0083333060813
 20
-133.915340135792
 97
        0
 97
        0
 92
        1
 93
        1
 72
     4
 94
        3
 73
     0
 74
     1
 95
       17
 96
       13
 40
0.0
 40
0.0
 40
0.0
 40
0.0
 40
1.0
 40
1.0
 40
1.0
 40
2.0
 40
2.0
 40
2.0
 40
3.0
 40
3.0
 40
3.0
 40
4.0
 40
4.0
 40
4.0
 40
4.0
 10
109.025214273959
 20
-133.0564778313192
 10
108.7630425075315
 20
-133.0564778313192
 10
108.7248019476452
 20
-133.2680066941136
 10
108.7248019476452
 20
-133.3842786667408
 10
108.7248019476452
 20
-133.5599785364885
 10
108.8202310925866
 20
-133.7227592981666
 10
109.004199191499
 20
-133.7227592981666
 10
109.1247775334827
 20
-133.7227592981666
 10
109.3004774032304
 20
-133.6635036558203
 10
109.3004774032304
 20
-133.377905240093
 10
109.3004774032304
 20
-133.1538017787775
 10
109.1606065265293
 20
-133.0564778313192
 10
109.025214273959
 20
-133.0564778313192
 97
        0
 97
        0
 75
     2
 76
     1
 98
        0
  0
ENDBLK
  5
E4
330
E1
100
AcDbEntity
  8
0
100
AcDbBlockEnd
  0
BLOCK
  5
FA
330
F8
100
AcDbEntity
  8
0
100
AcDbBlockBegin
  2
block 4
 70
     0
 10
0.0
 20
0.0
 30
0.0
  3
block 4
  1

  0
SPLINE
  5
FC
330
F8
100
AcDbEntity
  8
_U+30EC_U+30A4_U+30E4_U+30FC 1
370
     0
100
AcDbSpline
210
0.0
220
0.0
230
1.0
 70
    11
 71
     3
 72
    32
 73
    28
 74
     0
 42
0.0000000001
 43
0.0000000001
 12
1.0
 22
0.0
 32
0.0
 13
1.0
 23
0.0
 33
0.0
 40
0.0
 40
0.0
 40
0.0
 40
0.0
 40
1.0
 40
1.0
 40
1.0
 40
2.0
 40
2.0
 40
2.0
 40
3.0
 40
3.0
 40
3.0
 40
4.0
 40
4.0
 40
4.0
 40
5.0
 40
5.0
 40
5.0
 40
6.0
 40
6.0
 40
6.0
 40
7.0
 40
7.0
 40
7.0
 40
8.0
 40
8.0
 40
8.0
 40
9.0
 40
9.0
 40
9.0
 40
9.0
 10
126.6520453242398
 20
-141.7274386581445
 30
0.0
 10
126.6520453242398
 20
-142.2436862166092
 30
0.0
 10
126.0977294606631
 20
-142.2521267005481
 30
0.0
 10
125.8841335405776
 20
-142.2521267005481
 30
0.0
 10
125.6533121430658
 20
-142.2521267005481
 30
0.0
 10
125.0059787013874
 20
-142.2330064206049
 30
0.0
 10
125.0059787013874
 20
-141.6893703530325
 30
0.0
 10
125.0059787013874
 20
-141.5159097953502
 30
0.0
 10
125.075914139738
 20
-141.2706189968004
 30
0.0
 10
125.4080213445161
 20
-141.2323784369141
 30
0.0
 10
125.4080213445161
 20
-141.2323784369141
 30
0.0
 10
125.4080213445161
 20
-141.4461466117739
 30
0.0
 10
125.4080213445161
 20
-141.4461466117739
 30
0.0
 10
125.3508327594609
 20
-141.4566541530039
 30
0.0
 10
125.2026936535952
 20
-141.4883490314682
 30
0.0
 10
125.2026936535952
 20
-141.6914374103237
 30
0.0
 10
125.2026936535952
 20
-141.9834092526986
 30
0.0
 10
125.5306667437909
 20
-142.023716869876
 30
0.0
 10
125.7359944347118
 20
-142.0362914683972
 30
0.0
 10
125.6577907671967
 20
-141.9432738902954
 30
0.0
 10
125.5985351248504
 20
-141.8755777640103
 30
0.0
 10
125.5985351248504
 20
-141.6936767223891
 30
0.0
 10
125.5985351248504
 20
-141.5138427380591
 30
0.0
 10
125.7063666135387
 20
-141.2113633544541
 30
0.0
 10
126.1125433712496
 20
-141.2113633544541
 30
0.0
 10
126.4319037227323
 20
-141.2113633544541
 30
0.0
 10
126.6520453242398
 20
-141.410145363953
 30
0.0
 10
126.6520453242398
 20
-141.7274386581445
 30
0.0
  0
SPLINE
  5
FD
330
F8
100
AcDbEntity
  8
_U+30EC_U+30A4_U+30E4_U+30FC 1
370
     0
100
AcDbSpline
210
0.0
220
0.0
230
1.0
 70
    11
 71
     3
 72
    17
 73
    13
 74
     0
 42
0.0000000001
 43
0.0000000001
 12
1.0
 22
0.0
 32
0.0
 13
1.0
 23
0.0
 33
0.0
 40
0.0
 40
0.0
 40
0.0
 40
0.0
 40
1.0
 40
1.0
 40
1.0
 40
2.0
 40
2.0
 40
2.0
 40
3.0
 40
3.0
 40
3.0
 40
4.0
 40
4.0
 40
4.0
 40
4.0
 10
125.793183019767
 20
-141.7105576902668
 30
0.0
 10
125.793183019767
 20
-141.9729017114686
 30
0.0
 10
126.0047118825613
 20
-142.0109700165806
 30
0.0
 10
126.1208116004142
 20
-142.0109700165806
 30
0.0
 10
126.296511470162
 20
-142.0109700165806
 30
0.0
 10
126.4594644866143
 20
-141.9157131264134
 30
0.0
 10
126.4594644866143
 20
-141.7317450275011
 30
0.0
 10
126.4594644866143
 20
-141.6111666855174
 30
0.0
 10
126.400208844268
 20
-141.4354668157696
 30
0.0
 10
126.1146104285408
 20
-141.4354668157696
 30
0.0
 10
125.890334712451
 20
-141.4354668157696
 30
0.0
 10
125.793183019767
 20
-141.5751654376965
 30
0.0
 10
125.793183019767
 20
-141.7105576902668
 30
0.0
  0
HATCH
  5
FE
330
F8
100
AcDbEntity
  8
_U+30EC_U+30A4_U+30E4_U+30FC 1
 62
   179
420
  2234388
100
AcDbHatch
 10
0.0
 20
0.0
 30
0.0
210
0.0
220
0.0
230
1.0
  2
SOLID
 70
     1
 71
     0
 91
        2
 92
        1
 93
        1
 72
     4
 94
        3
 73
     0
 74
     1
 95
       32
 96
       28
 40
0.0
 40
0.0
 40
0.0
 40
0.0
 40
1.0
 40
1.0
 40
1.0
 40
2.0
 40
2.0
 40
2.0
 40
3.0
 40
3.0
 40
3.0
 40
4.0
 40
4.0
 40
4.0
 40
5.0
 40
5.0
 40
5.0
 40
6.0
 40
6.0
 40
6.0
 40
7.0
 40
7.0
 40
7.0
 40
8.0
 40
8.0
 40
8.0
 40
9.0
 40
9.0
 40
9.0
 40
9.0
 10
126.6520453242398
 20
-141.7274386581445
 10
126.6520453242398
 20
-142.2436862166092
 10
126.0977294606631
 20
-142.2521267005481
 10
125.8841335405776
 20
-142.2521267005481
 10
125.6533121430658
 20
-142.2521267005481
 10
125.0059787013874
 20
-142.2330064206049
 10
125.0059787013874
 20
-141.6893703530325
 10
125.0059787013874
 20
-141.5159097953502
 10
125.075914139738
 20
-141.2706189968004
 10
125.4080213445161
 20
-141.2323784369141
 10
125.4080213445161
 20
-141.2323784369141
 10
125.4080213445161
 20
-141.4461466117739
 10
125.4080213445161
 20
-141.4461466117739
 10
125.3508327594609
 20
-141.4566541530039
 10
125.2026936535952
 20
-141.4883490314682
 10
125.2026936535952
 20
-141.6914374103237
 10
125.2026936535952
 20
-141.9834092526986
 10
125.5306667437909
 20
-142.023716869876
 10
125.7359944347118
 20
-142.0362914683972
 10
125.6577907671967
 20
-141.9432738902954
 10
125.5985351248504
 20
-141.8755777640103
 10
125.5985351248504
 20
-141.6936767223891
 10
125.5985351248504
 20
-141.5138427380591
 10
125.7063666135387
 20
-141.2113633544541
 10
126.1125433712496
 20
-141.2113633544541
 10
126.4319037227323
 20
-141.2113633544541
 10
126.6520453242398
 20
-141.410145363953
 10
126.6520453242398
 20
-141.7274386581445
 97
        0
 97
        0
 92
        1
 93
        1
 72
     4
 94
        3
 73
     0
 74
     1
 95
       17
 96
       13
 40
0.0
 40
0.0
 40
0.0
 40
0.0
 40
1.0
 40
1.0
 40
1.0
 40
2.0
 40
2.0
 40
2.0
 40
3.0
 40
3.0
 40
3.0
 40
4.0
 40
4.0
 40
4.0
 40
4.0
 10
125.793183019767
 20
-141.7105576902668
 10
125.793183019767
 20
-141.9729017114686
 10
126.0047118825613
 20
-142.0109700165806
 10
126.1208116004142
 20
-142.0109700165806
 10
126.296511470162
 20
-142.0109700165806
 10
126.4594644866143
 20
-141.9157131264134
 10
126.4594644866143
 20
-141.7317450275011
 10
126.4594644866143
 20
-141.6111666855174
 10
126.400208844268
 20
-141.4354668157696
 10
126.1146104285408
 20
-141.4354668157696
 10
125.890334712451
 20
-141.4354668157696
 10
125.793183019767
 20
-141.5751654376965
 10
125.793183019767
 20
-141.7105576902668
 97
        0
 97
        0
 75
     2
 76
     1
 98
        0
  0
ENDBLK
  5
FB
330
F8
100
AcDbEntity
  8
0
100
AcDbBlockEnd
  0
BLOCK
  5
10D
330
10B
100
AcDbEntity
  8
0
100
AcDbBlockBegin
  2
block 5
 70
     0
 10
0.0
 20
0.0
 30
0.0
  3
block 5
  1

  0
SPLINE
  5
10F
330
10B
100
AcDbEntity
  8
_U+30EC_U+30A4_U+30E4_U+30FC 1
370
     0
100
AcDbSpline
210
0.0
220
0.0
230
1.0
 70
    11
 71
     3
 72
    44
 73
    40
 74
     0
 42
0.0000000001
 43
0.0000000001
 12
1.0
 22
0.0
 32
0.0
 13
1.0
 23
0.0
 33
0.0
 40
0.0
 40
0.0
 40
0.0
 40
0.0
 40
1.0
 40
1.0
 40
1.0
 40
2.0
 40
2.0
 40
2.0
 40
3.0
 40
3.0
 40
3.0
 40
4.0
 40
4.0
 40
4.0
 40
5.0
 40
5.0
 40
5.0
 40
6.0
 40
6.0
 40
6.0
 40
7.0
 40
7.0
 40
7.0
 40
8.0
 40
8.0
 40
8.0
 40
9.0
 40
9.0
 40
9.0
 40
10.0
 40
10.0
 40
10.0
 40
11.0
 40
11.0
 40
11.0
 40
12.0
 40
12.0
 40
12.0
 40
13.0
 40
13.0
 40
13.0
 40
13.0
 10
84.96449515019985
 20
-152.2160318629877
 30
0.0
 10
85.1231417972956
 20
-152.434106407204
 30
0.0
 10
85.19721135022849
 20
-152.5274684948542
 30
0.0
 10
85.34104408673765
 20
-152.5756998316477
 30
0.0
 10
85.34104408673765
 20
-152.5756998316477
 30
0.0
 10
85.34104408673765
 20
-151.7974527615298
 30
0.0
 10
85.34104408673765
 20
-151.7974527615298
 30
0.0
 10
85.34104408673765
 20
-151.7974527615298
 30
0.0
 10
85.5461995228843
 20
-151.7974527615298
 30
0.0
 10
85.5461995228843
 20
-151.7974527615298
 30
0.0
 10
85.5461995228843
 20
-151.7974527615298
 30
0.0
 10
85.5461995228843
 20
-152.8254692543284
 30
0.0
 10
85.5461995228843
 20
-152.8254692543284
 30
0.0
 10
85.18859861151536
 20
-152.7937743758641
 30
0.0
 10
85.11039494400018
 20
-152.7283175616443
 30
0.0
 10
84.81204967497754
 20
-152.3431558863934
 30
0.0
 10
84.61326766547863
 20
-152.0871852918393
 30
0.0
 10
84.54557153919347
 20
-152.0217284776196
 30
0.0
 10
84.408112229332
 20
-152.0217284776196
 30
0.0
 10
84.2896009446394
 20
-152.0217284776196
 30
0.0
 10
84.15851506142565
 20
-152.0933864637128
 30
0.0
 10
84.15851506142565
 20
-152.2904459254691
 30
0.0
 10
84.15851506142565
 20
-152.5505506346054
 30
0.0
 10
84.38899194938887
 20
-152.5591633733185
 30
0.0
 10
84.50543617679031
 20
-152.5632974879009
 30
0.0
 10
84.50543617679031
 20
-152.5632974879009
 30
0.0
 10
84.50543617679031
 20
-152.7872286944421
 30
0.0
 10
84.50543617679031
 20
-152.7872286944421
 30
0.0
 10
84.37848440815885
 20
-152.7789604652775
 30
0.0
 10
84.26634655011398
 20
-152.7686251788217
 30
0.0
 10
84.14783526542138
 20
-152.6880099444669
 30
0.0
 10
83.98712156103447
 20
-152.5781113984874
 30
0.0
 10
83.95318737050476
 20
-152.3917317327354
 30
0.0
 10
83.95318737050476
 20
-152.2752875053339
 30
0.0
 10
83.95318737050476
 20
-151.9983018283199
 30
0.0
 10
84.13732772419137
 20
-151.7909070801078
 30
0.0
 10
84.41017928662315
 20
-151.7909070801078
 30
0.0
 10
84.63858911729521
 20
-151.7909070801078
 30
0.0
 10
84.73815237681893
 20
-151.9073513075093
 30
0.0
 10
84.96449515019985
 20
-152.2160318629877
 30
0.0
  0
HATCH
  5
110
330
10B
100
AcDbEntity
  8
_U+30EC_U+30A4_U+30E4_U+30FC 1
 62
   179
420
  2234388
100
AcDbHatch
 10
0.0
 20
0.0
 30
0.0
210
0.0
220
0.0
230
1.0
  2
SOLID
 70
     1
 71
     0
 91
        1
 92
        1
 93
        1
 72
     4
 94
        3
 73
     0
 74
     1
 95
       44
 96
       40
 40
0.0
 40
0.0
 40
0.0
 40
0.0
 40
1.0
 40
1.0
 40
1.0
 40
2.0
 40
2.0
 40
2.0
 40
3.0
 40
3.0
 40
3.0
 40
4.0
 40
4.0
 40
4.0
 40
5.0
 40
5.0
 40
5.0
 40
6.0
 40
6.0
 40
6.0
 40
7.0
 40
7.0
 40
7.0
 40
8.0
 40
8.0
 40
8.0
 40
9.0
 40
9.0
 40
9.0
 40
10.0
 40
10.0
 40
10.0
 40
11.0
 40
11.0
 40
11.0
 40
12.0
 40
12.0
 40
12.0
 40
13.0
 40
13.0
 40
13.0
 40
13.0
 10
84.96449515019985
 20
-152.2160318629877
 10
85.1231417972956
 20
-152.434106407204
 10
85.19721135022849
 20
-152.5274684948542
 10
85.34104408673765
 20
-152.5756998316477
 10
85.34104408673765
 20
-152.5756998316477
 10
85.34104408673765
 20
-151.7974527615298
 10
85.34104408673765
 20
-151.7974527615298
 10
85.34104408673765
 20
-151.7974527615298
 10
85.5461995228843
 20
-151.7974527615298
 10
85.5461995228843
 20
-151.7974527615298
 10
85.5461995228843
 20
-151.7974527615298
 10
85.5461995228843
 20
-152.8254692543284
 10
85.5461995228843
 20
-152.8254692543284
 10
85.18859861151536
 20
-152.7937743758641
 10
85.11039494400018
 20
-152.7283175616443
 10
84.81204967497754
 20
-152.3431558863934
 10
84.61326766547863
 20
-152.0871852918393
 10
84.54557153919347
 20
-152.0217284776196
 10
84.408112229332
 20
-152.0217284776196
 10
84.2896009446394
 20
-152.0217284776196
 10
84.15851506142565
 20
-152.0933864637128
 10
84.15851506142565
 20
-152.2904459254691
 10
84.15851506142565
 20
-152.5505506346054
 10
84.38899194938887
 20
-152.5591633733185
 10
84.50543617679031
 20
-152.5632974879009
 10
84.50543617679031
 20
-152.5632974879009
 10
84.50543617679031
 20
-152.7872286944421
 10
84.50543617679031
 20
-152.7872286944421
 10
84.37848440815885
 20
-152.7789604652775
 10
84.26634655011398
 20
-152.7686251788217
 10
84.14783526542138
 20
-152.6880099444669
 10
83.98712156103447
 20
-152.5781113984874
 10
83.95318737050476
 20
-152.3917317327354
 10
83.95318737050476
 20
-152.2752875053339
 10
83.95318737050476
 20
-151.9983018283199
 10
84.13732772419137
 20
-151.7909070801078
 10
84.41017928662315
 20
-151.7909070801078
 10
84.63858911729521
 20
-151.7909070801078
 10
84.73815237681893
 20
-151.9073513075093
 10
84.96449515019985
 20
-152.2160318629877
 97
        0
 97
        0
 75
     2
 76
     1
 98
        0
  0
SPLINE
  5
111
330
10B
100
AcDbEntity
  8
_U+30EC_U+30A4_U+30E4_U+30FC 1
370
     0
100
AcDbSpline
210
0.0
220
0.0
230
1.0
 70
    11
 71
     3
 72
    32
 73
    28
 74
     0
 42
0.0000000001
 43
0.0000000001
 12
1.0
 22
0.0
 32
0.0
 13
1.0
 23
0.0
 33
0.0
 40
0.0
 40
0.0
 40
0.0
 40
0.0
 40
1.0
 40
1.0
 40
1.0
 40
2.0
 40
2.0
 40
2.0
 40
3.0
 40
3.0
 40
3.0
 40
4.0
 40
4.0
 40
4.0
 40
5.0
 40
5.0
 40
5.0
 40
6.0
 40
6.0
 40
6.0
 40
7.0
 40
7.0
 40
7.0
 40
8.0
 40
8.0
 40
8.0
 40
9.0
 40
9.0
 40
9.0
 40
9.0
 10
85.59701468129172
 20
-151.1280707087458
 30
0.0
 10
85.59701468129172
 20
-151.6444905219847
 30
0.0
 10
85.04269881771502
 20
-151.6531032606978
 30
0.0
 10
84.82910289762954
 20
-151.6531032606978
 30
0.0
 10
84.59845375489206
 20
-151.6531032606978
 30
0.0
 10
83.95112031321361
 20
-151.6338107259805
 30
0.0
 10
83.95112031321361
 20
-151.090174658408
 30
0.0
 10
83.95112031321361
 20
-150.9165418459514
 30
0.0
 10
84.02088349678992
 20
-150.6712510474016
 30
0.0
 10
84.352990701568
 20
-150.6333549970639
 30
0.0
 10
84.352990701568
 20
-150.6333549970639
 30
0.0
 10
84.352990701568
 20
-150.8469509171494
 30
0.0
 10
84.352990701568
 20
-150.8469509171494
 30
0.0
 10
84.29597437128712
 20
-150.8572862036051
 30
0.0
 10
84.14783526542138
 20
-150.8889810820694
 30
0.0
 10
84.14783526542138
 20
-151.0922417156992
 30
0.0
 10
84.14783526542138
 20
-151.3843858128484
 30
0.0
 10
84.47580835561716
 20
-151.4243489204773
 30
0.0
 10
84.68096379176379
 20
-151.4370957737727
 30
0.0
 10
84.60276012424862
 20
-151.3440781956709
 30
0.0
 10
84.54350448190232
 20
-151.2762098146115
 30
0.0
 10
84.54350448190232
 20
-151.0943087729903
 30
0.0
 10
84.54350448190232
 20
-150.9144747886603
 30
0.0
 10
84.65133597059064
 20
-150.6119954050554
 30
0.0
 10
85.0575127283016
 20
-150.6119954050554
 30
0.0
 10
85.37704533455852
 20
-150.6119954050554
 30
0.0
 10
85.59701468129172
 20
-150.8111219241028
 30
0.0
 10
85.59701468129172
 20
-151.1280707087458
 30
0.0
  0
SPLINE
  5
112
330
10B
100
AcDbEntity
  8
_U+30EC_U+30A4_U+30E4_U+30FC 1
370
     0
100
AcDbSpline
210
0.0
220
0.0
230
1.0
 70
    11
 71
     3
 72
    17
 73
    13
 74
     0
 42
0.0000000001
 43
0.0000000001
 12
1.0
 22
0.0
 32
0.0
 13
1.0
 23
0.0
 33
0.0
 40
0.0
 40
0.0
 40
0.0
 40
0.0
 40
1.0
 40
1.0
 40
1.0
 40
2.0
 40
2.0
 40
2.0
 40
3.0
 40
3.0
 40
3.0
 40
4.0
 40
4.0
 40
4.0
 40
4.0
 10
84.73815237681893
 20
-151.1115342504166
 30
0.0
 10
84.73815237681893
 20
-151.3737060168441
 30
0.0
 10
84.94968123961328
 20
-151.4119465767303
 30
0.0
 10
85.06595321224046
 20
-151.4119465767303
 30
0.0
 10
85.2416530819882
 20
-151.4119465767303
 30
0.0
 10
85.40443384366625
 20
-151.3165174317889
 30
0.0
 10
85.40443384366625
 20
-151.1325493328766
 30
0.0
 10
85.40443384366625
 20
-151.0119709908928
 30
0.0
 10
85.34517820131995
 20
-150.8362711211451
 30
0.0
 10
85.05957978559275
 20
-150.8362711211451
 30
0.0
 10
84.83547632427725
 20
-150.8362711211451
 30
0.0
 10
84.73815237681893
 20
-150.9757974882977
 30
0.0
 10
84.73815237681893
 20
-151.1115342504166
 30
0.0
  0
HATCH
  5
113
330
10B
100
AcDbEntity
  8
_U+30EC_U+30A4_U+30E4_U+30FC 1
 62
   179
420
  2234388
100
AcDbHatch
 10
0.0
 20
0.0
 30
0.0
210
0.0
220
0.0
230
1.0
  2
SOLID
 70
     1
 71
     0
 91
        2
 92
        1
 93
        1
 72
     4
 94
        3
 73
     0
 74
     1
 95
       32
 96
       28
 40
0.0
 40
0.0
 40
0.0
 40
0.0
 40
1.0
 40
1.0
 40
1.0
 40
2.0
 40
2.0
 40
2.0
 40
3.0
 40
3.0
 40
3.0
 40
4.0
 40
4.0
 40
4.0
 40
5.0
 40
5.0
 40
5.0
 40
6.0
 40
6.0
 40
6.0
 40
7.0
 40
7.0
 40
7.0
 40
8.0
 40
8.0
 40
8.0
 40
9.0
 40
9.0
 40
9.0
 40
9.0
 10
85.59701468129172
 20
-151.1280707087458
 10
85.59701468129172
 20
-151.6444905219847
 10
85.04269881771502
 20
-151.6531032606978
 10
84.82910289762954
 20
-151.6531032606978
 10
84.59845375489206
 20
-151.6531032606978
 10
83.95112031321361
 20
-151.6338107259805
 10
83.95112031321361
 20
-151.090174658408
 10
83.95112031321361
 20
-150.9165418459514
 10
84.02088349678992
 20
-150.6712510474016
 10
84.352990701568
 20
-150.6333549970639
 10
84.352990701568
 20
-150.6333549970639
 10
84.352990701568
 20
-150.8469509171494
 10
84.352990701568
 20
-150.8469509171494
 10
84.29597437128712
 20
-150.8572862036051
 10
84.14783526542138
 20
-150.8889810820694
 10
84.14783526542138
 20
-151.0922417156992
 10
84.14783526542138
 20
-151.3843858128484
 10
84.47580835561716
 20
-151.4243489204773
 10
84.68096379176379
 20
-151.4370957737727
 10
84.60276012424862
 20
-151.3440781956709
 10
84.54350448190232
 20
-151.2762098146115
 10
84.54350448190232
 20
-151.0943087729903
 10
84.54350448190232
 20
-150.9144747886603
 10
84.65133597059064
 20
-150.6119954050554
 10
85.0575127283016
 20
-150.6119954050554
 10
85.37704533455852
 20
-150.6119954050554
 10
85.59701468129172
 20
-150.8111219241028
 10
85.59701468129172
 20
-151.1280707087458
 97
        0
 97
        0
 92
        1
 93
        1
 72
     4
 94
        3
 73
     0
 74
     1
 95
       17
 96
       13
 40
0.0
 40
0.0
 40
0.0
 40
0.0
 40
1.0
 40
1.0
 40
1.0
 40
2.0
 40
2.0
 40
2.0
 40
3.0
 40
3.0
 40
3.0
 40
4.0
 40
4.0
 40
4.0
 40
4.0
 10
84.73815237681893
 20
-151.1115342504166
 10
84.73815237681893
 20
-151.3737060168441
 10
84.94968123961328
 20
-151.4119465767303
 10
85.06595321224046
 20
-151.4119465767303
 10
85.2416530819882
 20
-151.4119465767303
 10
85.40443384366625
 20
-151.3165174317889
 10
85.40443384366625
 20
-151.1325493328766
 10
85.40443384366625
 20
-151.0119709908928
 10
85.34517820131995
 20
-150.8362711211451
 10
85.05957978559275
 20
-150.8362711211451
 10
84.83547632427725
 20
-150.8362711211451
 10
84.73815237681893
 20
-150.9757974882977
 10
84.73815237681893
 20
-151.1115342504166
 97
        0
 97
        0
 75
     2
 76
     1
 98
        0
  0
ENDBLK
  5
10E
330
10B
100
AcDbEntity
  8
0
100
AcDbBlockEnd
  0
BLOCK
  5
132
330
130
100
AcDbEntity
  8
0
100
AcDbBlockBegin
  2
block 6
 70
     0
 10
0.0
 20
0.0
 30
0.0
  3
block 6
  1

  0
POLYLINE
  5
134
330
130
100
AcDbEntity
  8
_U+30EC_U+30A4_U+30E4_U+30FC 1
370
     0
100
AcDb2dPolyline
 66
     1
 10
0.0
 20
0.0
 30
0.0
  0
VERTEX
  5
135
330
134
100
AcDbEntity
  8
_U+30EC_U+30A4_U+30E4_U+30FC 1
370
     0
100
AcDbVertex
100
AcDb2dVertex
 10
89.55956350842608
 20
-133.8986314226885
 30
0.0
  0
VERTEX
  5
136
330
134
100
AcDbEntity
  8
_U+30EC_U+30A4_U+30E4_U+30FC 1
370
     0
100
AcDbVertex
100
AcDb2dVertex
 10
89.55956350842608
 20
-133.7379177183016
 30
0.0
  0
VERTEX
  5
137
330
134
100
AcDbEntity
  8
_U+30EC_U+30A4_U+30E4_U+30FC 1
370
     0
100
AcDbVertex
100
AcDb2dVertex
 10
89.71390378616528
 20
-133.7379177183016
 30
0.0
  0
VERTEX
  5
138
330
134
100
AcDbEntity
  8
_U+30EC_U+30A4_U+30E4_U+30FC 1
370
     0
100
AcDbVertex
100
AcDb2dVertex
 10
89.71390378616528
 20
-133.8986314226885
 30
0.0
  0
VERTEX
  5
139
330
134
100
AcDbEntity
  8
_U+30EC_U+30A4_U+30E4_U+30FC 1
370
     0
100
AcDbVertex
100
AcDb2dVertex
 10
90.10750594535507
 20
-133.8986314226885
 30
0.0
  0
VERTEX
  5
13A
330
134
100
AcDbEntity
  8
_U+30EC_U+30A4_U+30E4_U+30FC 1
370
     0
100
AcDbVertex
100
AcDb2dVertex
 10
90.10750594535507
 20
-134.053143955202
 30
0.0
  0
VERTEX
  5
13B
330
134
100
AcDbEntity
  8
_U+30EC_U+30A4_U+30E4_U+30FC 1
370
     0
100
AcDbVertex
100
AcDb2dVertex
 10
89.71390378616528
 20
-134.053143955202
 30
0.0
  0
VERTEX
  5
13C
330
134
100
AcDbEntity
  8
_U+30EC_U+30A4_U+30E4_U+30FC 1
370
     0
100
AcDbVertex
100
AcDb2dVertex
 10
89.71390378616528
 20
-134.2074842329412
 30
0.0
  0
VERTEX
  5
13D
330
134
100
AcDbEntity
  8
_U+30EC_U+30A4_U+30E4_U+30FC 1
370
     0
100
AcDbVertex
100
AcDb2dVertex
 10
90.0692653854688
 20
-134.2074842329412
 30
0.0
  0
VERTEX
  5
13E
330
134
100
AcDbEntity
  8
_U+30EC_U+30A4_U+30E4_U+30FC 1
370
     0
100
AcDbVertex
100
AcDb2dVertex
 10
90.0692653854688
 20
-135.0198377483631
 30
0.0
  0
VERTEX
  5
13F
330
134
100
AcDbEntity
  8
_U+30EC_U+30A4_U+30E4_U+30FC 1
370
     0
100
AcDbVertex
100
AcDb2dVertex
 10
89.71390378616528
 20
-135.0198377483631
 30
0.0
  0
VERTEX
  5
140
330
134
100
AcDbEntity
  8
_U+30EC_U+30A4_U+30E4_U+30FC 1
370
     0
100
AcDbVertex
100
AcDb2dVertex
 10
89.71390378616528
 20
-135.1891641914631
 30
0.0
  0
VERTEX
  5
141
330
134
100
AcDbEntity
  8
_U+30EC_U+30A4_U+30E4_U+30FC 1
370
     0
100
AcDbVertex
100
AcDb2dVertex
 10
90.12231985594164
 20
-135.1891641914631
 30
0.0
  0
VERTEX
  5
142
330
134
100
AcDbEntity
  8
_U+30EC_U+30A4_U+30E4_U+30FC 1
370
     0
100
AcDbVertex
100
AcDb2dVertex
 10
90.12231985594164
 20
-135.3435044692023
 30
0.0
  0
VERTEX
  5
143
330
134
100
AcDbEntity
  8
_U+30EC_U+30A4_U+30E4_U+30FC 1
370
     0
100
AcDbVertex
100
AcDb2dVertex
 10
89.71390378616528
 20
-135.3435044692023
 30
0.0
  0
VERTEX
  5
144
330
134
100
AcDbEntity
  8
_U+30EC_U+30A4_U+30E4_U+30FC 1
370
     0
100
AcDbVertex
100
AcDb2dVertex
 10
89.71390378616528
 20
-135.6967990112147
 30
0.0
  0
VERTEX
  5
145
330
134
100
AcDbEntity
  8
_U+30EC_U+30A4_U+30E4_U+30FC 1
370
     0
100
AcDbVertex
100
AcDb2dVertex
 10
89.55956350842608
 20
-135.6967990112147
 30
0.0
  0
VERTEX
  5
146
330
134
100
AcDbEntity
  8
_U+30EC_U+30A4_U+30E4_U+30FC 1
370
     0
100
AcDbVertex
100
AcDb2dVertex
 10
89.55956350842608
 20
-135.3435044692023
 30
0.0
  0
VERTEX
  5
147
330
134
100
AcDbEntity
  8
_U+30EC_U+30A4_U+30E4_U+30FC 1
370
     0
100
AcDbVertex
100
AcDb2dVertex
 10
89.14908038135857
 20
-135.3435044692023
 30
0.0
  0
VERTEX
  5
148
330
134
100
AcDbEntity
  8
_U+30EC_U+30A4_U+30E4_U+30FC 1
370
     0
100
AcDbVertex
100
AcDb2dVertex
 10
89.14908038135857
 20
-135.1891641914631
 30
0.0
  0
VERTEX
  5
149
330
134
100
AcDbEntity
  8
_U+30EC_U+30A4_U+30E4_U+30FC 1
370
     0
100
AcDbVertex
100
AcDb2dVertex
 10
89.55956350842608
 20
-135.1891641914631
 30
0.0
  0
VERTEX
  5
14A
330
134
100
AcDbEntity
  8
_U+30EC_U+30A4_U+30E4_U+30FC 1
370
     0
100
AcDbVertex
100
AcDb2dVertex
 10
89.55956350842608
 20
-135.0198377483631
 30
0.0
  0
VERTEX
  5
14B
330
134
100
AcDbEntity
  8
_U+30EC_U+30A4_U+30E4_U+30FC 1
370
     0
100
AcDbVertex
100
AcDb2dVertex
 10
89.21040308099602
 20
-135.0198377483631
 30
0.0
  0
VERTEX
  5
14C
330
134
100
AcDbEntity
  8
_U+30EC_U+30A4_U+30E4_U+30FC 1
370
     0
100
AcDbVertex
100
AcDb2dVertex
 10
89.21040308099602
 20
-134.2074842329412
 30
0.0
  0
VERTEX
  5
14D
330
134
100
AcDbEntity
  8
_U+30EC_U+30A4_U+30E4_U+30FC 1
370
     0
100
AcDbVertex
100
AcDb2dVertex
 10
89.55956350842608
 20
-134.2074842329412
 30
0.0
  0
VERTEX
  5
14E
330
134
100
AcDbEntity
  8
_U+30EC_U+30A4_U+30E4_U+30FC 1
370
     0
100
AcDbVertex
100
AcDb2dVertex
 10
89.55956350842608
 20
-134.053143955202
 30
0.0
  0
VERTEX
  5
14F
330
134
100
AcDbEntity
  8
_U+30EC_U+30A4_U+30E4_U+30FC 1
370
     0
100
AcDbVertex
100
AcDb2dVertex
 10
89.17026771859285
 20
-134.053143955202
 30
0.0
  0
VERTEX
  5
150
330
134
100
AcDbEntity
  8
_U+30EC_U+30A4_U+30E4_U+30FC 1
370
     0
100
AcDbVertex
100
AcDb2dVertex
 10
89.17026771859285
 20
-133.8986314226885
 30
0.0
  0
VERTEX
  5
151
330
134
100
AcDbEntity
  8
_U+30EC_U+30A4_U+30E4_U+30FC 1
370
     0
100
AcDbVertex
100
AcDb2dVertex
 10
89.55956350842608
 20
-133.8986314226885
 30
0.0
  0
SEQEND
  5
152
330
134
100
AcDbEntity
  8
_U+30EC_U+30A4_U+30E4_U+30FC 1
370
     0
  0
POLYLINE
  5
153
330
130
100
AcDbEntity
  8
_U+30EC_U+30A4_U+30E4_U+30FC 1
370
     0
100
AcDb2dPolyline
 66
     1
 10
0.0
 20
0.0
 30
0.0
  0
VERTEX
  5
154
330
153
100
AcDbEntity
  8
_U+30EC_U+30A4_U+30E4_U+30FC 1
370
     0
100
AcDbVertex
100
AcDb2dVertex
 10
89.55956350842608
 20
-134.3471828548681
 30
0.0
  0
VERTEX
  5
155
330
153
100
AcDbEntity
  8
_U+30EC_U+30A4_U+30E4_U+30FC 1
370
     0
100
AcDbVertex
100
AcDb2dVertex
 10
89.35216876021404
 20
-134.3471828548681
 30
0.0
  0
VERTEX
  5
156
330
153
100
AcDbEntity
  8
_U+30EC_U+30A4_U+30E4_U+30FC 1
370
     0
100
AcDbVertex
100
AcDb2dVertex
 10
89.35216876021404
 20
-134.5502712337235
 30
0.0
  0
VERTEX
  5
157
330
153
100
AcDbEntity
  8
_U+30EC_U+30A4_U+30E4_U+30FC 1
370
     0
100
AcDbVertex
100
AcDb2dVertex
 10
89.55956350842608
 20
-134.5502712337235
 30
0.0
  0
VERTEX
  5
158
330
153
100
AcDbEntity
  8
_U+30EC_U+30A4_U+30E4_U+30FC 1
370
     0
100
AcDbVertex
100
AcDb2dVertex
 10
89.55956350842608
 20
-134.3471828548681
 30
0.0
  0
SEQEND
  5
159
330
153
100
AcDbEntity
  8
_U+30EC_U+30A4_U+30E4_U+30FC 1
370
     0
  0
POLYLINE
  5
15A
330
130
100
AcDbEntity
  8
_U+30EC_U+30A4_U+30E4_U+30FC 1
370
     0
100
AcDb2dPolyline
 66
     1
 10
0.0
 20
0.0
 30
0.0
  0
VERTEX
  5
15B
330
15A
100
AcDbEntity
  8
_U+30EC_U+30A4_U+30E4_U+30FC 1
370
     0
100
AcDbVertex
100
AcDb2dVertex
 10
89.55956350842608
 20
-134.6729166329984
 30
0.0
  0
VERTEX
  5
15C
330
15A
100
AcDbEntity
  8
_U+30EC_U+30A4_U+30E4_U+30FC 1
370
     0
100
AcDbVertex
100
AcDb2dVertex
 10
89.35216876021404
 20
-134.6729166329984
 30
0.0
  0
VERTEX
  5
15D
330
15A
100
AcDbEntity
  8
_U+30EC_U+30A4_U+30E4_U+30FC 1
370
     0
100
AcDbVertex
100
AcDb2dVertex
 10
89.35216876021404
 20
-134.8803113812105
 30
0.0
  0
VERTEX
  5
15E
330
15A
100
AcDbEntity
  8
_U+30EC_U+30A4_U+30E4_U+30FC 1
370
     0
100
AcDbVertex
100
AcDb2dVertex
 10
89.55956350842608
 20
-134.8803113812105
 30
0.0
  0
VERTEX
  5
15F
330
15A
100
AcDbEntity
  8
_U+30EC_U+30A4_U+30E4_U+30FC 1
370
     0
100
AcDbVertex
100
AcDb2dVertex
 10
89.55956350842608
 20
-134.6729166329984
 30
0.0
  0
SEQEND
  5
160
330
15A
100
AcDbEntity
  8
_U+30EC_U+30A4_U+30E4_U+30FC 1
370
     0
  0
POLYLINE
  5
161
330
130
100
AcDbEntity
  8
_U+30EC_U+30A4_U+30E4_U+30FC 1
370
     0
100
AcDb2dPolyline
 66
     1
 10
0.0
 20
0.0
 30
0.0
  0
VERTEX
  5
162
330
161
100
AcDbEntity
  8
_U+30EC_U+30A4_U+30E4_U+30FC 1
370
     0
100
AcDbVertex
100
AcDb2dVertex
 10
89.92543264895961
 20
-134.3471828548681
 30
0.0
  0
VERTEX
  5
163
330
161
100
AcDbEntity
  8
_U+30EC_U+30A4_U+30E4_U+30FC 1
370
     0
100
AcDbVertex
100
AcDb2dVertex
 10
89.71390378616528
 20
-134.3471828548681
 30
0.0
  0
VERTEX
  5
164
330
161
100
AcDbEntity
  8
_U+30EC_U+30A4_U+30E4_U+30FC 1
370
     0
100
AcDbVertex
100
AcDb2dVertex
 10
89.71390378616528
 20
-134.5502712337235
 30
0.0
  0
VERTEX
  5
165
330
161
100
AcDbEntity
  8
_U+30EC_U+30A4_U+30E4_U+30FC 1
370
     0
100
AcDbVertex
100
AcDb2dVertex
 10
89.92543264895961
 20
-134.5502712337235
 30
0.0
  0
VERTEX
  5
166
330
161
100
AcDbEntity
  8
_U+30EC_U+30A4_U+30E4_U+30FC 1
370
     0
100
AcDbVertex
100
AcDb2dVertex
 10
89.92543264895961
 20
-134.3471828548681
 30
0.0
  0
SEQEND
  5
167
330
161
100
AcDbEntity
  8
_U+30EC_U+30A4_U+30E4_U+30FC 1
370
     0
  0
POLYLINE
  5
168
330
130
100
AcDbEntity
  8
_U+30EC_U+30A4_U+30E4_U+30FC 1
370
     0
100
AcDb2dPolyline
 66
     1
 10
0.0
 20
0.0
 30
0.0
  0
VERTEX
  5
169
330
168
100
AcDbEntity
  8
_U+30EC_U+30A4_U+30E4_U+30FC 1
370
     0
100
AcDbVertex
100
AcDb2dVertex
 10
89.92543264895961
 20
-134.6729166329984
 30
0.0
  0
VERTEX
  5
16A
330
168
100
AcDbEntity
  8
_U+30EC_U+30A4_U+30E4_U+30FC 1
370
     0
100
AcDbVertex
100
AcDb2dVertex
 10
89.71390378616528
 20
-134.6729166329984
 30
0.0
  0
VERTEX
  5
16B
330
168
100
AcDbEntity
  8
_U+30EC_U+30A4_U+30E4_U+30FC 1
370
     0
100
AcDbVertex
100
AcDb2dVertex
 10
89.71390378616528
 20
-134.8803113812105
 30
0.0
  0
VERTEX
  5
16C
330
168
100
AcDbEntity
  8
_U+30EC_U+30A4_U+30E4_U+30FC 1
370
     0
100
AcDbVertex
100
AcDb2dVertex
 10
89.92543264895961
 20
-134.8803113812105
 30
0.0
  0
VERTEX
  5
16D
330
168
100
AcDbEntity
  8
_U+30EC_U+30A4_U+30E4_U+30FC 1
370
     0
100
AcDbVertex
100
AcDb2dVertex
 10
89.92543264895961
 20
-134.6729166329984
 30
0.0
  0
SEQEND
  5
16E
330
168
100
AcDbEntity
  8
_U+30EC_U+30A4_U+30E4_U+30FC 1
370
     0
  0
SPLINE
  5
16F
330
130
100
AcDbEntity
  8
_U+30EC_U+30A4_U+30E4_U+30FC 1
370
     0
100
AcDbSpline
210
0.0
220
0.0
230
1.0
 70
    11
 71
     3
 72
    38
 73
    34
 74
     0
 42
0.0000000001
 43
0.0000000001
 12
1.0
 22
0.0
 32
0.0
 13
1.0
 23
0.0
 33
0.0
 40
0.0
 40
0.0
 40
0.0
 40
0.0
 40
1.0
 40
1.0
 40
1.0
 40
2.0
 40
2.0
 40
2.0
 40
3.0
 40
3.0
 40
3.0
 40
4.0
 40
4.0
 40
4.0
 40
5.0
 40
5.0
 40
5.0
 40
6.0
 40
6.0
 40
6.0
 40
7.0
 40
7.0
 40
7.0
 40
8.0
 40
8.0
 40
8.0
 40
9.0
 40
9.0
 40
9.0
 40
10.0
 40
10.0
 40
10.0
 40
11.0
 40
11.0
 40
11.0
 40
11.0
 10
89.96780732342819
 20
-135.5614067586444
 30
0.0
 10
90.05031736029993
 20
-135.5085245429458
 30
0.0
 10
90.21533743404339
 20
-135.4006930542575
 30
0.0
 10
90.32110186544057
 20
-135.1932983060454
 30
0.0
 10
90.4692409713063
 20
-134.9014987184448
 30
0.0
 10
90.4692409713063
 20
-134.6751559450639
 30
0.0
 10
90.4692409713063
 20
-134.5904065961267
 30
0.0
 10
90.4692409713063
 20
-134.5904065961267
 30
0.0
 10
90.4692409713063
 20
-134.3556233388069
 30
0.0
 10
90.4692409713063
 20
-134.3556233388069
 30
0.0
 10
90.4692409713063
 20
-134.3556233388069
 30
0.0
 10
90.63426104504977
 20
-134.3556233388069
 30
0.0
 10
90.63426104504977
 20
-134.3556233388069
 30
0.0
 10
90.63426104504977
 20
-134.3556233388069
 30
0.0
 10
90.63426104504977
 20
-134.5819661121878
 30
0.0
 10
90.63426104504977
 20
-134.5819661121878
 30
0.0
 10
90.63426104504977
 20
-134.780920376461
 30
0.0
 10
90.69971785926951
 20
-135.0177706910719
 30
0.0
 10
90.80134817608439
 20
-135.1912312487543
 30
0.0
 10
90.91762014871158
 20
-135.3901855130275
 30
0.0
 10
91.04663897463418
 20
-135.4895765177769
 30
0.0
 10
91.13138832357133
 20
-135.5508992174144
 30
0.0
 10
91.13138832357133
 20
-135.5508992174144
 30
0.0
 10
91.02338458010874
 20
-135.7011053805712
 30
0.0
 10
91.02338458010874
 20
-135.7011053805712
 30
0.0
 10
90.84578990784411
 20
-135.5720865546486
 30
0.0
 10
90.64683564357094
 20
-135.3329969279723
 30
0.0
 10
90.56863197605577
 20
-134.9797023859599
 30
0.0
 10
90.50300290706176
 20
-135.2187920126363
 30
0.0
 10
90.40154484502115
 20
-135.4875094604858
 30
0.0
 10
90.0926920347685
 20
-135.6967990112147
 30
0.0
 10
90.0926920347685
 20
-135.6967990112147
 30
0.0
 10
89.96780732342819
 20
-135.5614067586444
 30
0.0
 10
89.96780732342819
 20
-135.5614067586444
 30
0.0
  0
SPLINE
  5
170
330
130
100
AcDbEntity
  8
_U+30EC_U+30A4_U+30E4_U+30FC 1
370
     0
100
AcDbSpline
210
0.0
220
0.0
230
1.0
 70
    11
 71
     3
 72
    38
 73
    34
 74
     0
 42
0.0000000001
 43
0.0000000001
 12
1.0
 22
0.0
 32
0.0
 13
1.0
 23
0.0
 33
0.0
 40
0.0
 40
0.0
 40
0.0
 40
0.0
 40
1.0
 40
1.0
 40
1.0
 40
2.0
 40
2.0
 40
2.0
 40
3.0
 40
3.0
 40
3.0
 40
4.0
 40
4.0
 40
4.0
 40
5.0
 40
5.0
 40
5.0
 40
6.0
 40
6.0
 40
6.0
 40
7.0
 40
7.0
 40
7.0
 40
8.0
 40
8.0
 40
8.0
 40
9.0
 40
9.0
 40
9.0
 40
10.0
 40
10.0
 40
10.0
 40
11.0
 40
11.0
 40
11.0
 40
11.0
 10
90.08201223876422
 20
-134.4889485340861
 30
0.0
 10
90.17520207164023
 20
-134.3661308800369
 30
0.0
 10
90.29991452820627
 20
-134.1864691504812
 30
0.0
 10
90.39517141837344
 20
-133.7379177183016
 30
0.0
 10
90.39517141837344
 20
-133.7379177183016
 30
0.0
 10
90.56225854940806
 20
-133.7568657434705
 30
0.0
 10
90.56225854940806
 20
-133.7568657434705
 30
0.0
 10
90.53693709759146
 20
-133.8774440854542
 30
0.0
 10
90.51368270306602
 20
-133.9685668610391
 30
0.0
 10
90.47544214317975
 20
-134.0763983497274
 30
0.0
 10
90.47544214317975
 20
-134.0763983497274
 30
0.0
 10
91.10382755968932
 20
-134.0763983497274
 30
0.0
 10
91.10382755968932
 20
-134.0763983497274
 30
0.0
 10
91.10382755968932
 20
-134.0763983497274
 30
0.0
 10
91.10382755968932
 20
-134.2286715701755
 30
0.0
 10
91.10382755968932
 20
-134.2286715701755
 30
0.0
 10
91.07006562393387
 20
-134.3704372493935
 30
0.0
 10
90.97480873376672
 20
-134.6284749012387
 30
0.0
 10
90.90073918083385
 20
-134.7469861859313
 30
0.0
 10
90.90073918083385
 20
-134.7469861859313
 30
0.0
 10
90.7484659603858
 20
-134.6687825184162
 30
0.0
 10
90.7484659603858
 20
-134.6687825184162
 30
0.0
 10
90.8435505957787
 20
-134.5333902658458
 30
0.0
 10
90.90917966477271
 20
-134.3451157975769
 30
0.0
 10
90.9367404286547
 20
-134.2350449968232
 30
0.0
 10
90.9367404286547
 20
-134.2350449968232
 30
0.0
 10
90.41842581289887
 20
-134.2350449968232
 30
0.0
 10
90.41842581289887
 20
-134.2350449968232
 30
0.0
 10
90.31903480814941
 20
-134.4762016807907
 30
0.0
 10
90.24496525521654
 20
-134.5650851443101
 30
0.0
 10
90.20689695010454
 20
-134.6095268760699
 30
0.0
 10
90.20689695010454
 20
-134.6095268760699
 30
0.0
 10
90.08201223876422
 20
-134.4889485340861
 30
0.0
 10
90.08201223876422
 20
-134.4889485340861
 30
0.0
  0
HATCH
  5
171
330
130
100
AcDbEntity
  8
_U+30EC_U+30A4_U+30E4_U+30FC 1
 62
    12
420
 15007761
100
AcDbHatch
 10
0.0
 20
0.0
 30
0.0
210
0.0
220
0.0
230
1.0
  2
SOLID
 70
     1
 71
     0
 91
        7
 92
        1
 93
       28
 72
     1
 10
89.55956350842608
 20
-133.8986314226885
 11
89.55956350842608
 21
-133.7379177183016
 72
     1
 10
89.55956350842608
 20
-133.7379177183016
 11
89.71390378616528
 21
-133.7379177183016
 72
     1
 10
89.71390378616528
 20
-133.7379177183016
 11
89.71390378616528
 21
-133.8986314226885
 72
     1
 10
89.71390378616528
 20
-133.8986314226885
 11
90.10750594535507
 21
-133.8986314226885
 72
     1
 10
90.10750594535507
 20
-133.8986314226885
 11
90.10750594535507
 21
-134.053143955202
 72
     1
 10
90.10750594535507
 20
-134.053143955202
 11
89.71390378616528
 21
-134.053143955202
 72
     1
 10
89.71390378616528
 20
-134.053143955202
 11
89.71390378616528
 21
-134.2074842329412
 72
     1
 10
89.71390378616528
 20
-134.2074842329412
 11
90.0692653854688
 21
-134.2074842329412
 72
     1
 10
90.0692653854688
 20
-134.2074842329412
 11
90.0692653854688
 21
-135.0198377483631
 72
     1
 10
90.0692653854688
 20
-135.0198377483631
 11
89.71390378616528
 21
-135.0198377483631
 72
     1
 10
89.71390378616528
 20
-135.0198377483631
 11
89.71390378616528
 21
-135.1891641914631
 72
     1
 10
89.71390378616528
 20
-135.1891641914631
 11
90.12231985594164
 21
-135.1891641914631
 72
     1
 10
90.12231985594164
 20
-135.1891641914631
 11
90.12231985594164
 21
-135.3435044692023
 72
     1
 10
90.12231985594164
 20
-135.3435044692023
 11
89.71390378616528
 21
-135.3435044692023
 72
     1
 10
89.71390378616528
 20
-135.3435044692023
 11
89.71390378616528
 21
-135.6967990112147
 72
     1
 10
89.71390378616528
 20
-135.6967990112147
 11
89.55956350842608
 21
-135.6967990112147
 72
     1
 10
89.55956350842608
 20
-135.6967990112147
 11
89.55956350842608
 21
-135.3435044692023
 72
     1
 10
89.55956350842608
 20
-135.3435044692023
 11
89.14908038135857
 21
-135.3435044692023
 72
     1
 10
89.14908038135857
 20
-135.3435044692023
 11
89.14908038135857
 21
-135.1891641914631
 72
     1
 10
89.14908038135857
 20
-135.1891641914631
 11
89.55956350842608
 21
-135.1891641914631
 72
     1
 10
89.55956350842608
 20
-135.1891641914631
 11
89.55956350842608
 21
-135.0198377483631
 72
     1
 10
89.55956350842608
 20
-135.0198377483631
 11
89.21040308099602
 21
-135.0198377483631
 72
     1
 10
89.21040308099602
 20
-135.0198377483631
 11
89.21040308099602
 21
-134.2074842329412
 72
     1
 10
89.21040308099602
 20
-134.2074842329412
 11
89.55956350842608
 21
-134.2074842329412
 72
     1
 10
89.55956350842608
 20
-134.2074842329412
 11
89.55956350842608
 21
-134.053143955202
 72
     1
 10
89.55956350842608
 20
-134.053143955202
 11
89.17026771859285
 21
-134.053143955202
 72
     1
 10
89.17026771859285
 20
-134.053143955202
 11
89.17026771859285
 21
-133.8986314226885
 72
     1
 10
89.17026771859285
 20
-133.8986314226885
 11
89.55956350842608
 21
-133.8986314226885
 97
        0
 92
        1
 93
        4
 72
     1
 10
89.55956350842608
 20
-134.3471828548681
 11
89.35216876021404
 21
-134.3471828548681
 72
     1
 10
89.35216876021404
 20
-134.3471828548681
 11
89.35216876021404
 21
-134.5502712337235
 72
     1
 10
89.35216876021404
 20
-134.5502712337235
 11
89.55956350842608
 21
-134.5502712337235
 72
     1
 10
89.55956350842608
 20
-134.5502712337235
 11
89.55956350842608
 21
-134.3471828548681
 97
        0
 92
        1
 93
        4
 72
     1
 10
89.55956350842608
 20
-134.6729166329984
 11
89.35216876021404
 21
-134.6729166329984
 72
     1
 10
89.35216876021404
 20
-134.6729166329984
 11
89.35216876021404
 21
-134.8803113812105
 72
     1
 10
89.35216876021404
 20
-134.8803113812105
 11
89.55956350842608
 21
-134.8803113812105
 72
     1
 10
89.55956350842608
 20
-134.8803113812105
 11
89.55956350842608
 21
-134.6729166329984
 97
        0
 92
        1
 93
        4
 72
     1
 10
89.92543264895961
 20
-134.3471828548681
 11
89.71390378616528
 21
-134.3471828548681
 72
     1
 10
89.71390378616528
 20
-134.3471828548681
 11
89.71390378616528
 21
-134.5502712337235
 72
     1
 10
89.71390378616528
 20
-134.5502712337235
 11
89.92543264895961
 21
-134.5502712337235
 72
     1
 10
89.92543264895961
 20
-134.5502712337235
 11
89.92543264895961
 21
-134.3471828548681
 97
        0
 92
        1
 93
        4
 72
     1
 10
89.92543264895961
 20
-134.6729166329984
 11
89.71390378616528
 21
-134.6729166329984
 72
     1
 10
89.71390378616528
 20
-134.6729166329984
 11
89.71390378616528
 21
-134.8803113812105
 72
     1
 10
89.71390378616528
 20
-134.8803113812105
 11
89.92543264895961
 21
-134.8803113812105
 72
     1
 10
89.92543264895961
 20
-134.8803113812105
 11
89.92543264895961
 21
-134.6729166329984
 97
        0
 92
        1
 93
        1
 72
     4
 94
        3
 73
     0
 74
     1
 95
       38
 96
       34
 40
0.0
 40
0.0
 40
0.0
 40
0.0
 40
1.0
 40
1.0
 40
1.0
 40
2.0
 40
2.0
 40
2.0
 40
3.0
 40
3.0
 40
3.0
 40
4.0
 40
4.0
 40
4.0
 40
5.0
 40
5.0
 40
5.0
 40
6.0
 40
6.0
 40
6.0
 40
7.0
 40
7.0
 40
7.0
 40
8.0
 40
8.0
 40
8.0
 40
9.0
 40
9.0
 40
9.0
 40
10.0
 40
10.0
 40
10.0
 40
11.0
 40
11.0
 40
11.0
 40
11.0
 10
89.96780732342819
 20
-135.5614067586444
 10
90.05031736029993
 20
-135.5085245429458
 10
90.21533743404339
 20
-135.4006930542575
 10
90.32110186544057
 20
-135.1932983060454
 10
90.4692409713063
 20
-134.9014987184448
 10
90.4692409713063
 20
-134.6751559450639
 10
90.4692409713063
 20
-134.5904065961267
 10
90.4692409713063
 20
-134.5904065961267
 10
90.4692409713063
 20
-134.3556233388069
 10
90.4692409713063
 20
-134.3556233388069
 10
90.4692409713063
 20
-134.3556233388069
 10
90.63426104504977
 20
-134.3556233388069
 10
90.63426104504977
 20
-134.3556233388069
 10
90.63426104504977
 20
-134.3556233388069
 10
90.63426104504977
 20
-134.5819661121878
 10
90.63426104504977
 20
-134.5819661121878
 10
90.63426104504977
 20
-134.780920376461
 10
90.69971785926951
 20
-135.0177706910719
 10
90.80134817608439
 20
-135.1912312487543
 10
90.91762014871158
 20
-135.3901855130275
 10
91.04663897463418
 20
-135.4895765177769
 10
91.13138832357133
 20
-135.5508992174144
 10
91.13138832357133
 20
-135.5508992174144
 10
91.02338458010874
 20
-135.7011053805712
 10
91.02338458010874
 20
-135.7011053805712
 10
90.84578990784411
 20
-135.5720865546486
 10
90.64683564357094
 20
-135.3329969279723
 10
90.56863197605577
 20
-134.9797023859599
 10
90.50300290706176
 20
-135.2187920126363
 10
90.40154484502115
 20
-135.4875094604858
 10
90.0926920347685
 20
-135.6967990112147
 10
90.0926920347685
 20
-135.6967990112147
 10
89.96780732342819
 20
-135.5614067586444
 10
89.96780732342819
 20
-135.5614067586444
 97
        0
 97
        0
 92
        1
 93
        1
 72
     4
 94
        3
 73
     0
 74
     1
 95
       38
 96
       34
 40
0.0
 40
0.0
 40
0.0
 40
0.0
 40
1.0
 40
1.0
 40
1.0
 40
2.0
 40
2.0
 40
2.0
 40
3.0
 40
3.0
 40
3.0
 40
4.0
 40
4.0
 40
4.0
 40
5.0
 40
5.0
 40
5.0
 40
6.0
 40
6.0
 40
6.0
 40
7.0
 40
7.0
 40
7.0
 40
8.0
 40
8.0
 40
8.0
 40
9.0
 40
9.0
 40
9.0
 40
10.0
 40
10.0
 40
10.0
 40
11.0
 40
11.0
 40
11.0
 40
11.0
 10
90.08201223876422
 20
-134.4889485340861
 10
90.17520207164023
 20
-134.3661308800369
 10
90.29991452820627
 20
-134.1864691504812
 10
90.39517141837344
 20
-133.7379177183016
 10
90.39517141837344
 20
-133.7379177183016
 10
90.56225854940806
 20
-133.7568657434705
 10
90.56225854940806
 20
-133.7568657434705
 10
90.53693709759146
 20
-133.8774440854542
 10
90.51368270306602
 20
-133.9685668610391
 10
90.47544214317975
 20
-134.0763983497274
 10
90.47544214317975
 20
-134.0763983497274
 10
91.10382755968932
 20
-134.0763983497274
 10
91.10382755968932
 20
-134.0763983497274
 10
91.10382755968932
 20
-134.0763983497274
 10
91.10382755968932
 20
-134.2286715701755
 10
91.10382755968932
 20
-134.2286715701755
 10
91.07006562393387
 20
-134.3704372493935
 10
90.97480873376672
 20
-134.6284749012387
 10
90.90073918083385
 20
-134.7469861859313
 10
90.90073918083385
 20
-134.7469861859313
 10
90.7484659603858
 20
-134.6687825184162
 10
90.7484659603858
 20
-134.6687825184162
 10
90.8435505957787
 20
-134.5333902658458
 10
90.90917966477271
 20
-134.3451157975769
 10
90.9367404286547
 20
-134.2350449968232
 10
90.9367404286547
 20
-134.2350449968232
 10
90.41842581289887
 20
-134.2350449968232
 10
90.41842581289887
 20
-134.2350449968232
 10
90.31903480814941
 20
-134.4762016807907
 10
90.24496525521654
 20
-134.5650851443101
 10
90.20689695010454
 20
-134.6095268760699
 10
90.20689695010454
 20
-134.6095268760699
 10
90.08201223876422
 20
-134.4889485340861
 10
90.08201223876422
 20
-134.4889485340861
 97
        0
 97
        0
 75
     2
 76
     1
 98
        0
  0
SPLINE
  5
172
330
130
100
AcDbEntity
  8
_U+30EC_U+30A4_U+30E4_U+30FC 1
370
     0
100
AcDbSpline
210
0.0
220
0.0
230
1.0
 70
    11
 71
     3
 72
    50
 73
    46
 74
     0
 42
0.0000000001
 43
0.0000000001
 12
1.0
 22
0.0
 32
0.0
 13
1.0
 23
0.0
 33
0.0
 40
0.0
 40
0.0
 40
0.0
 40
0.0
 40
1.0
 40
1.0
 40
1.0
 40
2.0
 40
2.0
 40
2.0
 40
3.0
 40
3.0
 40
3.0
 40
4.0
 40
4.0
 40
4.0
 40
5.0
 40
5.0
 40
5.0
 40
6.0
 40
6.0
 40
6.0
 40
7.0
 40
7.0
 40
7.0
 40
8.0
 40
8.0
 40
8.0
 40
9.0
 40
9.0
 40
9.0
 40
10.0
 40
10.0
 40
10.0
 40
11.0
 40
11.0
 40
11.0
 40
12.0
 40
12.0
 40
12.0
 40
13.0
 40
13.0
 40
13.0
 40
14.0
 40
14.0
 40
14.0
 40
15.0
 40
15.0
 40
15.0
 40
15.0
 10
91.57666691503987
 20
-134.0362629873243
 30
0.0
 10
91.57666691503987
 20
-134.0362629873243
 30
0.0
 10
92.22830672607488
 20
-134.0362629873243
 30
0.0
 10
92.22830672607488
 20
-134.0362629873243
 30
0.0
 10
92.22830672607488
 20
-134.0362629873243
 30
0.0
 10
92.22830672607488
 20
-134.1609754438903
 30
0.0
 10
92.22830672607488
 20
-134.1609754438903
 30
0.0
 10
92.22830672607488
 20
-134.1609754438903
 30
0.0
 10
91.95114879428652
 20
-134.1609754438903
 30
0.0
 10
91.95114879428652
 20
-134.1609754438903
 30
0.0
 10
91.95114879428652
 20
-134.1609754438903
 30
0.0
 10
91.95114879428652
 20
-134.4360663183875
 30
0.0
 10
91.95114879428652
 20
-134.4360663183875
 30
0.0
 10
91.95114879428652
 20
-134.4360663183875
 30
0.0
 10
91.79043508989962
 20
-134.4360663183875
 30
0.0
 10
91.79043508989962
 20
-134.4360663183875
 30
0.0
 10
91.79043508989962
 20
-134.4360663183875
 30
0.0
 10
91.79043508989962
 20
-134.1609754438903
 30
0.0
 10
91.79043508989962
 20
-134.1609754438903
 30
0.0
 10
91.79043508989962
 20
-134.1609754438903
 30
0.0
 10
91.57046574316641
 20
-134.1609754438903
 30
0.0
 10
91.57046574316641
 20
-134.1609754438903
 30
0.0
 10
91.55978594716214
 20
-134.2307386274666
 30
0.0
 10
91.53446449534556
 20
-134.4253865223832
 30
0.0
 10
91.3799519628321
 20
-134.5755926855401
 30
0.0
 10
91.3799519628321
 20
-134.5755926855401
 30
0.0
 10
91.25730656355721
 20
-134.4656941395607
 30
0.0
 10
91.25730656355721
 20
-134.4656941395607
 30
0.0
 10
91.37788490554095
 20
-134.3661308800369
 30
0.0
 10
91.42025958000953
 20
-134.1609754438903
 30
0.0
 10
91.42025958000953
 20
-134.0784654070186
 30
0.0
 10
91.42025958000953
 20
-134.0784654070186
 30
0.0
 10
91.42025958000953
 20
-133.7928669912914
 30
0.0
 10
91.42025958000953
 20
-133.7928669912914
 30
0.0
 10
91.90464000523565
 20
-133.7928669912914
 30
0.0
 10
92.0591525377491
 20
-133.7463582022405
 30
0.0
 10
92.15423717314201
 20
-133.7187974383585
 30
0.0
 10
92.15423717314201
 20
-133.7187974383585
 30
0.0
 10
92.20711938884058
 20
-133.8584960602854
 30
0.0
 10
92.20711938884058
 20
-133.8584960602854
 30
0.0
 10
91.9976575833374
 20
-133.9070719066274
 30
0.0
 10
91.83487682165934
 20
-133.9177517026317
 30
0.0
 10
91.57666691503987
 20
-133.921885817214
 30
0.0
 10
91.57666691503987
 20
-133.921885817214
 30
0.0
 10
91.57666691503987
 20
-134.0362629873243
 30
0.0
 10
91.57666691503987
 20
-134.0362629873243
 30
0.0
  0
SPLINE
  5
173
330
130
100
AcDbEntity
  8
_U+30EC_U+30A4_U+30E4_U+30FC 1
370
     0
100
AcDbSpline
210
0.0
220
0.0
230
1.0
 70
    11
 71
     3
 72
    32
 73
    28
 74
     0
 42
0.0000000001
 43
0.0000000001
 12
1.0
 22
0.0
 32
0.0
 13
1.0
 23
0.0
 33
0.0
 40
0.0
 40
0.0
 40
0.0
 40
0.0
 40
1.0
 40
1.0
 40
1.0
 40
2.0
 40
2.0
 40
2.0
 40
3.0
 40
3.0
 40
3.0
 40
4.0
 40
4.0
 40
4.0
 40
5.0
 40
5.0
 40
5.0
 40
6.0
 40
6.0
 40
6.0
 40
7.0
 40
7.0
 40
7.0
 40
8.0
 40
8.0
 40
8.0
 40
9.0
 40
9.0
 40
9.0
 40
9.0
 10
91.49208982087698
 20
-135.3815727743143
 30
0.0
 10
91.49208982087698
 20
-135.3815727743143
 30
0.0
 10
91.49208982087698
 20
-134.4825751074384
 30
0.0
 10
91.49208982087698
 20
-134.4825751074384
 30
0.0
 10
91.49208982087698
 20
-134.4825751074384
 30
0.0
 10
92.98984508308935
 20
-134.4825751074384
 30
0.0
 10
92.98984508308935
 20
-134.4825751074384
 30
0.0
 10
92.98984508308935
 20
-134.4825751074384
 30
0.0
 10
92.98984508308935
 20
-135.3815727743143
 30
0.0
 10
92.98984508308935
 20
-135.3815727743143
 30
0.0
 10
92.98984508308935
 20
-135.3815727743143
 30
0.0
 10
91.84538436288935
 20
-135.3815727743143
 30
0.0
 10
91.84538436288935
 20
-135.3815727743143
 30
0.0
 10
91.84538436288935
 20
-135.3815727743143
 30
0.0
 10
91.95114879428652
 20
-135.4916435750681
 30
0.0
 10
91.95114879428652
 20
-135.4916435750681
 30
0.0
 10
91.78612872054306
 20
-135.5869004652352
 30
0.0
 10
91.62110864679958
 20
-135.6482231648727
 30
0.0
 10
91.32500268984236
 20
-135.6990383232801
 30
0.0
 10
91.32500268984236
 20
-135.6990383232801
 30
0.0
 10
91.25937362084835
 20
-135.5465928480578
 30
0.0
 10
91.25937362084835
 20
-135.5465928480578
 30
0.0
 10
91.63816186945158
 20
-135.4937106323592
 30
0.0
 10
91.76080726872647
 20
-135.4260145060741
 30
0.0
 10
91.84125024830705
 20
-135.3815727743143
 30
0.0
 10
91.84125024830705
 20
-135.3815727743143
 30
0.0
 10
91.49208982087698
 20
-135.3815727743143
 30
0.0
 10
91.49208982087698
 20
-135.3815727743143
 30
0.0
  0
POLYLINE
  5
174
330
130
100
AcDbEntity
  8
_U+30EC_U+30A4_U+30E4_U+30FC 1
370
     0
100
AcDb2dPolyline
 66
     1
 10
0.0
 20
0.0
 30
0.0
  0
VERTEX
  5
175
330
174
100
AcDbEntity
  8
_U+30EC_U+30A4_U+30E4_U+30FC 1
370
     0
100
AcDbVertex
100
AcDb2dVertex
 10
92.82069089476359
 20
-134.6159003027176
 30
0.0
  0
VERTEX
  5
176
330
174
100
AcDbEntity
  8
_U+30EC_U+30A4_U+30E4_U+30FC 1
370
     0
100
AcDbVertex
100
AcDb2dVertex
 10
91.66141626397702
 20
-134.6159003027176
 30
0.0
  0
VERTEX
  5
177
330
174
100
AcDbEntity
  8
_U+30EC_U+30A4_U+30E4_U+30FC 1
370
     0
100
AcDbVertex
100
AcDb2dVertex
 10
91.66141626397702
 20
-134.7449191286402
 30
0.0
  0
VERTEX
  5
178
330
174
100
AcDbEntity
  8
_U+30EC_U+30A4_U+30E4_U+30FC 1
370
     0
100
AcDbVertex
100
AcDb2dVertex
 10
92.82069089476359
 20
-134.7449191286402
 30
0.0
  0
VERTEX
  5
179
330
174
100
AcDbEntity
  8
_U+30EC_U+30A4_U+30E4_U+30FC 1
370
     0
100
AcDbVertex
100
AcDb2dVertex
 10
92.82069089476359
 20
-134.6159003027176
 30
0.0
  0
SEQEND
  5
17A
330
174
100
AcDbEntity
  8
_U+30EC_U+30A4_U+30E4_U+30FC 1
370
     0
  0
POLYLINE
  5
17B
330
130
100
AcDbEntity
  8
_U+30EC_U+30A4_U+30E4_U+30FC 1
370
     0
100
AcDb2dPolyline
 66
     1
 10
0.0
 20
0.0
 30
0.0
  0
VERTEX
  5
17C
330
17B
100
AcDbEntity
  8
_U+30EC_U+30A4_U+30E4_U+30FC 1
370
     0
100
AcDbVertex
100
AcDb2dVertex
 10
92.82069089476359
 20
-134.8548176746196
 30
0.0
  0
VERTEX
  5
17D
330
17B
100
AcDbEntity
  8
_U+30EC_U+30A4_U+30E4_U+30FC 1
370
     0
100
AcDbVertex
100
AcDb2dVertex
 10
91.66141626397702
 20
-134.8548176746196
 30
0.0
  0
VERTEX
  5
17E
330
17B
100
AcDbEntity
  8
_U+30EC_U+30A4_U+30E4_U+30FC 1
370
     0
100
AcDbVertex
100
AcDb2dVertex
 10
91.66141626397702
 20
-134.9965833538377
 30
0.0
  0
VERTEX
  5
17F
330
17B
100
AcDbEntity
  8
_U+30EC_U+30A4_U+30E4_U+30FC 1
370
     0
100
AcDbVertex
100
AcDb2dVertex
 10
92.82069089476359
 20
-134.9965833538377
 30
0.0
  0
VERTEX
  5
180
330
17B
100
AcDbEntity
  8
_U+30EC_U+30A4_U+30E4_U+30FC 1
370
     0
100
AcDbVertex
100
AcDb2dVertex
 10
92.82069089476359
 20
-134.8548176746196
 30
0.0
  0
SEQEND
  5
181
330
17B
100
AcDbEntity
  8
_U+30EC_U+30A4_U+30E4_U+30FC 1
370
     0
  0
POLYLINE
  5
182
330
130
100
AcDbEntity
  8
_U+30EC_U+30A4_U+30E4_U+30FC 1
370
     0
100
AcDb2dPolyline
 66
     1
 10
0.0
 20
0.0
 30
0.0
  0
VERTEX
  5
183
330
182
100
AcDbEntity
  8
_U+30EC_U+30A4_U+30E4_U+30FC 1
370
     0
100
AcDbVertex
100
AcDb2dVertex
 10
92.82069089476359
 20
-135.1066541545914
 30
0.0
  0
VERTEX
  5
184
330
182
100
AcDbEntity
  8
_U+30EC_U+30A4_U+30E4_U+30FC 1
370
     0
100
AcDbVertex
100
AcDb2dVertex
 10
91.66141626397702
 20
-135.1066541545914
 30
0.0
  0
VERTEX
  5
185
330
182
100
AcDbEntity
  8
_U+30EC_U+30A4_U+30E4_U+30FC 1
370
     0
100
AcDbVertex
100
AcDb2dVertex
 10
91.66141626397702
 20
-135.246180521744
 30
0.0
  0
VERTEX
  5
186
330
182
100
AcDbEntity
  8
_U+30EC_U+30A4_U+30E4_U+30FC 1
370
     0
100
AcDbVertex
100
AcDb2dVertex
 10
92.82069089476359
 20
-135.246180521744
 30
0.0
  0
VERTEX
  5
187
330
182
100
AcDbEntity
  8
_U+30EC_U+30A4_U+30E4_U+30FC 1
370
     0
100
AcDbVertex
100
AcDb2dVertex
 10
92.82069089476359
 20
-135.1066541545914
 30
0.0
  0
SEQEND
  5
188
330
182
100
AcDbEntity
  8
_U+30EC_U+30A4_U+30E4_U+30FC 1
370
     0
  0
SPLINE
  5
189
330
130
100
AcDbEntity
  8
_U+30EC_U+30A4_U+30E4_U+30FC 1
370
     0
100
AcDbSpline
210
0.0
220
0.0
230
1.0
 70
    11
 71
     3
 72
    50
 73
    46
 74
     0
 42
0.0000000001
 43
0.0000000001
 12
1.0
 22
0.0
 32
0.0
 13
1.0
 23
0.0
 33
0.0
 40
0.0
 40
0.0
 40
0.0
 40
0.0
 40
1.0
 40
1.0
 40
1.0
 40
2.0
 40
2.0
 40
2.0
 40
3.0
 40
3.0
 40
3.0
 40
4.0
 40
4.0
 40
4.0
 40
5.0
 40
5.0
 40
5.0
 40
6.0
 40
6.0
 40
6.0
 40
7.0
 40
7.0
 40
7.0
 40
8.0
 40
8.0
 40
8.0
 40
9.0
 40
9.0
 40
9.0
 40
10.0
 40
10.0
 40
10.0
 40
11.0
 40
11.0
 40
11.0
 40
12.0
 40
12.0
 40
12.0
 40
13.0
 40
13.0
 40
13.0
 40
14.0
 40
14.0
 40
14.0
 40
15.0
 40
15.0
 40
15.0
 40
15.0
 10
92.48427732062893
 20
-134.0362629873243
 30
0.0
 10
92.48427732062893
 20
-134.0362629873243
 30
0.0
 10
93.22049422582683
 20
-134.0362629873243
 30
0.0
 10
93.22049422582683
 20
-134.0362629873243
 30
0.0
 10
93.22049422582683
 20
-134.0362629873243
 30
0.0
 10
93.22049422582683
 20
-134.1609754438903
 30
0.0
 10
93.22049422582683
 20
-134.1609754438903
 30
0.0
 10
93.22049422582683
 20
-134.1609754438903
 30
0.0
 10
92.89045407833989
 20
-134.1609754438903
 30
0.0
 10
92.89045407833989
 20
-134.1609754438903
 30
0.0
 10
92.89045407833989
 20
-134.1609754438903
 30
0.0
 10
92.89045407833989
 20
-134.4360663183875
 30
0.0
 10
92.89045407833989
 20
-134.4360663183875
 30
0.0
 10
92.89045407833989
 20
-134.4360663183875
 30
0.0
 10
92.73387448853529
 20
-134.4360663183875
 30
0.0
 10
92.73387448853529
 20
-134.4360663183875
 30
0.0
 10
92.73387448853529
 20
-134.4360663183875
 30
0.0
 10
92.73387448853529
 20
-134.1609754438903
 30
0.0
 10
92.73387448853529
 20
-134.1609754438903
 30
0.0
 10
92.73387448853529
 20
-134.1609754438903
 30
0.0
 10
92.46946341004237
 20
-134.1609754438903
 30
0.0
 10
92.46946341004237
 20
-134.1609754438903
 30
0.0
 10
92.44414195822577
 20
-134.2899942698129
 30
0.0
 10
92.39332679981834
 20
-134.3809447906235
 30
0.0
 10
92.29600285236003
 20
-134.4634548274952
 30
0.0
 10
92.29600285236003
 20
-134.4634548274952
 30
0.0
 10
92.17335745308513
 20
-134.3556233388069
 30
0.0
 10
92.17335745308513
 20
-134.3556233388069
 30
0.0
 10
92.30874970565546
 20
-134.2455525380532
 30
0.0
 10
92.3320041001809
 20
-134.1080932281917
 30
0.0
 10
92.3320041001809
 20
-134.0340236752589
 30
0.0
 10
92.3320041001809
 20
-134.0340236752589
 30
0.0
 10
92.3320041001809
 20
-133.7907999340002
 30
0.0
 10
92.3320041001809
 20
-133.7907999340002
 30
0.0
 10
92.80157061482045
 20
-133.7907999340002
 30
0.0
 10
92.96883000062932
 20
-133.7506645715971
 30
0.0
 10
93.1126627371385
 20
-133.7082898971285
 30
0.0
 10
93.1126627371385
 20
-133.7082898971285
 30
0.0
 10
93.17191837948481
 20
-133.84574920699
 30
0.0
 10
93.17191837948481
 20
-133.84574920699
 30
0.0
 10
92.90113387434417
 20
-133.9156846453405
 30
0.0
 10
92.58590763744381
 20
-133.9198187599228
 30
0.0
 10
92.48427732062893
 20
-133.9198187599228
 30
0.0
 10
92.48427732062893
 20
-133.9198187599228
 30
0.0
 10
92.48427732062893
 20
-134.0362629873243
 30
0.0
 10
92.48427732062893
 20
-134.0362629873243
 30
0.0
  0
SPLINE
  5
18A
330
130
100
AcDbEntity
  8
_U+30EC_U+30A4_U+30E4_U+30FC 1
370
     0
100
AcDbSpline
210
0.0
220
0.0
230
1.0
 70
    11
 71
     3
 72
    17
 73
    13
 74
     0
 42
0.0000000001
 43
0.0000000001
 12
1.0
 22
0.0
 32
0.0
 13
1.0
 23
0.0
 33
0.0
 40
0.0
 40
0.0
 40
0.0
 40
0.0
 40
1.0
 40
1.0
 40
1.0
 40
2.0
 40
2.0
 40
2.0
 40
3.0
 40
3.0
 40
3.0
 40
4.0
 40
4.0
 40
4.0
 40
4.0
 10
92.59641517867382
 20
-135.387946200962
 30
0.0
 10
92.81638452540702
 20
-135.5000840590069
 30
0.0
 10
93.08303491596536
 20
-135.5381523641189
 30
0.0
 10
93.21205374188796
 20
-135.5488321601232
 30
0.0
 10
93.21205374188796
 20
-135.5488321601232
 30
0.0
 10
93.14229055831166
 20
-135.7031724378624
 30
0.0
 10
93.14229055831166
 20
-135.7031724378624
 30
0.0
 10
93.02171221632791
 20
-135.6883585272758
 30
0.0
 10
92.75936819512613
 20
-135.6482231648727
 30
0.0
 10
92.49495711663322
 20
-135.5021511162981
 30
0.0
 10
92.49495711663322
 20
-135.5021511162981
 30
0.0
 10
92.59641517867382
 20
-135.387946200962
 30
0.0
 10
92.59641517867382
 20
-135.387946200962
 30
0.0
  0
HATCH
  5
18B
330
130
100
AcDbEntity
  8
_U+30EC_U+30A4_U+30E4_U+30FC 1
 62
    12
420
 15007761
100
AcDbHatch
 10
0.0
 20
0.0
 30
0.0
210
0.0
220
0.0
230
1.0
  2
SOLID
 70
     1
 71
     0
 91
        7
 92
        1
 93
        1
 72
     4
 94
        3
 73
     0
 74
     1
 95
       50
 96
       46
 40
0.0
 40
0.0
 40
0.0
 40
0.0
 40
1.0
 40
1.0
 40
1.0
 40
2.0
 40
2.0
 40
2.0
 40
3.0
 40
3.0
 40
3.0
 40
4.0
 40
4.0
 40
4.0
 40
5.0
 40
5.0
 40
5.0
 40
6.0
 40
6.0
 40
6.0
 40
7.0
 40
7.0
 40
7.0
 40
8.0
 40
8.0
 40
8.0
 40
9.0
 40
9.0
 40
9.0
 40
10.0
 40
10.0
 40
10.0
 40
11.0
 40
11.0
 40
11.0
 40
12.0
 40
12.0
 40
12.0
 40
13.0
 40
13.0
 40
13.0
 40
14.0
 40
14.0
 40
14.0
 40
15.0
 40
15.0
 40
15.0
 40
15.0
 10
91.57666691503987
 20
-134.0362629873243
 10
91.57666691503987
 20
-134.0362629873243
 10
92.22830672607488
 20
-134.0362629873243
 10
92.22830672607488
 20
-134.0362629873243
 10
92.22830672607488
 20
-134.0362629873243
 10
92.22830672607488
 20
-134.1609754438903
 10
92.22830672607488
 20
-134.1609754438903
 10
92.22830672607488
 20
-134.1609754438903
 10
91.95114879428652
 20
-134.1609754438903
 10
91.95114879428652
 20
-134.1609754438903
 10
91.95114879428652
 20
-134.1609754438903
 10
91.95114879428652
 20
-134.4360663183875
 10
91.95114879428652
 20
-134.4360663183875
 10
91.95114879428652
 20
-134.4360663183875
 10
91.79043508989962
 20
-134.4360663183875
 10
91.79043508989962
 20
-134.4360663183875
 10
91.79043508989962
 20
-134.4360663183875
 10
91.79043508989962
 20
-134.1609754438903
 10
91.79043508989962
 20
-134.1609754438903
 10
91.79043508989962
 20
-134.1609754438903
 10
91.57046574316641
 20
-134.1609754438903
 10
91.57046574316641
 20
-134.1609754438903
 10
91.55978594716214
 20
-134.2307386274666
 10
91.53446449534556
 20
-134.4253865223832
 10
91.3799519628321
 20
-134.5755926855401
 10
91.3799519628321
 20
-134.5755926855401
 10
91.25730656355721
 20
-134.4656941395607
 10
91.25730656355721
 20
-134.4656941395607
 10
91.37788490554095
 20
-134.3661308800369
 10
91.42025958000953
 20
-134.1609754438903
 10
91.42025958000953
 20
-134.0784654070186
 10
91.42025958000953
 20
-134.0784654070186
 10
91.42025958000953
 20
-133.7928669912914
 10
91.42025958000953
 20
-133.7928669912914
 10
91.90464000523565
 20
-133.7928669912914
 10
92.0591525377491
 20
-133.7463582022405
 10
92.15423717314201
 20
-133.7187974383585
 10
92.15423717314201
 20
-133.7187974383585
 10
92.20711938884058
 20
-133.8584960602854
 10
92.20711938884058
 20
-133.8584960602854
 10
91.9976575833374
 20
-133.9070719066274
 10
91.83487682165934
 20
-133.9177517026317
 10
91.57666691503987
 20
-133.921885817214
 10
91.57666691503987
 20
-133.921885817214
 10
91.57666691503987
 20
-134.0362629873243
 10
91.57666691503987
 20
-134.0362629873243
 97
        0
 97
        0
 92
        1
 93
        1
 72
     4
 94
        3
 73
     0
 74
     1
 95
       32
 96
       28
 40
0.0
 40
0.0
 40
0.0
 40
0.0
 40
1.0
 40
1.0
 40
1.0
 40
2.0
 40
2.0
 40
2.0
 40
3.0
 40
3.0
 40
3.0
 40
4.0
 40
4.0
 40
4.0
 40
5.0
 40
5.0
 40
5.0
 40
6.0
 40
6.0
 40
6.0
 40
7.0
 40
7.0
 40
7.0
 40
8.0
 40
8.0
 40
8.0
 40
9.0
 40
9.0
 40
9.0
 40
9.0
 10
91.49208982087698
 20
-135.3815727743143
 10
91.49208982087698
 20
-135.3815727743143
 10
91.49208982087698
 20
-134.4825751074384
 10
91.49208982087698
 20
-134.4825751074384
 10
91.49208982087698
 20
-134.4825751074384
 10
92.98984508308935
 20
-134.4825751074384
 10
92.98984508308935
 20
-134.4825751074384
 10
92.98984508308935
 20
-134.4825751074384
 10
92.98984508308935
 20
-135.3815727743143
 10
92.98984508308935
 20
-135.3815727743143
 10
92.98984508308935
 20
-135.3815727743143
 10
91.84538436288935
 20
-135.3815727743143
 10
91.84538436288935
 20
-135.3815727743143
 10
91.84538436288935
 20
-135.3815727743143
 10
91.95114879428652
 20
-135.4916435750681
 10
91.95114879428652
 20
-135.4916435750681
 10
91.78612872054306
 20
-135.5869004652352
 10
91.62110864679958
 20
-135.6482231648727
 10
91.32500268984236
 20
-135.6990383232801
 10
91.32500268984236
 20
-135.6990383232801
 10
91.25937362084835
 20
-135.5465928480578
 10
91.25937362084835
 20
-135.5465928480578
 10
91.63816186945158
 20
-135.4937106323592
 10
91.76080726872647
 20
-135.4260145060741
 10
91.84125024830705
 20
-135.3815727743143
 10
91.84125024830705
 20
-135.3815727743143
 10
91.49208982087698
 20
-135.3815727743143
 10
91.49208982087698
 20
-135.3815727743143
 97
        0
 97
        0
 92
        1
 93
        4
 72
     1
 10
92.82069089476359
 20
-134.6159003027176
 11
91.66141626397702
 21
-134.6159003027176
 72
     1
 10
91.66141626397702
 20
-134.6159003027176
 11
91.66141626397702
 21
-134.7449191286402
 72
     1
 10
91.66141626397702
 20
-134.7449191286402
 11
92.82069089476359
 21
-134.7449191286402
 72
     1
 10
92.82069089476359
 20
-134.7449191286402
 11
92.82069089476359
 21
-134.6159003027176
 97
        0
 92
        1
 93
        4
 72
     1
 10
92.82069089476359
 20
-134.8548176746196
 11
91.66141626397702
 21
-134.8548176746196
 72
     1
 10
91.66141626397702
 20
-134.8548176746196
 11
91.66141626397702
 21
-134.9965833538377
 72
     1
 10
91.66141626397702
 20
-134.9965833538377
 11
92.82069089476359
 21
-134.9965833538377
 72
     1
 10
92.82069089476359
 20
-134.9965833538377
 11
92.82069089476359
 21
-134.8548176746196
 97
        0
 92
        1
 93
        4
 72
     1
 10
92.82069089476359
 20
-135.1066541545914
 11
91.66141626397702
 21
-135.1066541545914
 72
     1
 10
91.66141626397702
 20
-135.1066541545914
 11
91.66141626397702
 21
-135.246180521744
 72
     1
 10
91.66141626397702
 20
-135.246180521744
 11
92.82069089476359
 21
-135.246180521744
 72
     1
 10
92.82069089476359
 20
-135.246180521744
 11
92.82069089476359
 21
-135.1066541545914
 97
        0
 92
        1
 93
        1
 72
     4
 94
        3
 73
     0
 74
     1
 95
       50
 96
       46
 40
0.0
 40
0.0
 40
0.0
 40
0.0
 40
1.0
 40
1.0
 40
1.0
 40
2.0
 40
2.0
 40
2.0
 40
3.0
 40
3.0
 40
3.0
 40
4.0
 40
4.0
 40
4.0
 40
5.0
 40
5.0
 40
5.0
 40
6.0
 40
6.0
 40
6.0
 40
7.0
 40
7.0
 40
7.0
 40
8.0
 40
8.0
 40
8.0
 40
9.0
 40
9.0
 40
9.0
 40
10.0
 40
10.0
 40
10.0
 40
11.0
 40
11.0
 40
11.0
 40
12.0
 40
12.0
 40
12.0
 40
13.0
 40
13.0
 40
13.0
 40
14.0
 40
14.0
 40
14.0
 40
15.0
 40
15.0
 40
15.0
 40
15.0
 10
92.48427732062893
 20
-134.0362629873243
 10
92.48427732062893
 20
-134.0362629873243
 10
93.22049422582683
 20
-134.0362629873243
 10
93.22049422582683
 20
-134.0362629873243
 10
93.22049422582683
 20
-134.0362629873243
 10
93.22049422582683
 20
-134.1609754438903
 10
93.22049422582683
 20
-134.1609754438903
 10
93.22049422582683
 20
-134.1609754438903
 10
92.89045407833989
 20
-134.1609754438903
 10
92.89045407833989
 20
-134.1609754438903
 10
92.89045407833989
 20
-134.1609754438903
 10
92.89045407833989
 20
-134.4360663183875
 10
92.89045407833989
 20
-134.4360663183875
 10
92.89045407833989
 20
-134.4360663183875
 10
92.73387448853529
 20
-134.4360663183875
 10
92.73387448853529
 20
-134.4360663183875
 10
92.73387448853529
 20
-134.4360663183875
 10
92.73387448853529
 20
-134.1609754438903
 10
92.73387448853529
 20
-134.1609754438903
 10
92.73387448853529
 20
-134.1609754438903
 10
92.46946341004237
 20
-134.1609754438903
 10
92.46946341004237
 20
-134.1609754438903
 10
92.44414195822577
 20
-134.2899942698129
 10
92.39332679981834
 20
-134.3809447906235
 10
92.29600285236003
 20
-134.4634548274952
 10
92.29600285236003
 20
-134.4634548274952
 10
92.17335745308513
 20
-134.3556233388069
 10
92.17335745308513
 20
-134.3556233388069
 10
92.30874970565546
 20
-134.2455525380532
 10
92.3320041001809
 20
-134.1080932281917
 10
92.3320041001809
 20
-134.0340236752589
 10
92.3320041001809
 20
-134.0340236752589
 10
92.3320041001809
 20
-133.7907999340002
 10
92.3320041001809
 20
-133.7907999340002
 10
92.80157061482045
 20
-133.7907999340002
 10
92.96883000062932
 20
-133.7506645715971
 10
93.1126627371385
 20
-133.7082898971285
 10
93.1126627371385
 20
-133.7082898971285
 10
93.17191837948481
 20
-133.84574920699
 10
93.17191837948481
 20
-133.84574920699
 10
92.90113387434417
 20
-133.9156846453405
 10
92.58590763744381
 20
-133.9198187599228
 10
92.48427732062893
 20
-133.9198187599228
 10
92.48427732062893
 20
-133.9198187599228
 10
92.48427732062893
 20
-134.0362629873243
 10
92.48427732062893
 20
-134.0362629873243
 97
        0
 97
        0
 92
        1
 93
        1
 72
     4
 94
        3
 73
     0
 74
     1
 95
       17
 96
       13
 40
0.0
 40
0.0
 40
0.0
 40
0.0
 40
1.0
 40
1.0
 40
1.0
 40
2.0
 40
2.0
 40
2.0
 40
3.0
 40
3.0
 40
3.0
 40
4.0
 40
4.0
 40
4.0
 40
4.0
 10
92.59641517867382
 20
-135.387946200962
 10
92.81638452540702
 20
-135.5000840590069
 10
93.08303491596536
 20
-135.5381523641189
 10
93.21205374188796
 20
-135.5488321601232
 10
93.21205374188796
 20
-135.5488321601232
 10
93.14229055831166
 20
-135.7031724378624
 10
93.14229055831166
 20
-135.7031724378624
 10
93.02171221632791
 20
-135.6883585272758
 10
92.75936819512613
 20
-135.6482231648727
 10
92.49495711663322
 20
-135.5021511162981
 10
92.49495711663322
 20
-135.5021511162981
 10
92.59641517867382
 20
-135.387946200962
 10
92.59641517867382
 20
-135.387946200962
 97
        0
 97
        0
 75
     2
 76
     1
 98
        0
  0
ENDBLK
  5
133
330
130
100
AcDbEntity
  8
0
100
AcDbBlockEnd
  0
ENDSEC
  0
SECTION
  2
ENTITIES
  0
SPLINE
  5
41
330
1F
100
AcDbEntity
  8
_U+30EC_U+30A4_U+30E4_U+30FC 1
 62
   179
420
  2234388
370
     9
100
AcDbSpline
210
0.0
220
0.0
230
1.0
 70
    11
 71
     3
 72
    17
 73
    13
 74
     0
 42
0.0000000001
 43
0.0000000001
 12
1.0
 22
0.0
 32
0.0
 13
1.0
 23
0.0
 33
0.0
 40
0.0
 40
0.0
 40
0.0
 40
0.0
 40
1.0
 40
1.0
 40
1.0
 40
2.0
 40
2.0
 40
2.0
 40
3.0
 40
3.0
 40
3.0
 40
4.0
 40
4.0
 40
4.0
 40
4.0
 10
94.11320997640388
 20
-164.6928973316024
 30
0.0
 10
94.11320997640388
 20
-164.7479327319793
 30
0.0
 10
94.15801236659722
 20
-164.7927405051343
 30
0.0
 10
94.21304507549324
 20
-164.7927405051343
 30
0.0
 10
94.26807778438926
 20
-164.7927405051343
 30
0.0
 10
94.31288017458259
 20
-164.7479327319793
 30
0.0
 10
94.31288017458259
 20
-164.6928973316024
 30
0.0
 10
94.31288017458259
 20
-164.6378834630723
 30
0.0
 10
94.26807778438926
 20
-164.5930756899173
 30
0.0
 10
94.21304507549324
 20
-164.5930756899173
 30
0.0
 10
94.15801236659722
 20
-164.5930756899173
 30
0.0
 10
94.11320997640388
 20
-164.6378834630723
 30
0.0
 10
94.11320997640388
 20
-164.6928973316024
 30
0.0
  0
SPLINE
  5
42
330
1F
100
AcDbEntity
  8
_U+30EC_U+30A4_U+30E4_U+30FC 1
 62
   179
420
  2234388
370
     9
100
AcDbSpline
210
0.0
220
0.0
230
1.0
 70
    11
 71
     3
 72
    17
 73
    13
 74
     0
 42
0.0000000001
 43
0.0000000001
 12
1.0
 22
0.0
 32
0.0
 13
1.0
 23
0.0
 33
0.0
 40
0.0
 40
0.0
 40
0.0
 40
0.0
 40
1.0
 40
1.0
 40
1.0
 40
2.0
 40
2.0
 40
2.0
 40
3.0
 40
3.0
 40
3.0
 40
4.0
 40
4.0
 40
4.0
 40
4.0
 10
92.11334819610144
 20
-164.6928973316024
 30
0.0
 10
92.11334819610144
 20
-164.7479327319793
 30
0.0
 10
92.15815058629478
 20
-164.7927405051343
 30
0.0
 10
92.21318329519079
 20
-164.7927405051343
 30
0.0
 10
92.26892117206896
 20
-164.7927405051343
 30
0.0
 10
92.31372356226228
 20
-164.7479327319793
 30
0.0
 10
92.31372356226228
 20
-164.6928973316024
 30
0.0
 10
92.31372356226228
 20
-164.6378834630723
 30
0.0
 10
92.26892117206896
 20
-164.5930756899173
 30
0.0
 10
92.21318329519079
 20
-164.5930756899173
 30
0.0
 10
92.15815058629478
 20
-164.5930756899173
 30
0.0
 10
92.11334819610144
 20
-164.6378834630723
 30
0.0
 10
92.11334819610144
 20
-164.6928973316024
 30
0.0
  0
POLYLINE
  5
43
330
1F
100
AcDbEntity
  8
_U+30EC_U+30A4_U+30E4_U+30FC 1
 62
   179
420
  2234388
370
     9
100
AcDb2dPolyline
 66
     1
 10
0.0
 20
0.0
 30
0.0
  0
VERTEX
  5
44
330
43
100
AcDbEntity
  8
_U+30EC_U+30A4_U+30E4_U+30FC 1
 62
   179
420
  2234388
370
     9
100
AcDbVertex
100
AcDb2dVertex
 10
92.21328826294386
 20
-147.0371059473987
 30
0.0
  0
VERTEX
  5
45
330
43
100
AcDbEntity
  8
_U+30EC_U+30A4_U+30E4_U+30FC 1
 62
   179
420
  2234388
370
     9
100
AcDbVertex
100
AcDb2dVertex
 10
92.21328826294386
 20
-165.6930731465108
 30
0.0
  0
SEQEND
  5
46
330
43
100
AcDbEntity
  8
_U+30EC_U+30A4_U+30E4_U+30FC 1
 62
   179
420
  2234388
370
     9
  0
POLYLINE
  5
47
330
1F
100
AcDbEntity
  8
_U+30EC_U+30A4_U+30E4_U+30FC 1
 62
   179
420
  2234388
370
     9
100
AcDb2dPolyline
 66
     1
 10
0.0
 20
0.0
 30
0.0
  0
VERTEX
  5
48
330
47
100
AcDbEntity
  8
_U+30EC_U+30A4_U+30E4_U+30FC 1
 62
   179
420
  2234388
370
     9
100
AcDbVertex
100
AcDb2dVertex
 10
92.21328826294386
 20
-164.6928973316024
 30
0.0
  0
VERTEX
  5
49
330
47
100
AcDbEntity
  8
_U+30EC_U+30A4_U+30E4_U+30FC 1
 62
   179
420
  2234388
370
     9
100
AcDbVertex
100
AcDb2dVertex
 10
94.21318503249732
 20
-164.6928973316024
 30
0.0
  0
SEQEND
  5
4A
330
47
100
AcDbEntity
  8
_U+30EC_U+30A4_U+30E4_U+30FC 1
 62
   179
420
  2234388
370
     9
  0
POLYLINE
  5
4B
330
1F
100
AcDbEntity
  8
_U+30EC_U+30A4_U+30E4_U+30FC 1
 62
   179
420
  2234388
370
     9
100
AcDb2dPolyline
 66
     1
 10
0.0
 20
0.0
 30
0.0
  0
VERTEX
  5
4C
330
4B
100
AcDbEntity
  8
_U+30EC_U+30A4_U+30E4_U+30FC 1
 62
   179
420
  2234388
370
     9
100
AcDbVertex
100
AcDb2dVertex
 10
94.2131500432463
 20
-147.0371059473987
 30
0.0
  0
VERTEX
  5
4D
330
4B
100
AcDbEntity
  8
_U+30EC_U+30A4_U+30E4_U+30FC 1
 62
   179
420
  2234388
370
     9
100
AcDbVertex
100
AcDb2dVertex
 10
94.2131500432463
 20
-165.6930731465108
 30
0.0
  0
SEQEND
  5
4E
330
4B
100
AcDbEntity
  8
_U+30EC_U+30A4_U+30E4_U+30FC 1
 62
   179
420
  2234388
370
     9
  0
INSERT
  5
50
330
1F
100
AcDbEntity
  8
_U+30EC_U+30A4_U+30E4_U+30FC 1
100
AcDbBlockReference
  2
block 2
 10
0.0
 20
0.0
 30
0.0
  0
POLYLINE
  5
55
330
1F
100
AcDbEntity
  8
_U+30EC_U+30A4_U+30E4_U+30FC 1
 62
   179
420
  2234388
370
    25
100
AcDb2dPolyline
 66
     1
 10
0.0
 20
0.0
 30
0.0
  0
VERTEX
  5
56
330
55
100
AcDbEntity
  8
_U+30EC_U+30A4_U+30E4_U+30FC 1
 62
   179
420
  2234388
370
    25
100
AcDbVertex
100
AcDb2dVertex
 10
92.41102059491212
 20
-139.6427467844795
 30
0.0
  0
VERTEX
  5
57
330
55
100
AcDbEntity
  8
_U+30EC_U+30A4_U+30E4_U+30FC 1
 62
   179
420
  2234388
370
    25
100
AcDbVertex
100
AcDb2dVertex
 10
92.19829402314048
 20
-140.1267611683103
 30
0.0
  0
VERTEX
  5
58
330
55
100
AcDbEntity
  8
_U+30EC_U+30A4_U+30E4_U+30FC 1
 62
   179
420
  2234388
370
    25
100
AcDbVertex
100
AcDb2dVertex
 10
92.38561839867042
 20
-140.6210031793633
 30
0.0
  0
VERTEX
  5
59
330
55
100
AcDbEntity
  8
_U+30EC_U+30A4_U+30E4_U+30FC 1
 62
   179
420
  2234388
370
    25
100
AcDbVertex
100
AcDb2dVertex
 10
92.17324710237037
 20
-141.1057281141379
 30
0.0
  0
VERTEX
  5
5A
330
55
100
AcDbEntity
  8
_U+30EC_U+30A4_U+30E4_U+30FC 1
 62
   179
420
  2234388
370
    25
100
AcDbVertex
100
AcDb2dVertex
 10
92.36021889390892
 20
-141.6006806761341
 30
0.0
  0
VERTEX
  5
5B
330
55
100
AcDbEntity
  8
_U+30EC_U+30A4_U+30E4_U+30FC 1
 62
   179
420
  2234388
370
    25
100
AcDbVertex
100
AcDb2dVertex
 10
92.14749501361813
 20
-142.084695059965
 30
0.0
  0
VERTEX
  5
5C
330
55
100
AcDbEntity
  8
_U+30EC_U+30A4_U+30E4_U+30FC 1
 62
   179
420
  2234388
370
    25
100
AcDbVertex
100
AcDb2dVertex
 10
92.33481938914774
 20
-142.5789370710179
 30
0.0
  0
VERTEX
  5
5D
330
55
100
AcDbEntity
  8
_U+30EC_U+30A4_U+30E4_U+30FC 1
 62
   179
420
  2234388
370
    25
100
AcDbVertex
100
AcDb2dVertex
 10
92.12244809284803
 20
-143.0625854134531
 30
0.0
  0
VERTEX
  5
5E
330
55
100
AcDbEntity
  8
_U+30EC_U+30A4_U+30E4_U+30FC 1
 62
   179
420
  2234388
370
    25
100
AcDbVertex
100
AcDb2dVertex
 10
92.30941988438657
 20
-143.5564829149576
 30
0.0
  0
VERTEX
  5
5F
330
55
100
AcDbEntity
  8
_U+30EC_U+30A4_U+30E4_U+30FC 1
 62
   179
420
  2234388
370
    25
100
AcDbVertex
100
AcDb2dVertex
 10
92.09669331261493
 20
-144.0397867478442
 30
0.0
  0
VERTEX
  5
60
330
55
100
AcDbEntity
  8
_U+30EC_U+30A4_U+30E4_U+30FC 1
 62
   179
420
  2234388
370
    25
100
AcDbVertex
100
AcDb2dVertex
 10
92.2840203796254
 20
-144.5340287588972
 30
0.0
  0
VERTEX
  5
61
330
55
100
AcDbEntity
  8
_U+30EC_U+30A4_U+30E4_U+30FC 1
 62
   179
420
  2234388
370
    25
100
AcDbVertex
100
AcDb2dVertex
 10
92.07164639184484
 20
-145.0180431427277
 30
0.0
  0
VERTEX
  5
62
330
55
100
AcDbEntity
  8
_U+30EC_U+30A4_U+30E4_U+30FC 1
 62
   179
420
  2234388
370
    25
100
AcDbVertex
100
AcDb2dVertex
 10
92.25861818338338
 20
-145.5126296633289
 30
0.0
  0
VERTEX
  5
63
330
55
100
AcDbEntity
  8
_U+30EC_U+30A4_U+30E4_U+30FC 1
 62
   179
420
  2234388
370
    25
100
AcDbVertex
100
AcDb2dVertex
 10
92.0458943030926
 20
-145.9969885567085
 30
0.0
  0
VERTEX
  5
64
330
55
100
AcDbEntity
  8
_U+30EC_U+30A4_U+30E4_U+30FC 1
 62
   179
420
  2234388
370
    25
100
AcDbVertex
100
AcDb2dVertex
 10
92.2332186786222
 20
-146.4915750773094
 30
0.0
  0
VERTEX
  5
65
330
55
100
AcDbEntity
  8
_U+30EC_U+30A4_U+30E4_U+30FC 1
 62
   179
420
  2234388
370
    25
100
AcDbVertex
100
AcDb2dVertex
 10
92.02084738232249
 20
-146.9763000120841
 30
0.0
  0
VERTEX
  5
66
330
55
100
AcDbEntity
  8
_U+30EC_U+30A4_U+30E4_U+30FC 1
 62
   179
420
  2234388
370
    25
100
AcDbVertex
100
AcDb2dVertex
 10
92.20781917386103
 20
-147.4698314721929
 30
0.0
  0
VERTEX
  5
67
330
55
100
AcDbEntity
  8
_U+30EC_U+30A4_U+30E4_U+30FC 1
 62
   179
420
  2234388
370
    25
100
AcDbVertex
100
AcDb2dVertex
 10
91.99509529357024
 20
-147.9535013464752
 30
0.0
  0
VERTEX
  5
68
330
55
100
AcDbEntity
  8
_U+30EC_U+30A4_U+30E4_U+30FC 1
 62
   179
420
  2234388
370
    25
100
AcDbVertex
100
AcDb2dVertex
 10
92.18241966909986
 20
-148.4477433575281
 30
0.0
  0
VERTEX
  5
69
330
55
100
AcDbEntity
  8
_U+30EC_U+30A4_U+30E4_U+30FC 1
 62
   179
420
  2234388
370
    25
100
AcDbVertex
100
AcDb2dVertex
 10
91.97004837280014
 20
-148.9321022509072
 30
0.0
  0
VERTEX
  5
6A
330
55
100
AcDbEntity
  8
_U+30EC_U+30A4_U+30E4_U+30FC 1
 62
   179
420
  2234388
370
    25
100
AcDbVertex
100
AcDb2dVertex
 10
92.15702016433868
 20
-149.4266887715083
 30
0.0
  0
VERTEX
  5
6B
330
55
100
AcDbEntity
  8
_U+30EC_U+30A4_U+30E4_U+30FC 1
 62
   179
420
  2234388
370
    25
100
AcDbVertex
100
AcDb2dVertex
 10
91.94429359256705
 20
-149.911413706283
 30
0.0
  0
VERTEX
  5
6C
330
55
100
AcDbEntity
  8
_U+30EC_U+30A4_U+30E4_U+30FC 1
 62
   179
420
  2234388
370
    25
100
AcDbVertex
100
AcDb2dVertex
 10
92.13161796809666
 20
-150.406710777828
 30
0.0
  0
VERTEX
  5
6D
330
55
100
AcDbEntity
  8
_U+30EC_U+30A4_U+30E4_U+30FC 1
 62
   179
420
  2234388
370
    25
100
AcDbVertex
100
AcDb2dVertex
 10
91.9188940878062
 20
-150.8903806521103
 30
0.0
  0
VERTEX
  5
6E
330
55
100
AcDbEntity
  8
_U+30EC_U+30A4_U+30E4_U+30FC 1
 62
   179
420
  2234388
370
    25
100
AcDbVertex
100
AcDb2dVertex
 10
92.10621846333548
 20
-151.384622663163
 30
0.0
  0
VERTEX
  5
6F
330
55
100
AcDbEntity
  8
_U+30EC_U+30A4_U+30E4_U+30FC 1
 62
   179
420
  2234388
370
    25
100
AcDbVertex
100
AcDb2dVertex
 10
91.8934945830447
 20
-151.8693260660908
 30
0.0
  0
VERTEX
  5
70
330
55
100
AcDbEntity
  8
_U+30EC_U+30A4_U+30E4_U+30FC 1
 62
   179
420
  2234388
370
    25
100
AcDbVertex
100
AcDb2dVertex
 10
92.08046637458324
 20
-152.3649891790311
 30
0.0
  0
VERTEX
  5
71
330
55
100
AcDbEntity
  8
_U+30EC_U+30A4_U+30E4_U+30FC 1
 62
   179
420
  2234388
370
    25
100
AcDbVertex
100
AcDb2dVertex
 10
91.86809507828352
 20
-152.8511136838467
 30
0.0
  0
VERTEX
  5
72
330
55
100
AcDbEntity
  8
_U+30EC_U+30A4_U+30E4_U+30FC 1
 62
   179
420
  2234388
370
    25
100
AcDbVertex
100
AcDb2dVertex
 10
92.05506686982207
 20
-153.3478103254326
 30
0.0
  0
VERTEX
  5
73
330
55
100
AcDbEntity
  8
_U+30EC_U+30A4_U+30E4_U+30FC 1
 62
   179
420
  2234388
370
    25
100
AcDbVertex
100
AcDb2dVertex
 10
91.84234029805043
 20
-153.8343008716434
 30
0.0
  0
VERTEX
  5
74
330
55
100
AcDbEntity
  8
_U+30EC_U+30A4_U+30E4_U+30FC 1
 62
   179
420
  2234388
370
    25
100
AcDbVertex
100
AcDb2dVertex
 10
92.02931478106983
 20
-154.3317080641731
 30
0.0
  0
VERTEX
  5
75
330
55
100
AcDbEntity
  8
_U+30EC_U+30A4_U+30E4_U+30FC 1
 62
   179
420
  2234388
370
    25
100
AcDbVertex
100
AcDb2dVertex
 10
91.81694079328926
 20
-154.8189091613278
 30
0.0
  0
VERTEX
  5
76
330
55
100
AcDbEntity
  8
_U+30EC_U+30A4_U+30E4_U+30FC 1
 62
   179
420
  2234388
370
    25
100
AcDbVertex
100
AcDb2dVertex
 10
92.0039125848278
 20
-155.3166823952529
 30
0.0
  0
VERTEX
  5
77
330
55
100
AcDbEntity
  8
_U+30EC_U+30A4_U+30E4_U+30FC 1
 62
   179
420
  2234388
370
    25
100
AcDbVertex
100
AcDb2dVertex
 10
91.79154128852808
 20
-155.8042064701093
 30
0.0
  0
VERTEX
  5
78
330
55
100
AcDbEntity
  8
_U+30EC_U+30A4_U+30E4_U+30FC 1
 62
   179
420
  2234388
370
    25
100
AcDbVertex
100
AcDb2dVertex
 10
91.97816049607556
 20
-156.3019797040343
 30
0.0
  0
VERTEX
  5
79
330
55
100
AcDbEntity
  8
_U+30EC_U+30A4_U+30E4_U+30FC 1
 62
   179
420
  2234388
370
    25
100
AcDbVertex
100
AcDb2dVertex
 10
91.76578919977584
 20
-156.787393657906
 30
0.0
  0
VERTEX
  5
7A
330
55
100
AcDbEntity
  8
_U+30EC_U+30A4_U+30E4_U+30FC 1
 62
   179
420
  2234388
370
    25
100
AcDbVertex
100
AcDb2dVertex
 10
91.95276099131439
 20
-157.2827122612978
 30
0.0
  0
VERTEX
  5
7B
330
55
100
AcDbEntity
  8
_U+30EC_U+30A4_U+30E4_U+30FC 1
 62
   179
420
  2234388
370
    25
100
AcDbVertex
100
AcDb2dVertex
 10
91.74038969501467
 20
-157.768470724718
 30
0.0
  0
VERTEX
  5
7C
330
55
100
AcDbEntity
  8
_U+30EC_U+30A4_U+30E4_U+30FC 1
 62
   179
420
  2234388
370
    25
100
AcDbVertex
100
AcDb2dVertex
 10
91.92736148655321
 20
-158.2644783472069
 30
0.0
  0
VERTEX
  5
7D
330
55
100
AcDbEntity
  8
_U+30EC_U+30A4_U+30E4_U+30FC 1
 62
   179
420
  2234388
370
    25
100
AcDbVertex
100
AcDb2dVertex
 10
91.71463491478158
 20
-158.7499138329254
 30
0.0
  0
VERTEX
  5
7E
330
55
100
AcDbEntity
  8
_U+30EC_U+30A4_U+30E4_U+30FC 1
 62
   179
420
  2234388
370
    25
100
AcDbVertex
100
AcDb2dVertex
 10
91.90196198179204
 20
-159.2455554140189
 30
0.0
  0
VERTEX
  5
7F
330
55
100
AcDbEntity
  8
_U+30EC_U+30A4_U+30E4_U+30FC 1
 62
   179
420
  2234388
370
    25
100
AcDbVertex
100
AcDb2dVertex
 10
91.6892354100204
 20
-159.7306248583421
 30
0.0
  0
VERTEX
  5
80
330
55
100
AcDbEntity
  8
_U+30EC_U+30A4_U+30E4_U+30FC 1
 62
   179
420
  2234388
370
    25
100
AcDbVertex
100
AcDb2dVertex
 10
91.87620720155894
 20
-160.2266324808309
 30
0.0
  0
VERTEX
  5
81
330
55
100
AcDbEntity
  8
_U+30EC_U+30A4_U+30E4_U+30FC 1
 62
   179
420
  2234388
370
    25
100
AcDbVertex
100
AcDb2dVertex
 10
91.66383590525923
 20
-160.7113574156056
 30
0.0
  0
VERTEX
  5
82
330
55
100
AcDbEntity
  8
_U+30EC_U+30A4_U+30E4_U+30FC 1
 62
   179
420
  2234388
370
    25
100
AcDbVertex
100
AcDb2dVertex
 10
91.85116028078885
 20
-161.2073650380944
 30
0.0
  0
VERTEX
  5
83
330
55
100
AcDbEntity
  8
_U+30EC_U+30A4_U+30E4_U+30FC 1
 62
   179
420
  2234388
370
    25
100
AcDbVertex
100
AcDb2dVertex
 10
91.63843640049805
 20
-161.69348954291
 30
0.0
  0
VERTEX
  5
84
330
55
100
AcDbEntity
  8
_U+30EC_U+30A4_U+30E4_U+30FC 1
 62
   179
420
  2234388
370
    25
100
AcDbVertex
100
AcDb2dVertex
 10
91.8254081920366
 20
-162.1901861844959
 30
0.0
  0
VERTEX
  5
85
330
55
100
AcDbEntity
  8
_U+30EC_U+30A4_U+30E4_U+30FC 1
 62
   179
420
  2234388
370
    25
100
AcDbVertex
100
AcDb2dVertex
 10
91.61303689573688
 20
-162.6749111192705
 30
0.0
  0
VERTEX
  5
86
330
55
100
AcDbEntity
  8
_U+30EC_U+30A4_U+30E4_U+30FC 1
 62
   179
420
  2234388
370
    25
100
AcDbVertex
100
AcDb2dVertex
 10
91.80000868727542
 20
-163.1694976398717
 30
0.0
  0
VERTEX
  5
87
330
55
100
AcDbEntity
  8
_U+30EC_U+30A4_U+30E4_U+30FC 1
 62
   179
420
  2234388
370
    25
100
AcDbVertex
100
AcDb2dVertex
 10
91.58763469949486
 20
-163.653167514154
 30
0.0
  0
VERTEX
  5
88
330
55
100
AcDbEntity
  8
_U+30EC_U+30A4_U+30E4_U+30FC 1
 62
   179
420
  2234388
370
    25
100
AcDbVertex
100
AcDb2dVertex
 10
91.77460918251425
 20
-164.1466989742628
 30
0.0
  0
VERTEX
  5
89
330
55
100
AcDbEntity
  8
_U+30EC_U+30A4_U+30E4_U+30FC 1
 62
   179
420
  2234388
370
    25
100
AcDbVertex
100
AcDb2dVertex
 10
91.56223519473369
 20
-164.6289477466574
 30
0.0
  0
SEQEND
  5
8A
330
55
100
AcDbEntity
  8
_U+30EC_U+30A4_U+30E4_U+30FC 1
 62
   179
420
  2234388
370
    25
  0
POLYLINE
  5
8B
330
1F
100
AcDbEntity
  8
_U+30EC_U+30A4_U+30E4_U+30FC 1
 62
   179
420
  2234388
370
    25
100
AcDb2dPolyline
 66
     1
 10
0.0
 20
0.0
 30
0.0
  0
VERTEX
  5
8C
330
8B
100
AcDbEntity
  8
_U+30EC_U+30A4_U+30E4_U+30FC 1
 62
   179
420
  2234388
370
    25
100
AcDbVertex
100
AcDb2dVertex
 10
91.6620729853039
 20
-164.6315100364246
 30
0.0
  0
VERTEX
  5
8D
330
8B
100
AcDbEntity
  8
_U+30EC_U+30A4_U+30E4_U+30FC 1
 62
   179
420
  2234388
370
    25
100
AcDbVertex
100
AcDb2dVertex
 10
91.26166945401157
 20
-164.6209378996542
 30
0.0
  0
SEQEND
  5
8E
330
8B
100
AcDbEntity
  8
_U+30EC_U+30A4_U+30E4_U+30FC 1
 62
   179
420
  2234388
370
    25
  0
POLYLINE
  5
8F
330
1F
100
AcDbEntity
  8
_U+30EC_U+30A4_U+30E4_U+30FC 1
 62
   179
420
  2234388
370
    25
100
AcDb2dPolyline
 66
     1
 10
0.0
 20
0.0
 30
0.0
  0
VERTEX
  5
90
330
8F
100
AcDbEntity
  8
_U+30EC_U+30A4_U+30E4_U+30FC 1
 62
   179
420
  2234388
370
    25
100
AcDbVertex
100
AcDb2dVertex
 10
91.26174212399478
 20
-164.6208948359607
 30
0.0
  0
VERTEX
  5
91
330
8F
100
AcDbEntity
  8
_U+30EC_U+30A4_U+30E4_U+30FC 1
 62
   179
420
  2234388
370
    25
100
AcDbVertex
100
AcDb2dVertex
 10
91.31642224889941
 20
-138.6208238043205
 30
0.0
  0
SEQEND
  5
92
330
8F
100
AcDbEntity
  8
_U+30EC_U+30A4_U+30E4_U+30FC 1
 62
   179
420
  2234388
370
    25
  0
POLYLINE
  5
93
330
1F
100
AcDbEntity
  8
_U+30EC_U+30A4_U+30E4_U+30FC 1
 62
   179
420
  2234388
370
    25
100
AcDb2dPolyline
 66
     1
 10
0.0
 20
0.0
 30
0.0
  0
VERTEX
  5
94
330
93
100
AcDbEntity
  8
_U+30EC_U+30A4_U+30E4_U+30FC 1
 62
   179
420
  2234388
370
    25
100
AcDbVertex
100
AcDb2dVertex
 10
94.33337849271983
 20
-145.7799475411378
 30
0.0
  0
VERTEX
  5
95
330
93
100
AcDbEntity
  8
_U+30EC_U+30A4_U+30E4_U+30FC 1
 62
   179
420
  2234388
370
    25
100
AcDbVertex
100
AcDb2dVertex
 10
94.86642358315596
 20
-145.9669300985997
 30
0.0
  0
VERTEX
  5
96
330
93
100
AcDbEntity
  8
_U+30EC_U+30A4_U+30E4_U+30FC 1
 62
   179
420
  2234388
370
    25
100
AcDbVertex
100
AcDb2dVertex
 10
95.39029879834345
 20
-145.7545614937806
 30
0.0
  0
VERTEX
  5
97
330
93
100
AcDbEntity
  8
_U+30EC_U+30A4_U+30E4_U+30FC 1
 62
   179
420
  2234388
370
    25
100
AcDbVertex
100
AcDb2dVertex
 10
95.9236991642515
 20
-145.941522519396
 30
0.0
  0
VERTEX
  5
98
330
93
100
AcDbEntity
  8
_U+30EC_U+30A4_U+30E4_U+30FC 1
 62
   179
420
  2234388
370
    25
100
AcDbVertex
100
AcDb2dVertex
 10
96.44827954742114
 20
-145.7291539145768
 30
0.0
  0
VERTEX
  5
99
330
93
100
AcDbEntity
  8
_U+30EC_U+30A4_U+30E4_U+30FC 1
 62
   179
420
  2234388
370
    25
100
AcDbVertex
100
AcDb2dVertex
 10
96.98203249732025
 20
-145.9161364720388
 30
0.0
  0
VERTEX
  5
9A
330
93
100
AcDbEntity
  8
_U+30EC_U+30A4_U+30E4_U+30FC 1
 62
   179
420
  2234388
370
    25
100
AcDbVertex
100
AcDb2dVertex
 10
97.50590771250775
 20
-145.7037678672199
 30
0.0
  0
VERTEX
  5
9B
330
93
100
AcDbEntity
  8
_U+30EC_U+30A4_U+30E4_U+30FC 1
 62
   179
420
  2234388
370
    25
100
AcDbVertex
100
AcDb2dVertex
 10
98.03895549442473
 20
-145.8907288928351
 30
0.0
  0
VERTEX
  5
9C
330
93
100
AcDbEntity
  8
_U+30EC_U+30A4_U+30E4_U+30FC 1
 62
   179
420
  2234388
370
    25
100
AcDbVertex
100
AcDb2dVertex
 10
98.56283070961223
 20
-145.6783602880162
 30
0.0
  0
VERTEX
  5
9D
330
93
100
AcDbEntity
  8
_U+30EC_U+30A4_U+30E4_U+30FC 1
 62
   179
420
  2234388
370
    25
100
AcDbVertex
100
AcDb2dVertex
 10
99.09622838403942
 20
-145.8653213136313
 30
0.0
  0
VERTEX
  5
9E
330
93
100
AcDbEntity
  8
_U+30EC_U+30A4_U+30E4_U+30FC 1
 62
   179
420
  2234388
370
    25
100
AcDbVertex
100
AcDb2dVertex
 10
99.62010359922692
 20
-145.6529527088124
 30
0.0
  0
VERTEX
  5
9F
330
93
100
AcDbEntity
  8
_U+30EC_U+30A4_U+30E4_U+30FC 1
 62
   179
420
  2234388
370
    25
100
AcDbVertex
100
AcDb2dVertex
 10
100.154211824598
 20
-145.8399352662744
 30
0.0
  0
VERTEX
  5
A0
330
93
100
AcDbEntity
  8
_U+30EC_U+30A4_U+30E4_U+30FC 1
 62
   179
420
  2234388
370
    25
100
AcDbVertex
100
AcDb2dVertex
 10
100.6784369322957
 20
-145.6272006200602
 30
0.0
  0
VERTEX
  5
A1
330
93
100
AcDbEntity
  8
_U+30EC_U+30A4_U+30E4_U+30FC 1
 62
   179
420
  2234388
370
    25
100
AcDbVertex
100
AcDb2dVertex
 10
101.2121898821948
 20
-145.8145276870707
 30
0.0
  0
VERTEX
  5
A2
330
93
100
AcDbEntity
  8
_U+30EC_U+30A4_U+30E4_U+30FC 1
 62
   179
420
  2234388
370
    25
100
AcDbVertex
100
AcDb2dVertex
 10
101.7360650973823
 20
-145.6021590822518
 30
0.0
  0
VERTEX
  5
A3
330
93
100
AcDbEntity
  8
_U+30EC_U+30A4_U+30E4_U+30FC 1
 62
   179
420
  2234388
370
    25
100
AcDbVertex
100
AcDb2dVertex
 10
102.2694627718095
 20
-145.7891201078669
 30
0.0
  0
VERTEX
  5
A4
330
93
100
AcDbEntity
  8
_U+30EC_U+30A4_U+30E4_U+30FC 1
 62
   179
420
  2234388
370
    25
100
AcDbVertex
100
AcDb2dVertex
 10
102.7936932624689
 20
-145.5764069934996
 30
0.0
  0
VERTEX
  5
A5
330
93
100
AcDbEntity
  8
_U+30EC_U+30A4_U+30E4_U+30FC 1
 62
   179
420
  2234388
370
    25
100
AcDbVertex
100
AcDb2dVertex
 10
103.3277961048782
 20
-145.76373406051
 30
0.0
  0
VERTEX
  5
A6
330
93
100
AcDbEntity
  8
_U+30EC_U+30A4_U+30E4_U+30FC 1
 62
   179
420
  2234388
370
    25
100
AcDbVertex
100
AcDb2dVertex
 10
103.8499110915912
 20
-145.5513654556915
 30
0.0
  0
VERTEX
  5
A7
330
93
100
AcDbEntity
  8
_U+30EC_U+30A4_U+30E4_U+30FC 1
 62
   179
420
  2234388
370
    25
100
AcDbVertex
100
AcDb2dVertex
 10
104.3818984300542
 20
-145.7383264813063
 30
0.0
  0
VERTEX
  5
A8
330
93
100
AcDbEntity
  8
_U+30EC_U+30A4_U+30E4_U+30FC 1
 62
   179
420
  2234388
370
    25
100
AcDbVertex
100
AcDb2dVertex
 10
104.9047132017876
 20
-145.5256133669392
 30
0.0
  0
VERTEX
  5
A9
330
93
100
AcDbEntity
  8
_U+30EC_U+30A4_U+30E4_U+30FC 1
 62
   179
420
  2234388
370
    25
100
AcDbVertex
100
AcDb2dVertex
 10
105.4384661516867
 20
-145.7129404339497
 30
0.0
  0
VERTEX
  5
AA
330
93
100
AcDbEntity
  8
_U+30EC_U+30A4_U+30E4_U+30FC 1
 62
   179
420
  2234388
370
    25
100
AcDbVertex
100
AcDb2dVertex
 10
105.9630465348564
 20
-145.5002057877355
 30
0.0
  0
VERTEX
  5
AB
330
93
100
AcDbEntity
  8
_U+30EC_U+30A4_U+30E4_U+30FC 1
 62
   179
420
  2234388
370
    25
100
AcDbVertex
100
AcDb2dVertex
 10
106.4967994847555
 20
-145.6871883451975
 30
0.0
  0
VERTEX
  5
AC
330
93
100
AcDbEntity
  8
_U+30EC_U+30A4_U+30E4_U+30FC 1
 62
   179
420
  2234388
370
    25
100
AcDbVertex
100
AcDb2dVertex
 10
107.0199695319608
 20
-145.4747982085318
 30
0.0
  0
VERTEX
  5
AD
330
93
100
AcDbEntity
  8
_U+30EC_U+30A4_U+30E4_U+30FC 1
 62
   179
420
  2234388
370
    25
100
AcDbVertex
100
AcDb2dVertex
 10
107.5530173138778
 20
-145.6621252755423
 30
0.0
  0
VERTEX
  5
AE
330
93
100
AcDbEntity
  8
_U+30EC_U+30A4_U+30E4_U+30FC 1
 62
   179
420
  2234388
370
    25
100
AcDbVertex
100
AcDb2dVertex
 10
108.0761873610832
 20
-145.4494121611745
 30
0.0
  0
VERTEX
  5
AF
330
93
100
AcDbEntity
  8
_U+30EC_U+30A4_U+30E4_U+30FC 1
 62
   179
420
  2234388
370
    25
100
AcDbVertex
100
AcDb2dVertex
 10
108.6092351430001
 20
-145.636739228185
 30
0.0
  0
VERTEX
  5
B0
330
93
100
AcDbEntity
  8
_U+30EC_U+30A4_U+30E4_U+30FC 1
 62
   179
420
  2234388
370
    25
100
AcDbVertex
100
AcDb2dVertex
 10
109.1334602506979
 20
-145.4240045819708
 30
0.0
  0
VERTEX
  5
B1
330
93
100
AcDbEntity
  8
_U+30EC_U+30A4_U+30E4_U+30FC 1
 62
   179
420
  2234388
370
    25
100
AcDbVertex
100
AcDb2dVertex
 10
109.668273644051
 20
-145.6109871394328
 30
0.0
  0
VERTEX
  5
B2
330
93
100
AcDbEntity
  8
_U+30EC_U+30A4_U+30E4_U+30FC 1
 62
   179
420
  2234388
370
    25
100
AcDbVertex
100
AcDb2dVertex
 10
110.1928540272207
 20
-145.3985970027671
 30
0.0
  0
VERTEX
  5
B3
330
93
100
AcDbEntity
  8
_U+30EC_U+30A4_U+30E4_U+30FC 1
 62
   179
420
  2234388
370
    25
100
AcDbVertex
100
AcDb2dVertex
 10
110.7273121451019
 20
-145.585579560229
 30
0.0
  0
VERTEX
  5
B4
330
93
100
AcDbEntity
  8
_U+30EC_U+30A4_U+30E4_U+30FC 1
 62
   179
420
  2234388
370
    25
100
AcDbVertex
100
AcDb2dVertex
 10
111.2504821923073
 20
-145.3732109554102
 30
0.0
  0
VERTEX
  5
B5
330
93
100
AcDbEntity
  8
_U+30EC_U+30A4_U+30E4_U+30FC 1
 62
   179
420
  2234388
370
    25
100
AcDbVertex
100
AcDb2dVertex
 10
111.7838798667345
 20
-145.5601719810253
 30
0.0
  0
VERTEX
  5
B6
330
93
100
AcDbEntity
  8
_U+30EC_U+30A4_U+30E4_U+30FC 1
 62
   179
420
  2234388
370
    25
100
AcDbVertex
100
AcDb2dVertex
 10
112.3084602499041
 20
-145.3478033762065
 30
0.0
  0
VERTEX
  5
B7
330
93
100
AcDbEntity
  8
_U+30EC_U+30A4_U+30E4_U+30FC 1
 62
   179
420
  2234388
370
    25
100
AcDbVertex
100
AcDb2dVertex
 10
112.8425684752751
 20
-145.5347859336684
 30
0.0
  0
VERTEX
  5
B8
330
93
100
AcDbEntity
  8
_U+30EC_U+30A4_U+30E4_U+30FC 1
 62
   179
420
  2234388
370
    25
100
AcDbVertex
100
AcDb2dVertex
 10
113.3678540264269
 20
-145.3223957970027
 30
0.0
  0
VERTEX
  5
B9
330
93
100
AcDbEntity
  8
_U+30EC_U+30A4_U+30E4_U+30FC 1
 62
   179
420
  2234388
370
    25
100
AcDbVertex
100
AcDb2dVertex
 10
113.901962251798
 20
-145.5093783544647
 30
0.0
  0
VERTEX
  5
BA
330
93
100
AcDbEntity
  8
_U+30EC_U+30A4_U+30E4_U+30FC 1
 62
   179
420
  2234388
370
    25
100
AcDbVertex
100
AcDb2dVertex
 10
114.4268925274778
 20
-145.2966437082505
 30
0.0
  0
VERTEX
  5
BB
330
93
100
AcDbEntity
  8
_U+30EC_U+30A4_U+30E4_U+30FC 1
 62
   179
420
  2234388
370
    25
100
AcDbVertex
100
AcDb2dVertex
 10
114.9627609813233
 20
-145.483970775261
 30
0.0
  0
VERTEX
  5
BC
330
93
100
AcDbEntity
  8
_U+30EC_U+30A4_U+30E4_U+30FC 1
 62
   179
420
  2234388
370
    25
100
AcDbVertex
100
AcDb2dVertex
 10
115.4887517004572
 20
-145.2712576608936
 30
0.0
  0
VERTEX
  5
BD
330
93
100
AcDbEntity
  8
_U+30EC_U+30A4_U+30E4_U+30FC 1
 62
   179
420
  2234388
370
    25
100
AcDbVertex
100
AcDb2dVertex
 10
116.0242702617926
 20
-145.4582186865087
 30
0.0
  0
VERTEX
  5
BE
330
93
100
AcDbEntity
  8
_U+30EC_U+30A4_U+30E4_U+30FC 1
 62
   179
420
  2234388
370
    25
100
AcDbVertex
100
AcDb2dVertex
 10
116.5499110884162
 20
-145.2458500816898
 30
0.0
  0
VERTEX
  5
BF
330
93
100
AcDbEntity
  8
_U+30EC_U+30A4_U+30E4_U+30FC 1
 62
   179
420
  2234388
370
    25
100
AcDbVertex
100
AcDb2dVertex
 10
117.0861348177337
 20
-145.4328326391518
 30
0.0
  0
VERTEX
  5
C0
330
93
100
AcDbEntity
  8
_U+30EC_U+30A4_U+30E4_U+30FC 1
 62
   179
420
  2234388
370
    25
100
AcDbVertex
100
AcDb2dVertex
 10
117.6128307048497
 20
-145.2204425024861
 30
0.0
  0
VERTEX
  5
C1
330
93
100
AcDbEntity
  8
_U+30EC_U+30A4_U+30E4_U+30FC 1
 62
   179
420
  2234388
370
    25
100
AcDbVertex
100
AcDb2dVertex
 10
118.1494043266774
 20
-145.4070805503995
 30
0.0
  0
VERTEX
  5
C2
330
93
100
AcDbEntity
  8
_U+30EC_U+30A4_U+30E4_U+30FC 1
 62
   179
420
  2234388
370
    25
100
AcDbVertex
100
AcDb2dVertex
 10
118.6761002137934
 20
-145.1946904137339
 30
0.0
  0
VERTEX
  5
C3
330
93
100
AcDbEntity
  8
_U+30EC_U+30A4_U+30E4_U+30FC 1
 62
   179
420
  2234388
370
    25
100
AcDbVertex
100
AcDb2dVertex
 10
119.2116187751287
 20
-145.3816729711958
 30
0.0
  0
VERTEX
  5
C4
330
93
100
AcDbEntity
  8
_U+30EC_U+30A4_U+30E4_U+30FC 1
 62
   179
420
  2234388
370
    25
100
AcDbVertex
100
AcDb2dVertex
 10
119.7376094942627
 20
-145.1693043663773
 30
0.0
  0
VERTEX
  5
C5
330
93
100
AcDbEntity
  8
_U+30EC_U+30A4_U+30E4_U+30FC 1
 62
   179
420
  2234388
370
    25
100
AcDbVertex
100
AcDb2dVertex
 10
120.2720676121439
 20
-145.3562653919921
 30
0.0
  0
VERTEX
  5
C6
330
93
100
AcDbEntity
  8
_U+30EC_U+30A4_U+30E4_U+30FC 1
 62
   179
420
  2234388
370
    25
100
AcDbVertex
100
AcDb2dVertex
 10
120.7962981028033
 20
-145.143552277625
 30
0.0
  0
VERTEX
  5
C7
330
93
100
AcDbEntity
  8
_U+30EC_U+30A4_U+30E4_U+30FC 1
 62
   179
420
  2234388
370
    25
100
AcDbVertex
100
AcDb2dVertex
 10
121.3296957772305
 20
-145.3308793446355
 30
0.0
  0
SEQEND
  5
C8
330
93
100
AcDbEntity
  8
_U+30EC_U+30A4_U+30E4_U+30FC 1
 62
   179
420
  2234388
370
    25
  0
POLYLINE
  5
C9
330
1F
100
AcDbEntity
  8
_U+30EC_U+30A4_U+30E4_U+30FC 1
 62
   179
420
  2234388
370
    25
100
AcDb2dPolyline
 66
     1
 10
0.0
 20
0.0
 30
0.0
  0
VERTEX
  5
CA
330
C9
100
AcDbEntity
  8
_U+30EC_U+30A4_U+30E4_U+30FC 1
 62
   179
420
  2234388
370
    25
100
AcDbVertex
100
AcDb2dVertex
 10
121.3272626785441
 20
-145.230863916329
 30
0.0
  0
VERTEX
  5
CB
330
C9
100
AcDbEntity
  8
_U+30EC_U+30A4_U+30E4_U+30FC 1
 62
   179
420
  2234388
370
    25
100
AcDbVertex
100
AcDb2dVertex
 10
121.3170296683605
 20
-144.8304792254029
 30
0.0
  0
SEQEND
  5
CC
330
C9
100
AcDbEntity
  8
_U+30EC_U+30A4_U+30E4_U+30FC 1
 62
   179
420
  2234388
370
    25
  0
POLYLINE
  5
CD
330
1F
100
AcDbEntity
  8
_U+30EC_U+30A4_U+30E4_U+30FC 1
 62
   179
420
  2234388
370
    25
100
AcDb2dPolyline
 66
     1
 10
0.0
 20
0.0
 30
0.0
  0
VERTEX
  5
CE
330
CD
100
AcDbEntity
  8
_U+30EC_U+30A4_U+30E4_U+30FC 1
 62
   179
420
  2234388
370
    25
100
AcDbVertex
100
AcDb2dVertex
 10
121.3169273920883
 20
-144.8305222890962
 30
0.0
  0
VERTEX
  5
CF
330
CD
100
AcDbEntity
  8
_U+30EC_U+30A4_U+30E4_U+30FC 1
 62
   179
420
  2234388
370
    25
100
AcDbVertex
100
AcDb2dVertex
 10
94.3604709389343
 20
-144.8852131799245
 30
0.0
  0
SEQEND
  5
D0
330
CD
100
AcDbEntity
  8
_U+30EC_U+30A4_U+30E4_U+30FC 1
 62
   179
420
  2234388
370
    25
  0
SPLINE
  5
D1
330
1F
100
AcDbEntity
  8
_U+30EC_U+30A4_U+30E4_U+30FC 1
 62
   179
420
  2234388
370
     9
100
AcDbSpline
210
0.0
220
0.0
230
1.0
 70
    11
 71
     3
 72
    17
 73
    13
 74
     0
 42
0.0000000001
 43
0.0000000001
 12
1.0
 22
0.0
 32
0.0
 13
1.0
 23
0.0
 33
0.0
 40
0.0
 40
0.0
 40
0.0
 40
0.0
 40
1.0
 40
1.0
 40
1.0
 40
2.0
 40
2.0
 40
2.0
 40
3.0
 40
3.0
 40
3.0
 40
4.0
 40
4.0
 40
4.0
 40
4.0
 10
95.31628576650839
 20
-134.62130479626
 30
0.0
 10
95.31628576650839
 20
-134.6763401966369
 30
0.0
 10
95.36108815670173
 20
-134.7211479697919
 30
0.0
 10
95.41612086559775
 20
-134.7211479697919
 30
0.0
 10
95.47115357449375
 20
-134.7211479697919
 30
0.0
 10
95.5159559646871
 20
-134.6763401966369
 30
0.0
 10
95.5159559646871
 20
-134.62130479626
 30
0.0
 10
95.5159559646871
 20
-134.56629092773
 30
0.0
 10
95.47115357449375
 20
-134.5214831545749
 30
0.0
 10
95.41612086559775
 20
-134.5214831545749
 30
0.0
 10
95.36108815670173
 20
-134.5214831545749
 30
0.0
 10
95.31628576650839
 20
-134.56629092773
 30
0.0
 10
95.31628576650839
 20
-134.62130479626
 30
0.0
  0
SPLINE
  5
D2
330
1F
100
AcDbEntity
  8
_U+30EC_U+30A4_U+30E4_U+30FC 1
 62
   179
420
  2234388
370
     9
100
AcDbSpline
210
0.0
220
0.0
230
1.0
 70
    11
 71
     3
 72
    17
 73
    13
 74
     0
 42
0.0000000001
 43
0.0000000001
 12
1.0
 22
0.0
 32
0.0
 13
1.0
 23
0.0
 33
0.0
 40
0.0
 40
0.0
 40
0.0
 40
0.0
 40
1.0
 40
1.0
 40
1.0
 40
2.0
 40
2.0
 40
2.0
 40
3.0
 40
3.0
 40
3.0
 40
4.0
 40
4.0
 40
4.0
 40
4.0
 10
86.18985640172457
 20
-138.7206669778524
 30
0.0
 10
86.18985640172457
 20
-138.7757023782293
 30
0.0
 10
86.23465879191822
 20
-138.8205101513846
 30
0.0
 10
86.28969150081392
 20
-138.8205101513846
 30
0.0
 10
86.34472420970994
 20
-138.8205101513846
 30
0.0
 10
86.38952659990328
 20
-138.7757023782293
 30
0.0
 10
86.38952659990328
 20
-138.7206669778524
 30
0.0
 10
86.38952659990328
 20
-138.6649425583785
 30
0.0
 10
86.34472420970994
 20
-138.6208453361673
 30
0.0
 10
86.28969150081392
 20
-138.6208453361673
 30
0.0
 10
86.23465879191822
 20
-138.6208453361673
 30
0.0
 10
86.18985640172457
 20
-138.6649425583785
 30
0.0
 10
86.18985640172457
 20
-138.7206669778524
 30
0.0
  0
SPLINE
  5
D3
330
1F
100
AcDbEntity
  8
_U+30EC_U+30A4_U+30E4_U+30FC 1
 62
   179
420
  2234388
370
     9
100
AcDbSpline
210
0.0
220
0.0
230
1.0
 70
    11
 71
     3
 72
    17
 73
    13
 74
     0
 42
0.0000000001
 43
0.0000000001
 12
1.0
 22
0.0
 32
0.0
 13
1.0
 23
0.0
 33
0.0
 40
0.0
 40
0.0
 40
0.0
 40
0.0
 40
1.0
 40
1.0
 40
1.0
 40
2.0
 40
2.0
 40
2.0
 40
3.0
 40
3.0
 40
3.0
 40
4.0
 40
4.0
 40
4.0
 40
4.0
 10
121.3162222241062
 20
-134.62130479626
 30
0.0
 10
121.3162222241062
 20
-134.6763401966369
 30
0.0
 10
121.3610246142995
 20
-134.7211479697919
 30
0.0
 10
121.4160546317147
 20
-134.7211479697919
 30
0.0
 10
121.4710900320915
 20
-134.7211479697919
 30
0.0
 10
121.5158924222849
 20
-134.6763401966369
 30
0.0
 10
121.5158924222849
 20
-134.62130479626
 30
0.0
 10
121.5158924222849
 20
-134.56629092773
 30
0.0
 10
121.4710900320915
 20
-134.5214831545749
 30
0.0
 10
121.4160546317147
 20
-134.5214831545749
 30
0.0
 10
121.3610246142995
 20
-134.5214831545749
 30
0.0
 10
121.3162222241062
 20
-134.56629092773
 30
0.0
 10
121.3162222241062
 20
-134.62130479626
 30
0.0
  0
SPLINE
  5
D4
330
1F
100
AcDbEntity
  8
_U+30EC_U+30A4_U+30E4_U+30FC 1
 62
   179
420
  2234388
370
     9
100
AcDbSpline
210
0.0
220
0.0
230
1.0
 70
    11
 71
     3
 72
    17
 73
    13
 74
     0
 42
0.0000000001
 43
0.0000000001
 12
1.0
 22
0.0
 32
0.0
 13
1.0
 23
0.0
 33
0.0
 40
0.0
 40
0.0
 40
0.0
 40
0.0
 40
1.0
 40
1.0
 40
1.0
 40
2.0
 40
2.0
 40
2.0
 40
3.0
 40
3.0
 40
3.0
 40
4.0
 40
4.0
 40
4.0
 40
4.0
 10
86.18985640172457
 20
-164.7204150317908
 30
0.0
 10
86.18985640172457
 20
-164.7754504321677
 30
0.0
 10
86.23465879191822
 20
-164.8202582053227
 30
0.0
 10
86.28969150081392
 20
-164.8202582053227
 30
0.0
 10
86.34472420970994
 20
-164.8202582053227
 30
0.0
 10
86.38952659990328
 20
-164.7754504321677
 30
0.0
 10
86.38952659990328
 20
-164.7204150317908
 30
0.0
 10
86.38952659990328
 20
-164.6654011632608
 30
0.0
 10
86.34472420970994
 20
-164.6205933901057
 30
0.0
 10
86.28969150081392
 20
-164.6205933901057
 30
0.0
 10
86.23465879191822
 20
-164.6205933901057
 30
0.0
 10
86.18985640172457
 20
-164.6654011632608
 30
0.0
 10
86.18985640172457
 20
-164.7204150317908
 30
0.0
  0
POLYLINE
  5
D5
330
1F
100
AcDbEntity
  8
_U+30EC_U+30A4_U+30E4_U+30FC 1
 62
   179
420
  2234388
370
     9
100
AcDb2dPolyline
 66
     1
 10
0.0
 20
0.0
 30
0.0
  0
VERTEX
  5
D6
330
D5
100
AcDbEntity
  8
_U+30EC_U+30A4_U+30E4_U+30FC 1
 62
   179
420
  2234388
370
     9
100
AcDbVertex
100
AcDb2dVertex
 10
121.4161622909486
 20
-134.62130479626
 30
0.0
  0
VERTEX
  5
D7
330
D5
100
AcDbEntity
  8
_U+30EC_U+30A4_U+30E4_U+30FC 1
 62
   179
420
  2234388
370
     9
100
AcDbVertex
100
AcDb2dVertex
 10
95.41608856782757
 20
-134.62130479626
 30
0.0
  0
SEQEND
  5
D8
330
D5
100
AcDbEntity
  8
_U+30EC_U+30A4_U+30E4_U+30FC 1
 62
   179
420
  2234388
370
     9
  0
POLYLINE
  5
D9
330
1F
100
AcDbEntity
  8
_U+30EC_U+30A4_U+30E4_U+30FC 1
 62
   179
420
  2234388
370
     9
100
AcDb2dPolyline
 66
     1
 10
0.0
 20
0.0
 30
0.0
  0
VERTEX
  5
DA
330
D9
100
AcDbEntity
  8
_U+30EC_U+30A4_U+30E4_U+30FC 1
 62
   179
420
  2234388
370
     9
100
AcDbVertex
100
AcDb2dVertex
 10
121.4161622909486
 20
-136.8813089664307
 30
0.0
  0
VERTEX
  5
DB
330
D9
100
AcDbEntity
  8
_U+30EC_U+30A4_U+30E4_U+30FC 1
 62
   179
420
  2234388
370
     9
100
AcDbVertex
100
AcDb2dVertex
 10
121.4161622909486
 20
-133.6216457456744
 30
0.0
  0
SEQEND
  5
DC
330
D9
100
AcDbEntity
  8
_U+30EC_U+30A4_U+30E4_U+30FC 1
 62
   179
420
  2234388
370
     9
  0
POLYLINE
  5
DD
330
1F
100
AcDbEntity
  8
_U+30EC_U+30A4_U+30E4_U+30FC 1
 62
   179
420
  2234388
370
     9
100
AcDb2dPolyline
 66
     1
 10
0.0
 20
0.0
 30
0.0
  0
VERTEX
  5
DE
330
DD
100
AcDbEntity
  8
_U+30EC_U+30A4_U+30E4_U+30FC 1
 62
   179
420
  2234388
370
     9
100
AcDbVertex
100
AcDb2dVertex
 10
95.41619353558063
 20
-136.6814934282862
 30
0.0
  0
VERTEX
  5
DF
330
DD
100
AcDbEntity
  8
_U+30EC_U+30A4_U+30E4_U+30FC 1
 62
   179
420
  2234388
370
     9
100
AcDbVertex
100
AcDb2dVertex
 10
95.41619353558063
 20
-133.6215165545941
 30
0.0
  0
SEQEND
  5
E0
330
DD
100
AcDbEntity
  8
_U+30EC_U+30A4_U+30E4_U+30FC 1
 62
   179
420
  2234388
370
     9
  0
INSERT
  5
E2
330
1F
100
AcDbEntity
  8
_U+30EC_U+30A4_U+30E4_U+30FC 1
100
AcDbBlockReference
  2
block 3
 10
0.0
 20
0.0
 30
0.0
  0
SPLINE
  5
EA
330
1F
100
AcDbEntity
  8
_U+30EC_U+30A4_U+30E4_U+30FC 1
 62
   179
420
  2234388
370
     9
100
AcDbSpline
210
0.0
220
0.0
230
1.0
 70
    11
 71
     3
 72
    17
 73
    13
 74
     0
 42
0.0000000001
 43
0.0000000001
 12
1.0
 22
0.0
 32
0.0
 13
1.0
 23
0.0
 33
0.0
 40
0.0
 40
0.0
 40
0.0
 40
0.0
 40
1.0
 40
1.0
 40
1.0
 40
2.0
 40
2.0
 40
2.0
 40
3.0
 40
3.0
 40
3.0
 40
4.0
 40
4.0
 40
4.0
 40
4.0
 10
124.2631838169974
 20
-144.8305222890962
 30
0.0
 10
124.3182138344125
 20
-144.8305222890962
 30
0.0
 10
124.3630162246059
 20
-144.7857360477879
 30
0.0
 10
124.3630162246059
 20
-144.7307006474111
 30
0.0
 10
124.3630162246059
 20
-144.6756652470342
 30
0.0
 10
124.3182138344125
 20
-144.6308574738792
 30
0.0
 10
124.2631838169974
 20
-144.6308574738792
 30
0.0
 10
124.2081484166205
 20
-144.6308574738792
 30
0.0
 10
124.1633460264272
 20
-144.6756652470342
 30
0.0
 10
124.1633460264272
 20
-144.7307006474111
 30
0.0
 10
124.1633460264272
 20
-144.7857360477879
 30
0.0
 10
124.2081484166205
 20
-144.8305222890962
 30
0.0
 10
124.2631838169974
 20
-144.8305222890962
 30
0.0
  0
SPLINE
  5
EB
330
1F
100
AcDbEntity
  8
_U+30EC_U+30A4_U+30E4_U+30FC 1
 62
   179
420
  2234388
370
     9
100
AcDbSpline
210
0.0
220
0.0
230
1.0
 70
    11
 71
     3
 72
    17
 73
    13
 74
     0
 42
0.0000000001
 43
0.0000000001
 12
1.0
 22
0.0
 32
0.0
 13
1.0
 23
0.0
 33
0.0
 40
0.0
 40
0.0
 40
0.0
 40
0.0
 40
1.0
 40
1.0
 40
1.0
 40
2.0
 40
2.0
 40
2.0
 40
3.0
 40
3.0
 40
3.0
 40
4.0
 40
4.0
 40
4.0
 40
4.0
 10
124.2631838169974
 20
-138.8309100333804
 30
0.0
 10
124.3182138344125
 20
-138.8309100333804
 30
0.0
 10
124.3630162246059
 20
-138.7861237920721
 30
0.0
 10
124.3630162246059
 20
-138.7307223503
 30
0.0
 10
124.3630162246059
 20
-138.6757084817699
 30
0.0
 10
124.3182138344125
 20
-138.6309007086149
 30
0.0
 10
124.2631838169974
 20
-138.6309007086149
 30
0.0
 10
124.2081484166205
 20
-138.6309007086149
 30
0.0
 10
124.1633460264272
 20
-138.6757084817699
 30
0.0
 10
124.1633460264272
 20
-138.7307223503
 30
0.0
 10
124.1633460264272
 20
-138.7861237920721
 30
0.0
 10
124.2081484166205
 20
-138.8309100333804
 30
0.0
 10
124.2631838169974
 20
-138.8309100333804
 30
0.0
  0
POLYLINE
  5
EC
330
1F
100
AcDbEntity
  8
_U+30EC_U+30A4_U+30E4_U+30FC 1
 62
   179
420
  2234388
370
     9
100
AcDb2dPolyline
 66
     1
 10
0.0
 20
0.0
 30
0.0
  0
VERTEX
  5
ED
330
EC
100
AcDbEntity
  8
_U+30EC_U+30A4_U+30E4_U+30FC 1
 62
   179
420
  2234388
370
     9
100
AcDbVertex
100
AcDb2dVertex
 10
124.2631838169974
 20
-138.7306362229128
 30
0.0
  0
VERTEX
  5
EE
330
EC
100
AcDbEntity
  8
_U+30EC_U+30A4_U+30E4_U+30FC 1
 62
   179
420
  2234388
370
     9
100
AcDbVertex
100
AcDb2dVertex
 10
124.2631838169974
 20
-144.7307006474111
 30
0.0
  0
SEQEND
  5
EF
330
EC
100
AcDbEntity
  8
_U+30EC_U+30A4_U+30E4_U+30FC 1
 62
   179
420
  2234388
370
     9
  0
POLYLINE
  5
F0
330
1F
100
AcDbEntity
  8
_U+30EC_U+30A4_U+30E4_U+30FC 1
 62
   179
420
  2234388
370
     9
100
AcDb2dPolyline
 66
     1
 10
0.0
 20
0.0
 30
0.0
  0
VERTEX
  5
F1
330
F0
100
AcDbEntity
  8
_U+30EC_U+30A4_U+30E4_U+30FC 1
 62
   179
420
  2234388
370
     9
100
AcDbVertex
100
AcDb2dVertex
 10
125.2565717172074
 20
-138.7306362229128
 30
0.0
  0
VERTEX
  5
F2
330
F0
100
AcDbEntity
  8
_U+30EC_U+30A4_U+30E4_U+30FC 1
 62
   179
420
  2234388
370
     9
100
AcDbVertex
100
AcDb2dVertex
 10
121.9969031134895
 20
-138.7306362229128
 30
0.0
  0
SEQEND
  5
F3
330
F0
100
AcDbEntity
  8
_U+30EC_U+30A4_U+30E4_U+30FC 1
 62
   179
420
  2234388
370
     9
  0
POLYLINE
  5
F4
330
1F
100
AcDbEntity
  8
_U+30EC_U+30A4_U+30E4_U+30FC 1
 62
   179
420
  2234388
370
     9
100
AcDb2dPolyline
 66
     1
 10
0.0
 20
0.0
 30
0.0
  0
VERTEX
  5
F5
330
F4
100
AcDbEntity
  8
_U+30EC_U+30A4_U+30E4_U+30FC 1
 62
   179
420
  2234388
370
     9
100
AcDbVertex
100
AcDb2dVertex
 10
125.2565717172074
 20
-144.7306145200239
 30
0.0
  0
VERTEX
  5
F6
330
F4
100
AcDbEntity
  8
_U+30EC_U+30A4_U+30E4_U+30FC 1
 62
   179
420
  2234388
370
     9
100
AcDbVertex
100
AcDb2dVertex
 10
121.9969031134895
 20
-144.7306145200239
 30
0.0
  0
SEQEND
  5
F7
330
F4
100
AcDbEntity
  8
_U+30EC_U+30A4_U+30E4_U+30FC 1
 62
   179
420
  2234388
370
     9
  0
INSERT
  5
F9
330
1F
100
AcDbEntity
  8
_U+30EC_U+30A4_U+30E4_U+30FC 1
100
AcDbBlockReference
  2
block 4
 10
0.0
 20
0.0
 30
0.0
  0
POLYLINE
  5
FF
330
1F
100
AcDbEntity
  8
_U+30EC_U+30A4_U+30E4_U+30FC 1
 62
   179
420
  2234388
370
     9
100
AcDb2dPolyline
 66
     1
 10
0.0
 20
0.0
 30
0.0
  0
VERTEX
  5
100
330
FF
100
AcDbEntity
  8
_U+30EC_U+30A4_U+30E4_U+30FC 1
 62
   179
420
  2234388
370
     9
100
AcDbVertex
100
AcDb2dVertex
 10
86.28979646856699
 20
-138.7206669778524
 30
0.0
  0
VERTEX
  5
101
330
FF
100
AcDbEntity
  8
_U+30EC_U+30A4_U+30E4_U+30FC 1
 62
   179
420
  2234388
370
     9
100
AcDbVertex
100
AcDb2dVertex
 10
86.28979646856699
 20
-164.720393499944
 30
0.0
  0
SEQEND
  5
102
330
FF
100
AcDbEntity
  8
_U+30EC_U+30A4_U+30E4_U+30FC 1
 62
   179
420
  2234388
370
     9
  0
POLYLINE
  5
103
330
1F
100
AcDbEntity
  8
_U+30EC_U+30A4_U+30E4_U+30FC 1
 62
   179
420
  2234388
370
     9
100
AcDb2dPolyline
 66
     1
 10
0.0
 20
0.0
 30
0.0
  0
VERTEX
  5
104
330
103
100
AcDbEntity
  8
_U+30EC_U+30A4_U+30E4_U+30FC 1
 62
   179
420
  2234388
370
     9
100
AcDbVertex
100
AcDb2dVertex
 10
84.99993657000468
 20
-138.7206669778524
 30
0.0
  0
VERTEX
  5
105
330
103
100
AcDbEntity
  8
_U+30EC_U+30A4_U+30E4_U+30FC 1
 62
   179
420
  2234388
370
     9
100
AcDbVertex
100
AcDb2dVertex
 10
89.35991484209416
 20
-138.7206669778524
 30
0.0
  0
SEQEND
  5
106
330
103
100
AcDbEntity
  8
_U+30EC_U+30A4_U+30E4_U+30FC 1
 62
   179
420
  2234388
370
     9
  0
POLYLINE
  5
107
330
1F
100
AcDbEntity
  8
_U+30EC_U+30A4_U+30E4_U+30FC 1
 62
   179
420
  2234388
370
     9
100
AcDb2dPolyline
 66
     1
 10
0.0
 20
0.0
 30
0.0
  0
VERTEX
  5
108
330
107
100
AcDbEntity
  8
_U+30EC_U+30A4_U+30E4_U+30FC 1
 62
   179
420
  2234388
370
     9
100
AcDbVertex
100
AcDb2dVertex
 10
84.99993657000468
 20
-164.7204150317908
 30
0.0
  0
VERTEX
  5
109
330
107
100
AcDbEntity
  8
_U+30EC_U+30A4_U+30E4_U+30FC 1
 62
   179
420
  2234388
370
     9
100
AcDbVertex
100
AcDb2dVertex
 10
89.35991484209416
 20
-164.7204150317908
 30
0.0
  0
SEQEND
  5
10A
330
107
100
AcDbEntity
  8
_U+30EC_U+30A4_U+30E4_U+30FC 1
 62
   179
420
  2234388
370
     9
  0
INSERT
  5
10C
330
1F
100
AcDbEntity
  8
_U+30EC_U+30A4_U+30E4_U+30FC 1
100
AcDbBlockReference
  2
block 5
 10
0.0
 20
0.0
 30
0.0
  0
POLYLINE
  5
114
330
1F
100
AcDbEntity
  8
_U+30EC_U+30A4_U+30E4_U+30FC 1
 62
   179
420
  2234388
370
    25
100
AcDb2dPolyline
 66
     1
 10
0.0
 20
0.0
 30
0.0
  0
VERTEX
  5
115
330
114
100
AcDbEntity
  8
_U+30EC_U+30A4_U+30E4_U+30FC 1
 62
   179
420
  2234388
370
    25
100
AcDbVertex
100
AcDb2dVertex
 10
92.31111282583987
 20
-139.6400983673255
 30
0.0
  0
VERTEX
  5
116
330
114
100
AcDbEntity
  8
_U+30EC_U+30A4_U+30E4_U+30FC 1
 62
   179
420
  2234388
370
    25
100
AcDbVertex
100
AcDb2dVertex
 10
94.31100959539333
 20
-139.6400983673255
 30
0.0
  0
SEQEND
  5
117
330
114
100
AcDbEntity
  8
_U+30EC_U+30A4_U+30E4_U+30FC 1
 62
   179
420
  2234388
370
    25
  0
POLYLINE
  5
118
330
1F
100
AcDbEntity
  8
_U+30EC_U+30A4_U+30E4_U+30FC 1
 62
   179
420
  2234388
370
    25
100
AcDb2dPolyline
 66
     1
 10
0.0
 20
0.0
 30
0.0
  0
VERTEX
  5
119
330
118
100
AcDbEntity
  8
_U+30EC_U+30A4_U+30E4_U+30FC 1
 62
   179
420
  2234388
370
    25
100
AcDbVertex
100
AcDb2dVertex
 10
91.31652721665247
 20
-138.6207592087802
 30
0.0
  0
VERTEX
  5
11A
330
118
100
AcDbEntity
  8
_U+30EC_U+30A4_U+30E4_U+30FC 1
 62
   179
420
  2234388
370
    25
100
AcDbVertex
100
AcDb2dVertex
 10
95.3163207557594
 20
-138.6207592087802
 30
0.0
  0
SEQEND
  5
11B
330
118
100
AcDbEntity
  8
_U+30EC_U+30A4_U+30E4_U+30FC 1
 62
   179
420
  2234388
370
    25
  0
POLYLINE
  5
11C
330
1F
100
AcDbEntity
  8
_U+30EC_U+30A4_U+30E4_U+30FC 1
 62
   179
420
  2234388
370
    25
100
AcDb2dPolyline
 66
     1
 10
0.0
 20
0.0
 30
0.0
  0
VERTEX
  5
11D
330
11C
100
AcDbEntity
  8
_U+30EC_U+30A4_U+30E4_U+30FC 1
 62
   179
420
  2234388
370
    25
100
AcDbVertex
100
AcDb2dVertex
 10
95.31628576650839
 20
-144.7575077966557
 30
0.0
  0
VERTEX
  5
11E
330
11C
100
AcDbEntity
  8
_U+30EC_U+30A4_U+30E4_U+30FC 1
 62
   179
420
  2234388
370
    25
100
AcDbVertex
100
AcDb2dVertex
 10
95.31628576650839
 20
-138.7574649040045
 30
0.0
  0
SEQEND
  5
11F
330
11C
100
AcDbEntity
  8
_U+30EC_U+30A4_U+30E4_U+30FC 1
 62
   179
420
  2234388
370
    25
  0
POLYLINE
  5
120
330
1F
100
AcDbEntity
  8
_U+30EC_U+30A4_U+30E4_U+30FC 1
 62
   179
420
  2234388
370
    25
100
AcDb2dPolyline
 66
     1
 10
0.0
 20
0.0
 30
0.0
  0
VERTEX
  5
121
330
120
100
AcDbEntity
  8
_U+30EC_U+30A4_U+30E4_U+30FC 1
 62
   179
420
  2234388
370
    25
100
AcDbVertex
100
AcDb2dVertex
 10
94.31101228687419
 20
-145.8179081870156
 30
0.0
  0
VERTEX
  5
122
330
120
100
AcDbEntity
  8
_U+30EC_U+30A4_U+30E4_U+30FC 1
 62
   179
420
  2234388
370
    25
100
AcDbVertex
100
AcDb2dVertex
 10
94.31101228687419
 20
-139.6400768354785
 30
0.0
  0
SEQEND
  5
123
330
120
100
AcDbEntity
  8
_U+30EC_U+30A4_U+30E4_U+30FC 1
 62
   179
420
  2234388
370
    25
  0
POLYLINE
  5
124
330
1F
100
AcDbEntity
  8
_U+30EC_U+30A4_U+30E4_U+30FC 1
 62
   179
420
  2234388
370
     9
100
AcDb2dPolyline
 66
     1
 10
0.0
 20
0.0
 30
0.0
  0
VERTEX
  5
125
330
124
100
AcDbEntity
  8
_U+30EC_U+30A4_U+30E4_U+30FC 1
 62
   179
420
  2234388
370
     9
100
AcDbVertex
100
AcDb2dVertex
 10
91.8894385214073
 20
-137.6502542787385
 30
0.0
  0
VERTEX
  5
126
330
124
100
AcDbEntity
  8
_U+30EC_U+30A4_U+30E4_U+30FC 1
 62
   179
420
  2234388
370
     9
100
AcDbVertex
100
AcDb2dVertex
 10
92.44647278064001
 20
-138.4810605868533
 30
0.0
  0
SEQEND
  5
127
330
124
100
AcDbEntity
  8
_U+30EC_U+30A4_U+30E4_U+30FC 1
 62
   179
420
  2234388
370
     9
  0
POLYLINE
  5
128
330
1F
100
AcDbEntity
  8
_U+30EC_U+30A4_U+30E4_U+30FC 1
 62
   179
420
  2234388
370
     9
100
AcDb2dPolyline
 66
     1
 10
0.0
 20
0.0
 30
0.0
  0
VERTEX
  5
129
330
128
100
AcDbEntity
  8
_U+30EC_U+30A4_U+30E4_U+30FC 1
 62
   179
420
  2234388
370
     9
100
AcDbVertex
100
AcDb2dVertex
 10
92.37969444932398
 20
-137.4835331890992
 30
0.0
  0
VERTEX
  5
12A
330
128
100
AcDbEntity
  8
_U+30EC_U+30A4_U+30E4_U+30FC 1
 62
   179
420
  2234388
370
     9
100
AcDbVertex
100
AcDb2dVertex
 10
92.44636781288695
 20
-138.481189777934
 30
0.0
  0
SEQEND
  5
12B
330
128
100
AcDbEntity
  8
_U+30EC_U+30A4_U+30E4_U+30FC 1
 62
   179
420
  2234388
370
     9
  0
POLYLINE
  5
12C
330
1F
100
AcDbEntity
  8
_U+30EC_U+30A4_U+30E4_U+30FC 1
 62
   179
420
  2234388
370
     9
100
AcDb2dPolyline
 66
     1
 10
0.0
 20
0.0
 30
0.0
  0
VERTEX
  5
12D
330
12C
100
AcDbEntity
  8
_U+30EC_U+30A4_U+30E4_U+30FC 1
 62
   179
420
  2234388
370
     9
100
AcDbVertex
100
AcDb2dVertex
 10
91.67068034105532
 20
-136.1209979246829
 30
0.0
  0
VERTEX
  5
12E
330
12C
100
AcDbEntity
  8
_U+30EC_U+30A4_U+30E4_U+30FC 1
 62
   179
420
  2234388
370
     9
100
AcDbVertex
100
AcDb2dVertex
 10
92.44643779138899
 20
-138.4810821187004
 30
0.0
  0
SEQEND
  5
12F
330
12C
100
AcDbEntity
  8
_U+30EC_U+30A4_U+30E4_U+30FC 1
 62
   179
420
  2234388
370
     9
  0
INSERT
  5
131
330
1F
100
AcDbEntity
  8
_U+30EC_U+30A4_U+30E4_U+30FC 1
100
AcDbBlockReference
  2
block 6
 10
0.0
 20
0.0
 30
0.0
  0
POLYLINE
  5
18C
330
1F
100
AcDbEntity
  8
_U+30EC_U+30A4_U+30E4_U+30FC 1
 62
   179
420
  2234388
370
    25
100
AcDb2dPolyline
 66
     1
 10
0.0
 20
0.0
 30
0.0
  0
VERTEX
  5
18D
330
18C
100
AcDbEntity
  8
_U+30EC_U+30A4_U+30E4_U+30FC 1
 62
   179
420
  2234388
370
    25
100
AcDbVertex
100
AcDb2dVertex
 10
91.31652721665247
 20
-139.6400983673255
 30
0.0
  0
VERTEX
  5
18E
330
18C
100
AcDbEntity
  8
_U+30EC_U+30A4_U+30E4_U+30FC 1
 62
   179
420
  2234388
370
    25
100
AcDbVertex
100
AcDb2dVertex
 10
92.31100516660595
 20
-139.6400983673255
 30
0.0
  0
SEQEND
  5
18F
330
18C
100
AcDbEntity
  8
_U+30EC_U+30A4_U+30E4_U+30FC 1
 62
   179
420
  2234388
370
    25
  0
ENDSEC
  0
SECTION
  2
OBJECTS
  0
DICTIONARY
  5
C
330
0
100
AcDbDictionary
281
     1
  3
ACAD_GROUP
350
D
  3
ACAD_LAYOUT
350
1A
  3
ACAD_MATERIAL
350
3B
  3
ACAD_MLEADERSTYLE
350
191
  3
ACAD_MLINESTYLE
350
17
  3
ACAD_PLOTSETTINGS
350
19
  3
ACAD_PLOTSTYLENAME
350
E
  3
ACAD_TABLESTYLE
350
190
  3
ACAD_VISUALSTYLE
350
2A
  0
SUN
  5
3F
330
29
100
AcDbSun
 90
        1
290
     0
 63
     7
421
 16777215
 40
1.0
291
     1
 91
  2455826
 92
 54000000
292
     0
 70
     2
 71
   256
280
     1
  0
DICTIONARY
  5
D
102
{ACAD_REACTORS
330
C
102
}
330
C
100
AcDbDictionary
281
     1
  0
DICTIONARY
  5
1A
102
{ACAD_REACTORS
330
C
102
}
330
C
100
AcDbDictionary
281
     1
  3
Layout1
350
1E
  3
Layout2
350
26
  3
Model
350
22
  0
DICTIONARY
  5
3B
102
{ACAD_REACTORS
330
C
102
}
330
C
100
AcDbDictionary
281
     1
  3
ByBlock
350
3D
  3
ByLayer
350
3C
  3
Global
350
3E
  0
DICTIONARY
  5
191
102
{ACAD_REACTORS
330
C
102
}
330
C
100
AcDbDictionary
281
     1
  0
DICTIONARY
  5
17
102
{ACAD_REACTORS
330
C
102
}
330
C
100
AcDbDictionary
281
     1
  3
Standard
350
18
  0
DICTIONARY
  5
19
102
{ACAD_REACTORS
330
C
102
}
330
C
100
AcDbDictionary
281
     1
  0
ACDBDICTIONARYWDFLT
  5
E
102
{ACAD_REACTORS
330
C
102
}
330
C
100
AcDbDictionary
281
     1
  3
Normal
350
F
100
AcDbDictionaryWithDefault
340
F
  0
DICTIONARY
  5
190
102
{ACAD_REACTORS
330
C
102
}
330
C
100
AcDbDictionary
281
     1
  0
DICTIONARY
  5
2A
102
{ACAD_REACTORS
330
C
102
}
330
C
100
AcDbDictionary
281
     1
  3
2dWireframe
350
2F
  3
3D Hidden
350
31
  3
3dWireframe
350
30
  3
Basic
350
32
  3
Brighten
350
36
  3
ColorChange
350
3A
  3
Conceptual
350
34
  3
Dim
350
35
  3
Facepattern
350
39
  3
Flat
350
2B
  3
FlatWithEdges
350
2C
  3
Gouraud
350
2D
  3
GouraudWithEdges
350
2E
  3
Linepattern
350
38
  3
Realistic
350
33
  3
Thicken
350
37
  0
LAYOUT
  5
1E
102
{ACAD_REACTORS
330
1A
102
}
330
1A
100
AcDbPlotSettings
  1

  2
none_device
  4

  6

 40
0.0
 41
0.0
 42
0.0
 43
0.0
 44
0.0
 45
0.0
 46
0.0
 47
0.0
 48
0.0
 49
0.0
140
0.0
141
0.0
142
1.0
143
1.0
 70
   688
 72
     0
 73
     0
 74
     5
  7

 75
    16
 76
     0
 77
     2
 78
   300
147
1.0
148
0.0
149
0.0
100
AcDbLayout
  1
Layout1
 70
     1
 71
     1
 10
0.0
 20
0.0
 11
12.0
 21
9.0
 12
0.0
 22
0.0
 32
0.0
 14
1.000000000000000E+20
 24
1.000000000000000E+20
 34
1.000000000000000E+20
 15
-1.000000000000000E+20
 25
-1.000000000000000E+20
 35
-1.000000000000000E+20
146
0.0
 13
0.0
 23
0.0
 33
0.0
 16
1.0
 26
0.0
 36
0.0
 17
0.0
 27
1.0
 37
0.0
 76
     0
330
1B
  0
LAYOUT
  5
26
102
{ACAD_REACTORS
330
1A
102
}
330
1A
100
AcDbPlotSettings
  1

  2
none_device
  4

  6

 40
0.0
 41
0.0
 42
0.0
 43
0.0
 44
0.0
 45
0.0
 46
0.0
 47
0.0
 48
0.0
 49
0.0
140
0.0
141
0.0
142
1.0
143
1.0
 70
   688
 72
     0
 73
     0
 74
     5
  7

 75
    16
 76
     0
 77
     2
 78
   300
147
1.0
148
0.0
149
0.0
100
AcDbLayout
  1
Layout2
 70
     1
 71
     2
 10
0.0
 20
0.0
 11
0.0
 21
0.0
 12
0.0
 22
0.0
 32
0.0
 14
0.0
 24
0.0
 34
0.0
 15
0.0
 25
0.0
 35
0.0
146
0.0
 13
0.0
 23
0.0
 33
0.0
 16
1.0
 26
0.0
 36
0.0
 17
0.0
 27
1.0
 37
0.0
 76
     0
330
23
  0
LAYOUT
  5
22
102
{ACAD_REACTORS
330
1A
102
}
330
1A
100
AcDbPlotSettings
  1

  2
none_device
  4

  6

 40
0.0
 41
0.0
 42
0.0
 43
0.0
 44
0.0
 45
0.0
 46
0.0
 47
0.0
 48
0.0
 49
0.0
140
0.0
141
0.0
142
1.0
143
1.0
 70
  1712
 72
     0
 73
     0
 74
     0
  7

 75
     0
 76
     0
 77
     2
 78
   300
147
1.0
148
0.0
149
0.0
100
AcDbLayout
  1
Model
 70
     1
 71
     0
 10
0.0
 20
0.0
 11
12.0
 21
9.0
 12
0.0
 22
0.0
 32
0.0
 14
1.000000000000000E+20
 24
1.000000000000000E+20
 34
1.000000000000000E+20
 15
-1.000000000000000E+20
 25
-1.000000000000000E+20
 35
-1.000000000000000E+20
146
0.0
 13
0.0
 23
0.0
 33
0.0
 16
1.0
 26
0.0
 36
0.0
 17
0.0
 27
1.0
 37
0.0
 76
     0
330
1F
331
29
  0
MATERIAL
  5
3D
102
{ACAD_REACTORS
330
3B
102
}
330
3B
100
AcDbMaterial
  1
ByBlock
 72
     1
 94
      127
  0
MATERIAL
  5
3C
102
{ACAD_REACTORS
330
3B
102
}
330
3B
100
AcDbMaterial
  1
ByLayer
 72
     1
 94
      127
  0
MATERIAL
  5
3E
102
{ACAD_REACTORS
330
3B
102
}
330
3B
100
AcDbMaterial
  1
Global
 72
     1
 94
      127
  0
MLINESTYLE
  5
18
102
{ACAD_REACTORS
330
17
102
}
330
17
100
AcDbMlineStyle
  2
Standard
 70
     0
  3

 62
   256
 51
90.0
 52
90.0
 71
     2
 49
0.5
 62
   256
  6
BYLAYER
 49
-0.5
 62
   256
  6
BYLAYER
  0
ACDBPLACEHOLDER
  5
F
102
{ACAD_REACTORS
330
E
102
}
330
E
  0
VISUALSTYLE
  5
2F
102
{ACAD_REACTORS
330
2A
102
}
330
2A
100
AcDbVisualStyle
  2
2dWireframe
 70
     4
177
     2
291
     0
 71
     0
176
     1
 72
     2
176
     1
 73
     0
176
     1
 90
        0
176
     1
 40
-0.6
176
     1
 41
-30.0
176
     1
 62
     5
 63
     7
421
 16777215
176
     1
 74
     1
176
     1
 91
        4
176
     1
 64
     7
176
     1
 65
   257
176
     1
 75
     1
176
     1
175
     1
176
     1
 42
1.0
176
     1
 92
        0
176
     1
 66
   257
176
     1
 43
1.0
176
     1
 76
     1
176
     1
 77
     6
176
     1
 78
     2
176
     1
 67
     7
176
     1
 79
     5
176
     1
170
     0
176
     1
171
     0
176
     1
290
     0
176
     1
 93
        1
176
     1
 44
0.0
176
     1
173
     0
176
     1
  0
VISUALSTYLE
  5
31
102
{ACAD_REACTORS
330
2A
102
}
330
2A
100
AcDbVisualStyle
  2
3D Hidden
 70
     6
177
     2
291
     0
 71
     1
176
     1
 72
     2
176
     1
 73
     2
176
     1
 90
        0
176
     1
 40
-0.6
176
     1
 41
-30.0
176
     1
 62
     5
 63
     7
421
 16777215
176
     1
 74
     2
176
     1
 91
        2
176
     1
 64
     7
176
     1
 65
   257
176
     1
 75
     2
176
     1
175
     1
176
     1
 42
40.0
176
     1
 92
        0
176
     1
 66
   257
176
     1
 43
1.0
176
     1
 76
     1
176
     1
 77
     6
176
     1
 78
     2
176
     1
 67
     7
176
     1
 79
     3
176
     1
170
     0
176
     1
171
     0
176
     1
290
     0
176
     1
 93
        1
176
     1
 44
0.0
176
     1
173
     0
176
     1
  0
VISUALSTYLE
  5
30
102
{ACAD_REACTORS
330
2A
102
}
330
2A
100
AcDbVisualStyle
  2
3dWireframe
 70
     5
177
     2
291
     0
 71
     0
176
     1
 72
     2
176
     1
 73
     0
176
     1
 90
        0
176
     1
 40
-0.6
176
     1
 41
-30.0
176
     1
 62
     5
 63
     7
421
 16777215
176
     1
 74
     1
176
     1
 91
        4
176
     1
 64
     7
176
     1
 65
   257
176
     1
 75
     1
176
     1
175
     1
176
     1
 42
1.0
176
     1
 92
        0
176
     1
 66
   257
176
     1
 43
1.0
176
     1
 76
     1
176
     1
 77
     6
176
     1
 78
     2
176
     1
 67
     7
176
     1
 79
     5
176
     1
170
     0
176
     1
171
     0
176
     1
290
     0
176
     1
 93
        1
176
     1
 44
0.0
176
     1
173
     0
176
     1
  0
VISUALSTYLE
  5
32
102
{ACAD_REACTORS
330
2A
102
}
330
2A
100
AcDbVisualStyle
  2
Basic
 70
     7
177
     2
291
     1
 71
     1
176
     1
 72
     0
176
     1
 73
     1
176
     1
 90
        0
176
     1
 40
-0.6
176
     1
 41
-30.0
176
     1
 62
     5
 63
     7
421
 16777215
176
     1
 74
     0
176
     1
 91
        4
176
     1
 64
     7
176
     1
 65
   257
176
     1
 75
     1
176
     1
175
     1
176
     1
 42
1.0
176
     1
 92
        8
176
     1
 66
     7
176
     1
 43
1.0
176
     1
 76
     1
176
     1
 77
     6
176
     1
 78
     2
176
     1
 67
     7
176
     1
 79
     5
176
     1
170
     0
176
     1
171
     0
176
     1
290
     0
176
     1
 93
        1
176
     1
 44
0.0
176
     1
173
     0
176
     1
  0
VISUALSTYLE
  5
36
102
{ACAD_REACTORS
330
2A
102
}
330
2A
100
AcDbVisualStyle
  2
Brighten
 70
    12
177
     2
291
     1
 71
     2
176
     1
 72
     2
176
     1
 73
     0
176
     1
 90
        0
176
     1
 40
-0.6
176
     1
 41
-30.0
176
     1
 62
     5
 63
     7
421
 16777215
176
     1
 74
     1
176
     1
 91
        4
176
     1
 64
     7
176
     1
 65
   257
176
     1
 75
     1
176
     1
175
     1
176
     1
 42
1.0
176
     1
 92
        8
176
     1
 66
     7
176
     1
 43
1.0
176
     1
 76
     1
176
     1
 77
     6
176
     1
 78
     2
176
     1
 67
     7
176
     1
 79
     5
176
     1
170
     0
176
     1
171
     0
176
     1
290
     0
176
     1
 93
        1
176
     1
 44
50.0
176
     1
173
     0
176
     1
  0
VISUALSTYLE
  5
3A
102
{ACAD_REACTORS
330
2A
102
}
330
2A
100
AcDbVisualStyle
  2
ColorChange
 70
    16
177
     2
291
     1
 71
     2
176
     1
 72
     2
176
     1
 73
     3
176
     1
 90
        0
176
     1
 40
-0.6
176
     1
 41
-30.0
176
     1
 62
     5
 63
     8
421
  8421504
176
     1
 74
     1
176
     1
 91
        4
176
     1
 64
     7
176
     1
 65
   257
176
     1
 75
     1
176
     1
175
     1
176
     1
 42
1.0
176
     1
 92
        8
176
     1
 66
     8
424
  8421504
176
     1
 43
1.0
176
     1
 76
     1
176
     1
 77
     6
176
     1
 78
     2
176
     1
 67
     7
176
     1
 79
     5
176
     1
170
     0
176
     1
171
     0
176
     1
290
     0
176
     1
 93
        1
176
     1
 44
0.0
176
     1
173
     0
176
     1
  0
VISUALSTYLE
  5
34
102
{ACAD_REACTORS
330
2A
102
}
330
2A
100
AcDbVisualStyle
  2
Conceptual
 70
     9
177
     2
291
     0
 71
     3
176
     1
 72
     2
176
     1
 73
     0
176
     1
 90
        0
176
     1
 40
-0.6
176
     1
 41
-30.0
176
     1
 62
     5
 63
     7
421
 16777215
176
     1
 74
     2
176
     1
 91
        2
176
     1
 64
     7
176
     1
 65
   257
176
     1
 75
     1
176
     1
175
     1
176
     1
 42
40.0
176
     1
 92
        8
176
     1
 66
     7
176
     1
 43
1.0
176
     1
 76
     1
176
     1
 77
     6
176
     1
 78
     2
176
     1
 67
     7
176
     1
 79
     3
176
     1
170
     0
176
     1
171
     0
176
     1
290
     0
176
     1
 93
        1
176
     1
 44
0.0
176
     1
173
     0
176
     1
  0
VISUALSTYLE
  5
35
102
{ACAD_REACTORS
330
2A
102
}
330
2A
100
AcDbVisualStyle
  2
Dim
 70
    11
177
     2
291
     1
 71
     2
176
     1
 72
     2
176
     1
 73
     0
176
     1
 90
        0
176
     1
 40
-0.6
176
     1
 41
-30.0
176
     1
 62
     5
 63
     7
421
 16777215
176
     1
 74
     1
176
     1
 91
        4
176
     1
 64
     7
176
     1
 65
   257
176
     1
 75
     1
176
     1
175
     1
176
     1
 42
1.0
176
     1
 92
        8
176
     1
 66
     7
176
     1
 43
1.0
176
     1
 76
     1
176
     1
 77
     6
176
     1
 78
     2
176
     1
 67
     7
176
     1
 79
     5
176
     1
170
     0
176
     1
171
     0
176
     1
290
     0
176
     1
 93
        1
176
     1
 44
-50.0
176
     1
173
     0
176
     1
  0
VISUALSTYLE
  5
39
102
{ACAD_REACTORS
330
2A
102
}
330
2A
100
AcDbVisualStyle
  2
Facepattern
 70
    15
177
     2
291
     1
 71
     2
176
     1
 72
     2
176
     1
 73
     0
176
     1
 90
        0
176
     1
 40
-0.6
176
     1
 41
-30.0
176
     1
 62
     5
 63
     7
421
 16777215
176
     1
 74
     1
176
     1
 91
        4
176
     1
 64
     7
176
     1
 65
   257
176
     1
 75
     1
176
     1
175
     1
176
     1
 42
1.0
176
     1
 92
        8
176
     1
 66
     7
176
     1
 43
1.0
176
     1
 76
     1
176
     1
 77
     6
176
     1
 78
     2
176
     1
 67
     7
176
     1
 79
     5
176
     1
170
     0
176
     1
171
     0
176
     1
290
     0
176
     1
 93
        1
176
     1
 44
0.0
176
     1
173
     0
176
     1
  0
VISUALSTYLE
  5
2B
102
{ACAD_REACTORS
330
2A
102
}
330
2A
100
AcDbVisualStyle
  2
Flat
 70
     0
177
     2
291
     1
 71
     2
176
     1
 72
     1
176
     1
 73
     1
176
     1
 90
        2
176
     1
 40
-0.6
176
     1
 41
30.0
176
     1
 62
     5
 63
     7
421
 16777215
176
     1
 74
     0
176
     1
 91
        4
176
     1
 64
     7
176
     1
 65
   257
176
     1
 75
     1
176
     1
175
     1
176
     1
 42
1.0
176
     1
 92
        8
176
     1
 66
     7
176
     1
 43
1.0
176
     1
 76
     1
176
     1
 77
     6
176
     1
 78
     2
176
     1
 67
     7
176
     1
 79
     5
176
     1
170
     0
176
     1
171
     0
176
     1
290
     0
176
     1
 93
       13
176
     1
 44
0.0
176
     1
173
     0
176
     1
  0
VISUALSTYLE
  5
2C
102
{ACAD_REACTORS
330
2A
102
}
330
2A
100
AcDbVisualStyle
  2
FlatWithEdges
 70
     1
177
     2
291
     1
 71
     2
176
     1
 72
     1
176
     1
 73
     1
176
     1
 90
        2
176
     1
 40
-0.6
176
     1
 41
30.0
176
     1
 62
     5
 63
     7
421
 16777215
176
     1
 74
     1
176
     1
 91
        4
176
     1
 64
     7
176
     1
 65
   257
176
     1
 75
     1
176
     1
175
     1
176
     1
 42
1.0
176
     1
 92
        0
176
     1
 66
   257
176
     1
 43
1.0
176
     1
 76
     1
176
     1
 77
     6
176
     1
 78
     2
176
     1
 67
     7
176
     1
 79
     5
176
     1
170
     0
176
     1
171
     0
176
     1
290
     0
176
     1
 93
       13
176
     1
 44
0.0
176
     1
173
     0
176
     1
  0
VISUALSTYLE
  5
2D
102
{ACAD_REACTORS
330
2A
102
}
330
2A
100
AcDbVisualStyle
  2
Gouraud
 70
     2
177
     2
291
     1
 71
     2
176
     1
 72
     2
176
     1
 73
     1
176
     1
 90
        2
176
     1
 40
-0.6
176
     1
 41
30.0
176
     1
 62
     5
 63
     7
421
 16777215
176
     1
 74
     0
176
     1
 91
        4
176
     1
 64
     7
176
     1
 65
   257
176
     1
 75
     1
176
     1
175
     1
176
     1
 42
1.0
176
     1
 92
        0
176
     1
 66
     7
176
     1
 43
1.0
176
     1
 76
     1
176
     1
 77
     6
176
     1
 78
     2
176
     1
 67
     7
176
     1
 79
     5
176
     1
170
     0
176
     1
171
     0
176
     1
290
     0
176
     1
 93
       13
176
     1
 44
0.0
176
     1
173
     0
176
     1
  0
VISUALSTYLE
  5
2E
102
{ACAD_REACTORS
330
2A
102
}
330
2A
100
AcDbVisualStyle
  2
GouraudWithEdges
 70
     3
177
     2
291
     1
 71
     2
176
     1
 72
     2
176
     1
 73
     1
176
     1
 90
        2
176
     1
 40
-0.6
176
     1
 41
30.0
176
     1
 62
     5
 63
     7
421
 16777215
176
     1
 74
     1
176
     1
 91
        4
176
     1
 64
     7
176
     1
 65
   257
176
     1
 75
     1
176
     1
175
     1
176
     1
 42
1.0
176
     1
 92
        0
176
     1
 66
   257
176
     1
 43
1.0
176
     1
 76
     1
176
     1
 77
     6
176
     1
 78
     2
176
     1
 67
     7
176
     1
 79
     5
176
     1
170
     0
176
     1
171
     0
176
     1
290
     0
176
     1
 93
       13
176
     1
 44
0.0
176
     1
173
     0
176
     1
  0
VISUALSTYLE
  5
38
102
{ACAD_REACTORS
330
2A
102
}
330
2A
100
AcDbVisualStyle
  2
Linepattern
 70
    14
177
     2
291
     1
 71
     2
176
     1
 72
     2
176
     1
 73
     0
176
     1
 90
        0
176
     1
 40
-0.6
176
     1
 41
-30.0
176
     1
 62
     5
 63
     7
421
 16777215
176
     1
 74
     1
176
     1
 91
        4
176
     1
 64
     7
176
     1
 65
   257
176
     1
 75
     7
176
     1
175
     7
176
     1
 42
1.0
176
     1
 92
        8
176
     1
 66
     7
176
     1
 43
1.0
176
     1
 76
     1
176
     1
 77
     6
176
     1
 78
     2
176
     1
 67
     7
176
     1
 79
     5
176
     1
170
     0
176
     1
171
     0
176
     1
290
     0
176
     1
 93
        1
176
     1
 44
0.0
176
     1
173
     0
176
     1
  0
VISUALSTYLE
  5
33
102
{ACAD_REACTORS
330
2A
102
}
330
2A
100
AcDbVisualStyle
  2
Realistic
 70
     8
177
     2
291
     0
 71
     2
176
     1
 72
     2
176
     1
 73
     0
176
     1
 90
        0
176
     1
 40
-0.6
176
     1
 41
-30.0
176
     1
 62
     5
 63
     7
421
 16777215
176
     1
 74
     1
176
     1
 91
        0
176
     1
 64
     7
176
     1
 65
   257
176
     1
 75
     1
176
     1
175
     1
176
     1
 42
1.0
176
     1
 92
        8
176
     1
 66
     8
424
  7895160
176
     1
 43
1.0
176
     1
 76
     1
176
     1
 77
     6
176
     1
 78
     2
176
     1
 67
     7
176
     1
 79
     5
176
     1
170
     0
176
     1
171
     0
176
     1
290
     0
176
     1
 93
       13
176
     1
 44
0.0
176
     1
173
     0
176
     1
  0
VISUALSTYLE
  5
37
102
{ACAD_REACTORS
330
2A
102
}
330
2A
100
AcDbVisualStyle
  2
Thicken
 70
    13
177
     2
291
     1
 71
     2
176
     1
 72
     2
176
     1
 73
     0
176
     1
 90
        0
176
     1
 40
-0.6
176
     1
 41
-30.0
176
     1
 62
     5
 63
     7
421
 16777215
176
     1
 74
     1
176
     1
 91
        4
176
     1
 64
     7
176
     1
 65
   257
176
     1
 75
     1
176
     1
175
     1
176
     1
 42
1.0
176
     1
 92
       12
176
     1
 66
     7
176
     1
 43
1.0
176
     1
 76
     1
176
     1
 77
     6
176
     1
 78
     2
176
     1
 67
     7
176
     1
 79
     5
176
     1
170
     0
176
     1
171
     0
176
     1
290
     0
176
     1
 93
        1
176
     1
 44
0.0
176
     1
173
     0
176
     1
  0
ENDSEC
  0
EOF
