  0
SECTION
  2
HEADER
  9
$ACADVER
  1
AC1024
  9
$ACADMAINTVER
 70
     6
  9
$DWGCODEPAGE
  3
UNDEFINED
  9
$INSBASE
 10
0.0
 20
0.0
 30
0.0
  9
$EXTMIN
 10
1.000000000000000E+20
 20
1.000000000000000E+20
 30
1.000000000000000E+20
  9
$EXTMAX
 10
-1.000000000000000E+20
 20
-1.000000000000000E+20
 30
-1.000000000000000E+20
  9
$LIMMIN
 10
0.0
 20
0.0
  9
$LIMMAX
 10
12.0
 20
9.0
  9
$ORTHOMODE
 70
     0
  9
$REGENMODE
 70
     1
  9
$FILLMODE
 70
     1
  9
$QTEXTMODE
 70
     0
  9
$MIRRTEXT
 70
     1
  9
$LTSCALE
 40
1.0
  9
$ATTMODE
 70
     1
  9
$TEXTSIZE
 40
0.2
  9
$TRACEWID
 40
0.05
  9
$TEXTSTYLE
  7
Standard
  9
$CLAYER
  8
0
  9
$CELTYPE
  6
ByLayer
  9
$CECOLOR
 62
   256
  9
$CELTSCALE
 40
1.0
  9
$DISPSILH
 70
     0
  9
$DIMSCALE
 40
1.0
  9
$DIMASZ
 40
0.18
  9
$DIMEXO
 40
0.0625
  9
$DIMDLI
 40
0.38
  9
$DIMRND
 40
0.0
  9
$DIMDLE
 40
0.0
  9
$DIMEXE
 40
0.18
  9
$DIMTP
 40
0.0
  9
$DIMTM
 40
0.0
  9
$DIMTXT
 40
0.18
  9
$DIMCEN
 40
0.09
  9
$DIMTSZ
 40
0.0
  9
$DIMTOL
 70
     0
  9
$DIMLIM
 70
     0
  9
$DIMTIH
 70
     1
  9
$DIMTOH
 70
     1
  9
$DIMSE1
 70
     0
  9
$DIMSE2
 70
     0
  9
$DIMTAD
 70
     0
  9
$DIMZIN
 70
     0
  9
$DIMBLK
  1

  9
$DIMASO
 70
     1
  9
$DIMSHO
 70
     1
  9
$DIMPOST
  1

  9
$DIMAPOST
  1

  9
$DIMALT
 70
     0
  9
$DIMALTD
 70
     2
  9
$DIMALTF
 40
25.4
  9
$DIMLFAC
 40
1.0
  9
$DIMTOFL
 70
     0
  9
$DIMTVP
 40
0.0
  9
$DIMTIX
 70
     0
  9
$DIMSOXD
 70
     0
  9
$DIMSAH
 70
     0
  9
$DIMBLK1
  1

  9
$DIMBLK2
  1

  9
$DIMSTYLE
  2
Standard
  9
$DIMCLRD
 70
     0
  9
$DIMCLRE
 70
     0
  9
$DIMCLRT
 70
     0
  9
$DIMTFAC
 40
1.0
  9
$DIMGAP
 40
0.09
  9
$DIMJUST
 70
     0
  9
$DIMSD1
 70
     0
  9
$DIMSD2
 70
     0
  9
$DIMTOLJ
 70
     1
  9
$DIMTZIN
 70
     0
  9
$DIMALTZ
 70
     0
  9
$DIMALTTZ
 70
     0
  9
$DIMUPT
 70
     0
  9
$DIMDEC
 70
     4
  9
$DIMTDEC
 70
     4
  9
$DIMALTU
 70
     2
  9
$DIMALTTD
 70
     2
  9
$DIMTXSTY
  7
Standard
  9
$DIMAUNIT
 70
     0
  9
$DIMADEC
 70
     0
  9
$DIMALTRND
 40
0.0
  9
$DIMAZIN
 70
     0
  9
$DIMDSEP
 70
    46
  9
$DIMATFIT
 70
     3
  9
$DIMFRAC
 70
     0
  9
$DIMLDRBLK
  1

  9
$DIMLUNIT
 70
     2
  9
$DIMLWD
 70
    -2
  9
$DIMLWE
 70
    -2
  9
$DIMTMOVE
 70
     0
  9
$DIMFXL
 40
1.0
  9
$DIMFXLON
 70
     0
  9
$DIMJOGANG
 40
0.7853981633974483
  9
$DIMTFILL
 70
     0
  9
$DIMTFILLCLR
 70
     0
  9
$DIMARCSYM
 70
     0
  9
$DIMLTYPE
  6

  9
$DIMLTEX1
  6

  9
$DIMLTEX2
  6

  9
$DIMTXTDIRECTION
 70
     0
  9
$LUNITS
 70
     2
  9
$LUPREC
 70
     4
  9
$SKETCHINC
 40
0.1
  9
$FILLETRAD
 40
0.5
  9
$AUNITS
 70
     0
  9
$AUPREC
 70
     0
  9
$MENU
  1
.
  9
$ELEVATION
 40
0.0
  9
$PELEVATION
 40
0.0
  9
$THICKNESS
 40
0.0
  9
$LIMCHECK
 70
     0
  9
$CHAMFERA
 40
0.5
  9
$CHAMFERB
 40
0.5
  9
$CHAMFERC
 40
1.0
  9
$CHAMFERD
 40
0.0
  9
$SKPOLY
 70
     0
  9
$TDCREATE
 40
2458263.578761563
  9
$TDUCREATE
 40
2458263.203761574
  9
$TDUPDATE
 40
2458263.578761563
  9
$TDUUPDATE
 40
2458263.203761574
  9
$TDINDWG
 40
0.0000000116
  9
$TDUSRTIMER
 40
0.0000000116
  9
$USRTIMER
 70
     1
  9
$ANGBASE
 50
0.0
  9
$ANGDIR
 70
     0
  9
$PDMODE
 70
     0
  9
$PDSIZE
 40
0.0
  9
$PLINEWID
 40
0.0
  9
$SPLFRAME
 70
     0
  9
$SPLINETYPE
 70
     6
  9
$SPLINESEGS
 70
     8
  9
$HANDSEED
  5
140
  9
$SURFTAB1
 70
     6
  9
$SURFTAB2
 70
     6
  9
$SURFTYPE
 70
     6
  9
$SURFU
 70
     6
  9
$SURFV
 70
     6
  9
$UCSBASE
  2

  9
$UCSNAME
  2

  9
$UCSORG
 10
0.0
 20
0.0
 30
0.0
  9
$UCSXDIR
 10
1.0
 20
0.0
 30
0.0
  9
$UCSYDIR
 10
0.0
 20
1.0
 30
0.0
  9
$UCSORTHOREF
  2

  9
$UCSORTHOVIEW
 70
     0
  9
$UCSORGTOP
 10
0.0
 20
0.0
 30
0.0
  9
$UCSORGBOTTOM
 10
0.0
 20
0.0
 30
0.0
  9
$UCSORGLEFT
 10
0.0
 20
0.0
 30
0.0
  9
$UCSORGRIGHT
 10
0.0
 20
0.0
 30
0.0
  9
$UCSORGFRONT
 10
0.0
 20
0.0
 30
0.0
  9
$UCSORGBACK
 10
0.0
 20
0.0
 30
0.0
  9
$PUCSBASE
  2

  9
$PUCSNAME
  2

  9
$PUCSORG
 10
0.0
 20
0.0
 30
0.0
  9
$PUCSXDIR
 10
1.0
 20
0.0
 30
0.0
  9
$PUCSYDIR
 10
0.0
 20
1.0
 30
0.0
  9
$PUCSORTHOREF
  2

  9
$PUCSORTHOVIEW
 70
     0
  9
$PUCSORGTOP
 10
0.0
 20
0.0
 30
0.0
  9
$PUCSORGBOTTOM
 10
0.0
 20
0.0
 30
0.0
  9
$PUCSORGLEFT
 10
0.0
 20
0.0
 30
0.0
  9
$PUCSORGRIGHT
 10
0.0
 20
0.0
 30
0.0
  9
$PUCSORGFRONT
 10
0.0
 20
0.0
 30
0.0
  9
$PUCSORGBACK
 10
0.0
 20
0.0
 30
0.0
  9
$USERI1
 70
     0
  9
$USERI2
 70
     0
  9
$USERI3
 70
     0
  9
$USERI4
 70
     0
  9
$USERI5
 70
     0
  9
$USERR1
 40
0.0
  9
$USERR2
 40
0.0
  9
$USERR3
 40
0.0
  9
$USERR4
 40
0.0
  9
$USERR5
 40
0.0
  9
$WORLDVIEW
 70
     1
  9
$SHADEDGE
 70
     3
  9
$SHADEDIF
 70
    70
  9
$TILEMODE
 70
     1
  9
$MAXACTVP
 70
    64
  9
$PINSBASE
 10
0.0
 20
0.0
 30
0.0
  9
$PLIMCHECK
 70
     0
  9
$PEXTMIN
 10
1.000000000000000E+20
 20
1.000000000000000E+20
 30
1.000000000000000E+20
  9
$PEXTMAX
 10
-1.000000000000000E+20
 20
-1.000000000000000E+20
 30
-1.000000000000000E+20
  9
$PLIMMIN
 10
0.0
 20
0.0
  9
$PLIMMAX
 10
12.0
 20
9.0
  9
$UNITMODE
 70
     0
  9
$VISRETAIN
 70
     1
  9
$PLINEGEN
 70
     0
  9
$PSLTSCALE
 70
     1
  9
$TREEDEPTH
 70
  3020
  9
$CMLSTYLE
  2
Standard
  9
$CMLJUST
 70
     0
  9
$CMLSCALE
 40
1.0
  9
$PROXYGRAPHICS
 70
     1
  9
$MEASUREMENT
 70
     0
  9
$CELWEIGHT
370
    -1
  9
$ENDCAPS
280
     0
  9
$JOINSTYLE
280
     0
  9
$LWDISPLAY
290
     1
  9
$INSUNITS
 70
     1
  9
$HYPERLINKBASE
  1

  9
$STYLESHEET
  1

  9
$XEDIT
290
     1
  9
$CEPSNTYPE
380
     0
  9
$PSTYLEMODE
290
     1
  9
$FINGERPRINTGUID
  2
{D8F3C85E-A6E7-1BE2-C563-641CB51BFE2D}
  9
$VERSIONGUID
  2
{FAEB1C32-E019-11D5-929B-00C0DF256EC4}
  9
$EXTNAMES
290
     1
  9
$PSVPSCALE
 40
0.0
  9
$OLESTARTUP
290
     0
  9
$SORTENTS
280
   127
  9
$INDEXCTL
280
     0
  9
$HIDETEXT
280
     1
  9
$XCLIPFRAME
280
     2
  9
$HALOGAP
280
     0
  9
$OBSCOLOR
 70
   257
  9
$OBSLTYPE
280
     0
  9
$INTERSECTIONDISPLAY
280
     0
  9
$INTERSECTIONCOLOR
 70
   257
  9
$DIMASSOC
280
     2
  9
$PROJECTNAME
  1

  9
$CAMERADISPLAY
290
     0
  9
$LENSLENGTH
 40
50.0
  9
$CAMERAHEIGHT
 40
0.0
  9
$STEPSPERSEC
 40
2.0
  9
$STEPSIZE
 40
6.0
  9
$3DDWFPREC
 40
2.0
  9
$PSOLWIDTH
 40
0.25
  9
$PSOLHEIGHT
 40
4.0
  9
$LOFTANG1
 40
1.570796326794897
  9
$LOFTANG2
 40
1.570796326794897
  9
$LOFTMAG1
 40
0.0
  9
$LOFTMAG2
 40
0.0
  9
$LOFTPARAM
 70
     7
  9
$LOFTNORMALS
280
     1
  9
$LATITUDE
 40
37.795
  9
$LONGITUDE
 40
-122.394
  9
$NORTHDIRECTION
 40
0.0
  9
$TIMEZONE
 70
 -8000
  9
$LIGHTGLYPHDISPLAY
280
     1
  9
$TILEMODELIGHTSYNCH
280
     1
  9
$CMATERIAL
347
3C
  9
$SOLIDHIST
280
     1
  9
$SHOWHIST
280
     1
  9
$DWFFRAME
280
     2
  9
$DGNFRAME
280
     2
  9
$REALWORLDSCALE
290
     1
  9
$INTERFERECOLOR
 62
   256
  9
$CSHADOW
280
     0
  9
$SHADOWPLANELOCATION
 40
0.0
  0
ENDSEC
  0
SECTION
  2
CLASSES
  0
CLASS
  1
ACDBDICTIONARYWDFLT
  2
AcDbDictionaryWithDefault
  3
ObjectDBX Classes
 90
        0
 91
        4
280
     0
281
     0
  0
CLASS
  1
VISUALSTYLE
  2
AcDbVisualStyle
  3
ObjectDBX Classes
 90
     4095
 91
        4
280
     0
281
     0
  0
CLASS
  1
MATERIAL
  2
AcDbMaterial
  3
ObjectDBX Classes
 90
     1153
 91
        4
280
     0
281
     0
  0
CLASS
  1
SUN
  2
AcDbSun
  3
SCENEOE
 90
     1024
 91
        4
280
     0
281
     0
  0
ENDSEC
  0
SECTION
  2
TABLES
  0
TABLE
  2
VPORT
  5
8
330
0
100
AcDbSymbolTable
 70
     1
  0
VPORT
  5
29
330
8
100
AcDbSymbolTableRecord
100
AcDbViewportTableRecord
  2
*Active
 70
     0
 10
0.0
 20
0.0
 11
1.0
 21
1.0
 12
0.0
 22
0.0
 13
0.0
 23
0.0
 14
0.5
 24
0.5
 15
0.5
 25
0.5
 16
0.0
 26
0.0
 36
1.0
 17
105.0007777515277
 27
-148.5000416295416
 37
0.0
 40
297.0000832590831
 41
0.7070757462376333
 42
50.0
 43
0.0
 44
0.0
 50
0.0
 51
0.0
 71
     0
 72
   100
 73
     1
 74
     3
 75
     0
 76
     0
 77
     0
 78
     0
281
     0
 65
     1
110
0.0
120
0.0
130
0.0
111
1.0
121
0.0
131
0.0
112
0.0
122
1.0
132
0.0
 79
     0
146
0.0
 60
     3
 61
     5
292
     1
282
     1
141
0.0
142
0.0
 63
   250
361
3F
  0
ENDTAB
  0
TABLE
  2
LTYPE
  5
5
330
0
100
AcDbSymbolTable
 70
     1
  0
LTYPE
  5
14
330
5
100
AcDbSymbolTableRecord
100
AcDbLinetypeTableRecord
  2
ByBlock
 70
     0
  3

 72
    65
 73
     0
 40
0.0
  0
LTYPE
  5
15
330
5
100
AcDbSymbolTableRecord
100
AcDbLinetypeTableRecord
  2
ByLayer
 70
     0
  3

 72
    65
 73
     0
 40
0.0
  0
LTYPE
  5
16
330
5
100
AcDbSymbolTableRecord
100
AcDbLinetypeTableRecord
  2
Continuous
 70
     0
  3
Solid line
 72
    65
 73
     0
 40
0.0
  0
ENDTAB
  0
TABLE
  2
LAYER
  5
2
330
0
100
AcDbSymbolTable
 70
     2
  0
LAYER
  5
10
330
2
100
AcDbSymbolTableRecord
100
AcDbLayerTableRecord
  2
0
 70
     0
 62
     7
  6
Continuous
370
    -3
390
F
347
3E
  0
LAYER
  5
40
330
2
100
AcDbSymbolTableRecord
100
AcDbLayerTableRecord
  2
_U+30EC_U+30A4_U+30E4_U+30FC 1
 70
     0
 62
     7
  6
Continuous
370
    -3
390
F
347
3E
  0
ENDTAB
  0
TABLE
  2
STYLE
  5
3
330
0
100
AcDbSymbolTable
 70
     1
  0
STYLE
  5
11
330
3
100
AcDbSymbolTableRecord
100
AcDbTextStyleTableRecord
  2
Standard
 70
     0
 40
0.0
 41
1.0
 50
0.0
 71
     0
 42
0.2
  3
txt
  4

  0
ENDTAB
  0
TABLE
  2
VIEW
  5
6
330
0
100
AcDbSymbolTable
 70
     0
  0
ENDTAB
  0
TABLE
  2
UCS
  5
7
330
0
100
AcDbSymbolTable
 70
     0
  0
ENDTAB
  0
TABLE
  2
APPID
  5
9
330
0
100
AcDbSymbolTable
 70
     1
  0
APPID
  5
12
330
9
100
AcDbSymbolTableRecord
100
AcDbRegAppTableRecord
  2
ACAD
 70
     0
  0
ENDTAB
  0
TABLE
  2
DIMSTYLE
  5
A
330
0
100
AcDbSymbolTable
 70
     1
100
AcDbDimStyleTable
  0
DIMSTYLE
105
27
330
A
100
AcDbSymbolTableRecord
100
AcDbDimStyleTableRecord
  2
Standard
 70
     0
178
     0
340
11
  0
ENDTAB
  0
TABLE
  2
BLOCK_RECORD
  5
1
330
0
100
AcDbSymbolTable
 70
     7
  0
BLOCK_RECORD
  5
1F
330
1
100
AcDbSymbolTableRecord
100
AcDbBlockTableRecord
  2
*Model_Space
340
22
 70
     0
280
     1
281
     0
  0
BLOCK_RECORD
  5
1B
330
1
100
AcDbSymbolTableRecord
100
AcDbBlockTableRecord
  2
*Paper_Space
340
1E
 70
     0
280
     1
281
     0
  0
BLOCK_RECORD
  5
23
330
1
100
AcDbSymbolTableRecord
100
AcDbBlockTableRecord
  2
*Paper_Space0
340
26
 70
     0
280
     1
281
     0
  0
BLOCK_RECORD
  5
41
330
1
100
AcDbSymbolTableRecord
100
AcDbBlockTableRecord
  2
block 2
340
0
102
{BLKREFS
331
42
102
}
 70
     0
280
     1
281
     0
  0
BLOCK_RECORD
  5
49
330
1
100
AcDbSymbolTableRecord
100
AcDbBlockTableRecord
  2
block 3
340
0
102
{BLKREFS
331
4A
102
}
 70
     0
280
     1
281
     0
  0
BLOCK_RECORD
  5
65
330
1
100
AcDbSymbolTableRecord
100
AcDbBlockTableRecord
  2
block 4
340
0
102
{BLKREFS
331
66
102
}
 70
     0
280
     1
281
     0
  0
BLOCK_RECORD
  5
83
330
1
100
AcDbSymbolTableRecord
100
AcDbBlockTableRecord
  2
block 5
340
0
102
{BLKREFS
331
84
102
}
 70
     0
280
     1
281
     0
  0
BLOCK_RECORD
  5
94
330
1
100
AcDbSymbolTableRecord
100
AcDbBlockTableRecord
  2
block 6
340
0
102
{BLKREFS
331
95
102
}
 70
     0
280
     1
281
     0
  0
BLOCK_RECORD
  5
DB
330
1
100
AcDbSymbolTableRecord
100
AcDbBlockTableRecord
  2
block 7
340
0
102
{BLKREFS
331
DC
102
}
 70
     0
280
     1
281
     0
  0
ENDTAB
  0
ENDSEC
  0
SECTION
  2
BLOCKS
  0
BLOCK
  5
20
330
1F
100
AcDbEntity
  8
0
100
AcDbBlockBegin
  2
*Model_Space
 70
     0
 10
0.0
 20
0.0
 30
0.0
  3
*Model_Space
  1

  0
ENDBLK
  5
21
330
1F
100
AcDbEntity
  8
0
100
AcDbBlockEnd
  0
BLOCK
  5
1C
330
1B
100
AcDbEntity
 67
     1
  8
0
100
AcDbBlockBegin
  2
*Paper_Space
 70
     0
 10
0.0
 20
0.0
 30
0.0
  3
*Paper_Space
  1

  0
ENDBLK
  5
1D
330
1B
100
AcDbEntity
 67
     1
  8
0
100
AcDbBlockEnd
  0
BLOCK
  5
24
330
23
100
AcDbEntity
  8
0
100
AcDbBlockBegin
  2
*Paper_Space0
 70
     0
 10
0.0
 20
0.0
 30
0.0
  3
*Paper_Space0
  1

  0
ENDBLK
  5
25
330
23
100
AcDbEntity
  8
0
100
AcDbBlockEnd
  0
BLOCK
  5
43
330
41
100
AcDbEntity
  8
0
100
AcDbBlockBegin
  2
block 2
 70
     0
 10
0.0
 20
0.0
 30
0.0
  3
block 2
  1

  0
SPLINE
  5
45
330
41
100
AcDbEntity
  8
_U+30EC_U+30A4_U+30E4_U+30FC 1
370
     0
100
AcDbSpline
210
0.0
220
0.0
230
1.0
 70
    11
 71
     3
 72
    26
 73
    22
 74
     0
 42
0.0000000001
 43
0.0000000001
 12
1.0
 22
0.0
 32
0.0
 13
1.0
 23
0.0
 33
0.0
 40
0.0
 40
0.0
 40
0.0
 40
0.0
 40
1.0
 40
1.0
 40
1.0
 40
2.0
 40
2.0
 40
2.0
 40
3.0
 40
3.0
 40
3.0
 40
4.0
 40
4.0
 40
4.0
 40
5.0
 40
5.0
 40
5.0
 40
6.0
 40
6.0
 40
6.0
 40
7.0
 40
7.0
 40
7.0
 40
7.0
 10
127.613571474173
 20
-148.8226128100166
 30
0.0
 10
127.613571474173
 20
-148.8226128100166
 30
0.0
 10
126.5094183711504
 20
-148.8226128100166
 30
0.0
 10
126.5094183711504
 20
-148.8226128100166
 30
0.0
 10
126.5094183711504
 20
-148.8226128100166
 30
0.0
 10
126.5094183711504
 20
-149.1526529575035
 30
0.0
 10
126.5094183711504
 20
-149.1526529575035
 30
0.0
 10
126.5094183711504
 20
-149.1526529575035
 30
0.0
 10
126.3612792652847
 20
-149.1526529575035
 30
0.0
 10
126.3612792652847
 20
-149.1526529575035
 30
0.0
 10
126.3464653546981
 20
-148.8205457527254
 30
0.0
 10
126.1835123382458
 20
-148.7740369636745
 30
0.0
 10
126.0691351681355
 20
-148.7444091425014
 30
0.0
 10
126.0691351681355
 20
-148.7444091425014
 30
0.0
 10
126.0691351681355
 20
-148.5983370939268
 30
0.0
 10
126.0691351681355
 20
-148.5983370939268
 30
0.0
 10
126.0691351681355
 20
-148.5983370939268
 30
0.0
 10
127.613571474173
 20
-148.5983370939268
 30
0.0
 10
127.613571474173
 20
-148.5983370939268
 30
0.0
 10
127.613571474173
 20
-148.5983370939268
 30
0.0
 10
127.613571474173
 20
-148.8226128100166
 30
0.0
 10
127.613571474173
 20
-148.8226128100166
 30
0.0
  0
HATCH
  5
46
330
41
100
AcDbEntity
  8
_U+30EC_U+30A4_U+30E4_U+30FC 1
 62
   179
420
  2234388
100
AcDbHatch
 10
0.0
 20
0.0
 30
0.0
210
0.0
220
0.0
230
1.0
  2
SOLID
 70
     1
 71
     0
 91
        1
 92
        1
 93
        1
 72
     4
 94
        3
 73
     0
 74
     1
 95
       26
 96
       22
 40
0.0
 40
0.0
 40
0.0
 40
0.0
 40
1.0
 40
1.0
 40
1.0
 40
2.0
 40
2.0
 40
2.0
 40
3.0
 40
3.0
 40
3.0
 40
4.0
 40
4.0
 40
4.0
 40
5.0
 40
5.0
 40
5.0
 40
6.0
 40
6.0
 40
6.0
 40
7.0
 40
7.0
 40
7.0
 40
7.0
 10
127.613571474173
 20
-148.8226128100166
 10
127.613571474173
 20
-148.8226128100166
 10
126.5094183711504
 20
-148.8226128100166
 10
126.5094183711504
 20
-148.8226128100166
 10
126.5094183711504
 20
-148.8226128100166
 10
126.5094183711504
 20
-149.1526529575035
 10
126.5094183711504
 20
-149.1526529575035
 10
126.5094183711504
 20
-149.1526529575035
 10
126.3612792652847
 20
-149.1526529575035
 10
126.3612792652847
 20
-149.1526529575035
 10
126.3464653546981
 20
-148.8205457527254
 10
126.1835123382458
 20
-148.7740369636745
 10
126.0691351681355
 20
-148.7444091425014
 10
126.0691351681355
 20
-148.7444091425014
 10
126.0691351681355
 20
-148.5983370939268
 10
126.0691351681355
 20
-148.5983370939268
 10
126.0691351681355
 20
-148.5983370939268
 10
127.613571474173
 20
-148.5983370939268
 10
127.613571474173
 20
-148.5983370939268
 10
127.613571474173
 20
-148.5983370939268
 10
127.613571474173
 20
-148.8226128100166
 10
127.613571474173
 20
-148.8226128100166
 97
        0
 97
        0
 75
     2
 76
     1
 98
        0
  0
SPLINE
  5
47
330
41
100
AcDbEntity
  8
_U+30EC_U+30A4_U+30E4_U+30FC 1
370
     0
100
AcDbSpline
210
0.0
220
0.0
230
1.0
 70
    11
 71
     3
 72
    62
 73
    58
 74
     0
 42
0.0000000001
 43
0.0000000001
 12
1.0
 22
0.0
 32
0.0
 13
1.0
 23
0.0
 33
0.0
 40
0.0
 40
0.0
 40
0.0
 40
0.0
 40
1.0
 40
1.0
 40
1.0
 40
2.0
 40
2.0
 40
2.0
 40
3.0
 40
3.0
 40
3.0
 40
4.0
 40
4.0
 40
4.0
 40
5.0
 40
5.0
 40
5.0
 40
6.0
 40
6.0
 40
6.0
 40
7.0
 40
7.0
 40
7.0
 40
8.0
 40
8.0
 40
8.0
 40
9.0
 40
9.0
 40
9.0
 40
10.0
 40
10.0
 40
10.0
 40
11.0
 40
11.0
 40
11.0
 40
12.0
 40
12.0
 40
12.0
 40
13.0
 40
13.0
 40
13.0
 40
14.0
 40
14.0
 40
14.0
 40
15.0
 40
15.0
 40
15.0
 40
16.0
 40
16.0
 40
16.0
 40
17.0
 40
17.0
 40
17.0
 40
18.0
 40
18.0
 40
18.0
 40
19.0
 40
19.0
 40
19.0
 40
19.0
 10
127.6642143778062
 20
-147.6054605750778
 30
0.0
 10
127.6642143778062
 20
-147.7008897200192
 30
0.0
 10
127.6431992953462
 20
-147.918619754687
 30
0.0
 10
127.4571641391427
 20
-148.0436767208016
 30
0.0
 10
127.3448540263235
 20
-148.1177462737345
 30
0.0
 10
127.2456352763483
 20
-148.1218803883168
 30
0.0
 10
127.1608859274112
 20
-148.1260145028991
 30
0.0
 10
127.1608859274112
 20
-148.1260145028991
 30
0.0
 10
127.1608859274112
 20
-147.9058729013916
 30
0.0
 10
127.1608859274112
 20
-147.9058729013916
 30
0.0
 10
127.234955480344
 20
-147.9038058441004
 30
0.0
 10
127.4695664828896
 20
-147.8934705576447
 30
0.0
 10
127.4695664828896
 20
-147.6099391992086
 30
0.0
 10
127.4695664828896
 20
-147.4724798893472
 30
0.0
 10
127.3999755540875
 20
-147.3198621593506
 30
0.0
 10
127.1715657234154
 20
-147.3198621593506
 30
0.0
 10
127.055121496014
 20
-147.3198621593506
 30
0.0
 10
127.006545649672
 20
-147.3581027192369
 30
0.0
 10
126.9748507712077
 20
-147.3897975977012
 30
0.0
 10
126.9007812182748
 20
-147.463867150634
 30
0.0
 10
126.8880343649794
 20
-147.5803113780355
 30
0.0
 10
126.8880343649794
 20
-147.6350883962509
 30
0.0
 10
126.8880343649794
 20
-147.6543809309684
 30
0.0
 10
126.8901014222705
 20
-147.690209924015
 30
0.0
 10
126.8942355368528
 20
-147.7177706878969
 30
0.0
 10
126.8942355368528
 20
-147.7177706878969
 30
0.0
 10
126.6995876419362
 20
-147.7177706878969
 30
0.0
 10
126.6995876419362
 20
-147.7177706878969
 30
0.0
 10
126.7061333233582
 20
-147.6795301280107
 30
0.0
 10
126.7082003806493
 20
-147.6374999630906
 30
0.0
 10
126.7082003806493
 20
-147.6309542816687
 30
0.0
 10
126.7082003806493
 20
-147.5654974674489
 30
0.0
 10
126.6868407886408
 20
-147.36671545795
 30
0.0
 10
126.4501627288041
 20
-147.36671545795
 30
0.0
 10
126.2723958017652
 20
-147.36671545795
 30
0.0
 10
126.2172742740012
 20
-147.4976290863895
 30
0.0
 10
126.2172742740012
 20
-147.6078721419175
 30
0.0
 10
126.2172742740012
 20
-147.8721109656362
 30
0.0
 10
126.4501627288041
 20
-147.8807237043493
 30
0.0
 10
126.5218207148973
 20
-147.8848578189316
 30
0.0
 10
126.5218207148973
 20
-147.8848578189316
 30
0.0
 10
126.5218207148973
 20
-148.0881184525613
 30
0.0
 10
126.5218207148973
 20
-148.0881184525613
 30
0.0
 10
126.3971082583313
 20
-148.0795057138482
 30
0.0
 10
126.0205593217935
 20
-148.0519449499662
 30
0.0
 10
126.0205593217935
 20
-147.5951252886221
 30
0.0
 10
126.0205593217935
 20
-147.3708495725323
 30
0.0
 10
126.1476833451992
 20
-147.1296928885648
 30
0.0
 10
126.4436170473822
 20
-147.1296928885648
 30
0.0
 10
126.6299967131342
 20
-147.1296928885648
 30
0.0
 10
126.7123344952316
 20
-147.2247775239577
 30
0.0
 10
126.7736571948691
 20
-147.3243407834814
 30
0.0
 10
126.8012179587511
 20
-147.263018083844
 30
0.0
 10
126.8814886835574
 20
-147.0811170422228
 30
0.0
 10
127.15881887012
 20
-147.0811170422228
 30
0.0
 10
127.4971272467716
 20
-147.0811170422228
 30
0.0
 10
127.6642143778062
 20
-147.3284748980637
 30
0.0
 10
127.6642143778062
 20
-147.6054605750778
 30
0.0
  0
HATCH
  5
48
330
41
100
AcDbEntity
  8
_U+30EC_U+30A4_U+30E4_U+30FC 1
 62
   179
420
  2234388
100
AcDbHatch
 10
0.0
 20
0.0
 30
0.0
210
0.0
220
0.0
230
1.0
  2
SOLID
 70
     1
 71
     0
 91
        1
 92
        1
 93
        1
 72
     4
 94
        3
 73
     0
 74
     1
 95
       62
 96
       58
 40
0.0
 40
0.0
 40
0.0
 40
0.0
 40
1.0
 40
1.0
 40
1.0
 40
2.0
 40
2.0
 40
2.0
 40
3.0
 40
3.0
 40
3.0
 40
4.0
 40
4.0
 40
4.0
 40
5.0
 40
5.0
 40
5.0
 40
6.0
 40
6.0
 40
6.0
 40
7.0
 40
7.0
 40
7.0
 40
8.0
 40
8.0
 40
8.0
 40
9.0
 40
9.0
 40
9.0
 40
10.0
 40
10.0
 40
10.0
 40
11.0
 40
11.0
 40
11.0
 40
12.0
 40
12.0
 40
12.0
 40
13.0
 40
13.0
 40
13.0
 40
14.0
 40
14.0
 40
14.0
 40
15.0
 40
15.0
 40
15.0
 40
16.0
 40
16.0
 40
16.0
 40
17.0
 40
17.0
 40
17.0
 40
18.0
 40
18.0
 40
18.0
 40
19.0
 40
19.0
 40
19.0
 40
19.0
 10
127.6642143778062
 20
-147.6054605750778
 10
127.6642143778062
 20
-147.7008897200192
 10
127.6431992953462
 20
-147.918619754687
 10
127.4571641391427
 20
-148.0436767208016
 10
127.3448540263235
 20
-148.1177462737345
 10
127.2456352763483
 20
-148.1218803883168
 10
127.1608859274112
 20
-148.1260145028991
 10
127.1608859274112
 20
-148.1260145028991
 10
127.1608859274112
 20
-147.9058729013916
 10
127.1608859274112
 20
-147.9058729013916
 10
127.234955480344
 20
-147.9038058441004
 10
127.4695664828896
 20
-147.8934705576447
 10
127.4695664828896
 20
-147.6099391992086
 10
127.4695664828896
 20
-147.4724798893472
 10
127.3999755540875
 20
-147.3198621593506
 10
127.1715657234154
 20
-147.3198621593506
 10
127.055121496014
 20
-147.3198621593506
 10
127.006545649672
 20
-147.3581027192369
 10
126.9748507712077
 20
-147.3897975977012
 10
126.9007812182748
 20
-147.463867150634
 10
126.8880343649794
 20
-147.5803113780355
 10
126.8880343649794
 20
-147.6350883962509
 10
126.8880343649794
 20
-147.6543809309684
 10
126.8901014222705
 20
-147.690209924015
 10
126.8942355368528
 20
-147.7177706878969
 10
126.8942355368528
 20
-147.7177706878969
 10
126.6995876419362
 20
-147.7177706878969
 10
126.6995876419362
 20
-147.7177706878969
 10
126.7061333233582
 20
-147.6795301280107
 10
126.7082003806493
 20
-147.6374999630906
 10
126.7082003806493
 20
-147.6309542816687
 10
126.7082003806493
 20
-147.5654974674489
 10
126.6868407886408
 20
-147.36671545795
 10
126.4501627288041
 20
-147.36671545795
 10
126.2723958017652
 20
-147.36671545795
 10
126.2172742740012
 20
-147.4976290863895
 10
126.2172742740012
 20
-147.6078721419175
 10
126.2172742740012
 20
-147.8721109656362
 10
126.4501627288041
 20
-147.8807237043493
 10
126.5218207148973
 20
-147.8848578189316
 10
126.5218207148973
 20
-147.8848578189316
 10
126.5218207148973
 20
-148.0881184525613
 10
126.5218207148973
 20
-148.0881184525613
 10
126.3971082583313
 20
-148.0795057138482
 10
126.0205593217935
 20
-148.0519449499662
 10
126.0205593217935
 20
-147.5951252886221
 10
126.0205593217935
 20
-147.3708495725323
 10
126.1476833451992
 20
-147.1296928885648
 10
126.4436170473822
 20
-147.1296928885648
 10
126.6299967131342
 20
-147.1296928885648
 10
126.7123344952316
 20
-147.2247775239577
 10
126.7736571948691
 20
-147.3243407834814
 10
126.8012179587511
 20
-147.263018083844
 10
126.8814886835574
 20
-147.0811170422228
 10
127.15881887012
 20
-147.0811170422228
 10
127.4971272467716
 20
-147.0811170422228
 10
127.6642143778062
 20
-147.3284748980637
 10
127.6642143778062
 20
-147.6054605750778
 97
        0
 97
        0
 75
     2
 76
     1
 98
        0
  0
ENDBLK
  5
44
330
41
100
AcDbEntity
  8
0
100
AcDbBlockEnd
  0
BLOCK
  5
4B
330
49
100
AcDbEntity
  8
0
100
AcDbBlockBegin
  2
block 3
 70
     0
 10
0.0
 20
0.0
 30
0.0
  3
block 3
  1

  0
SPLINE
  5
4D
330
49
100
AcDbEntity
  8
_U+30EC_U+30A4_U+30E4_U+30FC 1
370
     0
100
AcDbSpline
210
0.0
220
0.0
230
1.0
 70
    11
 71
     3
 72
    26
 73
    22
 74
     0
 42
0.0000000001
 43
0.0000000001
 12
1.0
 22
0.0
 32
0.0
 13
1.0
 23
0.0
 33
0.0
 40
0.0
 40
0.0
 40
0.0
 40
0.0
 40
1.0
 40
1.0
 40
1.0
 40
2.0
 40
2.0
 40
2.0
 40
3.0
 40
3.0
 40
3.0
 40
4.0
 40
4.0
 40
4.0
 40
5.0
 40
5.0
 40
5.0
 40
6.0
 40
6.0
 40
6.0
 40
7.0
 40
7.0
 40
7.0
 40
7.0
 10
127.6132269646245
 20
-155.2360025653577
 30
0.0
 10
127.6132269646245
 20
-155.2360025653577
 30
0.0
 10
126.5090738616019
 20
-155.2360025653577
 30
0.0
 10
126.5090738616019
 20
-155.2360025653577
 30
0.0
 10
126.5090738616019
 20
-155.2360025653577
 30
0.0
 10
126.5090738616019
 20
-155.5660427128446
 30
0.0
 10
126.5090738616019
 20
-155.5660427128446
 30
0.0
 10
126.5090738616019
 20
-155.5660427128446
 30
0.0
 10
126.3609347557362
 20
-155.5660427128446
 30
0.0
 10
126.3609347557362
 20
-155.5660427128446
 30
0.0
 10
126.3461208451496
 20
-155.2339355080665
 30
0.0
 10
126.1831678286973
 20
-155.1874267190157
 30
0.0
 10
126.068790658587
 20
-155.1577988978425
 30
0.0
 10
126.068790658587
 20
-155.1577988978425
 30
0.0
 10
126.068790658587
 20
-155.0117268492679
 30
0.0
 10
126.068790658587
 20
-155.0117268492679
 30
0.0
 10
126.068790658587
 20
-155.0117268492679
 30
0.0
 10
127.6132269646245
 20
-155.0117268492679
 30
0.0
 10
127.6132269646245
 20
-155.0117268492679
 30
0.0
 10
127.6132269646245
 20
-155.0117268492679
 30
0.0
 10
127.6132269646245
 20
-155.2360025653577
 30
0.0
 10
127.6132269646245
 20
-155.2360025653577
 30
0.0
  0
HATCH
  5
4E
330
49
100
AcDbEntity
  8
_U+30EC_U+30A4_U+30E4_U+30FC 1
 62
   179
420
  2234388
100
AcDbHatch
 10
0.0
 20
0.0
 30
0.0
210
0.0
220
0.0
230
1.0
  2
SOLID
 70
     1
 71
     0
 91
        1
 92
        1
 93
        1
 72
     4
 94
        3
 73
     0
 74
     1
 95
       26
 96
       22
 40
0.0
 40
0.0
 40
0.0
 40
0.0
 40
1.0
 40
1.0
 40
1.0
 40
2.0
 40
2.0
 40
2.0
 40
3.0
 40
3.0
 40
3.0
 40
4.0
 40
4.0
 40
4.0
 40
5.0
 40
5.0
 40
5.0
 40
6.0
 40
6.0
 40
6.0
 40
7.0
 40
7.0
 40
7.0
 40
7.0
 10
127.6132269646245
 20
-155.2360025653577
 10
127.6132269646245
 20
-155.2360025653577
 10
126.5090738616019
 20
-155.2360025653577
 10
126.5090738616019
 20
-155.2360025653577
 10
126.5090738616019
 20
-155.2360025653577
 10
126.5090738616019
 20
-155.5660427128446
 10
126.5090738616019
 20
-155.5660427128446
 10
126.5090738616019
 20
-155.5660427128446
 10
126.3609347557362
 20
-155.5660427128446
 10
126.3609347557362
 20
-155.5660427128446
 10
126.3461208451496
 20
-155.2339355080665
 10
126.1831678286973
 20
-155.1874267190157
 10
126.068790658587
 20
-155.1577988978425
 10
126.068790658587
 20
-155.1577988978425
 10
126.068790658587
 20
-155.0117268492679
 10
126.068790658587
 20
-155.0117268492679
 10
126.068790658587
 20
-155.0117268492679
 10
127.6132269646245
 20
-155.0117268492679
 10
127.6132269646245
 20
-155.0117268492679
 10
127.6132269646245
 20
-155.0117268492679
 10
127.6132269646245
 20
-155.2360025653577
 10
127.6132269646245
 20
-155.2360025653577
 97
        0
 97
        0
 75
     2
 76
     1
 98
        0
  0
ENDBLK
  5
4C
330
49
100
AcDbEntity
  8
0
100
AcDbBlockEnd
  0
BLOCK
  5
67
330
65
100
AcDbEntity
  8
0
100
AcDbBlockBegin
  2
block 4
 70
     0
 10
0.0
 20
0.0
 30
0.0
  3
block 4
  1

  0
SPLINE
  5
69
330
65
100
AcDbEntity
  8
_U+30EC_U+30A4_U+30E4_U+30FC 1
370
     0
100
AcDbSpline
210
0.0
220
0.0
230
1.0
 70
    11
 71
     3
 72
    32
 73
    28
 74
     0
 42
0.0000000001
 43
0.0000000001
 12
1.0
 22
0.0
 32
0.0
 13
1.0
 23
0.0
 33
0.0
 40
0.0
 40
0.0
 40
0.0
 40
0.0
 40
1.0
 40
1.0
 40
1.0
 40
2.0
 40
2.0
 40
2.0
 40
3.0
 40
3.0
 40
3.0
 40
4.0
 40
4.0
 40
4.0
 40
5.0
 40
5.0
 40
5.0
 40
6.0
 40
6.0
 40
6.0
 40
7.0
 40
7.0
 40
7.0
 40
8.0
 40
8.0
 40
8.0
 40
9.0
 40
9.0
 40
9.0
 40
9.0
 10
101.7271239980057
 20
-138.925025735668
 30
0.0
 10
101.2110486943153
 20
-138.925025735668
 30
0.0
 10
101.2024359556022
 20
-138.3710543816399
 30
0.0
 10
101.2024359556022
 20
-138.1571139520059
 30
0.0
 10
101.2024359556022
 20
-137.9266370640427
 30
0.0
 10
101.2217284903196
 20
-137.2793036223642
 30
0.0
 10
101.765364557892
 20
-137.2793036223642
 30
0.0
 10
101.9386528608001
 20
-137.2793036223642
 30
0.0
 10
102.1842881688984
 20
-137.3492390607148
 30
0.0
 10
102.2221842192361
 20
-137.6813462654929
 30
0.0
 10
102.2221842192361
 20
-137.6813462654929
 30
0.0
 10
102.0085882991506
 20
-137.6813462654929
 30
0.0
 10
102.0085882991506
 20
-137.6813462654929
 30
0.0
 10
101.9979085031464
 20
-137.6241576804377
 30
0.0
 10
101.9662136246821
 20
-137.476018574572
 30
0.0
 10
101.7632975006008
 20
-137.476018574572
 30
0.0
 10
101.4711534034517
 20
-137.476018574572
 30
0.0
 10
101.4311902958228
 20
-137.8039916647678
 30
0.0
 10
101.4184434425273
 20
-138.0089748461401
 30
0.0
 10
101.5114610206291
 20
-137.930771178625
 30
0.0
 10
101.5793294016885
 20
-137.8715155362787
 30
0.0
 10
101.7612304433097
 20
-137.8715155362787
 30
0.0
 10
101.9410644276397
 20
-137.8715155362787
 30
0.0
 10
102.2435438112447
 20
-137.9796915345155
 30
0.0
 10
102.2435438112447
 20
-138.3858682922265
 30
0.0
 10
102.2435438112447
 20
-138.7052286437091
 30
0.0
 10
102.0444172921972
 20
-138.925025735668
 30
0.0
 10
101.7271239980057
 20
-138.925025735668
 30
0.0
  0
SPLINE
  5
6A
330
65
100
AcDbEntity
  8
_U+30EC_U+30A4_U+30E4_U+30FC 1
370
     0
100
AcDbSpline
210
0.0
220
0.0
230
1.0
 70
    11
 71
     3
 72
    17
 73
    13
 74
     0
 42
0.0000000001
 43
0.0000000001
 12
1.0
 22
0.0
 32
0.0
 13
1.0
 23
0.0
 33
0.0
 40
0.0
 40
0.0
 40
0.0
 40
0.0
 40
1.0
 40
1.0
 40
1.0
 40
2.0
 40
2.0
 40
2.0
 40
3.0
 40
3.0
 40
3.0
 40
4.0
 40
4.0
 40
4.0
 40
4.0
 10
101.7440049658834
 20
-138.0661634311953
 30
0.0
 10
101.4818331994559
 20
-138.0661634311953
 30
0.0
 10
101.4439371491182
 20
-138.2776922939896
 30
0.0
 10
101.4439371491182
 20
-138.3941365213911
 30
0.0
 10
101.4439371491182
 20
-138.5698363911388
 30
0.0
 10
101.5390217845111
 20
-138.7327894075911
 30
0.0
 10
101.7229898834234
 20
-138.7327894075911
 30
0.0
 10
101.8435682254072
 20
-138.7327894075911
 30
0.0
 10
102.0192680951549
 20
-138.6735337652448
 30
0.0
 10
102.0192680951549
 20
-138.3879353495176
 30
0.0
 10
102.0192680951549
 20
-138.1636596334278
 30
0.0
 10
101.8797417280023
 20
-138.0661634311953
 30
0.0
 10
101.7440049658834
 20
-138.0661634311953
 30
0.0
  0
HATCH
  5
6B
330
65
100
AcDbEntity
  8
_U+30EC_U+30A4_U+30E4_U+30FC 1
 62
   179
420
  2234388
100
AcDbHatch
 10
0.0
 20
0.0
 30
0.0
210
0.0
220
0.0
230
1.0
  2
SOLID
 70
     1
 71
     0
 91
        2
 92
        1
 93
        1
 72
     4
 94
        3
 73
     0
 74
     1
 95
       32
 96
       28
 40
0.0
 40
0.0
 40
0.0
 40
0.0
 40
1.0
 40
1.0
 40
1.0
 40
2.0
 40
2.0
 40
2.0
 40
3.0
 40
3.0
 40
3.0
 40
4.0
 40
4.0
 40
4.0
 40
5.0
 40
5.0
 40
5.0
 40
6.0
 40
6.0
 40
6.0
 40
7.0
 40
7.0
 40
7.0
 40
8.0
 40
8.0
 40
8.0
 40
9.0
 40
9.0
 40
9.0
 40
9.0
 10
101.7271239980057
 20
-138.925025735668
 10
101.2110486943153
 20
-138.925025735668
 10
101.2024359556022
 20
-138.3710543816399
 10
101.2024359556022
 20
-138.1571139520059
 10
101.2024359556022
 20
-137.9266370640427
 10
101.2217284903196
 20
-137.2793036223642
 10
101.765364557892
 20
-137.2793036223642
 10
101.9386528608001
 20
-137.2793036223642
 10
102.1842881688984
 20
-137.3492390607148
 10
102.2221842192361
 20
-137.6813462654929
 10
102.2221842192361
 20
-137.6813462654929
 10
102.0085882991506
 20
-137.6813462654929
 10
102.0085882991506
 20
-137.6813462654929
 10
101.9979085031464
 20
-137.6241576804377
 10
101.9662136246821
 20
-137.476018574572
 10
101.7632975006008
 20
-137.476018574572
 10
101.4711534034517
 20
-137.476018574572
 10
101.4311902958228
 20
-137.8039916647678
 10
101.4184434425273
 20
-138.0089748461401
 10
101.5114610206291
 20
-137.930771178625
 10
101.5793294016885
 20
-137.8715155362787
 10
101.7612304433097
 20
-137.8715155362787
 10
101.9410644276397
 20
-137.8715155362787
 10
102.2435438112447
 20
-137.9796915345155
 10
102.2435438112447
 20
-138.3858682922265
 10
102.2435438112447
 20
-138.7052286437091
 10
102.0444172921972
 20
-138.925025735668
 10
101.7271239980057
 20
-138.925025735668
 97
        0
 97
        0
 92
        1
 93
        1
 72
     4
 94
        3
 73
     0
 74
     1
 95
       17
 96
       13
 40
0.0
 40
0.0
 40
0.0
 40
0.0
 40
1.0
 40
1.0
 40
1.0
 40
2.0
 40
2.0
 40
2.0
 40
3.0
 40
3.0
 40
3.0
 40
4.0
 40
4.0
 40
4.0
 40
4.0
 10
101.7440049658834
 20
-138.0661634311953
 10
101.4818331994559
 20
-138.0661634311953
 10
101.4439371491182
 20
-138.2776922939896
 10
101.4439371491182
 20
-138.3941365213911
 10
101.4439371491182
 20
-138.5698363911388
 10
101.5390217845111
 20
-138.7327894075911
 10
101.7229898834234
 20
-138.7327894075911
 10
101.8435682254072
 20
-138.7327894075911
 10
102.0192680951549
 20
-138.6735337652448
 10
102.0192680951549
 20
-138.3879353495176
 10
102.0192680951549
 20
-138.1636596334278
 10
101.8797417280023
 20
-138.0661634311953
 10
101.7440049658834
 20
-138.0661634311953
 97
        0
 97
        0
 75
     2
 76
     1
 98
        0
  0
ENDBLK
  5
68
330
65
100
AcDbEntity
  8
0
100
AcDbBlockEnd
  0
BLOCK
  5
85
330
83
100
AcDbEntity
  8
0
100
AcDbBlockBegin
  2
block 5
 70
     0
 10
0.0
 20
0.0
 30
0.0
  3
block 5
  1

  0
SPLINE
  5
87
330
83
100
AcDbEntity
  8
_U+30EC_U+30A4_U+30E4_U+30FC 1
370
     0
100
AcDbSpline
210
0.0
220
0.0
230
1.0
 70
    11
 71
     3
 72
    32
 73
    28
 74
     0
 42
0.0000000001
 43
0.0000000001
 12
1.0
 22
0.0
 32
0.0
 13
1.0
 23
0.0
 33
0.0
 40
0.0
 40
0.0
 40
0.0
 40
0.0
 40
1.0
 40
1.0
 40
1.0
 40
2.0
 40
2.0
 40
2.0
 40
3.0
 40
3.0
 40
3.0
 40
4.0
 40
4.0
 40
4.0
 40
5.0
 40
5.0
 40
5.0
 40
6.0
 40
6.0
 40
6.0
 40
7.0
 40
7.0
 40
7.0
 40
8.0
 40
8.0
 40
8.0
 40
9.0
 40
9.0
 40
9.0
 40
9.0
 10
112.6711588259989
 20
-144.6809190176492
 30
0.0
 10
112.6711588259989
 20
-145.1969943213396
 30
0.0
 10
112.1171874719707
 20
-145.2052625505042
 30
0.0
 10
111.9035915518852
 20
-145.2052625505042
 30
0.0
 10
111.6727701543735
 20
-145.2052625505042
 30
0.0
 10
111.0257812222436
 20
-145.1863145253354
 30
0.0
 10
111.0257812222436
 20
-144.6426784577629
 30
0.0
 10
111.0257812222436
 20
-144.4693901548549
 30
0.0
 10
111.0953721510456
 20
-144.2237548467566
 30
0.0
 10
111.4274793558237
 20
-144.1858587964188
 30
0.0
 10
111.4274793558237
 20
-144.1858587964188
 30
0.0
 10
111.4274793558237
 20
-144.3994547165043
 30
0.0
 10
111.4274793558237
 20
-144.3994547165043
 30
0.0
 10
111.3702907707685
 20
-144.4101345125086
 30
0.0
 10
111.2221516649028
 20
-144.4418293909729
 30
0.0
 10
111.2221516649028
 20
-144.6447455150541
 30
0.0
 10
111.2221516649028
 20
-144.9368896122033
 30
0.0
 10
111.5501247550986
 20
-144.9768527198322
 30
0.0
 10
111.7554524460195
 20
-144.9895995731276
 30
0.0
 10
111.6769042689558
 20
-144.8965819950259
 30
0.0
 10
111.6176486266095
 20
-144.8287136139664
 30
0.0
 10
111.6176486266095
 20
-144.6468125723453
 30
0.0
 10
111.6176486266095
 20
-144.4669785880152
 30
0.0
 10
111.7258246248463
 20
-144.1644992044103
 30
0.0
 10
112.1323458921058
 20
-144.1644992044103
 30
0.0
 10
112.4513617340399
 20
-144.1644992044103
 30
0.0
 10
112.6711588259989
 20
-144.3636257234577
 30
0.0
 10
112.6711588259989
 20
-144.6809190176492
 30
0.0
  0
SPLINE
  5
88
330
83
100
AcDbEntity
  8
_U+30EC_U+30A4_U+30E4_U+30FC 1
370
     0
100
AcDbSpline
210
0.0
220
0.0
230
1.0
 70
    11
 71
     3
 72
    17
 73
    13
 74
     0
 42
0.0000000001
 43
0.0000000001
 12
1.0
 22
0.0
 32
0.0
 13
1.0
 23
0.0
 33
0.0
 40
0.0
 40
0.0
 40
0.0
 40
0.0
 40
1.0
 40
1.0
 40
1.0
 40
2.0
 40
2.0
 40
2.0
 40
3.0
 40
3.0
 40
3.0
 40
4.0
 40
4.0
 40
4.0
 40
4.0
 10
111.8126410310746
 20
-144.663693540223
 30
0.0
 10
111.8126410310746
 20
-144.926209816199
 30
0.0
 10
112.024169893869
 20
-144.9641058665368
 30
0.0
 10
112.1406141212704
 20
-144.9641058665368
 30
0.0
 10
112.3163139910181
 20
-144.9641058665368
 30
0.0
 10
112.4789224979219
 20
-144.8690212311439
 30
0.0
 10
112.4789224979219
 20
-144.6850531322315
 30
0.0
 10
112.4789224979219
 20
-144.5644747902478
 30
0.0
 10
112.4196668555756
 20
-144.3887749205
 30
0.0
 10
112.134412949397
 20
-144.3887749205
 30
0.0
 10
111.9097927237587
 20
-144.3887749205
 30
0.0
 10
111.8126410310746
 20
-144.5286457972012
 30
0.0
 10
111.8126410310746
 20
-144.663693540223
 30
0.0
  0
HATCH
  5
89
330
83
100
AcDbEntity
  8
_U+30EC_U+30A4_U+30E4_U+30FC 1
 62
   179
420
  2234388
100
AcDbHatch
 10
0.0
 20
0.0
 30
0.0
210
0.0
220
0.0
230
1.0
  2
SOLID
 70
     1
 71
     0
 91
        2
 92
        1
 93
        1
 72
     4
 94
        3
 73
     0
 74
     1
 95
       32
 96
       28
 40
0.0
 40
0.0
 40
0.0
 40
0.0
 40
1.0
 40
1.0
 40
1.0
 40
2.0
 40
2.0
 40
2.0
 40
3.0
 40
3.0
 40
3.0
 40
4.0
 40
4.0
 40
4.0
 40
5.0
 40
5.0
 40
5.0
 40
6.0
 40
6.0
 40
6.0
 40
7.0
 40
7.0
 40
7.0
 40
8.0
 40
8.0
 40
8.0
 40
9.0
 40
9.0
 40
9.0
 40
9.0
 10
112.6711588259989
 20
-144.6809190176492
 10
112.6711588259989
 20
-145.1969943213396
 10
112.1171874719707
 20
-145.2052625505042
 10
111.9035915518852
 20
-145.2052625505042
 10
111.6727701543735
 20
-145.2052625505042
 10
111.0257812222436
 20
-145.1863145253354
 10
111.0257812222436
 20
-144.6426784577629
 10
111.0257812222436
 20
-144.4693901548549
 10
111.0953721510456
 20
-144.2237548467566
 10
111.4274793558237
 20
-144.1858587964188
 10
111.4274793558237
 20
-144.1858587964188
 10
111.4274793558237
 20
-144.3994547165043
 10
111.4274793558237
 20
-144.3994547165043
 10
111.3702907707685
 20
-144.4101345125086
 10
111.2221516649028
 20
-144.4418293909729
 10
111.2221516649028
 20
-144.6447455150541
 10
111.2221516649028
 20
-144.9368896122033
 10
111.5501247550986
 20
-144.9768527198322
 10
111.7554524460195
 20
-144.9895995731276
 10
111.6769042689558
 20
-144.8965819950259
 10
111.6176486266095
 20
-144.8287136139664
 10
111.6176486266095
 20
-144.6468125723453
 10
111.6176486266095
 20
-144.4669785880152
 10
111.7258246248463
 20
-144.1644992044103
 10
112.1323458921058
 20
-144.1644992044103
 10
112.4513617340399
 20
-144.1644992044103
 10
112.6711588259989
 20
-144.3636257234577
 10
112.6711588259989
 20
-144.6809190176492
 97
        0
 97
        0
 92
        1
 93
        1
 72
     4
 94
        3
 73
     0
 74
     1
 95
       17
 96
       13
 40
0.0
 40
0.0
 40
0.0
 40
0.0
 40
1.0
 40
1.0
 40
1.0
 40
2.0
 40
2.0
 40
2.0
 40
3.0
 40
3.0
 40
3.0
 40
4.0
 40
4.0
 40
4.0
 40
4.0
 10
111.8126410310746
 20
-144.663693540223
 10
111.8126410310746
 20
-144.926209816199
 10
112.024169893869
 20
-144.9641058665368
 10
112.1406141212704
 20
-144.9641058665368
 10
112.3163139910181
 20
-144.9641058665368
 10
112.4789224979219
 20
-144.8690212311439
 10
112.4789224979219
 20
-144.6850531322315
 10
112.4789224979219
 20
-144.5644747902478
 10
112.4196668555756
 20
-144.3887749205
 10
112.134412949397
 20
-144.3887749205
 10
111.9097927237587
 20
-144.3887749205
 10
111.8126410310746
 20
-144.5286457972012
 10
111.8126410310746
 20
-144.663693540223
 97
        0
 97
        0
 75
     2
 76
     1
 98
        0
  0
ENDBLK
  5
86
330
83
100
AcDbEntity
  8
0
100
AcDbBlockEnd
  0
BLOCK
  5
96
330
94
100
AcDbEntity
  8
0
100
AcDbBlockBegin
  2
block 6
 70
     0
 10
0.0
 20
0.0
 30
0.0
  3
block 6
  1

  0
POLYLINE
  5
98
330
94
100
AcDbEntity
  8
_U+30EC_U+30A4_U+30E4_U+30FC 1
370
     0
100
AcDb2dPolyline
 66
     1
 10
0.0
 20
0.0
 30
0.0
  0
VERTEX
  5
99
330
98
100
AcDbEntity
  8
_U+30EC_U+30A4_U+30E4_U+30FC 1
370
     0
100
AcDbVertex
100
AcDb2dVertex
 10
101.5648600006505
 20
-158.7448323170846
 30
0.0
  0
VERTEX
  5
9A
330
98
100
AcDbEntity
  8
_U+30EC_U+30A4_U+30E4_U+30FC 1
370
     0
100
AcDbVertex
100
AcDb2dVertex
 10
101.5648600006505
 20
-159.0917534324493
 30
0.0
  0
VERTEX
  5
9B
330
98
100
AcDbEntity
  8
_U+30EC_U+30A4_U+30E4_U+30FC 1
370
     0
100
AcDbVertex
100
AcDb2dVertex
 10
101.3471299659827
 20
-159.0917534324493
 30
0.0
  0
VERTEX
  5
9C
330
98
100
AcDbEntity
  8
_U+30EC_U+30A4_U+30E4_U+30FC 1
370
     0
100
AcDbVertex
100
AcDb2dVertex
 10
101.3471299659827
 20
-158.7448323170846
 30
0.0
  0
VERTEX
  5
9D
330
98
100
AcDbEntity
  8
_U+30EC_U+30A4_U+30E4_U+30FC 1
370
     0
100
AcDbVertex
100
AcDb2dVertex
 10
100.6911837855911
 20
-158.7448323170846
 30
0.0
  0
VERTEX
  5
9E
330
98
100
AcDbEntity
  8
_U+30EC_U+30A4_U+30E4_U+30FC 1
370
     0
100
AcDbVertex
100
AcDb2dVertex
 10
100.6911837855911
 20
-158.5205566009949
 30
0.0
  0
VERTEX
  5
9F
330
98
100
AcDbEntity
  8
_U+30EC_U+30A4_U+30E4_U+30FC 1
370
     0
100
AcDbVertex
100
AcDb2dVertex
 10
101.3702121057338
 20
-157.5473171264118
 30
0.0
  0
VERTEX
  5
A0
330
98
100
AcDbEntity
  8
_U+30EC_U+30A4_U+30E4_U+30FC 1
370
     0
100
AcDbVertex
100
AcDb2dVertex
 10
101.5648600006505
 20
-157.5473171264118
 30
0.0
  0
VERTEX
  5
A1
330
98
100
AcDbEntity
  8
_U+30EC_U+30A4_U+30E4_U+30FC 1
370
     0
100
AcDbVertex
100
AcDb2dVertex
 10
101.5648600006505
 20
-158.5460503075857
 30
0.0
  0
VERTEX
  5
A2
330
98
100
AcDbEntity
  8
_U+30EC_U+30A4_U+30E4_U+30FC 1
370
     0
100
AcDbVertex
100
AcDb2dVertex
 10
101.7722547488625
 20
-158.5460503075857
 30
0.0
  0
VERTEX
  5
A3
330
98
100
AcDbEntity
  8
_U+30EC_U+30A4_U+30E4_U+30FC 1
370
     0
100
AcDbVertex
100
AcDb2dVertex
 10
101.7722547488625
 20
-158.7448323170846
 30
0.0
  0
VERTEX
  5
A4
330
98
100
AcDbEntity
  8
_U+30EC_U+30A4_U+30E4_U+30FC 1
370
     0
100
AcDbVertex
100
AcDb2dVertex
 10
101.5648600006505
 20
-158.7448323170846
 30
0.0
  0
SEQEND
  5
A5
330
98
100
AcDbEntity
  8
_U+30EC_U+30A4_U+30E4_U+30FC 1
370
     0
  0
POLYLINE
  5
A6
330
94
100
AcDbEntity
  8
_U+30EC_U+30A4_U+30E4_U+30FC 1
370
     0
100
AcDb2dPolyline
 66
     1
 10
0.0
 20
0.0
 30
0.0
  0
VERTEX
  5
A7
330
A6
100
AcDbEntity
  8
_U+30EC_U+30A4_U+30E4_U+30FC 1
370
     0
100
AcDbVertex
100
AcDb2dVertex
 10
101.3471299659827
 20
-157.8901041271941
 30
0.0
  0
VERTEX
  5
A8
330
A6
100
AcDbEntity
  8
_U+30EC_U+30A4_U+30E4_U+30FC 1
370
     0
100
AcDbVertex
100
AcDb2dVertex
 10
100.88996579509
 20
-158.5460503075857
 30
0.0
  0
VERTEX
  5
A9
330
A6
100
AcDbEntity
  8
_U+30EC_U+30A4_U+30E4_U+30FC 1
370
     0
100
AcDbVertex
100
AcDb2dVertex
 10
101.3471299659827
 20
-158.5460503075857
 30
0.0
  0
VERTEX
  5
AA
330
A6
100
AcDbEntity
  8
_U+30EC_U+30A4_U+30E4_U+30FC 1
370
     0
100
AcDbVertex
100
AcDb2dVertex
 10
101.3471299659827
 20
-157.8901041271941
 30
0.0
  0
SEQEND
  5
AB
330
A6
100
AcDbEntity
  8
_U+30EC_U+30A4_U+30E4_U+30FC 1
370
     0
  0
HATCH
  5
AC
330
94
100
AcDbEntity
  8
_U+30EC_U+30A4_U+30E4_U+30FC 1
 62
   179
420
  2234388
100
AcDbHatch
 10
0.0
 20
0.0
 30
0.0
210
0.0
220
0.0
230
1.0
  2
SOLID
 70
     1
 71
     0
 91
        2
 92
        1
 93
       11
 72
     1
 10
101.5648600006505
 20
-158.7448323170846
 11
101.5648600006505
 21
-159.0917534324493
 72
     1
 10
101.5648600006505
 20
-159.0917534324493
 11
101.3471299659827
 21
-159.0917534324493
 72
     1
 10
101.3471299659827
 20
-159.0917534324493
 11
101.3471299659827
 21
-158.7448323170846
 72
     1
 10
101.3471299659827
 20
-158.7448323170846
 11
100.6911837855911
 21
-158.7448323170846
 72
     1
 10
100.6911837855911
 20
-158.7448323170846
 11
100.6911837855911
 21
-158.5205566009949
 72
     1
 10
100.6911837855911
 20
-158.5205566009949
 11
101.3702121057338
 21
-157.5473171264118
 72
     1
 10
101.3702121057338
 20
-157.5473171264118
 11
101.5648600006505
 21
-157.5473171264118
 72
     1
 10
101.5648600006505
 20
-157.5473171264118
 11
101.5648600006505
 21
-158.5460503075857
 72
     1
 10
101.5648600006505
 20
-158.5460503075857
 11
101.7722547488625
 21
-158.5460503075857
 72
     1
 10
101.7722547488625
 20
-158.5460503075857
 11
101.7722547488625
 21
-158.7448323170846
 72
     1
 10
101.7722547488625
 20
-158.7448323170846
 11
101.5648600006505
 21
-158.7448323170846
 97
        0
 92
        1
 93
        3
 72
     1
 10
101.3471299659827
 20
-157.8901041271941
 11
100.88996579509
 21
-158.5460503075857
 72
     1
 10
100.88996579509
 20
-158.5460503075857
 11
101.3471299659827
 21
-158.5460503075857
 72
     1
 10
101.3471299659827
 20
-158.5460503075857
 11
101.3471299659827
 21
-157.8901041271941
 97
        0
 75
     2
 76
     1
 98
        0
  0
SPLINE
  5
AD
330
94
100
AcDbEntity
  8
_U+30EC_U+30A4_U+30E4_U+30FC 1
370
     0
100
AcDbSpline
210
0.0
220
0.0
230
1.0
 70
    11
 71
     3
 72
    29
 73
    25
 74
     0
 42
0.0000000001
 43
0.0000000001
 12
1.0
 22
0.0
 32
0.0
 13
1.0
 23
0.0
 33
0.0
 40
0.0
 40
0.0
 40
0.0
 40
0.0
 40
1.0
 40
1.0
 40
1.0
 40
2.0
 40
2.0
 40
2.0
 40
3.0
 40
3.0
 40
3.0
 40
4.0
 40
4.0
 40
4.0
 40
5.0
 40
5.0
 40
5.0
 40
6.0
 40
6.0
 40
6.0
 40
7.0
 40
7.0
 40
7.0
 40
8.0
 40
8.0
 40
8.0
 40
8.0
 10
102.8075059421801
 20
-158.9139865054104
 30
0.0
 10
102.6993299439432
 20
-159.1234483109136
 30
0.0
 10
102.5260416410352
 20
-159.1423963360825
 30
0.0
 10
102.4095974136337
 20
-159.1423963360825
 30
0.0
 10
102.2487114544726
 20
-159.1423963360825
 30
0.0
 10
102.1071180300288
 20
-159.0958875470316
 30
0.0
 10
102.0120333946359
 20
-158.9139865054104
 30
0.0
 10
101.9083360205299
 20
-158.7193386104938
 30
0.0
 10
101.889387995361
 20
-158.4826605506571
 30
0.0
 10
101.889387995361
 20
-158.3197075342048
 30
0.0
 10
101.889387995361
 20
-158.1757025429214
 30
0.0
 10
101.9062689632387
 20
-157.9238660629496
 30
0.0
 10
102.0120333946359
 20
-157.7250840534507
 30
0.0
 10
102.1198648833242
 20
-157.5221679293695
 30
0.0
 10
102.2807508424854
 20
-157.4987412800698
 30
0.0
 10
102.4095974136337
 20
-157.4987412800698
 30
0.0
 10
102.5684163155037
 20
-157.4987412800698
 30
0.0
 10
102.7120767972387
 20
-157.5431830118295
 30
0.0
 10
102.8075059421801
 20
-157.7250840534507
 30
0.0
 10
102.9067246921553
 20
-157.9176648910762
 30
0.0
 10
102.930151341455
 20
-158.1460747217482
 30
0.0
 10
102.930151341455
 20
-158.3197075342048
 30
0.0
 10
102.930151341455
 20
-158.4909287798217
 30
0.0
 10
102.9087917494464
 20
-158.7214056677849
 30
0.0
 10
102.8075059421801
 20
-158.9139865054104
 30
0.0
  0
SPLINE
  5
AE
330
94
100
AcDbEntity
  8
_U+30EC_U+30A4_U+30E4_U+30FC 1
370
     0
100
AcDbSpline
210
0.0
220
0.0
230
1.0
 70
    11
 71
     3
 72
    17
 73
    13
 74
     0
 42
0.0000000001
 43
0.0000000001
 12
1.0
 22
0.0
 32
0.0
 13
1.0
 23
0.0
 33
0.0
 40
0.0
 40
0.0
 40
0.0
 40
0.0
 40
1.0
 40
1.0
 40
1.0
 40
2.0
 40
2.0
 40
2.0
 40
3.0
 40
3.0
 40
3.0
 40
4.0
 40
4.0
 40
4.0
 40
4.0
 10
102.4095974136337
 20
-157.6913221176952
 30
0.0
 10
102.1601725005016
 20
-157.6913221176952
 30
0.0
 10
102.1133192019022
 20
-157.9748534761313
 30
0.0
 10
102.1133192019022
 20
-158.3197075342048
 30
0.0
 10
102.1133192019022
 20
-158.6390678856875
 30
0.0
 10
102.1494927044973
 20
-158.9477484411659
 30
0.0
 10
102.4095974136337
 20
-158.9477484411659
 30
0.0
 10
102.6572997790232
 20
-158.9477484411659
 30
0.0
 10
102.7058756253652
 20
-158.6666286495695
 30
0.0
 10
102.7058756253652
 20
-158.3197075342048
 30
0.0
 10
102.7058756253652
 20
-158.0000026731736
 30
0.0
 10
102.6676350654789
 20
-157.6913221176952
 30
0.0
 10
102.4095974136337
 20
-157.6913221176952
 30
0.0
  0
HATCH
  5
AF
330
94
100
AcDbEntity
  8
_U+30EC_U+30A4_U+30E4_U+30FC 1
 62
   179
420
  2234388
100
AcDbHatch
 10
0.0
 20
0.0
 30
0.0
210
0.0
220
0.0
230
1.0
  2
SOLID
 70
     1
 71
     0
 91
        2
 92
        1
 93
        1
 72
     4
 94
        3
 73
     0
 74
     1
 95
       29
 96
       25
 40
0.0
 40
0.0
 40
0.0
 40
0.0
 40
1.0
 40
1.0
 40
1.0
 40
2.0
 40
2.0
 40
2.0
 40
3.0
 40
3.0
 40
3.0
 40
4.0
 40
4.0
 40
4.0
 40
5.0
 40
5.0
 40
5.0
 40
6.0
 40
6.0
 40
6.0
 40
7.0
 40
7.0
 40
7.0
 40
8.0
 40
8.0
 40
8.0
 40
8.0
 10
102.8075059421801
 20
-158.9139865054104
 10
102.6993299439432
 20
-159.1234483109136
 10
102.5260416410352
 20
-159.1423963360825
 10
102.4095974136337
 20
-159.1423963360825
 10
102.2487114544726
 20
-159.1423963360825
 10
102.1071180300288
 20
-159.0958875470316
 10
102.0120333946359
 20
-158.9139865054104
 10
101.9083360205299
 20
-158.7193386104938
 10
101.889387995361
 20
-158.4826605506571
 10
101.889387995361
 20
-158.3197075342048
 10
101.889387995361
 20
-158.1757025429214
 10
101.9062689632387
 20
-157.9238660629496
 10
102.0120333946359
 20
-157.7250840534507
 10
102.1198648833242
 20
-157.5221679293695
 10
102.2807508424854
 20
-157.4987412800698
 10
102.4095974136337
 20
-157.4987412800698
 10
102.5684163155037
 20
-157.4987412800698
 10
102.7120767972387
 20
-157.5431830118295
 10
102.8075059421801
 20
-157.7250840534507
 10
102.9067246921553
 20
-157.9176648910762
 10
102.930151341455
 20
-158.1460747217482
 10
102.930151341455
 20
-158.3197075342048
 10
102.930151341455
 20
-158.4909287798217
 10
102.9087917494464
 20
-158.7214056677849
 10
102.8075059421801
 20
-158.9139865054104
 97
        0
 97
        0
 92
        1
 93
        1
 72
     4
 94
        3
 73
     0
 74
     1
 95
       17
 96
       13
 40
0.0
 40
0.0
 40
0.0
 40
0.0
 40
1.0
 40
1.0
 40
1.0
 40
2.0
 40
2.0
 40
2.0
 40
3.0
 40
3.0
 40
3.0
 40
4.0
 40
4.0
 40
4.0
 40
4.0
 10
102.4095974136337
 20
-157.6913221176952
 10
102.1601725005016
 20
-157.6913221176952
 10
102.1133192019022
 20
-157.9748534761313
 10
102.1133192019022
 20
-158.3197075342048
 10
102.1133192019022
 20
-158.6390678856875
 10
102.1494927044973
 20
-158.9477484411659
 10
102.4095974136337
 20
-158.9477484411659
 10
102.6572997790232
 20
-158.9477484411659
 10
102.7058756253652
 20
-158.6666286495695
 10
102.7058756253652
 20
-158.3197075342048
 10
102.7058756253652
 20
-158.0000026731736
 10
102.6676350654789
 20
-157.6913221176952
 10
102.4095974136337
 20
-157.6913221176952
 97
        0
 97
        0
 75
     2
 76
     1
 98
        0
  0
ENDBLK
  5
97
330
94
100
AcDbEntity
  8
0
100
AcDbBlockEnd
  0
BLOCK
  5
DD
330
DB
100
AcDbEntity
  8
0
100
AcDbBlockBegin
  2
block 7
 70
     0
 10
0.0
 20
0.0
 30
0.0
  3
block 7
  1

  0
POLYLINE
  5
DF
330
DB
100
AcDbEntity
  8
_U+30EC_U+30A4_U+30E4_U+30FC 1
370
     0
100
AcDb2dPolyline
 66
     1
 10
0.0
 20
0.0
 30
0.0
  0
VERTEX
  5
E0
330
DF
100
AcDbEntity
  8
_U+30EC_U+30A4_U+30E4_U+30FC 1
370
     0
100
AcDbVertex
100
AcDb2dVertex
 10
96.07199975896812
 20
-156.5730441231831
 30
0.0
  0
VERTEX
  5
E1
330
DF
100
AcDbEntity
  8
_U+30EC_U+30A4_U+30E4_U+30FC 1
370
     0
100
AcDbVertex
100
AcDb2dVertex
 10
96.07199975896812
 20
-156.412158164022
 30
0.0
  0
VERTEX
  5
E2
330
DF
100
AcDbEntity
  8
_U+30EC_U+30A4_U+30E4_U+30FC 1
370
     0
100
AcDbVertex
100
AcDb2dVertex
 10
96.22668454625584
 20
-156.412158164022
 30
0.0
  0
VERTEX
  5
E3
330
DF
100
AcDbEntity
  8
_U+30EC_U+30A4_U+30E4_U+30FC 1
370
     0
100
AcDbVertex
100
AcDb2dVertex
 10
96.22668454625584
 20
-156.5730441231831
 30
0.0
  0
VERTEX
  5
E4
330
DF
100
AcDbEntity
  8
_U+30EC_U+30A4_U+30E4_U+30FC 1
370
     0
100
AcDbVertex
100
AcDb2dVertex
 10
96.62011445067137
 20
-156.5730441231831
 30
0.0
  0
VERTEX
  5
E5
330
DF
100
AcDbEntity
  8
_U+30EC_U+30A4_U+30E4_U+30FC 1
370
     0
100
AcDbVertex
100
AcDb2dVertex
 10
96.62011445067137
 20
-156.7273844009223
 30
0.0
  0
VERTEX
  5
E6
330
DF
100
AcDbEntity
  8
_U+30EC_U+30A4_U+30E4_U+30FC 1
370
     0
100
AcDbVertex
100
AcDb2dVertex
 10
96.22668454625584
 20
-156.7273844009223
 30
0.0
  0
VERTEX
  5
E7
330
DF
100
AcDbEntity
  8
_U+30EC_U+30A4_U+30E4_U+30FC 1
370
     0
100
AcDbVertex
100
AcDb2dVertex
 10
96.22668454625584
 20
-156.88206918821
 30
0.0
  0
VERTEX
  5
E8
330
DF
100
AcDbEntity
  8
_U+30EC_U+30A4_U+30E4_U+30FC 1
370
     0
100
AcDbVertex
100
AcDb2dVertex
 10
96.58187389078509
 20
-156.88206918821
 30
0.0
  0
VERTEX
  5
E9
330
DF
100
AcDbEntity
  8
_U+30EC_U+30A4_U+30E4_U+30FC 1
370
     0
100
AcDbVertex
100
AcDb2dVertex
 10
96.58187389078509
 20
-157.6944227036319
 30
0.0
  0
VERTEX
  5
EA
330
DF
100
AcDbEntity
  8
_U+30EC_U+30A4_U+30E4_U+30FC 1
370
     0
100
AcDbVertex
100
AcDb2dVertex
 10
96.22668454625584
 20
-157.6944227036319
 30
0.0
  0
VERTEX
  5
EB
330
DF
100
AcDbEntity
  8
_U+30EC_U+30A4_U+30E4_U+30FC 1
370
     0
100
AcDbVertex
100
AcDb2dVertex
 10
96.22668454625584
 20
-157.8635768919577
 30
0.0
  0
VERTEX
  5
EC
330
DF
100
AcDbEntity
  8
_U+30EC_U+30A4_U+30E4_U+30FC 1
370
     0
100
AcDbVertex
100
AcDb2dVertex
 10
96.63492836125793
 20
-157.8635768919577
 30
0.0
  0
VERTEX
  5
ED
330
DF
100
AcDbEntity
  8
_U+30EC_U+30A4_U+30E4_U+30FC 1
370
     0
100
AcDbVertex
100
AcDb2dVertex
 10
96.63492836125793
 20
-158.0179171696969
 30
0.0
  0
VERTEX
  5
EE
330
DF
100
AcDbEntity
  8
_U+30EC_U+30A4_U+30E4_U+30FC 1
370
     0
100
AcDbVertex
100
AcDb2dVertex
 10
96.22668454625584
 20
-158.0179171696969
 30
0.0
  0
VERTEX
  5
EF
330
DF
100
AcDbEntity
  8
_U+30EC_U+30A4_U+30E4_U+30FC 1
370
     0
100
AcDbVertex
100
AcDb2dVertex
 10
96.22668454625584
 20
-158.3713839664836
 30
0.0
  0
VERTEX
  5
F0
330
DF
100
AcDbEntity
  8
_U+30EC_U+30A4_U+30E4_U+30FC 1
370
     0
100
AcDbVertex
100
AcDb2dVertex
 10
96.07199975896812
 20
-158.3713839664836
 30
0.0
  0
VERTEX
  5
F1
330
DF
100
AcDbEntity
  8
_U+30EC_U+30A4_U+30E4_U+30FC 1
370
     0
100
AcDbVertex
100
AcDb2dVertex
 10
96.07199975896812
 20
-158.0179171696969
 30
0.0
  0
VERTEX
  5
F2
330
DF
100
AcDbEntity
  8
_U+30EC_U+30A4_U+30E4_U+30FC 1
370
     0
100
AcDbVertex
100
AcDb2dVertex
 10
95.66168888667487
 20
-158.0179171696969
 30
0.0
  0
VERTEX
  5
F3
330
DF
100
AcDbEntity
  8
_U+30EC_U+30A4_U+30E4_U+30FC 1
370
     0
100
AcDbVertex
100
AcDb2dVertex
 10
95.66168888667487
 20
-157.8635768919577
 30
0.0
  0
VERTEX
  5
F4
330
DF
100
AcDbEntity
  8
_U+30EC_U+30A4_U+30E4_U+30FC 1
370
     0
100
AcDbVertex
100
AcDb2dVertex
 10
96.07199975896812
 20
-157.8635768919577
 30
0.0
  0
VERTEX
  5
F5
330
DF
100
AcDbEntity
  8
_U+30EC_U+30A4_U+30E4_U+30FC 1
370
     0
100
AcDbVertex
100
AcDb2dVertex
 10
96.07199975896812
 20
-157.6944227036319
 30
0.0
  0
VERTEX
  5
F6
330
DF
100
AcDbEntity
  8
_U+30EC_U+30A4_U+30E4_U+30FC 1
370
     0
100
AcDbVertex
100
AcDb2dVertex
 10
95.72301158631231
 20
-157.6944227036319
 30
0.0
  0
VERTEX
  5
F7
330
DF
100
AcDbEntity
  8
_U+30EC_U+30A4_U+30E4_U+30FC 1
370
     0
100
AcDbVertex
100
AcDb2dVertex
 10
95.72301158631231
 20
-156.88206918821
 30
0.0
  0
VERTEX
  5
F8
330
DF
100
AcDbEntity
  8
_U+30EC_U+30A4_U+30E4_U+30FC 1
370
     0
100
AcDbVertex
100
AcDb2dVertex
 10
96.07199975896812
 20
-156.88206918821
 30
0.0
  0
VERTEX
  5
F9
330
DF
100
AcDbEntity
  8
_U+30EC_U+30A4_U+30E4_U+30FC 1
370
     0
100
AcDbVertex
100
AcDb2dVertex
 10
96.07199975896812
 20
-156.7273844009223
 30
0.0
  0
VERTEX
  5
FA
330
DF
100
AcDbEntity
  8
_U+30EC_U+30A4_U+30E4_U+30FC 1
370
     0
100
AcDbVertex
100
AcDb2dVertex
 10
95.68270396913488
 20
-156.7273844009223
 30
0.0
  0
VERTEX
  5
FB
330
DF
100
AcDbEntity
  8
_U+30EC_U+30A4_U+30E4_U+30FC 1
370
     0
100
AcDbVertex
100
AcDb2dVertex
 10
95.68270396913488
 20
-156.5730441231831
 30
0.0
  0
VERTEX
  5
FC
330
DF
100
AcDbEntity
  8
_U+30EC_U+30A4_U+30E4_U+30FC 1
370
     0
100
AcDbVertex
100
AcDb2dVertex
 10
96.07199975896812
 20
-156.5730441231831
 30
0.0
  0
SEQEND
  5
FD
330
DF
100
AcDbEntity
  8
_U+30EC_U+30A4_U+30E4_U+30FC 1
370
     0
  0
POLYLINE
  5
FE
330
DB
100
AcDbEntity
  8
_U+30EC_U+30A4_U+30E4_U+30FC 1
370
     0
100
AcDb2dPolyline
 66
     1
 10
0.0
 20
0.0
 30
0.0
  0
VERTEX
  5
FF
330
FE
100
AcDbEntity
  8
_U+30EC_U+30A4_U+30E4_U+30FC 1
370
     0
100
AcDbVertex
100
AcDb2dVertex
 10
96.07199975896812
 20
-157.0215955553627
 30
0.0
  0
VERTEX
  5
100
330
FE
100
AcDbEntity
  8
_U+30EC_U+30A4_U+30E4_U+30FC 1
370
     0
100
AcDbVertex
100
AcDb2dVertex
 10
95.8649495203046
 20
-157.0215955553627
 30
0.0
  0
VERTEX
  5
101
330
FE
100
AcDbEntity
  8
_U+30EC_U+30A4_U+30E4_U+30FC 1
370
     0
100
AcDbVertex
100
AcDb2dVertex
 10
95.8649495203046
 20
-157.2245116794439
 30
0.0
  0
VERTEX
  5
102
330
FE
100
AcDbEntity
  8
_U+30EC_U+30A4_U+30E4_U+30FC 1
370
     0
100
AcDbVertex
100
AcDb2dVertex
 10
96.07199975896812
 20
-157.2245116794439
 30
0.0
  0
VERTEX
  5
103
330
FE
100
AcDbEntity
  8
_U+30EC_U+30A4_U+30E4_U+30FC 1
370
     0
100
AcDbVertex
100
AcDb2dVertex
 10
96.07199975896812
 20
-157.0215955553627
 30
0.0
  0
SEQEND
  5
104
330
FE
100
AcDbEntity
  8
_U+30EC_U+30A4_U+30E4_U+30FC 1
370
     0
  0
POLYLINE
  5
105
330
DB
100
AcDbEntity
  8
_U+30EC_U+30A4_U+30E4_U+30FC 1
370
     0
100
AcDb2dPolyline
 66
     1
 10
0.0
 20
0.0
 30
0.0
  0
VERTEX
  5
106
330
105
100
AcDbEntity
  8
_U+30EC_U+30A4_U+30E4_U+30FC 1
370
     0
100
AcDbVertex
100
AcDb2dVertex
 10
96.07199975896812
 20
-157.3475015882673
 30
0.0
  0
VERTEX
  5
107
330
105
100
AcDbEntity
  8
_U+30EC_U+30A4_U+30E4_U+30FC 1
370
     0
100
AcDbVertex
100
AcDb2dVertex
 10
95.8649495203046
 20
-157.3475015882673
 30
0.0
  0
VERTEX
  5
108
330
105
100
AcDbEntity
  8
_U+30EC_U+30A4_U+30E4_U+30FC 1
370
     0
100
AcDbVertex
100
AcDb2dVertex
 10
95.8649495203046
 20
-157.5545518269308
 30
0.0
  0
VERTEX
  5
109
330
105
100
AcDbEntity
  8
_U+30EC_U+30A4_U+30E4_U+30FC 1
370
     0
100
AcDbVertex
100
AcDb2dVertex
 10
96.07199975896812
 20
-157.5545518269308
 30
0.0
  0
VERTEX
  5
10A
330
105
100
AcDbEntity
  8
_U+30EC_U+30A4_U+30E4_U+30FC 1
370
     0
100
AcDbVertex
100
AcDb2dVertex
 10
96.07199975896812
 20
-157.3475015882673
 30
0.0
  0
SEQEND
  5
10B
330
105
100
AcDbEntity
  8
_U+30EC_U+30A4_U+30E4_U+30FC 1
370
     0
  0
POLYLINE
  5
10C
330
DB
100
AcDbEntity
  8
_U+30EC_U+30A4_U+30E4_U+30FC 1
370
     0
100
AcDb2dPolyline
 66
     1
 10
0.0
 20
0.0
 30
0.0
  0
VERTEX
  5
10D
330
10C
100
AcDbEntity
  8
_U+30EC_U+30A4_U+30E4_U+30FC 1
370
     0
100
AcDbVertex
100
AcDb2dVertex
 10
96.43821340905018
 20
-157.0215955553627
 30
0.0
  0
VERTEX
  5
10E
330
10C
100
AcDbEntity
  8
_U+30EC_U+30A4_U+30E4_U+30FC 1
370
     0
100
AcDbVertex
100
AcDb2dVertex
 10
96.22668454625584
 20
-157.0215955553627
 30
0.0
  0
VERTEX
  5
10F
330
10C
100
AcDbEntity
  8
_U+30EC_U+30A4_U+30E4_U+30FC 1
370
     0
100
AcDbVertex
100
AcDb2dVertex
 10
96.22668454625584
 20
-157.2245116794439
 30
0.0
  0
VERTEX
  5
110
330
10C
100
AcDbEntity
  8
_U+30EC_U+30A4_U+30E4_U+30FC 1
370
     0
100
AcDbVertex
100
AcDb2dVertex
 10
96.43821340905018
 20
-157.2245116794439
 30
0.0
  0
VERTEX
  5
111
330
10C
100
AcDbEntity
  8
_U+30EC_U+30A4_U+30E4_U+30FC 1
370
     0
100
AcDbVertex
100
AcDb2dVertex
 10
96.43821340905018
 20
-157.0215955553627
 30
0.0
  0
SEQEND
  5
112
330
10C
100
AcDbEntity
  8
_U+30EC_U+30A4_U+30E4_U+30FC 1
370
     0
  0
POLYLINE
  5
113
330
DB
100
AcDbEntity
  8
_U+30EC_U+30A4_U+30E4_U+30FC 1
370
     0
100
AcDb2dPolyline
 66
     1
 10
0.0
 20
0.0
 30
0.0
  0
VERTEX
  5
114
330
113
100
AcDbEntity
  8
_U+30EC_U+30A4_U+30E4_U+30FC 1
370
     0
100
AcDbVertex
100
AcDb2dVertex
 10
96.43821340905018
 20
-157.3475015882673
 30
0.0
  0
VERTEX
  5
115
330
113
100
AcDbEntity
  8
_U+30EC_U+30A4_U+30E4_U+30FC 1
370
     0
100
AcDbVertex
100
AcDb2dVertex
 10
96.22668454625584
 20
-157.3475015882673
 30
0.0
  0
VERTEX
  5
116
330
113
100
AcDbEntity
  8
_U+30EC_U+30A4_U+30E4_U+30FC 1
370
     0
100
AcDbVertex
100
AcDb2dVertex
 10
96.22668454625584
 20
-157.5545518269308
 30
0.0
  0
VERTEX
  5
117
330
113
100
AcDbEntity
  8
_U+30EC_U+30A4_U+30E4_U+30FC 1
370
     0
100
AcDbVertex
100
AcDb2dVertex
 10
96.43821340905018
 20
-157.5545518269308
 30
0.0
  0
VERTEX
  5
118
330
113
100
AcDbEntity
  8
_U+30EC_U+30A4_U+30E4_U+30FC 1
370
     0
100
AcDbVertex
100
AcDb2dVertex
 10
96.43821340905018
 20
-157.3475015882673
 30
0.0
  0
SEQEND
  5
119
330
113
100
AcDbEntity
  8
_U+30EC_U+30A4_U+30E4_U+30FC 1
370
     0
  0
SPLINE
  5
11A
330
DB
100
AcDbEntity
  8
_U+30EC_U+30A4_U+30E4_U+30FC 1
370
     0
100
AcDbSpline
210
0.0
220
0.0
230
1.0
 70
    11
 71
     3
 72
    38
 73
    34
 74
     0
 42
0.0000000001
 43
0.0000000001
 12
1.0
 22
0.0
 32
0.0
 13
1.0
 23
0.0
 33
0.0
 40
0.0
 40
0.0
 40
0.0
 40
0.0
 40
1.0
 40
1.0
 40
1.0
 40
2.0
 40
2.0
 40
2.0
 40
3.0
 40
3.0
 40
3.0
 40
4.0
 40
4.0
 40
4.0
 40
5.0
 40
5.0
 40
5.0
 40
6.0
 40
6.0
 40
6.0
 40
7.0
 40
7.0
 40
7.0
 40
8.0
 40
8.0
 40
8.0
 40
9.0
 40
9.0
 40
9.0
 40
10.0
 40
10.0
 40
10.0
 40
11.0
 40
11.0
 40
11.0
 40
11.0
 10
96.48024357397023
 20
-158.2359917139132
 30
0.0
 10
96.56292586561622
 20
-158.1829372434404
 30
0.0
 10
96.72794593935969
 20
-158.0751057547521
 30
0.0
 10
96.83371037075686
 20
-157.86771100654
 30
0.0
 10
96.9818494766226
 20
-157.5759114189394
 30
0.0
 10
96.9818494766226
 20
-157.3495686455584
 30
0.0
 10
96.9818494766226
 20
-157.2648192966213
 30
0.0
 10
96.9818494766226
 20
-157.2648192966213
 30
0.0
 10
96.9818494766226
 20
-157.0302082940758
 30
0.0
 10
96.9818494766226
 20
-157.0302082940758
 30
0.0
 10
96.9818494766226
 20
-157.0302082940758
 30
0.0
 10
97.14686955036606
 20
-157.0302082940758
 30
0.0
 10
97.14686955036606
 20
-157.0302082940758
 30
0.0
 10
97.14686955036606
 20
-157.0302082940758
 30
0.0
 10
97.14686955036606
 20
-157.2565510674567
 30
0.0
 10
97.14686955036606
 20
-157.2565510674567
 30
0.0
 10
97.14686955036606
 20
-157.4553330769556
 30
0.0
 10
97.2123263645858
 20
-157.6923556463408
 30
0.0
 10
97.31395668140068
 20
-157.8656439492489
 30
0.0
 10
97.43040090880213
 20
-158.0644259587478
 30
0.0
 10
97.55924747995047
 20
-158.1639892182715
 30
0.0
 10
97.64399682888762
 20
-158.225311917909
 30
0.0
 10
97.64399682888762
 20
-158.225311917909
 30
0.0
 10
97.53616534019929
 20
-158.3755180810658
 30
0.0
 10
97.53616534019929
 20
-158.3755180810658
 30
0.0
 10
97.3583984131604
 20
-158.246327000369
 30
0.0
 10
97.15961640366149
 20
-158.0072373736926
 30
0.0
 10
97.0810682265978
 20
-157.6541150864545
 30
0.0
 10
97.01561141237805
 20
-157.8932047131309
 30
0.0
 10
96.91398109556317
 20
-158.1619221609804
 30
0.0
 10
96.60530054008478
 20
-158.3713839664836
 30
0.0
 10
96.60530054008478
 20
-158.3713839664836
 30
0.0
 10
96.48024357397023
 20
-158.2359917139132
 30
0.0
 10
96.48024357397023
 20
-158.2359917139132
 30
0.0
  0
SPLINE
  5
11B
330
DB
100
AcDbEntity
  8
_U+30EC_U+30A4_U+30E4_U+30FC 1
370
     0
100
AcDbSpline
210
0.0
220
0.0
230
1.0
 70
    11
 71
     3
 72
    38
 73
    34
 74
     0
 42
0.0000000001
 43
0.0000000001
 12
1.0
 22
0.0
 32
0.0
 13
1.0
 23
0.0
 33
0.0
 40
0.0
 40
0.0
 40
0.0
 40
0.0
 40
1.0
 40
1.0
 40
1.0
 40
2.0
 40
2.0
 40
2.0
 40
3.0
 40
3.0
 40
3.0
 40
4.0
 40
4.0
 40
4.0
 40
5.0
 40
5.0
 40
5.0
 40
6.0
 40
6.0
 40
6.0
 40
7.0
 40
7.0
 40
7.0
 40
8.0
 40
8.0
 40
8.0
 40
9.0
 40
9.0
 40
9.0
 40
10.0
 40
10.0
 40
10.0
 40
11.0
 40
11.0
 40
11.0
 40
11.0
 10
96.59462074408052
 20
-157.1631889798064
 30
0.0
 10
96.68763832218227
 20
-157.0405435805315
 30
0.0
 10
96.81269528829684
 20
-156.8607095962015
 30
0.0
 10
96.90777992368973
 20
-156.412158164022
 30
0.0
 10
96.90777992368973
 20
-156.412158164022
 30
0.0
 10
97.07486705472434
 20
-156.4314506987394
 30
0.0
 10
97.07486705472434
 20
-156.4314506987394
 30
0.0
 10
97.0493733481335
 20
-156.5520290407231
 30
0.0
 10
97.02629120838232
 20
-156.6429795615337
 30
0.0
 10
96.98805064849604
 20
-156.750811050222
 30
0.0
 10
96.98805064849604
 20
-156.750811050222
 30
0.0
 10
97.61643606500562
 20
-156.750811050222
 30
0.0
 10
97.61643606500562
 20
-156.750811050222
 30
0.0
 10
97.61643606500562
 20
-156.750811050222
 30
0.0
 10
97.61643606500562
 20
-156.9030842706701
 30
0.0
 10
97.61643606500562
 20
-156.9030842706701
 30
0.0
 10
97.58267412925017
 20
-157.0446776951138
 30
0.0
 10
97.48724498430875
 20
-157.3030598565076
 30
0.0
 10
97.4135199409244
 20
-157.4215711412002
 30
0.0
 10
97.4135199409244
 20
-157.4215711412002
 30
0.0
 10
97.26090221092784
 20
-157.3430229641365
 30
0.0
 10
97.26090221092784
 20
-157.3430229641365
 30
0.0
 10
97.35633135586926
 20
-157.2076307115662
 30
0.0
 10
97.421788170089
 20
-157.0195284980715
 30
0.0
 10
97.449348933971
 20
-156.909629952092
 30
0.0
 10
97.449348933971
 20
-156.909629952092
 30
0.0
 10
96.9308620634409
 20
-156.909629952092
 30
0.0
 10
96.9308620634409
 20
-156.909629952092
 30
0.0
 10
96.8316433134657
 20
-157.1507866360595
 30
0.0
 10
96.75757376053284
 20
-157.2393255900305
 30
0.0
 10
96.71933320064656
 20
-157.2837673217902
 30
0.0
 10
96.71933320064656
 20
-157.2837673217902
 30
0.0
 10
96.59462074408052
 20
-157.1631889798064
 30
0.0
 10
96.59462074408052
 20
-157.1631889798064
 30
0.0
  0
HATCH
  5
11C
330
DB
100
AcDbEntity
  8
_U+30EC_U+30A4_U+30E4_U+30FC 1
 62
    12
420
 15007761
100
AcDbHatch
 10
0.0
 20
0.0
 30
0.0
210
0.0
220
0.0
230
1.0
  2
SOLID
 70
     1
 71
     0
 91
        7
 92
        1
 93
       28
 72
     1
 10
96.07199975896812
 20
-156.5730441231831
 11
96.07199975896812
 21
-156.412158164022
 72
     1
 10
96.07199975896812
 20
-156.412158164022
 11
96.22668454625584
 21
-156.412158164022
 72
     1
 10
96.22668454625584
 20
-156.412158164022
 11
96.22668454625584
 21
-156.5730441231831
 72
     1
 10
96.22668454625584
 20
-156.5730441231831
 11
96.62011445067137
 21
-156.5730441231831
 72
     1
 10
96.62011445067137
 20
-156.5730441231831
 11
96.62011445067137
 21
-156.7273844009223
 72
     1
 10
96.62011445067137
 20
-156.7273844009223
 11
96.22668454625584
 21
-156.7273844009223
 72
     1
 10
96.22668454625584
 20
-156.7273844009223
 11
96.22668454625584
 21
-156.88206918821
 72
     1
 10
96.22668454625584
 20
-156.88206918821
 11
96.58187389078509
 21
-156.88206918821
 72
     1
 10
96.58187389078509
 20
-156.88206918821
 11
96.58187389078509
 21
-157.6944227036319
 72
     1
 10
96.58187389078509
 20
-157.6944227036319
 11
96.22668454625584
 21
-157.6944227036319
 72
     1
 10
96.22668454625584
 20
-157.6944227036319
 11
96.22668454625584
 21
-157.8635768919577
 72
     1
 10
96.22668454625584
 20
-157.8635768919577
 11
96.63492836125793
 21
-157.8635768919577
 72
     1
 10
96.63492836125793
 20
-157.8635768919577
 11
96.63492836125793
 21
-158.0179171696969
 72
     1
 10
96.63492836125793
 20
-158.0179171696969
 11
96.22668454625584
 21
-158.0179171696969
 72
     1
 10
96.22668454625584
 20
-158.0179171696969
 11
96.22668454625584
 21
-158.3713839664836
 72
     1
 10
96.22668454625584
 20
-158.3713839664836
 11
96.07199975896812
 21
-158.3713839664836
 72
     1
 10
96.07199975896812
 20
-158.3713839664836
 11
96.07199975896812
 21
-158.0179171696969
 72
     1
 10
96.07199975896812
 20
-158.0179171696969
 11
95.66168888667487
 21
-158.0179171696969
 72
     1
 10
95.66168888667487
 20
-158.0179171696969
 11
95.66168888667487
 21
-157.8635768919577
 72
     1
 10
95.66168888667487
 20
-157.8635768919577
 11
96.07199975896812
 21
-157.8635768919577
 72
     1
 10
96.07199975896812
 20
-157.8635768919577
 11
96.07199975896812
 21
-157.6944227036319
 72
     1
 10
96.07199975896812
 20
-157.6944227036319
 11
95.72301158631231
 21
-157.6944227036319
 72
     1
 10
95.72301158631231
 20
-157.6944227036319
 11
95.72301158631231
 21
-156.88206918821
 72
     1
 10
95.72301158631231
 20
-156.88206918821
 11
96.07199975896812
 21
-156.88206918821
 72
     1
 10
96.07199975896812
 20
-156.88206918821
 11
96.07199975896812
 21
-156.7273844009223
 72
     1
 10
96.07199975896812
 20
-156.7273844009223
 11
95.68270396913488
 21
-156.7273844009223
 72
     1
 10
95.68270396913488
 20
-156.7273844009223
 11
95.68270396913488
 21
-156.5730441231831
 72
     1
 10
95.68270396913488
 20
-156.5730441231831
 11
96.07199975896812
 21
-156.5730441231831
 97
        0
 92
        1
 93
        4
 72
     1
 10
96.07199975896812
 20
-157.0215955553627
 11
95.8649495203046
 21
-157.0215955553627
 72
     1
 10
95.8649495203046
 20
-157.0215955553627
 11
95.8649495203046
 21
-157.2245116794439
 72
     1
 10
95.8649495203046
 20
-157.2245116794439
 11
96.07199975896812
 21
-157.2245116794439
 72
     1
 10
96.07199975896812
 20
-157.2245116794439
 11
96.07199975896812
 21
-157.0215955553627
 97
        0
 92
        1
 93
        4
 72
     1
 10
96.07199975896812
 20
-157.3475015882673
 11
95.8649495203046
 21
-157.3475015882673
 72
     1
 10
95.8649495203046
 20
-157.3475015882673
 11
95.8649495203046
 21
-157.5545518269308
 72
     1
 10
95.8649495203046
 20
-157.5545518269308
 11
96.07199975896812
 21
-157.5545518269308
 72
     1
 10
96.07199975896812
 20
-157.5545518269308
 11
96.07199975896812
 21
-157.3475015882673
 97
        0
 92
        1
 93
        4
 72
     1
 10
96.43821340905018
 20
-157.0215955553627
 11
96.22668454625584
 21
-157.0215955553627
 72
     1
 10
96.22668454625584
 20
-157.0215955553627
 11
96.22668454625584
 21
-157.2245116794439
 72
     1
 10
96.22668454625584
 20
-157.2245116794439
 11
96.43821340905018
 21
-157.2245116794439
 72
     1
 10
96.43821340905018
 20
-157.2245116794439
 11
96.43821340905018
 21
-157.0215955553627
 97
        0
 92
        1
 93
        4
 72
     1
 10
96.43821340905018
 20
-157.3475015882673
 11
96.22668454625584
 21
-157.3475015882673
 72
     1
 10
96.22668454625584
 20
-157.3475015882673
 11
96.22668454625584
 21
-157.5545518269308
 72
     1
 10
96.22668454625584
 20
-157.5545518269308
 11
96.43821340905018
 21
-157.5545518269308
 72
     1
 10
96.43821340905018
 20
-157.5545518269308
 11
96.43821340905018
 21
-157.3475015882673
 97
        0
 92
        1
 93
        1
 72
     4
 94
        3
 73
     0
 74
     1
 95
       38
 96
       34
 40
0.0
 40
0.0
 40
0.0
 40
0.0
 40
1.0
 40
1.0
 40
1.0
 40
2.0
 40
2.0
 40
2.0
 40
3.0
 40
3.0
 40
3.0
 40
4.0
 40
4.0
 40
4.0
 40
5.0
 40
5.0
 40
5.0
 40
6.0
 40
6.0
 40
6.0
 40
7.0
 40
7.0
 40
7.0
 40
8.0
 40
8.0
 40
8.0
 40
9.0
 40
9.0
 40
9.0
 40
10.0
 40
10.0
 40
10.0
 40
11.0
 40
11.0
 40
11.0
 40
11.0
 10
96.48024357397023
 20
-158.2359917139132
 10
96.56292586561622
 20
-158.1829372434404
 10
96.72794593935969
 20
-158.0751057547521
 10
96.83371037075686
 20
-157.86771100654
 10
96.9818494766226
 20
-157.5759114189394
 10
96.9818494766226
 20
-157.3495686455584
 10
96.9818494766226
 20
-157.2648192966213
 10
96.9818494766226
 20
-157.2648192966213
 10
96.9818494766226
 20
-157.0302082940758
 10
96.9818494766226
 20
-157.0302082940758
 10
96.9818494766226
 20
-157.0302082940758
 10
97.14686955036606
 20
-157.0302082940758
 10
97.14686955036606
 20
-157.0302082940758
 10
97.14686955036606
 20
-157.0302082940758
 10
97.14686955036606
 20
-157.2565510674567
 10
97.14686955036606
 20
-157.2565510674567
 10
97.14686955036606
 20
-157.4553330769556
 10
97.2123263645858
 20
-157.6923556463408
 10
97.31395668140068
 20
-157.8656439492489
 10
97.43040090880213
 20
-158.0644259587478
 10
97.55924747995047
 20
-158.1639892182715
 10
97.64399682888762
 20
-158.225311917909
 10
97.64399682888762
 20
-158.225311917909
 10
97.53616534019929
 20
-158.3755180810658
 10
97.53616534019929
 20
-158.3755180810658
 10
97.3583984131604
 20
-158.246327000369
 10
97.15961640366149
 20
-158.0072373736926
 10
97.0810682265978
 20
-157.6541150864545
 10
97.01561141237805
 20
-157.8932047131309
 10
96.91398109556317
 20
-158.1619221609804
 10
96.60530054008478
 20
-158.3713839664836
 10
96.60530054008478
 20
-158.3713839664836
 10
96.48024357397023
 20
-158.2359917139132
 10
96.48024357397023
 20
-158.2359917139132
 97
        0
 97
        0
 92
        1
 93
        1
 72
     4
 94
        3
 73
     0
 74
     1
 95
       38
 96
       34
 40
0.0
 40
0.0
 40
0.0
 40
0.0
 40
1.0
 40
1.0
 40
1.0
 40
2.0
 40
2.0
 40
2.0
 40
3.0
 40
3.0
 40
3.0
 40
4.0
 40
4.0
 40
4.0
 40
5.0
 40
5.0
 40
5.0
 40
6.0
 40
6.0
 40
6.0
 40
7.0
 40
7.0
 40
7.0
 40
8.0
 40
8.0
 40
8.0
 40
9.0
 40
9.0
 40
9.0
 40
10.0
 40
10.0
 40
10.0
 40
11.0
 40
11.0
 40
11.0
 40
11.0
 10
96.59462074408052
 20
-157.1631889798064
 10
96.68763832218227
 20
-157.0405435805315
 10
96.81269528829684
 20
-156.8607095962015
 10
96.90777992368973
 20
-156.412158164022
 10
96.90777992368973
 20
-156.412158164022
 10
97.07486705472434
 20
-156.4314506987394
 10
97.07486705472434
 20
-156.4314506987394
 10
97.0493733481335
 20
-156.5520290407231
 10
97.02629120838232
 20
-156.6429795615337
 10
96.98805064849604
 20
-156.750811050222
 10
96.98805064849604
 20
-156.750811050222
 10
97.61643606500562
 20
-156.750811050222
 10
97.61643606500562
 20
-156.750811050222
 10
97.61643606500562
 20
-156.750811050222
 10
97.61643606500562
 20
-156.9030842706701
 10
97.61643606500562
 20
-156.9030842706701
 10
97.58267412925017
 20
-157.0446776951138
 10
97.48724498430875
 20
-157.3030598565076
 10
97.4135199409244
 20
-157.4215711412002
 10
97.4135199409244
 20
-157.4215711412002
 10
97.26090221092784
 20
-157.3430229641365
 10
97.26090221092784
 20
-157.3430229641365
 10
97.35633135586926
 20
-157.2076307115662
 10
97.421788170089
 20
-157.0195284980715
 10
97.449348933971
 20
-156.909629952092
 10
97.449348933971
 20
-156.909629952092
 10
96.9308620634409
 20
-156.909629952092
 10
96.9308620634409
 20
-156.909629952092
 10
96.8316433134657
 20
-157.1507866360595
 10
96.75757376053284
 20
-157.2393255900305
 10
96.71933320064656
 20
-157.2837673217902
 10
96.71933320064656
 20
-157.2837673217902
 10
96.59462074408052
 20
-157.1631889798064
 10
96.59462074408052
 20
-157.1631889798064
 97
        0
 97
        0
 75
     2
 76
     1
 98
        0
  0
SPLINE
  5
11D
330
DB
100
AcDbEntity
  8
_U+30EC_U+30A4_U+30E4_U+30FC 1
370
     0
100
AcDbSpline
210
0.0
220
0.0
230
1.0
 70
    11
 71
     3
 72
    50
 73
    46
 74
     0
 42
0.0000000001
 43
0.0000000001
 12
1.0
 22
0.0
 32
0.0
 13
1.0
 23
0.0
 33
0.0
 40
0.0
 40
0.0
 40
0.0
 40
0.0
 40
1.0
 40
1.0
 40
1.0
 40
2.0
 40
2.0
 40
2.0
 40
3.0
 40
3.0
 40
3.0
 40
4.0
 40
4.0
 40
4.0
 40
5.0
 40
5.0
 40
5.0
 40
6.0
 40
6.0
 40
6.0
 40
7.0
 40
7.0
 40
7.0
 40
8.0
 40
8.0
 40
8.0
 40
9.0
 40
9.0
 40
9.0
 40
10.0
 40
10.0
 40
10.0
 40
11.0
 40
11.0
 40
11.0
 40
12.0
 40
12.0
 40
12.0
 40
13.0
 40
13.0
 40
13.0
 40
14.0
 40
14.0
 40
14.0
 40
15.0
 40
15.0
 40
15.0
 40
15.0
 10
98.08944767513042
 20
-156.7105034330446
 30
0.0
 10
98.08944767513042
 20
-156.7105034330446
 30
0.0
 10
98.74091523139117
 20
-156.7105034330446
 30
0.0
 10
98.74091523139117
 20
-156.7105034330446
 30
0.0
 10
98.74091523139117
 20
-156.7105034330446
 30
0.0
 10
98.74091523139117
 20
-156.8355603991592
 30
0.0
 10
98.74091523139117
 20
-156.8355603991592
 30
0.0
 10
98.74091523139117
 20
-156.8355603991592
 30
0.0
 10
98.46392955437707
 20
-156.8355603991592
 30
0.0
 10
98.46392955437707
 20
-156.8355603991592
 30
0.0
 10
98.46392955437707
 20
-156.8355603991592
 30
0.0
 10
98.46392955437707
 20
-157.1104790188821
 30
0.0
 10
98.46392955437707
 20
-157.1104790188821
 30
0.0
 10
98.46392955437707
 20
-157.1104790188821
 30
0.0
 10
98.30304359521591
 20
-157.1104790188821
 30
0.0
 10
98.30304359521591
 20
-157.1104790188821
 30
0.0
 10
98.30304359521591
 20
-157.1104790188821
 30
0.0
 10
98.30304359521591
 20
-156.8355603991592
 30
0.0
 10
98.30304359521591
 20
-156.8355603991592
 30
0.0
 10
98.30304359521591
 20
-156.8355603991592
 30
0.0
 10
98.08290199370845
 20
-156.8355603991592
 30
0.0
 10
98.08290199370845
 20
-156.8355603991592
 30
0.0
 10
98.07256670725269
 20
-156.9051513279612
 30
0.0
 10
98.04707300066185
 20
-157.0997992228778
 30
0.0
 10
97.89273272292266
 20
-157.2500053860347
 30
0.0
 10
97.89273272292266
 20
-157.2500053860347
 30
0.0
 10
97.76974281409923
 20
-157.1401068400553
 30
0.0
 10
97.76974281409923
 20
-157.1401068400553
 30
0.0
 10
97.8906656656315
 20
-157.0405435805315
 30
0.0
 10
97.93269583055155
 20
-156.8355603991592
 30
0.0
 10
97.93269583055155
 20
-156.7528781075132
 30
0.0
 10
97.93269583055155
 20
-156.7528781075132
 30
0.0
 10
97.93269583055155
 20
-156.467279691786
 30
0.0
 10
97.93269583055155
 20
-156.467279691786
 30
0.0
 10
98.4174207653262
 20
-156.467279691786
 30
0.0
 10
98.5717610430654
 20
-156.4207709027351
 30
0.0
 10
98.66684567845829
 20
-156.3932101388531
 30
0.0
 10
98.66684567845829
 20
-156.3932101388531
 30
0.0
 10
98.71990014893115
 20
-156.5327365060057
 30
0.0
 10
98.71990014893115
 20
-156.5327365060057
 30
0.0
 10
98.51043834342795
 20
-156.5816568618962
 30
0.0
 10
98.34748532697563
 20
-156.591992148352
 30
0.0
 10
98.08944767513042
 20
-156.5964707724828
 30
0.0
 10
98.08944767513042
 20
-156.5964707724828
 30
0.0
 10
98.08944767513042
 20
-156.7105034330446
 30
0.0
 10
98.08944767513042
 20
-156.7105034330446
 30
0.0
  0
SPLINE
  5
11E
330
DB
100
AcDbEntity
  8
_U+30EC_U+30A4_U+30E4_U+30FC 1
370
     0
100
AcDbSpline
210
0.0
220
0.0
230
1.0
 70
    11
 71
     3
 72
    32
 73
    28
 74
     0
 42
0.0000000001
 43
0.0000000001
 12
1.0
 22
0.0
 32
0.0
 13
1.0
 23
0.0
 33
0.0
 40
0.0
 40
0.0
 40
0.0
 40
0.0
 40
1.0
 40
1.0
 40
1.0
 40
2.0
 40
2.0
 40
2.0
 40
3.0
 40
3.0
 40
3.0
 40
4.0
 40
4.0
 40
4.0
 40
5.0
 40
5.0
 40
5.0
 40
6.0
 40
6.0
 40
6.0
 40
7.0
 40
7.0
 40
7.0
 40
8.0
 40
8.0
 40
8.0
 40
9.0
 40
9.0
 40
9.0
 40
9.0
 10
98.00469832619328
 20
-158.0561577295832
 30
0.0
 10
98.00469832619328
 20
-158.0561577295832
 30
0.0
 10
98.00469832619328
 20
-157.156987807933
 30
0.0
 10
98.00469832619328
 20
-157.156987807933
 30
0.0
 10
98.00469832619328
 20
-157.156987807933
 30
0.0
 10
99.5026258431799
 20
-157.156987807933
 30
0.0
 10
99.5026258431799
 20
-157.156987807933
 30
0.0
 10
99.5026258431799
 20
-157.156987807933
 30
0.0
 10
99.5026258431799
 20
-158.0561577295832
 30
0.0
 10
99.5026258431799
 20
-158.0561577295832
 30
0.0
 10
99.5026258431799
 20
-158.0561577295832
 30
0.0
 10
98.35816512297991
 20
-158.0561577295832
 30
0.0
 10
98.35816512297991
 20
-158.0561577295832
 30
0.0
 10
98.35816512297991
 20
-158.0561577295832
 30
0.0
 10
98.46392955437707
 20
-158.1660562755627
 30
0.0
 10
98.46392955437707
 20
-158.1660562755627
 30
0.0
 10
98.29890948063361
 20
-158.2611409109556
 30
0.0
 10
98.13388940689015
 20
-158.322463610593
 30
0.0
 10
97.83761119515866
 20
-158.3734510237747
 30
0.0
 10
97.83761119515866
 20
-158.3734510237747
 30
0.0
 10
97.77215438093891
 20
-158.2211778033267
 30
0.0
 10
97.77215438093891
 20
-158.2211778033267
 30
0.0
 10
98.15077037476787
 20
-158.1681233328538
 30
0.0
 10
98.27341577404276
 20
-158.1005994613429
 30
0.0
 10
98.35368649884909
 20
-158.0561577295832
 30
0.0
 10
98.35368649884909
 20
-158.0561577295832
 30
0.0
 10
98.00469832619328
 20
-158.0561577295832
 30
0.0
 10
98.00469832619328
 20
-158.0561577295832
 30
0.0
  0
POLYLINE
  5
11F
330
DB
100
AcDbEntity
  8
_U+30EC_U+30A4_U+30E4_U+30FC 1
370
     0
100
AcDb2dPolyline
 66
     1
 10
0.0
 20
0.0
 30
0.0
  0
VERTEX
  5
120
330
11F
100
AcDbEntity
  8
_U+30EC_U+30A4_U+30E4_U+30FC 1
370
     0
100
AcDbVertex
100
AcDb2dVertex
 10
99.33312714530561
 20
-157.2903130032122
 30
0.0
  0
VERTEX
  5
121
330
11F
100
AcDbEntity
  8
_U+30EC_U+30A4_U+30E4_U+30FC 1
370
     0
100
AcDbVertex
100
AcDb2dVertex
 10
98.17385251451904
 20
-157.2903130032122
 30
0.0
  0
VERTEX
  5
122
330
11F
100
AcDbEntity
  8
_U+30EC_U+30A4_U+30E4_U+30FC 1
370
     0
100
AcDbVertex
100
AcDb2dVertex
 10
98.17385251451904
 20
-157.4191595743605
 30
0.0
  0
VERTEX
  5
123
330
11F
100
AcDbEntity
  8
_U+30EC_U+30A4_U+30E4_U+30FC 1
370
     0
100
AcDbVertex
100
AcDb2dVertex
 10
99.33312714530561
 20
-157.4191595743605
 30
0.0
  0
VERTEX
  5
124
330
11F
100
AcDbEntity
  8
_U+30EC_U+30A4_U+30E4_U+30FC 1
370
     0
100
AcDbVertex
100
AcDb2dVertex
 10
99.33312714530561
 20
-157.2903130032122
 30
0.0
  0
SEQEND
  5
125
330
11F
100
AcDbEntity
  8
_U+30EC_U+30A4_U+30E4_U+30FC 1
370
     0
  0
POLYLINE
  5
126
330
DB
100
AcDbEntity
  8
_U+30EC_U+30A4_U+30E4_U+30FC 1
370
     0
100
AcDb2dPolyline
 66
     1
 10
0.0
 20
0.0
 30
0.0
  0
VERTEX
  5
127
330
126
100
AcDbEntity
  8
_U+30EC_U+30A4_U+30E4_U+30FC 1
370
     0
100
AcDbVertex
100
AcDb2dVertex
 10
99.33312714530561
 20
-157.5294026298885
 30
0.0
  0
VERTEX
  5
128
330
126
100
AcDbEntity
  8
_U+30EC_U+30A4_U+30E4_U+30FC 1
370
     0
100
AcDbVertex
100
AcDb2dVertex
 10
98.17385251451904
 20
-157.5294026298885
 30
0.0
  0
VERTEX
  5
129
330
126
100
AcDbEntity
  8
_U+30EC_U+30A4_U+30E4_U+30FC 1
370
     0
100
AcDbVertex
100
AcDb2dVertex
 10
98.17385251451904
 20
-157.6709960543322
 30
0.0
  0
VERTEX
  5
12A
330
126
100
AcDbEntity
  8
_U+30EC_U+30A4_U+30E4_U+30FC 1
370
     0
100
AcDbVertex
100
AcDb2dVertex
 10
99.33312714530561
 20
-157.6709960543322
 30
0.0
  0
VERTEX
  5
12B
330
126
100
AcDbEntity
  8
_U+30EC_U+30A4_U+30E4_U+30FC 1
370
     0
100
AcDbVertex
100
AcDb2dVertex
 10
99.33312714530561
 20
-157.5294026298885
 30
0.0
  0
SEQEND
  5
12C
330
126
100
AcDbEntity
  8
_U+30EC_U+30A4_U+30E4_U+30FC 1
370
     0
  0
POLYLINE
  5
12D
330
DB
100
AcDbEntity
  8
_U+30EC_U+30A4_U+30E4_U+30FC 1
370
     0
100
AcDb2dPolyline
 66
     1
 10
0.0
 20
0.0
 30
0.0
  0
VERTEX
  5
12E
330
12D
100
AcDbEntity
  8
_U+30EC_U+30A4_U+30E4_U+30FC 1
370
     0
100
AcDbVertex
100
AcDb2dVertex
 10
99.33312714530561
 20
-157.7808946003117
 30
0.0
  0
VERTEX
  5
12F
330
12D
100
AcDbEntity
  8
_U+30EC_U+30A4_U+30E4_U+30FC 1
370
     0
100
AcDbVertex
100
AcDb2dVertex
 10
98.17385251451904
 20
-157.7808946003117
 30
0.0
  0
VERTEX
  5
130
330
12D
100
AcDbEntity
  8
_U+30EC_U+30A4_U+30E4_U+30FC 1
370
     0
100
AcDbVertex
100
AcDb2dVertex
 10
98.17385251451904
 20
-157.9207654770129
 30
0.0
  0
VERTEX
  5
131
330
12D
100
AcDbEntity
  8
_U+30EC_U+30A4_U+30E4_U+30FC 1
370
     0
100
AcDbVertex
100
AcDb2dVertex
 10
99.33312714530561
 20
-157.9207654770129
 30
0.0
  0
VERTEX
  5
132
330
12D
100
AcDbEntity
  8
_U+30EC_U+30A4_U+30E4_U+30FC 1
370
     0
100
AcDbVertex
100
AcDb2dVertex
 10
99.33312714530561
 20
-157.7808946003117
 30
0.0
  0
SEQEND
  5
133
330
12D
100
AcDbEntity
  8
_U+30EC_U+30A4_U+30E4_U+30FC 1
370
     0
  0
SPLINE
  5
134
330
DB
100
AcDbEntity
  8
_U+30EC_U+30A4_U+30E4_U+30FC 1
370
     0
100
AcDbSpline
210
0.0
220
0.0
230
1.0
 70
    11
 71
     3
 72
    50
 73
    46
 74
     0
 42
0.0000000001
 43
0.0000000001
 12
1.0
 22
0.0
 32
0.0
 13
1.0
 23
0.0
 33
0.0
 40
0.0
 40
0.0
 40
0.0
 40
0.0
 40
1.0
 40
1.0
 40
1.0
 40
2.0
 40
2.0
 40
2.0
 40
3.0
 40
3.0
 40
3.0
 40
4.0
 40
4.0
 40
4.0
 40
5.0
 40
5.0
 40
5.0
 40
6.0
 40
6.0
 40
6.0
 40
7.0
 40
7.0
 40
7.0
 40
8.0
 40
8.0
 40
8.0
 40
9.0
 40
9.0
 40
9.0
 40
10.0
 40
10.0
 40
10.0
 40
11.0
 40
11.0
 40
11.0
 40
12.0
 40
12.0
 40
12.0
 40
13.0
 40
13.0
 40
13.0
 40
14.0
 40
14.0
 40
14.0
 40
15.0
 40
15.0
 40
15.0
 40
15.0
 10
98.99688582594523
 20
-156.7105034330446
 30
0.0
 10
98.99688582594523
 20
-156.7105034330446
 30
0.0
 10
99.73310273114312
 20
-156.7105034330446
 30
0.0
 10
99.73310273114312
 20
-156.7105034330446
 30
0.0
 10
99.73310273114312
 20
-156.7105034330446
 30
0.0
 10
99.73310273114312
 20
-156.8355603991592
 30
0.0
 10
99.73310273114312
 20
-156.8355603991592
 30
0.0
 10
99.73310273114312
 20
-156.8355603991592
 30
0.0
 10
99.40306258365618
 20
-156.8355603991592
 30
0.0
 10
99.40306258365618
 20
-156.8355603991592
 30
0.0
 10
99.40306258365618
 20
-156.8355603991592
 30
0.0
 10
99.40306258365618
 20
-157.1104790188821
 30
0.0
 10
99.40306258365618
 20
-157.1104790188821
 30
0.0
 10
99.40306258365618
 20
-157.1104790188821
 30
0.0
 10
99.24665524862584
 20
-157.1104790188821
 30
0.0
 10
99.24665524862584
 20
-157.1104790188821
 30
0.0
 10
99.24665524862584
 20
-157.1104790188821
 30
0.0
 10
99.24665524862584
 20
-156.8355603991592
 30
0.0
 10
99.24665524862584
 20
-156.8355603991592
 30
0.0
 10
99.24665524862584
 20
-156.8355603991592
 30
0.0
 10
98.98207191535866
 20
-156.8355603991592
 30
0.0
 10
98.98207191535866
 20
-156.8355603991592
 30
0.0
 10
98.95657820876781
 20
-156.9644069703075
 30
0.0
 10
98.90593530513463
 20
-157.0553574911181
 30
0.0
 10
98.80878361245058
 20
-157.1380397827641
 30
0.0
 10
98.80878361245058
 20
-157.1380397827641
 30
0.0
 10
98.68579370362717
 20
-157.0302082940758
 30
0.0
 10
98.68579370362717
 20
-157.0302082940758
 30
0.0
 10
98.82118595619748
 20
-156.9199652385478
 30
0.0
 10
98.84461260549719
 20
-156.7825059286863
 30
0.0
 10
98.84461260549719
 20
-156.7084363757535
 30
0.0
 10
98.84461260549719
 20
-156.7084363757535
 30
0.0
 10
98.84461260549719
 20
-156.4652126344948
 30
0.0
 10
98.84461260549719
 20
-156.4652126344948
 30
0.0
 10
99.31417912013674
 20
-156.4652126344948
 30
0.0
 10
99.48126625117135
 20
-156.4249050173174
 30
0.0
 10
99.6252712424548
 20
-156.3825303428488
 30
0.0
 10
99.6252712424548
 20
-156.3825303428488
 30
0.0
 10
99.6845268848011
 20
-156.5203341622588
 30
0.0
 10
99.6845268848011
 20
-156.5203341622588
 30
0.0
 10
99.41374237966046
 20
-156.5899250910608
 30
0.0
 10
99.0985161427601
 20
-156.5944037151917
 30
0.0
 10
98.99688582594523
 20
-156.5944037151917
 30
0.0
 10
98.99688582594523
 20
-156.5944037151917
 30
0.0
 10
98.99688582594523
 20
-156.7105034330446
 30
0.0
 10
98.99688582594523
 20
-156.7105034330446
 30
0.0
  0
SPLINE
  5
135
330
DB
100
AcDbEntity
  8
_U+30EC_U+30A4_U+30E4_U+30FC 1
370
     0
100
AcDbSpline
210
0.0
220
0.0
230
1.0
 70
    11
 71
     3
 72
    17
 73
    13
 74
     0
 42
0.0000000001
 43
0.0000000001
 12
1.0
 22
0.0
 32
0.0
 13
1.0
 23
0.0
 33
0.0
 40
0.0
 40
0.0
 40
0.0
 40
0.0
 40
1.0
 40
1.0
 40
1.0
 40
2.0
 40
2.0
 40
2.0
 40
3.0
 40
3.0
 40
3.0
 40
4.0
 40
4.0
 40
4.0
 40
4.0
 10
99.10919593876437
 20
-158.0623589014566
 30
0.0
 10
99.32899303072331
 20
-158.1746690142758
 30
0.0
 10
99.59564342128165
 20
-158.2125650646135
 30
0.0
 10
99.72448999243
 20
-158.2232448606178
 30
0.0
 10
99.72448999243
 20
-158.2232448606178
 30
0.0
 10
99.65489906362795
 20
-158.377585138357
 30
0.0
 10
99.65489906362795
 20
-158.377585138357
 30
0.0
 10
99.5343207216442
 20
-158.3627712277704
 30
0.0
 10
99.27180444566817
 20
-158.322463610593
 30
0.0
 10
99.0075656219495
 20
-158.1767360715669
 30
0.0
 10
99.0075656219495
 20
-158.1767360715669
 30
0.0
 10
99.10919593876437
 20
-158.0623589014566
 30
0.0
 10
99.10919593876437
 20
-158.0623589014566
 30
0.0
  0
HATCH
  5
136
330
DB
100
AcDbEntity
  8
_U+30EC_U+30A4_U+30E4_U+30FC 1
 62
    12
420
 15007761
100
AcDbHatch
 10
0.0
 20
0.0
 30
0.0
210
0.0
220
0.0
230
1.0
  2
SOLID
 70
     1
 71
     0
 91
        7
 92
        1
 93
        1
 72
     4
 94
        3
 73
     0
 74
     1
 95
       50
 96
       46
 40
0.0
 40
0.0
 40
0.0
 40
0.0
 40
1.0
 40
1.0
 40
1.0
 40
2.0
 40
2.0
 40
2.0
 40
3.0
 40
3.0
 40
3.0
 40
4.0
 40
4.0
 40
4.0
 40
5.0
 40
5.0
 40
5.0
 40
6.0
 40
6.0
 40
6.0
 40
7.0
 40
7.0
 40
7.0
 40
8.0
 40
8.0
 40
8.0
 40
9.0
 40
9.0
 40
9.0
 40
10.0
 40
10.0
 40
10.0
 40
11.0
 40
11.0
 40
11.0
 40
12.0
 40
12.0
 40
12.0
 40
13.0
 40
13.0
 40
13.0
 40
14.0
 40
14.0
 40
14.0
 40
15.0
 40
15.0
 40
15.0
 40
15.0
 10
98.08944767513042
 20
-156.7105034330446
 10
98.08944767513042
 20
-156.7105034330446
 10
98.74091523139117
 20
-156.7105034330446
 10
98.74091523139117
 20
-156.7105034330446
 10
98.74091523139117
 20
-156.7105034330446
 10
98.74091523139117
 20
-156.8355603991592
 10
98.74091523139117
 20
-156.8355603991592
 10
98.74091523139117
 20
-156.8355603991592
 10
98.46392955437707
 20
-156.8355603991592
 10
98.46392955437707
 20
-156.8355603991592
 10
98.46392955437707
 20
-156.8355603991592
 10
98.46392955437707
 20
-157.1104790188821
 10
98.46392955437707
 20
-157.1104790188821
 10
98.46392955437707
 20
-157.1104790188821
 10
98.30304359521591
 20
-157.1104790188821
 10
98.30304359521591
 20
-157.1104790188821
 10
98.30304359521591
 20
-157.1104790188821
 10
98.30304359521591
 20
-156.8355603991592
 10
98.30304359521591
 20
-156.8355603991592
 10
98.30304359521591
 20
-156.8355603991592
 10
98.08290199370845
 20
-156.8355603991592
 10
98.08290199370845
 20
-156.8355603991592
 10
98.07256670725269
 20
-156.9051513279612
 10
98.04707300066185
 20
-157.0997992228778
 10
97.89273272292266
 20
-157.2500053860347
 10
97.89273272292266
 20
-157.2500053860347
 10
97.76974281409923
 20
-157.1401068400553
 10
97.76974281409923
 20
-157.1401068400553
 10
97.8906656656315
 20
-157.0405435805315
 10
97.93269583055155
 20
-156.8355603991592
 10
97.93269583055155
 20
-156.7528781075132
 10
97.93269583055155
 20
-156.7528781075132
 10
97.93269583055155
 20
-156.467279691786
 10
97.93269583055155
 20
-156.467279691786
 10
98.4174207653262
 20
-156.467279691786
 10
98.5717610430654
 20
-156.4207709027351
 10
98.66684567845829
 20
-156.3932101388531
 10
98.66684567845829
 20
-156.3932101388531
 10
98.71990014893115
 20
-156.5327365060057
 10
98.71990014893115
 20
-156.5327365060057
 10
98.51043834342795
 20
-156.5816568618962
 10
98.34748532697563
 20
-156.591992148352
 10
98.08944767513042
 20
-156.5964707724828
 10
98.08944767513042
 20
-156.5964707724828
 10
98.08944767513042
 20
-156.7105034330446
 10
98.08944767513042
 20
-156.7105034330446
 97
        0
 97
        0
 92
        1
 93
        1
 72
     4
 94
        3
 73
     0
 74
     1
 95
       32
 96
       28
 40
0.0
 40
0.0
 40
0.0
 40
0.0
 40
1.0
 40
1.0
 40
1.0
 40
2.0
 40
2.0
 40
2.0
 40
3.0
 40
3.0
 40
3.0
 40
4.0
 40
4.0
 40
4.0
 40
5.0
 40
5.0
 40
5.0
 40
6.0
 40
6.0
 40
6.0
 40
7.0
 40
7.0
 40
7.0
 40
8.0
 40
8.0
 40
8.0
 40
9.0
 40
9.0
 40
9.0
 40
9.0
 10
98.00469832619328
 20
-158.0561577295832
 10
98.00469832619328
 20
-158.0561577295832
 10
98.00469832619328
 20
-157.156987807933
 10
98.00469832619328
 20
-157.156987807933
 10
98.00469832619328
 20
-157.156987807933
 10
99.5026258431799
 20
-157.156987807933
 10
99.5026258431799
 20
-157.156987807933
 10
99.5026258431799
 20
-157.156987807933
 10
99.5026258431799
 20
-158.0561577295832
 10
99.5026258431799
 20
-158.0561577295832
 10
99.5026258431799
 20
-158.0561577295832
 10
98.35816512297991
 20
-158.0561577295832
 10
98.35816512297991
 20
-158.0561577295832
 10
98.35816512297991
 20
-158.0561577295832
 10
98.46392955437707
 20
-158.1660562755627
 10
98.46392955437707
 20
-158.1660562755627
 10
98.29890948063361
 20
-158.2611409109556
 10
98.13388940689015
 20
-158.322463610593
 10
97.83761119515866
 20
-158.3734510237747
 10
97.83761119515866
 20
-158.3734510237747
 10
97.77215438093891
 20
-158.2211778033267
 10
97.77215438093891
 20
-158.2211778033267
 10
98.15077037476787
 20
-158.1681233328538
 10
98.27341577404276
 20
-158.1005994613429
 10
98.35368649884909
 20
-158.0561577295832
 10
98.35368649884909
 20
-158.0561577295832
 10
98.00469832619328
 20
-158.0561577295832
 10
98.00469832619328
 20
-158.0561577295832
 97
        0
 97
        0
 92
        1
 93
        4
 72
     1
 10
99.33312714530561
 20
-157.2903130032122
 11
98.17385251451904
 21
-157.2903130032122
 72
     1
 10
98.17385251451904
 20
-157.2903130032122
 11
98.17385251451904
 21
-157.4191595743605
 72
     1
 10
98.17385251451904
 20
-157.4191595743605
 11
99.33312714530561
 21
-157.4191595743605
 72
     1
 10
99.33312714530561
 20
-157.4191595743605
 11
99.33312714530561
 21
-157.2903130032122
 97
        0
 92
        1
 93
        4
 72
     1
 10
99.33312714530561
 20
-157.5294026298885
 11
98.17385251451904
 21
-157.5294026298885
 72
     1
 10
98.17385251451904
 20
-157.5294026298885
 11
98.17385251451904
 21
-157.6709960543322
 72
     1
 10
98.17385251451904
 20
-157.6709960543322
 11
99.33312714530561
 21
-157.6709960543322
 72
     1
 10
99.33312714530561
 20
-157.6709960543322
 11
99.33312714530561
 21
-157.5294026298885
 97
        0
 92
        1
 93
        4
 72
     1
 10
99.33312714530561
 20
-157.7808946003117
 11
98.17385251451904
 21
-157.7808946003117
 72
     1
 10
98.17385251451904
 20
-157.7808946003117
 11
98.17385251451904
 21
-157.9207654770129
 72
     1
 10
98.17385251451904
 20
-157.9207654770129
 11
99.33312714530561
 21
-157.9207654770129
 72
     1
 10
99.33312714530561
 20
-157.9207654770129
 11
99.33312714530561
 21
-157.7808946003117
 97
        0
 92
        1
 93
        1
 72
     4
 94
        3
 73
     0
 74
     1
 95
       50
 96
       46
 40
0.0
 40
0.0
 40
0.0
 40
0.0
 40
1.0
 40
1.0
 40
1.0
 40
2.0
 40
2.0
 40
2.0
 40
3.0
 40
3.0
 40
3.0
 40
4.0
 40
4.0
 40
4.0
 40
5.0
 40
5.0
 40
5.0
 40
6.0
 40
6.0
 40
6.0
 40
7.0
 40
7.0
 40
7.0
 40
8.0
 40
8.0
 40
8.0
 40
9.0
 40
9.0
 40
9.0
 40
10.0
 40
10.0
 40
10.0
 40
11.0
 40
11.0
 40
11.0
 40
12.0
 40
12.0
 40
12.0
 40
13.0
 40
13.0
 40
13.0
 40
14.0
 40
14.0
 40
14.0
 40
15.0
 40
15.0
 40
15.0
 40
15.0
 10
98.99688582594523
 20
-156.7105034330446
 10
98.99688582594523
 20
-156.7105034330446
 10
99.73310273114312
 20
-156.7105034330446
 10
99.73310273114312
 20
-156.7105034330446
 10
99.73310273114312
 20
-156.7105034330446
 10
99.73310273114312
 20
-156.8355603991592
 10
99.73310273114312
 20
-156.8355603991592
 10
99.73310273114312
 20
-156.8355603991592
 10
99.40306258365618
 20
-156.8355603991592
 10
99.40306258365618
 20
-156.8355603991592
 10
99.40306258365618
 20
-156.8355603991592
 10
99.40306258365618
 20
-157.1104790188821
 10
99.40306258365618
 20
-157.1104790188821
 10
99.40306258365618
 20
-157.1104790188821
 10
99.24665524862584
 20
-157.1104790188821
 10
99.24665524862584
 20
-157.1104790188821
 10
99.24665524862584
 20
-157.1104790188821
 10
99.24665524862584
 20
-156.8355603991592
 10
99.24665524862584
 20
-156.8355603991592
 10
99.24665524862584
 20
-156.8355603991592
 10
98.98207191535866
 20
-156.8355603991592
 10
98.98207191535866
 20
-156.8355603991592
 10
98.95657820876781
 20
-156.9644069703075
 10
98.90593530513463
 20
-157.0553574911181
 10
98.80878361245058
 20
-157.1380397827641
 10
98.80878361245058
 20
-157.1380397827641
 10
98.68579370362717
 20
-157.0302082940758
 10
98.68579370362717
 20
-157.0302082940758
 10
98.82118595619748
 20
-156.9199652385478
 10
98.84461260549719
 20
-156.7825059286863
 10
98.84461260549719
 20
-156.7084363757535
 10
98.84461260549719
 20
-156.7084363757535
 10
98.84461260549719
 20
-156.4652126344948
 10
98.84461260549719
 20
-156.4652126344948
 10
99.31417912013674
 20
-156.4652126344948
 10
99.48126625117135
 20
-156.4249050173174
 10
99.6252712424548
 20
-156.3825303428488
 10
99.6252712424548
 20
-156.3825303428488
 10
99.6845268848011
 20
-156.5203341622588
 10
99.6845268848011
 20
-156.5203341622588
 10
99.41374237966046
 20
-156.5899250910608
 10
99.0985161427601
 20
-156.5944037151917
 10
98.99688582594523
 20
-156.5944037151917
 10
98.99688582594523
 20
-156.5944037151917
 10
98.99688582594523
 20
-156.7105034330446
 10
98.99688582594523
 20
-156.7105034330446
 97
        0
 97
        0
 92
        1
 93
        1
 72
     4
 94
        3
 73
     0
 74
     1
 95
       17
 96
       13
 40
0.0
 40
0.0
 40
0.0
 40
0.0
 40
1.0
 40
1.0
 40
1.0
 40
2.0
 40
2.0
 40
2.0
 40
3.0
 40
3.0
 40
3.0
 40
4.0
 40
4.0
 40
4.0
 40
4.0
 10
99.10919593876437
 20
-158.0623589014566
 10
99.32899303072331
 20
-158.1746690142758
 10
99.59564342128165
 20
-158.2125650646135
 10
99.72448999243
 20
-158.2232448606178
 10
99.72448999243
 20
-158.2232448606178
 10
99.65489906362795
 20
-158.377585138357
 10
99.65489906362795
 20
-158.377585138357
 10
99.5343207216442
 20
-158.3627712277704
 10
99.27180444566817
 20
-158.322463610593
 10
99.0075656219495
 20
-158.1767360715669
 10
99.0075656219495
 20
-158.1767360715669
 10
99.10919593876437
 20
-158.0623589014566
 10
99.10919593876437
 20
-158.0623589014566
 97
        0
 97
        0
 75
     2
 76
     1
 98
        0
  0
ENDBLK
  5
DE
330
DB
100
AcDbEntity
  8
0
100
AcDbBlockEnd
  0
ENDSEC
  0
SECTION
  2
ENTITIES
  0
INSERT
  5
42
330
1F
100
AcDbEntity
  8
_U+30EC_U+30A4_U+30E4_U+30FC 1
100
AcDbBlockReference
  2
block 2
 10
0.0
 20
0.0
 30
0.0
  0
INSERT
  5
4A
330
1F
100
AcDbEntity
  8
_U+30EC_U+30A4_U+30E4_U+30FC 1
100
AcDbBlockReference
  2
block 3
 10
0.0
 20
0.0
 30
0.0
  0
POLYLINE
  5
4F
330
1F
100
AcDbEntity
  8
_U+30EC_U+30A4_U+30E4_U+30FC 1
 62
   179
420
  2234388
370
     9
100
AcDb2dPolyline
 66
     1
 10
0.0
 20
0.0
 30
0.0
  0
VERTEX
  5
50
330
4F
100
AcDbEntity
  8
_U+30EC_U+30A4_U+30E4_U+30FC 1
 62
   179
420
  2234388
370
     9
100
AcDbVertex
100
AcDb2dVertex
 10
81.72192821578946
 20
-157.2280536682397
 30
0.0
  0
VERTEX
  5
51
330
4F
100
AcDbEntity
  8
_U+30EC_U+30A4_U+30E4_U+30FC 1
 62
   179
420
  2234388
370
     9
100
AcDbVertex
100
AcDb2dVertex
 10
81.72192821578946
 20
-160.6884582965521
 30
0.0
  0
SEQEND
  5
52
330
4F
100
AcDbEntity
  8
_U+30EC_U+30A4_U+30E4_U+30FC 1
 62
   179
420
  2234388
370
     9
  0
POLYLINE
  5
53
330
1F
100
AcDbEntity
  8
_U+30EC_U+30A4_U+30E4_U+30FC 1
 62
   179
420
  2234388
370
     9
100
AcDb2dPolyline
 66
     1
 10
0.0
 20
0.0
 30
0.0
  0
VERTEX
  5
54
330
53
100
AcDbEntity
  8
_U+30EC_U+30A4_U+30E4_U+30FC 1
 62
   179
420
  2234388
370
     9
100
AcDbVertex
100
AcDb2dVertex
 10
121.7249774204694
 20
-158.2284663334626
 30
0.0
  0
VERTEX
  5
55
330
53
100
AcDbEntity
  8
_U+30EC_U+30A4_U+30E4_U+30FC 1
 62
   179
420
  2234388
370
     9
100
AcDbVertex
100
AcDb2dVertex
 10
121.7249774204694
 20
-160.6883937010117
 30
0.0
  0
SEQEND
  5
56
330
53
100
AcDbEntity
  8
_U+30EC_U+30A4_U+30E4_U+30FC 1
 62
   179
420
  2234388
370
     9
  0
SPLINE
  5
57
330
1F
100
AcDbEntity
  8
_U+30EC_U+30A4_U+30E4_U+30FC 1
 62
   179
420
  2234388
370
     9
100
AcDbSpline
210
0.0
220
0.0
230
1.0
 70
    11
 71
     3
 72
    17
 73
    13
 74
     0
 42
0.0000000001
 43
0.0000000001
 12
1.0
 22
0.0
 32
0.0
 13
1.0
 23
0.0
 33
0.0
 40
0.0
 40
0.0
 40
0.0
 40
0.0
 40
1.0
 40
1.0
 40
1.0
 40
2.0
 40
2.0
 40
2.0
 40
3.0
 40
3.0
 40
3.0
 40
4.0
 40
4.0
 40
4.0
 40
4.0
 10
98.7210844005042
 20
-139.3531972748677
 30
0.0
 10
98.66604900012733
 20
-139.3531972748677
 30
0.0
 10
98.62124122697261
 20
-139.3980050480227
 30
0.0
 10
98.62124122697261
 20
-139.4530404483995
 30
0.0
 10
98.62124122697261
 20
-139.5080758487764
 30
0.0
 10
98.66604900012733
 20
-139.5528728560081
 30
0.0
 10
98.7210844005042
 20
-139.5528728560081
 30
0.0
 10
98.77610903495767
 20
-139.5528728560081
 30
0.0
 10
98.8209168081127
 20
-139.5080758487764
 30
0.0
 10
98.8209168081127
 20
-139.4530404483995
 30
0.0
 10
98.8209168081127
 20
-139.3980050480227
 30
0.0
 10
98.77610903495767
 20
-139.3531972748677
 30
0.0
 10
98.7210844005042
 20
-139.3531972748677
 30
0.0
  0
POLYLINE
  5
58
330
1F
100
AcDbEntity
  8
_U+30EC_U+30A4_U+30E4_U+30FC 1
 62
   179
420
  2234388
370
     9
100
AcDb2dPolyline
 66
     1
 10
0.0
 20
0.0
 30
0.0
  0
VERTEX
  5
59
330
58
100
AcDbEntity
  8
_U+30EC_U+30A4_U+30E4_U+30FC 1
 62
   179
420
  2234388
370
     9
100
AcDbVertex
100
AcDb2dVertex
 10
104.7234634985316
 20
-139.4530942780165
 30
0.0
  0
VERTEX
  5
5A
330
58
100
AcDbEntity
  8
_U+30EC_U+30A4_U+30E4_U+30FC 1
 62
   179
420
  2234388
370
     9
100
AcDbVertex
100
AcDb2dVertex
 10
98.72340983995674
 20
-139.4530942780165
 30
0.0
  0
SEQEND
  5
5B
330
58
100
AcDbEntity
  8
_U+30EC_U+30A4_U+30E4_U+30FC 1
 62
   179
420
  2234388
370
     9
  0
POLYLINE
  5
5C
330
1F
100
AcDbEntity
  8
_U+30EC_U+30A4_U+30E4_U+30FC 1
 62
   179
420
  2234388
370
     9
100
AcDb2dPolyline
 66
     1
 10
0.0
 20
0.0
 30
0.0
  0
VERTEX
  5
5D
330
5C
100
AcDbEntity
  8
_U+30EC_U+30A4_U+30E4_U+30FC 1
 62
   179
420
  2234388
370
     9
100
AcDbVertex
100
AcDb2dVertex
 10
98.7210844005042
 20
-137.9930520454442
 30
0.0
  0
VERTEX
  5
5E
330
5C
100
AcDbEntity
  8
_U+30EC_U+30A4_U+30E4_U+30FC 1
 62
   179
420
  2234388
370
     9
100
AcDbVertex
100
AcDb2dVertex
 10
98.7210844005042
 20
-140.4529794129933
 30
0.0
  0
SEQEND
  5
5F
330
5C
100
AcDbEntity
  8
_U+30EC_U+30A4_U+30E4_U+30FC 1
 62
   179
420
  2234388
370
     9
  0
SPLINE
  5
60
330
1F
100
AcDbEntity
  8
_U+30EC_U+30A4_U+30E4_U+30FC 1
 62
   179
420
  2234388
370
     9
100
AcDbSpline
210
0.0
220
0.0
230
1.0
 70
    11
 71
     3
 72
    17
 73
    13
 74
     0
 42
0.0000000001
 43
0.0000000001
 12
1.0
 22
0.0
 32
0.0
 13
1.0
 23
0.0
 33
0.0
 40
0.0
 40
0.0
 40
0.0
 40
0.0
 40
1.0
 40
1.0
 40
1.0
 40
2.0
 40
2.0
 40
2.0
 40
3.0
 40
3.0
 40
3.0
 40
4.0
 40
4.0
 40
4.0
 40
4.0
 10
104.7255413217461
 20
-139.3531972748677
 30
0.0
 10
104.6705059213693
 20
-139.3531972748677
 30
0.0
 10
104.6256981482146
 20
-139.3980050480227
 30
0.0
 10
104.6256981482146
 20
-139.4530404483995
 30
0.0
 10
104.6256981482146
 20
-139.5080758487764
 30
0.0
 10
104.6705059213693
 20
-139.5528728560081
 30
0.0
 10
104.7255413217461
 20
-139.5528728560081
 30
0.0
 10
104.7805659561996
 20
-139.5528728560081
 30
0.0
 10
104.8253737293546
 20
-139.5080758487764
 30
0.0
 10
104.8253737293546
 20
-139.4530404483995
 30
0.0
 10
104.8253737293546
 20
-139.3980050480227
 30
0.0
 10
104.7805659561996
 20
-139.3531972748677
 30
0.0
 10
104.7255413217461
 20
-139.3531972748677
 30
0.0
  0
POLYLINE
  5
61
330
1F
100
AcDbEntity
  8
_U+30EC_U+30A4_U+30E4_U+30FC 1
 62
   179
420
  2234388
370
     9
100
AcDb2dPolyline
 66
     1
 10
0.0
 20
0.0
 30
0.0
  0
VERTEX
  5
62
330
61
100
AcDbEntity
  8
_U+30EC_U+30A4_U+30E4_U+30FC 1
 62
   179
420
  2234388
370
     9
100
AcDbVertex
100
AcDb2dVertex
 10
104.7255413217461
 20
-137.9930520454442
 30
0.0
  0
VERTEX
  5
63
330
61
100
AcDbEntity
  8
_U+30EC_U+30A4_U+30E4_U+30FC 1
 62
   179
420
  2234388
370
     9
100
AcDbVertex
100
AcDb2dVertex
 10
104.7255413217461
 20
-140.4529794129933
 30
0.0
  0
SEQEND
  5
64
330
61
100
AcDbEntity
  8
_U+30EC_U+30A4_U+30E4_U+30FC 1
 62
   179
420
  2234388
370
     9
  0
INSERT
  5
66
330
1F
100
AcDbEntity
  8
_U+30EC_U+30A4_U+30E4_U+30FC 1
100
AcDbBlockReference
  2
block 4
 10
0.0
 20
0.0
 30
0.0
  0
SPLINE
  5
6C
330
1F
100
AcDbEntity
  8
_U+30EC_U+30A4_U+30E4_U+30FC 1
 62
   179
420
  2234388
370
     9
100
AcDbSpline
210
0.0
220
0.0
230
1.0
 70
    11
 71
     3
 72
    17
 73
    13
 74
     0
 42
0.0000000001
 43
0.0000000001
 12
1.0
 22
0.0
 32
0.0
 13
1.0
 23
0.0
 33
0.0
 40
0.0
 40
0.0
 40
0.0
 40
0.0
 40
1.0
 40
1.0
 40
1.0
 40
2.0
 40
2.0
 40
2.0
 40
3.0
 40
3.0
 40
3.0
 40
4.0
 40
4.0
 40
4.0
 40
4.0
 10
125.0956803750846
 20
-154.6879847669649
 30
0.0
 10
125.0956803750846
 20
-154.7433754428137
 30
0.0
 10
125.1404666163928
 20
-154.7878279404968
 30
0.0
 10
125.1955020167697
 20
-154.7878279404968
 30
0.0
 10
125.2505374171466
 20
-154.7878279404968
 30
0.0
 10
125.2953451903016
 20
-154.7433754428137
 30
0.0
 10
125.2953451903016
 20
-154.6879847669649
 30
0.0
 10
125.2953451903016
 20
-154.6329601325115
 30
0.0
 10
125.2505374171466
 20
-154.5881523593564
 30
0.0
 10
125.1955020167697
 20
-154.5881523593564
 30
0.0
 10
125.1404666163928
 20
-154.5881523593564
 30
0.0
 10
125.0956803750846
 20
-154.6329601325115
 30
0.0
 10
125.0956803750846
 20
-154.6879847669649
 30
0.0
  0
SPLINE
  5
6D
330
1F
100
AcDbEntity
  8
_U+30EC_U+30A4_U+30E4_U+30FC 1
 62
   179
420
  2234388
370
     9
100
AcDbSpline
210
0.0
220
0.0
230
1.0
 70
    11
 71
     3
 72
    17
 73
    13
 74
     0
 42
0.0000000001
 43
0.0000000001
 12
1.0
 22
0.0
 32
0.0
 13
1.0
 23
0.0
 33
0.0
 40
0.0
 40
0.0
 40
0.0
 40
0.0
 40
1.0
 40
1.0
 40
1.0
 40
2.0
 40
2.0
 40
2.0
 40
3.0
 40
3.0
 40
3.0
 40
4.0
 40
4.0
 40
4.0
 40
4.0
 10
125.0956803750846
 20
-155.6881067522564
 30
0.0
 10
125.0956803750846
 20
-155.7431421526332
 30
0.0
 10
125.1404666163928
 20
-155.7879499257883
 30
0.0
 10
125.1955020167697
 20
-155.7879499257883
 30
0.0
 10
125.2505374171466
 20
-155.7879499257883
 30
0.0
 10
125.2953451903016
 20
-155.7431421526332
 30
0.0
 10
125.2953451903016
 20
-155.6881067522564
 30
0.0
 10
125.2953451903016
 20
-155.6330821178029
 30
0.0
 10
125.2505374171466
 20
-155.5882743446479
 30
0.0
 10
125.1955020167697
 20
-155.5882743446479
 30
0.0
 10
125.1404666163928
 20
-155.5882743446479
 30
0.0
 10
125.0956803750846
 20
-155.6330821178029
 30
0.0
 10
125.0956803750846
 20
-155.6881067522564
 30
0.0
  0
POLYLINE
  5
6E
330
1F
100
AcDbEntity
  8
_U+30EC_U+30A4_U+30E4_U+30FC 1
 62
   179
420
  2234388
370
     9
100
AcDb2dPolyline
 66
     1
 10
0.0
 20
0.0
 30
0.0
  0
VERTEX
  5
6F
330
6E
100
AcDbEntity
  8
_U+30EC_U+30A4_U+30E4_U+30FC 1
 62
   179
420
  2234388
370
     9
100
AcDbVertex
100
AcDb2dVertex
 10
125.1956096760036
 20
-154.6859392415206
 30
0.0
  0
VERTEX
  5
70
330
6E
100
AcDbEntity
  8
_U+30EC_U+30A4_U+30E4_U+30FC 1
 62
   179
420
  2234388
370
     9
100
AcDbVertex
100
AcDb2dVertex
 10
125.1956096760036
 20
-141.6857314709262
 30
0.0
  0
SEQEND
  5
71
330
6E
100
AcDbEntity
  8
_U+30EC_U+30A4_U+30E4_U+30FC 1
 62
   179
420
  2234388
370
     9
  0
POLYLINE
  5
72
330
1F
100
AcDbEntity
  8
_U+30EC_U+30A4_U+30E4_U+30FC 1
 62
   179
420
  2234388
370
     9
100
AcDb2dPolyline
 66
     1
 10
0.0
 20
0.0
 30
0.0
  0
VERTEX
  5
73
330
72
100
AcDbEntity
  8
_U+30EC_U+30A4_U+30E4_U+30FC 1
 62
   179
420
  2234388
370
     9
100
AcDbVertex
100
AcDb2dVertex
 10
125.1956096760036
 20
-155.6881067522564
 30
0.0
  0
VERTEX
  5
74
330
72
100
AcDbEntity
  8
_U+30EC_U+30A4_U+30E4_U+30FC 1
 62
   179
420
  2234388
370
     9
100
AcDbVertex
100
AcDb2dVertex
 10
125.1956096760036
 20
-154.6879847669649
 30
0.0
  0
SEQEND
  5
75
330
72
100
AcDbEntity
  8
_U+30EC_U+30A4_U+30E4_U+30FC 1
 62
   179
420
  2234388
370
     9
  0
POLYLINE
  5
76
330
1F
100
AcDbEntity
  8
_U+30EC_U+30A4_U+30E4_U+30FC 1
 62
   179
420
  2234388
370
     9
100
AcDb2dPolyline
 66
     1
 10
0.0
 20
0.0
 30
0.0
  0
VERTEX
  5
77
330
76
100
AcDbEntity
  8
_U+30EC_U+30A4_U+30E4_U+30FC 1
 62
   179
420
  2234388
370
     9
100
AcDbVertex
100
AcDb2dVertex
 10
123.9098785090616
 20
-154.6882969787433
 30
0.0
  0
VERTEX
  5
78
330
76
100
AcDbEntity
  8
_U+30EC_U+30A4_U+30E4_U+30FC 1
 62
   179
420
  2234388
370
     9
100
AcDbVertex
100
AcDb2dVertex
 10
126.3697843447639
 20
-154.6882969787433
 30
0.0
  0
SEQEND
  5
79
330
76
100
AcDbEntity
  8
_U+30EC_U+30A4_U+30E4_U+30FC 1
 62
   179
420
  2234388
370
     9
  0
POLYLINE
  5
7A
330
1F
100
AcDbEntity
  8
_U+30EC_U+30A4_U+30E4_U+30FC 1
 62
   179
420
  2234388
370
     9
100
AcDb2dPolyline
 66
     1
 10
0.0
 20
0.0
 30
0.0
  0
VERTEX
  5
7B
330
7A
100
AcDbEntity
  8
_U+30EC_U+30A4_U+30E4_U+30FC 1
 62
   179
420
  2234388
370
     9
100
AcDbVertex
100
AcDb2dVertex
 10
123.9098785090616
 20
-155.6881067522564
 30
0.0
  0
VERTEX
  5
7C
330
7A
100
AcDbEntity
  8
_U+30EC_U+30A4_U+30E4_U+30FC 1
 62
   179
420
  2234388
370
     9
100
AcDbVertex
100
AcDb2dVertex
 10
126.3697843447639
 20
-155.6881067522564
 30
0.0
  0
SEQEND
  5
7D
330
7A
100
AcDbEntity
  8
_U+30EC_U+30A4_U+30E4_U+30FC 1
 62
   179
420
  2234388
370
     9
  0
SPLINE
  5
7E
330
1F
100
AcDbEntity
  8
_U+30EC_U+30A4_U+30E4_U+30FC 1
 62
   179
420
  2234388
370
     9
100
AcDbSpline
210
0.0
220
0.0
230
1.0
 70
    11
 71
     3
 72
    17
 73
    13
 74
     0
 42
0.0000000001
 43
0.0000000001
 12
1.0
 22
0.0
 32
0.0
 13
1.0
 23
0.0
 33
0.0
 40
0.0
 40
0.0
 40
0.0
 40
0.0
 40
1.0
 40
1.0
 40
1.0
 40
2.0
 40
2.0
 40
2.0
 40
3.0
 40
3.0
 40
3.0
 40
4.0
 40
4.0
 40
4.0
 40
4.0
 10
125.2955174450759
 20
-141.6837828387924
 30
0.0
 10
125.2955174450759
 20
-141.6287582043389
 30
0.0
 10
125.2507096719208
 20
-141.5839504311839
 30
0.0
 10
125.195674271544
 20
-141.5839504311839
 30
0.0
 10
125.1406388711671
 20
-141.5839504311839
 30
0.0
 10
125.0958310980121
 20
-141.6287582043389
 30
0.0
 10
125.0958310980121
 20
-141.6837828387924
 30
0.0
 10
125.0958310980121
 20
-141.7388182391693
 30
0.0
 10
125.1406388711671
 20
-141.7836260123243
 30
0.0
 10
125.195674271544
 20
-141.7836260123243
 30
0.0
 10
125.2507096719208
 20
-141.7836260123243
 30
0.0
 10
125.2955174450759
 20
-141.7388182391693
 30
0.0
 10
125.2955174450759
 20
-141.6837828387924
 30
0.0
  0
POLYLINE
  5
7F
330
1F
100
AcDbEntity
  8
_U+30EC_U+30A4_U+30E4_U+30FC 1
 62
   179
420
  2234388
370
     9
100
AcDb2dPolyline
 66
     1
 10
0.0
 20
0.0
 30
0.0
  0
VERTEX
  5
80
330
7F
100
AcDbEntity
  8
_U+30EC_U+30A4_U+30E4_U+30FC 1
 62
   179
420
  2234388
370
     9
100
AcDbVertex
100
AcDb2dVertex
 10
108.9171674668028
 20
-141.6837828387924
 30
0.0
  0
VERTEX
  5
81
330
7F
100
AcDbEntity
  8
_U+30EC_U+30A4_U+30E4_U+30FC 1
 62
   179
420
  2234388
370
     9
100
AcDbVertex
100
AcDb2dVertex
 10
126.3697843447639
 20
-141.6837828387924
 30
0.0
  0
SEQEND
  5
82
330
7F
100
AcDbEntity
  8
_U+30EC_U+30A4_U+30E4_U+30FC 1
 62
   179
420
  2234388
370
     9
  0
INSERT
  5
84
330
1F
100
AcDbEntity
  8
_U+30EC_U+30A4_U+30E4_U+30FC 1
100
AcDbBlockReference
  2
block 5
 10
0.0
 20
0.0
 30
0.0
  0
SPLINE
  5
8A
330
1F
100
AcDbEntity
  8
_U+30EC_U+30A4_U+30E4_U+30FC 1
 62
   179
420
  2234388
370
     9
100
AcDbSpline
210
0.0
220
0.0
230
1.0
 70
    11
 71
     3
 72
    17
 73
    13
 74
     0
 42
0.0000000001
 43
0.0000000001
 12
1.0
 22
0.0
 32
0.0
 13
1.0
 23
0.0
 33
0.0
 40
0.0
 40
0.0
 40
0.0
 40
0.0
 40
1.0
 40
1.0
 40
1.0
 40
2.0
 40
2.0
 40
2.0
 40
3.0
 40
3.0
 40
3.0
 40
4.0
 40
4.0
 40
4.0
 40
4.0
 10
110.1029693328258
 20
-147.6878844845624
 30
0.0
 10
110.1029693328258
 20
-147.7436304358831
 30
0.0
 10
110.1477555741341
 20
-147.7877276580943
 30
0.0
 10
110.2027909745109
 20
-147.7877276580943
 30
0.0
 10
110.2578263748878
 20
-147.7877276580943
 30
0.0
 10
110.3026341480428
 20
-147.7436304358831
 30
0.0
 10
110.3026341480428
 20
-147.6878844845624
 30
0.0
 10
110.3026341480428
 20
-147.6328598501089
 30
0.0
 10
110.2578263748878
 20
-147.5880520769539
 30
0.0
 10
110.2027909745109
 20
-147.5880520769539
 30
0.0
 10
110.1477555741341
 20
-147.5880520769539
 30
0.0
 10
110.1029693328258
 20
-147.6328598501089
 30
0.0
 10
110.1029693328258
 20
-147.6878844845624
 30
0.0
  0
POLYLINE
  5
8B
330
1F
100
AcDbEntity
  8
_U+30EC_U+30A4_U+30E4_U+30FC 1
 62
   179
420
  2234388
370
     9
100
AcDb2dPolyline
 66
     1
 10
0.0
 20
0.0
 30
0.0
  0
VERTEX
  5
8C
330
8B
100
AcDbEntity
  8
_U+30EC_U+30A4_U+30E4_U+30FC 1
 62
   179
420
  2234388
370
     9
100
AcDbVertex
100
AcDb2dVertex
 10
110.2028771018981
 20
-147.685838959118
 30
0.0
  0
VERTEX
  5
8D
330
8B
100
AcDbEntity
  8
_U+30EC_U+30A4_U+30E4_U+30FC 1
 62
   179
420
  2234388
370
     9
100
AcDbVertex
100
AcDb2dVertex
 10
110.2028771018981
 20
-141.6857960664669
 30
0.0
  0
SEQEND
  5
8E
330
8B
100
AcDbEntity
  8
_U+30EC_U+30A4_U+30E4_U+30FC 1
 62
   179
420
  2234388
370
     9
  0
POLYLINE
  5
8F
330
1F
100
AcDbEntity
  8
_U+30EC_U+30A4_U+30E4_U+30FC 1
 62
   179
420
  2234388
370
     9
100
AcDb2dPolyline
 66
     1
 10
0.0
 20
0.0
 30
0.0
  0
VERTEX
  5
90
330
8F
100
AcDbEntity
  8
_U+30EC_U+30A4_U+30E4_U+30FC 1
 62
   179
420
  2234388
370
     9
100
AcDbVertex
100
AcDb2dVertex
 10
108.9171674668028
 20
-147.6885950355062
 30
0.0
  0
VERTEX
  5
91
330
8F
100
AcDbEntity
  8
_U+30EC_U+30A4_U+30E4_U+30FC 1
 62
   179
420
  2234388
370
     9
100
AcDbVertex
100
AcDb2dVertex
 10
111.3770733025051
 20
-147.6885950355062
 30
0.0
  0
SEQEND
  5
92
330
8F
100
AcDbEntity
  8
_U+30EC_U+30A4_U+30E4_U+30FC 1
 62
   179
420
  2234388
370
     9
  0
SPLINE
  5
93
330
1F
100
AcDbEntity
  8
_U+30EC_U+30A4_U+30E4_U+30FC 1
 62
   179
420
  2234388
370
     9
100
AcDbSpline
210
0.0
220
0.0
230
1.0
 70
    11
 71
     3
 72
    17
 73
    13
 74
     0
 42
0.0000000001
 43
0.0000000001
 12
1.0
 22
0.0
 32
0.0
 13
1.0
 23
0.0
 33
0.0
 40
0.0
 40
0.0
 40
0.0
 40
0.0
 40
1.0
 40
1.0
 40
1.0
 40
2.0
 40
2.0
 40
2.0
 40
3.0
 40
3.0
 40
3.0
 40
4.0
 40
4.0
 40
4.0
 40
4.0
 10
110.3027848709703
 20
-141.6837828387924
 30
0.0
 10
110.3027848709703
 20
-141.6287582043389
 30
0.0
 10
110.2579770978153
 20
-141.5839504311839
 30
0.0
 10
110.2029416974384
 20
-141.5839504311839
 30
0.0
 10
110.1479062970616
 20
-141.5839504311839
 30
0.0
 10
110.1030985239065
 20
-141.6287582043389
 30
0.0
 10
110.1030985239065
 20
-141.6837828387924
 30
0.0
 10
110.1030985239065
 20
-141.7388182391693
 30
0.0
 10
110.1479062970616
 20
-141.7836260123243
 30
0.0
 10
110.2029416974384
 20
-141.7836260123243
 30
0.0
 10
110.2579770978153
 20
-141.7836260123243
 30
0.0
 10
110.3027848709703
 20
-141.7388182391693
 30
0.0
 10
110.3027848709703
 20
-141.6837828387924
 30
0.0
  0
INSERT
  5
95
330
1F
100
AcDbEntity
  8
_U+30EC_U+30A4_U+30E4_U+30FC 1
100
AcDbBlockReference
  2
block 6
 10
0.0
 20
0.0
 30
0.0
  0
SPLINE
  5
B0
330
1F
100
AcDbEntity
  8
_U+30EC_U+30A4_U+30E4_U+30FC 1
 62
   179
420
  2234388
370
     9
100
AcDbSpline
210
0.0
220
0.0
230
1.0
 70
    11
 71
     3
 72
    17
 73
    13
 74
     0
 42
0.0000000001
 43
0.0000000001
 12
1.0
 22
0.0
 32
0.0
 13
1.0
 23
0.0
 33
0.0
 40
0.0
 40
0.0
 40
0.0
 40
0.0
 40
1.0
 40
1.0
 40
1.0
 40
2.0
 40
2.0
 40
2.0
 40
3.0
 40
3.0
 40
3.0
 40
4.0
 40
4.0
 40
4.0
 40
4.0
 10
121.8248851895416
 20
-159.5886330947328
 30
0.0
 10
121.8248851895416
 20
-159.6436684951097
 30
0.0
 10
121.7800774163866
 20
-159.6884762682647
 30
0.0
 10
121.7250420160097
 20
-159.6884762682647
 30
0.0
 10
121.6700066156329
 20
-159.6884762682647
 30
0.0
 10
121.6251988424778
 20
-159.6436684951097
 30
0.0
 10
121.6251988424778
 20
-159.5886330947328
 30
0.0
 10
121.6251988424778
 20
-159.5336084602794
 30
0.0
 10
121.6700066156329
 20
-159.4888006871243
 30
0.0
 10
121.7250420160097
 20
-159.4888006871243
 30
0.0
 10
121.7800774163866
 20
-159.4888006871243
 30
0.0
 10
121.8248851895416
 20
-159.5336084602794
 30
0.0
 10
121.8248851895416
 20
-159.5886330947328
 30
0.0
  0
SPLINE
  5
B1
330
1F
100
AcDbEntity
  8
_U+30EC_U+30A4_U+30E4_U+30FC 1
 62
   179
420
  2234388
370
     9
100
AcDbSpline
210
0.0
220
0.0
230
1.0
 70
    11
 71
     3
 72
    17
 73
    13
 74
     0
 42
0.0000000001
 43
0.0000000001
 12
1.0
 22
0.0
 32
0.0
 13
1.0
 23
0.0
 33
0.0
 40
0.0
 40
0.0
 40
0.0
 40
0.0
 40
1.0
 40
1.0
 40
1.0
 40
2.0
 40
2.0
 40
2.0
 40
3.0
 40
3.0
 40
3.0
 40
4.0
 40
4.0
 40
4.0
 40
4.0
 10
81.8218359848617
 20
-159.5886330947328
 30
0.0
 10
81.8218359848617
 20
-159.6436684951097
 30
0.0
 10
81.77702821170635
 20
-159.6884762682647
 30
0.0
 10
81.72199281132949
 20
-159.6884762682647
 30
0.0
 10
81.66695741095262
 20
-159.6884762682647
 30
0.0
 10
81.62216040372098
 20
-159.6436684951097
 30
0.0
 10
81.62216040372098
 20
-159.5886330947328
 30
0.0
 10
81.62216040372098
 20
-159.5336084602794
 30
0.0
 10
81.66695741095262
 20
-159.4888006871243
 30
0.0
 10
81.72199281132949
 20
-159.4888006871243
 30
0.0
 10
81.77702821170635
 20
-159.4888006871243
 30
0.0
 10
81.8218359848617
 20
-159.5336084602794
 30
0.0
 10
81.8218359848617
 20
-159.5886330947328
 30
0.0
  0
POLYLINE
  5
B2
330
1F
100
AcDbEntity
  8
_U+30EC_U+30A4_U+30E4_U+30FC 1
 62
   179
420
  2234388
370
     9
100
AcDb2dPolyline
 66
     1
 10
0.0
 20
0.0
 30
0.0
  0
VERTEX
  5
B3
330
B2
100
AcDbEntity
  8
_U+30EC_U+30A4_U+30E4_U+30FC 1
 62
   179
420
  2234388
370
     9
100
AcDbVertex
100
AcDb2dVertex
 10
121.722931895025
 20
-159.5886330947328
 30
0.0
  0
VERTEX
  5
B4
330
B2
100
AcDbEntity
  8
_U+30EC_U+30A4_U+30E4_U+30FC 1
 62
   179
420
  2234388
370
     9
100
AcDbVertex
100
AcDb2dVertex
 10
81.72322012659643
 20
-159.5886330947328
 30
0.0
  0
SEQEND
  5
B5
330
B2
100
AcDbEntity
  8
_U+30EC_U+30A4_U+30E4_U+30FC 1
 62
   179
420
  2234388
370
     9
  0
POLYLINE
  5
B6
330
1F
100
AcDbEntity
  8
_U+30EC_U+30A4_U+30E4_U+30FC 1
 62
   179
420
  2234388
370
    25
100
AcDb2dPolyline
 66
     1
 10
0.0
 20
0.0
 30
0.0
  0
VERTEX
  5
B7
330
B6
100
AcDbEntity
  8
_U+30EC_U+30A4_U+30E4_U+30FC 1
 62
   179
420
  2234388
370
    25
100
AcDbVertex
100
AcDb2dVertex
 10
104.7255413217461
 20
-155.6881067522564
 30
0.0
  0
VERTEX
  5
B8
330
B6
100
AcDbEntity
  8
_U+30EC_U+30A4_U+30E4_U+30FC 1
 62
   179
420
  2234388
370
    25
100
AcDbVertex
100
AcDb2dVertex
 10
121.7251927389372
 20
-155.6881067522564
 30
0.0
  0
VERTEX
  5
B9
330
B6
100
AcDbEntity
  8
_U+30EC_U+30A4_U+30E4_U+30FC 1
 62
   179
420
  2234388
370
    25
100
AcDbVertex
100
AcDb2dVertex
 10
121.7251927389372
 20
-154.6879847669649
 30
0.0
  0
VERTEX
  5
BA
330
B6
100
AcDbEntity
  8
_U+30EC_U+30A4_U+30E4_U+30FC 1
 62
   179
420
  2234388
370
    25
100
AcDbVertex
100
AcDb2dVertex
 10
105.7256633070375
 20
-154.6879847669649
 30
0.0
  0
VERTEX
  5
BB
330
B6
100
AcDbEntity
  8
_U+30EC_U+30A4_U+30E4_U+30FC 1
 62
   179
420
  2234388
370
    25
100
AcDbVertex
100
AcDb2dVertex
 10
105.7256633070375
 20
-141.6838904980263
 30
0.0
  0
VERTEX
  5
BC
330
B6
100
AcDbEntity
  8
_U+30EC_U+30A4_U+30E4_U+30FC 1
 62
   179
420
  2234388
370
    25
100
AcDbVertex
100
AcDb2dVertex
 10
104.7255413217461
 20
-141.6838904980263
 30
0.0
  0
VERTEX
  5
BD
330
B6
100
AcDbEntity
  8
_U+30EC_U+30A4_U+30E4_U+30FC 1
 62
   179
420
  2234388
370
    25
100
AcDbVertex
100
AcDb2dVertex
 10
104.7255413217461
 20
-155.6881067522564
 30
0.0
  0
SEQEND
  5
BE
330
B6
100
AcDbEntity
  8
_U+30EC_U+30A4_U+30E4_U+30FC 1
 62
   179
420
  2234388
370
    25
  0
POLYLINE
  5
BF
330
1F
100
AcDbEntity
  8
_U+30EC_U+30A4_U+30E4_U+30FC 1
 62
   179
420
  2234388
370
    25
100
AcDb2dPolyline
 66
     1
 10
0.0
 20
0.0
 30
0.0
  0
VERTEX
  5
C0
330
BF
100
AcDbEntity
  8
_U+30EC_U+30A4_U+30E4_U+30FC 1
 62
   179
420
  2234388
370
    25
100
AcDbVertex
100
AcDb2dVertex
 10
98.71936185276157
 20
-141.6837828387924
 30
0.0
  0
VERTEX
  5
C1
330
BF
100
AcDbEntity
  8
_U+30EC_U+30A4_U+30E4_U+30FC 1
 62
   179
420
  2234388
370
    25
100
AcDbVertex
100
AcDb2dVertex
 10
97.71958437701868
 20
-141.6837828387924
 30
0.0
  0
VERTEX
  5
C2
330
BF
100
AcDbEntity
  8
_U+30EC_U+30A4_U+30E4_U+30FC 1
 62
   179
420
  2234388
370
    25
100
AcDbVertex
100
AcDb2dVertex
 10
97.71958437701868
 20
-154.687877107731
 30
0.0
  0
VERTEX
  5
C3
330
BF
100
AcDbEntity
  8
_U+30EC_U+30A4_U+30E4_U+30FC 1
 62
   179
420
  2234388
370
    25
100
AcDbVertex
100
AcDb2dVertex
 10
81.72534101350422
 20
-154.687877107731
 30
0.0
  0
VERTEX
  5
C4
330
BF
100
AcDbEntity
  8
_U+30EC_U+30A4_U+30E4_U+30FC 1
 62
   179
420
  2234388
370
    25
100
AcDbVertex
100
AcDb2dVertex
 10
81.72534101350422
 20
-155.6880098589458
 30
0.0
  0
VERTEX
  5
C5
330
BF
100
AcDbEntity
  8
_U+30EC_U+30A4_U+30E4_U+30FC 1
 62
   179
420
  2234388
370
    25
100
AcDbVertex
100
AcDb2dVertex
 10
98.71936185276157
 20
-155.6880098589458
 30
0.0
  0
VERTEX
  5
C6
330
BF
100
AcDbEntity
  8
_U+30EC_U+30A4_U+30E4_U+30FC 1
 62
   179
420
  2234388
370
    25
100
AcDbVertex
100
AcDb2dVertex
 10
98.71936185276157
 20
-141.6837828387924
 30
0.0
  0
SEQEND
  5
C7
330
BF
100
AcDbEntity
  8
_U+30EC_U+30A4_U+30E4_U+30FC 1
 62
   179
420
  2234388
370
    25
  0
POLYLINE
  5
C8
330
1F
100
AcDbEntity
  8
_U+30EC_U+30A4_U+30E4_U+30FC 1
370
     0
100
AcDb2dPolyline
 66
     1
 10
0.0
 20
0.0
 30
0.0
  0
VERTEX
  5
C9
330
C8
100
AcDbEntity
  8
_U+30EC_U+30A4_U+30E4_U+30FC 1
370
     0
100
AcDbVertex
100
AcDb2dVertex
 10
100.711316062333
 20
-149.6529669493489
 30
0.0
  0
VERTEX
  5
CA
330
C8
100
AcDbEntity
  8
_U+30EC_U+30A4_U+30E4_U+30FC 1
370
     0
100
AcDbVertex
100
AcDb2dVertex
 10
101.0344552529261
 20
-150.1126395803918
 30
0.0
  0
VERTEX
  5
CB
330
C8
100
AcDbEntity
  8
_U+30EC_U+30A4_U+30E4_U+30FC 1
370
     0
100
AcDbVertex
100
AcDb2dVertex
 10
100.7617544134218
 20
-149.2119947272369
 30
0.0
  0
VERTEX
  5
CC
330
C8
100
AcDbEntity
  8
_U+30EC_U+30A4_U+30E4_U+30FC 1
370
     0
100
AcDbVertex
100
AcDb2dVertex
 10
100.2089565450433
 20
-149.9672996146078
 30
0.0
  0
VERTEX
  5
CD
330
C8
100
AcDbEntity
  8
_U+30EC_U+30A4_U+30E4_U+30FC 1
370
     0
100
AcDbVertex
100
AcDb2dVertex
 10
100.711316062333
 20
-149.6529669493489
 30
0.0
  0
SEQEND
  5
CF
330
C8
100
AcDbEntity
  8
_U+30EC_U+30A4_U+30E4_U+30FC 1
370
     0
  0
HATCH
  5
CE
330
1F
100
AcDbEntity
  8
_U+30EC_U+30A4_U+30E4_U+30FC 1
 62
   179
420
  2234388
100
AcDbHatch
 10
0.0
 20
0.0
 30
0.0
210
0.0
220
0.0
230
1.0
  2
SOLID
 70
     1
 71
     0
 91
        1
 92
        1
 93
        4
 72
     1
 10
100.711316062333
 20
-149.6529669493489
 11
101.0344552529261
 21
-150.1126395803918
 72
     1
 10
101.0344552529261
 20
-150.1126395803918
 11
100.7617544134218
 21
-149.2119947272369
 72
     1
 10
100.7617544134218
 20
-149.2119947272369
 11
100.2089565450433
 21
-149.9672996146078
 72
     1
 10
100.2089565450433
 20
-149.9672996146078
 11
100.711316062333
 21
-149.6529669493489
 97
        0
 75
     2
 76
     1
 98
        0
  0
POLYLINE
  5
D0
330
1F
100
AcDbEntity
  8
_U+30EC_U+30A4_U+30E4_U+30FC 1
 62
   179
420
  2234388
370
     9
100
AcDb2dPolyline
 66
     1
 10
0.0
 20
0.0
 30
0.0
  0
VERTEX
  5
D1
330
D0
100
AcDbEntity
  8
_U+30EC_U+30A4_U+30E4_U+30FC 1
 62
   179
420
  2234388
370
     9
100
AcDbVertex
100
AcDb2dVertex
 10
100.711316062333
 20
-149.6529669493489
 30
0.0
  0
VERTEX
  5
D2
330
D0
100
AcDbEntity
  8
_U+30EC_U+30A4_U+30E4_U+30FC 1
 62
   179
420
  2234388
370
     9
100
AcDbVertex
100
AcDb2dVertex
 10
101.0344552529261
 20
-150.1126395803918
 30
0.0
  0
VERTEX
  5
D3
330
D0
100
AcDbEntity
  8
_U+30EC_U+30A4_U+30E4_U+30FC 1
 62
   179
420
  2234388
370
     9
100
AcDbVertex
100
AcDb2dVertex
 10
100.7617544134218
 20
-149.2119947272369
 30
0.0
  0
VERTEX
  5
D4
330
D0
100
AcDbEntity
  8
_U+30EC_U+30A4_U+30E4_U+30FC 1
 62
   179
420
  2234388
370
     9
100
AcDbVertex
100
AcDb2dVertex
 10
100.2089565450433
 20
-149.9672996146078
 30
0.0
  0
VERTEX
  5
D5
330
D0
100
AcDbEntity
  8
_U+30EC_U+30A4_U+30E4_U+30FC 1
 62
   179
420
  2234388
370
     9
100
AcDbVertex
100
AcDb2dVertex
 10
100.711316062333
 20
-149.6529669493489
 30
0.0
  0
SEQEND
  5
D6
330
D0
100
AcDbEntity
  8
_U+30EC_U+30A4_U+30E4_U+30FC 1
 62
   179
420
  2234388
370
     9
  0
POLYLINE
  5
D7
330
1F
100
AcDbEntity
  8
_U+30EC_U+30A4_U+30E4_U+30FC 1
 62
   179
420
  2234388
370
     9
100
AcDb2dPolyline
 66
     1
 10
0.0
 20
0.0
 30
0.0
  0
VERTEX
  5
D8
330
D7
100
AcDbEntity
  8
_U+30EC_U+30A4_U+30E4_U+30FC 1
 62
   179
420
  2234388
370
     9
100
AcDbVertex
100
AcDb2dVertex
 10
100.711316062333
 20
-149.6529669493489
 30
0.0
  0
VERTEX
  5
D9
330
D7
100
AcDbEntity
  8
_U+30EC_U+30A4_U+30E4_U+30FC 1
 62
   179
420
  2234388
370
     9
100
AcDbVertex
100
AcDb2dVertex
 10
99.59406083054311
 20
-155.9938051469553
 30
0.0
  0
SEQEND
  5
DA
330
D7
100
AcDbEntity
  8
_U+30EC_U+30A4_U+30E4_U+30FC 1
 62
   179
420
  2234388
370
     9
  0
INSERT
  5
DC
330
1F
100
AcDbEntity
  8
_U+30EC_U+30A4_U+30E4_U+30FC 1
100
AcDbBlockReference
  2
block 7
 10
0.0
 20
0.0
 30
0.0
  0
POLYLINE
  5
137
330
1F
100
AcDbEntity
  8
_U+30EC_U+30A4_U+30E4_U+30FC 1
 62
   179
420
  2234388
370
    25
100
AcDb2dPolyline
 66
     1
 10
0.0
 20
0.0
 30
0.0
  0
VERTEX
  5
138
330
137
100
AcDbEntity
  8
_U+30EC_U+30A4_U+30E4_U+30FC 1
 62
   179
420
  2234388
370
    25
100
AcDbVertex
100
AcDb2dVertex
 10
104.7192217247154
 20
-148.6882217883217
 30
0.0
  0
VERTEX
  5
139
330
137
100
AcDbEntity
  8
_U+30EC_U+30A4_U+30E4_U+30FC 1
 62
   179
420
  2234388
370
    25
100
AcDbVertex
100
AcDb2dVertex
 10
98.71916806614085
 20
-148.6882217883217
 30
0.0
  0
VERTEX
  5
13A
330
137
100
AcDbEntity
  8
_U+30EC_U+30A4_U+30E4_U+30FC 1
 62
   179
420
  2234388
370
    25
100
AcDbVertex
100
AcDb2dVertex
 10
98.71916806614085
 20
-147.6884550785022
 30
0.0
  0
VERTEX
  5
13B
330
137
100
AcDbEntity
  8
_U+30EC_U+30A4_U+30E4_U+30FC 1
 62
   179
420
  2234388
370
    25
100
AcDbVertex
100
AcDb2dVertex
 10
104.7192217247154
 20
-147.6884550785022
 30
0.0
  0
VERTEX
  5
13C
330
137
100
AcDbEntity
  8
_U+30EC_U+30A4_U+30E4_U+30FC 1
 62
   179
420
  2234388
370
    25
100
AcDbVertex
100
AcDb2dVertex
 10
104.7192217247154
 20
-148.6882217883217
 30
0.0
  0
SEQEND
  5
13D
330
137
100
AcDbEntity
  8
_U+30EC_U+30A4_U+30E4_U+30FC 1
 62
   179
420
  2234388
370
    25
  0
ENDSEC
  0
SECTION
  2
OBJECTS
  0
DICTIONARY
  5
C
330
0
100
AcDbDictionary
281
     1
  3
ACAD_GROUP
350
D
  3
ACAD_LAYOUT
350
1A
  3
ACAD_MATERIAL
350
3B
  3
ACAD_MLEADERSTYLE
350
13F
  3
ACAD_MLINESTYLE
350
17
  3
ACAD_PLOTSETTINGS
350
19
  3
ACAD_PLOTSTYLENAME
350
E
  3
ACAD_TABLESTYLE
350
13E
  3
ACAD_VISUALSTYLE
350
2A
  0
SUN
  5
3F
330
29
100
AcDbSun
 90
        1
290
     0
 63
     7
421
 16777215
 40
1.0
291
     1
 91
  2455826
 92
 54000000
292
     0
 70
     2
 71
   256
280
     1
  0
DICTIONARY
  5
D
102
{ACAD_REACTORS
330
C
102
}
330
C
100
AcDbDictionary
281
     1
  0
DICTIONARY
  5
1A
102
{ACAD_REACTORS
330
C
102
}
330
C
100
AcDbDictionary
281
     1
  3
Layout1
350
1E
  3
Layout2
350
26
  3
Model
350
22
  0
DICTIONARY
  5
3B
102
{ACAD_REACTORS
330
C
102
}
330
C
100
AcDbDictionary
281
     1
  3
ByBlock
350
3D
  3
ByLayer
350
3C
  3
Global
350
3E
  0
DICTIONARY
  5
13F
102
{ACAD_REACTORS
330
C
102
}
330
C
100
AcDbDictionary
281
     1
  0
DICTIONARY
  5
17
102
{ACAD_REACTORS
330
C
102
}
330
C
100
AcDbDictionary
281
     1
  3
Standard
350
18
  0
DICTIONARY
  5
19
102
{ACAD_REACTORS
330
C
102
}
330
C
100
AcDbDictionary
281
     1
  0
ACDBDICTIONARYWDFLT
  5
E
102
{ACAD_REACTORS
330
C
102
}
330
C
100
AcDbDictionary
281
     1
  3
Normal
350
F
100
AcDbDictionaryWithDefault
340
F
  0
DICTIONARY
  5
13E
102
{ACAD_REACTORS
330
C
102
}
330
C
100
AcDbDictionary
281
     1
  0
DICTIONARY
  5
2A
102
{ACAD_REACTORS
330
C
102
}
330
C
100
AcDbDictionary
281
     1
  3
2dWireframe
350
2F
  3
3D Hidden
350
31
  3
3dWireframe
350
30
  3
Basic
350
32
  3
Brighten
350
36
  3
ColorChange
350
3A
  3
Conceptual
350
34
  3
Dim
350
35
  3
Facepattern
350
39
  3
Flat
350
2B
  3
FlatWithEdges
350
2C
  3
Gouraud
350
2D
  3
GouraudWithEdges
350
2E
  3
Linepattern
350
38
  3
Realistic
350
33
  3
Thicken
350
37
  0
LAYOUT
  5
1E
102
{ACAD_REACTORS
330
1A
102
}
330
1A
100
AcDbPlotSettings
  1

  2
none_device
  4

  6

 40
0.0
 41
0.0
 42
0.0
 43
0.0
 44
0.0
 45
0.0
 46
0.0
 47
0.0
 48
0.0
 49
0.0
140
0.0
141
0.0
142
1.0
143
1.0
 70
   688
 72
     0
 73
     0
 74
     5
  7

 75
    16
 76
     0
 77
     2
 78
   300
147
1.0
148
0.0
149
0.0
100
AcDbLayout
  1
Layout1
 70
     1
 71
     1
 10
0.0
 20
0.0
 11
12.0
 21
9.0
 12
0.0
 22
0.0
 32
0.0
 14
1.000000000000000E+20
 24
1.000000000000000E+20
 34
1.000000000000000E+20
 15
-1.000000000000000E+20
 25
-1.000000000000000E+20
 35
-1.000000000000000E+20
146
0.0
 13
0.0
 23
0.0
 33
0.0
 16
1.0
 26
0.0
 36
0.0
 17
0.0
 27
1.0
 37
0.0
 76
     0
330
1B
  0
LAYOUT
  5
26
102
{ACAD_REACTORS
330
1A
102
}
330
1A
100
AcDbPlotSettings
  1

  2
none_device
  4

  6

 40
0.0
 41
0.0
 42
0.0
 43
0.0
 44
0.0
 45
0.0
 46
0.0
 47
0.0
 48
0.0
 49
0.0
140
0.0
141
0.0
142
1.0
143
1.0
 70
   688
 72
     0
 73
     0
 74
     5
  7

 75
    16
 76
     0
 77
     2
 78
   300
147
1.0
148
0.0
149
0.0
100
AcDbLayout
  1
Layout2
 70
     1
 71
     2
 10
0.0
 20
0.0
 11
0.0
 21
0.0
 12
0.0
 22
0.0
 32
0.0
 14
0.0
 24
0.0
 34
0.0
 15
0.0
 25
0.0
 35
0.0
146
0.0
 13
0.0
 23
0.0
 33
0.0
 16
1.0
 26
0.0
 36
0.0
 17
0.0
 27
1.0
 37
0.0
 76
     0
330
23
  0
LAYOUT
  5
22
102
{ACAD_REACTORS
330
1A
102
}
330
1A
100
AcDbPlotSettings
  1

  2
none_device
  4

  6

 40
0.0
 41
0.0
 42
0.0
 43
0.0
 44
0.0
 45
0.0
 46
0.0
 47
0.0
 48
0.0
 49
0.0
140
0.0
141
0.0
142
1.0
143
1.0
 70
  1712
 72
     0
 73
     0
 74
     0
  7

 75
     0
 76
     0
 77
     2
 78
   300
147
1.0
148
0.0
149
0.0
100
AcDbLayout
  1
Model
 70
     1
 71
     0
 10
0.0
 20
0.0
 11
12.0
 21
9.0
 12
0.0
 22
0.0
 32
0.0
 14
1.000000000000000E+20
 24
1.000000000000000E+20
 34
1.000000000000000E+20
 15
-1.000000000000000E+20
 25
-1.000000000000000E+20
 35
-1.000000000000000E+20
146
0.0
 13
0.0
 23
0.0
 33
0.0
 16
1.0
 26
0.0
 36
0.0
 17
0.0
 27
1.0
 37
0.0
 76
     0
330
1F
331
29
  0
MATERIAL
  5
3D
102
{ACAD_REACTORS
330
3B
102
}
330
3B
100
AcDbMaterial
  1
ByBlock
 72
     1
 94
      127
  0
MATERIAL
  5
3C
102
{ACAD_REACTORS
330
3B
102
}
330
3B
100
AcDbMaterial
  1
ByLayer
 72
     1
 94
      127
  0
MATERIAL
  5
3E
102
{ACAD_REACTORS
330
3B
102
}
330
3B
100
AcDbMaterial
  1
Global
 72
     1
 94
      127
  0
MLINESTYLE
  5
18
102
{ACAD_REACTORS
330
17
102
}
330
17
100
AcDbMlineStyle
  2
Standard
 70
     0
  3

 62
   256
 51
90.0
 52
90.0
 71
     2
 49
0.5
 62
   256
  6
BYLAYER
 49
-0.5
 62
   256
  6
BYLAYER
  0
ACDBPLACEHOLDER
  5
F
102
{ACAD_REACTORS
330
E
102
}
330
E
  0
VISUALSTYLE
  5
2F
102
{ACAD_REACTORS
330
2A
102
}
330
2A
100
AcDbVisualStyle
  2
2dWireframe
 70
     4
177
     2
291
     0
 71
     0
176
     1
 72
     2
176
     1
 73
     0
176
     1
 90
        0
176
     1
 40
-0.6
176
     1
 41
-30.0
176
     1
 62
     5
 63
     7
421
 16777215
176
     1
 74
     1
176
     1
 91
        4
176
     1
 64
     7
176
     1
 65
   257
176
     1
 75
     1
176
     1
175
     1
176
     1
 42
1.0
176
     1
 92
        0
176
     1
 66
   257
176
     1
 43
1.0
176
     1
 76
     1
176
     1
 77
     6
176
     1
 78
     2
176
     1
 67
     7
176
     1
 79
     5
176
     1
170
     0
176
     1
171
     0
176
     1
290
     0
176
     1
 93
        1
176
     1
 44
0.0
176
     1
173
     0
176
     1
  0
VISUALSTYLE
  5
31
102
{ACAD_REACTORS
330
2A
102
}
330
2A
100
AcDbVisualStyle
  2
3D Hidden
 70
     6
177
     2
291
     0
 71
     1
176
     1
 72
     2
176
     1
 73
     2
176
     1
 90
        0
176
     1
 40
-0.6
176
     1
 41
-30.0
176
     1
 62
     5
 63
     7
421
 16777215
176
     1
 74
     2
176
     1
 91
        2
176
     1
 64
     7
176
     1
 65
   257
176
     1
 75
     2
176
     1
175
     1
176
     1
 42
40.0
176
     1
 92
        0
176
     1
 66
   257
176
     1
 43
1.0
176
     1
 76
     1
176
     1
 77
     6
176
     1
 78
     2
176
     1
 67
     7
176
     1
 79
     3
176
     1
170
     0
176
     1
171
     0
176
     1
290
     0
176
     1
 93
        1
176
     1
 44
0.0
176
     1
173
     0
176
     1
  0
VISUALSTYLE
  5
30
102
{ACAD_REACTORS
330
2A
102
}
330
2A
100
AcDbVisualStyle
  2
3dWireframe
 70
     5
177
     2
291
     0
 71
     0
176
     1
 72
     2
176
     1
 73
     0
176
     1
 90
        0
176
     1
 40
-0.6
176
     1
 41
-30.0
176
     1
 62
     5
 63
     7
421
 16777215
176
     1
 74
     1
176
     1
 91
        4
176
     1
 64
     7
176
     1
 65
   257
176
     1
 75
     1
176
     1
175
     1
176
     1
 42
1.0
176
     1
 92
        0
176
     1
 66
   257
176
     1
 43
1.0
176
     1
 76
     1
176
     1
 77
     6
176
     1
 78
     2
176
     1
 67
     7
176
     1
 79
     5
176
     1
170
     0
176
     1
171
     0
176
     1
290
     0
176
     1
 93
        1
176
     1
 44
0.0
176
     1
173
     0
176
     1
  0
VISUALSTYLE
  5
32
102
{ACAD_REACTORS
330
2A
102
}
330
2A
100
AcDbVisualStyle
  2
Basic
 70
     7
177
     2
291
     1
 71
     1
176
     1
 72
     0
176
     1
 73
     1
176
     1
 90
        0
176
     1
 40
-0.6
176
     1
 41
-30.0
176
     1
 62
     5
 63
     7
421
 16777215
176
     1
 74
     0
176
     1
 91
        4
176
     1
 64
     7
176
     1
 65
   257
176
     1
 75
     1
176
     1
175
     1
176
     1
 42
1.0
176
     1
 92
        8
176
     1
 66
     7
176
     1
 43
1.0
176
     1
 76
     1
176
     1
 77
     6
176
     1
 78
     2
176
     1
 67
     7
176
     1
 79
     5
176
     1
170
     0
176
     1
171
     0
176
     1
290
     0
176
     1
 93
        1
176
     1
 44
0.0
176
     1
173
     0
176
     1
  0
VISUALSTYLE
  5
36
102
{ACAD_REACTORS
330
2A
102
}
330
2A
100
AcDbVisualStyle
  2
Brighten
 70
    12
177
     2
291
     1
 71
     2
176
     1
 72
     2
176
     1
 73
     0
176
     1
 90
        0
176
     1
 40
-0.6
176
     1
 41
-30.0
176
     1
 62
     5
 63
     7
421
 16777215
176
     1
 74
     1
176
     1
 91
        4
176
     1
 64
     7
176
     1
 65
   257
176
     1
 75
     1
176
     1
175
     1
176
     1
 42
1.0
176
     1
 92
        8
176
     1
 66
     7
176
     1
 43
1.0
176
     1
 76
     1
176
     1
 77
     6
176
     1
 78
     2
176
     1
 67
     7
176
     1
 79
     5
176
     1
170
     0
176
     1
171
     0
176
     1
290
     0
176
     1
 93
        1
176
     1
 44
50.0
176
     1
173
     0
176
     1
  0
VISUALSTYLE
  5
3A
102
{ACAD_REACTORS
330
2A
102
}
330
2A
100
AcDbVisualStyle
  2
ColorChange
 70
    16
177
     2
291
     1
 71
     2
176
     1
 72
     2
176
     1
 73
     3
176
     1
 90
        0
176
     1
 40
-0.6
176
     1
 41
-30.0
176
     1
 62
     5
 63
     8
421
  8421504
176
     1
 74
     1
176
     1
 91
        4
176
     1
 64
     7
176
     1
 65
   257
176
     1
 75
     1
176
     1
175
     1
176
     1
 42
1.0
176
     1
 92
        8
176
     1
 66
     8
424
  8421504
176
     1
 43
1.0
176
     1
 76
     1
176
     1
 77
     6
176
     1
 78
     2
176
     1
 67
     7
176
     1
 79
     5
176
     1
170
     0
176
     1
171
     0
176
     1
290
     0
176
     1
 93
        1
176
     1
 44
0.0
176
     1
173
     0
176
     1
  0
VISUALSTYLE
  5
34
102
{ACAD_REACTORS
330
2A
102
}
330
2A
100
AcDbVisualStyle
  2
Conceptual
 70
     9
177
     2
291
     0
 71
     3
176
     1
 72
     2
176
     1
 73
     0
176
     1
 90
        0
176
     1
 40
-0.6
176
     1
 41
-30.0
176
     1
 62
     5
 63
     7
421
 16777215
176
     1
 74
     2
176
     1
 91
        2
176
     1
 64
     7
176
     1
 65
   257
176
     1
 75
     1
176
     1
175
     1
176
     1
 42
40.0
176
     1
 92
        8
176
     1
 66
     7
176
     1
 43
1.0
176
     1
 76
     1
176
     1
 77
     6
176
     1
 78
     2
176
     1
 67
     7
176
     1
 79
     3
176
     1
170
     0
176
     1
171
     0
176
     1
290
     0
176
     1
 93
        1
176
     1
 44
0.0
176
     1
173
     0
176
     1
  0
VISUALSTYLE
  5
35
102
{ACAD_REACTORS
330
2A
102
}
330
2A
100
AcDbVisualStyle
  2
Dim
 70
    11
177
     2
291
     1
 71
     2
176
     1
 72
     2
176
     1
 73
     0
176
     1
 90
        0
176
     1
 40
-0.6
176
     1
 41
-30.0
176
     1
 62
     5
 63
     7
421
 16777215
176
     1
 74
     1
176
     1
 91
        4
176
     1
 64
     7
176
     1
 65
   257
176
     1
 75
     1
176
     1
175
     1
176
     1
 42
1.0
176
     1
 92
        8
176
     1
 66
     7
176
     1
 43
1.0
176
     1
 76
     1
176
     1
 77
     6
176
     1
 78
     2
176
     1
 67
     7
176
     1
 79
     5
176
     1
170
     0
176
     1
171
     0
176
     1
290
     0
176
     1
 93
        1
176
     1
 44
-50.0
176
     1
173
     0
176
     1
  0
VISUALSTYLE
  5
39
102
{ACAD_REACTORS
330
2A
102
}
330
2A
100
AcDbVisualStyle
  2
Facepattern
 70
    15
177
     2
291
     1
 71
     2
176
     1
 72
     2
176
     1
 73
     0
176
     1
 90
        0
176
     1
 40
-0.6
176
     1
 41
-30.0
176
     1
 62
     5
 63
     7
421
 16777215
176
     1
 74
     1
176
     1
 91
        4
176
     1
 64
     7
176
     1
 65
   257
176
     1
 75
     1
176
     1
175
     1
176
     1
 42
1.0
176
     1
 92
        8
176
     1
 66
     7
176
     1
 43
1.0
176
     1
 76
     1
176
     1
 77
     6
176
     1
 78
     2
176
     1
 67
     7
176
     1
 79
     5
176
     1
170
     0
176
     1
171
     0
176
     1
290
     0
176
     1
 93
        1
176
     1
 44
0.0
176
     1
173
     0
176
     1
  0
VISUALSTYLE
  5
2B
102
{ACAD_REACTORS
330
2A
102
}
330
2A
100
AcDbVisualStyle
  2
Flat
 70
     0
177
     2
291
     1
 71
     2
176
     1
 72
     1
176
     1
 73
     1
176
     1
 90
        2
176
     1
 40
-0.6
176
     1
 41
30.0
176
     1
 62
     5
 63
     7
421
 16777215
176
     1
 74
     0
176
     1
 91
        4
176
     1
 64
     7
176
     1
 65
   257
176
     1
 75
     1
176
     1
175
     1
176
     1
 42
1.0
176
     1
 92
        8
176
     1
 66
     7
176
     1
 43
1.0
176
     1
 76
     1
176
     1
 77
     6
176
     1
 78
     2
176
     1
 67
     7
176
     1
 79
     5
176
     1
170
     0
176
     1
171
     0
176
     1
290
     0
176
     1
 93
       13
176
     1
 44
0.0
176
     1
173
     0
176
     1
  0
VISUALSTYLE
  5
2C
102
{ACAD_REACTORS
330
2A
102
}
330
2A
100
AcDbVisualStyle
  2
FlatWithEdges
 70
     1
177
     2
291
     1
 71
     2
176
     1
 72
     1
176
     1
 73
     1
176
     1
 90
        2
176
     1
 40
-0.6
176
     1
 41
30.0
176
     1
 62
     5
 63
     7
421
 16777215
176
     1
 74
     1
176
     1
 91
        4
176
     1
 64
     7
176
     1
 65
   257
176
     1
 75
     1
176
     1
175
     1
176
     1
 42
1.0
176
     1
 92
        0
176
     1
 66
   257
176
     1
 43
1.0
176
     1
 76
     1
176
     1
 77
     6
176
     1
 78
     2
176
     1
 67
     7
176
     1
 79
     5
176
     1
170
     0
176
     1
171
     0
176
     1
290
     0
176
     1
 93
       13
176
     1
 44
0.0
176
     1
173
     0
176
     1
  0
VISUALSTYLE
  5
2D
102
{ACAD_REACTORS
330
2A
102
}
330
2A
100
AcDbVisualStyle
  2
Gouraud
 70
     2
177
     2
291
     1
 71
     2
176
     1
 72
     2
176
     1
 73
     1
176
     1
 90
        2
176
     1
 40
-0.6
176
     1
 41
30.0
176
     1
 62
     5
 63
     7
421
 16777215
176
     1
 74
     0
176
     1
 91
        4
176
     1
 64
     7
176
     1
 65
   257
176
     1
 75
     1
176
     1
175
     1
176
     1
 42
1.0
176
     1
 92
        0
176
     1
 66
     7
176
     1
 43
1.0
176
     1
 76
     1
176
     1
 77
     6
176
     1
 78
     2
176
     1
 67
     7
176
     1
 79
     5
176
     1
170
     0
176
     1
171
     0
176
     1
290
     0
176
     1
 93
       13
176
     1
 44
0.0
176
     1
173
     0
176
     1
  0
VISUALSTYLE
  5
2E
102
{ACAD_REACTORS
330
2A
102
}
330
2A
100
AcDbVisualStyle
  2
GouraudWithEdges
 70
     3
177
     2
291
     1
 71
     2
176
     1
 72
     2
176
     1
 73
     1
176
     1
 90
        2
176
     1
 40
-0.6
176
     1
 41
30.0
176
     1
 62
     5
 63
     7
421
 16777215
176
     1
 74
     1
176
     1
 91
        4
176
     1
 64
     7
176
     1
 65
   257
176
     1
 75
     1
176
     1
175
     1
176
     1
 42
1.0
176
     1
 92
        0
176
     1
 66
   257
176
     1
 43
1.0
176
     1
 76
     1
176
     1
 77
     6
176
     1
 78
     2
176
     1
 67
     7
176
     1
 79
     5
176
     1
170
     0
176
     1
171
     0
176
     1
290
     0
176
     1
 93
       13
176
     1
 44
0.0
176
     1
173
     0
176
     1
  0
VISUALSTYLE
  5
38
102
{ACAD_REACTORS
330
2A
102
}
330
2A
100
AcDbVisualStyle
  2
Linepattern
 70
    14
177
     2
291
     1
 71
     2
176
     1
 72
     2
176
     1
 73
     0
176
     1
 90
        0
176
     1
 40
-0.6
176
     1
 41
-30.0
176
     1
 62
     5
 63
     7
421
 16777215
176
     1
 74
     1
176
     1
 91
        4
176
     1
 64
     7
176
     1
 65
   257
176
     1
 75
     7
176
     1
175
     7
176
     1
 42
1.0
176
     1
 92
        8
176
     1
 66
     7
176
     1
 43
1.0
176
     1
 76
     1
176
     1
 77
     6
176
     1
 78
     2
176
     1
 67
     7
176
     1
 79
     5
176
     1
170
     0
176
     1
171
     0
176
     1
290
     0
176
     1
 93
        1
176
     1
 44
0.0
176
     1
173
     0
176
     1
  0
VISUALSTYLE
  5
33
102
{ACAD_REACTORS
330
2A
102
}
330
2A
100
AcDbVisualStyle
  2
Realistic
 70
     8
177
     2
291
     0
 71
     2
176
     1
 72
     2
176
     1
 73
     0
176
     1
 90
        0
176
     1
 40
-0.6
176
     1
 41
-30.0
176
     1
 62
     5
 63
     7
421
 16777215
176
     1
 74
     1
176
     1
 91
        0
176
     1
 64
     7
176
     1
 65
   257
176
     1
 75
     1
176
     1
175
     1
176
     1
 42
1.0
176
     1
 92
        8
176
     1
 66
     8
424
  7895160
176
     1
 43
1.0
176
     1
 76
     1
176
     1
 77
     6
176
     1
 78
     2
176
     1
 67
     7
176
     1
 79
     5
176
     1
170
     0
176
     1
171
     0
176
     1
290
     0
176
     1
 93
       13
176
     1
 44
0.0
176
     1
173
     0
176
     1
  0
VISUALSTYLE
  5
37
102
{ACAD_REACTORS
330
2A
102
}
330
2A
100
AcDbVisualStyle
  2
Thicken
 70
    13
177
     2
291
     1
 71
     2
176
     1
 72
     2
176
     1
 73
     0
176
     1
 90
        0
176
     1
 40
-0.6
176
     1
 41
-30.0
176
     1
 62
     5
 63
     7
421
 16777215
176
     1
 74
     1
176
     1
 91
        4
176
     1
 64
     7
176
     1
 65
   257
176
     1
 75
     1
176
     1
175
     1
176
     1
 42
1.0
176
     1
 92
       12
176
     1
 66
     7
176
     1
 43
1.0
176
     1
 76
     1
176
     1
 77
     6
176
     1
 78
     2
176
     1
 67
     7
176
     1
 79
     5
176
     1
170
     0
176
     1
171
     0
176
     1
290
     0
176
     1
 93
        1
176
     1
 44
0.0
176
     1
173
     0
176
     1
  0
ENDSEC
  0
EOF
