  0
SECTION
  2
HEADER
  9
$ACADVER
  1
AC1024
  9
$ACADMAINTVER
 70
     6
  9
$DWGCODEPAGE
  3
UNDEFINED
  9
$INSBASE
 10
0.0
 20
0.0
 30
0.0
  9
$EXTMIN
 10
1.000000000000000E+20
 20
1.000000000000000E+20
 30
1.000000000000000E+20
  9
$EXTMAX
 10
-1.000000000000000E+20
 20
-1.000000000000000E+20
 30
-1.000000000000000E+20
  9
$LIMMIN
 10
0.0
 20
0.0
  9
$LIMMAX
 10
12.0
 20
9.0
  9
$ORTHOMODE
 70
     0
  9
$REGENMODE
 70
     1
  9
$FILLMODE
 70
     1
  9
$QTEXTMODE
 70
     0
  9
$MIRRTEXT
 70
     1
  9
$LTSCALE
 40
1.0
  9
$ATTMODE
 70
     1
  9
$TEXTSIZE
 40
0.2
  9
$TRACEWID
 40
0.05
  9
$TEXTSTYLE
  7
Standard
  9
$CLAYER
  8
0
  9
$CELTYPE
  6
ByLayer
  9
$CECOLOR
 62
   256
  9
$CELTSCALE
 40
1.0
  9
$DISPSILH
 70
     0
  9
$DIMSCALE
 40
1.0
  9
$DIMASZ
 40
0.18
  9
$DIMEXO
 40
0.0625
  9
$DIMDLI
 40
0.38
  9
$DIMRND
 40
0.0
  9
$DIMDLE
 40
0.0
  9
$DIMEXE
 40
0.18
  9
$DIMTP
 40
0.0
  9
$DIMTM
 40
0.0
  9
$DIMTXT
 40
0.18
  9
$DIMCEN
 40
0.09
  9
$DIMTSZ
 40
0.0
  9
$DIMTOL
 70
     0
  9
$DIMLIM
 70
     0
  9
$DIMTIH
 70
     1
  9
$DIMTOH
 70
     1
  9
$DIMSE1
 70
     0
  9
$DIMSE2
 70
     0
  9
$DIMTAD
 70
     0
  9
$DIMZIN
 70
     0
  9
$DIMBLK
  1

  9
$DIMASO
 70
     1
  9
$DIMSHO
 70
     1
  9
$DIMPOST
  1

  9
$DIMAPOST
  1

  9
$DIMALT
 70
     0
  9
$DIMALTD
 70
     2
  9
$DIMALTF
 40
25.4
  9
$DIMLFAC
 40
1.0
  9
$DIMTOFL
 70
     0
  9
$DIMTVP
 40
0.0
  9
$DIMTIX
 70
     0
  9
$DIMSOXD
 70
     0
  9
$DIMSAH
 70
     0
  9
$DIMBLK1
  1

  9
$DIMBLK2
  1

  9
$DIMSTYLE
  2
Standard
  9
$DIMCLRD
 70
     0
  9
$DIMCLRE
 70
     0
  9
$DIMCLRT
 70
     0
  9
$DIMTFAC
 40
1.0
  9
$DIMGAP
 40
0.09
  9
$DIMJUST
 70
     0
  9
$DIMSD1
 70
     0
  9
$DIMSD2
 70
     0
  9
$DIMTOLJ
 70
     1
  9
$DIMTZIN
 70
     0
  9
$DIMALTZ
 70
     0
  9
$DIMALTTZ
 70
     0
  9
$DIMUPT
 70
     0
  9
$DIMDEC
 70
     4
  9
$DIMTDEC
 70
     4
  9
$DIMALTU
 70
     2
  9
$DIMALTTD
 70
     2
  9
$DIMTXSTY
  7
Standard
  9
$DIMAUNIT
 70
     0
  9
$DIMADEC
 70
     0
  9
$DIMALTRND
 40
0.0
  9
$DIMAZIN
 70
     0
  9
$DIMDSEP
 70
    46
  9
$DIMATFIT
 70
     3
  9
$DIMFRAC
 70
     0
  9
$DIMLDRBLK
  1

  9
$DIMLUNIT
 70
     2
  9
$DIMLWD
 70
    -2
  9
$DIMLWE
 70
    -2
  9
$DIMTMOVE
 70
     0
  9
$DIMFXL
 40
1.0
  9
$DIMFXLON
 70
     0
  9
$DIMJOGANG
 40
0.7853981633974483
  9
$DIMTFILL
 70
     0
  9
$DIMTFILLCLR
 70
     0
  9
$DIMARCSYM
 70
     0
  9
$DIMLTYPE
  6

  9
$DIMLTEX1
  6

  9
$DIMLTEX2
  6

  9
$DIMTXTDIRECTION
 70
     0
  9
$LUNITS
 70
     2
  9
$LUPREC
 70
     4
  9
$SKETCHINC
 40
0.1
  9
$FILLETRAD
 40
0.5
  9
$AUNITS
 70
     0
  9
$AUPREC
 70
     0
  9
$MENU
  1
.
  9
$ELEVATION
 40
0.0
  9
$PELEVATION
 40
0.0
  9
$THICKNESS
 40
0.0
  9
$LIMCHECK
 70
     0
  9
$CHAMFERA
 40
0.5
  9
$CHAMFERB
 40
0.5
  9
$CHAMFERC
 40
1.0
  9
$CHAMFERD
 40
0.0
  9
$SKPOLY
 70
     0
  9
$TDCREATE
 40
2458263.578657396
  9
$TDUCREATE
 40
2458263.203657407
  9
$TDUPDATE
 40
2458263.578657396
  9
$TDUUPDATE
 40
2458263.203657407
  9
$TDINDWG
 40
0.0000000116
  9
$TDUSRTIMER
 40
0.0000000116
  9
$USRTIMER
 70
     1
  9
$ANGBASE
 50
0.0
  9
$ANGDIR
 70
     0
  9
$PDMODE
 70
     0
  9
$PDSIZE
 40
0.0
  9
$PLINEWID
 40
0.0
  9
$SPLFRAME
 70
     0
  9
$SPLINETYPE
 70
     6
  9
$SPLINESEGS
 70
     8
  9
$HANDSEED
  5
131
  9
$SURFTAB1
 70
     6
  9
$SURFTAB2
 70
     6
  9
$SURFTYPE
 70
     6
  9
$SURFU
 70
     6
  9
$SURFV
 70
     6
  9
$UCSBASE
  2

  9
$UCSNAME
  2

  9
$UCSORG
 10
0.0
 20
0.0
 30
0.0
  9
$UCSXDIR
 10
1.0
 20
0.0
 30
0.0
  9
$UCSYDIR
 10
0.0
 20
1.0
 30
0.0
  9
$UCSORTHOREF
  2

  9
$UCSORTHOVIEW
 70
     0
  9
$UCSORGTOP
 10
0.0
 20
0.0
 30
0.0
  9
$UCSORGBOTTOM
 10
0.0
 20
0.0
 30
0.0
  9
$UCSORGLEFT
 10
0.0
 20
0.0
 30
0.0
  9
$UCSORGRIGHT
 10
0.0
 20
0.0
 30
0.0
  9
$UCSORGFRONT
 10
0.0
 20
0.0
 30
0.0
  9
$UCSORGBACK
 10
0.0
 20
0.0
 30
0.0
  9
$PUCSBASE
  2

  9
$PUCSNAME
  2

  9
$PUCSORG
 10
0.0
 20
0.0
 30
0.0
  9
$PUCSXDIR
 10
1.0
 20
0.0
 30
0.0
  9
$PUCSYDIR
 10
0.0
 20
1.0
 30
0.0
  9
$PUCSORTHOREF
  2

  9
$PUCSORTHOVIEW
 70
     0
  9
$PUCSORGTOP
 10
0.0
 20
0.0
 30
0.0
  9
$PUCSORGBOTTOM
 10
0.0
 20
0.0
 30
0.0
  9
$PUCSORGLEFT
 10
0.0
 20
0.0
 30
0.0
  9
$PUCSORGRIGHT
 10
0.0
 20
0.0
 30
0.0
  9
$PUCSORGFRONT
 10
0.0
 20
0.0
 30
0.0
  9
$PUCSORGBACK
 10
0.0
 20
0.0
 30
0.0
  9
$USERI1
 70
     0
  9
$USERI2
 70
     0
  9
$USERI3
 70
     0
  9
$USERI4
 70
     0
  9
$USERI5
 70
     0
  9
$USERR1
 40
0.0
  9
$USERR2
 40
0.0
  9
$USERR3
 40
0.0
  9
$USERR4
 40
0.0
  9
$USERR5
 40
0.0
  9
$WORLDVIEW
 70
     1
  9
$SHADEDGE
 70
     3
  9
$SHADEDIF
 70
    70
  9
$TILEMODE
 70
     1
  9
$MAXACTVP
 70
    64
  9
$PINSBASE
 10
0.0
 20
0.0
 30
0.0
  9
$PLIMCHECK
 70
     0
  9
$PEXTMIN
 10
1.000000000000000E+20
 20
1.000000000000000E+20
 30
1.000000000000000E+20
  9
$PEXTMAX
 10
-1.000000000000000E+20
 20
-1.000000000000000E+20
 30
-1.000000000000000E+20
  9
$PLIMMIN
 10
0.0
 20
0.0
  9
$PLIMMAX
 10
12.0
 20
9.0
  9
$UNITMODE
 70
     0
  9
$VISRETAIN
 70
     1
  9
$PLINEGEN
 70
     0
  9
$PSLTSCALE
 70
     1
  9
$TREEDEPTH
 70
  3020
  9
$CMLSTYLE
  2
Standard
  9
$CMLJUST
 70
     0
  9
$CMLSCALE
 40
1.0
  9
$PROXYGRAPHICS
 70
     1
  9
$MEASUREMENT
 70
     0
  9
$CELWEIGHT
370
    -1
  9
$ENDCAPS
280
     0
  9
$JOINSTYLE
280
     0
  9
$LWDISPLAY
290
     1
  9
$INSUNITS
 70
     1
  9
$HYPERLINKBASE
  1

  9
$STYLESHEET
  1

  9
$XEDIT
290
     1
  9
$CEPSNTYPE
380
     0
  9
$PSTYLEMODE
290
     1
  9
$FINGERPRINTGUID
  2
{512F46D8-E96D-1827-B293-55C3D1450A28}
  9
$VERSIONGUID
  2
{FAEB1C32-E019-11D5-929B-00C0DF256EC4}
  9
$EXTNAMES
290
     1
  9
$PSVPSCALE
 40
0.0
  9
$OLESTARTUP
290
     0
  9
$SORTENTS
280
   127
  9
$INDEXCTL
280
     0
  9
$HIDETEXT
280
     1
  9
$XCLIPFRAME
280
     2
  9
$HALOGAP
280
     0
  9
$OBSCOLOR
 70
   257
  9
$OBSLTYPE
280
     0
  9
$INTERSECTIONDISPLAY
280
     0
  9
$INTERSECTIONCOLOR
 70
   257
  9
$DIMASSOC
280
     2
  9
$PROJECTNAME
  1

  9
$CAMERADISPLAY
290
     0
  9
$LENSLENGTH
 40
50.0
  9
$CAMERAHEIGHT
 40
0.0
  9
$STEPSPERSEC
 40
2.0
  9
$STEPSIZE
 40
6.0
  9
$3DDWFPREC
 40
2.0
  9
$PSOLWIDTH
 40
0.25
  9
$PSOLHEIGHT
 40
4.0
  9
$LOFTANG1
 40
1.570796326794897
  9
$LOFTANG2
 40
1.570796326794897
  9
$LOFTMAG1
 40
0.0
  9
$LOFTMAG2
 40
0.0
  9
$LOFTPARAM
 70
     7
  9
$LOFTNORMALS
280
     1
  9
$LATITUDE
 40
37.795
  9
$LONGITUDE
 40
-122.394
  9
$NORTHDIRECTION
 40
0.0
  9
$TIMEZONE
 70
 -8000
  9
$LIGHTGLYPHDISPLAY
280
     1
  9
$TILEMODELIGHTSYNCH
280
     1
  9
$CMATERIAL
347
3C
  9
$SOLIDHIST
280
     1
  9
$SHOWHIST
280
     1
  9
$DWFFRAME
280
     2
  9
$DGNFRAME
280
     2
  9
$REALWORLDSCALE
290
     1
  9
$INTERFERECOLOR
 62
   256
  9
$CSHADOW
280
     0
  9
$SHADOWPLANELOCATION
 40
0.0
  0
ENDSEC
  0
SECTION
  2
CLASSES
  0
CLASS
  1
ACDBDICTIONARYWDFLT
  2
AcDbDictionaryWithDefault
  3
ObjectDBX Classes
 90
        0
 91
        4
280
     0
281
     0
  0
CLASS
  1
VISUALSTYLE
  2
AcDbVisualStyle
  3
ObjectDBX Classes
 90
     4095
 91
        4
280
     0
281
     0
  0
CLASS
  1
MATERIAL
  2
AcDbMaterial
  3
ObjectDBX Classes
 90
     1153
 91
        4
280
     0
281
     0
  0
CLASS
  1
SUN
  2
AcDbSun
  3
SCENEOE
 90
     1024
 91
        4
280
     0
281
     0
  0
ENDSEC
  0
SECTION
  2
TABLES
  0
TABLE
  2
VPORT
  5
8
330
0
100
AcDbSymbolTable
 70
     1
  0
VPORT
  5
29
330
8
100
AcDbSymbolTableRecord
100
AcDbViewportTableRecord
  2
*Active
 70
     0
 10
0.0
 20
0.0
 11
1.0
 21
1.0
 12
0.0
 22
0.0
 13
0.0
 23
0.0
 14
0.5
 24
0.5
 15
0.5
 25
0.5
 16
0.0
 26
0.0
 36
1.0
 17
105.0007777515277
 27
-148.5000416295416
 37
0.0
 40
297.0000832590831
 41
0.7070757462376333
 42
50.0
 43
0.0
 44
0.0
 50
0.0
 51
0.0
 71
     0
 72
   100
 73
     1
 74
     3
 75
     0
 76
     0
 77
     0
 78
     0
281
     0
 65
     1
110
0.0
120
0.0
130
0.0
111
1.0
121
0.0
131
0.0
112
0.0
122
1.0
132
0.0
 79
     0
146
0.0
 60
     3
 61
     5
292
     1
282
     1
141
0.0
142
0.0
 63
   250
361
3F
  0
ENDTAB
  0
TABLE
  2
LTYPE
  5
5
330
0
100
AcDbSymbolTable
 70
     1
  0
LTYPE
  5
14
330
5
100
AcDbSymbolTableRecord
100
AcDbLinetypeTableRecord
  2
ByBlock
 70
     0
  3

 72
    65
 73
     0
 40
0.0
  0
LTYPE
  5
15
330
5
100
AcDbSymbolTableRecord
100
AcDbLinetypeTableRecord
  2
ByLayer
 70
     0
  3

 72
    65
 73
     0
 40
0.0
  0
LTYPE
  5
16
330
5
100
AcDbSymbolTableRecord
100
AcDbLinetypeTableRecord
  2
Continuous
 70
     0
  3
Solid line
 72
    65
 73
     0
 40
0.0
  0
ENDTAB
  0
TABLE
  2
LAYER
  5
2
330
0
100
AcDbSymbolTable
 70
     2
  0
LAYER
  5
10
330
2
100
AcDbSymbolTableRecord
100
AcDbLayerTableRecord
  2
0
 70
     0
 62
     7
  6
Continuous
370
    -3
390
F
347
3E
  0
LAYER
  5
40
330
2
100
AcDbSymbolTableRecord
100
AcDbLayerTableRecord
  2
_U+30EC_U+30A4_U+30E4_U+30FC 1
 70
     0
 62
     7
  6
Continuous
370
    -3
390
F
347
3E
  0
ENDTAB
  0
TABLE
  2
STYLE
  5
3
330
0
100
AcDbSymbolTable
 70
     1
  0
STYLE
  5
11
330
3
100
AcDbSymbolTableRecord
100
AcDbTextStyleTableRecord
  2
Standard
 70
     0
 40
0.0
 41
1.0
 50
0.0
 71
     0
 42
0.2
  3
txt
  4

  0
ENDTAB
  0
TABLE
  2
VIEW
  5
6
330
0
100
AcDbSymbolTable
 70
     0
  0
ENDTAB
  0
TABLE
  2
UCS
  5
7
330
0
100
AcDbSymbolTable
 70
     0
  0
ENDTAB
  0
TABLE
  2
APPID
  5
9
330
0
100
AcDbSymbolTable
 70
     1
  0
APPID
  5
12
330
9
100
AcDbSymbolTableRecord
100
AcDbRegAppTableRecord
  2
ACAD
 70
     0
  0
ENDTAB
  0
TABLE
  2
DIMSTYLE
  5
A
330
0
100
AcDbSymbolTable
 70
     1
100
AcDbDimStyleTable
  0
DIMSTYLE
105
27
330
A
100
AcDbSymbolTableRecord
100
AcDbDimStyleTableRecord
  2
Standard
 70
     0
178
     0
340
11
  0
ENDTAB
  0
TABLE
  2
BLOCK_RECORD
  5
1
330
0
100
AcDbSymbolTable
 70
     6
  0
BLOCK_RECORD
  5
1F
330
1
100
AcDbSymbolTableRecord
100
AcDbBlockTableRecord
  2
*Model_Space
340
22
 70
     0
280
     1
281
     0
  0
BLOCK_RECORD
  5
1B
330
1
100
AcDbSymbolTableRecord
100
AcDbBlockTableRecord
  2
*Paper_Space
340
1E
 70
     0
280
     1
281
     0
  0
BLOCK_RECORD
  5
23
330
1
100
AcDbSymbolTableRecord
100
AcDbBlockTableRecord
  2
*Paper_Space0
340
26
 70
     0
280
     1
281
     0
  0
BLOCK_RECORD
  5
41
330
1
100
AcDbSymbolTableRecord
100
AcDbBlockTableRecord
  2
block 2
340
0
102
{BLKREFS
331
42
102
}
 70
     0
280
     1
281
     0
  0
BLOCK_RECORD
  5
52
330
1
100
AcDbSymbolTableRecord
100
AcDbBlockTableRecord
  2
block 3
340
0
102
{BLKREFS
331
53
102
}
 70
     0
280
     1
281
     0
  0
BLOCK_RECORD
  5
6E
330
1
100
AcDbSymbolTableRecord
100
AcDbBlockTableRecord
  2
block 4
340
0
102
{BLKREFS
331
6F
102
}
 70
     0
280
     1
281
     0
  0
BLOCK_RECORD
  5
8C
330
1
100
AcDbSymbolTableRecord
100
AcDbBlockTableRecord
  2
block 5
340
0
102
{BLKREFS
331
8D
102
}
 70
     0
280
     1
281
     0
  0
BLOCK_RECORD
  5
D3
330
1
100
AcDbSymbolTableRecord
100
AcDbBlockTableRecord
  2
block 6
340
0
102
{BLKREFS
331
D4
102
}
 70
     0
280
     1
281
     0
  0
ENDTAB
  0
ENDSEC
  0
SECTION
  2
BLOCKS
  0
BLOCK
  5
20
330
1F
100
AcDbEntity
  8
0
100
AcDbBlockBegin
  2
*Model_Space
 70
     0
 10
0.0
 20
0.0
 30
0.0
  3
*Model_Space
  1

  0
ENDBLK
  5
21
330
1F
100
AcDbEntity
  8
0
100
AcDbBlockEnd
  0
BLOCK
  5
1C
330
1B
100
AcDbEntity
 67
     1
  8
0
100
AcDbBlockBegin
  2
*Paper_Space
 70
     0
 10
0.0
 20
0.0
 30
0.0
  3
*Paper_Space
  1

  0
ENDBLK
  5
1D
330
1B
100
AcDbEntity
 67
     1
  8
0
100
AcDbBlockEnd
  0
BLOCK
  5
24
330
23
100
AcDbEntity
  8
0
100
AcDbBlockBegin
  2
*Paper_Space0
 70
     0
 10
0.0
 20
0.0
 30
0.0
  3
*Paper_Space0
  1

  0
ENDBLK
  5
25
330
23
100
AcDbEntity
  8
0
100
AcDbBlockEnd
  0
BLOCK
  5
43
330
41
100
AcDbEntity
  8
0
100
AcDbBlockBegin
  2
block 2
 70
     0
 10
0.0
 20
0.0
 30
0.0
  3
block 2
  1

  0
SPLINE
  5
45
330
41
100
AcDbEntity
  8
_U+30EC_U+30A4_U+30E4_U+30FC 1
370
     0
100
AcDbSpline
210
0.0
220
0.0
230
1.0
 70
    11
 71
     3
 72
    32
 73
    28
 74
     0
 42
0.0000000001
 43
0.0000000001
 12
1.0
 22
0.0
 32
0.0
 13
1.0
 23
0.0
 33
0.0
 40
0.0
 40
0.0
 40
0.0
 40
0.0
 40
1.0
 40
1.0
 40
1.0
 40
2.0
 40
2.0
 40
2.0
 40
3.0
 40
3.0
 40
3.0
 40
4.0
 40
4.0
 40
4.0
 40
5.0
 40
5.0
 40
5.0
 40
6.0
 40
6.0
 40
6.0
 40
7.0
 40
7.0
 40
7.0
 40
8.0
 40
8.0
 40
8.0
 40
9.0
 40
9.0
 40
9.0
 40
9.0
 10
127.7834146815958
 20
-149.1185465121995
 30
0.0
 10
127.7834146815958
 20
-149.6349663254385
 30
0.0
 10
127.2294433275677
 20
-149.6432345546031
 30
0.0
 10
127.0155028979336
 20
-149.6432345546031
 30
0.0
 10
126.7850260099704
 20
-149.6432345546031
 30
0.0
 10
126.137692568292
 20
-149.6239420198857
 30
0.0
 10
126.137692568292
 20
-149.0803059523133
 30
0.0
 10
126.137692568292
 20
-148.9070176494052
 30
0.0
 10
126.2076280066425
 20
-148.6617268508554
 30
0.0
 10
126.5397352114206
 20
-148.6234862909691
 30
0.0
 10
126.5397352114206
 20
-148.6234862909691
 30
0.0
 10
126.5397352114206
 20
-148.8372544658289
 30
0.0
 10
126.5397352114206
 20
-148.8372544658289
 30
0.0
 10
126.4825466263655
 20
-148.8477620070589
 30
0.0
 10
126.3344075204997
 20
-148.8794568855232
 30
0.0
 10
126.3344075204997
 20
-149.0823730096044
 30
0.0
 10
126.3344075204997
 20
-149.3745171067536
 30
0.0
 10
126.6623806106955
 20
-149.414824723931
 30
0.0
 10
126.8673637920679
 20
-149.4275715772264
 30
0.0
 10
126.7891601245527
 20
-149.3345539991247
 30
0.0
 10
126.7299044822064
 20
-149.2666856180653
 30
0.0
 10
126.7299044822064
 20
-149.0847845764441
 30
0.0
 10
126.7299044822064
 20
-148.904950592114
 30
0.0
 10
126.8380804804433
 20
-148.6024712085091
 30
0.0
 10
127.2442572381542
 20
-148.6024712085091
 30
0.0
 10
127.5636175896369
 20
-148.6024712085091
 30
0.0
 10
127.7834146815958
 20
-148.801253218008
 30
0.0
 10
127.7834146815958
 20
-149.1185465121995
 30
0.0
  0
SPLINE
  5
46
330
41
100
AcDbEntity
  8
_U+30EC_U+30A4_U+30E4_U+30FC 1
370
     0
100
AcDbSpline
210
0.0
220
0.0
230
1.0
 70
    11
 71
     3
 72
    17
 73
    13
 74
     0
 42
0.0000000001
 43
0.0000000001
 12
1.0
 22
0.0
 32
0.0
 13
1.0
 23
0.0
 33
0.0
 40
0.0
 40
0.0
 40
0.0
 40
0.0
 40
1.0
 40
1.0
 40
1.0
 40
2.0
 40
2.0
 40
2.0
 40
3.0
 40
3.0
 40
3.0
 40
4.0
 40
4.0
 40
4.0
 40
4.0
 10
126.924552377123
 20
-149.1016655443218
 30
0.0
 10
126.924552377123
 20
-149.3641818202979
 30
0.0
 10
127.1360812399174
 20
-149.4020778706356
 30
0.0
 10
127.2525254673188
 20
-149.4020778706356
 30
0.0
 10
127.4282253370666
 20
-149.4020778706356
 30
0.0
 10
127.5911783535189
 20
-149.3069932352427
 30
0.0
 10
127.5911783535189
 20
-149.1230251363304
 30
0.0
 10
127.5911783535189
 20
-149.0024467943466
 30
0.0
 10
127.5319227111726
 20
-148.8265746698246
 30
0.0
 10
127.2463242954454
 20
-148.8265746698246
 30
0.0
 10
127.0220485793556
 20
-148.8265746698246
 30
0.0
 10
126.924552377123
 20
-148.9662732917515
 30
0.0
 10
126.924552377123
 20
-149.1016655443218
 30
0.0
  0
HATCH
  5
47
330
41
100
AcDbEntity
  8
_U+30EC_U+30A4_U+30E4_U+30FC 1
 62
   179
420
  2234388
100
AcDbHatch
 10
0.0
 20
0.0
 30
0.0
210
0.0
220
0.0
230
1.0
  2
SOLID
 70
     1
 71
     0
 91
        2
 92
        1
 93
        1
 72
     4
 94
        3
 73
     0
 74
     1
 95
       32
 96
       28
 40
0.0
 40
0.0
 40
0.0
 40
0.0
 40
1.0
 40
1.0
 40
1.0
 40
2.0
 40
2.0
 40
2.0
 40
3.0
 40
3.0
 40
3.0
 40
4.0
 40
4.0
 40
4.0
 40
5.0
 40
5.0
 40
5.0
 40
6.0
 40
6.0
 40
6.0
 40
7.0
 40
7.0
 40
7.0
 40
8.0
 40
8.0
 40
8.0
 40
9.0
 40
9.0
 40
9.0
 40
9.0
 10
127.7834146815958
 20
-149.1185465121995
 10
127.7834146815958
 20
-149.6349663254385
 10
127.2294433275677
 20
-149.6432345546031
 10
127.0155028979336
 20
-149.6432345546031
 10
126.7850260099704
 20
-149.6432345546031
 10
126.137692568292
 20
-149.6239420198857
 10
126.137692568292
 20
-149.0803059523133
 10
126.137692568292
 20
-148.9070176494052
 10
126.2076280066425
 20
-148.6617268508554
 10
126.5397352114206
 20
-148.6234862909691
 10
126.5397352114206
 20
-148.6234862909691
 10
126.5397352114206
 20
-148.8372544658289
 10
126.5397352114206
 20
-148.8372544658289
 10
126.4825466263655
 20
-148.8477620070589
 10
126.3344075204997
 20
-148.8794568855232
 10
126.3344075204997
 20
-149.0823730096044
 10
126.3344075204997
 20
-149.3745171067536
 10
126.6623806106955
 20
-149.414824723931
 10
126.8673637920679
 20
-149.4275715772264
 10
126.7891601245527
 20
-149.3345539991247
 10
126.7299044822064
 20
-149.2666856180653
 10
126.7299044822064
 20
-149.0847845764441
 10
126.7299044822064
 20
-148.904950592114
 10
126.8380804804433
 20
-148.6024712085091
 10
127.2442572381542
 20
-148.6024712085091
 10
127.5636175896369
 20
-148.6024712085091
 10
127.7834146815958
 20
-148.801253218008
 10
127.7834146815958
 20
-149.1185465121995
 97
        0
 97
        0
 92
        1
 93
        1
 72
     4
 94
        3
 73
     0
 74
     1
 95
       17
 96
       13
 40
0.0
 40
0.0
 40
0.0
 40
0.0
 40
1.0
 40
1.0
 40
1.0
 40
2.0
 40
2.0
 40
2.0
 40
3.0
 40
3.0
 40
3.0
 40
4.0
 40
4.0
 40
4.0
 40
4.0
 10
126.924552377123
 20
-149.1016655443218
 10
126.924552377123
 20
-149.3641818202979
 10
127.1360812399174
 20
-149.4020778706356
 10
127.2525254673188
 20
-149.4020778706356
 10
127.4282253370666
 20
-149.4020778706356
 10
127.5911783535189
 20
-149.3069932352427
 10
127.5911783535189
 20
-149.1230251363304
 10
127.5911783535189
 20
-149.0024467943466
 10
127.5319227111726
 20
-148.8265746698246
 10
127.2463242954454
 20
-148.8265746698246
 10
127.0220485793556
 20
-148.8265746698246
 10
126.924552377123
 20
-148.9662732917515
 10
126.924552377123
 20
-149.1016655443218
 97
        0
 97
        0
 75
     2
 76
     1
 98
        0
  0
POLYLINE
  5
48
330
41
100
AcDbEntity
  8
_U+30EC_U+30A4_U+30E4_U+30FC 1
370
     0
100
AcDb2dPolyline
 66
     1
 10
0.0
 20
0.0
 30
0.0
  0
VERTEX
  5
49
330
48
100
AcDbEntity
  8
_U+30EC_U+30A4_U+30E4_U+30FC 1
370
     0
100
AcDbVertex
100
AcDb2dVertex
 10
127.7327717779626
 20
-148.3859469572612
 30
0.0
  0
VERTEX
  5
4A
330
48
100
AcDbEntity
  8
_U+30EC_U+30A4_U+30E4_U+30FC 1
370
     0
100
AcDbVertex
100
AcDb2dVertex
 10
127.4809352979909
 20
-148.3859469572612
 30
0.0
  0
VERTEX
  5
4B
330
48
100
AcDbEntity
  8
_U+30EC_U+30A4_U+30E4_U+30FC 1
370
     0
100
AcDbVertex
100
AcDb2dVertex
 10
127.4809352979909
 20
-148.1342827320637
 30
0.0
  0
VERTEX
  5
4C
330
48
100
AcDbEntity
  8
_U+30EC_U+30A4_U+30E4_U+30FC 1
370
     0
100
AcDbVertex
100
AcDb2dVertex
 10
127.7327717779626
 20
-148.1342827320637
 30
0.0
  0
VERTEX
  5
4D
330
48
100
AcDbEntity
  8
_U+30EC_U+30A4_U+30E4_U+30FC 1
370
     0
100
AcDbVertex
100
AcDb2dVertex
 10
127.7327717779626
 20
-148.3859469572612
 30
0.0
  0
SEQEND
  5
4E
330
48
100
AcDbEntity
  8
_U+30EC_U+30A4_U+30E4_U+30FC 1
370
     0
  0
HATCH
  5
4F
330
41
100
AcDbEntity
  8
_U+30EC_U+30A4_U+30E4_U+30FC 1
 62
   179
420
  2234388
100
AcDbHatch
 10
0.0
 20
0.0
 30
0.0
210
0.0
220
0.0
230
1.0
  2
SOLID
 70
     1
 71
     0
 91
        1
 92
        1
 93
        4
 72
     1
 10
127.7327717779626
 20
-148.3859469572612
 11
127.4809352979909
 21
-148.3859469572612
 72
     1
 10
127.4809352979909
 20
-148.3859469572612
 11
127.4809352979909
 21
-148.1342827320637
 72
     1
 10
127.4809352979909
 20
-148.1342827320637
 11
127.7327717779626
 21
-148.1342827320637
 72
     1
 10
127.7327717779626
 20
-148.1342827320637
 11
127.7327717779626
 21
-148.3859469572612
 97
        0
 75
     2
 76
     1
 98
        0
  0
SPLINE
  5
50
330
41
100
AcDbEntity
  8
_U+30EC_U+30A4_U+30E4_U+30FC 1
370
     0
100
AcDbSpline
210
0.0
220
0.0
230
1.0
 70
    11
 71
     3
 72
    53
 73
    49
 74
     0
 42
0.0000000001
 43
0.0000000001
 12
1.0
 22
0.0
 32
0.0
 13
1.0
 23
0.0
 33
0.0
 40
0.0
 40
0.0
 40
0.0
 40
0.0
 40
1.0
 40
1.0
 40
1.0
 40
2.0
 40
2.0
 40
2.0
 40
3.0
 40
3.0
 40
3.0
 40
4.0
 40
4.0
 40
4.0
 40
5.0
 40
5.0
 40
5.0
 40
6.0
 40
6.0
 40
6.0
 40
7.0
 40
7.0
 40
7.0
 40
8.0
 40
8.0
 40
8.0
 40
9.0
 40
9.0
 40
9.0
 40
10.0
 40
10.0
 40
10.0
 40
11.0
 40
11.0
 40
11.0
 40
12.0
 40
12.0
 40
12.0
 40
13.0
 40
13.0
 40
13.0
 40
14.0
 40
14.0
 40
14.0
 40
15.0
 40
15.0
 40
15.0
 40
16.0
 40
16.0
 40
16.0
 40
16.0
 10
127.7834146815958
 20
-147.4166693424861
 30
0.0
 10
127.7834146815958
 20
-147.4950452647755
 30
0.0
 10
127.7665337137181
 20
-147.5965033268162
 30
0.0
 10
127.7031439567895
 20
-147.698133643631
 30
0.0
 10
127.59324541081
 20
-147.8715942013134
 30
0.0
 10
127.461987272822
 20
-147.8927815385476
 30
0.0
 10
127.3541557841337
 20
-147.9117295637165
 30
0.0
 10
127.3541557841337
 20
-147.9117295637165
 30
0.0
 10
127.3541557841337
 20
-147.6896931596922
 30
0.0
 10
127.3541557841337
 20
-147.6896931596922
 30
0.0
 10
127.5529377936326
 20
-147.6345716319282
 30
0.0
 10
127.5825656148058
 20
-147.5076198632967
 30
0.0
 10
127.5825656148058
 20
-147.414602285195
 30
0.0
 10
127.5825656148058
 20
-147.2750759180423
 30
0.0
 10
127.483002355282
 20
-147.1226304428201
 30
0.0
 10
127.2504584100277
 20
-147.1226304428201
 30
0.0
 10
126.9944878154736
 20
-147.1226304428201
 30
0.0
 10
126.924552377123
 20
-147.3024644271501
 30
0.0
 10
126.924552377123
 20
-147.4230427691338
 30
0.0
 10
126.924552377123
 20
-147.4547376475981
 30
0.0
 10
126.924552377123
 20
-147.5965033268162
 30
0.0
 10
127.0537434578199
 20
-147.6853867903356
 30
0.0
 10
127.0537434578199
 20
-147.6853867903356
 30
0.0
 10
127.034795432651
 20
-147.8609144053091
 30
0.0
 10
127.034795432651
 20
-147.8609144053091
 30
0.0
 10
127.034795432651
 20
-147.8609144053091
 30
0.0
 10
126.1883354719251
 20
-147.7403360633253
 30
0.0
 10
126.1883354719251
 20
-147.7403360633253
 30
0.0
 10
126.1883354719251
 20
-147.7403360633253
 30
0.0
 10
126.1883354719251
 20
-146.9619167384331
 30
0.0
 10
126.1883354719251
 20
-146.9619167384331
 30
0.0
 10
126.1883354719251
 20
-146.9619167384331
 30
0.0
 10
126.3829833668418
 20
-146.9619167384331
 30
0.0
 10
126.3829833668418
 20
-146.9619167384331
 30
0.0
 10
126.3829833668418
 20
-146.9619167384331
 30
0.0
 10
126.3829833668418
 20
-147.5775553016473
 30
0.0
 10
126.3829833668418
 20
-147.5775553016473
 30
0.0
 10
126.3829833668418
 20
-147.5775553016473
 30
0.0
 10
126.8060410924304
 20
-147.643012115867
 30
0.0
 10
126.8060410924304
 20
-147.643012115867
 30
0.0
 10
126.772279156675
 20
-147.5816894162296
 30
0.0
 10
126.7319715394976
 20
-147.4991793793579
 30
0.0
 10
126.7319715394976
 20
-147.3808403494395
 30
0.0
 10
126.7319715394976
 20
-147.1269368121766
 30
0.0
 10
126.9183512052496
 20
-146.8899142427914
 30
0.0
 10
127.2315103848588
 20
-146.8899142427914
 30
0.0
 10
127.5488036790503
 20
-146.8899142427914
 30
0.0
 10
127.7834146815958
 20
-147.1141899588812
 30
0.0
 10
127.7834146815958
 20
-147.4166693424861
 30
0.0
  0
HATCH
  5
51
330
41
100
AcDbEntity
  8
_U+30EC_U+30A4_U+30E4_U+30FC 1
 62
   179
420
  2234388
100
AcDbHatch
 10
0.0
 20
0.0
 30
0.0
210
0.0
220
0.0
230
1.0
  2
SOLID
 70
     1
 71
     0
 91
        1
 92
        1
 93
        1
 72
     4
 94
        3
 73
     0
 74
     1
 95
       53
 96
       49
 40
0.0
 40
0.0
 40
0.0
 40
0.0
 40
1.0
 40
1.0
 40
1.0
 40
2.0
 40
2.0
 40
2.0
 40
3.0
 40
3.0
 40
3.0
 40
4.0
 40
4.0
 40
4.0
 40
5.0
 40
5.0
 40
5.0
 40
6.0
 40
6.0
 40
6.0
 40
7.0
 40
7.0
 40
7.0
 40
8.0
 40
8.0
 40
8.0
 40
9.0
 40
9.0
 40
9.0
 40
10.0
 40
10.0
 40
10.0
 40
11.0
 40
11.0
 40
11.0
 40
12.0
 40
12.0
 40
12.0
 40
13.0
 40
13.0
 40
13.0
 40
14.0
 40
14.0
 40
14.0
 40
15.0
 40
15.0
 40
15.0
 40
16.0
 40
16.0
 40
16.0
 40
16.0
 10
127.7834146815958
 20
-147.4166693424861
 10
127.7834146815958
 20
-147.4950452647755
 10
127.7665337137181
 20
-147.5965033268162
 10
127.7031439567895
 20
-147.698133643631
 10
127.59324541081
 20
-147.8715942013134
 10
127.461987272822
 20
-147.8927815385476
 10
127.3541557841337
 20
-147.9117295637165
 10
127.3541557841337
 20
-147.9117295637165
 10
127.3541557841337
 20
-147.6896931596922
 10
127.3541557841337
 20
-147.6896931596922
 10
127.5529377936326
 20
-147.6345716319282
 10
127.5825656148058
 20
-147.5076198632967
 10
127.5825656148058
 20
-147.414602285195
 10
127.5825656148058
 20
-147.2750759180423
 10
127.483002355282
 20
-147.1226304428201
 10
127.2504584100277
 20
-147.1226304428201
 10
126.9944878154736
 20
-147.1226304428201
 10
126.924552377123
 20
-147.3024644271501
 10
126.924552377123
 20
-147.4230427691338
 10
126.924552377123
 20
-147.4547376475981
 10
126.924552377123
 20
-147.5965033268162
 10
127.0537434578199
 20
-147.6853867903356
 10
127.0537434578199
 20
-147.6853867903356
 10
127.034795432651
 20
-147.8609144053091
 10
127.034795432651
 20
-147.8609144053091
 10
127.034795432651
 20
-147.8609144053091
 10
126.1883354719251
 20
-147.7403360633253
 10
126.1883354719251
 20
-147.7403360633253
 10
126.1883354719251
 20
-147.7403360633253
 10
126.1883354719251
 20
-146.9619167384331
 10
126.1883354719251
 20
-146.9619167384331
 10
126.1883354719251
 20
-146.9619167384331
 10
126.3829833668418
 20
-146.9619167384331
 10
126.3829833668418
 20
-146.9619167384331
 10
126.3829833668418
 20
-146.9619167384331
 10
126.3829833668418
 20
-147.5775553016473
 10
126.3829833668418
 20
-147.5775553016473
 10
126.3829833668418
 20
-147.5775553016473
 10
126.8060410924304
 20
-147.643012115867
 10
126.8060410924304
 20
-147.643012115867
 10
126.772279156675
 20
-147.5816894162296
 10
126.7319715394976
 20
-147.4991793793579
 10
126.7319715394976
 20
-147.3808403494395
 10
126.7319715394976
 20
-147.1269368121766
 10
126.9183512052496
 20
-146.8899142427914
 10
127.2315103848588
 20
-146.8899142427914
 10
127.5488036790503
 20
-146.8899142427914
 10
127.7834146815958
 20
-147.1141899588812
 10
127.7834146815958
 20
-147.4166693424861
 97
        0
 97
        0
 75
     2
 76
     1
 98
        0
  0
ENDBLK
  5
44
330
41
100
AcDbEntity
  8
0
100
AcDbBlockEnd
  0
BLOCK
  5
54
330
52
100
AcDbEntity
  8
0
100
AcDbBlockBegin
  2
block 3
 70
     0
 10
0.0
 20
0.0
 30
0.0
  3
block 3
  1

  0
SPLINE
  5
56
330
52
100
AcDbEntity
  8
_U+30EC_U+30A4_U+30E4_U+30FC 1
370
     0
100
AcDbSpline
210
0.0
220
0.0
230
1.0
 70
    11
 71
     3
 72
    26
 73
    22
 74
     0
 42
0.0000000001
 43
0.0000000001
 12
1.0
 22
0.0
 32
0.0
 13
1.0
 23
0.0
 33
0.0
 40
0.0
 40
0.0
 40
0.0
 40
0.0
 40
1.0
 40
1.0
 40
1.0
 40
2.0
 40
2.0
 40
2.0
 40
3.0
 40
3.0
 40
3.0
 40
4.0
 40
4.0
 40
4.0
 40
5.0
 40
5.0
 40
5.0
 40
6.0
 40
6.0
 40
6.0
 40
7.0
 40
7.0
 40
7.0
 40
7.0
 10
127.7331162875112
 20
-152.0603135470544
 30
0.0
 10
127.7331162875112
 20
-152.0603135470544
 30
0.0
 10
126.6289631844886
 20
-152.0603135470544
 30
0.0
 10
126.6289631844886
 20
-152.0603135470544
 30
0.0
 10
126.6289631844886
 20
-152.0603135470544
 30
0.0
 10
126.6289631844886
 20
-152.3903536945413
 30
0.0
 10
126.6289631844886
 20
-152.3903536945413
 30
0.0
 10
126.6289631844886
 20
-152.3903536945413
 30
0.0
 10
126.4808240786229
 20
-152.3903536945413
 30
0.0
 10
126.4808240786229
 20
-152.3903536945413
 30
0.0
 10
126.4660101680363
 20
-152.0582464897632
 30
0.0
 10
126.303057151584
 20
-152.0120822102609
 30
0.0
 10
126.1886799814737
 20
-151.9824543890877
 30
0.0
 10
126.1886799814737
 20
-151.9824543890877
 30
0.0
 10
126.1886799814737
 20
-151.8363823405131
 30
0.0
 10
126.1886799814737
 20
-151.8363823405131
 30
0.0
 10
126.1886799814737
 20
-151.8363823405131
 30
0.0
 10
127.7331162875112
 20
-151.8363823405131
 30
0.0
 10
127.7331162875112
 20
-151.8363823405131
 30
0.0
 10
127.7331162875112
 20
-151.8363823405131
 30
0.0
 10
127.7331162875112
 20
-152.0603135470544
 30
0.0
 10
127.7331162875112
 20
-152.0603135470544
 30
0.0
  0
HATCH
  5
57
330
52
100
AcDbEntity
  8
_U+30EC_U+30A4_U+30E4_U+30FC 1
 62
   179
420
  2234388
100
AcDbHatch
 10
0.0
 20
0.0
 30
0.0
210
0.0
220
0.0
230
1.0
  2
SOLID
 70
     1
 71
     0
 91
        1
 92
        1
 93
        1
 72
     4
 94
        3
 73
     0
 74
     1
 95
       26
 96
       22
 40
0.0
 40
0.0
 40
0.0
 40
0.0
 40
1.0
 40
1.0
 40
1.0
 40
2.0
 40
2.0
 40
2.0
 40
3.0
 40
3.0
 40
3.0
 40
4.0
 40
4.0
 40
4.0
 40
5.0
 40
5.0
 40
5.0
 40
6.0
 40
6.0
 40
6.0
 40
7.0
 40
7.0
 40
7.0
 40
7.0
 10
127.7331162875112
 20
-152.0603135470544
 10
127.7331162875112
 20
-152.0603135470544
 10
126.6289631844886
 20
-152.0603135470544
 10
126.6289631844886
 20
-152.0603135470544
 10
126.6289631844886
 20
-152.0603135470544
 10
126.6289631844886
 20
-152.3903536945413
 10
126.6289631844886
 20
-152.3903536945413
 10
126.6289631844886
 20
-152.3903536945413
 10
126.4808240786229
 20
-152.3903536945413
 10
126.4808240786229
 20
-152.3903536945413
 10
126.4660101680363
 20
-152.0582464897632
 10
126.303057151584
 20
-152.0120822102609
 10
126.1886799814737
 20
-151.9824543890877
 10
126.1886799814737
 20
-151.9824543890877
 10
126.1886799814737
 20
-151.8363823405131
 10
126.1886799814737
 20
-151.8363823405131
 10
126.1886799814737
 20
-151.8363823405131
 10
127.7331162875112
 20
-151.8363823405131
 10
127.7331162875112
 20
-151.8363823405131
 10
127.7331162875112
 20
-151.8363823405131
 10
127.7331162875112
 20
-152.0603135470544
 10
127.7331162875112
 20
-152.0603135470544
 97
        0
 97
        0
 75
     2
 76
     1
 98
        0
  0
ENDBLK
  5
55
330
52
100
AcDbEntity
  8
0
100
AcDbBlockEnd
  0
BLOCK
  5
70
330
6E
100
AcDbEntity
  8
0
100
AcDbBlockBegin
  2
block 4
 70
     0
 10
0.0
 20
0.0
 30
0.0
  3
block 4
  1

  0
SPLINE
  5
72
330
6E
100
AcDbEntity
  8
_U+30EC_U+30A4_U+30E4_U+30FC 1
370
     0
100
AcDbSpline
210
0.0
220
0.0
230
1.0
 70
    11
 71
     3
 72
    32
 73
    28
 74
     0
 42
0.0000000001
 43
0.0000000001
 12
1.0
 22
0.0
 32
0.0
 13
1.0
 23
0.0
 33
0.0
 40
0.0
 40
0.0
 40
0.0
 40
0.0
 40
1.0
 40
1.0
 40
1.0
 40
2.0
 40
2.0
 40
2.0
 40
3.0
 40
3.0
 40
3.0
 40
4.0
 40
4.0
 40
4.0
 40
5.0
 40
5.0
 40
5.0
 40
6.0
 40
6.0
 40
6.0
 40
7.0
 40
7.0
 40
7.0
 40
8.0
 40
8.0
 40
8.0
 40
9.0
 40
9.0
 40
9.0
 40
9.0
 10
101.8466688113439
 20
-142.2498873884827
 30
0.0
 10
101.3304212528792
 20
-142.2498873884827
 30
0.0
 10
101.3219807689403
 20
-141.6959160344545
 30
0.0
 10
101.3219807689403
 20
-141.4819756048205
 30
0.0
 10
101.3219807689403
 20
-141.2514987168573
 30
0.0
 10
101.3411010488835
 20
-140.6041652751788
 30
0.0
 10
101.8847371164559
 20
-140.6041652751788
 30
0.0
 10
102.0581976741382
 20
-140.6041652751788
 30
0.0
 10
102.303488472688
 20
-140.6741007135294
 30
0.0
 10
102.3417290325743
 20
-141.0062079183075
 30
0.0
 10
102.3417290325743
 20
-141.0062079183075
 30
0.0
 10
102.1279608577145
 20
-141.0062079183075
 30
0.0
 10
102.1279608577145
 20
-141.0062079183075
 30
0.0
 10
102.1174533164845
 20
-140.9490193332523
 30
0.0
 10
102.0857584380202
 20
-140.8008802273866
 30
0.0
 10
101.8826700591648
 20
-140.8008802273866
 30
0.0
 10
101.5906982167898
 20
-140.8008802273866
 30
0.0
 10
101.5503905996124
 20
-141.1288533175824
 30
0.0
 10
101.5378160010912
 20
-141.3338364989548
 30
0.0
 10
101.630833579193
 20
-141.2556328314396
 30
0.0
 10
101.6985297054782
 20
-141.1963771890933
 30
0.0
 10
101.8804307470993
 20
-141.1963771890933
 30
0.0
 10
102.0602647314294
 20
-141.1963771890933
 30
0.0
 10
102.3627441150343
 20
-141.3045531873301
 30
0.0
 10
102.3627441150343
 20
-141.7107299450411
 30
0.0
 10
102.3627441150343
 20
-142.0300902965237
 30
0.0
 10
102.1639621055354
 20
-142.2498873884827
 30
0.0
 10
101.8466688113439
 20
-142.2498873884827
 30
0.0
  0
SPLINE
  5
73
330
6E
100
AcDbEntity
  8
_U+30EC_U+30A4_U+30E4_U+30FC 1
370
     0
100
AcDbSpline
210
0.0
220
0.0
230
1.0
 70
    11
 71
     3
 72
    17
 73
    13
 74
     0
 42
0.0000000001
 43
0.0000000001
 12
1.0
 22
0.0
 32
0.0
 13
1.0
 23
0.0
 33
0.0
 40
0.0
 40
0.0
 40
0.0
 40
0.0
 40
1.0
 40
1.0
 40
1.0
 40
2.0
 40
2.0
 40
2.0
 40
3.0
 40
3.0
 40
3.0
 40
4.0
 40
4.0
 40
4.0
 40
4.0
 10
101.8635497792216
 20
-141.3910250840099
 30
0.0
 10
101.6012057580198
 20
-141.3910250840099
 30
0.0
 10
101.5631374529078
 20
-141.6025539468042
 30
0.0
 10
101.5631374529078
 20
-141.7189981742057
 30
0.0
 10
101.5631374529078
 20
-141.8946980439534
 30
0.0
 10
101.658394343075
 20
-142.0576510604057
 30
0.0
 10
101.8423624419873
 20
-142.0576510604057
 30
0.0
 10
101.9629407839711
 20
-142.0576510604057
 30
0.0
 10
102.1386406537188
 20
-141.9983954180594
 30
0.0
 10
102.1386406537188
 20
-141.7127970023322
 30
0.0
 10
102.1386406537188
 20
-141.4885212862424
 30
0.0
 10
101.9989420317919
 20
-141.3910250840099
 30
0.0
 10
101.8635497792216
 20
-141.3910250840099
 30
0.0
  0
HATCH
  5
74
330
6E
100
AcDbEntity
  8
_U+30EC_U+30A4_U+30E4_U+30FC 1
 62
   179
420
  2234388
100
AcDbHatch
 10
0.0
 20
0.0
 30
0.0
210
0.0
220
0.0
230
1.0
  2
SOLID
 70
     1
 71
     0
 91
        2
 92
        1
 93
        1
 72
     4
 94
        3
 73
     0
 74
     1
 95
       32
 96
       28
 40
0.0
 40
0.0
 40
0.0
 40
0.0
 40
1.0
 40
1.0
 40
1.0
 40
2.0
 40
2.0
 40
2.0
 40
3.0
 40
3.0
 40
3.0
 40
4.0
 40
4.0
 40
4.0
 40
5.0
 40
5.0
 40
5.0
 40
6.0
 40
6.0
 40
6.0
 40
7.0
 40
7.0
 40
7.0
 40
8.0
 40
8.0
 40
8.0
 40
9.0
 40
9.0
 40
9.0
 40
9.0
 10
101.8466688113439
 20
-142.2498873884827
 10
101.3304212528792
 20
-142.2498873884827
 10
101.3219807689403
 20
-141.6959160344545
 10
101.3219807689403
 20
-141.4819756048205
 10
101.3219807689403
 20
-141.2514987168573
 10
101.3411010488835
 20
-140.6041652751788
 10
101.8847371164559
 20
-140.6041652751788
 10
102.0581976741382
 20
-140.6041652751788
 10
102.303488472688
 20
-140.6741007135294
 10
102.3417290325743
 20
-141.0062079183075
 10
102.3417290325743
 20
-141.0062079183075
 10
102.1279608577145
 20
-141.0062079183075
 10
102.1279608577145
 20
-141.0062079183075
 10
102.1174533164845
 20
-140.9490193332523
 10
102.0857584380202
 20
-140.8008802273866
 10
101.8826700591648
 20
-140.8008802273866
 10
101.5906982167898
 20
-140.8008802273866
 10
101.5503905996124
 20
-141.1288533175824
 10
101.5378160010912
 20
-141.3338364989548
 10
101.630833579193
 20
-141.2556328314396
 10
101.6985297054782
 20
-141.1963771890933
 10
101.8804307470993
 20
-141.1963771890933
 10
102.0602647314294
 20
-141.1963771890933
 10
102.3627441150343
 20
-141.3045531873301
 10
102.3627441150343
 20
-141.7107299450411
 10
102.3627441150343
 20
-142.0300902965237
 10
102.1639621055354
 20
-142.2498873884827
 10
101.8466688113439
 20
-142.2498873884827
 97
        0
 97
        0
 92
        1
 93
        1
 72
     4
 94
        3
 73
     0
 74
     1
 95
       17
 96
       13
 40
0.0
 40
0.0
 40
0.0
 40
0.0
 40
1.0
 40
1.0
 40
1.0
 40
2.0
 40
2.0
 40
2.0
 40
3.0
 40
3.0
 40
3.0
 40
4.0
 40
4.0
 40
4.0
 40
4.0
 10
101.8635497792216
 20
-141.3910250840099
 10
101.6012057580198
 20
-141.3910250840099
 10
101.5631374529078
 20
-141.6025539468042
 10
101.5631374529078
 20
-141.7189981742057
 10
101.5631374529078
 20
-141.8946980439534
 10
101.658394343075
 20
-142.0576510604057
 10
101.8423624419873
 20
-142.0576510604057
 10
101.9629407839711
 20
-142.0576510604057
 10
102.1386406537188
 20
-141.9983954180594
 10
102.1386406537188
 20
-141.7127970023322
 10
102.1386406537188
 20
-141.4885212862424
 10
101.9989420317919
 20
-141.3910250840099
 10
101.8635497792216
 20
-141.3910250840099
 97
        0
 97
        0
 75
     2
 76
     1
 98
        0
  0
ENDBLK
  5
71
330
6E
100
AcDbEntity
  8
0
100
AcDbBlockEnd
  0
BLOCK
  5
8E
330
8C
100
AcDbEntity
  8
0
100
AcDbBlockBegin
  2
block 5
 70
     0
 10
0.0
 20
0.0
 30
0.0
  3
block 5
  1

  0
POLYLINE
  5
90
330
8C
100
AcDbEntity
  8
_U+30EC_U+30A4_U+30E4_U+30FC 1
370
     0
100
AcDb2dPolyline
 66
     1
 10
0.0
 20
0.0
 30
0.0
  0
VERTEX
  5
91
330
90
100
AcDbEntity
  8
_U+30EC_U+30A4_U+30E4_U+30FC 1
370
     0
100
AcDbVertex
100
AcDb2dVertex
 10
101.5877698856274
 20
-155.5698323178784
 30
0.0
  0
VERTEX
  5
92
330
90
100
AcDbEntity
  8
_U+30EC_U+30A4_U+30E4_U+30FC 1
370
     0
100
AcDbVertex
100
AcDb2dVertex
 10
101.5877698856274
 20
-155.916753433243
 30
0.0
  0
VERTEX
  5
93
330
90
100
AcDbEntity
  8
_U+30EC_U+30A4_U+30E4_U+30FC 1
370
     0
100
AcDbVertex
100
AcDb2dVertex
 10
101.3698675961853
 20
-155.916753433243
 30
0.0
  0
VERTEX
  5
94
330
90
100
AcDbEntity
  8
_U+30EC_U+30A4_U+30E4_U+30FC 1
370
     0
100
AcDbVertex
100
AcDb2dVertex
 10
101.3698675961853
 20
-155.5698323178784
 30
0.0
  0
VERTEX
  5
95
330
90
100
AcDbEntity
  8
_U+30EC_U+30A4_U+30E4_U+30FC 1
370
     0
100
AcDbVertex
100
AcDb2dVertex
 10
100.714093670568
 20
-155.5698323178784
 30
0.0
  0
VERTEX
  5
96
330
90
100
AcDbEntity
  8
_U+30EC_U+30A4_U+30E4_U+30FC 1
370
     0
100
AcDbVertex
100
AcDb2dVertex
 10
100.714093670568
 20
-155.3455566017886
 30
0.0
  0
VERTEX
  5
97
330
90
100
AcDbEntity
  8
_U+30EC_U+30A4_U+30E4_U+30FC 1
370
     0
100
AcDbVertex
100
AcDb2dVertex
 10
101.3931219907108
 20
-154.3723171272055
 30
0.0
  0
VERTEX
  5
98
330
90
100
AcDbEntity
  8
_U+30EC_U+30A4_U+30E4_U+30FC 1
370
     0
100
AcDbVertex
100
AcDb2dVertex
 10
101.5877698856274
 20
-154.3723171272055
 30
0.0
  0
VERTEX
  5
99
330
90
100
AcDbEntity
  8
_U+30EC_U+30A4_U+30E4_U+30FC 1
370
     0
100
AcDbVertex
100
AcDb2dVertex
 10
101.5877698856274
 20
-155.3710503083795
 30
0.0
  0
VERTEX
  5
9A
330
90
100
AcDbEntity
  8
_U+30EC_U+30A4_U+30E4_U+30FC 1
370
     0
100
AcDbVertex
100
AcDb2dVertex
 10
101.7951646338394
 20
-155.3710503083795
 30
0.0
  0
VERTEX
  5
9B
330
90
100
AcDbEntity
  8
_U+30EC_U+30A4_U+30E4_U+30FC 1
370
     0
100
AcDbVertex
100
AcDb2dVertex
 10
101.7951646338394
 20
-155.5698323178784
 30
0.0
  0
VERTEX
  5
9C
330
90
100
AcDbEntity
  8
_U+30EC_U+30A4_U+30E4_U+30FC 1
370
     0
100
AcDbVertex
100
AcDb2dVertex
 10
101.5877698856274
 20
-155.5698323178784
 30
0.0
  0
SEQEND
  5
9D
330
90
100
AcDbEntity
  8
_U+30EC_U+30A4_U+30E4_U+30FC 1
370
     0
  0
POLYLINE
  5
9E
330
8C
100
AcDbEntity
  8
_U+30EC_U+30A4_U+30E4_U+30FC 1
370
     0
100
AcDb2dPolyline
 66
     1
 10
0.0
 20
0.0
 30
0.0
  0
VERTEX
  5
9F
330
9E
100
AcDbEntity
  8
_U+30EC_U+30A4_U+30E4_U+30FC 1
370
     0
100
AcDbVertex
100
AcDb2dVertex
 10
101.3698675961853
 20
-154.7151041279879
 30
0.0
  0
VERTEX
  5
A0
330
9E
100
AcDbEntity
  8
_U+30EC_U+30A4_U+30E4_U+30FC 1
370
     0
100
AcDbVertex
100
AcDb2dVertex
 10
100.9130479348412
 20
-155.3710503083795
 30
0.0
  0
VERTEX
  5
A1
330
9E
100
AcDbEntity
  8
_U+30EC_U+30A4_U+30E4_U+30FC 1
370
     0
100
AcDbVertex
100
AcDb2dVertex
 10
101.3698675961853
 20
-155.3710503083795
 30
0.0
  0
VERTEX
  5
A2
330
9E
100
AcDbEntity
  8
_U+30EC_U+30A4_U+30E4_U+30FC 1
370
     0
100
AcDbVertex
100
AcDb2dVertex
 10
101.3698675961853
 20
-154.7151041279879
 30
0.0
  0
SEQEND
  5
A3
330
9E
100
AcDbEntity
  8
_U+30EC_U+30A4_U+30E4_U+30FC 1
370
     0
  0
HATCH
  5
A4
330
8C
100
AcDbEntity
  8
_U+30EC_U+30A4_U+30E4_U+30FC 1
 62
   179
420
  2234388
100
AcDbHatch
 10
0.0
 20
0.0
 30
0.0
210
0.0
220
0.0
230
1.0
  2
SOLID
 70
     1
 71
     0
 91
        2
 92
        1
 93
       11
 72
     1
 10
101.5877698856274
 20
-155.5698323178784
 11
101.5877698856274
 21
-155.916753433243
 72
     1
 10
101.5877698856274
 20
-155.916753433243
 11
101.3698675961853
 21
-155.916753433243
 72
     1
 10
101.3698675961853
 20
-155.916753433243
 11
101.3698675961853
 21
-155.5698323178784
 72
     1
 10
101.3698675961853
 20
-155.5698323178784
 11
100.714093670568
 21
-155.5698323178784
 72
     1
 10
100.714093670568
 20
-155.5698323178784
 11
100.714093670568
 21
-155.3455566017886
 72
     1
 10
100.714093670568
 20
-155.3455566017886
 11
101.3931219907108
 21
-154.3723171272055
 72
     1
 10
101.3931219907108
 20
-154.3723171272055
 11
101.5877698856274
 21
-154.3723171272055
 72
     1
 10
101.5877698856274
 20
-154.3723171272055
 11
101.5877698856274
 21
-155.3710503083795
 72
     1
 10
101.5877698856274
 20
-155.3710503083795
 11
101.7951646338394
 21
-155.3710503083795
 72
     1
 10
101.7951646338394
 20
-155.3710503083795
 11
101.7951646338394
 21
-155.5698323178784
 72
     1
 10
101.7951646338394
 20
-155.5698323178784
 11
101.5877698856274
 21
-155.5698323178784
 97
        0
 92
        1
 93
        3
 72
     1
 10
101.3698675961853
 20
-154.7151041279879
 11
100.9130479348412
 21
-155.3710503083795
 72
     1
 10
100.9130479348412
 20
-155.3710503083795
 11
101.3698675961853
 21
-155.3710503083795
 72
     1
 10
101.3698675961853
 20
-155.3710503083795
 11
101.3698675961853
 21
-154.7151041279879
 97
        0
 75
     2
 76
     1
 98
        0
  0
SPLINE
  5
A5
330
8C
100
AcDbEntity
  8
_U+30EC_U+30A4_U+30E4_U+30FC 1
370
     0
100
AcDbSpline
210
0.0
220
0.0
230
1.0
 70
    11
 71
     3
 72
    29
 73
    25
 74
     0
 42
0.0000000001
 43
0.0000000001
 12
1.0
 22
0.0
 32
0.0
 13
1.0
 23
0.0
 33
0.0
 40
0.0
 40
0.0
 40
0.0
 40
0.0
 40
1.0
 40
1.0
 40
1.0
 40
2.0
 40
2.0
 40
2.0
 40
3.0
 40
3.0
 40
3.0
 40
4.0
 40
4.0
 40
4.0
 40
5.0
 40
5.0
 40
5.0
 40
6.0
 40
6.0
 40
6.0
 40
7.0
 40
7.0
 40
7.0
 40
8.0
 40
8.0
 40
8.0
 40
8.0
 10
102.8302435723827
 20
-155.7389865062042
 30
0.0
 10
102.7224120836944
 20
-155.9484483117074
 30
0.0
 10
102.5489515260121
 20
-155.9673963368762
 30
0.0
 10
102.4325072986106
 20
-155.9673963368762
 30
0.0
 10
102.2717935942237
 20
-155.9673963368762
 30
0.0
 10
102.1300279150057
 20
-155.9208875478253
 30
0.0
 10
102.0347710248385
 20
-155.7389865062042
 30
0.0
 10
101.9312459055068
 20
-155.5443386112875
 30
0.0
 10
101.9121256255636
 20
-155.3076605514509
 30
0.0
 10
101.9121256255636
 20
-155.1447075349986
 30
0.0
 10
101.9121256255636
 20
-155.0007025437151
 30
0.0
 10
101.9290065934414
 20
-154.7488660637433
 30
0.0
 10
102.0347710248385
 20
-154.5500840542444
 30
0.0
 10
102.1427747683011
 20
-154.3471679301632
 30
0.0
 10
102.303488472688
 20
-154.3237412808635
 30
0.0
 10
102.4325072986106
 20
-154.3237412808635
 30
0.0
 10
102.5911539457064
 20
-154.3237412808635
 30
0.0
 10
102.7349866822156
 20
-154.3681830126232
 30
0.0
 10
102.8302435723827
 20
-154.5500840542444
 30
0.0
 10
102.9296345771322
 20
-154.7426648918699
 30
0.0
 10
102.9528889716576
 20
-154.971074722542
 30
0.0
 10
102.9528889716576
 20
-155.1447075349986
 30
0.0
 10
102.9528889716576
 20
-155.3159287806155
 30
0.0
 10
102.9318738891976
 20
-155.5464056685787
 30
0.0
 10
102.8302435723827
 20
-155.7389865062042
 30
0.0
  0
SPLINE
  5
A6
330
8C
100
AcDbEntity
  8
_U+30EC_U+30A4_U+30E4_U+30FC 1
370
     0
100
AcDbSpline
210
0.0
220
0.0
230
1.0
 70
    11
 71
     3
 72
    17
 73
    13
 74
     0
 42
0.0000000001
 43
0.0000000001
 12
1.0
 22
0.0
 32
0.0
 13
1.0
 23
0.0
 33
0.0
 40
0.0
 40
0.0
 40
0.0
 40
0.0
 40
1.0
 40
1.0
 40
1.0
 40
2.0
 40
2.0
 40
2.0
 40
3.0
 40
3.0
 40
3.0
 40
4.0
 40
4.0
 40
4.0
 40
4.0
 10
102.4325072986106
 20
-154.516322118489
 30
0.0
 10
102.1829101307043
 20
-154.516322118489
 30
0.0
 10
102.1364013416534
 20
-154.7998534769251
 30
0.0
 10
102.1364013416534
 20
-155.1447075349986
 30
0.0
 10
102.1364013416534
 20
-155.4640678864812
 30
0.0
 10
102.1724025894743
 20
-155.7727484419596
 30
0.0
 10
102.4325072986106
 20
-155.7727484419596
 30
0.0
 10
102.6800374092258
 20
-155.7727484419596
 30
0.0
 10
102.7287855103421
 20
-155.4916286503632
 30
0.0
 10
102.7287855103421
 20
-155.1447075349986
 30
0.0
 10
102.7287855103421
 20
-154.8250026739674
 30
0.0
 10
102.6907172052301
 20
-154.516322118489
 30
0.0
 10
102.4325072986106
 20
-154.516322118489
 30
0.0
  0
HATCH
  5
A7
330
8C
100
AcDbEntity
  8
_U+30EC_U+30A4_U+30E4_U+30FC 1
 62
   179
420
  2234388
100
AcDbHatch
 10
0.0
 20
0.0
 30
0.0
210
0.0
220
0.0
230
1.0
  2
SOLID
 70
     1
 71
     0
 91
        2
 92
        1
 93
        1
 72
     4
 94
        3
 73
     0
 74
     1
 95
       29
 96
       25
 40
0.0
 40
0.0
 40
0.0
 40
0.0
 40
1.0
 40
1.0
 40
1.0
 40
2.0
 40
2.0
 40
2.0
 40
3.0
 40
3.0
 40
3.0
 40
4.0
 40
4.0
 40
4.0
 40
5.0
 40
5.0
 40
5.0
 40
6.0
 40
6.0
 40
6.0
 40
7.0
 40
7.0
 40
7.0
 40
8.0
 40
8.0
 40
8.0
 40
8.0
 10
102.8302435723827
 20
-155.7389865062042
 10
102.7224120836944
 20
-155.9484483117074
 10
102.5489515260121
 20
-155.9673963368762
 10
102.4325072986106
 20
-155.9673963368762
 10
102.2717935942237
 20
-155.9673963368762
 10
102.1300279150057
 20
-155.9208875478253
 10
102.0347710248385
 20
-155.7389865062042
 10
101.9312459055068
 20
-155.5443386112875
 10
101.9121256255636
 20
-155.3076605514509
 10
101.9121256255636
 20
-155.1447075349986
 10
101.9121256255636
 20
-155.0007025437151
 10
101.9290065934414
 20
-154.7488660637433
 10
102.0347710248385
 20
-154.5500840542444
 10
102.1427747683011
 20
-154.3471679301632
 10
102.303488472688
 20
-154.3237412808635
 10
102.4325072986106
 20
-154.3237412808635
 10
102.5911539457064
 20
-154.3237412808635
 10
102.7349866822156
 20
-154.3681830126232
 10
102.8302435723827
 20
-154.5500840542444
 10
102.9296345771322
 20
-154.7426648918699
 10
102.9528889716576
 20
-154.971074722542
 10
102.9528889716576
 20
-155.1447075349986
 10
102.9528889716576
 20
-155.3159287806155
 10
102.9318738891976
 20
-155.5464056685787
 10
102.8302435723827
 20
-155.7389865062042
 97
        0
 97
        0
 92
        1
 93
        1
 72
     4
 94
        3
 73
     0
 74
     1
 95
       17
 96
       13
 40
0.0
 40
0.0
 40
0.0
 40
0.0
 40
1.0
 40
1.0
 40
1.0
 40
2.0
 40
2.0
 40
2.0
 40
3.0
 40
3.0
 40
3.0
 40
4.0
 40
4.0
 40
4.0
 40
4.0
 10
102.4325072986106
 20
-154.516322118489
 10
102.1829101307043
 20
-154.516322118489
 10
102.1364013416534
 20
-154.7998534769251
 10
102.1364013416534
 20
-155.1447075349986
 10
102.1364013416534
 20
-155.4640678864812
 10
102.1724025894743
 20
-155.7727484419596
 10
102.4325072986106
 20
-155.7727484419596
 10
102.6800374092258
 20
-155.7727484419596
 10
102.7287855103421
 20
-155.4916286503632
 10
102.7287855103421
 20
-155.1447075349986
 10
102.7287855103421
 20
-154.8250026739674
 10
102.6907172052301
 20
-154.516322118489
 10
102.4325072986106
 20
-154.516322118489
 97
        0
 97
        0
 75
     2
 76
     1
 98
        0
  0
ENDBLK
  5
8F
330
8C
100
AcDbEntity
  8
0
100
AcDbBlockEnd
  0
BLOCK
  5
D5
330
D3
100
AcDbEntity
  8
0
100
AcDbBlockBegin
  2
block 6
 70
     0
 10
0.0
 20
0.0
 30
0.0
  3
block 6
  1

  0
POLYLINE
  5
D7
330
D3
100
AcDbEntity
  8
_U+30EC_U+30A4_U+30E4_U+30FC 1
370
     0
100
AcDb2dPolyline
 66
     1
 10
0.0
 20
0.0
 30
0.0
  0
VERTEX
  5
D8
330
D7
100
AcDbEntity
  8
_U+30EC_U+30A4_U+30E4_U+30FC 1
370
     0
100
AcDbVertex
100
AcDb2dVertex
 10
94.53720972028931
 20
-154.2379584032808
 30
0.0
  0
VERTEX
  5
D9
330
D7
100
AcDbEntity
  8
_U+30EC_U+30A4_U+30E4_U+30FC 1
370
     0
100
AcDbVertex
100
AcDb2dVertex
 10
94.53720972028931
 20
-154.0770724441196
 30
0.0
  0
VERTEX
  5
DA
330
D7
100
AcDbEntity
  8
_U+30EC_U+30A4_U+30E4_U+30FC 1
370
     0
100
AcDbVertex
100
AcDb2dVertex
 10
94.6915499980285
 20
-154.0770724441196
 30
0.0
  0
VERTEX
  5
DB
330
D7
100
AcDbEntity
  8
_U+30EC_U+30A4_U+30E4_U+30FC 1
370
     0
100
AcDbVertex
100
AcDb2dVertex
 10
94.6915499980285
 20
-154.2379584032808
 30
0.0
  0
VERTEX
  5
DC
330
D7
100
AcDbEntity
  8
_U+30EC_U+30A4_U+30E4_U+30FC 1
370
     0
100
AcDbVertex
100
AcDb2dVertex
 10
95.0851521572183
 20
-154.2379584032808
 30
0.0
  0
VERTEX
  5
DD
330
D7
100
AcDbEntity
  8
_U+30EC_U+30A4_U+30E4_U+30FC 1
370
     0
100
AcDbVertex
100
AcDb2dVertex
 10
95.0851521572183
 20
-154.39229868102
 30
0.0
  0
VERTEX
  5
DE
330
D7
100
AcDbEntity
  8
_U+30EC_U+30A4_U+30E4_U+30FC 1
370
     0
100
AcDbVertex
100
AcDb2dVertex
 10
94.6915499980285
 20
-154.39229868102
 30
0.0
  0
VERTEX
  5
DF
330
D7
100
AcDbEntity
  8
_U+30EC_U+30A4_U+30E4_U+30FC 1
370
     0
100
AcDbVertex
100
AcDb2dVertex
 10
94.6915499980285
 20
-154.5469834683077
 30
0.0
  0
VERTEX
  5
E0
330
D7
100
AcDbEntity
  8
_U+30EC_U+30A4_U+30E4_U+30FC 1
370
     0
100
AcDbVertex
100
AcDb2dVertex
 10
95.04691159733203
 20
-154.5469834683077
 30
0.0
  0
VERTEX
  5
E1
330
D7
100
AcDbEntity
  8
_U+30EC_U+30A4_U+30E4_U+30FC 1
370
     0
100
AcDbVertex
100
AcDb2dVertex
 10
95.04691159733203
 20
-155.3593369837296
 30
0.0
  0
VERTEX
  5
E2
330
D7
100
AcDbEntity
  8
_U+30EC_U+30A4_U+30E4_U+30FC 1
370
     0
100
AcDbVertex
100
AcDb2dVertex
 10
94.6915499980285
 20
-155.3593369837296
 30
0.0
  0
VERTEX
  5
E3
330
D7
100
AcDbEntity
  8
_U+30EC_U+30A4_U+30E4_U+30FC 1
370
     0
100
AcDbVertex
100
AcDb2dVertex
 10
94.6915499980285
 20
-155.5284911720554
 30
0.0
  0
VERTEX
  5
E4
330
D7
100
AcDbEntity
  8
_U+30EC_U+30A4_U+30E4_U+30FC 1
370
     0
100
AcDbVertex
100
AcDb2dVertex
 10
95.09979381303062
 20
-155.5284911720554
 30
0.0
  0
VERTEX
  5
E5
330
D7
100
AcDbEntity
  8
_U+30EC_U+30A4_U+30E4_U+30FC 1
370
     0
100
AcDbVertex
100
AcDb2dVertex
 10
95.09979381303062
 20
-155.6828314497946
 30
0.0
  0
VERTEX
  5
E6
330
D7
100
AcDbEntity
  8
_U+30EC_U+30A4_U+30E4_U+30FC 1
370
     0
100
AcDbVertex
100
AcDb2dVertex
 10
94.6915499980285
 20
-155.6828314497946
 30
0.0
  0
VERTEX
  5
E7
330
D7
100
AcDbEntity
  8
_U+30EC_U+30A4_U+30E4_U+30FC 1
370
     0
100
AcDbVertex
100
AcDb2dVertex
 10
94.6915499980285
 20
-156.0362982465812
 30
0.0
  0
VERTEX
  5
E8
330
D7
100
AcDbEntity
  8
_U+30EC_U+30A4_U+30E4_U+30FC 1
370
     0
100
AcDbVertex
100
AcDb2dVertex
 10
94.53720972028931
 20
-156.0362982465812
 30
0.0
  0
VERTEX
  5
E9
330
D7
100
AcDbEntity
  8
_U+30EC_U+30A4_U+30E4_U+30FC 1
370
     0
100
AcDbVertex
100
AcDb2dVertex
 10
94.53720972028931
 20
-155.6828314497946
 30
0.0
  0
VERTEX
  5
EA
330
D7
100
AcDbEntity
  8
_U+30EC_U+30A4_U+30E4_U+30FC 1
370
     0
100
AcDbVertex
100
AcDb2dVertex
 10
94.12672659322179
 20
-155.6828314497946
 30
0.0
  0
VERTEX
  5
EB
330
D7
100
AcDbEntity
  8
_U+30EC_U+30A4_U+30E4_U+30FC 1
370
     0
100
AcDbVertex
100
AcDb2dVertex
 10
94.12672659322179
 20
-155.5284911720554
 30
0.0
  0
VERTEX
  5
EC
330
D7
100
AcDbEntity
  8
_U+30EC_U+30A4_U+30E4_U+30FC 1
370
     0
100
AcDbVertex
100
AcDb2dVertex
 10
94.53720972028931
 20
-155.5284911720554
 30
0.0
  0
VERTEX
  5
ED
330
D7
100
AcDbEntity
  8
_U+30EC_U+30A4_U+30E4_U+30FC 1
370
     0
100
AcDbVertex
100
AcDb2dVertex
 10
94.53720972028931
 20
-155.3593369837296
 30
0.0
  0
VERTEX
  5
EE
330
D7
100
AcDbEntity
  8
_U+30EC_U+30A4_U+30E4_U+30FC 1
370
     0
100
AcDbVertex
100
AcDb2dVertex
 10
94.18804929285925
 20
-155.3593369837296
 30
0.0
  0
VERTEX
  5
EF
330
D7
100
AcDbEntity
  8
_U+30EC_U+30A4_U+30E4_U+30FC 1
370
     0
100
AcDbVertex
100
AcDb2dVertex
 10
94.18804929285925
 20
-154.5469834683077
 30
0.0
  0
VERTEX
  5
F0
330
D7
100
AcDbEntity
  8
_U+30EC_U+30A4_U+30E4_U+30FC 1
370
     0
100
AcDbVertex
100
AcDb2dVertex
 10
94.53720972028931
 20
-154.5469834683077
 30
0.0
  0
VERTEX
  5
F1
330
D7
100
AcDbEntity
  8
_U+30EC_U+30A4_U+30E4_U+30FC 1
370
     0
100
AcDbVertex
100
AcDb2dVertex
 10
94.53720972028931
 20
-154.39229868102
 30
0.0
  0
VERTEX
  5
F2
330
D7
100
AcDbEntity
  8
_U+30EC_U+30A4_U+30E4_U+30FC 1
370
     0
100
AcDbVertex
100
AcDb2dVertex
 10
94.14791393045608
 20
-154.39229868102
 30
0.0
  0
VERTEX
  5
F3
330
D7
100
AcDbEntity
  8
_U+30EC_U+30A4_U+30E4_U+30FC 1
370
     0
100
AcDbVertex
100
AcDb2dVertex
 10
94.14791393045608
 20
-154.2379584032808
 30
0.0
  0
VERTEX
  5
F4
330
D7
100
AcDbEntity
  8
_U+30EC_U+30A4_U+30E4_U+30FC 1
370
     0
100
AcDbVertex
100
AcDb2dVertex
 10
94.53720972028931
 20
-154.2379584032808
 30
0.0
  0
SEQEND
  5
F5
330
D7
100
AcDbEntity
  8
_U+30EC_U+30A4_U+30E4_U+30FC 1
370
     0
  0
POLYLINE
  5
F6
330
D3
100
AcDbEntity
  8
_U+30EC_U+30A4_U+30E4_U+30FC 1
370
     0
100
AcDb2dPolyline
 66
     1
 10
0.0
 20
0.0
 30
0.0
  0
VERTEX
  5
F7
330
F6
100
AcDbEntity
  8
_U+30EC_U+30A4_U+30E4_U+30FC 1
370
     0
100
AcDbVertex
100
AcDb2dVertex
 10
94.53720972028931
 20
-154.6865098354603
 30
0.0
  0
VERTEX
  5
F8
330
F6
100
AcDbEntity
  8
_U+30EC_U+30A4_U+30E4_U+30FC 1
370
     0
100
AcDbVertex
100
AcDb2dVertex
 10
94.32981497207727
 20
-154.6865098354603
 30
0.0
  0
VERTEX
  5
F9
330
F6
100
AcDbEntity
  8
_U+30EC_U+30A4_U+30E4_U+30FC 1
370
     0
100
AcDbVertex
100
AcDb2dVertex
 10
94.32981497207727
 20
-154.8894259595415
 30
0.0
  0
VERTEX
  5
FA
330
F6
100
AcDbEntity
  8
_U+30EC_U+30A4_U+30E4_U+30FC 1
370
     0
100
AcDbVertex
100
AcDb2dVertex
 10
94.53720972028931
 20
-154.8894259595415
 30
0.0
  0
VERTEX
  5
FB
330
F6
100
AcDbEntity
  8
_U+30EC_U+30A4_U+30E4_U+30FC 1
370
     0
100
AcDbVertex
100
AcDb2dVertex
 10
94.53720972028931
 20
-154.6865098354603
 30
0.0
  0
SEQEND
  5
FC
330
F6
100
AcDbEntity
  8
_U+30EC_U+30A4_U+30E4_U+30FC 1
370
     0
  0
POLYLINE
  5
FD
330
D3
100
AcDbEntity
  8
_U+30EC_U+30A4_U+30E4_U+30FC 1
370
     0
100
AcDb2dPolyline
 66
     1
 10
0.0
 20
0.0
 30
0.0
  0
VERTEX
  5
FE
330
FD
100
AcDbEntity
  8
_U+30EC_U+30A4_U+30E4_U+30FC 1
370
     0
100
AcDbVertex
100
AcDb2dVertex
 10
94.53720972028931
 20
-155.012415868365
 30
0.0
  0
VERTEX
  5
FF
330
FD
100
AcDbEntity
  8
_U+30EC_U+30A4_U+30E4_U+30FC 1
370
     0
100
AcDbVertex
100
AcDb2dVertex
 10
94.32981497207727
 20
-155.012415868365
 30
0.0
  0
VERTEX
  5
100
330
FD
100
AcDbEntity
  8
_U+30EC_U+30A4_U+30E4_U+30FC 1
370
     0
100
AcDbVertex
100
AcDb2dVertex
 10
94.32981497207727
 20
-155.2194661070285
 30
0.0
  0
VERTEX
  5
101
330
FD
100
AcDbEntity
  8
_U+30EC_U+30A4_U+30E4_U+30FC 1
370
     0
100
AcDbVertex
100
AcDb2dVertex
 10
94.53720972028931
 20
-155.2194661070285
 30
0.0
  0
VERTEX
  5
102
330
FD
100
AcDbEntity
  8
_U+30EC_U+30A4_U+30E4_U+30FC 1
370
     0
100
AcDbVertex
100
AcDb2dVertex
 10
94.53720972028931
 20
-155.012415868365
 30
0.0
  0
SEQEND
  5
103
330
FD
100
AcDbEntity
  8
_U+30EC_U+30A4_U+30E4_U+30FC 1
370
     0
  0
POLYLINE
  5
104
330
D3
100
AcDbEntity
  8
_U+30EC_U+30A4_U+30E4_U+30FC 1
370
     0
100
AcDb2dPolyline
 66
     1
 10
0.0
 20
0.0
 30
0.0
  0
VERTEX
  5
105
330
104
100
AcDbEntity
  8
_U+30EC_U+30A4_U+30E4_U+30FC 1
370
     0
100
AcDbVertex
100
AcDb2dVertex
 10
94.90307886082284
 20
-154.6865098354603
 30
0.0
  0
VERTEX
  5
106
330
104
100
AcDbEntity
  8
_U+30EC_U+30A4_U+30E4_U+30FC 1
370
     0
100
AcDbVertex
100
AcDb2dVertex
 10
94.6915499980285
 20
-154.6865098354603
 30
0.0
  0
VERTEX
  5
107
330
104
100
AcDbEntity
  8
_U+30EC_U+30A4_U+30E4_U+30FC 1
370
     0
100
AcDbVertex
100
AcDb2dVertex
 10
94.6915499980285
 20
-154.8894259595415
 30
0.0
  0
VERTEX
  5
108
330
104
100
AcDbEntity
  8
_U+30EC_U+30A4_U+30E4_U+30FC 1
370
     0
100
AcDbVertex
100
AcDb2dVertex
 10
94.90307886082284
 20
-154.8894259595415
 30
0.0
  0
VERTEX
  5
109
330
104
100
AcDbEntity
  8
_U+30EC_U+30A4_U+30E4_U+30FC 1
370
     0
100
AcDbVertex
100
AcDb2dVertex
 10
94.90307886082284
 20
-154.6865098354603
 30
0.0
  0
SEQEND
  5
10A
330
104
100
AcDbEntity
  8
_U+30EC_U+30A4_U+30E4_U+30FC 1
370
     0
  0
POLYLINE
  5
10B
330
D3
100
AcDbEntity
  8
_U+30EC_U+30A4_U+30E4_U+30FC 1
370
     0
100
AcDb2dPolyline
 66
     1
 10
0.0
 20
0.0
 30
0.0
  0
VERTEX
  5
10C
330
10B
100
AcDbEntity
  8
_U+30EC_U+30A4_U+30E4_U+30FC 1
370
     0
100
AcDbVertex
100
AcDb2dVertex
 10
94.90307886082284
 20
-155.012415868365
 30
0.0
  0
VERTEX
  5
10D
330
10B
100
AcDbEntity
  8
_U+30EC_U+30A4_U+30E4_U+30FC 1
370
     0
100
AcDbVertex
100
AcDb2dVertex
 10
94.6915499980285
 20
-155.012415868365
 30
0.0
  0
VERTEX
  5
10E
330
10B
100
AcDbEntity
  8
_U+30EC_U+30A4_U+30E4_U+30FC 1
370
     0
100
AcDbVertex
100
AcDb2dVertex
 10
94.6915499980285
 20
-155.2194661070285
 30
0.0
  0
VERTEX
  5
10F
330
10B
100
AcDbEntity
  8
_U+30EC_U+30A4_U+30E4_U+30FC 1
370
     0
100
AcDbVertex
100
AcDb2dVertex
 10
94.90307886082284
 20
-155.2194661070285
 30
0.0
  0
VERTEX
  5
110
330
10B
100
AcDbEntity
  8
_U+30EC_U+30A4_U+30E4_U+30FC 1
370
     0
100
AcDbVertex
100
AcDb2dVertex
 10
94.90307886082284
 20
-155.012415868365
 30
0.0
  0
SEQEND
  5
111
330
10B
100
AcDbEntity
  8
_U+30EC_U+30A4_U+30E4_U+30FC 1
370
     0
  0
SPLINE
  5
112
330
D3
100
AcDbEntity
  8
_U+30EC_U+30A4_U+30E4_U+30FC 1
370
     0
100
AcDbSpline
210
0.0
220
0.0
230
1.0
 70
    11
 71
     3
 72
    38
 73
    34
 74
     0
 42
0.0000000001
 43
0.0000000001
 12
1.0
 22
0.0
 32
0.0
 13
1.0
 23
0.0
 33
0.0
 40
0.0
 40
0.0
 40
0.0
 40
0.0
 40
1.0
 40
1.0
 40
1.0
 40
2.0
 40
2.0
 40
2.0
 40
3.0
 40
3.0
 40
3.0
 40
4.0
 40
4.0
 40
4.0
 40
5.0
 40
5.0
 40
5.0
 40
6.0
 40
6.0
 40
6.0
 40
7.0
 40
7.0
 40
7.0
 40
8.0
 40
8.0
 40
8.0
 40
9.0
 40
9.0
 40
9.0
 40
10.0
 40
10.0
 40
10.0
 40
11.0
 40
11.0
 40
11.0
 40
11.0
 10
94.94545353529142
 20
-155.9009059940109
 30
0.0
 10
95.02796357216316
 20
-155.8478515235381
 30
0.0
 10
95.19298364590662
 20
-155.7400200348497
 30
0.0
 10
95.29874807730378
 20
-155.5326252866377
 30
0.0
 10
95.44688718316954
 20
-155.240825699037
 30
0.0
 10
95.44688718316954
 20
-155.0144829256561
 30
0.0
 10
95.44688718316954
 20
-154.929733576719
 30
0.0
 10
95.44688718316954
 20
-154.929733576719
 30
0.0
 10
95.44688718316954
 20
-154.6951225741734
 30
0.0
 10
95.44688718316954
 20
-154.6951225741734
 30
0.0
 10
95.44688718316954
 20
-154.6951225741734
 30
0.0
 10
95.611907256913
 20
-154.6951225741734
 30
0.0
 10
95.611907256913
 20
-154.6951225741734
 30
0.0
 10
95.611907256913
 20
-154.6951225741734
 30
0.0
 10
95.611907256913
 20
-154.9214653475544
 30
0.0
 10
95.611907256913
 20
-154.9214653475544
 30
0.0
 10
95.611907256913
 20
-155.1202473570533
 30
0.0
 10
95.67736407113274
 20
-155.3572699264385
 30
0.0
 10
95.77899438794762
 20
-155.5305582293465
 30
0.0
 10
95.8952663605748
 20
-155.7293402388455
 30
0.0
 10
96.02428518649741
 20
-155.8289034983692
 30
0.0
 10
96.10903453543455
 20
-155.8902261980066
 30
0.0
 10
96.10903453543455
 20
-155.8902261980066
 30
0.0
 10
96.00103079197197
 20
-156.0404323611635
 30
0.0
 10
96.00103079197197
 20
-156.0404323611635
 30
0.0
 10
95.82343611970734
 20
-155.9112412804666
 30
0.0
 10
95.62448185543415
 20
-155.6721516537903
 30
0.0
 10
95.54627818791899
 20
-155.3190293665522
 30
0.0
 10
95.48064911892499
 20
-155.5581189932285
 30
0.0
 10
95.37919105688437
 20
-155.826836441078
 30
0.0
 10
95.07033824663172
 20
-156.0362982465812
 30
0.0
 10
95.07033824663172
 20
-156.0362982465812
 30
0.0
 10
94.94545353529142
 20
-155.9009059940109
 30
0.0
 10
94.94545353529142
 20
-155.9009059940109
 30
0.0
  0
SPLINE
  5
113
330
D3
100
AcDbEntity
  8
_U+30EC_U+30A4_U+30E4_U+30FC 1
370
     0
100
AcDbSpline
210
0.0
220
0.0
230
1.0
 70
    11
 71
     3
 72
    38
 73
    34
 74
     0
 42
0.0000000001
 43
0.0000000001
 12
1.0
 22
0.0
 32
0.0
 13
1.0
 23
0.0
 33
0.0
 40
0.0
 40
0.0
 40
0.0
 40
0.0
 40
1.0
 40
1.0
 40
1.0
 40
2.0
 40
2.0
 40
2.0
 40
3.0
 40
3.0
 40
3.0
 40
4.0
 40
4.0
 40
4.0
 40
5.0
 40
5.0
 40
5.0
 40
6.0
 40
6.0
 40
6.0
 40
7.0
 40
7.0
 40
7.0
 40
8.0
 40
8.0
 40
8.0
 40
9.0
 40
9.0
 40
9.0
 40
10.0
 40
10.0
 40
10.0
 40
11.0
 40
11.0
 40
11.0
 40
11.0
 10
95.05965845062745
 20
-154.8281032599041
 30
0.0
 10
95.15284828350346
 20
-154.7054578606292
 30
0.0
 10
95.2775607400695
 20
-154.5256238762992
 30
0.0
 10
95.37281763023667
 20
-154.0770724441196
 30
0.0
 10
95.37281763023667
 20
-154.0770724441196
 30
0.0
 10
95.53990476127127
 20
-154.096364978837
 30
0.0
 10
95.53990476127127
 20
-154.096364978837
 30
0.0
 10
95.5145833094547
 20
-154.2169433208208
 30
0.0
 10
95.49132891492926
 20
-154.3078938416314
 30
0.0
 10
95.45308835504298
 20
-154.4157253303197
 30
0.0
 10
95.45308835504298
 20
-154.4157253303197
 30
0.0
 10
96.08147377155255
 20
-154.4157253303197
 30
0.0
 10
96.08147377155255
 20
-154.4157253303197
 30
0.0
 10
96.08147377155255
 20
-154.4157253303197
 30
0.0
 10
96.08147377155255
 20
-154.5679985507677
 30
0.0
 10
96.08147377155255
 20
-154.5679985507677
 30
0.0
 10
96.04753958102285
 20
-154.7095919752115
 30
0.0
 10
95.95245494562995
 20
-154.9679741366052
 30
0.0
 10
95.87838539269707
 20
-155.0864854212978
 30
0.0
 10
95.87838539269707
 20
-155.0864854212978
 30
0.0
 10
95.72611217224903
 20
-155.0079372442341
 30
0.0
 10
95.72611217224903
 20
-155.0079372442341
 30
0.0
 10
95.82119680764193
 20
-154.8725449916638
 30
0.0
 10
95.88682587663594
 20
-154.6844427781692
 30
0.0
 10
95.91438664051793
 20
-154.5745442321897
 30
0.0
 10
95.91438664051793
 20
-154.5745442321897
 30
0.0
 10
95.39607202476209
 20
-154.5745442321897
 30
0.0
 10
95.39607202476209
 20
-154.5745442321897
 30
0.0
 10
95.29668102001264
 20
-154.8157009161572
 30
0.0
 10
95.22261146707977
 20
-154.9042398701281
 30
0.0
 10
95.18454316196775
 20
-154.9486816018878
 30
0.0
 10
95.18454316196775
 20
-154.9486816018878
 30
0.0
 10
95.05965845062745
 20
-154.8281032599041
 30
0.0
 10
95.05965845062745
 20
-154.8281032599041
 30
0.0
  0
HATCH
  5
114
330
D3
100
AcDbEntity
  8
_U+30EC_U+30A4_U+30E4_U+30FC 1
 62
    12
420
 15007761
100
AcDbHatch
 10
0.0
 20
0.0
 30
0.0
210
0.0
220
0.0
230
1.0
  2
SOLID
 70
     1
 71
     0
 91
        7
 92
        1
 93
       28
 72
     1
 10
94.53720972028931
 20
-154.2379584032808
 11
94.53720972028931
 21
-154.0770724441196
 72
     1
 10
94.53720972028931
 20
-154.0770724441196
 11
94.6915499980285
 21
-154.0770724441196
 72
     1
 10
94.6915499980285
 20
-154.0770724441196
 11
94.6915499980285
 21
-154.2379584032808
 72
     1
 10
94.6915499980285
 20
-154.2379584032808
 11
95.0851521572183
 21
-154.2379584032808
 72
     1
 10
95.0851521572183
 20
-154.2379584032808
 11
95.0851521572183
 21
-154.39229868102
 72
     1
 10
95.0851521572183
 20
-154.39229868102
 11
94.6915499980285
 21
-154.39229868102
 72
     1
 10
94.6915499980285
 20
-154.39229868102
 11
94.6915499980285
 21
-154.5469834683077
 72
     1
 10
94.6915499980285
 20
-154.5469834683077
 11
95.04691159733203
 21
-154.5469834683077
 72
     1
 10
95.04691159733203
 20
-154.5469834683077
 11
95.04691159733203
 21
-155.3593369837296
 72
     1
 10
95.04691159733203
 20
-155.3593369837296
 11
94.6915499980285
 21
-155.3593369837296
 72
     1
 10
94.6915499980285
 20
-155.3593369837296
 11
94.6915499980285
 21
-155.5284911720554
 72
     1
 10
94.6915499980285
 20
-155.5284911720554
 11
95.09979381303062
 21
-155.5284911720554
 72
     1
 10
95.09979381303062
 20
-155.5284911720554
 11
95.09979381303062
 21
-155.6828314497946
 72
     1
 10
95.09979381303062
 20
-155.6828314497946
 11
94.6915499980285
 21
-155.6828314497946
 72
     1
 10
94.6915499980285
 20
-155.6828314497946
 11
94.6915499980285
 21
-156.0362982465812
 72
     1
 10
94.6915499980285
 20
-156.0362982465812
 11
94.53720972028931
 21
-156.0362982465812
 72
     1
 10
94.53720972028931
 20
-156.0362982465812
 11
94.53720972028931
 21
-155.6828314497946
 72
     1
 10
94.53720972028931
 20
-155.6828314497946
 11
94.12672659322179
 21
-155.6828314497946
 72
     1
 10
94.12672659322179
 20
-155.6828314497946
 11
94.12672659322179
 21
-155.5284911720554
 72
     1
 10
94.12672659322179
 20
-155.5284911720554
 11
94.53720972028931
 21
-155.5284911720554
 72
     1
 10
94.53720972028931
 20
-155.5284911720554
 11
94.53720972028931
 21
-155.3593369837296
 72
     1
 10
94.53720972028931
 20
-155.3593369837296
 11
94.18804929285925
 21
-155.3593369837296
 72
     1
 10
94.18804929285925
 20
-155.3593369837296
 11
94.18804929285925
 21
-154.5469834683077
 72
     1
 10
94.18804929285925
 20
-154.5469834683077
 11
94.53720972028931
 21
-154.5469834683077
 72
     1
 10
94.53720972028931
 20
-154.5469834683077
 11
94.53720972028931
 21
-154.39229868102
 72
     1
 10
94.53720972028931
 20
-154.39229868102
 11
94.14791393045608
 21
-154.39229868102
 72
     1
 10
94.14791393045608
 20
-154.39229868102
 11
94.14791393045608
 21
-154.2379584032808
 72
     1
 10
94.14791393045608
 20
-154.2379584032808
 11
94.53720972028931
 21
-154.2379584032808
 97
        0
 92
        1
 93
        4
 72
     1
 10
94.53720972028931
 20
-154.6865098354603
 11
94.32981497207727
 21
-154.6865098354603
 72
     1
 10
94.32981497207727
 20
-154.6865098354603
 11
94.32981497207727
 21
-154.8894259595415
 72
     1
 10
94.32981497207727
 20
-154.8894259595415
 11
94.53720972028931
 21
-154.8894259595415
 72
     1
 10
94.53720972028931
 20
-154.8894259595415
 11
94.53720972028931
 21
-154.6865098354603
 97
        0
 92
        1
 93
        4
 72
     1
 10
94.53720972028931
 20
-155.012415868365
 11
94.32981497207727
 21
-155.012415868365
 72
     1
 10
94.32981497207727
 20
-155.012415868365
 11
94.32981497207727
 21
-155.2194661070285
 72
     1
 10
94.32981497207727
 20
-155.2194661070285
 11
94.53720972028931
 21
-155.2194661070285
 72
     1
 10
94.53720972028931
 20
-155.2194661070285
 11
94.53720972028931
 21
-155.012415868365
 97
        0
 92
        1
 93
        4
 72
     1
 10
94.90307886082284
 20
-154.6865098354603
 11
94.6915499980285
 21
-154.6865098354603
 72
     1
 10
94.6915499980285
 20
-154.6865098354603
 11
94.6915499980285
 21
-154.8894259595415
 72
     1
 10
94.6915499980285
 20
-154.8894259595415
 11
94.90307886082284
 21
-154.8894259595415
 72
     1
 10
94.90307886082284
 20
-154.8894259595415
 11
94.90307886082284
 21
-154.6865098354603
 97
        0
 92
        1
 93
        4
 72
     1
 10
94.90307886082284
 20
-155.012415868365
 11
94.6915499980285
 21
-155.012415868365
 72
     1
 10
94.6915499980285
 20
-155.012415868365
 11
94.6915499980285
 21
-155.2194661070285
 72
     1
 10
94.6915499980285
 20
-155.2194661070285
 11
94.90307886082284
 21
-155.2194661070285
 72
     1
 10
94.90307886082284
 20
-155.2194661070285
 11
94.90307886082284
 21
-155.012415868365
 97
        0
 92
        1
 93
        1
 72
     4
 94
        3
 73
     0
 74
     1
 95
       38
 96
       34
 40
0.0
 40
0.0
 40
0.0
 40
0.0
 40
1.0
 40
1.0
 40
1.0
 40
2.0
 40
2.0
 40
2.0
 40
3.0
 40
3.0
 40
3.0
 40
4.0
 40
4.0
 40
4.0
 40
5.0
 40
5.0
 40
5.0
 40
6.0
 40
6.0
 40
6.0
 40
7.0
 40
7.0
 40
7.0
 40
8.0
 40
8.0
 40
8.0
 40
9.0
 40
9.0
 40
9.0
 40
10.0
 40
10.0
 40
10.0
 40
11.0
 40
11.0
 40
11.0
 40
11.0
 10
94.94545353529142
 20
-155.9009059940109
 10
95.02796357216316
 20
-155.8478515235381
 10
95.19298364590662
 20
-155.7400200348497
 10
95.29874807730378
 20
-155.5326252866377
 10
95.44688718316954
 20
-155.240825699037
 10
95.44688718316954
 20
-155.0144829256561
 10
95.44688718316954
 20
-154.929733576719
 10
95.44688718316954
 20
-154.929733576719
 10
95.44688718316954
 20
-154.6951225741734
 10
95.44688718316954
 20
-154.6951225741734
 10
95.44688718316954
 20
-154.6951225741734
 10
95.611907256913
 20
-154.6951225741734
 10
95.611907256913
 20
-154.6951225741734
 10
95.611907256913
 20
-154.6951225741734
 10
95.611907256913
 20
-154.9214653475544
 10
95.611907256913
 20
-154.9214653475544
 10
95.611907256913
 20
-155.1202473570533
 10
95.67736407113274
 20
-155.3572699264385
 10
95.77899438794762
 20
-155.5305582293465
 10
95.8952663605748
 20
-155.7293402388455
 10
96.02428518649741
 20
-155.8289034983692
 10
96.10903453543455
 20
-155.8902261980066
 10
96.10903453543455
 20
-155.8902261980066
 10
96.00103079197197
 20
-156.0404323611635
 10
96.00103079197197
 20
-156.0404323611635
 10
95.82343611970734
 20
-155.9112412804666
 10
95.62448185543415
 20
-155.6721516537903
 10
95.54627818791899
 20
-155.3190293665522
 10
95.48064911892499
 20
-155.5581189932285
 10
95.37919105688437
 20
-155.826836441078
 10
95.07033824663172
 20
-156.0362982465812
 10
95.07033824663172
 20
-156.0362982465812
 10
94.94545353529142
 20
-155.9009059940109
 10
94.94545353529142
 20
-155.9009059940109
 97
        0
 97
        0
 92
        1
 93
        1
 72
     4
 94
        3
 73
     0
 74
     1
 95
       38
 96
       34
 40
0.0
 40
0.0
 40
0.0
 40
0.0
 40
1.0
 40
1.0
 40
1.0
 40
2.0
 40
2.0
 40
2.0
 40
3.0
 40
3.0
 40
3.0
 40
4.0
 40
4.0
 40
4.0
 40
5.0
 40
5.0
 40
5.0
 40
6.0
 40
6.0
 40
6.0
 40
7.0
 40
7.0
 40
7.0
 40
8.0
 40
8.0
 40
8.0
 40
9.0
 40
9.0
 40
9.0
 40
10.0
 40
10.0
 40
10.0
 40
11.0
 40
11.0
 40
11.0
 40
11.0
 10
95.05965845062745
 20
-154.8281032599041
 10
95.15284828350346
 20
-154.7054578606292
 10
95.2775607400695
 20
-154.5256238762992
 10
95.37281763023667
 20
-154.0770724441196
 10
95.37281763023667
 20
-154.0770724441196
 10
95.53990476127127
 20
-154.096364978837
 10
95.53990476127127
 20
-154.096364978837
 10
95.5145833094547
 20
-154.2169433208208
 10
95.49132891492926
 20
-154.3078938416314
 10
95.45308835504298
 20
-154.4157253303197
 10
95.45308835504298
 20
-154.4157253303197
 10
96.08147377155255
 20
-154.4157253303197
 10
96.08147377155255
 20
-154.4157253303197
 10
96.08147377155255
 20
-154.4157253303197
 10
96.08147377155255
 20
-154.5679985507677
 10
96.08147377155255
 20
-154.5679985507677
 10
96.04753958102285
 20
-154.7095919752115
 10
95.95245494562995
 20
-154.9679741366052
 10
95.87838539269707
 20
-155.0864854212978
 10
95.87838539269707
 20
-155.0864854212978
 10
95.72611217224903
 20
-155.0079372442341
 10
95.72611217224903
 20
-155.0079372442341
 10
95.82119680764193
 20
-154.8725449916638
 10
95.88682587663594
 20
-154.6844427781692
 10
95.91438664051793
 20
-154.5745442321897
 10
95.91438664051793
 20
-154.5745442321897
 10
95.39607202476209
 20
-154.5745442321897
 10
95.39607202476209
 20
-154.5745442321897
 10
95.29668102001264
 20
-154.8157009161572
 10
95.22261146707977
 20
-154.9042398701281
 10
95.18454316196775
 20
-154.9486816018878
 10
95.18454316196775
 20
-154.9486816018878
 10
95.05965845062745
 20
-154.8281032599041
 10
95.05965845062745
 20
-154.8281032599041
 97
        0
 97
        0
 75
     2
 76
     1
 98
        0
  0
SPLINE
  5
115
330
D3
100
AcDbEntity
  8
_U+30EC_U+30A4_U+30E4_U+30FC 1
370
     0
100
AcDbSpline
210
0.0
220
0.0
230
1.0
 70
    11
 71
     3
 72
    50
 73
    46
 74
     0
 42
0.0000000001
 43
0.0000000001
 12
1.0
 22
0.0
 32
0.0
 13
1.0
 23
0.0
 33
0.0
 40
0.0
 40
0.0
 40
0.0
 40
0.0
 40
1.0
 40
1.0
 40
1.0
 40
2.0
 40
2.0
 40
2.0
 40
3.0
 40
3.0
 40
3.0
 40
4.0
 40
4.0
 40
4.0
 40
5.0
 40
5.0
 40
5.0
 40
6.0
 40
6.0
 40
6.0
 40
7.0
 40
7.0
 40
7.0
 40
8.0
 40
8.0
 40
8.0
 40
9.0
 40
9.0
 40
9.0
 40
10.0
 40
10.0
 40
10.0
 40
11.0
 40
11.0
 40
11.0
 40
12.0
 40
12.0
 40
12.0
 40
13.0
 40
13.0
 40
13.0
 40
14.0
 40
14.0
 40
14.0
 40
15.0
 40
15.0
 40
15.0
 40
15.0
 10
96.5543131269031
 20
-154.3754177131423
 30
0.0
 10
96.5543131269031
 20
-154.3754177131423
 30
0.0
 10
97.2059529379381
 20
-154.3754177131423
 30
0.0
 10
97.2059529379381
 20
-154.3754177131423
 30
0.0
 10
97.2059529379381
 20
-154.3754177131423
 30
0.0
 10
97.2059529379381
 20
-154.5004746792568
 30
0.0
 10
97.2059529379381
 20
-154.5004746792568
 30
0.0
 10
97.2059529379381
 20
-154.5004746792568
 30
0.0
 10
96.92879500614976
 20
-154.5004746792568
 30
0.0
 10
96.92879500614976
 20
-154.5004746792568
 30
0.0
 10
96.92879500614976
 20
-154.5004746792568
 30
0.0
 10
96.92879500614976
 20
-154.7753932989798
 30
0.0
 10
96.92879500614976
 20
-154.7753932989798
 30
0.0
 10
96.92879500614976
 20
-154.7753932989798
 30
0.0
 10
96.76808130176285
 20
-154.7753932989798
 30
0.0
 10
96.76808130176285
 20
-154.7753932989798
 30
0.0
 10
96.76808130176285
 20
-154.7753932989798
 30
0.0
 10
96.76808130176285
 20
-154.5004746792568
 30
0.0
 10
96.76808130176285
 20
-154.5004746792568
 30
0.0
 10
96.76808130176285
 20
-154.5004746792568
 30
0.0
 10
96.54811195502964
 20
-154.5004746792568
 30
0.0
 10
96.54811195502964
 20
-154.5004746792568
 30
0.0
 10
96.53743215902537
 20
-154.5700656080589
 30
0.0
 10
96.51211070720878
 20
-154.7647135029755
 30
0.0
 10
96.35759817469533
 20
-154.9149196661324
 30
0.0
 10
96.35759817469533
 20
-154.9149196661324
 30
0.0
 10
96.23495277542044
 20
-154.8050211201529
 30
0.0
 10
96.23495277542044
 20
-154.8050211201529
 30
0.0
 10
96.35553111740418
 20
-154.7054578606292
 30
0.0
 10
96.39790579187274
 20
-154.5004746792568
 30
0.0
 10
96.39790579187274
 20
-154.4177923876108
 30
0.0
 10
96.39790579187274
 20
-154.4177923876108
 30
0.0
 10
96.39790579187274
 20
-154.1321939718836
 30
0.0
 10
96.39790579187274
 20
-154.1321939718836
 30
0.0
 10
96.88228621709888
 20
-154.1321939718836
 30
0.0
 10
97.03679874961233
 20
-154.0856851828327
 30
0.0
 10
97.13188338500522
 20
-154.0581244189507
 30
0.0
 10
97.13188338500522
 20
-154.0581244189507
 30
0.0
 10
97.18476560070381
 20
-154.1976507861034
 30
0.0
 10
97.18476560070381
 20
-154.1976507861034
 30
0.0
 10
96.97530379520062
 20
-154.2465711419939
 30
0.0
 10
96.81252303352257
 20
-154.2569064284497
 30
0.0
 10
96.5543131269031
 20
-154.2613850525805
 30
0.0
 10
96.5543131269031
 20
-154.2613850525805
 30
0.0
 10
96.5543131269031
 20
-154.3754177131423
 30
0.0
 10
96.5543131269031
 20
-154.3754177131423
 30
0.0
  0
SPLINE
  5
116
330
D3
100
AcDbEntity
  8
_U+30EC_U+30A4_U+30E4_U+30FC 1
370
     0
100
AcDbSpline
210
0.0
220
0.0
230
1.0
 70
    11
 71
     3
 72
    32
 73
    28
 74
     0
 42
0.0000000001
 43
0.0000000001
 12
1.0
 22
0.0
 32
0.0
 13
1.0
 23
0.0
 33
0.0
 40
0.0
 40
0.0
 40
0.0
 40
0.0
 40
1.0
 40
1.0
 40
1.0
 40
2.0
 40
2.0
 40
2.0
 40
3.0
 40
3.0
 40
3.0
 40
4.0
 40
4.0
 40
4.0
 40
5.0
 40
5.0
 40
5.0
 40
6.0
 40
6.0
 40
6.0
 40
7.0
 40
7.0
 40
7.0
 40
8.0
 40
8.0
 40
8.0
 40
9.0
 40
9.0
 40
9.0
 40
9.0
 10
96.46973603274022
 20
-155.7210720096809
 30
0.0
 10
96.46973603274022
 20
-155.7210720096809
 30
0.0
 10
96.46973603274022
 20
-154.8219020880306
 30
0.0
 10
96.46973603274022
 20
-154.8219020880306
 30
0.0
 10
96.46973603274022
 20
-154.8219020880306
 30
0.0
 10
97.96749129495258
 20
-154.8219020880306
 30
0.0
 10
97.96749129495258
 20
-154.8219020880306
 30
0.0
 10
97.96749129495258
 20
-154.8219020880306
 30
0.0
 10
97.96749129495258
 20
-155.7210720096809
 30
0.0
 10
97.96749129495258
 20
-155.7210720096809
 30
0.0
 10
97.96749129495258
 20
-155.7210720096809
 30
0.0
 10
96.82303057475258
 20
-155.7210720096809
 30
0.0
 10
96.82303057475258
 20
-155.7210720096809
 30
0.0
 10
96.82303057475258
 20
-155.7210720096809
 30
0.0
 10
96.92879500614976
 20
-155.8309705556603
 30
0.0
 10
96.92879500614976
 20
-155.8309705556603
 30
0.0
 10
96.76377493240628
 20
-155.9260551910532
 30
0.0
 10
96.59875485866282
 20
-155.9873778906907
 30
0.0
 10
96.3026489017056
 20
-156.0383653038724
 30
0.0
 10
96.3026489017056
 20
-156.0383653038724
 30
0.0
 10
96.23701983271158
 20
-155.8860920834243
 30
0.0
 10
96.23701983271158
 20
-155.8860920834243
 30
0.0
 10
96.6158080813148
 20
-155.8330376129515
 30
0.0
 10
96.7384534805897
 20
-155.7655137414406
 30
0.0
 10
96.81889646017028
 20
-155.7210720096809
 30
0.0
 10
96.81889646017028
 20
-155.7210720096809
 30
0.0
 10
96.46973603274022
 20
-155.7210720096809
 30
0.0
 10
96.46973603274022
 20
-155.7210720096809
 30
0.0
  0
POLYLINE
  5
117
330
D3
100
AcDbEntity
  8
_U+30EC_U+30A4_U+30E4_U+30FC 1
370
     0
100
AcDb2dPolyline
 66
     1
 10
0.0
 20
0.0
 30
0.0
  0
VERTEX
  5
118
330
117
100
AcDbEntity
  8
_U+30EC_U+30A4_U+30E4_U+30FC 1
370
     0
100
AcDbVertex
100
AcDb2dVertex
 10
97.7983371066268
 20
-154.9552272833098
 30
0.0
  0
VERTEX
  5
119
330
117
100
AcDbEntity
  8
_U+30EC_U+30A4_U+30E4_U+30FC 1
370
     0
100
AcDbVertex
100
AcDb2dVertex
 10
96.63906247584023
 20
-154.9552272833098
 30
0.0
  0
VERTEX
  5
11A
330
117
100
AcDbEntity
  8
_U+30EC_U+30A4_U+30E4_U+30FC 1
370
     0
100
AcDbVertex
100
AcDb2dVertex
 10
96.63906247584023
 20
-155.0840738544582
 30
0.0
  0
VERTEX
  5
11B
330
117
100
AcDbEntity
  8
_U+30EC_U+30A4_U+30E4_U+30FC 1
370
     0
100
AcDbVertex
100
AcDb2dVertex
 10
97.7983371066268
 20
-155.0840738544582
 30
0.0
  0
VERTEX
  5
11C
330
117
100
AcDbEntity
  8
_U+30EC_U+30A4_U+30E4_U+30FC 1
370
     0
100
AcDbVertex
100
AcDb2dVertex
 10
97.7983371066268
 20
-154.9552272833098
 30
0.0
  0
SEQEND
  5
11D
330
117
100
AcDbEntity
  8
_U+30EC_U+30A4_U+30E4_U+30FC 1
370
     0
  0
POLYLINE
  5
11E
330
D3
100
AcDbEntity
  8
_U+30EC_U+30A4_U+30E4_U+30FC 1
370
     0
100
AcDb2dPolyline
 66
     1
 10
0.0
 20
0.0
 30
0.0
  0
VERTEX
  5
11F
330
11E
100
AcDbEntity
  8
_U+30EC_U+30A4_U+30E4_U+30FC 1
370
     0
100
AcDbVertex
100
AcDb2dVertex
 10
97.7983371066268
 20
-155.1943169099862
 30
0.0
  0
VERTEX
  5
120
330
11E
100
AcDbEntity
  8
_U+30EC_U+30A4_U+30E4_U+30FC 1
370
     0
100
AcDbVertex
100
AcDb2dVertex
 10
96.63906247584023
 20
-155.1943169099862
 30
0.0
  0
VERTEX
  5
121
330
11E
100
AcDbEntity
  8
_U+30EC_U+30A4_U+30E4_U+30FC 1
370
     0
100
AcDbVertex
100
AcDb2dVertex
 10
96.63906247584023
 20
-155.3359103344299
 30
0.0
  0
VERTEX
  5
122
330
11E
100
AcDbEntity
  8
_U+30EC_U+30A4_U+30E4_U+30FC 1
370
     0
100
AcDbVertex
100
AcDb2dVertex
 10
97.7983371066268
 20
-155.3359103344299
 30
0.0
  0
VERTEX
  5
123
330
11E
100
AcDbEntity
  8
_U+30EC_U+30A4_U+30E4_U+30FC 1
370
     0
100
AcDbVertex
100
AcDb2dVertex
 10
97.7983371066268
 20
-155.1943169099862
 30
0.0
  0
SEQEND
  5
124
330
11E
100
AcDbEntity
  8
_U+30EC_U+30A4_U+30E4_U+30FC 1
370
     0
  0
POLYLINE
  5
125
330
D3
100
AcDbEntity
  8
_U+30EC_U+30A4_U+30E4_U+30FC 1
370
     0
100
AcDb2dPolyline
 66
     1
 10
0.0
 20
0.0
 30
0.0
  0
VERTEX
  5
126
330
125
100
AcDbEntity
  8
_U+30EC_U+30A4_U+30E4_U+30FC 1
370
     0
100
AcDbVertex
100
AcDb2dVertex
 10
97.7983371066268
 20
-155.4458088804094
 30
0.0
  0
VERTEX
  5
127
330
125
100
AcDbEntity
  8
_U+30EC_U+30A4_U+30E4_U+30FC 1
370
     0
100
AcDbVertex
100
AcDb2dVertex
 10
96.63906247584023
 20
-155.4458088804094
 30
0.0
  0
VERTEX
  5
128
330
125
100
AcDbEntity
  8
_U+30EC_U+30A4_U+30E4_U+30FC 1
370
     0
100
AcDbVertex
100
AcDb2dVertex
 10
96.63906247584023
 20
-155.5856797571105
 30
0.0
  0
VERTEX
  5
129
330
125
100
AcDbEntity
  8
_U+30EC_U+30A4_U+30E4_U+30FC 1
370
     0
100
AcDbVertex
100
AcDb2dVertex
 10
97.7983371066268
 20
-155.5856797571105
 30
0.0
  0
VERTEX
  5
12A
330
125
100
AcDbEntity
  8
_U+30EC_U+30A4_U+30E4_U+30FC 1
370
     0
100
AcDbVertex
100
AcDb2dVertex
 10
97.7983371066268
 20
-155.4458088804094
 30
0.0
  0
SEQEND
  5
12B
330
125
100
AcDbEntity
  8
_U+30EC_U+30A4_U+30E4_U+30FC 1
370
     0
  0
SPLINE
  5
12C
330
D3
100
AcDbEntity
  8
_U+30EC_U+30A4_U+30E4_U+30FC 1
370
     0
100
AcDbSpline
210
0.0
220
0.0
230
1.0
 70
    11
 71
     3
 72
    50
 73
    46
 74
     0
 42
0.0000000001
 43
0.0000000001
 12
1.0
 22
0.0
 32
0.0
 13
1.0
 23
0.0
 33
0.0
 40
0.0
 40
0.0
 40
0.0
 40
0.0
 40
1.0
 40
1.0
 40
1.0
 40
2.0
 40
2.0
 40
2.0
 40
3.0
 40
3.0
 40
3.0
 40
4.0
 40
4.0
 40
4.0
 40
5.0
 40
5.0
 40
5.0
 40
6.0
 40
6.0
 40
6.0
 40
7.0
 40
7.0
 40
7.0
 40
8.0
 40
8.0
 40
8.0
 40
9.0
 40
9.0
 40
9.0
 40
10.0
 40
10.0
 40
10.0
 40
11.0
 40
11.0
 40
11.0
 40
12.0
 40
12.0
 40
12.0
 40
13.0
 40
13.0
 40
13.0
 40
14.0
 40
14.0
 40
14.0
 40
15.0
 40
15.0
 40
15.0
 40
15.0
 10
97.46192353249216
 20
-154.3754177131423
 30
0.0
 10
97.46192353249216
 20
-154.3754177131423
 30
0.0
 10
98.19814043769006
 20
-154.3754177131423
 30
0.0
 10
98.19814043769006
 20
-154.3754177131423
 30
0.0
 10
98.19814043769006
 20
-154.3754177131423
 30
0.0
 10
98.19814043769006
 20
-154.5004746792568
 30
0.0
 10
98.19814043769006
 20
-154.5004746792568
 30
0.0
 10
98.19814043769006
 20
-154.5004746792568
 30
0.0
 10
97.86810029020312
 20
-154.5004746792568
 30
0.0
 10
97.86810029020312
 20
-154.5004746792568
 30
0.0
 10
97.86810029020312
 20
-154.5004746792568
 30
0.0
 10
97.86810029020312
 20
-154.7753932989798
 30
0.0
 10
97.86810029020312
 20
-154.7753932989798
 30
0.0
 10
97.86810029020312
 20
-154.7753932989798
 30
0.0
 10
97.71152070039851
 20
-154.7753932989798
 30
0.0
 10
97.71152070039851
 20
-154.7753932989798
 30
0.0
 10
97.71152070039851
 20
-154.7753932989798
 30
0.0
 10
97.71152070039851
 20
-154.5004746792568
 30
0.0
 10
97.71152070039851
 20
-154.5004746792568
 30
0.0
 10
97.71152070039851
 20
-154.5004746792568
 30
0.0
 10
97.44710962190558
 20
-154.5004746792568
 30
0.0
 10
97.44710962190558
 20
-154.5004746792568
 30
0.0
 10
97.421788170089
 20
-154.6293212504052
 30
0.0
 10
97.37097301168157
 20
-154.7202717712158
 30
0.0
 10
97.27364906422326
 20
-154.8029540628618
 30
0.0
 10
97.27364906422326
 20
-154.8029540628618
 30
0.0
 10
97.15100366494836
 20
-154.6951225741734
 30
0.0
 10
97.15100366494836
 20
-154.6951225741734
 30
0.0
 10
97.28639591751869
 20
-154.5848795186455
 30
0.0
 10
97.30965031204411
 20
-154.447420208784
 30
0.0
 10
97.30965031204411
 20
-154.3733506558511
 30
0.0
 10
97.30965031204411
 20
-154.3733506558511
 30
0.0
 10
97.30965031204411
 20
-154.1301269145925
 30
0.0
 10
97.30965031204411
 20
-154.1301269145925
 30
0.0
 10
97.77921682668367
 20
-154.1301269145925
 30
0.0
 10
97.94647621249256
 20
-154.0898192974151
 30
0.0
 10
98.09030894900174
 20
-154.0474446229465
 30
0.0
 10
98.09030894900174
 20
-154.0474446229465
 30
0.0
 10
98.14956459134802
 20
-154.1852484423565
 30
0.0
 10
98.14956459134802
 20
-154.1852484423565
 30
0.0
 10
97.8787800862074
 20
-154.2548393711585
 30
0.0
 10
97.56355384930703
 20
-154.2593179952893
 30
0.0
 10
97.46192353249216
 20
-154.2593179952893
 30
0.0
 10
97.46192353249216
 20
-154.2593179952893
 30
0.0
 10
97.46192353249216
 20
-154.3754177131423
 30
0.0
 10
97.46192353249216
 20
-154.3754177131423
 30
0.0
  0
SPLINE
  5
12D
330
D3
100
AcDbEntity
  8
_U+30EC_U+30A4_U+30E4_U+30FC 1
370
     0
100
AcDbSpline
210
0.0
220
0.0
230
1.0
 70
    11
 71
     3
 72
    17
 73
    13
 74
     0
 42
0.0000000001
 43
0.0000000001
 12
1.0
 22
0.0
 32
0.0
 13
1.0
 23
0.0
 33
0.0
 40
0.0
 40
0.0
 40
0.0
 40
0.0
 40
1.0
 40
1.0
 40
1.0
 40
2.0
 40
2.0
 40
2.0
 40
3.0
 40
3.0
 40
3.0
 40
4.0
 40
4.0
 40
4.0
 40
4.0
 10
97.57406139053704
 20
-155.7272731815543
 30
0.0
 10
97.79403073727025
 20
-155.8395832943735
 30
0.0
 10
98.06068112782859
 20
-155.8774793447112
 30
0.0
 10
98.18969995375119
 20
-155.8881591407155
 30
0.0
 10
98.18969995375119
 20
-155.8881591407155
 30
0.0
 10
98.11993677017489
 20
-156.0424994184547
 30
0.0
 10
98.11993677017489
 20
-156.0424994184547
 30
0.0
 10
97.99935842819114
 20
-156.0276855078681
 30
0.0
 10
97.73701440698936
 20
-155.9873778906907
 30
0.0
 10
97.47260332849643
 20
-155.8416503516646
 30
0.0
 10
97.47260332849643
 20
-155.8416503516646
 30
0.0
 10
97.57406139053704
 20
-155.7272731815543
 30
0.0
 10
97.57406139053704
 20
-155.7272731815543
 30
0.0
  0
HATCH
  5
12E
330
D3
100
AcDbEntity
  8
_U+30EC_U+30A4_U+30E4_U+30FC 1
 62
    12
420
 15007761
100
AcDbHatch
 10
0.0
 20
0.0
 30
0.0
210
0.0
220
0.0
230
1.0
  2
SOLID
 70
     1
 71
     0
 91
        7
 92
        1
 93
        1
 72
     4
 94
        3
 73
     0
 74
     1
 95
       50
 96
       46
 40
0.0
 40
0.0
 40
0.0
 40
0.0
 40
1.0
 40
1.0
 40
1.0
 40
2.0
 40
2.0
 40
2.0
 40
3.0
 40
3.0
 40
3.0
 40
4.0
 40
4.0
 40
4.0
 40
5.0
 40
5.0
 40
5.0
 40
6.0
 40
6.0
 40
6.0
 40
7.0
 40
7.0
 40
7.0
 40
8.0
 40
8.0
 40
8.0
 40
9.0
 40
9.0
 40
9.0
 40
10.0
 40
10.0
 40
10.0
 40
11.0
 40
11.0
 40
11.0
 40
12.0
 40
12.0
 40
12.0
 40
13.0
 40
13.0
 40
13.0
 40
14.0
 40
14.0
 40
14.0
 40
15.0
 40
15.0
 40
15.0
 40
15.0
 10
96.5543131269031
 20
-154.3754177131423
 10
96.5543131269031
 20
-154.3754177131423
 10
97.2059529379381
 20
-154.3754177131423
 10
97.2059529379381
 20
-154.3754177131423
 10
97.2059529379381
 20
-154.3754177131423
 10
97.2059529379381
 20
-154.5004746792568
 10
97.2059529379381
 20
-154.5004746792568
 10
97.2059529379381
 20
-154.5004746792568
 10
96.92879500614976
 20
-154.5004746792568
 10
96.92879500614976
 20
-154.5004746792568
 10
96.92879500614976
 20
-154.5004746792568
 10
96.92879500614976
 20
-154.7753932989798
 10
96.92879500614976
 20
-154.7753932989798
 10
96.92879500614976
 20
-154.7753932989798
 10
96.76808130176285
 20
-154.7753932989798
 10
96.76808130176285
 20
-154.7753932989798
 10
96.76808130176285
 20
-154.7753932989798
 10
96.76808130176285
 20
-154.5004746792568
 10
96.76808130176285
 20
-154.5004746792568
 10
96.76808130176285
 20
-154.5004746792568
 10
96.54811195502964
 20
-154.5004746792568
 10
96.54811195502964
 20
-154.5004746792568
 10
96.53743215902537
 20
-154.5700656080589
 10
96.51211070720878
 20
-154.7647135029755
 10
96.35759817469533
 20
-154.9149196661324
 10
96.35759817469533
 20
-154.9149196661324
 10
96.23495277542044
 20
-154.8050211201529
 10
96.23495277542044
 20
-154.8050211201529
 10
96.35553111740418
 20
-154.7054578606292
 10
96.39790579187274
 20
-154.5004746792568
 10
96.39790579187274
 20
-154.4177923876108
 10
96.39790579187274
 20
-154.4177923876108
 10
96.39790579187274
 20
-154.1321939718836
 10
96.39790579187274
 20
-154.1321939718836
 10
96.88228621709888
 20
-154.1321939718836
 10
97.03679874961233
 20
-154.0856851828327
 10
97.13188338500522
 20
-154.0581244189507
 10
97.13188338500522
 20
-154.0581244189507
 10
97.18476560070381
 20
-154.1976507861034
 10
97.18476560070381
 20
-154.1976507861034
 10
96.97530379520062
 20
-154.2465711419939
 10
96.81252303352257
 20
-154.2569064284497
 10
96.5543131269031
 20
-154.2613850525805
 10
96.5543131269031
 20
-154.2613850525805
 10
96.5543131269031
 20
-154.3754177131423
 10
96.5543131269031
 20
-154.3754177131423
 97
        0
 97
        0
 92
        1
 93
        1
 72
     4
 94
        3
 73
     0
 74
     1
 95
       32
 96
       28
 40
0.0
 40
0.0
 40
0.0
 40
0.0
 40
1.0
 40
1.0
 40
1.0
 40
2.0
 40
2.0
 40
2.0
 40
3.0
 40
3.0
 40
3.0
 40
4.0
 40
4.0
 40
4.0
 40
5.0
 40
5.0
 40
5.0
 40
6.0
 40
6.0
 40
6.0
 40
7.0
 40
7.0
 40
7.0
 40
8.0
 40
8.0
 40
8.0
 40
9.0
 40
9.0
 40
9.0
 40
9.0
 10
96.46973603274022
 20
-155.7210720096809
 10
96.46973603274022
 20
-155.7210720096809
 10
96.46973603274022
 20
-154.8219020880306
 10
96.46973603274022
 20
-154.8219020880306
 10
96.46973603274022
 20
-154.8219020880306
 10
97.96749129495258
 20
-154.8219020880306
 10
97.96749129495258
 20
-154.8219020880306
 10
97.96749129495258
 20
-154.8219020880306
 10
97.96749129495258
 20
-155.7210720096809
 10
97.96749129495258
 20
-155.7210720096809
 10
97.96749129495258
 20
-155.7210720096809
 10
96.82303057475258
 20
-155.7210720096809
 10
96.82303057475258
 20
-155.7210720096809
 10
96.82303057475258
 20
-155.7210720096809
 10
96.92879500614976
 20
-155.8309705556603
 10
96.92879500614976
 20
-155.8309705556603
 10
96.76377493240628
 20
-155.9260551910532
 10
96.59875485866282
 20
-155.9873778906907
 10
96.3026489017056
 20
-156.0383653038724
 10
96.3026489017056
 20
-156.0383653038724
 10
96.23701983271158
 20
-155.8860920834243
 10
96.23701983271158
 20
-155.8860920834243
 10
96.6158080813148
 20
-155.8330376129515
 10
96.7384534805897
 20
-155.7655137414406
 10
96.81889646017028
 20
-155.7210720096809
 10
96.81889646017028
 20
-155.7210720096809
 10
96.46973603274022
 20
-155.7210720096809
 10
96.46973603274022
 20
-155.7210720096809
 97
        0
 97
        0
 92
        1
 93
        4
 72
     1
 10
97.7983371066268
 20
-154.9552272833098
 11
96.63906247584023
 21
-154.9552272833098
 72
     1
 10
96.63906247584023
 20
-154.9552272833098
 11
96.63906247584023
 21
-155.0840738544582
 72
     1
 10
96.63906247584023
 20
-155.0840738544582
 11
97.7983371066268
 21
-155.0840738544582
 72
     1
 10
97.7983371066268
 20
-155.0840738544582
 11
97.7983371066268
 21
-154.9552272833098
 97
        0
 92
        1
 93
        4
 72
     1
 10
97.7983371066268
 20
-155.1943169099862
 11
96.63906247584023
 21
-155.1943169099862
 72
     1
 10
96.63906247584023
 20
-155.1943169099862
 11
96.63906247584023
 21
-155.3359103344299
 72
     1
 10
96.63906247584023
 20
-155.3359103344299
 11
97.7983371066268
 21
-155.3359103344299
 72
     1
 10
97.7983371066268
 20
-155.3359103344299
 11
97.7983371066268
 21
-155.1943169099862
 97
        0
 92
        1
 93
        4
 72
     1
 10
97.7983371066268
 20
-155.4458088804094
 11
96.63906247584023
 21
-155.4458088804094
 72
     1
 10
96.63906247584023
 20
-155.4458088804094
 11
96.63906247584023
 21
-155.5856797571105
 72
     1
 10
96.63906247584023
 20
-155.5856797571105
 11
97.7983371066268
 21
-155.5856797571105
 72
     1
 10
97.7983371066268
 20
-155.5856797571105
 11
97.7983371066268
 21
-155.4458088804094
 97
        0
 92
        1
 93
        1
 72
     4
 94
        3
 73
     0
 74
     1
 95
       50
 96
       46
 40
0.0
 40
0.0
 40
0.0
 40
0.0
 40
1.0
 40
1.0
 40
1.0
 40
2.0
 40
2.0
 40
2.0
 40
3.0
 40
3.0
 40
3.0
 40
4.0
 40
4.0
 40
4.0
 40
5.0
 40
5.0
 40
5.0
 40
6.0
 40
6.0
 40
6.0
 40
7.0
 40
7.0
 40
7.0
 40
8.0
 40
8.0
 40
8.0
 40
9.0
 40
9.0
 40
9.0
 40
10.0
 40
10.0
 40
10.0
 40
11.0
 40
11.0
 40
11.0
 40
12.0
 40
12.0
 40
12.0
 40
13.0
 40
13.0
 40
13.0
 40
14.0
 40
14.0
 40
14.0
 40
15.0
 40
15.0
 40
15.0
 40
15.0
 10
97.46192353249216
 20
-154.3754177131423
 10
97.46192353249216
 20
-154.3754177131423
 10
98.19814043769006
 20
-154.3754177131423
 10
98.19814043769006
 20
-154.3754177131423
 10
98.19814043769006
 20
-154.3754177131423
 10
98.19814043769006
 20
-154.5004746792568
 10
98.19814043769006
 20
-154.5004746792568
 10
98.19814043769006
 20
-154.5004746792568
 10
97.86810029020312
 20
-154.5004746792568
 10
97.86810029020312
 20
-154.5004746792568
 10
97.86810029020312
 20
-154.5004746792568
 10
97.86810029020312
 20
-154.7753932989798
 10
97.86810029020312
 20
-154.7753932989798
 10
97.86810029020312
 20
-154.7753932989798
 10
97.71152070039851
 20
-154.7753932989798
 10
97.71152070039851
 20
-154.7753932989798
 10
97.71152070039851
 20
-154.7753932989798
 10
97.71152070039851
 20
-154.5004746792568
 10
97.71152070039851
 20
-154.5004746792568
 10
97.71152070039851
 20
-154.5004746792568
 10
97.44710962190558
 20
-154.5004746792568
 10
97.44710962190558
 20
-154.5004746792568
 10
97.421788170089
 20
-154.6293212504052
 10
97.37097301168157
 20
-154.7202717712158
 10
97.27364906422326
 20
-154.8029540628618
 10
97.27364906422326
 20
-154.8029540628618
 10
97.15100366494836
 20
-154.6951225741734
 10
97.15100366494836
 20
-154.6951225741734
 10
97.28639591751869
 20
-154.5848795186455
 10
97.30965031204411
 20
-154.447420208784
 10
97.30965031204411
 20
-154.3733506558511
 10
97.30965031204411
 20
-154.3733506558511
 10
97.30965031204411
 20
-154.1301269145925
 10
97.30965031204411
 20
-154.1301269145925
 10
97.77921682668367
 20
-154.1301269145925
 10
97.94647621249256
 20
-154.0898192974151
 10
98.09030894900174
 20
-154.0474446229465
 10
98.09030894900174
 20
-154.0474446229465
 10
98.14956459134802
 20
-154.1852484423565
 10
98.14956459134802
 20
-154.1852484423565
 10
97.8787800862074
 20
-154.2548393711585
 10
97.56355384930703
 20
-154.2593179952893
 10
97.46192353249216
 20
-154.2593179952893
 10
97.46192353249216
 20
-154.2593179952893
 10
97.46192353249216
 20
-154.3754177131423
 10
97.46192353249216
 20
-154.3754177131423
 97
        0
 97
        0
 92
        1
 93
        1
 72
     4
 94
        3
 73
     0
 74
     1
 95
       17
 96
       13
 40
0.0
 40
0.0
 40
0.0
 40
0.0
 40
1.0
 40
1.0
 40
1.0
 40
2.0
 40
2.0
 40
2.0
 40
3.0
 40
3.0
 40
3.0
 40
4.0
 40
4.0
 40
4.0
 40
4.0
 10
97.57406139053704
 20
-155.7272731815543
 10
97.79403073727025
 20
-155.8395832943735
 10
98.06068112782859
 20
-155.8774793447112
 10
98.18969995375119
 20
-155.8881591407155
 10
98.18969995375119
 20
-155.8881591407155
 10
98.11993677017489
 20
-156.0424994184547
 10
98.11993677017489
 20
-156.0424994184547
 10
97.99935842819114
 20
-156.0276855078681
 10
97.73701440698936
 20
-155.9873778906907
 10
97.47260332849643
 20
-155.8416503516646
 10
97.47260332849643
 20
-155.8416503516646
 10
97.57406139053704
 20
-155.7272731815543
 10
97.57406139053704
 20
-155.7272731815543
 97
        0
 97
        0
 75
     2
 76
     1
 98
        0
  0
ENDBLK
  5
D6
330
D3
100
AcDbEntity
  8
0
100
AcDbBlockEnd
  0
ENDSEC
  0
SECTION
  2
ENTITIES
  0
INSERT
  5
42
330
1F
100
AcDbEntity
  8
_U+30EC_U+30A4_U+30E4_U+30FC 1
100
AcDbBlockReference
  2
block 2
 10
0.0
 20
0.0
 30
0.0
  0
INSERT
  5
53
330
1F
100
AcDbEntity
  8
_U+30EC_U+30A4_U+30E4_U+30FC 1
100
AcDbBlockReference
  2
block 3
 10
0.0
 20
0.0
 30
0.0
  0
POLYLINE
  5
58
330
1F
100
AcDbEntity
  8
_U+30EC_U+30A4_U+30E4_U+30FC 1
 62
   179
420
  2234388
370
     9
100
AcDb2dPolyline
 66
     1
 10
0.0
 20
0.0
 30
0.0
  0
VERTEX
  5
59
330
58
100
AcDbEntity
  8
_U+30EC_U+30A4_U+30E4_U+30FC 1
 62
   179
420
  2234388
370
     9
100
AcDbVertex
100
AcDb2dVertex
 10
81.84148110356985
 20
-154.0530536690334
 30
0.0
  0
VERTEX
  5
5A
330
58
100
AcDbEntity
  8
_U+30EC_U+30A4_U+30E4_U+30FC 1
 62
   179
420
  2234388
370
     9
100
AcDbVertex
100
AcDb2dVertex
 10
81.84148110356985
 20
-157.5134582973458
 30
0.0
  0
SEQEND
  5
5B
330
58
100
AcDbEntity
  8
_U+30EC_U+30A4_U+30E4_U+30FC 1
 62
   179
420
  2234388
370
     9
  0
POLYLINE
  5
5C
330
1F
100
AcDbEntity
  8
_U+30EC_U+30A4_U+30E4_U+30FC 1
 62
   179
420
  2234388
370
     9
100
AcDb2dPolyline
 66
     1
 10
0.0
 20
0.0
 30
0.0
  0
VERTEX
  5
5D
330
5C
100
AcDbEntity
  8
_U+30EC_U+30A4_U+30E4_U+30FC 1
 62
   179
420
  2234388
370
     9
100
AcDbVertex
100
AcDb2dVertex
 10
121.8448936581645
 20
-155.0534663342564
 30
0.0
  0
VERTEX
  5
5E
330
5C
100
AcDbEntity
  8
_U+30EC_U+30A4_U+30E4_U+30FC 1
 62
   179
420
  2234388
370
     9
100
AcDbVertex
100
AcDb2dVertex
 10
121.8448936581645
 20
-157.5133937018055
 30
0.0
  0
SEQEND
  5
5F
330
5C
100
AcDbEntity
  8
_U+30EC_U+30A4_U+30E4_U+30FC 1
 62
   179
420
  2234388
370
     9
  0
SPLINE
  5
60
330
1F
100
AcDbEntity
  8
_U+30EC_U+30A4_U+30E4_U+30FC 1
 62
   179
420
  2234388
370
     9
100
AcDbSpline
210
0.0
220
0.0
230
1.0
 70
    11
 71
     3
 72
    17
 73
    13
 74
     0
 42
0.0000000001
 43
0.0000000001
 12
1.0
 22
0.0
 32
0.0
 13
1.0
 23
0.0
 33
0.0
 40
0.0
 40
0.0
 40
0.0
 40
0.0
 40
1.0
 40
1.0
 40
1.0
 40
2.0
 40
2.0
 40
2.0
 40
3.0
 40
3.0
 40
3.0
 40
4.0
 40
4.0
 40
4.0
 40
4.0
 10
98.8406076819959
 20
-142.6780481617589
 30
0.0
 10
98.78557228161904
 20
-142.6780481617589
 30
0.0
 10
98.74076989142539
 20
-142.7228559349142
 30
0.0
 10
98.74076989142539
 20
-142.7778913352911
 30
0.0
 10
98.74076989142539
 20
-142.832926735668
 30
0.0
 10
98.78557228161904
 20
-142.8777237428993
 30
0.0
 10
98.8406076819959
 20
-142.8777237428993
 30
0.0
 10
98.89563769941076
 20
-142.8777237428993
 30
0.0
 10
98.94044008960408
 20
-142.832926735668
 30
0.0
 10
98.94044008960408
 20
-142.7778913352911
 30
0.0
 10
98.94044008960408
 20
-142.7228559349142
 30
0.0
 10
98.89563769941076
 20
-142.6780481617589
 30
0.0
 10
98.8406076819959
 20
-142.6780481617589
 30
0.0
  0
POLYLINE
  5
61
330
1F
100
AcDbEntity
  8
_U+30EC_U+30A4_U+30E4_U+30FC 1
 62
   179
420
  2234388
370
     9
100
AcDb2dPolyline
 66
     1
 10
0.0
 20
0.0
 30
0.0
  0
VERTEX
  5
62
330
61
100
AcDbEntity
  8
_U+30EC_U+30A4_U+30E4_U+30FC 1
 62
   179
420
  2234388
370
     9
100
AcDbVertex
100
AcDb2dVertex
 10
104.8428414400572
 20
-142.7779559308311
 30
0.0
  0
VERTEX
  5
63
330
61
100
AcDbEntity
  8
_U+30EC_U+30A4_U+30E4_U+30FC 1
 62
   179
420
  2234388
370
     9
100
AcDbVertex
100
AcDb2dVertex
 10
98.84279316444403
 20
-142.7779559308311
 30
0.0
  0
SEQEND
  5
64
330
61
100
AcDbEntity
  8
_U+30EC_U+30A4_U+30E4_U+30FC 1
 62
   179
420
  2234388
370
     9
  0
POLYLINE
  5
65
330
1F
100
AcDbEntity
  8
_U+30EC_U+30A4_U+30E4_U+30FC 1
 62
   179
420
  2234388
370
     9
100
AcDb2dPolyline
 66
     1
 10
0.0
 20
0.0
 30
0.0
  0
VERTEX
  5
66
330
65
100
AcDbEntity
  8
_U+30EC_U+30A4_U+30E4_U+30FC 1
 62
   179
420
  2234388
370
     9
100
AcDbVertex
100
AcDb2dVertex
 10
98.8406076819959
 20
-141.3179136982588
 30
0.0
  0
VERTEX
  5
67
330
65
100
AcDbEntity
  8
_U+30EC_U+30A4_U+30E4_U+30FC 1
 62
   179
420
  2234388
370
     9
100
AcDbVertex
100
AcDb2dVertex
 10
98.8406076819959
 20
-143.7778410658079
 30
0.0
  0
SEQEND
  5
68
330
65
100
AcDbEntity
  8
_U+30EC_U+30A4_U+30E4_U+30FC 1
 62
   179
420
  2234388
370
     9
  0
SPLINE
  5
69
330
1F
100
AcDbEntity
  8
_U+30EC_U+30A4_U+30E4_U+30FC 1
 62
   179
420
  2234388
370
     9
100
AcDbSpline
210
0.0
220
0.0
230
1.0
 70
    11
 71
     3
 72
    17
 73
    13
 74
     0
 42
0.0000000001
 43
0.0000000001
 12
1.0
 22
0.0
 32
0.0
 13
1.0
 23
0.0
 33
0.0
 40
0.0
 40
0.0
 40
0.0
 40
0.0
 40
1.0
 40
1.0
 40
1.0
 40
2.0
 40
2.0
 40
2.0
 40
3.0
 40
3.0
 40
3.0
 40
4.0
 40
4.0
 40
4.0
 40
4.0
 10
104.8450592202758
 20
-142.6780481617589
 30
0.0
 10
104.790023819899
 20
-142.6780481617589
 30
0.0
 10
104.7452214297056
 20
-142.7228559349142
 30
0.0
 10
104.7452214297056
 20
-142.7778913352911
 30
0.0
 10
104.7452214297056
 20
-142.832926735668
 30
0.0
 10
104.790023819899
 20
-142.8777237428993
 30
0.0
 10
104.8450592202758
 20
-142.8777237428993
 30
0.0
 10
104.900089237691
 20
-142.8777237428993
 30
0.0
 10
104.9448916278843
 20
-142.832926735668
 30
0.0
 10
104.9448916278843
 20
-142.7778913352911
 30
0.0
 10
104.9448916278843
 20
-142.7228559349142
 30
0.0
 10
104.900089237691
 20
-142.6780481617589
 30
0.0
 10
104.8450592202758
 20
-142.6780481617589
 30
0.0
  0
POLYLINE
  5
6A
330
1F
100
AcDbEntity
  8
_U+30EC_U+30A4_U+30E4_U+30FC 1
 62
   179
420
  2234388
370
     9
100
AcDb2dPolyline
 66
     1
 10
0.0
 20
0.0
 30
0.0
  0
VERTEX
  5
6B
330
6A
100
AcDbEntity
  8
_U+30EC_U+30A4_U+30E4_U+30FC 1
 62
   179
420
  2234388
370
     9
100
AcDbVertex
100
AcDb2dVertex
 10
104.8450592202758
 20
-141.3179136982588
 30
0.0
  0
VERTEX
  5
6C
330
6A
100
AcDbEntity
  8
_U+30EC_U+30A4_U+30E4_U+30FC 1
 62
   179
420
  2234388
370
     9
100
AcDbVertex
100
AcDb2dVertex
 10
104.8450592202758
 20
-143.7778410658079
 30
0.0
  0
SEQEND
  5
6D
330
6A
100
AcDbEntity
  8
_U+30EC_U+30A4_U+30E4_U+30FC 1
 62
   179
420
  2234388
370
     9
  0
INSERT
  5
6F
330
1F
100
AcDbEntity
  8
_U+30EC_U+30A4_U+30E4_U+30FC 1
100
AcDbBlockReference
  2
block 4
 10
0.0
 20
0.0
 30
0.0
  0
SPLINE
  5
75
330
1F
100
AcDbEntity
  8
_U+30EC_U+30A4_U+30E4_U+30FC 1
 62
   179
420
  2234388
370
     9
100
AcDbSpline
210
0.0
220
0.0
230
1.0
 70
    11
 71
     3
 72
    17
 73
    13
 74
     0
 42
0.0000000001
 43
0.0000000001
 12
1.0
 22
0.0
 32
0.0
 13
1.0
 23
0.0
 33
0.0
 40
0.0
 40
0.0
 40
0.0
 40
0.0
 40
1.0
 40
1.0
 40
1.0
 40
2.0
 40
2.0
 40
2.0
 40
3.0
 40
3.0
 40
3.0
 40
4.0
 40
4.0
 40
4.0
 40
4.0
 10
125.2150529336485
 20
-151.5129847677587
 30
0.0
 10
125.2150529336485
 20
-151.5683754436075
 30
0.0
 10
125.2598553238418
 20
-151.6128279412906
 30
0.0
 10
125.314885341257
 20
-151.6128279412906
 30
0.0
 10
125.3699207416339
 20
-151.6128279412906
 30
0.0
 10
125.4147231318272
 20
-151.5683754436075
 30
0.0
 10
125.4147231318272
 20
-151.5129847677587
 30
0.0
 10
125.4147231318272
 20
-151.4579601333052
 30
0.0
 10
125.3699207416339
 20
-151.4131523601502
 30
0.0
 10
125.314885341257
 20
-151.4131523601502
 30
0.0
 10
125.2598553238418
 20
-151.4131523601502
 30
0.0
 10
125.2150529336485
 20
-151.4579601333052
 30
0.0
 10
125.2150529336485
 20
-151.5129847677587
 30
0.0
  0
SPLINE
  5
76
330
1F
100
AcDbEntity
  8
_U+30EC_U+30A4_U+30E4_U+30FC 1
 62
   179
420
  2234388
370
     9
100
AcDbSpline
210
0.0
220
0.0
230
1.0
 70
    11
 71
     3
 72
    17
 73
    13
 74
     0
 42
0.0000000001
 43
0.0000000001
 12
1.0
 22
0.0
 32
0.0
 13
1.0
 23
0.0
 33
0.0
 40
0.0
 40
0.0
 40
0.0
 40
0.0
 40
1.0
 40
1.0
 40
1.0
 40
2.0
 40
2.0
 40
2.0
 40
3.0
 40
3.0
 40
3.0
 40
4.0
 40
4.0
 40
4.0
 40
4.0
 10
125.2150529336485
 20
-152.5131067530501
 30
0.0
 10
125.2150529336485
 20
-152.568142153427
 30
0.0
 10
125.2598553238418
 20
-152.612949926582
 30
0.0
 10
125.314885341257
 20
-152.612949926582
 30
0.0
 10
125.3699207416339
 20
-152.612949926582
 30
0.0
 10
125.4147231318272
 20
-152.568142153427
 30
0.0
 10
125.4147231318272
 20
-152.5131067530501
 30
0.0
 10
125.4147231318272
 20
-152.4580821185966
 30
0.0
 10
125.3699207416339
 20
-152.4132743454416
 30
0.0
 10
125.314885341257
 20
-152.4132743454416
 30
0.0
 10
125.2598553238418
 20
-152.4132743454416
 30
0.0
 10
125.2150529336485
 20
-152.4580821185966
 30
0.0
 10
125.2150529336485
 20
-152.5131067530501
 30
0.0
  0
POLYLINE
  5
77
330
1F
100
AcDbEntity
  8
_U+30EC_U+30A4_U+30E4_U+30FC 1
 62
   179
420
  2234388
370
     9
100
AcDb2dPolyline
 66
     1
 10
0.0
 20
0.0
 30
0.0
  0
VERTEX
  5
78
330
77
100
AcDbEntity
  8
_U+30EC_U+30A4_U+30E4_U+30FC 1
 62
   179
420
  2234388
370
     9
100
AcDbVertex
100
AcDb2dVertex
 10
125.3149553197591
 20
-151.5109392423143
 30
0.0
  0
VERTEX
  5
79
330
77
100
AcDbEntity
  8
_U+30EC_U+30A4_U+30E4_U+30FC 1
 62
   179
420
  2234388
370
     9
100
AcDbVertex
100
AcDb2dVertex
 10
125.3149553197591
 20
-145.0110129947531
 30
0.0
  0
SEQEND
  5
7A
330
77
100
AcDbEntity
  8
_U+30EC_U+30A4_U+30E4_U+30FC 1
 62
   179
420
  2234388
370
     9
  0
POLYLINE
  5
7B
330
1F
100
AcDbEntity
  8
_U+30EC_U+30A4_U+30E4_U+30FC 1
 62
   179
420
  2234388
370
     9
100
AcDb2dPolyline
 66
     1
 10
0.0
 20
0.0
 30
0.0
  0
VERTEX
  5
7C
330
7B
100
AcDbEntity
  8
_U+30EC_U+30A4_U+30E4_U+30FC 1
 62
   179
420
  2234388
370
     9
100
AcDbVertex
100
AcDb2dVertex
 10
125.3149553197591
 20
-152.5131067530501
 30
0.0
  0
VERTEX
  5
7D
330
7B
100
AcDbEntity
  8
_U+30EC_U+30A4_U+30E4_U+30FC 1
 62
   179
420
  2234388
370
     9
100
AcDbVertex
100
AcDb2dVertex
 10
125.3149553197591
 20
-151.5129847677587
 30
0.0
  0
SEQEND
  5
7E
330
7B
100
AcDbEntity
  8
_U+30EC_U+30A4_U+30E4_U+30FC 1
 62
   179
420
  2234388
370
     9
  0
POLYLINE
  5
7F
330
1F
100
AcDbEntity
  8
_U+30EC_U+30A4_U+30E4_U+30FC 1
 62
   179
420
  2234388
370
     9
100
AcDb2dPolyline
 66
     1
 10
0.0
 20
0.0
 30
0.0
  0
VERTEX
  5
80
330
7F
100
AcDbEntity
  8
_U+30EC_U+30A4_U+30E4_U+30FC 1
 62
   179
420
  2234388
370
     9
100
AcDbVertex
100
AcDb2dVertex
 10
124.0292564505872
 20
-151.513296979537
 30
0.0
  0
VERTEX
  5
81
330
7F
100
AcDbEntity
  8
_U+30EC_U+30A4_U+30E4_U+30FC 1
 62
   179
420
  2234388
370
     9
100
AcDbVertex
100
AcDb2dVertex
 10
126.4891730522129
 20
-151.513296979537
 30
0.0
  0
SEQEND
  5
82
330
7F
100
AcDbEntity
  8
_U+30EC_U+30A4_U+30E4_U+30FC 1
 62
   179
420
  2234388
370
     9
  0
POLYLINE
  5
83
330
1F
100
AcDbEntity
  8
_U+30EC_U+30A4_U+30E4_U+30FC 1
 62
   179
420
  2234388
370
     9
100
AcDb2dPolyline
 66
     1
 10
0.0
 20
0.0
 30
0.0
  0
VERTEX
  5
84
330
83
100
AcDbEntity
  8
_U+30EC_U+30A4_U+30E4_U+30FC 1
 62
   179
420
  2234388
370
     9
100
AcDbVertex
100
AcDb2dVertex
 10
124.0292564505872
 20
-152.5131067530501
 30
0.0
  0
VERTEX
  5
85
330
83
100
AcDbEntity
  8
_U+30EC_U+30A4_U+30E4_U+30FC 1
 62
   179
420
  2234388
370
     9
100
AcDbVertex
100
AcDb2dVertex
 10
126.4891730522129
 20
-152.5131067530501
 30
0.0
  0
SEQEND
  5
86
330
83
100
AcDbEntity
  8
_U+30EC_U+30A4_U+30E4_U+30FC 1
 62
   179
420
  2234388
370
     9
  0
SPLINE
  5
87
330
1F
100
AcDbEntity
  8
_U+30EC_U+30A4_U+30E4_U+30FC 1
 62
   179
420
  2234388
370
     9
100
AcDbSpline
210
0.0
220
0.0
230
1.0
 70
    11
 71
     3
 72
    17
 73
    13
 74
     0
 42
0.0000000001
 43
0.0000000001
 12
1.0
 22
0.0
 32
0.0
 13
1.0
 23
0.0
 33
0.0
 40
0.0
 40
0.0
 40
0.0
 40
0.0
 40
1.0
 40
1.0
 40
1.0
 40
2.0
 40
2.0
 40
2.0
 40
3.0
 40
3.0
 40
3.0
 40
4.0
 40
4.0
 40
4.0
 40
4.0
 10
125.4152183643032
 20
-145.0089567033854
 30
0.0
 10
125.4152183643032
 20
-144.95357679346
 30
0.0
 10
125.3704105911482
 20
-144.9091242957768
 30
0.0
 10
125.315380573733
 20
-144.9091242957768
 30
0.0
 10
125.2603451733561
 20
-144.9091242957768
 30
0.0
 10
125.2155427831628
 20
-144.95357679346
 30
0.0
 10
125.2155427831628
 20
-145.0089567033854
 30
0.0
 10
125.2155427831628
 20
-145.0639921037622
 30
0.0
 10
125.2603451733561
 20
-145.1087998769173
 30
0.0
 10
125.315380573733
 20
-145.1087998769173
 30
0.0
 10
125.3704105911482
 20
-145.1087998769173
 30
0.0
 10
125.4152183643032
 20
-145.0639921037622
 30
0.0
 10
125.4152183643032
 20
-145.0089567033854
 30
0.0
  0
POLYLINE
  5
88
330
1F
100
AcDbEntity
  8
_U+30EC_U+30A4_U+30E4_U+30FC 1
 62
   179
420
  2234388
370
     9
100
AcDb2dPolyline
 66
     1
 10
0.0
 20
0.0
 30
0.0
  0
VERTEX
  5
89
330
88
100
AcDbEntity
  8
_U+30EC_U+30A4_U+30E4_U+30FC 1
 62
   179
420
  2234388
370
     9
100
AcDbVertex
100
AcDb2dVertex
 10
114.159913776256
 20
-145.0089567033854
 30
0.0
  0
VERTEX
  5
8A
330
88
100
AcDbEntity
  8
_U+30EC_U+30A4_U+30E4_U+30FC 1
 62
   179
420
  2234388
370
     9
100
AcDbVertex
100
AcDb2dVertex
 10
126.4891407544427
 20
-145.0089567033854
 30
0.0
  0
SEQEND
  5
8B
330
88
100
AcDbEntity
  8
_U+30EC_U+30A4_U+30E4_U+30FC 1
 62
   179
420
  2234388
370
     9
  0
INSERT
  5
8D
330
1F
100
AcDbEntity
  8
_U+30EC_U+30A4_U+30E4_U+30FC 1
100
AcDbBlockReference
  2
block 5
 10
0.0
 20
0.0
 30
0.0
  0
SPLINE
  5
A8
330
1F
100
AcDbEntity
  8
_U+30EC_U+30A4_U+30E4_U+30FC 1
 62
   179
420
  2234388
370
     9
100
AcDbSpline
210
0.0
220
0.0
230
1.0
 70
    11
 71
     3
 72
    17
 73
    13
 74
     0
 42
0.0000000001
 43
0.0000000001
 12
1.0
 22
0.0
 32
0.0
 13
1.0
 23
0.0
 33
0.0
 40
0.0
 40
0.0
 40
0.0
 40
0.0
 40
1.0
 40
1.0
 40
1.0
 40
2.0
 40
2.0
 40
2.0
 40
3.0
 40
3.0
 40
3.0
 40
4.0
 40
4.0
 40
4.0
 40
4.0
 10
121.9442685140289
 20
-156.4136330955266
 30
0.0
 10
121.9442685140289
 20
-156.4686684959034
 30
0.0
 10
121.8994607408739
 20
-156.5134762690585
 30
0.0
 10
121.8444307234587
 20
-156.5134762690585
 30
0.0
 10
121.7893953230818
 20
-156.5134762690585
 30
0.0
 10
121.7445929328885
 20
-156.4686684959034
 30
0.0
 10
121.7445929328885
 20
-156.4136330955266
 30
0.0
 10
121.7445929328885
 20
-156.3586084610731
 30
0.0
 10
121.7893953230818
 20
-156.3138006879181
 30
0.0
 10
121.8444307234587
 20
-156.3138006879181
 30
0.0
 10
121.8994607408739
 20
-156.3138006879181
 30
0.0
 10
121.9442685140289
 20
-156.3586084610731
 30
0.0
 10
121.9442685140289
 20
-156.4136330955266
 30
0.0
  0
SPLINE
  5
A9
330
1F
100
AcDbEntity
  8
_U+30EC_U+30A4_U+30E4_U+30FC 1
 62
   179
420
  2234388
370
     9
100
AcDbSpline
210
0.0
220
0.0
230
1.0
 70
    11
 71
     3
 72
    17
 73
    13
 74
     0
 42
0.0000000001
 43
0.0000000001
 12
1.0
 22
0.0
 32
0.0
 13
1.0
 23
0.0
 33
0.0
 40
0.0
 40
0.0
 40
0.0
 40
0.0
 40
1.0
 40
1.0
 40
1.0
 40
2.0
 40
2.0
 40
2.0
 40
3.0
 40
3.0
 40
3.0
 40
4.0
 40
4.0
 40
4.0
 40
4.0
 10
81.9413888726421
 20
-156.4136330955266
 30
0.0
 10
81.9413888726421
 20
-156.4686684959034
 30
0.0
 10
81.89658379096791
 20
-156.5134762690585
 30
0.0
 10
81.8415510820719
 20
-156.5134762690585
 30
0.0
 10
81.78651837317588
 20
-156.5134762690585
 30
0.0
 10
81.74171598298254
 20
-156.4686684959034
 30
0.0
 10
81.74171598298254
 20
-156.4136330955266
 30
0.0
 10
81.74171598298254
 20
-156.3586084610731
 30
0.0
 10
81.78651837317588
 20
-156.3138006879181
 30
0.0
 10
81.8415510820719
 20
-156.3138006879181
 30
0.0
 10
81.89658379096791
 20
-156.3138006879181
 30
0.0
 10
81.9413888726421
 20
-156.3586084610731
 30
0.0
 10
81.9413888726421
 20
-156.4136330955266
 30
0.0
  0
POLYLINE
  5
AA
330
1F
100
AcDbEntity
  8
_U+30EC_U+30A4_U+30E4_U+30FC 1
 62
   179
420
  2234388
370
     9
100
AcDb2dPolyline
 66
     1
 10
0.0
 20
0.0
 30
0.0
  0
VERTEX
  5
AB
330
AA
100
AcDbEntity
  8
_U+30EC_U+30A4_U+30E4_U+30FC 1
 62
   179
420
  2234388
370
     9
100
AcDbVertex
100
AcDb2dVertex
 10
121.8426704949842
 20
-156.4136330955266
 30
0.0
  0
VERTEX
  5
AC
330
AA
100
AcDbEntity
  8
_U+30EC_U+30A4_U+30E4_U+30FC 1
 62
   179
420
  2234388
370
     9
100
AcDbVertex
100
AcDb2dVertex
 10
81.84296141803617
 20
-156.4136330955266
 30
0.0
  0
SEQEND
  5
AD
330
AA
100
AcDbEntity
  8
_U+30EC_U+30A4_U+30E4_U+30FC 1
 62
   179
420
  2234388
370
     9
  0
POLYLINE
  5
AE
330
1F
100
AcDbEntity
  8
_U+30EC_U+30A4_U+30E4_U+30FC 1
 62
   179
420
  2234388
370
    25
100
AcDb2dPolyline
 66
     1
 10
0.0
 20
0.0
 30
0.0
  0
VERTEX
  5
AF
330
AE
100
AcDbEntity
  8
_U+30EC_U+30A4_U+30E4_U+30FC 1
 62
   179
420
  2234388
370
    25
100
AcDbVertex
100
AcDb2dVertex
 10
98.83905738902754
 20
-152.5248200777
 30
0.0
  0
VERTEX
  5
B0
330
AE
100
AcDbEntity
  8
_U+30EC_U+30A4_U+30E4_U+30FC 1
 62
   179
420
  2234388
370
    25
100
AcDbVertex
100
AcDb2dVertex
 10
98.83905738902754
 20
-145.008892107845
 30
0.0
  0
VERTEX
  5
B1
330
AE
100
AcDbEntity
  8
_U+30EC_U+30A4_U+30E4_U+30FC 1
 62
   179
420
  2234388
370
    25
100
AcDbVertex
100
AcDb2dVertex
 10
97.8389300207741
 20
-145.008892107845
 30
0.0
  0
VERTEX
  5
B2
330
AE
100
AcDbEntity
  8
_U+30EC_U+30A4_U+30E4_U+30FC 1
 62
   179
420
  2234388
370
    25
100
AcDbVertex
100
AcDb2dVertex
 10
97.8389300207741
 20
-151.5130601292224
 30
0.0
  0
VERTEX
  5
B3
330
AE
100
AcDbEntity
  8
_U+30EC_U+30A4_U+30E4_U+30FC 1
 62
   179
420
  2234388
370
    25
100
AcDbVertex
100
AcDb2dVertex
 10
81.8450446242124
 20
-151.5130601292224
 30
0.0
  0
VERTEX
  5
B4
330
AE
100
AcDbEntity
  8
_U+30EC_U+30A4_U+30E4_U+30FC 1
 62
   179
420
  2234388
370
    25
100
AcDbVertex
100
AcDb2dVertex
 10
81.8450446242124
 20
-152.5131821145139
 30
0.0
  0
VERTEX
  5
B5
330
AE
100
AcDbEntity
  8
_U+30EC_U+30A4_U+30E4_U+30FC 1
 62
   179
420
  2234388
370
    25
100
AcDbVertex
100
AcDb2dVertex
 10
121.8447537011605
 20
-152.5131821145139
 30
0.0
  0
VERTEX
  5
B6
330
AE
100
AcDbEntity
  8
_U+30EC_U+30A4_U+30E4_U+30FC 1
 62
   179
420
  2234388
370
    25
100
AcDbVertex
100
AcDb2dVertex
 10
121.8447537011605
 20
-151.5130601292224
 30
0.0
  0
VERTEX
  5
B7
330
AE
100
AcDbEntity
  8
_U+30EC_U+30A4_U+30E4_U+30FC 1
 62
   179
420
  2234388
370
    25
100
AcDbVertex
100
AcDb2dVertex
 10
105.8452242692608
 20
-151.5130601292224
 30
0.0
  0
VERTEX
  5
B8
330
AE
100
AcDbEntity
  8
_U+30EC_U+30A4_U+30E4_U+30FC 1
 62
   179
420
  2234388
370
    25
100
AcDbVertex
100
AcDb2dVertex
 10
105.8452242692608
 20
-145.008892107845
 30
0.0
  0
VERTEX
  5
B9
330
AE
100
AcDbEntity
  8
_U+30EC_U+30A4_U+30E4_U+30FC 1
 62
   179
420
  2234388
370
    25
100
AcDbVertex
100
AcDb2dVertex
 10
104.8450969010077
 20
-145.008892107845
 30
0.0
  0
VERTEX
  5
BA
330
AE
100
AcDbEntity
  8
_U+30EC_U+30A4_U+30E4_U+30FC 1
 62
   179
420
  2234388
370
    25
100
AcDbVertex
100
AcDb2dVertex
 10
104.8450969010077
 20
-152.5248200777
 30
0.0
  0
SEQEND
  5
BB
330
AE
100
AcDbEntity
  8
_U+30EC_U+30A4_U+30E4_U+30FC 1
 62
   179
420
  2234388
370
    25
  0
POLYLINE
  5
BC
330
1F
100
AcDbEntity
  8
_U+30EC_U+30A4_U+30E4_U+30FC 1
 62
   179
420
  2234388
370
    25
100
AcDb2dPolyline
 66
     1
 10
0.0
 20
0.0
 30
0.0
  0
VERTEX
  5
BD
330
BC
100
AcDbEntity
  8
_U+30EC_U+30A4_U+30E4_U+30FC 1
 62
   179
420
  2234388
370
    25
100
AcDbVertex
100
AcDb2dVertex
 10
104.8450592202758
 20
-151.5129847677587
 30
0.0
  0
VERTEX
  5
BE
330
BC
100
AcDbEntity
  8
_U+30EC_U+30A4_U+30E4_U+30FC 1
 62
   179
420
  2234388
370
    25
100
AcDbVertex
100
AcDb2dVertex
 10
98.83901432533365
 20
-151.5129847677587
 30
0.0
  0
SEQEND
  5
BF
330
BC
100
AcDbEntity
  8
_U+30EC_U+30A4_U+30E4_U+30FC 1
 62
   179
420
  2234388
370
    25
  0
POLYLINE
  5
C0
330
1F
100
AcDbEntity
  8
_U+30EC_U+30A4_U+30E4_U+30FC 1
370
     0
100
AcDb2dPolyline
 66
     1
 10
0.0
 20
0.0
 30
0.0
  0
VERTEX
  5
C1
330
C0
100
AcDbEntity
  8
_U+30EC_U+30A4_U+30E4_U+30FC 1
370
     0
100
AcDbVertex
100
AcDb2dVertex
 10
99.26489272285089
 20
-153.173187048024
 30
0.0
  0
VERTEX
  5
C2
330
C0
100
AcDbEntity
  8
_U+30EC_U+30A4_U+30E4_U+30FC 1
370
     0
100
AcDbVertex
100
AcDb2dVertex
 10
99.31428139640896
 20
-153.7323475771268
 30
0.0
  0
VERTEX
  5
C3
330
C0
100
AcDbEntity
  8
_U+30EC_U+30A4_U+30E4_U+30FC 1
370
     0
100
AcDbVertex
100
AcDb2dVertex
 10
99.54817108208725
 20
-152.8278269915511
 30
0.0
  0
VERTEX
  5
C4
330
C0
100
AcDbEntity
  8
_U+30EC_U+30A4_U+30E4_U+30FC 1
370
     0
100
AcDbVertex
100
AcDb2dVertex
 10
98.6722232571923
 20
-153.1936530683911
 30
0.0
  0
VERTEX
  5
C5
330
C0
100
AcDbEntity
  8
_U+30EC_U+30A4_U+30E4_U+30FC 1
370
     0
100
AcDbVertex
100
AcDb2dVertex
 10
99.26489272285089
 20
-153.173187048024
 30
0.0
  0
SEQEND
  5
C7
330
C0
100
AcDbEntity
  8
_U+30EC_U+30A4_U+30E4_U+30FC 1
370
     0
  0
HATCH
  5
C6
330
1F
100
AcDbEntity
  8
_U+30EC_U+30A4_U+30E4_U+30FC 1
 62
   179
420
  2234388
100
AcDbHatch
 10
0.0
 20
0.0
 30
0.0
210
0.0
220
0.0
230
1.0
  2
SOLID
 70
     1
 71
     0
 91
        1
 92
        1
 93
        4
 72
     1
 10
99.26489272285089
 20
-153.173187048024
 11
99.31428139640896
 21
-153.7323475771268
 72
     1
 10
99.31428139640896
 20
-153.7323475771268
 11
99.54817108208725
 21
-152.8278269915511
 72
     1
 10
99.54817108208725
 20
-152.8278269915511
 11
98.6722232571923
 21
-153.1936530683911
 72
     1
 10
98.6722232571923
 20
-153.1936530683911
 11
99.26489272285089
 21
-153.173187048024
 97
        0
 75
     2
 76
     1
 98
        0
  0
POLYLINE
  5
C8
330
1F
100
AcDbEntity
  8
_U+30EC_U+30A4_U+30E4_U+30FC 1
 62
   179
420
  2234388
370
     9
100
AcDb2dPolyline
 66
     1
 10
0.0
 20
0.0
 30
0.0
  0
VERTEX
  5
C9
330
C8
100
AcDbEntity
  8
_U+30EC_U+30A4_U+30E4_U+30FC 1
 62
   179
420
  2234388
370
     9
100
AcDbVertex
100
AcDb2dVertex
 10
99.26489272285089
 20
-153.173187048024
 30
0.0
  0
VERTEX
  5
CA
330
C8
100
AcDbEntity
  8
_U+30EC_U+30A4_U+30E4_U+30FC 1
 62
   179
420
  2234388
370
     9
100
AcDbVertex
100
AcDb2dVertex
 10
99.31428139640896
 20
-153.7323475771268
 30
0.0
  0
VERTEX
  5
CB
330
C8
100
AcDbEntity
  8
_U+30EC_U+30A4_U+30E4_U+30FC 1
 62
   179
420
  2234388
370
     9
100
AcDbVertex
100
AcDb2dVertex
 10
99.54817108208725
 20
-152.8278269915511
 30
0.0
  0
VERTEX
  5
CC
330
C8
100
AcDbEntity
  8
_U+30EC_U+30A4_U+30E4_U+30FC 1
 62
   179
420
  2234388
370
     9
100
AcDbVertex
100
AcDb2dVertex
 10
98.6722232571923
 20
-153.1936530683911
 30
0.0
  0
VERTEX
  5
CD
330
C8
100
AcDbEntity
  8
_U+30EC_U+30A4_U+30E4_U+30FC 1
 62
   179
420
  2234388
370
     9
100
AcDbVertex
100
AcDb2dVertex
 10
99.26489272285089
 20
-153.173187048024
 30
0.0
  0
SEQEND
  5
CE
330
C8
100
AcDbEntity
  8
_U+30EC_U+30A4_U+30E4_U+30FC 1
 62
   179
420
  2234388
370
     9
  0
POLYLINE
  5
CF
330
1F
100
AcDbEntity
  8
_U+30EC_U+30A4_U+30E4_U+30FC 1
 62
   179
420
  2234388
370
     9
100
AcDb2dPolyline
 66
     1
 10
0.0
 20
0.0
 30
0.0
  0
VERTEX
  5
D0
330
CF
100
AcDbEntity
  8
_U+30EC_U+30A4_U+30E4_U+30FC 1
 62
   179
420
  2234388
370
     9
100
AcDbVertex
100
AcDb2dVertex
 10
99.26489272285089
 20
-153.173187048024
 30
0.0
  0
VERTEX
  5
D1
330
CF
100
AcDbEntity
  8
_U+30EC_U+30A4_U+30E4_U+30FC 1
 62
   179
420
  2234388
370
     9
100
AcDbVertex
100
AcDb2dVertex
 10
98.33567510901526
 20
-154.2809144376125
 30
0.0
  0
SEQEND
  5
D2
330
CF
100
AcDbEntity
  8
_U+30EC_U+30A4_U+30E4_U+30FC 1
 62
   179
420
  2234388
370
     9
  0
INSERT
  5
D4
330
1F
100
AcDbEntity
  8
_U+30EC_U+30A4_U+30E4_U+30FC 1
100
AcDbBlockReference
  2
block 6
 10
0.0
 20
0.0
 30
0.0
  0
ENDSEC
  0
SECTION
  2
OBJECTS
  0
DICTIONARY
  5
C
330
0
100
AcDbDictionary
281
     1
  3
ACAD_GROUP
350
D
  3
ACAD_LAYOUT
350
1A
  3
ACAD_MATERIAL
350
3B
  3
ACAD_MLEADERSTYLE
350
130
  3
ACAD_MLINESTYLE
350
17
  3
ACAD_PLOTSETTINGS
350
19
  3
ACAD_PLOTSTYLENAME
350
E
  3
ACAD_TABLESTYLE
350
12F
  3
ACAD_VISUALSTYLE
350
2A
  0
SUN
  5
3F
330
29
100
AcDbSun
 90
        1
290
     0
 63
     7
421
 16777215
 40
1.0
291
     1
 91
  2455826
 92
 54000000
292
     0
 70
     2
 71
   256
280
     1
  0
DICTIONARY
  5
D
102
{ACAD_REACTORS
330
C
102
}
330
C
100
AcDbDictionary
281
     1
  0
DICTIONARY
  5
1A
102
{ACAD_REACTORS
330
C
102
}
330
C
100
AcDbDictionary
281
     1
  3
Layout1
350
1E
  3
Layout2
350
26
  3
Model
350
22
  0
DICTIONARY
  5
3B
102
{ACAD_REACTORS
330
C
102
}
330
C
100
AcDbDictionary
281
     1
  3
ByBlock
350
3D
  3
ByLayer
350
3C
  3
Global
350
3E
  0
DICTIONARY
  5
130
102
{ACAD_REACTORS
330
C
102
}
330
C
100
AcDbDictionary
281
     1
  0
DICTIONARY
  5
17
102
{ACAD_REACTORS
330
C
102
}
330
C
100
AcDbDictionary
281
     1
  3
Standard
350
18
  0
DICTIONARY
  5
19
102
{ACAD_REACTORS
330
C
102
}
330
C
100
AcDbDictionary
281
     1
  0
ACDBDICTIONARYWDFLT
  5
E
102
{ACAD_REACTORS
330
C
102
}
330
C
100
AcDbDictionary
281
     1
  3
Normal
350
F
100
AcDbDictionaryWithDefault
340
F
  0
DICTIONARY
  5
12F
102
{ACAD_REACTORS
330
C
102
}
330
C
100
AcDbDictionary
281
     1
  0
DICTIONARY
  5
2A
102
{ACAD_REACTORS
330
C
102
}
330
C
100
AcDbDictionary
281
     1
  3
2dWireframe
350
2F
  3
3D Hidden
350
31
  3
3dWireframe
350
30
  3
Basic
350
32
  3
Brighten
350
36
  3
ColorChange
350
3A
  3
Conceptual
350
34
  3
Dim
350
35
  3
Facepattern
350
39
  3
Flat
350
2B
  3
FlatWithEdges
350
2C
  3
Gouraud
350
2D
  3
GouraudWithEdges
350
2E
  3
Linepattern
350
38
  3
Realistic
350
33
  3
Thicken
350
37
  0
LAYOUT
  5
1E
102
{ACAD_REACTORS
330
1A
102
}
330
1A
100
AcDbPlotSettings
  1

  2
none_device
  4

  6

 40
0.0
 41
0.0
 42
0.0
 43
0.0
 44
0.0
 45
0.0
 46
0.0
 47
0.0
 48
0.0
 49
0.0
140
0.0
141
0.0
142
1.0
143
1.0
 70
   688
 72
     0
 73
     0
 74
     5
  7

 75
    16
 76
     0
 77
     2
 78
   300
147
1.0
148
0.0
149
0.0
100
AcDbLayout
  1
Layout1
 70
     1
 71
     1
 10
0.0
 20
0.0
 11
12.0
 21
9.0
 12
0.0
 22
0.0
 32
0.0
 14
1.000000000000000E+20
 24
1.000000000000000E+20
 34
1.000000000000000E+20
 15
-1.000000000000000E+20
 25
-1.000000000000000E+20
 35
-1.000000000000000E+20
146
0.0
 13
0.0
 23
0.0
 33
0.0
 16
1.0
 26
0.0
 36
0.0
 17
0.0
 27
1.0
 37
0.0
 76
     0
330
1B
  0
LAYOUT
  5
26
102
{ACAD_REACTORS
330
1A
102
}
330
1A
100
AcDbPlotSettings
  1

  2
none_device
  4

  6

 40
0.0
 41
0.0
 42
0.0
 43
0.0
 44
0.0
 45
0.0
 46
0.0
 47
0.0
 48
0.0
 49
0.0
140
0.0
141
0.0
142
1.0
143
1.0
 70
   688
 72
     0
 73
     0
 74
     5
  7

 75
    16
 76
     0
 77
     2
 78
   300
147
1.0
148
0.0
149
0.0
100
AcDbLayout
  1
Layout2
 70
     1
 71
     2
 10
0.0
 20
0.0
 11
0.0
 21
0.0
 12
0.0
 22
0.0
 32
0.0
 14
0.0
 24
0.0
 34
0.0
 15
0.0
 25
0.0
 35
0.0
146
0.0
 13
0.0
 23
0.0
 33
0.0
 16
1.0
 26
0.0
 36
0.0
 17
0.0
 27
1.0
 37
0.0
 76
     0
330
23
  0
LAYOUT
  5
22
102
{ACAD_REACTORS
330
1A
102
}
330
1A
100
AcDbPlotSettings
  1

  2
none_device
  4

  6

 40
0.0
 41
0.0
 42
0.0
 43
0.0
 44
0.0
 45
0.0
 46
0.0
 47
0.0
 48
0.0
 49
0.0
140
0.0
141
0.0
142
1.0
143
1.0
 70
  1712
 72
     0
 73
     0
 74
     0
  7

 75
     0
 76
     0
 77
     2
 78
   300
147
1.0
148
0.0
149
0.0
100
AcDbLayout
  1
Model
 70
     1
 71
     0
 10
0.0
 20
0.0
 11
12.0
 21
9.0
 12
0.0
 22
0.0
 32
0.0
 14
1.000000000000000E+20
 24
1.000000000000000E+20
 34
1.000000000000000E+20
 15
-1.000000000000000E+20
 25
-1.000000000000000E+20
 35
-1.000000000000000E+20
146
0.0
 13
0.0
 23
0.0
 33
0.0
 16
1.0
 26
0.0
 36
0.0
 17
0.0
 27
1.0
 37
0.0
 76
     0
330
1F
331
29
  0
MATERIAL
  5
3D
102
{ACAD_REACTORS
330
3B
102
}
330
3B
100
AcDbMaterial
  1
ByBlock
 72
     1
 94
      127
  0
MATERIAL
  5
3C
102
{ACAD_REACTORS
330
3B
102
}
330
3B
100
AcDbMaterial
  1
ByLayer
 72
     1
 94
      127
  0
MATERIAL
  5
3E
102
{ACAD_REACTORS
330
3B
102
}
330
3B
100
AcDbMaterial
  1
Global
 72
     1
 94
      127
  0
MLINESTYLE
  5
18
102
{ACAD_REACTORS
330
17
102
}
330
17
100
AcDbMlineStyle
  2
Standard
 70
     0
  3

 62
   256
 51
90.0
 52
90.0
 71
     2
 49
0.5
 62
   256
  6
BYLAYER
 49
-0.5
 62
   256
  6
BYLAYER
  0
ACDBPLACEHOLDER
  5
F
102
{ACAD_REACTORS
330
E
102
}
330
E
  0
VISUALSTYLE
  5
2F
102
{ACAD_REACTORS
330
2A
102
}
330
2A
100
AcDbVisualStyle
  2
2dWireframe
 70
     4
177
     2
291
     0
 71
     0
176
     1
 72
     2
176
     1
 73
     0
176
     1
 90
        0
176
     1
 40
-0.6
176
     1
 41
-30.0
176
     1
 62
     5
 63
     7
421
 16777215
176
     1
 74
     1
176
     1
 91
        4
176
     1
 64
     7
176
     1
 65
   257
176
     1
 75
     1
176
     1
175
     1
176
     1
 42
1.0
176
     1
 92
        0
176
     1
 66
   257
176
     1
 43
1.0
176
     1
 76
     1
176
     1
 77
     6
176
     1
 78
     2
176
     1
 67
     7
176
     1
 79
     5
176
     1
170
     0
176
     1
171
     0
176
     1
290
     0
176
     1
 93
        1
176
     1
 44
0.0
176
     1
173
     0
176
     1
  0
VISUALSTYLE
  5
31
102
{ACAD_REACTORS
330
2A
102
}
330
2A
100
AcDbVisualStyle
  2
3D Hidden
 70
     6
177
     2
291
     0
 71
     1
176
     1
 72
     2
176
     1
 73
     2
176
     1
 90
        0
176
     1
 40
-0.6
176
     1
 41
-30.0
176
     1
 62
     5
 63
     7
421
 16777215
176
     1
 74
     2
176
     1
 91
        2
176
     1
 64
     7
176
     1
 65
   257
176
     1
 75
     2
176
     1
175
     1
176
     1
 42
40.0
176
     1
 92
        0
176
     1
 66
   257
176
     1
 43
1.0
176
     1
 76
     1
176
     1
 77
     6
176
     1
 78
     2
176
     1
 67
     7
176
     1
 79
     3
176
     1
170
     0
176
     1
171
     0
176
     1
290
     0
176
     1
 93
        1
176
     1
 44
0.0
176
     1
173
     0
176
     1
  0
VISUALSTYLE
  5
30
102
{ACAD_REACTORS
330
2A
102
}
330
2A
100
AcDbVisualStyle
  2
3dWireframe
 70
     5
177
     2
291
     0
 71
     0
176
     1
 72
     2
176
     1
 73
     0
176
     1
 90
        0
176
     1
 40
-0.6
176
     1
 41
-30.0
176
     1
 62
     5
 63
     7
421
 16777215
176
     1
 74
     1
176
     1
 91
        4
176
     1
 64
     7
176
     1
 65
   257
176
     1
 75
     1
176
     1
175
     1
176
     1
 42
1.0
176
     1
 92
        0
176
     1
 66
   257
176
     1
 43
1.0
176
     1
 76
     1
176
     1
 77
     6
176
     1
 78
     2
176
     1
 67
     7
176
     1
 79
     5
176
     1
170
     0
176
     1
171
     0
176
     1
290
     0
176
     1
 93
        1
176
     1
 44
0.0
176
     1
173
     0
176
     1
  0
VISUALSTYLE
  5
32
102
{ACAD_REACTORS
330
2A
102
}
330
2A
100
AcDbVisualStyle
  2
Basic
 70
     7
177
     2
291
     1
 71
     1
176
     1
 72
     0
176
     1
 73
     1
176
     1
 90
        0
176
     1
 40
-0.6
176
     1
 41
-30.0
176
     1
 62
     5
 63
     7
421
 16777215
176
     1
 74
     0
176
     1
 91
        4
176
     1
 64
     7
176
     1
 65
   257
176
     1
 75
     1
176
     1
175
     1
176
     1
 42
1.0
176
     1
 92
        8
176
     1
 66
     7
176
     1
 43
1.0
176
     1
 76
     1
176
     1
 77
     6
176
     1
 78
     2
176
     1
 67
     7
176
     1
 79
     5
176
     1
170
     0
176
     1
171
     0
176
     1
290
     0
176
     1
 93
        1
176
     1
 44
0.0
176
     1
173
     0
176
     1
  0
VISUALSTYLE
  5
36
102
{ACAD_REACTORS
330
2A
102
}
330
2A
100
AcDbVisualStyle
  2
Brighten
 70
    12
177
     2
291
     1
 71
     2
176
     1
 72
     2
176
     1
 73
     0
176
     1
 90
        0
176
     1
 40
-0.6
176
     1
 41
-30.0
176
     1
 62
     5
 63
     7
421
 16777215
176
     1
 74
     1
176
     1
 91
        4
176
     1
 64
     7
176
     1
 65
   257
176
     1
 75
     1
176
     1
175
     1
176
     1
 42
1.0
176
     1
 92
        8
176
     1
 66
     7
176
     1
 43
1.0
176
     1
 76
     1
176
     1
 77
     6
176
     1
 78
     2
176
     1
 67
     7
176
     1
 79
     5
176
     1
170
     0
176
     1
171
     0
176
     1
290
     0
176
     1
 93
        1
176
     1
 44
50.0
176
     1
173
     0
176
     1
  0
VISUALSTYLE
  5
3A
102
{ACAD_REACTORS
330
2A
102
}
330
2A
100
AcDbVisualStyle
  2
ColorChange
 70
    16
177
     2
291
     1
 71
     2
176
     1
 72
     2
176
     1
 73
     3
176
     1
 90
        0
176
     1
 40
-0.6
176
     1
 41
-30.0
176
     1
 62
     5
 63
     8
421
  8421504
176
     1
 74
     1
176
     1
 91
        4
176
     1
 64
     7
176
     1
 65
   257
176
     1
 75
     1
176
     1
175
     1
176
     1
 42
1.0
176
     1
 92
        8
176
     1
 66
     8
424
  8421504
176
     1
 43
1.0
176
     1
 76
     1
176
     1
 77
     6
176
     1
 78
     2
176
     1
 67
     7
176
     1
 79
     5
176
     1
170
     0
176
     1
171
     0
176
     1
290
     0
176
     1
 93
        1
176
     1
 44
0.0
176
     1
173
     0
176
     1
  0
VISUALSTYLE
  5
34
102
{ACAD_REACTORS
330
2A
102
}
330
2A
100
AcDbVisualStyle
  2
Conceptual
 70
     9
177
     2
291
     0
 71
     3
176
     1
 72
     2
176
     1
 73
     0
176
     1
 90
        0
176
     1
 40
-0.6
176
     1
 41
-30.0
176
     1
 62
     5
 63
     7
421
 16777215
176
     1
 74
     2
176
     1
 91
        2
176
     1
 64
     7
176
     1
 65
   257
176
     1
 75
     1
176
     1
175
     1
176
     1
 42
40.0
176
     1
 92
        8
176
     1
 66
     7
176
     1
 43
1.0
176
     1
 76
     1
176
     1
 77
     6
176
     1
 78
     2
176
     1
 67
     7
176
     1
 79
     3
176
     1
170
     0
176
     1
171
     0
176
     1
290
     0
176
     1
 93
        1
176
     1
 44
0.0
176
     1
173
     0
176
     1
  0
VISUALSTYLE
  5
35
102
{ACAD_REACTORS
330
2A
102
}
330
2A
100
AcDbVisualStyle
  2
Dim
 70
    11
177
     2
291
     1
 71
     2
176
     1
 72
     2
176
     1
 73
     0
176
     1
 90
        0
176
     1
 40
-0.6
176
     1
 41
-30.0
176
     1
 62
     5
 63
     7
421
 16777215
176
     1
 74
     1
176
     1
 91
        4
176
     1
 64
     7
176
     1
 65
   257
176
     1
 75
     1
176
     1
175
     1
176
     1
 42
1.0
176
     1
 92
        8
176
     1
 66
     7
176
     1
 43
1.0
176
     1
 76
     1
176
     1
 77
     6
176
     1
 78
     2
176
     1
 67
     7
176
     1
 79
     5
176
     1
170
     0
176
     1
171
     0
176
     1
290
     0
176
     1
 93
        1
176
     1
 44
-50.0
176
     1
173
     0
176
     1
  0
VISUALSTYLE
  5
39
102
{ACAD_REACTORS
330
2A
102
}
330
2A
100
AcDbVisualStyle
  2
Facepattern
 70
    15
177
     2
291
     1
 71
     2
176
     1
 72
     2
176
     1
 73
     0
176
     1
 90
        0
176
     1
 40
-0.6
176
     1
 41
-30.0
176
     1
 62
     5
 63
     7
421
 16777215
176
     1
 74
     1
176
     1
 91
        4
176
     1
 64
     7
176
     1
 65
   257
176
     1
 75
     1
176
     1
175
     1
176
     1
 42
1.0
176
     1
 92
        8
176
     1
 66
     7
176
     1
 43
1.0
176
     1
 76
     1
176
     1
 77
     6
176
     1
 78
     2
176
     1
 67
     7
176
     1
 79
     5
176
     1
170
     0
176
     1
171
     0
176
     1
290
     0
176
     1
 93
        1
176
     1
 44
0.0
176
     1
173
     0
176
     1
  0
VISUALSTYLE
  5
2B
102
{ACAD_REACTORS
330
2A
102
}
330
2A
100
AcDbVisualStyle
  2
Flat
 70
     0
177
     2
291
     1
 71
     2
176
     1
 72
     1
176
     1
 73
     1
176
     1
 90
        2
176
     1
 40
-0.6
176
     1
 41
30.0
176
     1
 62
     5
 63
     7
421
 16777215
176
     1
 74
     0
176
     1
 91
        4
176
     1
 64
     7
176
     1
 65
   257
176
     1
 75
     1
176
     1
175
     1
176
     1
 42
1.0
176
     1
 92
        8
176
     1
 66
     7
176
     1
 43
1.0
176
     1
 76
     1
176
     1
 77
     6
176
     1
 78
     2
176
     1
 67
     7
176
     1
 79
     5
176
     1
170
     0
176
     1
171
     0
176
     1
290
     0
176
     1
 93
       13
176
     1
 44
0.0
176
     1
173
     0
176
     1
  0
VISUALSTYLE
  5
2C
102
{ACAD_REACTORS
330
2A
102
}
330
2A
100
AcDbVisualStyle
  2
FlatWithEdges
 70
     1
177
     2
291
     1
 71
     2
176
     1
 72
     1
176
     1
 73
     1
176
     1
 90
        2
176
     1
 40
-0.6
176
     1
 41
30.0
176
     1
 62
     5
 63
     7
421
 16777215
176
     1
 74
     1
176
     1
 91
        4
176
     1
 64
     7
176
     1
 65
   257
176
     1
 75
     1
176
     1
175
     1
176
     1
 42
1.0
176
     1
 92
        0
176
     1
 66
   257
176
     1
 43
1.0
176
     1
 76
     1
176
     1
 77
     6
176
     1
 78
     2
176
     1
 67
     7
176
     1
 79
     5
176
     1
170
     0
176
     1
171
     0
176
     1
290
     0
176
     1
 93
       13
176
     1
 44
0.0
176
     1
173
     0
176
     1
  0
VISUALSTYLE
  5
2D
102
{ACAD_REACTORS
330
2A
102
}
330
2A
100
AcDbVisualStyle
  2
Gouraud
 70
     2
177
     2
291
     1
 71
     2
176
     1
 72
     2
176
     1
 73
     1
176
     1
 90
        2
176
     1
 40
-0.6
176
     1
 41
30.0
176
     1
 62
     5
 63
     7
421
 16777215
176
     1
 74
     0
176
     1
 91
        4
176
     1
 64
     7
176
     1
 65
   257
176
     1
 75
     1
176
     1
175
     1
176
     1
 42
1.0
176
     1
 92
        0
176
     1
 66
     7
176
     1
 43
1.0
176
     1
 76
     1
176
     1
 77
     6
176
     1
 78
     2
176
     1
 67
     7
176
     1
 79
     5
176
     1
170
     0
176
     1
171
     0
176
     1
290
     0
176
     1
 93
       13
176
     1
 44
0.0
176
     1
173
     0
176
     1
  0
VISUALSTYLE
  5
2E
102
{ACAD_REACTORS
330
2A
102
}
330
2A
100
AcDbVisualStyle
  2
GouraudWithEdges
 70
     3
177
     2
291
     1
 71
     2
176
     1
 72
     2
176
     1
 73
     1
176
     1
 90
        2
176
     1
 40
-0.6
176
     1
 41
30.0
176
     1
 62
     5
 63
     7
421
 16777215
176
     1
 74
     1
176
     1
 91
        4
176
     1
 64
     7
176
     1
 65
   257
176
     1
 75
     1
176
     1
175
     1
176
     1
 42
1.0
176
     1
 92
        0
176
     1
 66
   257
176
     1
 43
1.0
176
     1
 76
     1
176
     1
 77
     6
176
     1
 78
     2
176
     1
 67
     7
176
     1
 79
     5
176
     1
170
     0
176
     1
171
     0
176
     1
290
     0
176
     1
 93
       13
176
     1
 44
0.0
176
     1
173
     0
176
     1
  0
VISUALSTYLE
  5
38
102
{ACAD_REACTORS
330
2A
102
}
330
2A
100
AcDbVisualStyle
  2
Linepattern
 70
    14
177
     2
291
     1
 71
     2
176
     1
 72
     2
176
     1
 73
     0
176
     1
 90
        0
176
     1
 40
-0.6
176
     1
 41
-30.0
176
     1
 62
     5
 63
     7
421
 16777215
176
     1
 74
     1
176
     1
 91
        4
176
     1
 64
     7
176
     1
 65
   257
176
     1
 75
     7
176
     1
175
     7
176
     1
 42
1.0
176
     1
 92
        8
176
     1
 66
     7
176
     1
 43
1.0
176
     1
 76
     1
176
     1
 77
     6
176
     1
 78
     2
176
     1
 67
     7
176
     1
 79
     5
176
     1
170
     0
176
     1
171
     0
176
     1
290
     0
176
     1
 93
        1
176
     1
 44
0.0
176
     1
173
     0
176
     1
  0
VISUALSTYLE
  5
33
102
{ACAD_REACTORS
330
2A
102
}
330
2A
100
AcDbVisualStyle
  2
Realistic
 70
     8
177
     2
291
     0
 71
     2
176
     1
 72
     2
176
     1
 73
     0
176
     1
 90
        0
176
     1
 40
-0.6
176
     1
 41
-30.0
176
     1
 62
     5
 63
     7
421
 16777215
176
     1
 74
     1
176
     1
 91
        0
176
     1
 64
     7
176
     1
 65
   257
176
     1
 75
     1
176
     1
175
     1
176
     1
 42
1.0
176
     1
 92
        8
176
     1
 66
     8
424
  7895160
176
     1
 43
1.0
176
     1
 76
     1
176
     1
 77
     6
176
     1
 78
     2
176
     1
 67
     7
176
     1
 79
     5
176
     1
170
     0
176
     1
171
     0
176
     1
290
     0
176
     1
 93
       13
176
     1
 44
0.0
176
     1
173
     0
176
     1
  0
VISUALSTYLE
  5
37
102
{ACAD_REACTORS
330
2A
102
}
330
2A
100
AcDbVisualStyle
  2
Thicken
 70
    13
177
     2
291
     1
 71
     2
176
     1
 72
     2
176
     1
 73
     0
176
     1
 90
        0
176
     1
 40
-0.6
176
     1
 41
-30.0
176
     1
 62
     5
 63
     7
421
 16777215
176
     1
 74
     1
176
     1
 91
        4
176
     1
 64
     7
176
     1
 65
   257
176
     1
 75
     1
176
     1
175
     1
176
     1
 42
1.0
176
     1
 92
       12
176
     1
 66
     7
176
     1
 43
1.0
176
     1
 76
     1
176
     1
 77
     6
176
     1
 78
     2
176
     1
 67
     7
176
     1
 79
     5
176
     1
170
     0
176
     1
171
     0
176
     1
290
     0
176
     1
 93
        1
176
     1
 44
0.0
176
     1
173
     0
176
     1
  0
ENDSEC
  0
EOF
