  0
SECTION
  2
HEADER
  9
$ACADVER
  1
AC1024
  9
$ACADMAINTVER
 70
     6
  9
$DWGCODEPAGE
  3
UNDEFINED
  9
$INSBASE
 10
0.0
 20
0.0
 30
0.0
  9
$EXTMIN
 10
1.000000000000000E+20
 20
1.000000000000000E+20
 30
1.000000000000000E+20
  9
$EXTMAX
 10
-1.000000000000000E+20
 20
-1.000000000000000E+20
 30
-1.000000000000000E+20
  9
$LIMMIN
 10
0.0
 20
0.0
  9
$LIMMAX
 10
12.0
 20
9.0
  9
$ORTHOMODE
 70
     0
  9
$REGENMODE
 70
     1
  9
$FILLMODE
 70
     1
  9
$QTEXTMODE
 70
     0
  9
$MIRRTEXT
 70
     1
  9
$LTSCALE
 40
1.0
  9
$ATTMODE
 70
     1
  9
$TEXTSIZE
 40
0.2
  9
$TRACEWID
 40
0.05
  9
$TEXTSTYLE
  7
Standard
  9
$CLAYER
  8
0
  9
$CELTYPE
  6
ByLayer
  9
$CECOLOR
 62
   256
  9
$CELTSCALE
 40
1.0
  9
$DISPSILH
 70
     0
  9
$DIMSCALE
 40
1.0
  9
$DIMASZ
 40
0.18
  9
$DIMEXO
 40
0.0625
  9
$DIMDLI
 40
0.38
  9
$DIMRND
 40
0.0
  9
$DIMDLE
 40
0.0
  9
$DIMEXE
 40
0.18
  9
$DIMTP
 40
0.0
  9
$DIMTM
 40
0.0
  9
$DIMTXT
 40
0.18
  9
$DIMCEN
 40
0.09
  9
$DIMTSZ
 40
0.0
  9
$DIMTOL
 70
     0
  9
$DIMLIM
 70
     0
  9
$DIMTIH
 70
     1
  9
$DIMTOH
 70
     1
  9
$DIMSE1
 70
     0
  9
$DIMSE2
 70
     0
  9
$DIMTAD
 70
     0
  9
$DIMZIN
 70
     0
  9
$DIMBLK
  1

  9
$DIMASO
 70
     1
  9
$DIMSHO
 70
     1
  9
$DIMPOST
  1

  9
$DIMAPOST
  1

  9
$DIMALT
 70
     0
  9
$DIMALTD
 70
     2
  9
$DIMALTF
 40
25.4
  9
$DIMLFAC
 40
1.0
  9
$DIMTOFL
 70
     0
  9
$DIMTVP
 40
0.0
  9
$DIMTIX
 70
     0
  9
$DIMSOXD
 70
     0
  9
$DIMSAH
 70
     0
  9
$DIMBLK1
  1

  9
$DIMBLK2
  1

  9
$DIMSTYLE
  2
Standard
  9
$DIMCLRD
 70
     0
  9
$DIMCLRE
 70
     0
  9
$DIMCLRT
 70
     0
  9
$DIMTFAC
 40
1.0
  9
$DIMGAP
 40
0.09
  9
$DIMJUST
 70
     0
  9
$DIMSD1
 70
     0
  9
$DIMSD2
 70
     0
  9
$DIMTOLJ
 70
     1
  9
$DIMTZIN
 70
     0
  9
$DIMALTZ
 70
     0
  9
$DIMALTTZ
 70
     0
  9
$DIMUPT
 70
     0
  9
$DIMDEC
 70
     4
  9
$DIMTDEC
 70
     4
  9
$DIMALTU
 70
     2
  9
$DIMALTTD
 70
     2
  9
$DIMTXSTY
  7
Standard
  9
$DIMAUNIT
 70
     0
  9
$DIMADEC
 70
     0
  9
$DIMALTRND
 40
0.0
  9
$DIMAZIN
 70
     0
  9
$DIMDSEP
 70
    46
  9
$DIMATFIT
 70
     3
  9
$DIMFRAC
 70
     0
  9
$DIMLDRBLK
  1

  9
$DIMLUNIT
 70
     2
  9
$DIMLWD
 70
    -2
  9
$DIMLWE
 70
    -2
  9
$DIMTMOVE
 70
     0
  9
$DIMFXL
 40
1.0
  9
$DIMFXLON
 70
     0
  9
$DIMJOGANG
 40
0.7853981633974483
  9
$DIMTFILL
 70
     0
  9
$DIMTFILLCLR
 70
     0
  9
$DIMARCSYM
 70
     0
  9
$DIMLTYPE
  6

  9
$DIMLTEX1
  6

  9
$DIMLTEX2
  6

  9
$DIMTXTDIRECTION
 70
     0
  9
$LUNITS
 70
     2
  9
$LUPREC
 70
     4
  9
$SKETCHINC
 40
0.1
  9
$FILLETRAD
 40
0.5
  9
$AUNITS
 70
     0
  9
$AUPREC
 70
     0
  9
$MENU
  1
.
  9
$ELEVATION
 40
0.0
  9
$PELEVATION
 40
0.0
  9
$THICKNESS
 40
0.0
  9
$LIMCHECK
 70
     0
  9
$CHAMFERA
 40
0.5
  9
$CHAMFERB
 40
0.5
  9
$CHAMFERC
 40
1.0
  9
$CHAMFERD
 40
0.0
  9
$SKPOLY
 70
     0
  9
$TDCREATE
 40
2458263.578541667
  9
$TDUCREATE
 40
2458263.203541667
  9
$TDUPDATE
 40
2458263.578541667
  9
$TDUUPDATE
 40
2458263.203541667
  9
$TDINDWG
 40
0.0000000116
  9
$TDUSRTIMER
 40
0.0000000116
  9
$USRTIMER
 70
     1
  9
$ANGBASE
 50
0.0
  9
$ANGDIR
 70
     0
  9
$PDMODE
 70
     0
  9
$PDSIZE
 40
0.0
  9
$PLINEWID
 40
0.0
  9
$SPLFRAME
 70
     0
  9
$SPLINETYPE
 70
     6
  9
$SPLINESEGS
 70
     8
  9
$HANDSEED
  5
12C
  9
$SURFTAB1
 70
     6
  9
$SURFTAB2
 70
     6
  9
$SURFTYPE
 70
     6
  9
$SURFU
 70
     6
  9
$SURFV
 70
     6
  9
$UCSBASE
  2

  9
$UCSNAME
  2

  9
$UCSORG
 10
0.0
 20
0.0
 30
0.0
  9
$UCSXDIR
 10
1.0
 20
0.0
 30
0.0
  9
$UCSYDIR
 10
0.0
 20
1.0
 30
0.0
  9
$UCSORTHOREF
  2

  9
$UCSORTHOVIEW
 70
     0
  9
$UCSORGTOP
 10
0.0
 20
0.0
 30
0.0
  9
$UCSORGBOTTOM
 10
0.0
 20
0.0
 30
0.0
  9
$UCSORGLEFT
 10
0.0
 20
0.0
 30
0.0
  9
$UCSORGRIGHT
 10
0.0
 20
0.0
 30
0.0
  9
$UCSORGFRONT
 10
0.0
 20
0.0
 30
0.0
  9
$UCSORGBACK
 10
0.0
 20
0.0
 30
0.0
  9
$PUCSBASE
  2

  9
$PUCSNAME
  2

  9
$PUCSORG
 10
0.0
 20
0.0
 30
0.0
  9
$PUCSXDIR
 10
1.0
 20
0.0
 30
0.0
  9
$PUCSYDIR
 10
0.0
 20
1.0
 30
0.0
  9
$PUCSORTHOREF
  2

  9
$PUCSORTHOVIEW
 70
     0
  9
$PUCSORGTOP
 10
0.0
 20
0.0
 30
0.0
  9
$PUCSORGBOTTOM
 10
0.0
 20
0.0
 30
0.0
  9
$PUCSORGLEFT
 10
0.0
 20
0.0
 30
0.0
  9
$PUCSORGRIGHT
 10
0.0
 20
0.0
 30
0.0
  9
$PUCSORGFRONT
 10
0.0
 20
0.0
 30
0.0
  9
$PUCSORGBACK
 10
0.0
 20
0.0
 30
0.0
  9
$USERI1
 70
     0
  9
$USERI2
 70
     0
  9
$USERI3
 70
     0
  9
$USERI4
 70
     0
  9
$USERI5
 70
     0
  9
$USERR1
 40
0.0
  9
$USERR2
 40
0.0
  9
$USERR3
 40
0.0
  9
$USERR4
 40
0.0
  9
$USERR5
 40
0.0
  9
$WORLDVIEW
 70
     1
  9
$SHADEDGE
 70
     3
  9
$SHADEDIF
 70
    70
  9
$TILEMODE
 70
     1
  9
$MAXACTVP
 70
    64
  9
$PINSBASE
 10
0.0
 20
0.0
 30
0.0
  9
$PLIMCHECK
 70
     0
  9
$PEXTMIN
 10
1.000000000000000E+20
 20
1.000000000000000E+20
 30
1.000000000000000E+20
  9
$PEXTMAX
 10
-1.000000000000000E+20
 20
-1.000000000000000E+20
 30
-1.000000000000000E+20
  9
$PLIMMIN
 10
0.0
 20
0.0
  9
$PLIMMAX
 10
12.0
 20
9.0
  9
$UNITMODE
 70
     0
  9
$VISRETAIN
 70
     1
  9
$PLINEGEN
 70
     0
  9
$PSLTSCALE
 70
     1
  9
$TREEDEPTH
 70
  3020
  9
$CMLSTYLE
  2
Standard
  9
$CMLJUST
 70
     0
  9
$CMLSCALE
 40
1.0
  9
$PROXYGRAPHICS
 70
     1
  9
$MEASUREMENT
 70
     0
  9
$CELWEIGHT
370
    -1
  9
$ENDCAPS
280
     0
  9
$JOINSTYLE
280
     0
  9
$LWDISPLAY
290
     1
  9
$INSUNITS
 70
     1
  9
$HYPERLINKBASE
  1

  9
$STYLESHEET
  1

  9
$XEDIT
290
     1
  9
$CEPSNTYPE
380
     0
  9
$PSTYLEMODE
290
     1
  9
$FINGERPRINTGUID
  2
{E1B85899-770E-6974-AF69-33D04B798945}
  9
$VERSIONGUID
  2
{FAEB1C32-E019-11D5-929B-00C0DF256EC4}
  9
$EXTNAMES
290
     1
  9
$PSVPSCALE
 40
0.0
  9
$OLESTARTUP
290
     0
  9
$SORTENTS
280
   127
  9
$INDEXCTL
280
     0
  9
$HIDETEXT
280
     1
  9
$XCLIPFRAME
280
     2
  9
$HALOGAP
280
     0
  9
$OBSCOLOR
 70
   257
  9
$OBSLTYPE
280
     0
  9
$INTERSECTIONDISPLAY
280
     0
  9
$INTERSECTIONCOLOR
 70
   257
  9
$DIMASSOC
280
     2
  9
$PROJECTNAME
  1

  9
$CAMERADISPLAY
290
     0
  9
$LENSLENGTH
 40
50.0
  9
$CAMERAHEIGHT
 40
0.0
  9
$STEPSPERSEC
 40
2.0
  9
$STEPSIZE
 40
6.0
  9
$3DDWFPREC
 40
2.0
  9
$PSOLWIDTH
 40
0.25
  9
$PSOLHEIGHT
 40
4.0
  9
$LOFTANG1
 40
1.570796326794897
  9
$LOFTANG2
 40
1.570796326794897
  9
$LOFTMAG1
 40
0.0
  9
$LOFTMAG2
 40
0.0
  9
$LOFTPARAM
 70
     7
  9
$LOFTNORMALS
280
     1
  9
$LATITUDE
 40
37.795
  9
$LONGITUDE
 40
-122.394
  9
$NORTHDIRECTION
 40
0.0
  9
$TIMEZONE
 70
 -8000
  9
$LIGHTGLYPHDISPLAY
280
     1
  9
$TILEMODELIGHTSYNCH
280
     1
  9
$CMATERIAL
347
3C
  9
$SOLIDHIST
280
     1
  9
$SHOWHIST
280
     1
  9
$DWFFRAME
280
     2
  9
$DGNFRAME
280
     2
  9
$REALWORLDSCALE
290
     1
  9
$INTERFERECOLOR
 62
   256
  9
$CSHADOW
280
     0
  9
$SHADOWPLANELOCATION
 40
0.0
  0
ENDSEC
  0
SECTION
  2
CLASSES
  0
CLASS
  1
ACDBDICTIONARYWDFLT
  2
AcDbDictionaryWithDefault
  3
ObjectDBX Classes
 90
        0
 91
        4
280
     0
281
     0
  0
CLASS
  1
VISUALSTYLE
  2
AcDbVisualStyle
  3
ObjectDBX Classes
 90
     4095
 91
        4
280
     0
281
     0
  0
CLASS
  1
MATERIAL
  2
AcDbMaterial
  3
ObjectDBX Classes
 90
     1153
 91
        4
280
     0
281
     0
  0
CLASS
  1
SUN
  2
AcDbSun
  3
SCENEOE
 90
     1024
 91
        4
280
     0
281
     0
  0
ENDSEC
  0
SECTION
  2
TABLES
  0
TABLE
  2
VPORT
  5
8
330
0
100
AcDbSymbolTable
 70
     1
  0
VPORT
  5
29
330
8
100
AcDbSymbolTableRecord
100
AcDbViewportTableRecord
  2
*Active
 70
     0
 10
0.0
 20
0.0
 11
1.0
 21
1.0
 12
0.0
 22
0.0
 13
0.0
 23
0.0
 14
0.5
 24
0.5
 15
0.5
 25
0.5
 16
0.0
 26
0.0
 36
1.0
 17
105.0007777515277
 27
-148.5000416295416
 37
0.0
 40
297.0000832590831
 41
0.7070757462376333
 42
50.0
 43
0.0
 44
0.0
 50
0.0
 51
0.0
 71
     0
 72
   100
 73
     1
 74
     3
 75
     0
 76
     0
 77
     0
 78
     0
281
     0
 65
     1
110
0.0
120
0.0
130
0.0
111
1.0
121
0.0
131
0.0
112
0.0
122
1.0
132
0.0
 79
     0
146
0.0
 60
     3
 61
     5
292
     1
282
     1
141
0.0
142
0.0
 63
   250
361
3F
  0
ENDTAB
  0
TABLE
  2
LTYPE
  5
5
330
0
100
AcDbSymbolTable
 70
     1
  0
LTYPE
  5
14
330
5
100
AcDbSymbolTableRecord
100
AcDbLinetypeTableRecord
  2
ByBlock
 70
     0
  3

 72
    65
 73
     0
 40
0.0
  0
LTYPE
  5
15
330
5
100
AcDbSymbolTableRecord
100
AcDbLinetypeTableRecord
  2
ByLayer
 70
     0
  3

 72
    65
 73
     0
 40
0.0
  0
LTYPE
  5
16
330
5
100
AcDbSymbolTableRecord
100
AcDbLinetypeTableRecord
  2
Continuous
 70
     0
  3
Solid line
 72
    65
 73
     0
 40
0.0
  0
ENDTAB
  0
TABLE
  2
LAYER
  5
2
330
0
100
AcDbSymbolTable
 70
     2
  0
LAYER
  5
10
330
2
100
AcDbSymbolTableRecord
100
AcDbLayerTableRecord
  2
0
 70
     0
 62
     7
  6
Continuous
370
    -3
390
F
347
3E
  0
LAYER
  5
40
330
2
100
AcDbSymbolTableRecord
100
AcDbLayerTableRecord
  2
_U+30EC_U+30A4_U+30E4_U+30FC 1
 70
     0
 62
     7
  6
Continuous
370
    -3
390
F
347
3E
  0
ENDTAB
  0
TABLE
  2
STYLE
  5
3
330
0
100
AcDbSymbolTable
 70
     1
  0
STYLE
  5
11
330
3
100
AcDbSymbolTableRecord
100
AcDbTextStyleTableRecord
  2
Standard
 70
     0
 40
0.0
 41
1.0
 50
0.0
 71
     0
 42
0.2
  3
txt
  4

  0
ENDTAB
  0
TABLE
  2
VIEW
  5
6
330
0
100
AcDbSymbolTable
 70
     0
  0
ENDTAB
  0
TABLE
  2
UCS
  5
7
330
0
100
AcDbSymbolTable
 70
     0
  0
ENDTAB
  0
TABLE
  2
APPID
  5
9
330
0
100
AcDbSymbolTable
 70
     1
  0
APPID
  5
12
330
9
100
AcDbSymbolTableRecord
100
AcDbRegAppTableRecord
  2
ACAD
 70
     0
  0
ENDTAB
  0
TABLE
  2
DIMSTYLE
  5
A
330
0
100
AcDbSymbolTable
 70
     1
100
AcDbDimStyleTable
  0
DIMSTYLE
105
27
330
A
100
AcDbSymbolTableRecord
100
AcDbDimStyleTableRecord
  2
Standard
 70
     0
178
     0
340
11
  0
ENDTAB
  0
TABLE
  2
BLOCK_RECORD
  5
1
330
0
100
AcDbSymbolTable
 70
     7
  0
BLOCK_RECORD
  5
1F
330
1
100
AcDbSymbolTableRecord
100
AcDbBlockTableRecord
  2
*Model_Space
340
22
 70
     0
280
     1
281
     0
  0
BLOCK_RECORD
  5
1B
330
1
100
AcDbSymbolTableRecord
100
AcDbBlockTableRecord
  2
*Paper_Space
340
1E
 70
     0
280
     1
281
     0
  0
BLOCK_RECORD
  5
23
330
1
100
AcDbSymbolTableRecord
100
AcDbBlockTableRecord
  2
*Paper_Space0
340
26
 70
     0
280
     1
281
     0
  0
BLOCK_RECORD
  5
41
330
1
100
AcDbSymbolTableRecord
100
AcDbBlockTableRecord
  2
block 2
340
0
102
{BLKREFS
331
42
102
}
 70
     0
280
     1
281
     0
  0
BLOCK_RECORD
  5
4A
330
1
100
AcDbSymbolTableRecord
100
AcDbBlockTableRecord
  2
block 3
340
0
102
{BLKREFS
331
4B
102
}
 70
     0
280
     1
281
     0
  0
BLOCK_RECORD
  5
66
330
1
100
AcDbSymbolTableRecord
100
AcDbBlockTableRecord
  2
block 4
340
0
102
{BLKREFS
331
67
102
}
 70
     0
280
     1
281
     0
  0
BLOCK_RECORD
  5
83
330
1
100
AcDbSymbolTableRecord
100
AcDbBlockTableRecord
  2
block 5
340
0
102
{BLKREFS
331
84
102
}
 70
     0
280
     1
281
     0
  0
BLOCK_RECORD
  5
94
330
1
100
AcDbSymbolTableRecord
100
AcDbBlockTableRecord
  2
block 6
340
0
102
{BLKREFS
331
95
102
}
 70
     0
280
     1
281
     0
  0
BLOCK_RECORD
  5
C7
330
1
100
AcDbSymbolTableRecord
100
AcDbBlockTableRecord
  2
block 7
340
0
102
{BLKREFS
331
C8
102
}
 70
     0
280
     1
281
     0
  0
ENDTAB
  0
ENDSEC
  0
SECTION
  2
BLOCKS
  0
BLOCK
  5
20
330
1F
100
AcDbEntity
  8
0
100
AcDbBlockBegin
  2
*Model_Space
 70
     0
 10
0.0
 20
0.0
 30
0.0
  3
*Model_Space
  1

  0
ENDBLK
  5
21
330
1F
100
AcDbEntity
  8
0
100
AcDbBlockEnd
  0
BLOCK
  5
1C
330
1B
100
AcDbEntity
 67
     1
  8
0
100
AcDbBlockBegin
  2
*Paper_Space
 70
     0
 10
0.0
 20
0.0
 30
0.0
  3
*Paper_Space
  1

  0
ENDBLK
  5
1D
330
1B
100
AcDbEntity
 67
     1
  8
0
100
AcDbBlockEnd
  0
BLOCK
  5
24
330
23
100
AcDbEntity
  8
0
100
AcDbBlockBegin
  2
*Paper_Space0
 70
     0
 10
0.0
 20
0.0
 30
0.0
  3
*Paper_Space0
  1

  0
ENDBLK
  5
25
330
23
100
AcDbEntity
  8
0
100
AcDbBlockEnd
  0
BLOCK
  5
43
330
41
100
AcDbEntity
  8
0
100
AcDbBlockBegin
  2
block 2
 70
     0
 10
0.0
 20
0.0
 30
0.0
  3
block 2
  1

  0
SPLINE
  5
45
330
41
100
AcDbEntity
  8
_U+30EC_U+30A4_U+30E4_U+30FC 1
370
     0
100
AcDbSpline
210
0.0
220
0.0
230
1.0
 70
    11
 71
     3
 72
    26
 73
    22
 74
     0
 42
0.0000000001
 43
0.0000000001
 12
1.0
 22
0.0
 32
0.0
 13
1.0
 23
0.0
 33
0.0
 40
0.0
 40
0.0
 40
0.0
 40
0.0
 40
1.0
 40
1.0
 40
1.0
 40
2.0
 40
2.0
 40
2.0
 40
3.0
 40
3.0
 40
3.0
 40
4.0
 40
4.0
 40
4.0
 40
5.0
 40
5.0
 40
5.0
 40
6.0
 40
6.0
 40
6.0
 40
7.0
 40
7.0
 40
7.0
 40
7.0
 10
126.2641275726006
 20
-148.9545599671016
 30
0.0
 10
126.2641275726006
 20
-148.9545599671016
 30
0.0
 10
125.1596299600295
 20
-148.9545599671016
 30
0.0
 10
125.1596299600295
 20
-148.9545599671016
 30
0.0
 10
125.1596299600295
 20
-148.9545599671016
 30
0.0
 10
125.1596299600295
 20
-149.2846001145886
 30
0.0
 10
125.1596299600295
 20
-149.2846001145886
 30
0.0
 10
125.1596299600295
 20
-149.2846001145886
 30
0.0
 10
125.0118353637123
 20
-149.2846001145886
 30
0.0
 10
125.0118353637123
 20
-149.2846001145886
 30
0.0
 10
124.9970214531258
 20
-148.9524929098105
 30
0.0
 10
124.8340684366734
 20
-148.9059841207596
 30
0.0
 10
124.7196912665631
 20
-148.8763562995865
 30
0.0
 10
124.7196912665631
 20
-148.8763562995865
 30
0.0
 10
124.7196912665631
 20
-148.7302842510119
 30
0.0
 10
124.7196912665631
 20
-148.7302842510119
 30
0.0
 10
124.7196912665631
 20
-148.7302842510119
 30
0.0
 10
126.2641275726006
 20
-148.7302842510119
 30
0.0
 10
126.2641275726006
 20
-148.7302842510119
 30
0.0
 10
126.2641275726006
 20
-148.7302842510119
 30
0.0
 10
126.2641275726006
 20
-148.9545599671016
 30
0.0
 10
126.2641275726006
 20
-148.9545599671016
 30
0.0
  0
HATCH
  5
46
330
41
100
AcDbEntity
  8
_U+30EC_U+30A4_U+30E4_U+30FC 1
 62
   179
420
  2234388
100
AcDbHatch
 10
0.0
 20
0.0
 30
0.0
210
0.0
220
0.0
230
1.0
  2
SOLID
 70
     1
 71
     0
 91
        1
 92
        1
 93
        1
 72
     4
 94
        3
 73
     0
 74
     1
 95
       26
 96
       22
 40
0.0
 40
0.0
 40
0.0
 40
0.0
 40
1.0
 40
1.0
 40
1.0
 40
2.0
 40
2.0
 40
2.0
 40
3.0
 40
3.0
 40
3.0
 40
4.0
 40
4.0
 40
4.0
 40
5.0
 40
5.0
 40
5.0
 40
6.0
 40
6.0
 40
6.0
 40
7.0
 40
7.0
 40
7.0
 40
7.0
 10
126.2641275726006
 20
-148.9545599671016
 10
126.2641275726006
 20
-148.9545599671016
 10
125.1596299600295
 20
-148.9545599671016
 10
125.1596299600295
 20
-148.9545599671016
 10
125.1596299600295
 20
-148.9545599671016
 10
125.1596299600295
 20
-149.2846001145886
 10
125.1596299600295
 20
-149.2846001145886
 10
125.1596299600295
 20
-149.2846001145886
 10
125.0118353637123
 20
-149.2846001145886
 10
125.0118353637123
 20
-149.2846001145886
 10
124.9970214531258
 20
-148.9524929098105
 10
124.8340684366734
 20
-148.9059841207596
 10
124.7196912665631
 20
-148.8763562995865
 10
124.7196912665631
 20
-148.8763562995865
 10
124.7196912665631
 20
-148.7302842510119
 10
124.7196912665631
 20
-148.7302842510119
 10
124.7196912665631
 20
-148.7302842510119
 10
126.2641275726006
 20
-148.7302842510119
 10
126.2641275726006
 20
-148.7302842510119
 10
126.2641275726006
 20
-148.7302842510119
 10
126.2641275726006
 20
-148.9545599671016
 10
126.2641275726006
 20
-148.9545599671016
 97
        0
 97
        0
 75
     2
 76
     1
 98
        0
  0
SPLINE
  5
47
330
41
100
AcDbEntity
  8
_U+30EC_U+30A4_U+30E4_U+30FC 1
370
     0
100
AcDbSpline
210
0.0
220
0.0
230
1.0
 70
    11
 71
     3
 72
    29
 73
    25
 74
     0
 42
0.0000000001
 43
0.0000000001
 12
1.0
 22
0.0
 32
0.0
 13
1.0
 23
0.0
 33
0.0
 40
0.0
 40
0.0
 40
0.0
 40
0.0
 40
1.0
 40
1.0
 40
1.0
 40
2.0
 40
2.0
 40
2.0
 40
3.0
 40
3.0
 40
3.0
 40
4.0
 40
4.0
 40
4.0
 40
5.0
 40
5.0
 40
5.0
 40
6.0
 40
6.0
 40
6.0
 40
7.0
 40
7.0
 40
7.0
 40
8.0
 40
8.0
 40
8.0
 40
8.0
 10
126.0863606455618
 20
-147.3312309744519
 30
0.0
 10
126.2958224510649
 20
-147.4394069726888
 30
0.0
 10
126.3147704762338
 20
-147.6126952755968
 30
0.0
 10
126.3147704762338
 20
-147.7291395029983
 30
0.0
 10
126.3147704762338
 20
-147.8900254621595
 30
0.0
 10
126.2682616871829
 20
-148.0316188866032
 30
0.0
 10
126.0863606455618
 20
-148.1267035219961
 30
0.0
 10
125.8917127506451
 20
-148.2304008961021
 30
0.0
 10
125.6546901812599
 20
-148.249348921271
 30
0.0
 10
125.4917371648076
 20
-148.249348921271
 30
0.0
 10
125.3480766830727
 20
-148.249348921271
 30
0.0
 10
125.0962402031009
 20
-148.2324679533933
 30
0.0
 10
124.897458193602
 20
-148.1267035219961
 30
0.0
 10
124.6941975599723
 20
-148.0188720333078
 30
0.0
 10
124.6711154202211
 20
-147.8579860741466
 30
0.0
 10
124.6711154202211
 20
-147.7291395029983
 30
0.0
 10
124.6711154202211
 20
-147.5703206011283
 30
0.0
 10
124.7155571519808
 20
-147.4266601193933
 30
0.0
 10
124.897458193602
 20
-147.3312309744519
 30
0.0
 10
125.0900390312275
 20
-147.2320122244767
 30
0.0
 10
125.3184488618996
 20
-147.208585575177
 30
0.0
 10
125.4917371648076
 20
-147.208585575177
 30
0.0
 10
125.6633029199731
 20
-147.208585575177
 30
0.0
 10
125.8937798079363
 20
-147.2299451671856
 30
0.0
 10
126.0863606455618
 20
-147.3312309744519
 30
0.0
  0
SPLINE
  5
48
330
41
100
AcDbEntity
  8
_U+30EC_U+30A4_U+30E4_U+30FC 1
370
     0
100
AcDbSpline
210
0.0
220
0.0
230
1.0
 70
    11
 71
     3
 72
    17
 73
    13
 74
     0
 42
0.0000000001
 43
0.0000000001
 12
1.0
 22
0.0
 32
0.0
 13
1.0
 23
0.0
 33
0.0
 40
0.0
 40
0.0
 40
0.0
 40
0.0
 40
1.0
 40
1.0
 40
1.0
 40
2.0
 40
2.0
 40
2.0
 40
3.0
 40
3.0
 40
3.0
 40
4.0
 40
4.0
 40
4.0
 40
4.0
 10
124.8636962578466
 20
-147.7291395029983
 30
0.0
 10
124.8636962578466
 20
-147.9785644161304
 30
0.0
 10
125.1472276162826
 20
-148.0254177147298
 30
0.0
 10
125.4917371648076
 20
-148.0254177147298
 30
0.0
 10
125.8114420258388
 20
-148.0254177147298
 30
0.0
 10
126.1201225813172
 20
-147.9892442121347
 30
0.0
 10
126.1201225813172
 20
-147.7291395029983
 30
0.0
 10
126.1201225813172
 20
-147.4814371376088
 30
0.0
 10
125.8386582801723
 20
-147.4328612912668
 30
0.0
 10
125.4917371648076
 20
-147.4328612912668
 30
0.0
 10
125.172376813325
 20
-147.4328612912668
 30
0.0
 10
124.8636962578466
 20
-147.4711018511531
 30
0.0
 10
124.8636962578466
 20
-147.7291395029983
 30
0.0
  0
HATCH
  5
49
330
41
100
AcDbEntity
  8
_U+30EC_U+30A4_U+30E4_U+30FC 1
 62
   179
420
  2234388
100
AcDbHatch
 10
0.0
 20
0.0
 30
0.0
210
0.0
220
0.0
230
1.0
  2
SOLID
 70
     1
 71
     0
 91
        2
 92
        1
 93
        1
 72
     4
 94
        3
 73
     0
 74
     1
 95
       29
 96
       25
 40
0.0
 40
0.0
 40
0.0
 40
0.0
 40
1.0
 40
1.0
 40
1.0
 40
2.0
 40
2.0
 40
2.0
 40
3.0
 40
3.0
 40
3.0
 40
4.0
 40
4.0
 40
4.0
 40
5.0
 40
5.0
 40
5.0
 40
6.0
 40
6.0
 40
6.0
 40
7.0
 40
7.0
 40
7.0
 40
8.0
 40
8.0
 40
8.0
 40
8.0
 10
126.0863606455618
 20
-147.3312309744519
 10
126.2958224510649
 20
-147.4394069726888
 10
126.3147704762338
 20
-147.6126952755968
 10
126.3147704762338
 20
-147.7291395029983
 10
126.3147704762338
 20
-147.8900254621595
 10
126.2682616871829
 20
-148.0316188866032
 10
126.0863606455618
 20
-148.1267035219961
 10
125.8917127506451
 20
-148.2304008961021
 10
125.6546901812599
 20
-148.249348921271
 10
125.4917371648076
 20
-148.249348921271
 10
125.3480766830727
 20
-148.249348921271
 10
125.0962402031009
 20
-148.2324679533933
 10
124.897458193602
 20
-148.1267035219961
 10
124.6941975599723
 20
-148.0188720333078
 10
124.6711154202211
 20
-147.8579860741466
 10
124.6711154202211
 20
-147.7291395029983
 10
124.6711154202211
 20
-147.5703206011283
 10
124.7155571519808
 20
-147.4266601193933
 10
124.897458193602
 20
-147.3312309744519
 10
125.0900390312275
 20
-147.2320122244767
 10
125.3184488618996
 20
-147.208585575177
 10
125.4917371648076
 20
-147.208585575177
 10
125.6633029199731
 20
-147.208585575177
 10
125.8937798079363
 20
-147.2299451671856
 10
126.0863606455618
 20
-147.3312309744519
 97
        0
 97
        0
 92
        1
 93
        1
 72
     4
 94
        3
 73
     0
 74
     1
 95
       17
 96
       13
 40
0.0
 40
0.0
 40
0.0
 40
0.0
 40
1.0
 40
1.0
 40
1.0
 40
2.0
 40
2.0
 40
2.0
 40
3.0
 40
3.0
 40
3.0
 40
4.0
 40
4.0
 40
4.0
 40
4.0
 10
124.8636962578466
 20
-147.7291395029983
 10
124.8636962578466
 20
-147.9785644161304
 10
125.1472276162826
 20
-148.0254177147298
 10
125.4917371648076
 20
-148.0254177147298
 10
125.8114420258388
 20
-148.0254177147298
 10
126.1201225813172
 20
-147.9892442121347
 10
126.1201225813172
 20
-147.7291395029983
 10
126.1201225813172
 20
-147.4814371376088
 10
125.8386582801723
 20
-147.4328612912668
 10
125.4917371648076
 20
-147.4328612912668
 10
125.172376813325
 20
-147.4328612912668
 10
124.8636962578466
 20
-147.4711018511531
 10
124.8636962578466
 20
-147.7291395029983
 97
        0
 97
        0
 75
     2
 76
     1
 98
        0
  0
ENDBLK
  5
44
330
41
100
AcDbEntity
  8
0
100
AcDbBlockEnd
  0
BLOCK
  5
4C
330
4A
100
AcDbEntity
  8
0
100
AcDbBlockBegin
  2
block 3
 70
     0
 10
0.0
 20
0.0
 30
0.0
  3
block 3
  1

  0
SPLINE
  5
4E
330
4A
100
AcDbEntity
  8
_U+30EC_U+30A4_U+30E4_U+30FC 1
370
     0
100
AcDbSpline
210
0.0
220
0.0
230
1.0
 70
    11
 71
     3
 72
    26
 73
    22
 74
     0
 42
0.0000000001
 43
0.0000000001
 12
1.0
 22
0.0
 32
0.0
 13
1.0
 23
0.0
 33
0.0
 40
0.0
 40
0.0
 40
0.0
 40
0.0
 40
1.0
 40
1.0
 40
1.0
 40
2.0
 40
2.0
 40
2.0
 40
3.0
 40
3.0
 40
3.0
 40
4.0
 40
4.0
 40
4.0
 40
5.0
 40
5.0
 40
5.0
 40
6.0
 40
6.0
 40
6.0
 40
7.0
 40
7.0
 40
7.0
 40
7.0
 10
126.2637830630521
 20
-153.8693331863591
 30
0.0
 10
126.2637830630521
 20
-153.8693331863591
 30
0.0
 10
125.1596299600295
 20
-153.8693331863591
 30
0.0
 10
125.1596299600295
 20
-153.8693331863591
 30
0.0
 10
125.1596299600295
 20
-153.8693331863591
 30
0.0
 10
125.1596299600295
 20
-154.199373333846
 30
0.0
 10
125.1596299600295
 20
-154.199373333846
 30
0.0
 10
125.1596299600295
 20
-154.199373333846
 30
0.0
 10
125.0114908541638
 20
-154.199373333846
 30
0.0
 10
125.0114908541638
 20
-154.199373333846
 30
0.0
 10
124.9966769435772
 20
-153.8672661290679
 30
0.0
 10
124.8337239271249
 20
-153.8207573400171
 30
0.0
 10
124.7193467570146
 20
-153.7911295188439
 30
0.0
 10
124.7193467570146
 20
-153.7911295188439
 30
0.0
 10
124.7193467570146
 20
-153.6450574702693
 30
0.0
 10
124.7193467570146
 20
-153.6450574702693
 30
0.0
 10
124.7193467570146
 20
-153.6450574702693
 30
0.0
 10
126.2637830630521
 20
-153.6450574702693
 30
0.0
 10
126.2637830630521
 20
-153.6450574702693
 30
0.0
 10
126.2637830630521
 20
-153.6450574702693
 30
0.0
 10
126.2637830630521
 20
-153.8693331863591
 30
0.0
 10
126.2637830630521
 20
-153.8693331863591
 30
0.0
  0
HATCH
  5
4F
330
4A
100
AcDbEntity
  8
_U+30EC_U+30A4_U+30E4_U+30FC 1
 62
   179
420
  2234388
100
AcDbHatch
 10
0.0
 20
0.0
 30
0.0
210
0.0
220
0.0
230
1.0
  2
SOLID
 70
     1
 71
     0
 91
        1
 92
        1
 93
        1
 72
     4
 94
        3
 73
     0
 74
     1
 95
       26
 96
       22
 40
0.0
 40
0.0
 40
0.0
 40
0.0
 40
1.0
 40
1.0
 40
1.0
 40
2.0
 40
2.0
 40
2.0
 40
3.0
 40
3.0
 40
3.0
 40
4.0
 40
4.0
 40
4.0
 40
5.0
 40
5.0
 40
5.0
 40
6.0
 40
6.0
 40
6.0
 40
7.0
 40
7.0
 40
7.0
 40
7.0
 10
126.2637830630521
 20
-153.8693331863591
 10
126.2637830630521
 20
-153.8693331863591
 10
125.1596299600295
 20
-153.8693331863591
 10
125.1596299600295
 20
-153.8693331863591
 10
125.1596299600295
 20
-153.8693331863591
 10
125.1596299600295
 20
-154.199373333846
 10
125.1596299600295
 20
-154.199373333846
 10
125.1596299600295
 20
-154.199373333846
 10
125.0114908541638
 20
-154.199373333846
 10
125.0114908541638
 20
-154.199373333846
 10
124.9966769435772
 20
-153.8672661290679
 10
124.8337239271249
 20
-153.8207573400171
 10
124.7193467570146
 20
-153.7911295188439
 10
124.7193467570146
 20
-153.7911295188439
 10
124.7193467570146
 20
-153.6450574702693
 10
124.7193467570146
 20
-153.6450574702693
 10
124.7193467570146
 20
-153.6450574702693
 10
126.2637830630521
 20
-153.6450574702693
 10
126.2637830630521
 20
-153.6450574702693
 10
126.2637830630521
 20
-153.6450574702693
 10
126.2637830630521
 20
-153.8693331863591
 10
126.2637830630521
 20
-153.8693331863591
 97
        0
 97
        0
 75
     2
 76
     1
 98
        0
  0
ENDBLK
  5
4D
330
4A
100
AcDbEntity
  8
0
100
AcDbBlockEnd
  0
BLOCK
  5
68
330
66
100
AcDbEntity
  8
0
100
AcDbBlockBegin
  2
block 4
 70
     0
 10
0.0
 20
0.0
 30
0.0
  3
block 4
  1

  0
SPLINE
  5
6A
330
66
100
AcDbEntity
  8
_U+30EC_U+30A4_U+30E4_U+30FC 1
370
     0
100
AcDbSpline
210
0.0
220
0.0
230
1.0
 70
    11
 71
     3
 72
    62
 73
    58
 74
     0
 42
0.0000000001
 43
0.0000000001
 12
1.0
 22
0.0
 32
0.0
 13
1.0
 23
0.0
 33
0.0
 40
0.0
 40
0.0
 40
0.0
 40
0.0
 40
1.0
 40
1.0
 40
1.0
 40
2.0
 40
2.0
 40
2.0
 40
3.0
 40
3.0
 40
3.0
 40
4.0
 40
4.0
 40
4.0
 40
5.0
 40
5.0
 40
5.0
 40
6.0
 40
6.0
 40
6.0
 40
7.0
 40
7.0
 40
7.0
 40
8.0
 40
8.0
 40
8.0
 40
9.0
 40
9.0
 40
9.0
 40
10.0
 40
10.0
 40
10.0
 40
11.0
 40
11.0
 40
11.0
 40
12.0
 40
12.0
 40
12.0
 40
13.0
 40
13.0
 40
13.0
 40
14.0
 40
14.0
 40
14.0
 40
15.0
 40
15.0
 40
15.0
 40
16.0
 40
16.0
 40
16.0
 40
17.0
 40
17.0
 40
17.0
 40
18.0
 40
18.0
 40
18.0
 40
19.0
 40
19.0
 40
19.0
 40
19.0
 10
101.8652723269642
 20
-140.5585177599993
 30
0.0
 10
101.7700154367971
 20
-140.5585177599993
 30
0.0
 10
101.552113147355
 20
-140.537330422765
 30
0.0
 10
101.427400690789
 20
-140.3511230117872
 30
0.0
 10
101.3533311378561
 20
-140.2389851537423
 30
0.0
 10
101.3490247684996
 20
-140.1395941489929
 30
0.0
 10
101.3448906539173
 20
-140.05501705483
 30
0.0
 10
101.3448906539173
 20
-140.05501705483
 30
0.0
 10
101.5648600006505
 20
-140.05501705483
 30
0.0
 10
101.5648600006505
 20
-140.05501705483
 30
0.0
 10
101.5669270579416
 20
-140.1290866077629
 30
0.0
 10
101.5776068539459
 20
-140.3638698650826
 30
0.0
 10
101.8611382123819
 20
-140.3638698650826
 30
0.0
 10
101.9985975222434
 20
-140.3638698650826
 30
0.0
 10
102.1508707426915
 20
-140.2941066815063
 30
0.0
 10
102.1508707426915
 20
-140.06552459606
 30
0.0
 10
102.1508707426915
 20
-139.9492526234328
 30
0.0
 10
102.1128024375794
 20
-139.9005045223165
 30
0.0
 10
102.0811075591151
 20
-139.8688096438522
 30
0.0
 10
102.0070380061823
 20
-139.7947400909194
 30
0.0
 10
101.8905937787808
 20
-139.7821654923982
 30
0.0
 10
101.8356445057911
 20
-139.7821654923982
 30
0.0
 10
101.8166964806222
 20
-139.7821654923982
 30
0.0
 10
101.7806952328014
 20
-139.7842325496894
 30
0.0
 10
101.7531344689194
 20
-139.7883666642717
 30
0.0
 10
101.7531344689194
 20
-139.7883666642717
 30
0.0
 10
101.7531344689194
 20
-139.593718769355
 30
0.0
 10
101.7531344689194
 20
-139.593718769355
 30
0.0
 10
101.7912027740314
 20
-139.6000921960027
 30
0.0
 10
101.8335774484999
 20
-139.6023315080682
 30
0.0
 10
101.8399508751477
 20
-139.6023315080682
 30
0.0
 10
101.9054076893674
 20
-139.6023315080682
 30
0.0
 10
102.1043619536406
 20
-139.5811441708339
 30
0.0
 10
102.1043619536406
 20
-139.3441216014487
 30
0.0
 10
102.1043619536406
 20
-139.1665269291841
 30
0.0
 10
101.9731038156526
 20
-139.1114054014201
 30
0.0
 10
101.8632052696731
 20
-139.1114054014201
 30
0.0
 10
101.5987941911802
 20
-139.1114054014201
 30
0.0
 10
101.5903537072413
 20
-139.3441216014487
 30
0.0
 10
101.5860473378847
 20
-139.4161240970904
 30
0.0
 10
101.5860473378847
 20
-139.4161240970904
 30
0.0
 10
101.3829589590293
 20
-139.4161240970904
 30
0.0
 10
101.3829589590293
 20
-139.4161240970904
 30
0.0
 10
101.3913994429681
 20
-139.2912393857501
 30
0.0
 10
101.4189602068501
 20
-138.9146904492123
 30
0.0
 10
101.8757798681943
 20
-138.9146904492123
 30
0.0
 10
102.100055584284
 20
-138.9146904492123
 30
0.0
 10
102.3412122682515
 20
-139.0416422178438
 30
0.0
 10
102.3412122682515
 20
-139.337748174801
 30
0.0
 10
102.3412122682515
 20
-139.5239555857787
 30
0.0
 10
102.2461276328586
 20
-139.6064656226505
 30
0.0
 10
102.1465643733349
 20
-139.6677883222879
 30
0.0
 10
102.2080593277466
 20
-139.6953490861699
 30
0.0
 10
102.3899603693678
 20
-139.7757920657505
 30
0.0
 10
102.3899603693678
 20
-140.0529499975389
 30
0.0
 10
102.3899603693678
 20
-140.3914306289647
 30
0.0
 10
102.1424302587526
 20
-140.5585177599993
 30
0.0
 10
101.8652723269642
 20
-140.5585177599993
 30
0.0
  0
HATCH
  5
6B
330
66
100
AcDbEntity
  8
_U+30EC_U+30A4_U+30E4_U+30FC 1
 62
   179
420
  2234388
100
AcDbHatch
 10
0.0
 20
0.0
 30
0.0
210
0.0
220
0.0
230
1.0
  2
SOLID
 70
     1
 71
     0
 91
        1
 92
        1
 93
        1
 72
     4
 94
        3
 73
     0
 74
     1
 95
       62
 96
       58
 40
0.0
 40
0.0
 40
0.0
 40
0.0
 40
1.0
 40
1.0
 40
1.0
 40
2.0
 40
2.0
 40
2.0
 40
3.0
 40
3.0
 40
3.0
 40
4.0
 40
4.0
 40
4.0
 40
5.0
 40
5.0
 40
5.0
 40
6.0
 40
6.0
 40
6.0
 40
7.0
 40
7.0
 40
7.0
 40
8.0
 40
8.0
 40
8.0
 40
9.0
 40
9.0
 40
9.0
 40
10.0
 40
10.0
 40
10.0
 40
11.0
 40
11.0
 40
11.0
 40
12.0
 40
12.0
 40
12.0
 40
13.0
 40
13.0
 40
13.0
 40
14.0
 40
14.0
 40
14.0
 40
15.0
 40
15.0
 40
15.0
 40
16.0
 40
16.0
 40
16.0
 40
17.0
 40
17.0
 40
17.0
 40
18.0
 40
18.0
 40
18.0
 40
19.0
 40
19.0
 40
19.0
 40
19.0
 10
101.8652723269642
 20
-140.5585177599993
 10
101.7700154367971
 20
-140.5585177599993
 10
101.552113147355
 20
-140.537330422765
 10
101.427400690789
 20
-140.3511230117872
 10
101.3533311378561
 20
-140.2389851537423
 10
101.3490247684996
 20
-140.1395941489929
 10
101.3448906539173
 20
-140.05501705483
 10
101.3448906539173
 20
-140.05501705483
 10
101.5648600006505
 20
-140.05501705483
 10
101.5648600006505
 20
-140.05501705483
 10
101.5669270579416
 20
-140.1290866077629
 10
101.5776068539459
 20
-140.3638698650826
 10
101.8611382123819
 20
-140.3638698650826
 10
101.9985975222434
 20
-140.3638698650826
 10
102.1508707426915
 20
-140.2941066815063
 10
102.1508707426915
 20
-140.06552459606
 10
102.1508707426915
 20
-139.9492526234328
 10
102.1128024375794
 20
-139.9005045223165
 10
102.0811075591151
 20
-139.8688096438522
 10
102.0070380061823
 20
-139.7947400909194
 10
101.8905937787808
 20
-139.7821654923982
 10
101.8356445057911
 20
-139.7821654923982
 10
101.8166964806222
 20
-139.7821654923982
 10
101.7806952328014
 20
-139.7842325496894
 10
101.7531344689194
 20
-139.7883666642717
 10
101.7531344689194
 20
-139.7883666642717
 10
101.7531344689194
 20
-139.593718769355
 10
101.7531344689194
 20
-139.593718769355
 10
101.7912027740314
 20
-139.6000921960027
 10
101.8335774484999
 20
-139.6023315080682
 10
101.8399508751477
 20
-139.6023315080682
 10
101.9054076893674
 20
-139.6023315080682
 10
102.1043619536406
 20
-139.5811441708339
 10
102.1043619536406
 20
-139.3441216014487
 10
102.1043619536406
 20
-139.1665269291841
 10
101.9731038156526
 20
-139.1114054014201
 10
101.8632052696731
 20
-139.1114054014201
 10
101.5987941911802
 20
-139.1114054014201
 10
101.5903537072413
 20
-139.3441216014487
 10
101.5860473378847
 20
-139.4161240970904
 10
101.5860473378847
 20
-139.4161240970904
 10
101.3829589590293
 20
-139.4161240970904
 10
101.3829589590293
 20
-139.4161240970904
 10
101.3913994429681
 20
-139.2912393857501
 10
101.4189602068501
 20
-138.9146904492123
 10
101.8757798681943
 20
-138.9146904492123
 10
102.100055584284
 20
-138.9146904492123
 10
102.3412122682515
 20
-139.0416422178438
 10
102.3412122682515
 20
-139.337748174801
 10
102.3412122682515
 20
-139.5239555857787
 10
102.2461276328586
 20
-139.6064656226505
 10
102.1465643733349
 20
-139.6677883222879
 10
102.2080593277466
 20
-139.6953490861699
 10
102.3899603693678
 20
-139.7757920657505
 10
102.3899603693678
 20
-140.0529499975389
 10
102.3899603693678
 20
-140.3914306289647
 10
102.1424302587526
 20
-140.5585177599993
 10
101.8652723269642
 20
-140.5585177599993
 97
        0
 97
        0
 75
     2
 76
     1
 98
        0
  0
ENDBLK
  5
69
330
66
100
AcDbEntity
  8
0
100
AcDbBlockEnd
  0
BLOCK
  5
85
330
83
100
AcDbEntity
  8
0
100
AcDbBlockBegin
  2
block 5
 70
     0
 10
0.0
 20
0.0
 30
0.0
  3
block 5
  1

  0
SPLINE
  5
87
330
83
100
AcDbEntity
  8
_U+30EC_U+30A4_U+30E4_U+30FC 1
370
     0
100
AcDbSpline
210
0.0
220
0.0
230
1.0
 70
    11
 71
     3
 72
    32
 73
    28
 74
     0
 42
0.0000000001
 43
0.0000000001
 12
1.0
 22
0.0
 32
0.0
 13
1.0
 23
0.0
 33
0.0
 40
0.0
 40
0.0
 40
0.0
 40
0.0
 40
1.0
 40
1.0
 40
1.0
 40
2.0
 40
2.0
 40
2.0
 40
3.0
 40
3.0
 40
3.0
 40
4.0
 40
4.0
 40
4.0
 40
5.0
 40
5.0
 40
5.0
 40
6.0
 40
6.0
 40
6.0
 40
7.0
 40
7.0
 40
7.0
 40
8.0
 40
8.0
 40
8.0
 40
9.0
 40
9.0
 40
9.0
 40
9.0
 10
111.322059433975
 20
-146.3145832967547
 30
0.0
 10
111.322059433975
 20
-146.8306586004451
 30
0.0
 10
110.7677435703984
 20
-146.8392713391582
 30
0.0
 10
110.5541476503129
 20
-146.8392713391582
 30
0.0
 10
110.3233262528011
 20
-146.8392713391582
 30
0.0
 10
109.6759928111227
 20
-146.8199788044408
 30
0.0
 10
109.6759928111227
 20
-146.2763427368684
 30
0.0
 10
109.6759928111227
 20
-146.1030544339604
 30
0.0
 10
109.7459282494733
 20
-145.857419125862
 30
0.0
 10
110.0780354542513
 20
-145.8195230755243
 30
0.0
 10
110.0780354542513
 20
-145.8195230755243
 30
0.0
 10
110.0780354542513
 20
-146.0331189956098
 30
0.0
 10
110.0780354542513
 20
-146.0331189956098
 30
0.0
 10
110.0208468691962
 20
-146.0437987916141
 30
0.0
 10
109.8727077633304
 20
-146.0754936700783
 30
0.0
 10
109.8727077633304
 20
-146.2784097941596
 30
0.0
 10
109.8727077633304
 20
-146.5705538913087
 30
0.0
 10
110.2006808535262
 20
-146.6105169989377
 30
0.0
 10
110.4060085444471
 20
-146.6232638522331
 30
0.0
 10
110.3278048769319
 20
-146.5302462741313
 30
0.0
 10
110.2685492345856
 20
-146.4623778930719
 30
0.0
 10
110.2685492345856
 20
-146.2804768514507
 30
0.0
 10
110.2685492345856
 20
-146.1006428671207
 30
0.0
 10
110.376380723274
 20
-145.7981634835157
 30
0.0
 10
110.7825574809849
 20
-145.7981634835157
 30
0.0
 10
111.1019178324676
 20
-145.7981634835157
 30
0.0
 10
111.322059433975
 20
-145.9972900025632
 30
0.0
 10
111.322059433975
 20
-146.3145832967547
 30
0.0
  0
SPLINE
  5
88
330
83
100
AcDbEntity
  8
_U+30EC_U+30A4_U+30E4_U+30FC 1
370
     0
100
AcDbSpline
210
0.0
220
0.0
230
1.0
 70
    11
 71
     3
 72
    17
 73
    13
 74
     0
 42
0.0000000001
 43
0.0000000001
 12
1.0
 22
0.0
 32
0.0
 13
1.0
 23
0.0
 33
0.0
 40
0.0
 40
0.0
 40
0.0
 40
0.0
 40
1.0
 40
1.0
 40
1.0
 40
2.0
 40
2.0
 40
2.0
 40
3.0
 40
3.0
 40
3.0
 40
4.0
 40
4.0
 40
4.0
 40
4.0
 10
110.4631971295023
 20
-146.297702328877
 30
0.0
 10
110.4631971295023
 20
-146.5598740953045
 30
0.0
 10
110.6747259922966
 20
-146.5977701456422
 30
0.0
 10
110.7908257101495
 20
-146.5977701456422
 30
0.0
 10
110.9665255798973
 20
-146.5977701456422
 30
0.0
 10
111.1294785963496
 20
-146.5026855102493
 30
0.0
 10
111.1294785963496
 20
-146.318717411337
 30
0.0
 10
111.1294785963496
 20
-146.1981390693533
 30
0.0
 10
111.0702229540033
 20
-146.0224391996055
 30
0.0
 10
110.7846245382761
 20
-146.0224391996055
 30
0.0
 10
110.5603488221863
 20
-146.0224391996055
 30
0.0
 10
110.4631971295023
 20
-146.1619655667581
 30
0.0
 10
110.4631971295023
 20
-146.297702328877
 30
0.0
  0
HATCH
  5
89
330
83
100
AcDbEntity
  8
_U+30EC_U+30A4_U+30E4_U+30FC 1
 62
   179
420
  2234388
100
AcDbHatch
 10
0.0
 20
0.0
 30
0.0
210
0.0
220
0.0
230
1.0
  2
SOLID
 70
     1
 71
     0
 91
        2
 92
        1
 93
        1
 72
     4
 94
        3
 73
     0
 74
     1
 95
       32
 96
       28
 40
0.0
 40
0.0
 40
0.0
 40
0.0
 40
1.0
 40
1.0
 40
1.0
 40
2.0
 40
2.0
 40
2.0
 40
3.0
 40
3.0
 40
3.0
 40
4.0
 40
4.0
 40
4.0
 40
5.0
 40
5.0
 40
5.0
 40
6.0
 40
6.0
 40
6.0
 40
7.0
 40
7.0
 40
7.0
 40
8.0
 40
8.0
 40
8.0
 40
9.0
 40
9.0
 40
9.0
 40
9.0
 10
111.322059433975
 20
-146.3145832967547
 10
111.322059433975
 20
-146.8306586004451
 10
110.7677435703984
 20
-146.8392713391582
 10
110.5541476503129
 20
-146.8392713391582
 10
110.3233262528011
 20
-146.8392713391582
 10
109.6759928111227
 20
-146.8199788044408
 10
109.6759928111227
 20
-146.2763427368684
 10
109.6759928111227
 20
-146.1030544339604
 10
109.7459282494733
 20
-145.857419125862
 10
110.0780354542513
 20
-145.8195230755243
 10
110.0780354542513
 20
-145.8195230755243
 10
110.0780354542513
 20
-146.0331189956098
 10
110.0780354542513
 20
-146.0331189956098
 10
110.0208468691962
 20
-146.0437987916141
 10
109.8727077633304
 20
-146.0754936700783
 10
109.8727077633304
 20
-146.2784097941596
 10
109.8727077633304
 20
-146.5705538913087
 10
110.2006808535262
 20
-146.6105169989377
 10
110.4060085444471
 20
-146.6232638522331
 10
110.3278048769319
 20
-146.5302462741313
 10
110.2685492345856
 20
-146.4623778930719
 10
110.2685492345856
 20
-146.2804768514507
 10
110.2685492345856
 20
-146.1006428671207
 10
110.376380723274
 20
-145.7981634835157
 10
110.7825574809849
 20
-145.7981634835157
 10
111.1019178324676
 20
-145.7981634835157
 10
111.322059433975
 20
-145.9972900025632
 10
111.322059433975
 20
-146.3145832967547
 97
        0
 97
        0
 92
        1
 93
        1
 72
     4
 94
        3
 73
     0
 74
     1
 95
       17
 96
       13
 40
0.0
 40
0.0
 40
0.0
 40
0.0
 40
1.0
 40
1.0
 40
1.0
 40
2.0
 40
2.0
 40
2.0
 40
3.0
 40
3.0
 40
3.0
 40
4.0
 40
4.0
 40
4.0
 40
4.0
 10
110.4631971295023
 20
-146.297702328877
 10
110.4631971295023
 20
-146.5598740953045
 10
110.6747259922966
 20
-146.5977701456422
 10
110.7908257101495
 20
-146.5977701456422
 10
110.9665255798973
 20
-146.5977701456422
 10
111.1294785963496
 20
-146.5026855102493
 10
111.1294785963496
 20
-146.318717411337
 10
111.1294785963496
 20
-146.1981390693533
 10
111.0702229540033
 20
-146.0224391996055
 10
110.7846245382761
 20
-146.0224391996055
 10
110.5603488221863
 20
-146.0224391996055
 10
110.4631971295023
 20
-146.1619655667581
 10
110.4631971295023
 20
-146.297702328877
 97
        0
 97
        0
 75
     2
 76
     1
 98
        0
  0
ENDBLK
  5
86
330
83
100
AcDbEntity
  8
0
100
AcDbBlockEnd
  0
BLOCK
  5
96
330
94
100
AcDbEntity
  8
0
100
AcDbBlockBegin
  2
block 6
 70
     0
 10
0.0
 20
0.0
 30
0.0
  3
block 6
  1

  0
SPLINE
  5
98
330
94
100
AcDbEntity
  8
_U+30EC_U+30A4_U+30E4_U+30FC 1
370
     0
100
AcDbSpline
210
0.0
220
0.0
230
1.0
 70
    11
 71
     3
 72
    62
 73
    58
 74
     0
 42
0.0000000001
 43
0.0000000001
 12
1.0
 22
0.0
 32
0.0
 13
1.0
 23
0.0
 33
0.0
 40
0.0
 40
0.0
 40
0.0
 40
0.0
 40
1.0
 40
1.0
 40
1.0
 40
2.0
 40
2.0
 40
2.0
 40
3.0
 40
3.0
 40
3.0
 40
4.0
 40
4.0
 40
4.0
 40
5.0
 40
5.0
 40
5.0
 40
6.0
 40
6.0
 40
6.0
 40
7.0
 40
7.0
 40
7.0
 40
8.0
 40
8.0
 40
8.0
 40
9.0
 40
9.0
 40
9.0
 40
10.0
 40
10.0
 40
10.0
 40
11.0
 40
11.0
 40
11.0
 40
12.0
 40
12.0
 40
12.0
 40
13.0
 40
13.0
 40
13.0
 40
14.0
 40
14.0
 40
14.0
 40
15.0
 40
15.0
 40
15.0
 40
16.0
 40
16.0
 40
16.0
 40
17.0
 40
17.0
 40
17.0
 40
18.0
 40
18.0
 40
18.0
 40
19.0
 40
19.0
 40
19.0
 40
19.0
 10
104.4079250498529
 20
-157.7757269570839
 30
0.0
 10
104.3126681596857
 20
-157.7757269570839
 30
0.0
 10
104.0947658702437
 20
-157.7547118746238
 30
0.0
 10
103.9700534136776
 20
-157.5686767184203
 30
0.0
 10
103.8959838607448
 20
-157.4563666056012
 30
0.0
 10
103.8916774913882
 20
-157.357147855626
 30
0.0
 10
103.8875433768059
 20
-157.2723985066889
 30
0.0
 10
103.8875433768059
 20
-157.2723985066889
 30
0.0
 10
104.1075127235391
 20
-157.2723985066889
 30
0.0
 10
104.1075127235391
 20
-157.2723985066889
 30
0.0
 10
104.1095797808302
 20
-157.3464680596217
 30
0.0
 10
104.1202595768345
 20
-157.5810790621672
 30
0.0
 10
104.4036186804963
 20
-157.5810790621672
 30
0.0
 10
104.541250245132
 20
-157.5810790621672
 30
0.0
 10
104.6935234655801
 20
-157.5114881333652
 30
0.0
 10
104.6935234655801
 20
-157.2830783026931
 30
0.0
 10
104.6935234655801
 20
-157.1666340752917
 30
0.0
 10
104.6554551604681
 20
-157.1180582289496
 30
0.0
 10
104.6237602820038
 20
-157.0863633504854
 30
0.0
 10
104.5496907290709
 20
-157.0122937975525
 30
0.0
 10
104.4332465016695
 20
-156.9995469442571
 30
0.0
 10
104.3782972286797
 20
-156.9995469442571
 30
0.0
 10
104.3593492035109
 20
-156.9995469442571
 30
0.0
 10
104.32334795569
 20
-157.0016140015482
 30
0.0
 10
104.295787191808
 20
-157.0057481161305
 30
0.0
 10
104.295787191808
 20
-157.0057481161305
 30
0.0
 10
104.295787191808
 20
-156.8111002212139
 30
0.0
 10
104.295787191808
 20
-156.8111002212139
 30
0.0
 10
104.33385549692
 20
-156.8176459026359
 30
0.0
 10
104.3762301713886
 20
-156.819712959927
 30
0.0
 10
104.3826035980363
 20
-156.819712959927
 30
0.0
 10
104.448060412256
 20
-156.819712959927
 30
0.0
 10
104.6470146765292
 20
-156.7983533679185
 30
0.0
 10
104.6470146765292
 20
-156.5616753080818
 30
0.0
 10
104.6470146765292
 20
-156.3839083810429
 30
0.0
 10
104.5157565385412
 20
-156.3287868532789
 30
0.0
 10
104.4058579925617
 20
-156.3287868532789
 30
0.0
 10
104.1414469140688
 20
-156.3287868532789
 30
0.0
 10
104.1328341753557
 20
-156.5616753080818
 30
0.0
 10
104.1287000607734
 20
-156.633333294175
 30
0.0
 10
104.1287000607734
 20
-156.633333294175
 30
0.0
 10
103.9256116819179
 20
-156.633333294175
 30
0.0
 10
103.9256116819179
 20
-156.633333294175
 30
0.0
 10
103.9340521658568
 20
-156.508620837609
 30
0.0
 10
103.9616129297388
 20
-156.1320719010712
 30
0.0
 10
104.4184325910829
 20
-156.1320719010712
 30
0.0
 10
104.6427083071727
 20
-156.1320719010712
 30
0.0
 10
104.8838649911401
 20
-156.2591959244769
 30
0.0
 10
104.8838649911401
 20
-156.5551296266598
 30
0.0
 10
104.8838649911401
 20
-156.7415092924118
 30
0.0
 10
104.7887803557472
 20
-156.8238470745093
 30
0.0
 10
104.6892170962235
 20
-156.8851697741468
 30
0.0
 10
104.7507120506352
 20
-156.9127305380288
 30
0.0
 10
104.9326130922564
 20
-156.9930012628351
 30
0.0
 10
104.9326130922564
 20
-157.2703314493977
 30
0.0
 10
104.9326130922564
 20
-157.6086398260492
 30
0.0
 10
104.6850829816412
 20
-157.7757269570839
 30
0.0
 10
104.4079250498529
 20
-157.7757269570839
 30
0.0
  0
HATCH
  5
99
330
94
100
AcDbEntity
  8
_U+30EC_U+30A4_U+30E4_U+30FC 1
 62
   179
420
  2234388
100
AcDbHatch
 10
0.0
 20
0.0
 30
0.0
210
0.0
220
0.0
230
1.0
  2
SOLID
 70
     1
 71
     0
 91
        1
 92
        1
 93
        1
 72
     4
 94
        3
 73
     0
 74
     1
 95
       62
 96
       58
 40
0.0
 40
0.0
 40
0.0
 40
0.0
 40
1.0
 40
1.0
 40
1.0
 40
2.0
 40
2.0
 40
2.0
 40
3.0
 40
3.0
 40
3.0
 40
4.0
 40
4.0
 40
4.0
 40
5.0
 40
5.0
 40
5.0
 40
6.0
 40
6.0
 40
6.0
 40
7.0
 40
7.0
 40
7.0
 40
8.0
 40
8.0
 40
8.0
 40
9.0
 40
9.0
 40
9.0
 40
10.0
 40
10.0
 40
10.0
 40
11.0
 40
11.0
 40
11.0
 40
12.0
 40
12.0
 40
12.0
 40
13.0
 40
13.0
 40
13.0
 40
14.0
 40
14.0
 40
14.0
 40
15.0
 40
15.0
 40
15.0
 40
16.0
 40
16.0
 40
16.0
 40
17.0
 40
17.0
 40
17.0
 40
18.0
 40
18.0
 40
18.0
 40
19.0
 40
19.0
 40
19.0
 40
19.0
 10
104.4079250498529
 20
-157.7757269570839
 10
104.3126681596857
 20
-157.7757269570839
 10
104.0947658702437
 20
-157.7547118746238
 10
103.9700534136776
 20
-157.5686767184203
 10
103.8959838607448
 20
-157.4563666056012
 10
103.8916774913882
 20
-157.357147855626
 10
103.8875433768059
 20
-157.2723985066889
 10
103.8875433768059
 20
-157.2723985066889
 10
104.1075127235391
 20
-157.2723985066889
 10
104.1075127235391
 20
-157.2723985066889
 10
104.1095797808302
 20
-157.3464680596217
 10
104.1202595768345
 20
-157.5810790621672
 10
104.4036186804963
 20
-157.5810790621672
 10
104.541250245132
 20
-157.5810790621672
 10
104.6935234655801
 20
-157.5114881333652
 10
104.6935234655801
 20
-157.2830783026931
 10
104.6935234655801
 20
-157.1666340752917
 10
104.6554551604681
 20
-157.1180582289496
 10
104.6237602820038
 20
-157.0863633504854
 10
104.5496907290709
 20
-157.0122937975525
 10
104.4332465016695
 20
-156.9995469442571
 10
104.3782972286797
 20
-156.9995469442571
 10
104.3593492035109
 20
-156.9995469442571
 10
104.32334795569
 20
-157.0016140015482
 10
104.295787191808
 20
-157.0057481161305
 10
104.295787191808
 20
-157.0057481161305
 10
104.295787191808
 20
-156.8111002212139
 10
104.295787191808
 20
-156.8111002212139
 10
104.33385549692
 20
-156.8176459026359
 10
104.3762301713886
 20
-156.819712959927
 10
104.3826035980363
 20
-156.819712959927
 10
104.448060412256
 20
-156.819712959927
 10
104.6470146765292
 20
-156.7983533679185
 10
104.6470146765292
 20
-156.5616753080818
 10
104.6470146765292
 20
-156.3839083810429
 10
104.5157565385412
 20
-156.3287868532789
 10
104.4058579925617
 20
-156.3287868532789
 10
104.1414469140688
 20
-156.3287868532789
 10
104.1328341753557
 20
-156.5616753080818
 10
104.1287000607734
 20
-156.633333294175
 10
104.1287000607734
 20
-156.633333294175
 10
103.9256116819179
 20
-156.633333294175
 10
103.9256116819179
 20
-156.633333294175
 10
103.9340521658568
 20
-156.508620837609
 10
103.9616129297388
 20
-156.1320719010712
 10
104.4184325910829
 20
-156.1320719010712
 10
104.6427083071727
 20
-156.1320719010712
 10
104.8838649911401
 20
-156.2591959244769
 10
104.8838649911401
 20
-156.5551296266598
 10
104.8838649911401
 20
-156.7415092924118
 10
104.7887803557472
 20
-156.8238470745093
 10
104.6892170962235
 20
-156.8851697741468
 10
104.7507120506352
 20
-156.9127305380288
 10
104.9326130922564
 20
-156.9930012628351
 10
104.9326130922564
 20
-157.2703314493977
 10
104.9326130922564
 20
-157.6086398260492
 10
104.6850829816412
 20
-157.7757269570839
 10
104.4079250498529
 20
-157.7757269570839
 97
        0
 97
        0
 75
     2
 76
     1
 98
        0
  0
SPLINE
  5
9A
330
94
100
AcDbEntity
  8
_U+30EC_U+30A4_U+30E4_U+30FC 1
370
     0
100
AcDbSpline
210
0.0
220
0.0
230
1.0
 70
    11
 71
     3
 72
    26
 73
    22
 74
     0
 42
0.0000000001
 43
0.0000000001
 12
1.0
 22
0.0
 32
0.0
 13
1.0
 23
0.0
 33
0.0
 40
0.0
 40
0.0
 40
0.0
 40
0.0
 40
1.0
 40
1.0
 40
1.0
 40
2.0
 40
2.0
 40
2.0
 40
3.0
 40
3.0
 40
3.0
 40
4.0
 40
4.0
 40
4.0
 40
5.0
 40
5.0
 40
5.0
 40
6.0
 40
6.0
 40
6.0
 40
7.0
 40
7.0
 40
7.0
 40
7.0
 10
105.5043266880336
 20
-157.7250840534507
 30
0.0
 10
105.5043266880336
 20
-157.7250840534507
 30
0.0
 10
105.2674763734227
 20
-157.7250840534507
 30
0.0
 10
105.2674763734227
 20
-157.7250840534507
 30
0.0
 10
105.2927978252393
 20
-157.4160589884238
 30
0.0
 10
105.4853786628648
 20
-156.8979166274422
 30
0.0
 10
105.8915554205757
 20
-156.3921766102075
 30
0.0
 10
105.8915554205757
 20
-156.3921766102075
 30
0.0
 10
105.053708198563
 20
-156.3921766102075
 30
0.0
 10
105.053708198563
 20
-156.3921766102075
 30
0.0
 10
105.053708198563
 20
-156.3921766102075
 30
0.0
 10
105.053708198563
 20
-156.1806477474132
 30
0.0
 10
105.053708198563
 20
-156.1806477474132
 30
0.0
 10
105.053708198563
 20
-156.1806477474132
 30
0.0
 10
106.1282334804124
 20
-156.1806477474132
 30
0.0
 10
106.1282334804124
 20
-156.1806477474132
 30
0.0
 10
106.1282334804124
 20
-156.1806477474132
 30
0.0
 10
106.1282334804124
 20
-156.3921766102075
 30
0.0
 10
106.1282334804124
 20
-156.3921766102075
 30
0.0
 10
105.8047390143474
 20
-156.6822536500655
 30
0.0
 10
105.5384331333376
 20
-157.27446556398
 30
0.0
 10
105.5043266880336
 20
-157.7250840534507
 30
0.0
  0
HATCH
  5
9B
330
94
100
AcDbEntity
  8
_U+30EC_U+30A4_U+30E4_U+30FC 1
 62
   179
420
  2234388
100
AcDbHatch
 10
0.0
 20
0.0
 30
0.0
210
0.0
220
0.0
230
1.0
  2
SOLID
 70
     1
 71
     0
 91
        1
 92
        1
 93
        1
 72
     4
 94
        3
 73
     0
 74
     1
 95
       26
 96
       22
 40
0.0
 40
0.0
 40
0.0
 40
0.0
 40
1.0
 40
1.0
 40
1.0
 40
2.0
 40
2.0
 40
2.0
 40
3.0
 40
3.0
 40
3.0
 40
4.0
 40
4.0
 40
4.0
 40
5.0
 40
5.0
 40
5.0
 40
6.0
 40
6.0
 40
6.0
 40
7.0
 40
7.0
 40
7.0
 40
7.0
 10
105.5043266880336
 20
-157.7250840534507
 10
105.5043266880336
 20
-157.7250840534507
 10
105.2674763734227
 20
-157.7250840534507
 10
105.2674763734227
 20
-157.7250840534507
 10
105.2927978252393
 20
-157.4160589884238
 10
105.4853786628648
 20
-156.8979166274422
 10
105.8915554205757
 20
-156.3921766102075
 10
105.8915554205757
 20
-156.3921766102075
 10
105.053708198563
 20
-156.3921766102075
 10
105.053708198563
 20
-156.3921766102075
 10
105.053708198563
 20
-156.3921766102075
 10
105.053708198563
 20
-156.1806477474132
 10
105.053708198563
 20
-156.1806477474132
 10
105.053708198563
 20
-156.1806477474132
 10
106.1282334804124
 20
-156.1806477474132
 10
106.1282334804124
 20
-156.1806477474132
 10
106.1282334804124
 20
-156.1806477474132
 10
106.1282334804124
 20
-156.3921766102075
 10
106.1282334804124
 20
-156.3921766102075
 10
105.8047390143474
 20
-156.6822536500655
 10
105.5384331333376
 20
-157.27446556398
 10
105.5043266880336
 20
-157.7250840534507
 97
        0
 97
        0
 75
     2
 76
     1
 98
        0
  0
ENDBLK
  5
97
330
94
100
AcDbEntity
  8
0
100
AcDbBlockEnd
  0
BLOCK
  5
C9
330
C7
100
AcDbEntity
  8
0
100
AcDbBlockBegin
  2
block 7
 70
     0
 10
0.0
 20
0.0
 30
0.0
  3
block 7
  1

  0
POLYLINE
  5
CB
330
C7
100
AcDbEntity
  8
_U+30EC_U+30A4_U+30E4_U+30FC 1
370
     0
100
AcDb2dPolyline
 66
     1
 10
0.0
 20
0.0
 30
0.0
  0
VERTEX
  5
CC
330
CB
100
AcDbEntity
  8
_U+30EC_U+30A4_U+30E4_U+30FC 1
370
     0
100
AcDbVertex
100
AcDb2dVertex
 10
98.25085039861438
 20
-155.2063747441845
 30
0.0
  0
VERTEX
  5
CD
330
CB
100
AcDbEntity
  8
_U+30EC_U+30A4_U+30E4_U+30FC 1
370
     0
100
AcDbVertex
100
AcDb2dVertex
 10
98.25085039861438
 20
-155.0454887850234
 30
0.0
  0
VERTEX
  5
CE
330
CB
100
AcDbEntity
  8
_U+30EC_U+30A4_U+30E4_U+30FC 1
370
     0
100
AcDbVertex
100
AcDb2dVertex
 10
98.40519067635357
 20
-155.0454887850234
 30
0.0
  0
VERTEX
  5
CF
330
CB
100
AcDbEntity
  8
_U+30EC_U+30A4_U+30E4_U+30FC 1
370
     0
100
AcDbVertex
100
AcDb2dVertex
 10
98.40519067635357
 20
-155.2063747441845
 30
0.0
  0
VERTEX
  5
D0
330
CB
100
AcDbEntity
  8
_U+30EC_U+30A4_U+30E4_U+30FC 1
370
     0
100
AcDbVertex
100
AcDb2dVertex
 10
98.79879283554337
 20
-155.2063747441845
 30
0.0
  0
VERTEX
  5
D1
330
CB
100
AcDbEntity
  8
_U+30EC_U+30A4_U+30E4_U+30FC 1
370
     0
100
AcDbVertex
100
AcDb2dVertex
 10
98.79879283554337
 20
-155.3607150219237
 30
0.0
  0
VERTEX
  5
D2
330
CB
100
AcDbEntity
  8
_U+30EC_U+30A4_U+30E4_U+30FC 1
370
     0
100
AcDbVertex
100
AcDb2dVertex
 10
98.40519067635357
 20
-155.3607150219237
 30
0.0
  0
VERTEX
  5
D3
330
CB
100
AcDbEntity
  8
_U+30EC_U+30A4_U+30E4_U+30FC 1
370
     0
100
AcDbVertex
100
AcDb2dVertex
 10
98.40519067635357
 20
-155.5153998092114
 30
0.0
  0
VERTEX
  5
D4
330
CB
100
AcDbEntity
  8
_U+30EC_U+30A4_U+30E4_U+30FC 1
370
     0
100
AcDbVertex
100
AcDb2dVertex
 10
98.76055227565709
 20
-155.5153998092114
 30
0.0
  0
VERTEX
  5
D5
330
CB
100
AcDbEntity
  8
_U+30EC_U+30A4_U+30E4_U+30FC 1
370
     0
100
AcDbVertex
100
AcDb2dVertex
 10
98.76055227565709
 20
-156.3277533246333
 30
0.0
  0
VERTEX
  5
D6
330
CB
100
AcDbEntity
  8
_U+30EC_U+30A4_U+30E4_U+30FC 1
370
     0
100
AcDbVertex
100
AcDb2dVertex
 10
98.40519067635357
 20
-156.3277533246333
 30
0.0
  0
VERTEX
  5
D7
330
CB
100
AcDbEntity
  8
_U+30EC_U+30A4_U+30E4_U+30FC 1
370
     0
100
AcDbVertex
100
AcDb2dVertex
 10
98.40519067635357
 20
-156.4969075129591
 30
0.0
  0
VERTEX
  5
D8
330
CB
100
AcDbEntity
  8
_U+30EC_U+30A4_U+30E4_U+30FC 1
370
     0
100
AcDbVertex
100
AcDb2dVertex
 10
98.81360674612993
 20
-156.4969075129591
 30
0.0
  0
VERTEX
  5
D9
330
CB
100
AcDbEntity
  8
_U+30EC_U+30A4_U+30E4_U+30FC 1
370
     0
100
AcDbVertex
100
AcDb2dVertex
 10
98.81360674612993
 20
-156.6512477906983
 30
0.0
  0
VERTEX
  5
DA
330
CB
100
AcDbEntity
  8
_U+30EC_U+30A4_U+30E4_U+30FC 1
370
     0
100
AcDbVertex
100
AcDb2dVertex
 10
98.40519067635357
 20
-156.6512477906983
 30
0.0
  0
VERTEX
  5
DB
330
CB
100
AcDbEntity
  8
_U+30EC_U+30A4_U+30E4_U+30FC 1
370
     0
100
AcDbVertex
100
AcDb2dVertex
 10
98.40519067635357
 20
-157.0047145874849
 30
0.0
  0
VERTEX
  5
DC
330
CB
100
AcDbEntity
  8
_U+30EC_U+30A4_U+30E4_U+30FC 1
370
     0
100
AcDbVertex
100
AcDb2dVertex
 10
98.25085039861438
 20
-157.0047145874849
 30
0.0
  0
VERTEX
  5
DD
330
CB
100
AcDbEntity
  8
_U+30EC_U+30A4_U+30E4_U+30FC 1
370
     0
100
AcDbVertex
100
AcDb2dVertex
 10
98.25085039861438
 20
-156.6512477906983
 30
0.0
  0
VERTEX
  5
DE
330
CB
100
AcDbEntity
  8
_U+30EC_U+30A4_U+30E4_U+30FC 1
370
     0
100
AcDbVertex
100
AcDb2dVertex
 10
97.84036727154685
 20
-156.6512477906983
 30
0.0
  0
VERTEX
  5
DF
330
CB
100
AcDbEntity
  8
_U+30EC_U+30A4_U+30E4_U+30FC 1
370
     0
100
AcDbVertex
100
AcDb2dVertex
 10
97.84036727154685
 20
-156.4969075129591
 30
0.0
  0
VERTEX
  5
E0
330
CB
100
AcDbEntity
  8
_U+30EC_U+30A4_U+30E4_U+30FC 1
370
     0
100
AcDbVertex
100
AcDb2dVertex
 10
98.25085039861438
 20
-156.4969075129591
 30
0.0
  0
VERTEX
  5
E1
330
CB
100
AcDbEntity
  8
_U+30EC_U+30A4_U+30E4_U+30FC 1
370
     0
100
AcDbVertex
100
AcDb2dVertex
 10
98.25085039861438
 20
-156.3277533246333
 30
0.0
  0
VERTEX
  5
E2
330
CB
100
AcDbEntity
  8
_U+30EC_U+30A4_U+30E4_U+30FC 1
370
     0
100
AcDbVertex
100
AcDb2dVertex
 10
97.90168997118431
 20
-156.3277533246333
 30
0.0
  0
VERTEX
  5
E3
330
CB
100
AcDbEntity
  8
_U+30EC_U+30A4_U+30E4_U+30FC 1
370
     0
100
AcDbVertex
100
AcDb2dVertex
 10
97.90168997118431
 20
-155.5153998092114
 30
0.0
  0
VERTEX
  5
E4
330
CB
100
AcDbEntity
  8
_U+30EC_U+30A4_U+30E4_U+30FC 1
370
     0
100
AcDbVertex
100
AcDb2dVertex
 10
98.25085039861438
 20
-155.5153998092114
 30
0.0
  0
VERTEX
  5
E5
330
CB
100
AcDbEntity
  8
_U+30EC_U+30A4_U+30E4_U+30FC 1
370
     0
100
AcDbVertex
100
AcDb2dVertex
 10
98.25085039861438
 20
-155.3607150219237
 30
0.0
  0
VERTEX
  5
E6
330
CB
100
AcDbEntity
  8
_U+30EC_U+30A4_U+30E4_U+30FC 1
370
     0
100
AcDbVertex
100
AcDb2dVertex
 10
97.86155460878115
 20
-155.3607150219237
 30
0.0
  0
VERTEX
  5
E7
330
CB
100
AcDbEntity
  8
_U+30EC_U+30A4_U+30E4_U+30FC 1
370
     0
100
AcDbVertex
100
AcDb2dVertex
 10
97.86155460878115
 20
-155.2063747441845
 30
0.0
  0
VERTEX
  5
E8
330
CB
100
AcDbEntity
  8
_U+30EC_U+30A4_U+30E4_U+30FC 1
370
     0
100
AcDbVertex
100
AcDb2dVertex
 10
98.25085039861438
 20
-155.2063747441845
 30
0.0
  0
SEQEND
  5
E9
330
CB
100
AcDbEntity
  8
_U+30EC_U+30A4_U+30E4_U+30FC 1
370
     0
  0
POLYLINE
  5
EA
330
C7
100
AcDbEntity
  8
_U+30EC_U+30A4_U+30E4_U+30FC 1
370
     0
100
AcDb2dPolyline
 66
     1
 10
0.0
 20
0.0
 30
0.0
  0
VERTEX
  5
EB
330
EA
100
AcDbEntity
  8
_U+30EC_U+30A4_U+30E4_U+30FC 1
370
     0
100
AcDbVertex
100
AcDb2dVertex
 10
98.25085039861438
 20
-155.6549261763641
 30
0.0
  0
VERTEX
  5
EC
330
EA
100
AcDbEntity
  8
_U+30EC_U+30A4_U+30E4_U+30FC 1
370
     0
100
AcDbVertex
100
AcDb2dVertex
 10
98.04345565040234
 20
-155.6549261763641
 30
0.0
  0
VERTEX
  5
ED
330
EA
100
AcDbEntity
  8
_U+30EC_U+30A4_U+30E4_U+30FC 1
370
     0
100
AcDbVertex
100
AcDb2dVertex
 10
98.04345565040234
 20
-155.8578423004453
 30
0.0
  0
VERTEX
  5
EE
330
EA
100
AcDbEntity
  8
_U+30EC_U+30A4_U+30E4_U+30FC 1
370
     0
100
AcDbVertex
100
AcDb2dVertex
 10
98.25085039861438
 20
-155.8578423004453
 30
0.0
  0
VERTEX
  5
EF
330
EA
100
AcDbEntity
  8
_U+30EC_U+30A4_U+30E4_U+30FC 1
370
     0
100
AcDbVertex
100
AcDb2dVertex
 10
98.25085039861438
 20
-155.6549261763641
 30
0.0
  0
SEQEND
  5
F0
330
EA
100
AcDbEntity
  8
_U+30EC_U+30A4_U+30E4_U+30FC 1
370
     0
  0
POLYLINE
  5
F1
330
C7
100
AcDbEntity
  8
_U+30EC_U+30A4_U+30E4_U+30FC 1
370
     0
100
AcDb2dPolyline
 66
     1
 10
0.0
 20
0.0
 30
0.0
  0
VERTEX
  5
F2
330
F1
100
AcDbEntity
  8
_U+30EC_U+30A4_U+30E4_U+30FC 1
370
     0
100
AcDbVertex
100
AcDb2dVertex
 10
98.25085039861438
 20
-155.9808322092687
 30
0.0
  0
VERTEX
  5
F3
330
F1
100
AcDbEntity
  8
_U+30EC_U+30A4_U+30E4_U+30FC 1
370
     0
100
AcDbVertex
100
AcDb2dVertex
 10
98.04345565040234
 20
-155.9808322092687
 30
0.0
  0
VERTEX
  5
F4
330
F1
100
AcDbEntity
  8
_U+30EC_U+30A4_U+30E4_U+30FC 1
370
     0
100
AcDbVertex
100
AcDb2dVertex
 10
98.04345565040234
 20
-156.1878824479322
 30
0.0
  0
VERTEX
  5
F5
330
F1
100
AcDbEntity
  8
_U+30EC_U+30A4_U+30E4_U+30FC 1
370
     0
100
AcDbVertex
100
AcDb2dVertex
 10
98.25085039861438
 20
-156.1878824479322
 30
0.0
  0
VERTEX
  5
F6
330
F1
100
AcDbEntity
  8
_U+30EC_U+30A4_U+30E4_U+30FC 1
370
     0
100
AcDbVertex
100
AcDb2dVertex
 10
98.25085039861438
 20
-155.9808322092687
 30
0.0
  0
SEQEND
  5
F7
330
F1
100
AcDbEntity
  8
_U+30EC_U+30A4_U+30E4_U+30FC 1
370
     0
  0
POLYLINE
  5
F8
330
C7
100
AcDbEntity
  8
_U+30EC_U+30A4_U+30E4_U+30FC 1
370
     0
100
AcDb2dPolyline
 66
     1
 10
0.0
 20
0.0
 30
0.0
  0
VERTEX
  5
F9
330
F8
100
AcDbEntity
  8
_U+30EC_U+30A4_U+30E4_U+30FC 1
370
     0
100
AcDbVertex
100
AcDb2dVertex
 10
98.61671953914791
 20
-155.6549261763641
 30
0.0
  0
VERTEX
  5
FA
330
F8
100
AcDbEntity
  8
_U+30EC_U+30A4_U+30E4_U+30FC 1
370
     0
100
AcDbVertex
100
AcDb2dVertex
 10
98.40519067635357
 20
-155.6549261763641
 30
0.0
  0
VERTEX
  5
FB
330
F8
100
AcDbEntity
  8
_U+30EC_U+30A4_U+30E4_U+30FC 1
370
     0
100
AcDbVertex
100
AcDb2dVertex
 10
98.40519067635357
 20
-155.8578423004453
 30
0.0
  0
VERTEX
  5
FC
330
F8
100
AcDbEntity
  8
_U+30EC_U+30A4_U+30E4_U+30FC 1
370
     0
100
AcDbVertex
100
AcDb2dVertex
 10
98.61671953914791
 20
-155.8578423004453
 30
0.0
  0
VERTEX
  5
FD
330
F8
100
AcDbEntity
  8
_U+30EC_U+30A4_U+30E4_U+30FC 1
370
     0
100
AcDbVertex
100
AcDb2dVertex
 10
98.61671953914791
 20
-155.6549261763641
 30
0.0
  0
SEQEND
  5
FE
330
F8
100
AcDbEntity
  8
_U+30EC_U+30A4_U+30E4_U+30FC 1
370
     0
  0
POLYLINE
  5
FF
330
C7
100
AcDbEntity
  8
_U+30EC_U+30A4_U+30E4_U+30FC 1
370
     0
100
AcDb2dPolyline
 66
     1
 10
0.0
 20
0.0
 30
0.0
  0
VERTEX
  5
100
330
FF
100
AcDbEntity
  8
_U+30EC_U+30A4_U+30E4_U+30FC 1
370
     0
100
AcDbVertex
100
AcDb2dVertex
 10
98.61671953914791
 20
-155.9808322092687
 30
0.0
  0
VERTEX
  5
101
330
FF
100
AcDbEntity
  8
_U+30EC_U+30A4_U+30E4_U+30FC 1
370
     0
100
AcDbVertex
100
AcDb2dVertex
 10
98.40519067635357
 20
-155.9808322092687
 30
0.0
  0
VERTEX
  5
102
330
FF
100
AcDbEntity
  8
_U+30EC_U+30A4_U+30E4_U+30FC 1
370
     0
100
AcDbVertex
100
AcDb2dVertex
 10
98.40519067635357
 20
-156.1878824479322
 30
0.0
  0
VERTEX
  5
103
330
FF
100
AcDbEntity
  8
_U+30EC_U+30A4_U+30E4_U+30FC 1
370
     0
100
AcDbVertex
100
AcDb2dVertex
 10
98.61671953914791
 20
-156.1878824479322
 30
0.0
  0
VERTEX
  5
104
330
FF
100
AcDbEntity
  8
_U+30EC_U+30A4_U+30E4_U+30FC 1
370
     0
100
AcDbVertex
100
AcDb2dVertex
 10
98.61671953914791
 20
-155.9808322092687
 30
0.0
  0
SEQEND
  5
105
330
FF
100
AcDbEntity
  8
_U+30EC_U+30A4_U+30E4_U+30FC 1
370
     0
  0
SPLINE
  5
106
330
C7
100
AcDbEntity
  8
_U+30EC_U+30A4_U+30E4_U+30FC 1
370
     0
100
AcDbSpline
210
0.0
220
0.0
230
1.0
 70
    11
 71
     3
 72
    38
 73
    34
 74
     0
 42
0.0000000001
 43
0.0000000001
 12
1.0
 22
0.0
 32
0.0
 13
1.0
 23
0.0
 33
0.0
 40
0.0
 40
0.0
 40
0.0
 40
0.0
 40
1.0
 40
1.0
 40
1.0
 40
2.0
 40
2.0
 40
2.0
 40
3.0
 40
3.0
 40
3.0
 40
4.0
 40
4.0
 40
4.0
 40
5.0
 40
5.0
 40
5.0
 40
6.0
 40
6.0
 40
6.0
 40
7.0
 40
7.0
 40
7.0
 40
8.0
 40
8.0
 40
8.0
 40
9.0
 40
9.0
 40
9.0
 40
10.0
 40
10.0
 40
10.0
 40
11.0
 40
11.0
 40
11.0
 40
11.0
 10
98.65909421361648
 20
-156.8693223349146
 30
0.0
 10
98.74160425048821
 20
-156.8162678644418
 30
0.0
 10
98.90662432423169
 20
-156.7084363757535
 30
0.0
 10
99.01238875562885
 20
-156.5010416275414
 30
0.0
 10
99.1605278614946
 20
-156.2092420399408
 30
0.0
 10
99.1605278614946
 20
-155.9828992665598
 30
0.0
 10
99.1605278614946
 20
-155.8981499176227
 30
0.0
 10
99.1605278614946
 20
-155.8981499176227
 30
0.0
 10
99.1605278614946
 20
-155.6635389150772
 30
0.0
 10
99.1605278614946
 20
-155.6635389150772
 30
0.0
 10
99.1605278614946
 20
-155.6635389150772
 30
0.0
 10
99.32554793523806
 20
-155.6635389150772
 30
0.0
 10
99.32554793523806
 20
-155.6635389150772
 30
0.0
 10
99.32554793523806
 20
-155.6635389150772
 30
0.0
 10
99.32554793523806
 20
-155.8898816884581
 30
0.0
 10
99.32554793523806
 20
-155.8898816884581
 30
0.0
 10
99.32554793523806
 20
-156.088663697957
 30
0.0
 10
99.3910047494578
 20
-156.3256862673422
 30
0.0
 10
99.49263506627268
 20
-156.4989745702503
 30
0.0
 10
99.60890703889986
 20
-156.6977565797492
 30
0.0
 10
99.73792586482247
 20
-156.7973198392729
 30
0.0
 10
99.82267521375961
 20
-156.8586425389103
 30
0.0
 10
99.82267521375961
 20
-156.8586425389103
 30
0.0
 10
99.71467147029703
 20
-157.0088487020672
 30
0.0
 10
99.71467147029703
 20
-157.0088487020672
 30
0.0
 10
99.5370767980324
 20
-156.8796576213704
 30
0.0
 10
99.33812253375922
 20
-156.640567994694
 30
0.0
 10
99.25991886624405
 20
-156.2874457074559
 30
0.0
 10
99.19428979725004
 20
-156.5265353341323
 30
0.0
 10
99.09283173520943
 20
-156.7952527819818
 30
0.0
 10
98.78397892495678
 20
-157.0047145874849
 30
0.0
 10
98.78397892495678
 20
-157.0047145874849
 30
0.0
 10
98.65909421361648
 20
-156.8693223349146
 30
0.0
 10
98.65909421361648
 20
-156.8693223349146
 30
0.0
  0
SPLINE
  5
107
330
C7
100
AcDbEntity
  8
_U+30EC_U+30A4_U+30E4_U+30FC 1
370
     0
100
AcDbSpline
210
0.0
220
0.0
230
1.0
 70
    11
 71
     3
 72
    38
 73
    34
 74
     0
 42
0.0000000001
 43
0.0000000001
 12
1.0
 22
0.0
 32
0.0
 13
1.0
 23
0.0
 33
0.0
 40
0.0
 40
0.0
 40
0.0
 40
0.0
 40
1.0
 40
1.0
 40
1.0
 40
2.0
 40
2.0
 40
2.0
 40
3.0
 40
3.0
 40
3.0
 40
4.0
 40
4.0
 40
4.0
 40
5.0
 40
5.0
 40
5.0
 40
6.0
 40
6.0
 40
6.0
 40
7.0
 40
7.0
 40
7.0
 40
8.0
 40
8.0
 40
8.0
 40
9.0
 40
9.0
 40
9.0
 40
10.0
 40
10.0
 40
10.0
 40
11.0
 40
11.0
 40
11.0
 40
11.0
 10
98.77329912895252
 20
-155.7965196008078
 30
0.0
 10
98.86648896182852
 20
-155.6738742015329
 30
0.0
 10
98.99120141839457
 20
-155.4940402172029
 30
0.0
 10
99.08645830856172
 20
-155.0454887850234
 30
0.0
 10
99.08645830856172
 20
-155.0454887850234
 30
0.0
 10
99.25354543959634
 20
-155.0647813197407
 30
0.0
 10
99.25354543959634
 20
-155.0647813197407
 30
0.0
 10
99.22822398777976
 20
-155.1853596617245
 30
0.0
 10
99.20496959325432
 20
-155.2763101825351
 30
0.0
 10
99.16672903336804
 20
-155.3841416712234
 30
0.0
 10
99.16672903336804
 20
-155.3841416712234
 30
0.0
 10
99.79511444987762
 20
-155.3841416712234
 30
0.0
 10
99.79511444987762
 20
-155.3841416712234
 30
0.0
 10
99.79511444987762
 20
-155.3841416712234
 30
0.0
 10
99.79511444987762
 20
-155.5364148916715
 30
0.0
 10
99.79511444987762
 20
-155.5364148916715
 30
0.0
 10
99.76135251412217
 20
-155.6783528256638
 30
0.0
 10
99.666095623955
 20
-155.936390477509
 30
0.0
 10
99.59202607102213
 20
-156.0549017622016
 30
0.0
 10
99.59202607102213
 20
-156.0549017622016
 30
0.0
 10
99.4397528505741
 20
-155.9763535851379
 30
0.0
 10
99.4397528505741
 20
-155.9763535851379
 30
0.0
 10
99.53483748596699
 20
-155.8409613325675
 30
0.0
 10
99.600466554961
 20
-155.6528591190729
 30
0.0
 10
99.628027318843
 20
-155.5426160635449
 30
0.0
 10
99.628027318843
 20
-155.5426160635449
 30
0.0
 10
99.10971270308715
 20
-155.5426160635449
 30
0.0
 10
99.10971270308715
 20
-155.5426160635449
 30
0.0
 10
99.0103216983377
 20
-155.7841172570609
 30
0.0
 10
98.93625214540484
 20
-155.8726562110319
 30
0.0
 10
98.89818384029282
 20
-155.9170979427916
 30
0.0
 10
98.89818384029282
 20
-155.9170979427916
 30
0.0
 10
98.77329912895252
 20
-155.7965196008078
 30
0.0
 10
98.77329912895252
 20
-155.7965196008078
 30
0.0
  0
HATCH
  5
108
330
C7
100
AcDbEntity
  8
_U+30EC_U+30A4_U+30E4_U+30FC 1
 62
    12
420
 15007761
100
AcDbHatch
 10
0.0
 20
0.0
 30
0.0
210
0.0
220
0.0
230
1.0
  2
SOLID
 70
     1
 71
     0
 91
        7
 92
        1
 93
       28
 72
     1
 10
98.25085039861438
 20
-155.2063747441845
 11
98.25085039861438
 21
-155.0454887850234
 72
     1
 10
98.25085039861438
 20
-155.0454887850234
 11
98.40519067635357
 21
-155.0454887850234
 72
     1
 10
98.40519067635357
 20
-155.0454887850234
 11
98.40519067635357
 21
-155.2063747441845
 72
     1
 10
98.40519067635357
 20
-155.2063747441845
 11
98.79879283554337
 21
-155.2063747441845
 72
     1
 10
98.79879283554337
 20
-155.2063747441845
 11
98.79879283554337
 21
-155.3607150219237
 72
     1
 10
98.79879283554337
 20
-155.3607150219237
 11
98.40519067635357
 21
-155.3607150219237
 72
     1
 10
98.40519067635357
 20
-155.3607150219237
 11
98.40519067635357
 21
-155.5153998092114
 72
     1
 10
98.40519067635357
 20
-155.5153998092114
 11
98.76055227565709
 21
-155.5153998092114
 72
     1
 10
98.76055227565709
 20
-155.5153998092114
 11
98.76055227565709
 21
-156.3277533246333
 72
     1
 10
98.76055227565709
 20
-156.3277533246333
 11
98.40519067635357
 21
-156.3277533246333
 72
     1
 10
98.40519067635357
 20
-156.3277533246333
 11
98.40519067635357
 21
-156.4969075129591
 72
     1
 10
98.40519067635357
 20
-156.4969075129591
 11
98.81360674612993
 21
-156.4969075129591
 72
     1
 10
98.81360674612993
 20
-156.4969075129591
 11
98.81360674612993
 21
-156.6512477906983
 72
     1
 10
98.81360674612993
 20
-156.6512477906983
 11
98.40519067635357
 21
-156.6512477906983
 72
     1
 10
98.40519067635357
 20
-156.6512477906983
 11
98.40519067635357
 21
-157.0047145874849
 72
     1
 10
98.40519067635357
 20
-157.0047145874849
 11
98.25085039861438
 21
-157.0047145874849
 72
     1
 10
98.25085039861438
 20
-157.0047145874849
 11
98.25085039861438
 21
-156.6512477906983
 72
     1
 10
98.25085039861438
 20
-156.6512477906983
 11
97.84036727154685
 21
-156.6512477906983
 72
     1
 10
97.84036727154685
 20
-156.6512477906983
 11
97.84036727154685
 21
-156.4969075129591
 72
     1
 10
97.84036727154685
 20
-156.4969075129591
 11
98.25085039861438
 21
-156.4969075129591
 72
     1
 10
98.25085039861438
 20
-156.4969075129591
 11
98.25085039861438
 21
-156.3277533246333
 72
     1
 10
98.25085039861438
 20
-156.3277533246333
 11
97.90168997118431
 21
-156.3277533246333
 72
     1
 10
97.90168997118431
 20
-156.3277533246333
 11
97.90168997118431
 21
-155.5153998092114
 72
     1
 10
97.90168997118431
 20
-155.5153998092114
 11
98.25085039861438
 21
-155.5153998092114
 72
     1
 10
98.25085039861438
 20
-155.5153998092114
 11
98.25085039861438
 21
-155.3607150219237
 72
     1
 10
98.25085039861438
 20
-155.3607150219237
 11
97.86155460878115
 21
-155.3607150219237
 72
     1
 10
97.86155460878115
 20
-155.3607150219237
 11
97.86155460878115
 21
-155.2063747441845
 72
     1
 10
97.86155460878115
 20
-155.2063747441845
 11
98.25085039861438
 21
-155.2063747441845
 97
        0
 92
        1
 93
        4
 72
     1
 10
98.25085039861438
 20
-155.6549261763641
 11
98.04345565040234
 21
-155.6549261763641
 72
     1
 10
98.04345565040234
 20
-155.6549261763641
 11
98.04345565040234
 21
-155.8578423004453
 72
     1
 10
98.04345565040234
 20
-155.8578423004453
 11
98.25085039861438
 21
-155.8578423004453
 72
     1
 10
98.25085039861438
 20
-155.8578423004453
 11
98.25085039861438
 21
-155.6549261763641
 97
        0
 92
        1
 93
        4
 72
     1
 10
98.25085039861438
 20
-155.9808322092687
 11
98.04345565040234
 21
-155.9808322092687
 72
     1
 10
98.04345565040234
 20
-155.9808322092687
 11
98.04345565040234
 21
-156.1878824479322
 72
     1
 10
98.04345565040234
 20
-156.1878824479322
 11
98.25085039861438
 21
-156.1878824479322
 72
     1
 10
98.25085039861438
 20
-156.1878824479322
 11
98.25085039861438
 21
-155.9808322092687
 97
        0
 92
        1
 93
        4
 72
     1
 10
98.61671953914791
 20
-155.6549261763641
 11
98.40519067635357
 21
-155.6549261763641
 72
     1
 10
98.40519067635357
 20
-155.6549261763641
 11
98.40519067635357
 21
-155.8578423004453
 72
     1
 10
98.40519067635357
 20
-155.8578423004453
 11
98.61671953914791
 21
-155.8578423004453
 72
     1
 10
98.61671953914791
 20
-155.8578423004453
 11
98.61671953914791
 21
-155.6549261763641
 97
        0
 92
        1
 93
        4
 72
     1
 10
98.61671953914791
 20
-155.9808322092687
 11
98.40519067635357
 21
-155.9808322092687
 72
     1
 10
98.40519067635357
 20
-155.9808322092687
 11
98.40519067635357
 21
-156.1878824479322
 72
     1
 10
98.40519067635357
 20
-156.1878824479322
 11
98.61671953914791
 21
-156.1878824479322
 72
     1
 10
98.61671953914791
 20
-156.1878824479322
 11
98.61671953914791
 21
-155.9808322092687
 97
        0
 92
        1
 93
        1
 72
     4
 94
        3
 73
     0
 74
     1
 95
       38
 96
       34
 40
0.0
 40
0.0
 40
0.0
 40
0.0
 40
1.0
 40
1.0
 40
1.0
 40
2.0
 40
2.0
 40
2.0
 40
3.0
 40
3.0
 40
3.0
 40
4.0
 40
4.0
 40
4.0
 40
5.0
 40
5.0
 40
5.0
 40
6.0
 40
6.0
 40
6.0
 40
7.0
 40
7.0
 40
7.0
 40
8.0
 40
8.0
 40
8.0
 40
9.0
 40
9.0
 40
9.0
 40
10.0
 40
10.0
 40
10.0
 40
11.0
 40
11.0
 40
11.0
 40
11.0
 10
98.65909421361648
 20
-156.8693223349146
 10
98.74160425048821
 20
-156.8162678644418
 10
98.90662432423169
 20
-156.7084363757535
 10
99.01238875562885
 20
-156.5010416275414
 10
99.1605278614946
 20
-156.2092420399408
 10
99.1605278614946
 20
-155.9828992665598
 10
99.1605278614946
 20
-155.8981499176227
 10
99.1605278614946
 20
-155.8981499176227
 10
99.1605278614946
 20
-155.6635389150772
 10
99.1605278614946
 20
-155.6635389150772
 10
99.1605278614946
 20
-155.6635389150772
 10
99.32554793523806
 20
-155.6635389150772
 10
99.32554793523806
 20
-155.6635389150772
 10
99.32554793523806
 20
-155.6635389150772
 10
99.32554793523806
 20
-155.8898816884581
 10
99.32554793523806
 20
-155.8898816884581
 10
99.32554793523806
 20
-156.088663697957
 10
99.3910047494578
 20
-156.3256862673422
 10
99.49263506627268
 20
-156.4989745702503
 10
99.60890703889986
 20
-156.6977565797492
 10
99.73792586482247
 20
-156.7973198392729
 10
99.82267521375961
 20
-156.8586425389103
 10
99.82267521375961
 20
-156.8586425389103
 10
99.71467147029703
 20
-157.0088487020672
 10
99.71467147029703
 20
-157.0088487020672
 10
99.5370767980324
 20
-156.8796576213704
 10
99.33812253375922
 20
-156.640567994694
 10
99.25991886624405
 20
-156.2874457074559
 10
99.19428979725004
 20
-156.5265353341323
 10
99.09283173520943
 20
-156.7952527819818
 10
98.78397892495678
 20
-157.0047145874849
 10
98.78397892495678
 20
-157.0047145874849
 10
98.65909421361648
 20
-156.8693223349146
 10
98.65909421361648
 20
-156.8693223349146
 97
        0
 97
        0
 92
        1
 93
        1
 72
     4
 94
        3
 73
     0
 74
     1
 95
       38
 96
       34
 40
0.0
 40
0.0
 40
0.0
 40
0.0
 40
1.0
 40
1.0
 40
1.0
 40
2.0
 40
2.0
 40
2.0
 40
3.0
 40
3.0
 40
3.0
 40
4.0
 40
4.0
 40
4.0
 40
5.0
 40
5.0
 40
5.0
 40
6.0
 40
6.0
 40
6.0
 40
7.0
 40
7.0
 40
7.0
 40
8.0
 40
8.0
 40
8.0
 40
9.0
 40
9.0
 40
9.0
 40
10.0
 40
10.0
 40
10.0
 40
11.0
 40
11.0
 40
11.0
 40
11.0
 10
98.77329912895252
 20
-155.7965196008078
 10
98.86648896182852
 20
-155.6738742015329
 10
98.99120141839457
 20
-155.4940402172029
 10
99.08645830856172
 20
-155.0454887850234
 10
99.08645830856172
 20
-155.0454887850234
 10
99.25354543959634
 20
-155.0647813197407
 10
99.25354543959634
 20
-155.0647813197407
 10
99.22822398777976
 20
-155.1853596617245
 10
99.20496959325432
 20
-155.2763101825351
 10
99.16672903336804
 20
-155.3841416712234
 10
99.16672903336804
 20
-155.3841416712234
 10
99.79511444987762
 20
-155.3841416712234
 10
99.79511444987762
 20
-155.3841416712234
 10
99.79511444987762
 20
-155.3841416712234
 10
99.79511444987762
 20
-155.5364148916715
 10
99.79511444987762
 20
-155.5364148916715
 10
99.76135251412217
 20
-155.6783528256638
 10
99.666095623955
 20
-155.936390477509
 10
99.59202607102213
 20
-156.0549017622016
 10
99.59202607102213
 20
-156.0549017622016
 10
99.4397528505741
 20
-155.9763535851379
 10
99.4397528505741
 20
-155.9763535851379
 10
99.53483748596699
 20
-155.8409613325675
 10
99.600466554961
 20
-155.6528591190729
 10
99.628027318843
 20
-155.5426160635449
 10
99.628027318843
 20
-155.5426160635449
 10
99.10971270308715
 20
-155.5426160635449
 10
99.10971270308715
 20
-155.5426160635449
 10
99.0103216983377
 20
-155.7841172570609
 10
98.93625214540484
 20
-155.8726562110319
 10
98.89818384029282
 20
-155.9170979427916
 10
98.89818384029282
 20
-155.9170979427916
 10
98.77329912895252
 20
-155.7965196008078
 10
98.77329912895252
 20
-155.7965196008078
 97
        0
 97
        0
 75
     2
 76
     1
 98
        0
  0
SPLINE
  5
109
330
C7
100
AcDbEntity
  8
_U+30EC_U+30A4_U+30E4_U+30FC 1
370
     0
100
AcDbSpline
210
0.0
220
0.0
230
1.0
 70
    11
 71
     3
 72
    50
 73
    46
 74
     0
 42
0.0000000001
 43
0.0000000001
 12
1.0
 22
0.0
 32
0.0
 13
1.0
 23
0.0
 33
0.0
 40
0.0
 40
0.0
 40
0.0
 40
0.0
 40
1.0
 40
1.0
 40
1.0
 40
2.0
 40
2.0
 40
2.0
 40
3.0
 40
3.0
 40
3.0
 40
4.0
 40
4.0
 40
4.0
 40
5.0
 40
5.0
 40
5.0
 40
6.0
 40
6.0
 40
6.0
 40
7.0
 40
7.0
 40
7.0
 40
8.0
 40
8.0
 40
8.0
 40
9.0
 40
9.0
 40
9.0
 40
10.0
 40
10.0
 40
10.0
 40
11.0
 40
11.0
 40
11.0
 40
12.0
 40
12.0
 40
12.0
 40
13.0
 40
13.0
 40
13.0
 40
14.0
 40
14.0
 40
14.0
 40
15.0
 40
15.0
 40
15.0
 40
15.0
 10
100.2679538052282
 20
-155.343834054046
 30
0.0
 10
100.2679538052282
 20
-155.343834054046
 30
0.0
 10
100.9195936162632
 20
-155.343834054046
 30
0.0
 10
100.9195936162632
 20
-155.343834054046
 30
0.0
 10
100.9195936162632
 20
-155.343834054046
 30
0.0
 10
100.9195936162632
 20
-155.4688910201606
 30
0.0
 10
100.9195936162632
 20
-155.4688910201606
 30
0.0
 10
100.9195936162632
 20
-155.4688910201606
 30
0.0
 10
100.6424356844748
 20
-155.4688910201606
 30
0.0
 10
100.6424356844748
 20
-155.4688910201606
 30
0.0
 10
100.6424356844748
 20
-155.4688910201606
 30
0.0
 10
100.6424356844748
 20
-155.7438096398835
 30
0.0
 10
100.6424356844748
 20
-155.7438096398835
 30
0.0
 10
100.6424356844748
 20
-155.7438096398835
 30
0.0
 10
100.4817219800879
 20
-155.7438096398835
 30
0.0
 10
100.4817219800879
 20
-155.7438096398835
 30
0.0
 10
100.4817219800879
 20
-155.7438096398835
 30
0.0
 10
100.4817219800879
 20
-155.4688910201606
 30
0.0
 10
100.4817219800879
 20
-155.4688910201606
 30
0.0
 10
100.4817219800879
 20
-155.4688910201606
 30
0.0
 10
100.2617526333547
 20
-155.4688910201606
 30
0.0
 10
100.2617526333547
 20
-155.4688910201606
 30
0.0
 10
100.2510728373504
 20
-155.5384819489626
 30
0.0
 10
100.2257513855338
 20
-155.7331298438792
 30
0.0
 10
100.0712388530204
 20
-155.8833360070361
 30
0.0
 10
100.0712388530204
 20
-155.8833360070361
 30
0.0
 10
99.94859345374549
 20
-155.7734374610567
 30
0.0
 10
99.94859345374549
 20
-155.7734374610567
 30
0.0
 10
100.0691717957292
 20
-155.6738742015329
 30
0.0
 10
100.1115464701978
 20
-155.4688910201606
 30
0.0
 10
100.1115464701978
 20
-155.3862087285146
 30
0.0
 10
100.1115464701978
 20
-155.3862087285146
 30
0.0
 10
100.1115464701978
 20
-155.1006103127874
 30
0.0
 10
100.1115464701978
 20
-155.1006103127874
 30
0.0
 10
100.5959268954239
 20
-155.1006103127874
 30
0.0
 10
100.7504394279374
 20
-155.0541015237365
 30
0.0
 10
100.8455240633303
 20
-155.0265407598545
 30
0.0
 10
100.8455240633303
 20
-155.0265407598545
 30
0.0
 10
100.8984062790289
 20
-155.1660671270071
 30
0.0
 10
100.8984062790289
 20
-155.1660671270071
 30
0.0
 10
100.6889444735257
 20
-155.2149874828976
 30
0.0
 10
100.5261637118476
 20
-155.2253227693534
 30
0.0
 10
100.2679538052282
 20
-155.2298013934842
 30
0.0
 10
100.2679538052282
 20
-155.2298013934842
 30
0.0
 10
100.2679538052282
 20
-155.343834054046
 30
0.0
 10
100.2679538052282
 20
-155.343834054046
 30
0.0
  0
SPLINE
  5
10A
330
C7
100
AcDbEntity
  8
_U+30EC_U+30A4_U+30E4_U+30FC 1
370
     0
100
AcDbSpline
210
0.0
220
0.0
230
1.0
 70
    11
 71
     3
 72
    32
 73
    28
 74
     0
 42
0.0000000001
 43
0.0000000001
 12
1.0
 22
0.0
 32
0.0
 13
1.0
 23
0.0
 33
0.0
 40
0.0
 40
0.0
 40
0.0
 40
0.0
 40
1.0
 40
1.0
 40
1.0
 40
2.0
 40
2.0
 40
2.0
 40
3.0
 40
3.0
 40
3.0
 40
4.0
 40
4.0
 40
4.0
 40
5.0
 40
5.0
 40
5.0
 40
6.0
 40
6.0
 40
6.0
 40
7.0
 40
7.0
 40
7.0
 40
8.0
 40
8.0
 40
8.0
 40
9.0
 40
9.0
 40
9.0
 40
9.0
 10
100.1833767110653
 20
-156.6894883505846
 30
0.0
 10
100.1833767110653
 20
-156.6894883505846
 30
0.0
 10
100.1833767110653
 20
-155.7903184289344
 30
0.0
 10
100.1833767110653
 20
-155.7903184289344
 30
0.0
 10
100.1833767110653
 20
-155.7903184289344
 30
0.0
 10
101.6811319732776
 20
-155.7903184289344
 30
0.0
 10
101.6811319732776
 20
-155.7903184289344
 30
0.0
 10
101.6811319732776
 20
-155.7903184289344
 30
0.0
 10
101.6811319732776
 20
-156.6894883505846
 30
0.0
 10
101.6811319732776
 20
-156.6894883505846
 30
0.0
 10
101.6811319732776
 20
-156.6894883505846
 30
0.0
 10
100.5366712530776
 20
-156.6894883505846
 30
0.0
 10
100.5366712530776
 20
-156.6894883505846
 30
0.0
 10
100.5366712530776
 20
-156.6894883505846
 30
0.0
 10
100.6424356844748
 20
-156.799386896564
 30
0.0
 10
100.6424356844748
 20
-156.799386896564
 30
0.0
 10
100.4774156107313
 20
-156.894471531957
 30
0.0
 10
100.3123955369879
 20
-156.9557942315944
 30
0.0
 10
100.0162895800307
 20
-157.0067816447761
 30
0.0
 10
100.0162895800307
 20
-157.0067816447761
 30
0.0
 10
99.95066051103665
 20
-156.8545084243281
 30
0.0
 10
99.95066051103665
 20
-156.8545084243281
 30
0.0
 10
100.3294487596399
 20
-156.8014539538552
 30
0.0
 10
100.4520941589148
 20
-156.7339300823443
 30
0.0
 10
100.5325371384953
 20
-156.6894883505846
 30
0.0
 10
100.5325371384953
 20
-156.6894883505846
 30
0.0
 10
100.1833767110653
 20
-156.6894883505846
 30
0.0
 10
100.1833767110653
 20
-156.6894883505846
 30
0.0
  0
POLYLINE
  5
10B
330
C7
100
AcDbEntity
  8
_U+30EC_U+30A4_U+30E4_U+30FC 1
370
     0
100
AcDb2dPolyline
 66
     1
 10
0.0
 20
0.0
 30
0.0
  0
VERTEX
  5
10C
330
10B
100
AcDbEntity
  8
_U+30EC_U+30A4_U+30E4_U+30FC 1
370
     0
100
AcDbVertex
100
AcDb2dVertex
 10
101.5119777849519
 20
-155.9236436242136
 30
0.0
  0
VERTEX
  5
10D
330
10B
100
AcDbEntity
  8
_U+30EC_U+30A4_U+30E4_U+30FC 1
370
     0
100
AcDbVertex
100
AcDb2dVertex
 10
100.3527031541653
 20
-155.9236436242136
 30
0.0
  0
VERTEX
  5
10E
330
10B
100
AcDbEntity
  8
_U+30EC_U+30A4_U+30E4_U+30FC 1
370
     0
100
AcDbVertex
100
AcDb2dVertex
 10
100.3527031541653
 20
-156.0524901953619
 30
0.0
  0
VERTEX
  5
10F
330
10B
100
AcDbEntity
  8
_U+30EC_U+30A4_U+30E4_U+30FC 1
370
     0
100
AcDbVertex
100
AcDb2dVertex
 10
101.5119777849519
 20
-156.0524901953619
 30
0.0
  0
VERTEX
  5
110
330
10B
100
AcDbEntity
  8
_U+30EC_U+30A4_U+30E4_U+30FC 1
370
     0
100
AcDbVertex
100
AcDb2dVertex
 10
101.5119777849519
 20
-155.9236436242136
 30
0.0
  0
SEQEND
  5
111
330
10B
100
AcDbEntity
  8
_U+30EC_U+30A4_U+30E4_U+30FC 1
370
     0
  0
POLYLINE
  5
112
330
C7
100
AcDbEntity
  8
_U+30EC_U+30A4_U+30E4_U+30FC 1
370
     0
100
AcDb2dPolyline
 66
     1
 10
0.0
 20
0.0
 30
0.0
  0
VERTEX
  5
113
330
112
100
AcDbEntity
  8
_U+30EC_U+30A4_U+30E4_U+30FC 1
370
     0
100
AcDbVertex
100
AcDb2dVertex
 10
101.5119777849519
 20
-156.1627332508899
 30
0.0
  0
VERTEX
  5
114
330
112
100
AcDbEntity
  8
_U+30EC_U+30A4_U+30E4_U+30FC 1
370
     0
100
AcDbVertex
100
AcDb2dVertex
 10
100.3527031541653
 20
-156.1627332508899
 30
0.0
  0
VERTEX
  5
115
330
112
100
AcDbEntity
  8
_U+30EC_U+30A4_U+30E4_U+30FC 1
370
     0
100
AcDbVertex
100
AcDb2dVertex
 10
100.3527031541653
 20
-156.3043266753336
 30
0.0
  0
VERTEX
  5
116
330
112
100
AcDbEntity
  8
_U+30EC_U+30A4_U+30E4_U+30FC 1
370
     0
100
AcDbVertex
100
AcDb2dVertex
 10
101.5119777849519
 20
-156.3043266753336
 30
0.0
  0
VERTEX
  5
117
330
112
100
AcDbEntity
  8
_U+30EC_U+30A4_U+30E4_U+30FC 1
370
     0
100
AcDbVertex
100
AcDb2dVertex
 10
101.5119777849519
 20
-156.1627332508899
 30
0.0
  0
SEQEND
  5
118
330
112
100
AcDbEntity
  8
_U+30EC_U+30A4_U+30E4_U+30FC 1
370
     0
  0
POLYLINE
  5
119
330
C7
100
AcDbEntity
  8
_U+30EC_U+30A4_U+30E4_U+30FC 1
370
     0
100
AcDb2dPolyline
 66
     1
 10
0.0
 20
0.0
 30
0.0
  0
VERTEX
  5
11A
330
119
100
AcDbEntity
  8
_U+30EC_U+30A4_U+30E4_U+30FC 1
370
     0
100
AcDbVertex
100
AcDb2dVertex
 10
101.5119777849519
 20
-156.4142252213131
 30
0.0
  0
VERTEX
  5
11B
330
119
100
AcDbEntity
  8
_U+30EC_U+30A4_U+30E4_U+30FC 1
370
     0
100
AcDbVertex
100
AcDb2dVertex
 10
100.3527031541653
 20
-156.4142252213131
 30
0.0
  0
VERTEX
  5
11C
330
119
100
AcDbEntity
  8
_U+30EC_U+30A4_U+30E4_U+30FC 1
370
     0
100
AcDbVertex
100
AcDb2dVertex
 10
100.3527031541653
 20
-156.5540960980143
 30
0.0
  0
VERTEX
  5
11D
330
119
100
AcDbEntity
  8
_U+30EC_U+30A4_U+30E4_U+30FC 1
370
     0
100
AcDbVertex
100
AcDb2dVertex
 10
101.5119777849519
 20
-156.5540960980143
 30
0.0
  0
VERTEX
  5
11E
330
119
100
AcDbEntity
  8
_U+30EC_U+30A4_U+30E4_U+30FC 1
370
     0
100
AcDbVertex
100
AcDb2dVertex
 10
101.5119777849519
 20
-156.4142252213131
 30
0.0
  0
SEQEND
  5
11F
330
119
100
AcDbEntity
  8
_U+30EC_U+30A4_U+30E4_U+30FC 1
370
     0
  0
SPLINE
  5
120
330
C7
100
AcDbEntity
  8
_U+30EC_U+30A4_U+30E4_U+30FC 1
370
     0
100
AcDbSpline
210
0.0
220
0.0
230
1.0
 70
    11
 71
     3
 72
    50
 73
    46
 74
     0
 42
0.0000000001
 43
0.0000000001
 12
1.0
 22
0.0
 32
0.0
 13
1.0
 23
0.0
 33
0.0
 40
0.0
 40
0.0
 40
0.0
 40
0.0
 40
1.0
 40
1.0
 40
1.0
 40
2.0
 40
2.0
 40
2.0
 40
3.0
 40
3.0
 40
3.0
 40
4.0
 40
4.0
 40
4.0
 40
5.0
 40
5.0
 40
5.0
 40
6.0
 40
6.0
 40
6.0
 40
7.0
 40
7.0
 40
7.0
 40
8.0
 40
8.0
 40
8.0
 40
9.0
 40
9.0
 40
9.0
 40
10.0
 40
10.0
 40
10.0
 40
11.0
 40
11.0
 40
11.0
 40
12.0
 40
12.0
 40
12.0
 40
13.0
 40
13.0
 40
13.0
 40
14.0
 40
14.0
 40
14.0
 40
15.0
 40
15.0
 40
15.0
 40
15.0
 10
101.1755642108172
 20
-155.343834054046
 30
0.0
 10
101.1755642108172
 20
-155.343834054046
 30
0.0
 10
101.9117811160151
 20
-155.343834054046
 30
0.0
 10
101.9117811160151
 20
-155.343834054046
 30
0.0
 10
101.9117811160151
 20
-155.343834054046
 30
0.0
 10
101.9117811160151
 20
-155.4688910201606
 30
0.0
 10
101.9117811160151
 20
-155.4688910201606
 30
0.0
 10
101.9117811160151
 20
-155.4688910201606
 30
0.0
 10
101.5817409685282
 20
-155.4688910201606
 30
0.0
 10
101.5817409685282
 20
-155.4688910201606
 30
0.0
 10
101.5817409685282
 20
-155.4688910201606
 30
0.0
 10
101.5817409685282
 20
-155.7438096398835
 30
0.0
 10
101.5817409685282
 20
-155.7438096398835
 30
0.0
 10
101.5817409685282
 20
-155.7438096398835
 30
0.0
 10
101.4251613787236
 20
-155.7438096398835
 30
0.0
 10
101.4251613787236
 20
-155.7438096398835
 30
0.0
 10
101.4251613787236
 20
-155.7438096398835
 30
0.0
 10
101.4251613787236
 20
-155.4688910201606
 30
0.0
 10
101.4251613787236
 20
-155.4688910201606
 30
0.0
 10
101.4251613787236
 20
-155.4688910201606
 30
0.0
 10
101.1607503002306
 20
-155.4688910201606
 30
0.0
 10
101.1607503002306
 20
-155.4688910201606
 30
0.0
 10
101.1354288484141
 20
-155.5977375913089
 30
0.0
 10
101.0846136900066
 20
-155.6886881121195
 30
0.0
 10
100.9872897425483
 20
-155.7713704037655
 30
0.0
 10
100.9872897425483
 20
-155.7713704037655
 30
0.0
 10
100.8646443432734
 20
-155.6635389150772
 30
0.0
 10
100.8646443432734
 20
-155.6635389150772
 30
0.0
 10
101.0000365958437
 20
-155.5532958595492
 30
0.0
 10
101.0232909903692
 20
-155.4158365496877
 30
0.0
 10
101.0232909903692
 20
-155.3417669967548
 30
0.0
 10
101.0232909903692
 20
-155.3417669967548
 30
0.0
 10
101.0232909903692
 20
-155.0985432554962
 30
0.0
 10
101.0232909903692
 20
-155.0985432554962
 30
0.0
 10
101.4928575050087
 20
-155.0985432554962
 30
0.0
 10
101.6601168908176
 20
-155.0582356383188
 30
0.0
 10
101.8039496273268
 20
-155.0158609638502
 30
0.0
 10
101.8039496273268
 20
-155.0158609638502
 30
0.0
 10
101.8632052696731
 20
-155.1536647832602
 30
0.0
 10
101.8632052696731
 20
-155.1536647832602
 30
0.0
 10
101.5924207645324
 20
-155.2232557120622
 30
0.0
 10
101.2771945276321
 20
-155.2277343361931
 30
0.0
 10
101.1755642108172
 20
-155.2277343361931
 30
0.0
 10
101.1755642108172
 20
-155.2277343361931
 30
0.0
 10
101.1755642108172
 20
-155.343834054046
 30
0.0
 10
101.1755642108172
 20
-155.343834054046
 30
0.0
  0
SPLINE
  5
121
330
C7
100
AcDbEntity
  8
_U+30EC_U+30A4_U+30E4_U+30FC 1
370
     0
100
AcDbSpline
210
0.0
220
0.0
230
1.0
 70
    11
 71
     3
 72
    17
 73
    13
 74
     0
 42
0.0000000001
 43
0.0000000001
 12
1.0
 22
0.0
 32
0.0
 13
1.0
 23
0.0
 33
0.0
 40
0.0
 40
0.0
 40
0.0
 40
0.0
 40
1.0
 40
1.0
 40
1.0
 40
2.0
 40
2.0
 40
2.0
 40
3.0
 40
3.0
 40
3.0
 40
4.0
 40
4.0
 40
4.0
 40
4.0
 10
101.2877020688621
 20
-156.695689522458
 30
0.0
 10
101.5076714155953
 20
-156.8079996352772
 30
0.0
 10
101.7743218061537
 20
-156.8458956856149
 30
0.0
 10
101.9033406320763
 20
-156.8565754816192
 30
0.0
 10
101.9033406320763
 20
-156.8565754816192
 30
0.0
 10
101.8335774484999
 20
-157.0109157593584
 30
0.0
 10
101.8335774484999
 20
-157.0109157593584
 30
0.0
 10
101.7129991065162
 20
-156.9961018487718
 30
0.0
 10
101.4506550853144
 20
-156.9557942315944
 30
0.0
 10
101.1862440068215
 20
-156.8100666925683
 30
0.0
 10
101.1862440068215
 20
-156.8100666925683
 30
0.0
 10
101.2877020688621
 20
-156.695689522458
 30
0.0
 10
101.2877020688621
 20
-156.695689522458
 30
0.0
  0
HATCH
  5
122
330
C7
100
AcDbEntity
  8
_U+30EC_U+30A4_U+30E4_U+30FC 1
 62
    12
420
 15007761
100
AcDbHatch
 10
0.0
 20
0.0
 30
0.0
210
0.0
220
0.0
230
1.0
  2
SOLID
 70
     1
 71
     0
 91
        7
 92
        1
 93
        1
 72
     4
 94
        3
 73
     0
 74
     1
 95
       50
 96
       46
 40
0.0
 40
0.0
 40
0.0
 40
0.0
 40
1.0
 40
1.0
 40
1.0
 40
2.0
 40
2.0
 40
2.0
 40
3.0
 40
3.0
 40
3.0
 40
4.0
 40
4.0
 40
4.0
 40
5.0
 40
5.0
 40
5.0
 40
6.0
 40
6.0
 40
6.0
 40
7.0
 40
7.0
 40
7.0
 40
8.0
 40
8.0
 40
8.0
 40
9.0
 40
9.0
 40
9.0
 40
10.0
 40
10.0
 40
10.0
 40
11.0
 40
11.0
 40
11.0
 40
12.0
 40
12.0
 40
12.0
 40
13.0
 40
13.0
 40
13.0
 40
14.0
 40
14.0
 40
14.0
 40
15.0
 40
15.0
 40
15.0
 40
15.0
 10
100.2679538052282
 20
-155.343834054046
 10
100.2679538052282
 20
-155.343834054046
 10
100.9195936162632
 20
-155.343834054046
 10
100.9195936162632
 20
-155.343834054046
 10
100.9195936162632
 20
-155.343834054046
 10
100.9195936162632
 20
-155.4688910201606
 10
100.9195936162632
 20
-155.4688910201606
 10
100.9195936162632
 20
-155.4688910201606
 10
100.6424356844748
 20
-155.4688910201606
 10
100.6424356844748
 20
-155.4688910201606
 10
100.6424356844748
 20
-155.4688910201606
 10
100.6424356844748
 20
-155.7438096398835
 10
100.6424356844748
 20
-155.7438096398835
 10
100.6424356844748
 20
-155.7438096398835
 10
100.4817219800879
 20
-155.7438096398835
 10
100.4817219800879
 20
-155.7438096398835
 10
100.4817219800879
 20
-155.7438096398835
 10
100.4817219800879
 20
-155.4688910201606
 10
100.4817219800879
 20
-155.4688910201606
 10
100.4817219800879
 20
-155.4688910201606
 10
100.2617526333547
 20
-155.4688910201606
 10
100.2617526333547
 20
-155.4688910201606
 10
100.2510728373504
 20
-155.5384819489626
 10
100.2257513855338
 20
-155.7331298438792
 10
100.0712388530204
 20
-155.8833360070361
 10
100.0712388530204
 20
-155.8833360070361
 10
99.94859345374549
 20
-155.7734374610567
 10
99.94859345374549
 20
-155.7734374610567
 10
100.0691717957292
 20
-155.6738742015329
 10
100.1115464701978
 20
-155.4688910201606
 10
100.1115464701978
 20
-155.3862087285146
 10
100.1115464701978
 20
-155.3862087285146
 10
100.1115464701978
 20
-155.1006103127874
 10
100.1115464701978
 20
-155.1006103127874
 10
100.5959268954239
 20
-155.1006103127874
 10
100.7504394279374
 20
-155.0541015237365
 10
100.8455240633303
 20
-155.0265407598545
 10
100.8455240633303
 20
-155.0265407598545
 10
100.8984062790289
 20
-155.1660671270071
 10
100.8984062790289
 20
-155.1660671270071
 10
100.6889444735257
 20
-155.2149874828976
 10
100.5261637118476
 20
-155.2253227693534
 10
100.2679538052282
 20
-155.2298013934842
 10
100.2679538052282
 20
-155.2298013934842
 10
100.2679538052282
 20
-155.343834054046
 10
100.2679538052282
 20
-155.343834054046
 97
        0
 97
        0
 92
        1
 93
        1
 72
     4
 94
        3
 73
     0
 74
     1
 95
       32
 96
       28
 40
0.0
 40
0.0
 40
0.0
 40
0.0
 40
1.0
 40
1.0
 40
1.0
 40
2.0
 40
2.0
 40
2.0
 40
3.0
 40
3.0
 40
3.0
 40
4.0
 40
4.0
 40
4.0
 40
5.0
 40
5.0
 40
5.0
 40
6.0
 40
6.0
 40
6.0
 40
7.0
 40
7.0
 40
7.0
 40
8.0
 40
8.0
 40
8.0
 40
9.0
 40
9.0
 40
9.0
 40
9.0
 10
100.1833767110653
 20
-156.6894883505846
 10
100.1833767110653
 20
-156.6894883505846
 10
100.1833767110653
 20
-155.7903184289344
 10
100.1833767110653
 20
-155.7903184289344
 10
100.1833767110653
 20
-155.7903184289344
 10
101.6811319732776
 20
-155.7903184289344
 10
101.6811319732776
 20
-155.7903184289344
 10
101.6811319732776
 20
-155.7903184289344
 10
101.6811319732776
 20
-156.6894883505846
 10
101.6811319732776
 20
-156.6894883505846
 10
101.6811319732776
 20
-156.6894883505846
 10
100.5366712530776
 20
-156.6894883505846
 10
100.5366712530776
 20
-156.6894883505846
 10
100.5366712530776
 20
-156.6894883505846
 10
100.6424356844748
 20
-156.799386896564
 10
100.6424356844748
 20
-156.799386896564
 10
100.4774156107313
 20
-156.894471531957
 10
100.3123955369879
 20
-156.9557942315944
 10
100.0162895800307
 20
-157.0067816447761
 10
100.0162895800307
 20
-157.0067816447761
 10
99.95066051103665
 20
-156.8545084243281
 10
99.95066051103665
 20
-156.8545084243281
 10
100.3294487596399
 20
-156.8014539538552
 10
100.4520941589148
 20
-156.7339300823443
 10
100.5325371384953
 20
-156.6894883505846
 10
100.5325371384953
 20
-156.6894883505846
 10
100.1833767110653
 20
-156.6894883505846
 10
100.1833767110653
 20
-156.6894883505846
 97
        0
 97
        0
 92
        1
 93
        4
 72
     1
 10
101.5119777849519
 20
-155.9236436242136
 11
100.3527031541653
 21
-155.9236436242136
 72
     1
 10
100.3527031541653
 20
-155.9236436242136
 11
100.3527031541653
 21
-156.0524901953619
 72
     1
 10
100.3527031541653
 20
-156.0524901953619
 11
101.5119777849519
 21
-156.0524901953619
 72
     1
 10
101.5119777849519
 20
-156.0524901953619
 11
101.5119777849519
 21
-155.9236436242136
 97
        0
 92
        1
 93
        4
 72
     1
 10
101.5119777849519
 20
-156.1627332508899
 11
100.3527031541653
 21
-156.1627332508899
 72
     1
 10
100.3527031541653
 20
-156.1627332508899
 11
100.3527031541653
 21
-156.3043266753336
 72
     1
 10
100.3527031541653
 20
-156.3043266753336
 11
101.5119777849519
 21
-156.3043266753336
 72
     1
 10
101.5119777849519
 20
-156.3043266753336
 11
101.5119777849519
 21
-156.1627332508899
 97
        0
 92
        1
 93
        4
 72
     1
 10
101.5119777849519
 20
-156.4142252213131
 11
100.3527031541653
 21
-156.4142252213131
 72
     1
 10
100.3527031541653
 20
-156.4142252213131
 11
100.3527031541653
 21
-156.5540960980143
 72
     1
 10
100.3527031541653
 20
-156.5540960980143
 11
101.5119777849519
 21
-156.5540960980143
 72
     1
 10
101.5119777849519
 20
-156.5540960980143
 11
101.5119777849519
 21
-156.4142252213131
 97
        0
 92
        1
 93
        1
 72
     4
 94
        3
 73
     0
 74
     1
 95
       50
 96
       46
 40
0.0
 40
0.0
 40
0.0
 40
0.0
 40
1.0
 40
1.0
 40
1.0
 40
2.0
 40
2.0
 40
2.0
 40
3.0
 40
3.0
 40
3.0
 40
4.0
 40
4.0
 40
4.0
 40
5.0
 40
5.0
 40
5.0
 40
6.0
 40
6.0
 40
6.0
 40
7.0
 40
7.0
 40
7.0
 40
8.0
 40
8.0
 40
8.0
 40
9.0
 40
9.0
 40
9.0
 40
10.0
 40
10.0
 40
10.0
 40
11.0
 40
11.0
 40
11.0
 40
12.0
 40
12.0
 40
12.0
 40
13.0
 40
13.0
 40
13.0
 40
14.0
 40
14.0
 40
14.0
 40
15.0
 40
15.0
 40
15.0
 40
15.0
 10
101.1755642108172
 20
-155.343834054046
 10
101.1755642108172
 20
-155.343834054046
 10
101.9117811160151
 20
-155.343834054046
 10
101.9117811160151
 20
-155.343834054046
 10
101.9117811160151
 20
-155.343834054046
 10
101.9117811160151
 20
-155.4688910201606
 10
101.9117811160151
 20
-155.4688910201606
 10
101.9117811160151
 20
-155.4688910201606
 10
101.5817409685282
 20
-155.4688910201606
 10
101.5817409685282
 20
-155.4688910201606
 10
101.5817409685282
 20
-155.4688910201606
 10
101.5817409685282
 20
-155.7438096398835
 10
101.5817409685282
 20
-155.7438096398835
 10
101.5817409685282
 20
-155.7438096398835
 10
101.4251613787236
 20
-155.7438096398835
 10
101.4251613787236
 20
-155.7438096398835
 10
101.4251613787236
 20
-155.7438096398835
 10
101.4251613787236
 20
-155.4688910201606
 10
101.4251613787236
 20
-155.4688910201606
 10
101.4251613787236
 20
-155.4688910201606
 10
101.1607503002306
 20
-155.4688910201606
 10
101.1607503002306
 20
-155.4688910201606
 10
101.1354288484141
 20
-155.5977375913089
 10
101.0846136900066
 20
-155.6886881121195
 10
100.9872897425483
 20
-155.7713704037655
 10
100.9872897425483
 20
-155.7713704037655
 10
100.8646443432734
 20
-155.6635389150772
 10
100.8646443432734
 20
-155.6635389150772
 10
101.0000365958437
 20
-155.5532958595492
 10
101.0232909903692
 20
-155.4158365496877
 10
101.0232909903692
 20
-155.3417669967548
 10
101.0232909903692
 20
-155.3417669967548
 10
101.0232909903692
 20
-155.0985432554962
 10
101.0232909903692
 20
-155.0985432554962
 10
101.4928575050087
 20
-155.0985432554962
 10
101.6601168908176
 20
-155.0582356383188
 10
101.8039496273268
 20
-155.0158609638502
 10
101.8039496273268
 20
-155.0158609638502
 10
101.8632052696731
 20
-155.1536647832602
 10
101.8632052696731
 20
-155.1536647832602
 10
101.5924207645324
 20
-155.2232557120622
 10
101.2771945276321
 20
-155.2277343361931
 10
101.1755642108172
 20
-155.2277343361931
 10
101.1755642108172
 20
-155.2277343361931
 10
101.1755642108172
 20
-155.343834054046
 10
101.1755642108172
 20
-155.343834054046
 97
        0
 97
        0
 92
        1
 93
        1
 72
     4
 94
        3
 73
     0
 74
     1
 95
       17
 96
       13
 40
0.0
 40
0.0
 40
0.0
 40
0.0
 40
1.0
 40
1.0
 40
1.0
 40
2.0
 40
2.0
 40
2.0
 40
3.0
 40
3.0
 40
3.0
 40
4.0
 40
4.0
 40
4.0
 40
4.0
 10
101.2877020688621
 20
-156.695689522458
 10
101.5076714155953
 20
-156.8079996352772
 10
101.7743218061537
 20
-156.8458956856149
 10
101.9033406320763
 20
-156.8565754816192
 10
101.9033406320763
 20
-156.8565754816192
 10
101.8335774484999
 20
-157.0109157593584
 10
101.8335774484999
 20
-157.0109157593584
 10
101.7129991065162
 20
-156.9961018487718
 10
101.4506550853144
 20
-156.9557942315944
 10
101.1862440068215
 20
-156.8100666925683
 10
101.1862440068215
 20
-156.8100666925683
 10
101.2877020688621
 20
-156.695689522458
 10
101.2877020688621
 20
-156.695689522458
 97
        0
 97
        0
 75
     2
 76
     1
 98
        0
  0
ENDBLK
  5
CA
330
C7
100
AcDbEntity
  8
0
100
AcDbBlockEnd
  0
ENDSEC
  0
SECTION
  2
ENTITIES
  0
INSERT
  5
42
330
1F
100
AcDbEntity
  8
_U+30EC_U+30A4_U+30E4_U+30FC 1
100
AcDbBlockReference
  2
block 2
 10
0.0
 20
0.0
 30
0.0
  0
INSERT
  5
4B
330
1F
100
AcDbEntity
  8
_U+30EC_U+30A4_U+30E4_U+30FC 1
100
AcDbBlockReference
  2
block 3
 10
0.0
 20
0.0
 30
0.0
  0
POLYLINE
  5
50
330
1F
100
AcDbEntity
  8
_U+30EC_U+30A4_U+30E4_U+30FC 1
 62
   179
420
  2234388
370
     9
100
AcDb2dPolyline
 66
     1
 10
0.0
 20
0.0
 30
0.0
  0
VERTEX
  5
51
330
50
100
AcDbEntity
  8
_U+30EC_U+30A4_U+30E4_U+30FC 1
 62
   179
420
  2234388
370
     9
100
AcDbVertex
100
AcDb2dVertex
 10
83.37264571754692
 20
-155.8613950551644
 30
0.0
  0
VERTEX
  5
52
330
50
100
AcDbEntity
  8
_U+30EC_U+30A4_U+30E4_U+30FC 1
 62
   179
420
  2234388
370
     9
100
AcDbVertex
100
AcDb2dVertex
 10
83.37264571754692
 20
-159.3217996834769
 30
0.0
  0
SEQEND
  5
53
330
50
100
AcDbEntity
  8
_U+30EC_U+30A4_U+30E4_U+30FC 1
 62
   179
420
  2234388
370
     9
  0
POLYLINE
  5
54
330
1F
100
AcDbEntity
  8
_U+30EC_U+30A4_U+30E4_U+30FC 1
 62
   179
420
  2234388
370
     9
100
AcDb2dPolyline
 66
     1
 10
0.0
 20
0.0
 30
0.0
  0
VERTEX
  5
55
330
54
100
AcDbEntity
  8
_U+30EC_U+30A4_U+30E4_U+30FC 1
 62
   179
420
  2234388
370
     9
100
AcDbVertex
100
AcDb2dVertex
 10
120.3758887943689
 20
-156.8618400181576
 30
0.0
  0
VERTEX
  5
56
330
54
100
AcDbEntity
  8
_U+30EC_U+30A4_U+30E4_U+30FC 1
 62
   179
420
  2234388
370
     9
100
AcDbVertex
100
AcDb2dVertex
 10
120.3758887943689
 20
-159.3217673857067
 30
0.0
  0
SEQEND
  5
57
330
54
100
AcDbEntity
  8
_U+30EC_U+30A4_U+30E4_U+30FC 1
 62
   179
420
  2234388
370
     9
  0
SPLINE
  5
58
330
1F
100
AcDbEntity
  8
_U+30EC_U+30A4_U+30E4_U+30FC 1
 62
   179
420
  2234388
370
     9
100
AcDbSpline
210
0.0
220
0.0
230
1.0
 70
    11
 71
     3
 72
    17
 73
    13
 74
     0
 42
0.0000000001
 43
0.0000000001
 12
1.0
 22
0.0
 32
0.0
 13
1.0
 23
0.0
 33
0.0
 40
0.0
 40
0.0
 40
0.0
 40
0.0
 40
1.0
 40
1.0
 40
1.0
 40
2.0
 40
2.0
 40
2.0
 40
3.0
 40
3.0
 40
3.0
 40
4.0
 40
4.0
 40
4.0
 40
4.0
 10
100.3718019022617
 20
-140.9864847466544
 30
0.0
 10
100.3167665018848
 20
-140.9864847466544
 30
0.0
 10
100.2719587287301
 20
-141.0312925198095
 30
0.0
 10
100.2719587287301
 20
-141.0863279201863
 30
0.0
 10
100.2719587287301
 20
-141.1413633205632
 30
0.0
 10
100.3167665018848
 20
-141.1861603277948
 30
0.0
 10
100.3718019022617
 20
-141.1861603277948
 30
0.0
 10
100.4268265367151
 20
-141.1861603277948
 30
0.0
 10
100.4716343098702
 20
-141.1413633205632
 30
0.0
 10
100.4716343098702
 20
-141.0863279201863
 30
0.0
 10
100.4716343098702
 20
-141.0312925198095
 30
0.0
 10
100.4268265367151
 20
-140.9864847466544
 30
0.0
 10
100.3718019022617
 20
-140.9864847466544
 30
0.0
  0
POLYLINE
  5
59
330
1F
100
AcDbEntity
  8
_U+30EC_U+30A4_U+30E4_U+30FC 1
 62
   179
420
  2234388
370
     9
100
AcDb2dPolyline
 66
     1
 10
0.0
 20
0.0
 30
0.0
  0
VERTEX
  5
5A
330
59
100
AcDbEntity
  8
_U+30EC_U+30A4_U+30E4_U+30FC 1
 62
   179
420
  2234388
370
     9
100
AcDbVertex
100
AcDb2dVertex
 10
103.3741918517335
 20
-141.0863494520334
 30
0.0
  0
VERTEX
  5
5B
330
59
100
AcDbEntity
  8
_U+30EC_U+30A4_U+30E4_U+30FC 1
 62
   179
420
  2234388
370
     9
100
AcDbVertex
100
AcDb2dVertex
 10
100.3741596394844
 20
-141.0863494520334
 30
0.0
  0
SEQEND
  5
5C
330
59
100
AcDbEntity
  8
_U+30EC_U+30A4_U+30E4_U+30FC 1
 62
   179
420
  2234388
370
     9
  0
POLYLINE
  5
5D
330
1F
100
AcDbEntity
  8
_U+30EC_U+30A4_U+30E4_U+30FC 1
 62
   179
420
  2234388
370
     9
100
AcDb2dPolyline
 66
     1
 10
0.0
 20
0.0
 30
0.0
  0
VERTEX
  5
5E
330
5D
100
AcDbEntity
  8
_U+30EC_U+30A4_U+30E4_U+30FC 1
 62
   179
420
  2234388
370
     9
100
AcDbVertex
100
AcDb2dVertex
 10
100.3718019022617
 20
-139.6263825809246
 30
0.0
  0
VERTEX
  5
5F
330
5D
100
AcDbEntity
  8
_U+30EC_U+30A4_U+30E4_U+30FC 1
 62
   179
420
  2234388
370
     9
100
AcDbVertex
100
AcDb2dVertex
 10
100.3718019022617
 20
-142.0863099484737
 30
0.0
  0
SEQEND
  5
60
330
5D
100
AcDbEntity
  8
_U+30EC_U+30A4_U+30E4_U+30FC 1
 62
   179
420
  2234388
370
     9
  0
SPLINE
  5
61
330
1F
100
AcDbEntity
  8
_U+30EC_U+30A4_U+30E4_U+30FC 1
 62
   179
420
  2234388
370
     9
100
AcDbSpline
210
0.0
220
0.0
230
1.0
 70
    11
 71
     3
 72
    17
 73
    13
 74
     0
 42
0.0000000001
 43
0.0000000001
 12
1.0
 22
0.0
 32
0.0
 13
1.0
 23
0.0
 33
0.0
 40
0.0
 40
0.0
 40
0.0
 40
0.0
 40
1.0
 40
1.0
 40
1.0
 40
2.0
 40
2.0
 40
2.0
 40
3.0
 40
3.0
 40
3.0
 40
4.0
 40
4.0
 40
4.0
 40
4.0
 10
103.376269674948
 20
-140.9864847466544
 30
0.0
 10
103.3212342745712
 20
-140.9864847466544
 30
0.0
 10
103.2764265014165
 20
-141.0312925198095
 30
0.0
 10
103.2764265014165
 20
-141.0863279201863
 30
0.0
 10
103.2764265014165
 20
-141.1413633205632
 30
0.0
 10
103.3212342745712
 20
-141.1861603277948
 30
0.0
 10
103.376269674948
 20
-141.1861603277948
 30
0.0
 10
103.4312943094015
 20
-141.1861603277948
 30
0.0
 10
103.4761020825565
 20
-141.1413633205632
 30
0.0
 10
103.4761020825565
 20
-141.0863279201863
 30
0.0
 10
103.4761020825565
 20
-141.0312925198095
 30
0.0
 10
103.4312943094015
 20
-140.9864847466544
 30
0.0
 10
103.376269674948
 20
-140.9864847466544
 30
0.0
  0
POLYLINE
  5
62
330
1F
100
AcDbEntity
  8
_U+30EC_U+30A4_U+30E4_U+30FC 1
 62
   179
420
  2234388
370
     9
100
AcDb2dPolyline
 66
     1
 10
0.0
 20
0.0
 30
0.0
  0
VERTEX
  5
63
330
62
100
AcDbEntity
  8
_U+30EC_U+30A4_U+30E4_U+30FC 1
 62
   179
420
  2234388
370
     9
100
AcDbVertex
100
AcDb2dVertex
 10
103.376269674948
 20
-139.6263825809246
 30
0.0
  0
VERTEX
  5
64
330
62
100
AcDbEntity
  8
_U+30EC_U+30A4_U+30E4_U+30FC 1
 62
   179
420
  2234388
370
     9
100
AcDbVertex
100
AcDb2dVertex
 10
103.376269674948
 20
-142.0863099484737
 30
0.0
  0
SEQEND
  5
65
330
62
100
AcDbEntity
  8
_U+30EC_U+30A4_U+30E4_U+30FC 1
 62
   179
420
  2234388
370
     9
  0
INSERT
  5
67
330
1F
100
AcDbEntity
  8
_U+30EC_U+30A4_U+30E4_U+30FC 1
100
AcDbBlockReference
  2
block 4
 10
0.0
 20
0.0
 30
0.0
  0
SPLINE
  5
6C
330
1F
100
AcDbEntity
  8
_U+30EC_U+30A4_U+30E4_U+30FC 1
 62
   179
420
  2234388
370
     9
100
AcDbSpline
210
0.0
220
0.0
230
1.0
 70
    11
 71
     3
 72
    17
 73
    13
 74
     0
 42
0.0000000001
 43
0.0000000001
 12
1.0
 22
0.0
 32
0.0
 13
1.0
 23
0.0
 33
0.0
 40
0.0
 40
0.0
 40
0.0
 40
0.0
 40
1.0
 40
1.0
 40
1.0
 40
2.0
 40
2.0
 40
2.0
 40
3.0
 40
3.0
 40
3.0
 40
4.0
 40
4.0
 40
4.0
 40
4.0
 10
123.7465809830608
 20
-153.3212830901962
 30
0.0
 10
123.7465809830608
 20
-153.3766737660449
 30
0.0
 10
123.7913779902924
 20
-153.4211262637281
 30
0.0
 10
123.8464133906693
 20
-153.4211262637281
 30
0.0
 10
123.9014487910461
 20
-153.4211262637281
 30
0.0
 10
123.9462457982778
 20
-153.3766737660449
 30
0.0
 10
123.9462457982778
 20
-153.3212830901962
 30
0.0
 10
123.9462457982778
 20
-153.2662584557427
 30
0.0
 10
123.9014487910461
 20
-153.2214506825877
 30
0.0
 10
123.8464133906693
 20
-153.2214506825877
 30
0.0
 10
123.7913779902924
 20
-153.2214506825877
 30
0.0
 10
123.7465809830608
 20
-153.2662584557427
 30
0.0
 10
123.7465809830608
 20
-153.3212830901962
 30
0.0
  0
SPLINE
  5
6D
330
1F
100
AcDbEntity
  8
_U+30EC_U+30A4_U+30E4_U+30FC 1
 62
   179
420
  2234388
370
     9
100
AcDbSpline
210
0.0
220
0.0
230
1.0
 70
    11
 71
     3
 72
    17
 73
    13
 74
     0
 42
0.0000000001
 43
0.0000000001
 12
1.0
 22
0.0
 32
0.0
 13
1.0
 23
0.0
 33
0.0
 40
0.0
 40
0.0
 40
0.0
 40
0.0
 40
1.0
 40
1.0
 40
1.0
 40
2.0
 40
2.0
 40
2.0
 40
3.0
 40
3.0
 40
3.0
 40
4.0
 40
4.0
 40
4.0
 40
4.0
 10
123.7465809830608
 20
-154.3213727777174
 30
0.0
 10
123.7465809830608
 20
-154.3764081780943
 30
0.0
 10
123.7913779902924
 20
-154.4212159512493
 30
0.0
 10
123.8464133906693
 20
-154.4212159512493
 30
0.0
 10
123.9014487910461
 20
-154.4212159512493
 30
0.0
 10
123.9462457982778
 20
-154.3764081780943
 30
0.0
 10
123.9462457982778
 20
-154.3213727777174
 30
0.0
 10
123.9462457982778
 20
-154.2663481432639
 30
0.0
 10
123.9014487910461
 20
-154.2215403701089
 30
0.0
 10
123.8464133906693
 20
-154.2215403701089
 30
0.0
 10
123.7913779902924
 20
-154.2215403701089
 30
0.0
 10
123.7465809830608
 20
-154.2663481432639
 30
0.0
 10
123.7465809830608
 20
-154.3213727777174
 30
0.0
  0
POLYLINE
  5
6E
330
1F
100
AcDbEntity
  8
_U+30EC_U+30A4_U+30E4_U+30FC 1
 62
   179
420
  2234388
370
     9
100
AcDb2dPolyline
 66
     1
 10
0.0
 20
0.0
 30
0.0
  0
VERTEX
  5
6F
330
6E
100
AcDbEntity
  8
_U+30EC_U+30A4_U+30E4_U+30FC 1
 62
   179
420
  2234388
370
     9
100
AcDbVertex
100
AcDb2dVertex
 10
123.846488752133
 20
-153.3192375647518
 30
0.0
  0
VERTEX
  5
70
330
6E
100
AcDbEntity
  8
_U+30EC_U+30A4_U+30E4_U+30FC 1
 62
   179
420
  2234388
370
     9
100
AcDbVertex
100
AcDb2dVertex
 10
123.846488752133
 20
-143.3194065159551
 30
0.0
  0
SEQEND
  5
71
330
6E
100
AcDbEntity
  8
_U+30EC_U+30A4_U+30E4_U+30FC 1
 62
   179
420
  2234388
370
     9
  0
POLYLINE
  5
72
330
1F
100
AcDbEntity
  8
_U+30EC_U+30A4_U+30E4_U+30FC 1
 62
   179
420
  2234388
370
     9
100
AcDb2dPolyline
 66
     1
 10
0.0
 20
0.0
 30
0.0
  0
VERTEX
  5
73
330
72
100
AcDbEntity
  8
_U+30EC_U+30A4_U+30E4_U+30FC 1
 62
   179
420
  2234388
370
     9
100
AcDbVertex
100
AcDb2dVertex
 10
123.846488752133
 20
-154.3213727777174
 30
0.0
  0
VERTEX
  5
74
330
72
100
AcDbEntity
  8
_U+30EC_U+30A4_U+30E4_U+30FC 1
 62
   179
420
  2234388
370
     9
100
AcDbVertex
100
AcDb2dVertex
 10
123.846488752133
 20
-153.321250792426
 30
0.0
  0
SEQEND
  5
75
330
72
100
AcDbEntity
  8
_U+30EC_U+30A4_U+30E4_U+30FC 1
 62
   179
420
  2234388
370
     9
  0
POLYLINE
  5
76
330
1F
100
AcDbEntity
  8
_U+30EC_U+30A4_U+30E4_U+30FC 1
 62
   179
420
  2234388
370
     9
100
AcDb2dPolyline
 66
     1
 10
0.0
 20
0.0
 30
0.0
  0
VERTEX
  5
77
330
76
100
AcDbEntity
  8
_U+30EC_U+30A4_U+30E4_U+30FC 1
 62
   179
420
  2234388
370
     9
100
AcDbVertex
100
AcDb2dVertex
 10
122.5607898829612
 20
-153.3216706634383
 30
0.0
  0
VERTEX
  5
78
330
76
100
AcDbEntity
  8
_U+30EC_U+30A4_U+30E4_U+30FC 1
 62
   179
420
  2234388
370
     9
100
AcDbVertex
100
AcDb2dVertex
 10
125.0207064845868
 20
-153.3216706634383
 30
0.0
  0
SEQEND
  5
79
330
76
100
AcDbEntity
  8
_U+30EC_U+30A4_U+30E4_U+30FC 1
 62
   179
420
  2234388
370
     9
  0
POLYLINE
  5
7A
330
1F
100
AcDbEntity
  8
_U+30EC_U+30A4_U+30E4_U+30FC 1
 62
   179
420
  2234388
370
     9
100
AcDb2dPolyline
 66
     1
 10
0.0
 20
0.0
 30
0.0
  0
VERTEX
  5
7B
330
7A
100
AcDbEntity
  8
_U+30EC_U+30A4_U+30E4_U+30FC 1
 62
   179
420
  2234388
370
     9
100
AcDbVertex
100
AcDb2dVertex
 10
122.5607898829612
 20
-154.3213727777174
 30
0.0
  0
VERTEX
  5
7C
330
7A
100
AcDbEntity
  8
_U+30EC_U+30A4_U+30E4_U+30FC 1
 62
   179
420
  2234388
370
     9
100
AcDbVertex
100
AcDb2dVertex
 10
125.0207064845868
 20
-154.3213727777174
 30
0.0
  0
SEQEND
  5
7D
330
7A
100
AcDbEntity
  8
_U+30EC_U+30A4_U+30E4_U+30FC 1
 62
   179
420
  2234388
370
     9
  0
SPLINE
  5
7E
330
1F
100
AcDbEntity
  8
_U+30EC_U+30A4_U+30E4_U+30FC 1
 62
   179
420
  2234388
370
     9
100
AcDbSpline
210
0.0
220
0.0
230
1.0
 70
    11
 71
     3
 72
    17
 73
    13
 74
     0
 42
0.0000000001
 43
0.0000000001
 12
1.0
 22
0.0
 32
0.0
 13
1.0
 23
0.0
 33
0.0
 40
0.0
 40
0.0
 40
0.0
 40
0.0
 40
1.0
 40
1.0
 40
1.0
 40
2.0
 40
2.0
 40
2.0
 40
3.0
 40
3.0
 40
3.0
 40
4.0
 40
4.0
 40
4.0
 40
4.0
 10
123.9463857552819
 20
-143.317285629047
 30
0.0
 10
123.9463857552819
 20
-143.2619057191216
 30
0.0
 10
123.9015779821268
 20
-143.2174532214385
 30
0.0
 10
123.84654258175
 20
-143.2174532214385
 30
0.0
 10
123.7915071813731
 20
-143.2174532214385
 30
0.0
 10
123.7467101741415
 20
-143.2619057191216
 30
0.0
 10
123.7467101741415
 20
-143.317285629047
 30
0.0
 10
123.7467101741415
 20
-143.3723210294239
 30
0.0
 10
123.7915071813731
 20
-143.4171288025792
 30
0.0
 10
123.84654258175
 20
-143.4171288025792
 30
0.0
 10
123.9015779821268
 20
-143.4171288025792
 30
0.0
 10
123.9463857552819
 20
-143.3723210294239
 30
0.0
 10
123.9463857552819
 20
-143.317285629047
 30
0.0
  0
POLYLINE
  5
7F
330
1F
100
AcDbEntity
  8
_U+30EC_U+30A4_U+30E4_U+30FC 1
 62
   179
420
  2234388
370
     9
100
AcDb2dPolyline
 66
     1
 10
0.0
 20
0.0
 30
0.0
  0
VERTEX
  5
80
330
7F
100
AcDbEntity
  8
_U+30EC_U+30A4_U+30E4_U+30FC 1
 62
   179
420
  2234388
370
     9
100
AcDbVertex
100
AcDb2dVertex
 10
107.5679065859281
 20
-143.317285629047
 30
0.0
  0
VERTEX
  5
81
330
7F
100
AcDbEntity
  8
_U+30EC_U+30A4_U+30E4_U+30FC 1
 62
   179
420
  2234388
370
     9
100
AcDbVertex
100
AcDb2dVertex
 10
125.0205234638892
 20
-143.317285629047
 30
0.0
  0
SEQEND
  5
82
330
7F
100
AcDbEntity
  8
_U+30EC_U+30A4_U+30E4_U+30FC 1
 62
   179
420
  2234388
370
     9
  0
INSERT
  5
84
330
1F
100
AcDbEntity
  8
_U+30EC_U+30A4_U+30E4_U+30FC 1
100
AcDbBlockReference
  2
block 5
 10
0.0
 20
0.0
 30
0.0
  0
SPLINE
  5
8A
330
1F
100
AcDbEntity
  8
_U+30EC_U+30A4_U+30E4_U+30FC 1
 62
   179
420
  2234388
370
     9
100
AcDbSpline
210
0.0
220
0.0
230
1.0
 70
    11
 71
     3
 72
    17
 73
    13
 74
     0
 42
0.0000000001
 43
0.0000000001
 12
1.0
 22
0.0
 32
0.0
 13
1.0
 23
0.0
 33
0.0
 40
0.0
 40
0.0
 40
0.0
 40
0.0
 40
1.0
 40
1.0
 40
1.0
 40
2.0
 40
2.0
 40
2.0
 40
3.0
 40
3.0
 40
3.0
 40
4.0
 40
4.0
 40
4.0
 40
4.0
 10
108.7536976860277
 20
-149.321387274817
 30
0.0
 10
108.7536976860277
 20
-149.3767779506658
 30
0.0
 10
108.7984946932594
 20
-149.4212304483489
 30
0.0
 10
108.8535300936362
 20
-149.4212304483489
 30
0.0
 10
108.9085654940131
 20
-149.4212304483489
 30
0.0
 10
108.9533625012447
 20
-149.3767779506658
 30
0.0
 10
108.9533625012447
 20
-149.321387274817
 30
0.0
 10
108.9533625012447
 20
-149.2663626403635
 30
0.0
 10
108.9085654940131
 20
-149.2215548672085
 30
0.0
 10
108.8535300936362
 20
-149.2215548672085
 30
0.0
 10
108.7984946932594
 20
-149.2215548672085
 30
0.0
 10
108.7536976860277
 20
-149.2663626403635
 30
0.0
 10
108.7536976860277
 20
-149.321387274817
 30
0.0
  0
POLYLINE
  5
8B
330
1F
100
AcDbEntity
  8
_U+30EC_U+30A4_U+30E4_U+30FC 1
 62
   179
420
  2234388
370
     9
100
AcDb2dPolyline
 66
     1
 10
0.0
 20
0.0
 30
0.0
  0
VERTEX
  5
8C
330
8B
100
AcDbEntity
  8
_U+30EC_U+30A4_U+30E4_U+30FC 1
 62
   179
420
  2234388
370
     9
100
AcDbVertex
100
AcDb2dVertex
 10
108.8536054551
 20
-149.3193094516025
 30
0.0
  0
VERTEX
  5
8D
330
8B
100
AcDbEntity
  8
_U+30EC_U+30A4_U+30E4_U+30FC 1
 62
   179
420
  2234388
370
     9
100
AcDbVertex
100
AcDb2dVertex
 10
108.8536054551
 20
-143.319266558951
 30
0.0
  0
SEQEND
  5
8E
330
8B
100
AcDbEntity
  8
_U+30EC_U+30A4_U+30E4_U+30FC 1
 62
   179
420
  2234388
370
     9
  0
POLYLINE
  5
8F
330
1F
100
AcDbEntity
  8
_U+30EC_U+30A4_U+30E4_U+30FC 1
 62
   179
420
  2234388
370
     9
100
AcDb2dPolyline
 66
     1
 10
0.0
 20
0.0
 30
0.0
  0
VERTEX
  5
90
330
8F
100
AcDbEntity
  8
_U+30EC_U+30A4_U+30E4_U+30FC 1
 62
   179
420
  2234388
370
     9
100
AcDbVertex
100
AcDb2dVertex
 10
107.5679065859281
 20
-149.3216994865953
 30
0.0
  0
VERTEX
  5
91
330
8F
100
AcDbEntity
  8
_U+30EC_U+30A4_U+30E4_U+30FC 1
 62
   179
420
  2234388
370
     9
100
AcDbVertex
100
AcDb2dVertex
 10
110.0278231875538
 20
-149.3216994865953
 30
0.0
  0
SEQEND
  5
92
330
8F
100
AcDbEntity
  8
_U+30EC_U+30A4_U+30E4_U+30FC 1
 62
   179
420
  2234388
370
     9
  0
SPLINE
  5
93
330
1F
100
AcDbEntity
  8
_U+30EC_U+30A4_U+30E4_U+30FC 1
 62
   179
420
  2234388
370
     9
100
AcDbSpline
210
0.0
220
0.0
230
1.0
 70
    11
 71
     3
 72
    17
 73
    13
 74
     0
 42
0.0000000001
 43
0.0000000001
 12
1.0
 22
0.0
 32
0.0
 13
1.0
 23
0.0
 33
0.0
 40
0.0
 40
0.0
 40
0.0
 40
0.0
 40
1.0
 40
1.0
 40
1.0
 40
2.0
 40
2.0
 40
2.0
 40
3.0
 40
3.0
 40
3.0
 40
4.0
 40
4.0
 40
4.0
 40
4.0
 10
108.9535132241722
 20
-143.317285629047
 30
0.0
 10
108.9535132241722
 20
-143.2619057191216
 30
0.0
 10
108.9087054510172
 20
-143.2174532214385
 30
0.0
 10
108.8536700506403
 20
-143.2174532214385
 30
0.0
 10
108.7986346502635
 20
-143.2174532214385
 30
0.0
 10
108.7538376430318
 20
-143.2619057191216
 30
0.0
 10
108.7538376430318
 20
-143.317285629047
 30
0.0
 10
108.7538376430318
 20
-143.3723210294239
 30
0.0
 10
108.7986346502635
 20
-143.4171288025792
 30
0.0
 10
108.8536700506403
 20
-143.4171288025792
 30
0.0
 10
108.9087054510172
 20
-143.4171288025792
 30
0.0
 10
108.9535132241722
 20
-143.3723210294239
 30
0.0
 10
108.9535132241722
 20
-143.317285629047
 30
0.0
  0
INSERT
  5
95
330
1F
100
AcDbEntity
  8
_U+30EC_U+30A4_U+30E4_U+30FC 1
100
AcDbBlockReference
  2
block 6
 10
0.0
 20
0.0
 30
0.0
  0
SPLINE
  5
9C
330
1F
100
AcDbEntity
  8
_U+30EC_U+30A4_U+30E4_U+30FC 1
 62
   179
420
  2234388
370
     9
100
AcDbSpline
210
0.0
220
0.0
230
1.0
 70
    11
 71
     3
 72
    17
 73
    13
 74
     0
 42
0.0000000001
 43
0.0000000001
 12
1.0
 22
0.0
 32
0.0
 13
1.0
 23
0.0
 33
0.0
 40
0.0
 40
0.0
 40
0.0
 40
0.0
 40
1.0
 40
1.0
 40
1.0
 40
2.0
 40
2.0
 40
2.0
 40
3.0
 40
3.0
 40
3.0
 40
4.0
 40
4.0
 40
4.0
 40
4.0
 10
120.4757965634412
 20
-158.2219744816576
 30
0.0
 10
120.4757965634412
 20
-158.2770098820345
 30
0.0
 10
120.4309887902861
 20
-158.3218176551895
 30
0.0
 10
120.3759533899093
 20
-158.3218176551895
 30
0.0
 10
120.3209179895324
 20
-158.3218176551895
 30
0.0
 10
120.2761209823008
 20
-158.2770098820345
 30
0.0
 10
120.2761209823008
 20
-158.2219744816576
 30
0.0
 10
120.2761209823008
 20
-158.1669498472041
 30
0.0
 10
120.3209179895324
 20
-158.1221420740491
 30
0.0
 10
120.3759533899093
 20
-158.1221420740491
 30
0.0
 10
120.4309887902861
 20
-158.1221420740491
 30
0.0
 10
120.4757965634412
 20
-158.1669498472041
 30
0.0
 10
120.4757965634412
 20
-158.2219744816576
 30
0.0
  0
SPLINE
  5
9D
330
1F
100
AcDbEntity
  8
_U+30EC_U+30A4_U+30E4_U+30FC 1
 62
   179
420
  2234388
370
     9
100
AcDbSpline
210
0.0
220
0.0
230
1.0
 70
    11
 71
     3
 72
    17
 73
    13
 74
     0
 42
0.0000000001
 43
0.0000000001
 12
1.0
 22
0.0
 32
0.0
 13
1.0
 23
0.0
 33
0.0
 40
0.0
 40
0.0
 40
0.0
 40
0.0
 40
1.0
 40
1.0
 40
1.0
 40
2.0
 40
2.0
 40
2.0
 40
3.0
 40
3.0
 40
3.0
 40
4.0
 40
4.0
 40
4.0
 40
4.0
 10
83.47255348661916
 20
-158.2219744816576
 30
0.0
 10
83.47255348661916
 20
-158.2770098820345
 30
0.0
 10
83.4277457134638
 20
-158.3218176551895
 30
0.0
 10
83.37271031308694
 20
-158.3218176551895
 30
0.0
 10
83.31767491271007
 20
-158.3218176551895
 30
0.0
 10
83.27287790547844
 20
-158.2770098820345
 30
0.0
 10
83.27287790547844
 20
-158.2219744816576
 30
0.0
 10
83.27287790547844
 20
-158.1669498472041
 30
0.0
 10
83.31767491271007
 20
-158.1221420740491
 30
0.0
 10
83.37271031308694
 20
-158.1221420740491
 30
0.0
 10
83.4277457134638
 20
-158.1221420740491
 30
0.0
 10
83.47255348661916
 20
-158.1669498472041
 30
0.0
 10
83.47255348661916
 20
-158.2219744816576
 30
0.0
  0
POLYLINE
  5
9E
330
1F
100
AcDbEntity
  8
_U+30EC_U+30A4_U+30E4_U+30FC 1
 62
   179
420
  2234388
370
     9
100
AcDb2dPolyline
 66
     1
 10
0.0
 20
0.0
 30
0.0
  0
VERTEX
  5
9F
330
9E
100
AcDbEntity
  8
_U+30EC_U+30A4_U+30E4_U+30FC 1
 62
   179
420
  2234388
370
     9
100
AcDbVertex
100
AcDb2dVertex
 10
120.3738432689246
 20
-158.2219744816576
 30
0.0
  0
VERTEX
  5
A0
330
9E
100
AcDbEntity
  8
_U+30EC_U+30A4_U+30E4_U+30FC 1
 62
   179
420
  2234388
370
     9
100
AcDbVertex
100
AcDb2dVertex
 10
83.3741529468214
 20
-158.2219744816576
 30
0.0
  0
SEQEND
  5
A1
330
9E
100
AcDbEntity
  8
_U+30EC_U+30A4_U+30E4_U+30FC 1
 62
   179
420
  2234388
370
     9
  0
POLYLINE
  5
A2
330
1F
100
AcDbEntity
  8
_U+30EC_U+30A4_U+30E4_U+30FC 1
 62
   179
420
  2234388
370
    25
100
AcDb2dPolyline
 66
     1
 10
0.0
 20
0.0
 30
0.0
  0
VERTEX
  5
A3
330
A2
100
AcDbEntity
  8
_U+30EC_U+30A4_U+30E4_U+30FC 1
 62
   179
420
  2234388
370
    25
100
AcDbVertex
100
AcDb2dVertex
 10
103.376269674948
 20
-154.3213727777174
 30
0.0
  0
VERTEX
  5
A4
330
A2
100
AcDbEntity
  8
_U+30EC_U+30A4_U+30E4_U+30FC 1
 62
   179
420
  2234388
370
    25
100
AcDbVertex
100
AcDb2dVertex
 10
120.3759210921391
 20
-154.3213727777174
 30
0.0
  0
VERTEX
  5
A5
330
A2
100
AcDbEntity
  8
_U+30EC_U+30A4_U+30E4_U+30FC 1
 62
   179
420
  2234388
370
    25
100
AcDbVertex
100
AcDb2dVertex
 10
120.3759210921391
 20
-153.321250792426
 30
0.0
  0
VERTEX
  5
A6
330
A2
100
AcDbEntity
  8
_U+30EC_U+30A4_U+30E4_U+30FC 1
 62
   179
420
  2234388
370
    25
100
AcDbVertex
100
AcDb2dVertex
 10
104.3763916602395
 20
-153.321250792426
 30
0.0
  0
VERTEX
  5
A7
330
A2
100
AcDbEntity
  8
_U+30EC_U+30A4_U+30E4_U+30FC 1
 62
   179
420
  2234388
370
    25
100
AcDbVertex
100
AcDb2dVertex
 10
104.3763916602395
 20
-143.3171779698131
 30
0.0
  0
VERTEX
  5
A8
330
A2
100
AcDbEntity
  8
_U+30EC_U+30A4_U+30E4_U+30FC 1
 62
   179
420
  2234388
370
    25
100
AcDbVertex
100
AcDb2dVertex
 10
103.376269674948
 20
-143.3171779698131
 30
0.0
  0
VERTEX
  5
A9
330
A2
100
AcDbEntity
  8
_U+30EC_U+30A4_U+30E4_U+30FC 1
 62
   179
420
  2234388
370
    25
100
AcDbVertex
100
AcDb2dVertex
 10
103.376269674948
 20
-154.3213727777174
 30
0.0
  0
SEQEND
  5
AA
330
A2
100
AcDbEntity
  8
_U+30EC_U+30A4_U+30E4_U+30FC 1
 62
   179
420
  2234388
370
    25
  0
POLYLINE
  5
AB
330
1F
100
AcDbEntity
  8
_U+30EC_U+30A4_U+30E4_U+30FC 1
 62
   179
420
  2234388
370
    25
100
AcDb2dPolyline
 66
     1
 10
0.0
 20
0.0
 30
0.0
  0
VERTEX
  5
AC
330
AB
100
AcDbEntity
  8
_U+30EC_U+30A4_U+30E4_U+30FC 1
 62
   179
420
  2234388
370
    25
100
AcDbVertex
100
AcDb2dVertex
 10
100.370079354519
 20
-143.317285629047
 30
0.0
  0
VERTEX
  5
AD
330
AB
100
AcDbEntity
  8
_U+30EC_U+30A4_U+30E4_U+30FC 1
 62
   179
420
  2234388
370
    25
100
AcDbVertex
100
AcDb2dVertex
 10
99.37030187877613
 20
-143.317285629047
 30
0.0
  0
VERTEX
  5
AE
330
AB
100
AcDbEntity
  8
_U+30EC_U+30A4_U+30E4_U+30FC 1
 62
   179
420
  2234388
370
    25
100
AcDbVertex
100
AcDb2dVertex
 10
99.37030187877613
 20
-153.3213584516599
 30
0.0
  0
VERTEX
  5
AF
330
AB
100
AcDbEntity
  8
_U+30EC_U+30A4_U+30E4_U+30FC 1
 62
   179
420
  2234388
370
    25
100
AcDbVertex
100
AcDb2dVertex
 10
83.37605851526168
 20
-153.3213584516599
 30
0.0
  0
VERTEX
  5
B0
330
AB
100
AcDbEntity
  8
_U+30EC_U+30A4_U+30E4_U+30FC 1
 62
   179
420
  2234388
370
    25
100
AcDbVertex
100
AcDb2dVertex
 10
83.37605851526168
 20
-154.3214912028747
 30
0.0
  0
VERTEX
  5
B1
330
AB
100
AcDbEntity
  8
_U+30EC_U+30A4_U+30E4_U+30FC 1
 62
   179
420
  2234388
370
    25
100
AcDbVertex
100
AcDb2dVertex
 10
100.370079354519
 20
-154.3214912028747
 30
0.0
  0
VERTEX
  5
B2
330
AB
100
AcDbEntity
  8
_U+30EC_U+30A4_U+30E4_U+30FC 1
 62
   179
420
  2234388
370
    25
100
AcDbVertex
100
AcDb2dVertex
 10
100.370079354519
 20
-143.317285629047
 30
0.0
  0
SEQEND
  5
B3
330
AB
100
AcDbEntity
  8
_U+30EC_U+30A4_U+30E4_U+30FC 1
 62
   179
420
  2234388
370
    25
  0
POLYLINE
  5
B4
330
1F
100
AcDbEntity
  8
_U+30EC_U+30A4_U+30E4_U+30FC 1
370
     0
100
AcDb2dPolyline
 66
     1
 10
0.0
 20
0.0
 30
0.0
  0
VERTEX
  5
B5
330
B4
100
AcDbEntity
  8
_U+30EC_U+30A4_U+30E4_U+30FC 1
370
     0
100
AcDbVertex
100
AcDb2dVertex
 10
102.0078454504366
 20
-151.2862867189059
 30
0.0
  0
VERTEX
  5
B6
330
B4
100
AcDbEntity
  8
_U+30EC_U+30A4_U+30E4_U+30FC 1
370
     0
100
AcDbVertex
100
AcDb2dVertex
 10
102.3309846410297
 20
-151.7459593499487
 30
0.0
  0
VERTEX
  5
B7
330
B4
100
AcDbEntity
  8
_U+30EC_U+30A4_U+30E4_U+30FC 1
370
     0
100
AcDbVertex
100
AcDb2dVertex
 10
102.0886221736423
 20
-150.8329767485873
 30
0.0
  0
VERTEX
  5
B8
330
B4
100
AcDbEntity
  8
_U+30EC_U+30A4_U+30E4_U+30FC 1
370
     0
100
AcDbVertex
100
AcDb2dVertex
 10
101.5054859331469
 20
-151.6006193841647
 30
0.0
  0
VERTEX
  5
B9
330
B4
100
AcDbEntity
  8
_U+30EC_U+30A4_U+30E4_U+30FC 1
370
     0
100
AcDbVertex
100
AcDb2dVertex
 10
102.0078454504366
 20
-151.2862867189059
 30
0.0
  0
SEQEND
  5
BB
330
B4
100
AcDbEntity
  8
_U+30EC_U+30A4_U+30E4_U+30FC 1
370
     0
  0
HATCH
  5
BA
330
1F
100
AcDbEntity
  8
_U+30EC_U+30A4_U+30E4_U+30FC 1
 62
   179
420
  2234388
100
AcDbHatch
 10
0.0
 20
0.0
 30
0.0
210
0.0
220
0.0
230
1.0
  2
SOLID
 70
     1
 71
     0
 91
        1
 92
        1
 93
        4
 72
     1
 10
102.0078454504366
 20
-151.2862867189059
 11
102.3309846410297
 21
-151.7459593499487
 72
     1
 10
102.3309846410297
 20
-151.7459593499487
 11
102.0886221736423
 21
-150.8329767485873
 72
     1
 10
102.0886221736423
 20
-150.8329767485873
 11
101.5054859331469
 21
-151.6006193841647
 72
     1
 10
101.5054859331469
 20
-151.6006193841647
 11
102.0078454504366
 21
-151.2862867189059
 97
        0
 75
     2
 76
     1
 98
        0
  0
POLYLINE
  5
BC
330
1F
100
AcDbEntity
  8
_U+30EC_U+30A4_U+30E4_U+30FC 1
 62
   179
420
  2234388
370
     9
100
AcDb2dPolyline
 66
     1
 10
0.0
 20
0.0
 30
0.0
  0
VERTEX
  5
BD
330
BC
100
AcDbEntity
  8
_U+30EC_U+30A4_U+30E4_U+30FC 1
 62
   179
420
  2234388
370
     9
100
AcDbVertex
100
AcDb2dVertex
 10
102.0078454504366
 20
-151.2862867189059
 30
0.0
  0
VERTEX
  5
BE
330
BC
100
AcDbEntity
  8
_U+30EC_U+30A4_U+30E4_U+30FC 1
 62
   179
420
  2234388
370
     9
100
AcDbVertex
100
AcDb2dVertex
 10
102.3309846410297
 20
-151.7459593499487
 30
0.0
  0
VERTEX
  5
BF
330
BC
100
AcDbEntity
  8
_U+30EC_U+30A4_U+30E4_U+30FC 1
 62
   179
420
  2234388
370
     9
100
AcDbVertex
100
AcDb2dVertex
 10
102.0886221736423
 20
-150.8329767485873
 30
0.0
  0
VERTEX
  5
C0
330
BC
100
AcDbEntity
  8
_U+30EC_U+30A4_U+30E4_U+30FC 1
 62
   179
420
  2234388
370
     9
100
AcDbVertex
100
AcDb2dVertex
 10
101.5054859331469
 20
-151.6006193841647
 30
0.0
  0
VERTEX
  5
C1
330
BC
100
AcDbEntity
  8
_U+30EC_U+30A4_U+30E4_U+30FC 1
 62
   179
420
  2234388
370
     9
100
AcDbVertex
100
AcDb2dVertex
 10
102.0078454504366
 20
-151.2862867189059
 30
0.0
  0
SEQEND
  5
C2
330
BC
100
AcDbEntity
  8
_U+30EC_U+30A4_U+30E4_U+30FC 1
 62
   179
420
  2234388
370
     9
  0
POLYLINE
  5
C3
330
1F
100
AcDbEntity
  8
_U+30EC_U+30A4_U+30E4_U+30FC 1
 62
   179
420
  2234388
370
     9
100
AcDb2dPolyline
 66
     1
 10
0.0
 20
0.0
 30
0.0
  0
VERTEX
  5
C4
330
C3
100
AcDbEntity
  8
_U+30EC_U+30A4_U+30E4_U+30FC 1
 62
   179
420
  2234388
370
     9
100
AcDbVertex
100
AcDb2dVertex
 10
102.0078454504366
 20
-151.2862867189059
 30
0.0
  0
VERTEX
  5
C5
330
C3
100
AcDbEntity
  8
_U+30EC_U+30A4_U+30E4_U+30FC 1
 62
   179
420
  2234388
370
     9
100
AcDbVertex
100
AcDb2dVertex
 10
101.3940047964288
 20
-154.6196857489699
 30
0.0
  0
SEQEND
  5
C6
330
C3
100
AcDbEntity
  8
_U+30EC_U+30A4_U+30E4_U+30FC 1
 62
   179
420
  2234388
370
     9
  0
INSERT
  5
C8
330
1F
100
AcDbEntity
  8
_U+30EC_U+30A4_U+30E4_U+30FC 1
100
AcDbBlockReference
  2
block 7
 10
0.0
 20
0.0
 30
0.0
  0
POLYLINE
  5
123
330
1F
100
AcDbEntity
  8
_U+30EC_U+30A4_U+30E4_U+30FC 1
 62
   179
420
  2234388
370
    25
100
AcDb2dPolyline
 66
     1
 10
0.0
 20
0.0
 30
0.0
  0
VERTEX
  5
124
330
123
100
AcDbEntity
  8
_U+30EC_U+30A4_U+30E4_U+30FC 1
 62
   179
420
  2234388
370
    25
100
AcDbVertex
100
AcDb2dVertex
 10
103.3702084600787
 20
-150.3215846215722
 30
0.0
  0
VERTEX
  5
125
330
123
100
AcDbEntity
  8
_U+30EC_U+30A4_U+30E4_U+30FC 1
 62
   179
420
  2234388
370
    25
100
AcDbVertex
100
AcDb2dVertex
 10
100.3701762478295
 20
-150.3215846215722
 30
0.0
  0
VERTEX
  5
126
330
123
100
AcDbEntity
  8
_U+30EC_U+30A4_U+30E4_U+30FC 1
 62
   179
420
  2234388
370
    25
100
AcDbVertex
100
AcDb2dVertex
 10
100.3701762478295
 20
-149.3218179117527
 30
0.0
  0
VERTEX
  5
127
330
123
100
AcDbEntity
  8
_U+30EC_U+30A4_U+30E4_U+30FC 1
 62
   179
420
  2234388
370
    25
100
AcDbVertex
100
AcDb2dVertex
 10
103.3702084600787
 20
-149.3218179117527
 30
0.0
  0
VERTEX
  5
128
330
123
100
AcDbEntity
  8
_U+30EC_U+30A4_U+30E4_U+30FC 1
 62
   179
420
  2234388
370
    25
100
AcDbVertex
100
AcDb2dVertex
 10
103.3702084600787
 20
-150.3215846215722
 30
0.0
  0
SEQEND
  5
129
330
123
100
AcDbEntity
  8
_U+30EC_U+30A4_U+30E4_U+30FC 1
 62
   179
420
  2234388
370
    25
  0
ENDSEC
  0
SECTION
  2
OBJECTS
  0
DICTIONARY
  5
C
330
0
100
AcDbDictionary
281
     1
  3
ACAD_GROUP
350
D
  3
ACAD_LAYOUT
350
1A
  3
ACAD_MATERIAL
350
3B
  3
ACAD_MLEADERSTYLE
350
12B
  3
ACAD_MLINESTYLE
350
17
  3
ACAD_PLOTSETTINGS
350
19
  3
ACAD_PLOTSTYLENAME
350
E
  3
ACAD_TABLESTYLE
350
12A
  3
ACAD_VISUALSTYLE
350
2A
  0
SUN
  5
3F
330
29
100
AcDbSun
 90
        1
290
     0
 63
     7
421
 16777215
 40
1.0
291
     1
 91
  2455826
 92
 54000000
292
     0
 70
     2
 71
   256
280
     1
  0
DICTIONARY
  5
D
102
{ACAD_REACTORS
330
C
102
}
330
C
100
AcDbDictionary
281
     1
  0
DICTIONARY
  5
1A
102
{ACAD_REACTORS
330
C
102
}
330
C
100
AcDbDictionary
281
     1
  3
Layout1
350
1E
  3
Layout2
350
26
  3
Model
350
22
  0
DICTIONARY
  5
3B
102
{ACAD_REACTORS
330
C
102
}
330
C
100
AcDbDictionary
281
     1
  3
ByBlock
350
3D
  3
ByLayer
350
3C
  3
Global
350
3E
  0
DICTIONARY
  5
12B
102
{ACAD_REACTORS
330
C
102
}
330
C
100
AcDbDictionary
281
     1
  0
DICTIONARY
  5
17
102
{ACAD_REACTORS
330
C
102
}
330
C
100
AcDbDictionary
281
     1
  3
Standard
350
18
  0
DICTIONARY
  5
19
102
{ACAD_REACTORS
330
C
102
}
330
C
100
AcDbDictionary
281
     1
  0
ACDBDICTIONARYWDFLT
  5
E
102
{ACAD_REACTORS
330
C
102
}
330
C
100
AcDbDictionary
281
     1
  3
Normal
350
F
100
AcDbDictionaryWithDefault
340
F
  0
DICTIONARY
  5
12A
102
{ACAD_REACTORS
330
C
102
}
330
C
100
AcDbDictionary
281
     1
  0
DICTIONARY
  5
2A
102
{ACAD_REACTORS
330
C
102
}
330
C
100
AcDbDictionary
281
     1
  3
2dWireframe
350
2F
  3
3D Hidden
350
31
  3
3dWireframe
350
30
  3
Basic
350
32
  3
Brighten
350
36
  3
ColorChange
350
3A
  3
Conceptual
350
34
  3
Dim
350
35
  3
Facepattern
350
39
  3
Flat
350
2B
  3
FlatWithEdges
350
2C
  3
Gouraud
350
2D
  3
GouraudWithEdges
350
2E
  3
Linepattern
350
38
  3
Realistic
350
33
  3
Thicken
350
37
  0
LAYOUT
  5
1E
102
{ACAD_REACTORS
330
1A
102
}
330
1A
100
AcDbPlotSettings
  1

  2
none_device
  4

  6

 40
0.0
 41
0.0
 42
0.0
 43
0.0
 44
0.0
 45
0.0
 46
0.0
 47
0.0
 48
0.0
 49
0.0
140
0.0
141
0.0
142
1.0
143
1.0
 70
   688
 72
     0
 73
     0
 74
     5
  7

 75
    16
 76
     0
 77
     2
 78
   300
147
1.0
148
0.0
149
0.0
100
AcDbLayout
  1
Layout1
 70
     1
 71
     1
 10
0.0
 20
0.0
 11
12.0
 21
9.0
 12
0.0
 22
0.0
 32
0.0
 14
1.000000000000000E+20
 24
1.000000000000000E+20
 34
1.000000000000000E+20
 15
-1.000000000000000E+20
 25
-1.000000000000000E+20
 35
-1.000000000000000E+20
146
0.0
 13
0.0
 23
0.0
 33
0.0
 16
1.0
 26
0.0
 36
0.0
 17
0.0
 27
1.0
 37
0.0
 76
     0
330
1B
  0
LAYOUT
  5
26
102
{ACAD_REACTORS
330
1A
102
}
330
1A
100
AcDbPlotSettings
  1

  2
none_device
  4

  6

 40
0.0
 41
0.0
 42
0.0
 43
0.0
 44
0.0
 45
0.0
 46
0.0
 47
0.0
 48
0.0
 49
0.0
140
0.0
141
0.0
142
1.0
143
1.0
 70
   688
 72
     0
 73
     0
 74
     5
  7

 75
    16
 76
     0
 77
     2
 78
   300
147
1.0
148
0.0
149
0.0
100
AcDbLayout
  1
Layout2
 70
     1
 71
     2
 10
0.0
 20
0.0
 11
0.0
 21
0.0
 12
0.0
 22
0.0
 32
0.0
 14
0.0
 24
0.0
 34
0.0
 15
0.0
 25
0.0
 35
0.0
146
0.0
 13
0.0
 23
0.0
 33
0.0
 16
1.0
 26
0.0
 36
0.0
 17
0.0
 27
1.0
 37
0.0
 76
     0
330
23
  0
LAYOUT
  5
22
102
{ACAD_REACTORS
330
1A
102
}
330
1A
100
AcDbPlotSettings
  1

  2
none_device
  4

  6

 40
0.0
 41
0.0
 42
0.0
 43
0.0
 44
0.0
 45
0.0
 46
0.0
 47
0.0
 48
0.0
 49
0.0
140
0.0
141
0.0
142
1.0
143
1.0
 70
  1712
 72
     0
 73
     0
 74
     0
  7

 75
     0
 76
     0
 77
     2
 78
   300
147
1.0
148
0.0
149
0.0
100
AcDbLayout
  1
Model
 70
     1
 71
     0
 10
0.0
 20
0.0
 11
12.0
 21
9.0
 12
0.0
 22
0.0
 32
0.0
 14
1.000000000000000E+20
 24
1.000000000000000E+20
 34
1.000000000000000E+20
 15
-1.000000000000000E+20
 25
-1.000000000000000E+20
 35
-1.000000000000000E+20
146
0.0
 13
0.0
 23
0.0
 33
0.0
 16
1.0
 26
0.0
 36
0.0
 17
0.0
 27
1.0
 37
0.0
 76
     0
330
1F
331
29
  0
MATERIAL
  5
3D
102
{ACAD_REACTORS
330
3B
102
}
330
3B
100
AcDbMaterial
  1
ByBlock
 72
     1
 94
      127
  0
MATERIAL
  5
3C
102
{ACAD_REACTORS
330
3B
102
}
330
3B
100
AcDbMaterial
  1
ByLayer
 72
     1
 94
      127
  0
MATERIAL
  5
3E
102
{ACAD_REACTORS
330
3B
102
}
330
3B
100
AcDbMaterial
  1
Global
 72
     1
 94
      127
  0
MLINESTYLE
  5
18
102
{ACAD_REACTORS
330
17
102
}
330
17
100
AcDbMlineStyle
  2
Standard
 70
     0
  3

 62
   256
 51
90.0
 52
90.0
 71
     2
 49
0.5
 62
   256
  6
BYLAYER
 49
-0.5
 62
   256
  6
BYLAYER
  0
ACDBPLACEHOLDER
  5
F
102
{ACAD_REACTORS
330
E
102
}
330
E
  0
VISUALSTYLE
  5
2F
102
{ACAD_REACTORS
330
2A
102
}
330
2A
100
AcDbVisualStyle
  2
2dWireframe
 70
     4
177
     2
291
     0
 71
     0
176
     1
 72
     2
176
     1
 73
     0
176
     1
 90
        0
176
     1
 40
-0.6
176
     1
 41
-30.0
176
     1
 62
     5
 63
     7
421
 16777215
176
     1
 74
     1
176
     1
 91
        4
176
     1
 64
     7
176
     1
 65
   257
176
     1
 75
     1
176
     1
175
     1
176
     1
 42
1.0
176
     1
 92
        0
176
     1
 66
   257
176
     1
 43
1.0
176
     1
 76
     1
176
     1
 77
     6
176
     1
 78
     2
176
     1
 67
     7
176
     1
 79
     5
176
     1
170
     0
176
     1
171
     0
176
     1
290
     0
176
     1
 93
        1
176
     1
 44
0.0
176
     1
173
     0
176
     1
  0
VISUALSTYLE
  5
31
102
{ACAD_REACTORS
330
2A
102
}
330
2A
100
AcDbVisualStyle
  2
3D Hidden
 70
     6
177
     2
291
     0
 71
     1
176
     1
 72
     2
176
     1
 73
     2
176
     1
 90
        0
176
     1
 40
-0.6
176
     1
 41
-30.0
176
     1
 62
     5
 63
     7
421
 16777215
176
     1
 74
     2
176
     1
 91
        2
176
     1
 64
     7
176
     1
 65
   257
176
     1
 75
     2
176
     1
175
     1
176
     1
 42
40.0
176
     1
 92
        0
176
     1
 66
   257
176
     1
 43
1.0
176
     1
 76
     1
176
     1
 77
     6
176
     1
 78
     2
176
     1
 67
     7
176
     1
 79
     3
176
     1
170
     0
176
     1
171
     0
176
     1
290
     0
176
     1
 93
        1
176
     1
 44
0.0
176
     1
173
     0
176
     1
  0
VISUALSTYLE
  5
30
102
{ACAD_REACTORS
330
2A
102
}
330
2A
100
AcDbVisualStyle
  2
3dWireframe
 70
     5
177
     2
291
     0
 71
     0
176
     1
 72
     2
176
     1
 73
     0
176
     1
 90
        0
176
     1
 40
-0.6
176
     1
 41
-30.0
176
     1
 62
     5
 63
     7
421
 16777215
176
     1
 74
     1
176
     1
 91
        4
176
     1
 64
     7
176
     1
 65
   257
176
     1
 75
     1
176
     1
175
     1
176
     1
 42
1.0
176
     1
 92
        0
176
     1
 66
   257
176
     1
 43
1.0
176
     1
 76
     1
176
     1
 77
     6
176
     1
 78
     2
176
     1
 67
     7
176
     1
 79
     5
176
     1
170
     0
176
     1
171
     0
176
     1
290
     0
176
     1
 93
        1
176
     1
 44
0.0
176
     1
173
     0
176
     1
  0
VISUALSTYLE
  5
32
102
{ACAD_REACTORS
330
2A
102
}
330
2A
100
AcDbVisualStyle
  2
Basic
 70
     7
177
     2
291
     1
 71
     1
176
     1
 72
     0
176
     1
 73
     1
176
     1
 90
        0
176
     1
 40
-0.6
176
     1
 41
-30.0
176
     1
 62
     5
 63
     7
421
 16777215
176
     1
 74
     0
176
     1
 91
        4
176
     1
 64
     7
176
     1
 65
   257
176
     1
 75
     1
176
     1
175
     1
176
     1
 42
1.0
176
     1
 92
        8
176
     1
 66
     7
176
     1
 43
1.0
176
     1
 76
     1
176
     1
 77
     6
176
     1
 78
     2
176
     1
 67
     7
176
     1
 79
     5
176
     1
170
     0
176
     1
171
     0
176
     1
290
     0
176
     1
 93
        1
176
     1
 44
0.0
176
     1
173
     0
176
     1
  0
VISUALSTYLE
  5
36
102
{ACAD_REACTORS
330
2A
102
}
330
2A
100
AcDbVisualStyle
  2
Brighten
 70
    12
177
     2
291
     1
 71
     2
176
     1
 72
     2
176
     1
 73
     0
176
     1
 90
        0
176
     1
 40
-0.6
176
     1
 41
-30.0
176
     1
 62
     5
 63
     7
421
 16777215
176
     1
 74
     1
176
     1
 91
        4
176
     1
 64
     7
176
     1
 65
   257
176
     1
 75
     1
176
     1
175
     1
176
     1
 42
1.0
176
     1
 92
        8
176
     1
 66
     7
176
     1
 43
1.0
176
     1
 76
     1
176
     1
 77
     6
176
     1
 78
     2
176
     1
 67
     7
176
     1
 79
     5
176
     1
170
     0
176
     1
171
     0
176
     1
290
     0
176
     1
 93
        1
176
     1
 44
50.0
176
     1
173
     0
176
     1
  0
VISUALSTYLE
  5
3A
102
{ACAD_REACTORS
330
2A
102
}
330
2A
100
AcDbVisualStyle
  2
ColorChange
 70
    16
177
     2
291
     1
 71
     2
176
     1
 72
     2
176
     1
 73
     3
176
     1
 90
        0
176
     1
 40
-0.6
176
     1
 41
-30.0
176
     1
 62
     5
 63
     8
421
  8421504
176
     1
 74
     1
176
     1
 91
        4
176
     1
 64
     7
176
     1
 65
   257
176
     1
 75
     1
176
     1
175
     1
176
     1
 42
1.0
176
     1
 92
        8
176
     1
 66
     8
424
  8421504
176
     1
 43
1.0
176
     1
 76
     1
176
     1
 77
     6
176
     1
 78
     2
176
     1
 67
     7
176
     1
 79
     5
176
     1
170
     0
176
     1
171
     0
176
     1
290
     0
176
     1
 93
        1
176
     1
 44
0.0
176
     1
173
     0
176
     1
  0
VISUALSTYLE
  5
34
102
{ACAD_REACTORS
330
2A
102
}
330
2A
100
AcDbVisualStyle
  2
Conceptual
 70
     9
177
     2
291
     0
 71
     3
176
     1
 72
     2
176
     1
 73
     0
176
     1
 90
        0
176
     1
 40
-0.6
176
     1
 41
-30.0
176
     1
 62
     5
 63
     7
421
 16777215
176
     1
 74
     2
176
     1
 91
        2
176
     1
 64
     7
176
     1
 65
   257
176
     1
 75
     1
176
     1
175
     1
176
     1
 42
40.0
176
     1
 92
        8
176
     1
 66
     7
176
     1
 43
1.0
176
     1
 76
     1
176
     1
 77
     6
176
     1
 78
     2
176
     1
 67
     7
176
     1
 79
     3
176
     1
170
     0
176
     1
171
     0
176
     1
290
     0
176
     1
 93
        1
176
     1
 44
0.0
176
     1
173
     0
176
     1
  0
VISUALSTYLE
  5
35
102
{ACAD_REACTORS
330
2A
102
}
330
2A
100
AcDbVisualStyle
  2
Dim
 70
    11
177
     2
291
     1
 71
     2
176
     1
 72
     2
176
     1
 73
     0
176
     1
 90
        0
176
     1
 40
-0.6
176
     1
 41
-30.0
176
     1
 62
     5
 63
     7
421
 16777215
176
     1
 74
     1
176
     1
 91
        4
176
     1
 64
     7
176
     1
 65
   257
176
     1
 75
     1
176
     1
175
     1
176
     1
 42
1.0
176
     1
 92
        8
176
     1
 66
     7
176
     1
 43
1.0
176
     1
 76
     1
176
     1
 77
     6
176
     1
 78
     2
176
     1
 67
     7
176
     1
 79
     5
176
     1
170
     0
176
     1
171
     0
176
     1
290
     0
176
     1
 93
        1
176
     1
 44
-50.0
176
     1
173
     0
176
     1
  0
VISUALSTYLE
  5
39
102
{ACAD_REACTORS
330
2A
102
}
330
2A
100
AcDbVisualStyle
  2
Facepattern
 70
    15
177
     2
291
     1
 71
     2
176
     1
 72
     2
176
     1
 73
     0
176
     1
 90
        0
176
     1
 40
-0.6
176
     1
 41
-30.0
176
     1
 62
     5
 63
     7
421
 16777215
176
     1
 74
     1
176
     1
 91
        4
176
     1
 64
     7
176
     1
 65
   257
176
     1
 75
     1
176
     1
175
     1
176
     1
 42
1.0
176
     1
 92
        8
176
     1
 66
     7
176
     1
 43
1.0
176
     1
 76
     1
176
     1
 77
     6
176
     1
 78
     2
176
     1
 67
     7
176
     1
 79
     5
176
     1
170
     0
176
     1
171
     0
176
     1
290
     0
176
     1
 93
        1
176
     1
 44
0.0
176
     1
173
     0
176
     1
  0
VISUALSTYLE
  5
2B
102
{ACAD_REACTORS
330
2A
102
}
330
2A
100
AcDbVisualStyle
  2
Flat
 70
     0
177
     2
291
     1
 71
     2
176
     1
 72
     1
176
     1
 73
     1
176
     1
 90
        2
176
     1
 40
-0.6
176
     1
 41
30.0
176
     1
 62
     5
 63
     7
421
 16777215
176
     1
 74
     0
176
     1
 91
        4
176
     1
 64
     7
176
     1
 65
   257
176
     1
 75
     1
176
     1
175
     1
176
     1
 42
1.0
176
     1
 92
        8
176
     1
 66
     7
176
     1
 43
1.0
176
     1
 76
     1
176
     1
 77
     6
176
     1
 78
     2
176
     1
 67
     7
176
     1
 79
     5
176
     1
170
     0
176
     1
171
     0
176
     1
290
     0
176
     1
 93
       13
176
     1
 44
0.0
176
     1
173
     0
176
     1
  0
VISUALSTYLE
  5
2C
102
{ACAD_REACTORS
330
2A
102
}
330
2A
100
AcDbVisualStyle
  2
FlatWithEdges
 70
     1
177
     2
291
     1
 71
     2
176
     1
 72
     1
176
     1
 73
     1
176
     1
 90
        2
176
     1
 40
-0.6
176
     1
 41
30.0
176
     1
 62
     5
 63
     7
421
 16777215
176
     1
 74
     1
176
     1
 91
        4
176
     1
 64
     7
176
     1
 65
   257
176
     1
 75
     1
176
     1
175
     1
176
     1
 42
1.0
176
     1
 92
        0
176
     1
 66
   257
176
     1
 43
1.0
176
     1
 76
     1
176
     1
 77
     6
176
     1
 78
     2
176
     1
 67
     7
176
     1
 79
     5
176
     1
170
     0
176
     1
171
     0
176
     1
290
     0
176
     1
 93
       13
176
     1
 44
0.0
176
     1
173
     0
176
     1
  0
VISUALSTYLE
  5
2D
102
{ACAD_REACTORS
330
2A
102
}
330
2A
100
AcDbVisualStyle
  2
Gouraud
 70
     2
177
     2
291
     1
 71
     2
176
     1
 72
     2
176
     1
 73
     1
176
     1
 90
        2
176
     1
 40
-0.6
176
     1
 41
30.0
176
     1
 62
     5
 63
     7
421
 16777215
176
     1
 74
     0
176
     1
 91
        4
176
     1
 64
     7
176
     1
 65
   257
176
     1
 75
     1
176
     1
175
     1
176
     1
 42
1.0
176
     1
 92
        0
176
     1
 66
     7
176
     1
 43
1.0
176
     1
 76
     1
176
     1
 77
     6
176
     1
 78
     2
176
     1
 67
     7
176
     1
 79
     5
176
     1
170
     0
176
     1
171
     0
176
     1
290
     0
176
     1
 93
       13
176
     1
 44
0.0
176
     1
173
     0
176
     1
  0
VISUALSTYLE
  5
2E
102
{ACAD_REACTORS
330
2A
102
}
330
2A
100
AcDbVisualStyle
  2
GouraudWithEdges
 70
     3
177
     2
291
     1
 71
     2
176
     1
 72
     2
176
     1
 73
     1
176
     1
 90
        2
176
     1
 40
-0.6
176
     1
 41
30.0
176
     1
 62
     5
 63
     7
421
 16777215
176
     1
 74
     1
176
     1
 91
        4
176
     1
 64
     7
176
     1
 65
   257
176
     1
 75
     1
176
     1
175
     1
176
     1
 42
1.0
176
     1
 92
        0
176
     1
 66
   257
176
     1
 43
1.0
176
     1
 76
     1
176
     1
 77
     6
176
     1
 78
     2
176
     1
 67
     7
176
     1
 79
     5
176
     1
170
     0
176
     1
171
     0
176
     1
290
     0
176
     1
 93
       13
176
     1
 44
0.0
176
     1
173
     0
176
     1
  0
VISUALSTYLE
  5
38
102
{ACAD_REACTORS
330
2A
102
}
330
2A
100
AcDbVisualStyle
  2
Linepattern
 70
    14
177
     2
291
     1
 71
     2
176
     1
 72
     2
176
     1
 73
     0
176
     1
 90
        0
176
     1
 40
-0.6
176
     1
 41
-30.0
176
     1
 62
     5
 63
     7
421
 16777215
176
     1
 74
     1
176
     1
 91
        4
176
     1
 64
     7
176
     1
 65
   257
176
     1
 75
     7
176
     1
175
     7
176
     1
 42
1.0
176
     1
 92
        8
176
     1
 66
     7
176
     1
 43
1.0
176
     1
 76
     1
176
     1
 77
     6
176
     1
 78
     2
176
     1
 67
     7
176
     1
 79
     5
176
     1
170
     0
176
     1
171
     0
176
     1
290
     0
176
     1
 93
        1
176
     1
 44
0.0
176
     1
173
     0
176
     1
  0
VISUALSTYLE
  5
33
102
{ACAD_REACTORS
330
2A
102
}
330
2A
100
AcDbVisualStyle
  2
Realistic
 70
     8
177
     2
291
     0
 71
     2
176
     1
 72
     2
176
     1
 73
     0
176
     1
 90
        0
176
     1
 40
-0.6
176
     1
 41
-30.0
176
     1
 62
     5
 63
     7
421
 16777215
176
     1
 74
     1
176
     1
 91
        0
176
     1
 64
     7
176
     1
 65
   257
176
     1
 75
     1
176
     1
175
     1
176
     1
 42
1.0
176
     1
 92
        8
176
     1
 66
     8
424
  7895160
176
     1
 43
1.0
176
     1
 76
     1
176
     1
 77
     6
176
     1
 78
     2
176
     1
 67
     7
176
     1
 79
     5
176
     1
170
     0
176
     1
171
     0
176
     1
290
     0
176
     1
 93
       13
176
     1
 44
0.0
176
     1
173
     0
176
     1
  0
VISUALSTYLE
  5
37
102
{ACAD_REACTORS
330
2A
102
}
330
2A
100
AcDbVisualStyle
  2
Thicken
 70
    13
177
     2
291
     1
 71
     2
176
     1
 72
     2
176
     1
 73
     0
176
     1
 90
        0
176
     1
 40
-0.6
176
     1
 41
-30.0
176
     1
 62
     5
 63
     7
421
 16777215
176
     1
 74
     1
176
     1
 91
        4
176
     1
 64
     7
176
     1
 65
   257
176
     1
 75
     1
176
     1
175
     1
176
     1
 42
1.0
176
     1
 92
       12
176
     1
 66
     7
176
     1
 43
1.0
176
     1
 76
     1
176
     1
 77
     6
176
     1
 78
     2
176
     1
 67
     7
176
     1
 79
     5
176
     1
170
     0
176
     1
171
     0
176
     1
290
     0
176
     1
 93
        1
176
     1
 44
0.0
176
     1
173
     0
176
     1
  0
ENDSEC
  0
EOF
