  0
SECTION
  2
HEADER
  9
$ACADVER
  1
AC1024
  9
$ACADMAINTVER
 70
     6
  9
$DWGCODEPAGE
  3
UNDEFINED
  9
$INSBASE
 10
0.0
 20
0.0
 30
0.0
  9
$EXTMIN
 10
1.000000000000000E+20
 20
1.000000000000000E+20
 30
1.000000000000000E+20
  9
$EXTMAX
 10
-1.000000000000000E+20
 20
-1.000000000000000E+20
 30
-1.000000000000000E+20
  9
$LIMMIN
 10
0.0
 20
0.0
  9
$LIMMAX
 10
12.0
 20
9.0
  9
$ORTHOMODE
 70
     0
  9
$REGENMODE
 70
     1
  9
$FILLMODE
 70
     1
  9
$QTEXTMODE
 70
     0
  9
$MIRRTEXT
 70
     1
  9
$LTSCALE
 40
1.0
  9
$ATTMODE
 70
     1
  9
$TEXTSIZE
 40
0.2
  9
$TRACEWID
 40
0.05
  9
$TEXTSTYLE
  7
Standard
  9
$CLAYER
  8
0
  9
$CELTYPE
  6
ByLayer
  9
$CECOLOR
 62
   256
  9
$CELTSCALE
 40
1.0
  9
$DISPSILH
 70
     0
  9
$DIMSCALE
 40
1.0
  9
$DIMASZ
 40
0.18
  9
$DIMEXO
 40
0.0625
  9
$DIMDLI
 40
0.38
  9
$DIMRND
 40
0.0
  9
$DIMDLE
 40
0.0
  9
$DIMEXE
 40
0.18
  9
$DIMTP
 40
0.0
  9
$DIMTM
 40
0.0
  9
$DIMTXT
 40
0.18
  9
$DIMCEN
 40
0.09
  9
$DIMTSZ
 40
0.0
  9
$DIMTOL
 70
     0
  9
$DIMLIM
 70
     0
  9
$DIMTIH
 70
     1
  9
$DIMTOH
 70
     1
  9
$DIMSE1
 70
     0
  9
$DIMSE2
 70
     0
  9
$DIMTAD
 70
     0
  9
$DIMZIN
 70
     0
  9
$DIMBLK
  1

  9
$DIMASO
 70
     1
  9
$DIMSHO
 70
     1
  9
$DIMPOST
  1

  9
$DIMAPOST
  1

  9
$DIMALT
 70
     0
  9
$DIMALTD
 70
     2
  9
$DIMALTF
 40
25.4
  9
$DIMLFAC
 40
1.0
  9
$DIMTOFL
 70
     0
  9
$DIMTVP
 40
0.0
  9
$DIMTIX
 70
     0
  9
$DIMSOXD
 70
     0
  9
$DIMSAH
 70
     0
  9
$DIMBLK1
  1

  9
$DIMBLK2
  1

  9
$DIMSTYLE
  2
Standard
  9
$DIMCLRD
 70
     0
  9
$DIMCLRE
 70
     0
  9
$DIMCLRT
 70
     0
  9
$DIMTFAC
 40
1.0
  9
$DIMGAP
 40
0.09
  9
$DIMJUST
 70
     0
  9
$DIMSD1
 70
     0
  9
$DIMSD2
 70
     0
  9
$DIMTOLJ
 70
     1
  9
$DIMTZIN
 70
     0
  9
$DIMALTZ
 70
     0
  9
$DIMALTTZ
 70
     0
  9
$DIMUPT
 70
     0
  9
$DIMDEC
 70
     4
  9
$DIMTDEC
 70
     4
  9
$DIMALTU
 70
     2
  9
$DIMALTTD
 70
     2
  9
$DIMTXSTY
  7
Standard
  9
$DIMAUNIT
 70
     0
  9
$DIMADEC
 70
     0
  9
$DIMALTRND
 40
0.0
  9
$DIMAZIN
 70
     0
  9
$DIMDSEP
 70
    46
  9
$DIMATFIT
 70
     3
  9
$DIMFRAC
 70
     0
  9
$DIMLDRBLK
  1

  9
$DIMLUNIT
 70
     2
  9
$DIMLWD
 70
    -2
  9
$DIMLWE
 70
    -2
  9
$DIMTMOVE
 70
     0
  9
$DIMFXL
 40
1.0
  9
$DIMFXLON
 70
     0
  9
$DIMJOGANG
 40
0.7853981633974483
  9
$DIMTFILL
 70
     0
  9
$DIMTFILLCLR
 70
     0
  9
$DIMARCSYM
 70
     0
  9
$DIMLTYPE
  6

  9
$DIMLTEX1
  6

  9
$DIMLTEX2
  6

  9
$DIMTXTDIRECTION
 70
     0
  9
$LUNITS
 70
     2
  9
$LUPREC
 70
     4
  9
$SKETCHINC
 40
0.1
  9
$FILLETRAD
 40
0.5
  9
$AUNITS
 70
     0
  9
$AUPREC
 70
     0
  9
$MENU
  1
.
  9
$ELEVATION
 40
0.0
  9
$PELEVATION
 40
0.0
  9
$THICKNESS
 40
0.0
  9
$LIMCHECK
 70
     0
  9
$CHAMFERA
 40
0.5
  9
$CHAMFERB
 40
0.5
  9
$CHAMFERC
 40
1.0
  9
$CHAMFERD
 40
0.0
  9
$SKPOLY
 70
     0
  9
$TDCREATE
 40
2458263.5784375
  9
$TDUCREATE
 40
2458263.2034375
  9
$TDUPDATE
 40
2458263.5784375
  9
$TDUUPDATE
 40
2458263.2034375
  9
$TDINDWG
 40
0.0000000116
  9
$TDUSRTIMER
 40
0.0000000116
  9
$USRTIMER
 70
     1
  9
$ANGBASE
 50
0.0
  9
$ANGDIR
 70
     0
  9
$PDMODE
 70
     0
  9
$PDSIZE
 40
0.0
  9
$PLINEWID
 40
0.0
  9
$SPLFRAME
 70
     0
  9
$SPLINETYPE
 70
     6
  9
$SPLINESEGS
 70
     8
  9
$HANDSEED
  5
129
  9
$SURFTAB1
 70
     6
  9
$SURFTAB2
 70
     6
  9
$SURFTYPE
 70
     6
  9
$SURFU
 70
     6
  9
$SURFV
 70
     6
  9
$UCSBASE
  2

  9
$UCSNAME
  2

  9
$UCSORG
 10
0.0
 20
0.0
 30
0.0
  9
$UCSXDIR
 10
1.0
 20
0.0
 30
0.0
  9
$UCSYDIR
 10
0.0
 20
1.0
 30
0.0
  9
$UCSORTHOREF
  2

  9
$UCSORTHOVIEW
 70
     0
  9
$UCSORGTOP
 10
0.0
 20
0.0
 30
0.0
  9
$UCSORGBOTTOM
 10
0.0
 20
0.0
 30
0.0
  9
$UCSORGLEFT
 10
0.0
 20
0.0
 30
0.0
  9
$UCSORGRIGHT
 10
0.0
 20
0.0
 30
0.0
  9
$UCSORGFRONT
 10
0.0
 20
0.0
 30
0.0
  9
$UCSORGBACK
 10
0.0
 20
0.0
 30
0.0
  9
$PUCSBASE
  2

  9
$PUCSNAME
  2

  9
$PUCSORG
 10
0.0
 20
0.0
 30
0.0
  9
$PUCSXDIR
 10
1.0
 20
0.0
 30
0.0
  9
$PUCSYDIR
 10
0.0
 20
1.0
 30
0.0
  9
$PUCSORTHOREF
  2

  9
$PUCSORTHOVIEW
 70
     0
  9
$PUCSORGTOP
 10
0.0
 20
0.0
 30
0.0
  9
$PUCSORGBOTTOM
 10
0.0
 20
0.0
 30
0.0
  9
$PUCSORGLEFT
 10
0.0
 20
0.0
 30
0.0
  9
$PUCSORGRIGHT
 10
0.0
 20
0.0
 30
0.0
  9
$PUCSORGFRONT
 10
0.0
 20
0.0
 30
0.0
  9
$PUCSORGBACK
 10
0.0
 20
0.0
 30
0.0
  9
$USERI1
 70
     0
  9
$USERI2
 70
     0
  9
$USERI3
 70
     0
  9
$USERI4
 70
     0
  9
$USERI5
 70
     0
  9
$USERR1
 40
0.0
  9
$USERR2
 40
0.0
  9
$USERR3
 40
0.0
  9
$USERR4
 40
0.0
  9
$USERR5
 40
0.0
  9
$WORLDVIEW
 70
     1
  9
$SHADEDGE
 70
     3
  9
$SHADEDIF
 70
    70
  9
$TILEMODE
 70
     1
  9
$MAXACTVP
 70
    64
  9
$PINSBASE
 10
0.0
 20
0.0
 30
0.0
  9
$PLIMCHECK
 70
     0
  9
$PEXTMIN
 10
1.000000000000000E+20
 20
1.000000000000000E+20
 30
1.000000000000000E+20
  9
$PEXTMAX
 10
-1.000000000000000E+20
 20
-1.000000000000000E+20
 30
-1.000000000000000E+20
  9
$PLIMMIN
 10
0.0
 20
0.0
  9
$PLIMMAX
 10
12.0
 20
9.0
  9
$UNITMODE
 70
     0
  9
$VISRETAIN
 70
     1
  9
$PLINEGEN
 70
     0
  9
$PSLTSCALE
 70
     1
  9
$TREEDEPTH
 70
  3020
  9
$CMLSTYLE
  2
Standard
  9
$CMLJUST
 70
     0
  9
$CMLSCALE
 40
1.0
  9
$PROXYGRAPHICS
 70
     1
  9
$MEASUREMENT
 70
     0
  9
$CELWEIGHT
370
    -1
  9
$ENDCAPS
280
     0
  9
$JOINSTYLE
280
     0
  9
$LWDISPLAY
290
     1
  9
$INSUNITS
 70
     1
  9
$HYPERLINKBASE
  1

  9
$STYLESHEET
  1

  9
$XEDIT
290
     1
  9
$CEPSNTYPE
380
     0
  9
$PSTYLEMODE
290
     1
  9
$FINGERPRINTGUID
  2
{3CD088B4-9E24-DBA1-DADF-22D8F8DAD4FB}
  9
$VERSIONGUID
  2
{FAEB1C32-E019-11D5-929B-00C0DF256EC4}
  9
$EXTNAMES
290
     1
  9
$PSVPSCALE
 40
0.0
  9
$OLESTARTUP
290
     0
  9
$SORTENTS
280
   127
  9
$INDEXCTL
280
     0
  9
$HIDETEXT
280
     1
  9
$XCLIPFRAME
280
     2
  9
$HALOGAP
280
     0
  9
$OBSCOLOR
 70
   257
  9
$OBSLTYPE
280
     0
  9
$INTERSECTIONDISPLAY
280
     0
  9
$INTERSECTIONCOLOR
 70
   257
  9
$DIMASSOC
280
     2
  9
$PROJECTNAME
  1

  9
$CAMERADISPLAY
290
     0
  9
$LENSLENGTH
 40
50.0
  9
$CAMERAHEIGHT
 40
0.0
  9
$STEPSPERSEC
 40
2.0
  9
$STEPSIZE
 40
6.0
  9
$3DDWFPREC
 40
2.0
  9
$PSOLWIDTH
 40
0.25
  9
$PSOLHEIGHT
 40
4.0
  9
$LOFTANG1
 40
1.570796326794897
  9
$LOFTANG2
 40
1.570796326794897
  9
$LOFTMAG1
 40
0.0
  9
$LOFTMAG2
 40
0.0
  9
$LOFTPARAM
 70
     7
  9
$LOFTNORMALS
280
     1
  9
$LATITUDE
 40
37.795
  9
$LONGITUDE
 40
-122.394
  9
$NORTHDIRECTION
 40
0.0
  9
$TIMEZONE
 70
 -8000
  9
$LIGHTGLYPHDISPLAY
280
     1
  9
$TILEMODELIGHTSYNCH
280
     1
  9
$CMATERIAL
347
3C
  9
$SOLIDHIST
280
     1
  9
$SHOWHIST
280
     1
  9
$DWFFRAME
280
     2
  9
$DGNFRAME
280
     2
  9
$REALWORLDSCALE
290
     1
  9
$INTERFERECOLOR
 62
   256
  9
$CSHADOW
280
     0
  9
$SHADOWPLANELOCATION
 40
0.0
  0
ENDSEC
  0
SECTION
  2
CLASSES
  0
CLASS
  1
ACDBDICTIONARYWDFLT
  2
AcDbDictionaryWithDefault
  3
ObjectDBX Classes
 90
        0
 91
        4
280
     0
281
     0
  0
CLASS
  1
VISUALSTYLE
  2
AcDbVisualStyle
  3
ObjectDBX Classes
 90
     4095
 91
        4
280
     0
281
     0
  0
CLASS
  1
MATERIAL
  2
AcDbMaterial
  3
ObjectDBX Classes
 90
     1153
 91
        4
280
     0
281
     0
  0
CLASS
  1
SUN
  2
AcDbSun
  3
SCENEOE
 90
     1024
 91
        4
280
     0
281
     0
  0
ENDSEC
  0
SECTION
  2
TABLES
  0
TABLE
  2
VPORT
  5
8
330
0
100
AcDbSymbolTable
 70
     1
  0
VPORT
  5
29
330
8
100
AcDbSymbolTableRecord
100
AcDbViewportTableRecord
  2
*Active
 70
     0
 10
0.0
 20
0.0
 11
1.0
 21
1.0
 12
0.0
 22
0.0
 13
0.0
 23
0.0
 14
0.5
 24
0.5
 15
0.5
 25
0.5
 16
0.0
 26
0.0
 36
1.0
 17
105.0007777515277
 27
-148.5000416295416
 37
0.0
 40
297.0000832590831
 41
0.7070757462376333
 42
50.0
 43
0.0
 44
0.0
 50
0.0
 51
0.0
 71
     0
 72
   100
 73
     1
 74
     3
 75
     0
 76
     0
 77
     0
 78
     0
281
     0
 65
     1
110
0.0
120
0.0
130
0.0
111
1.0
121
0.0
131
0.0
112
0.0
122
1.0
132
0.0
 79
     0
146
0.0
 60
     3
 61
     5
292
     1
282
     1
141
0.0
142
0.0
 63
   250
361
3F
  0
ENDTAB
  0
TABLE
  2
LTYPE
  5
5
330
0
100
AcDbSymbolTable
 70
     1
  0
LTYPE
  5
14
330
5
100
AcDbSymbolTableRecord
100
AcDbLinetypeTableRecord
  2
ByBlock
 70
     0
  3

 72
    65
 73
     0
 40
0.0
  0
LTYPE
  5
15
330
5
100
AcDbSymbolTableRecord
100
AcDbLinetypeTableRecord
  2
ByLayer
 70
     0
  3

 72
    65
 73
     0
 40
0.0
  0
LTYPE
  5
16
330
5
100
AcDbSymbolTableRecord
100
AcDbLinetypeTableRecord
  2
Continuous
 70
     0
  3
Solid line
 72
    65
 73
     0
 40
0.0
  0
ENDTAB
  0
TABLE
  2
LAYER
  5
2
330
0
100
AcDbSymbolTable
 70
     2
  0
LAYER
  5
10
330
2
100
AcDbSymbolTableRecord
100
AcDbLayerTableRecord
  2
0
 70
     0
 62
     7
  6
Continuous
370
    -3
390
F
347
3E
  0
LAYER
  5
40
330
2
100
AcDbSymbolTableRecord
100
AcDbLayerTableRecord
  2
_U+30EC_U+30A4_U+30E4_U+30FC 1
 70
     0
 62
     7
  6
Continuous
370
    -3
390
F
347
3E
  0
ENDTAB
  0
TABLE
  2
STYLE
  5
3
330
0
100
AcDbSymbolTable
 70
     1
  0
STYLE
  5
11
330
3
100
AcDbSymbolTableRecord
100
AcDbTextStyleTableRecord
  2
Standard
 70
     0
 40
0.0
 41
1.0
 50
0.0
 71
     0
 42
0.2
  3
txt
  4

  0
ENDTAB
  0
TABLE
  2
VIEW
  5
6
330
0
100
AcDbSymbolTable
 70
     0
  0
ENDTAB
  0
TABLE
  2
UCS
  5
7
330
0
100
AcDbSymbolTable
 70
     0
  0
ENDTAB
  0
TABLE
  2
APPID
  5
9
330
0
100
AcDbSymbolTable
 70
     1
  0
APPID
  5
12
330
9
100
AcDbSymbolTableRecord
100
AcDbRegAppTableRecord
  2
ACAD
 70
     0
  0
ENDTAB
  0
TABLE
  2
DIMSTYLE
  5
A
330
0
100
AcDbSymbolTable
 70
     1
100
AcDbDimStyleTable
  0
DIMSTYLE
105
27
330
A
100
AcDbSymbolTableRecord
100
AcDbDimStyleTableRecord
  2
Standard
 70
     0
178
     0
340
11
  0
ENDTAB
  0
TABLE
  2
BLOCK_RECORD
  5
1
330
0
100
AcDbSymbolTable
 70
     4
  0
BLOCK_RECORD
  5
1F
330
1
100
AcDbSymbolTableRecord
100
AcDbBlockTableRecord
  2
*Model_Space
340
22
 70
     0
280
     1
281
     0
  0
BLOCK_RECORD
  5
1B
330
1
100
AcDbSymbolTableRecord
100
AcDbBlockTableRecord
  2
*Paper_Space
340
1E
 70
     0
280
     1
281
     0
  0
BLOCK_RECORD
  5
23
330
1
100
AcDbSymbolTableRecord
100
AcDbBlockTableRecord
  2
*Paper_Space0
340
26
 70
     0
280
     1
281
     0
  0
BLOCK_RECORD
  5
41
330
1
100
AcDbSymbolTableRecord
100
AcDbBlockTableRecord
  2
block 2
340
0
102
{BLKREFS
331
42
102
}
 70
     0
280
     1
281
     0
  0
BLOCK_RECORD
  5
7E
330
1
100
AcDbSymbolTableRecord
100
AcDbBlockTableRecord
  2
block 3
340
0
102
{BLKREFS
331
7F
102
}
 70
     0
280
     1
281
     0
  0
BLOCK_RECORD
  5
AB
330
1
100
AcDbSymbolTableRecord
100
AcDbBlockTableRecord
  2
block 4
340
0
102
{BLKREFS
331
AC
102
}
 70
     0
280
     1
281
     0
  0
ENDTAB
  0
ENDSEC
  0
SECTION
  2
BLOCKS
  0
BLOCK
  5
20
330
1F
100
AcDbEntity
  8
0
100
AcDbBlockBegin
  2
*Model_Space
 70
     0
 10
0.0
 20
0.0
 30
0.0
  3
*Model_Space
  1

  0
ENDBLK
  5
21
330
1F
100
AcDbEntity
  8
0
100
AcDbBlockEnd
  0
BLOCK
  5
1C
330
1B
100
AcDbEntity
 67
     1
  8
0
100
AcDbBlockBegin
  2
*Paper_Space
 70
     0
 10
0.0
 20
0.0
 30
0.0
  3
*Paper_Space
  1

  0
ENDBLK
  5
1D
330
1B
100
AcDbEntity
 67
     1
  8
0
100
AcDbBlockEnd
  0
BLOCK
  5
24
330
23
100
AcDbEntity
  8
0
100
AcDbBlockBegin
  2
*Paper_Space0
 70
     0
 10
0.0
 20
0.0
 30
0.0
  3
*Paper_Space0
  1

  0
ENDBLK
  5
25
330
23
100
AcDbEntity
  8
0
100
AcDbBlockEnd
  0
BLOCK
  5
43
330
41
100
AcDbEntity
  8
0
100
AcDbBlockBegin
  2
block 2
 70
     0
 10
0.0
 20
0.0
 30
0.0
  3
block 2
  1

  0
SPLINE
  5
45
330
41
100
AcDbEntity
  8
_U+30EC_U+30A4_U+30E4_U+30FC 1
370
     0
100
AcDbSpline
210
0.0
220
0.0
230
1.0
 70
    11
 71
     3
 72
    38
 73
    34
 74
     0
 42
0.0000000001
 43
0.0000000001
 12
1.0
 22
0.0
 32
0.0
 13
1.0
 23
0.0
 33
0.0
 40
0.0
 40
0.0
 40
0.0
 40
0.0
 40
1.0
 40
1.0
 40
1.0
 40
2.0
 40
2.0
 40
2.0
 40
3.0
 40
3.0
 40
3.0
 40
4.0
 40
4.0
 40
4.0
 40
5.0
 40
5.0
 40
5.0
 40
6.0
 40
6.0
 40
6.0
 40
7.0
 40
7.0
 40
7.0
 40
8.0
 40
8.0
 40
8.0
 40
9.0
 40
9.0
 40
9.0
 40
10.0
 40
10.0
 40
10.0
 40
11.0
 40
11.0
 40
11.0
 40
11.0
 10
107.6375298125003
 20
-137.5623182164775
 30
0.0
 10
107.6375298125003
 20
-137.0968858164202
 30
0.0
 10
108.0013318957427
 20
-136.8219671966973
 30
0.0
 10
108.4708984103823
 20
-136.8219671966973
 30
0.0
 10
108.9955864527858
 20
-136.8219671966973
 30
0.0
 10
109.281184868513
 20
-137.1647541974797
 30
0.0
 10
109.281184868513
 20
-137.5729980124817
 30
0.0
 10
109.281184868513
 20
-137.9178520705553
 30
0.0
 10
109.0927381454699
 20
-138.1948377475694
 30
0.0
 10
108.7754448512784
 20
-138.2161973395779
 30
0.0
 10
108.7754448512784
 20
-138.2161973395779
 30
0.0
 10
108.7754448512784
 20
-137.9857204516147
 30
0.0
 10
108.7754448512784
 20
-137.9857204516147
 30
0.0
 10
108.9828395994904
 20
-137.9474798917284
 30
0.0
 10
109.0655218911364
 20
-137.727338290221
 30
0.0
 10
109.0655218911364
 20
-137.5667968406083
 30
0.0
 10
109.0655218911364
 20
-137.4630994665023
 30
0.0
 10
109.0334825031236
 20
-137.3466552391008
 30
0.0
 10
108.9573458928996
 20
-137.2536376609991
 30
0.0
 10
108.8305663790424
 20
-137.0927517018379
 30
0.0
 10
108.6149034016657
 20
-137.0631238806648
 30
0.0
 10
108.4560844997957
 20
-137.0631238806648
 30
0.0
 10
108.0161458063293
 20
-137.0631238806648
 30
0.0
 10
107.8552598471681
 20
-137.3425211245186
 30
0.0
 10
107.8552598471681
 20
-137.5581841018952
 30
0.0
 10
107.8552598471681
 20
-137.6956434117567
 30
0.0
 10
107.9355305719745
 20
-137.9664279168973
 30
0.0
 10
108.2531683757145
 20
-137.9981227953616
 30
0.0
 10
108.2531683757145
 20
-137.9981227953616
 30
0.0
 10
108.2531683757145
 20
-138.2289441928733
 30
0.0
 10
108.2531683757145
 20
-138.2289441928733
 30
0.0
 10
108.1177761231442
 20
-138.2161973395779
 30
0.0
 10
107.6375298125003
 20
-138.1676214932359
 30
0.0
 10
107.6375298125003
 20
-137.5623182164775
 30
0.0
  0
HATCH
  5
46
330
41
100
AcDbEntity
  8
_U+30EC_U+30A4_U+30E4_U+30FC 1
 62
   179
420
  2234388
100
AcDbHatch
 10
0.0
 20
0.0
 30
0.0
210
0.0
220
0.0
230
1.0
  2
SOLID
 70
     1
 71
     0
 91
        1
 92
        1
 93
        1
 72
     4
 94
        3
 73
     0
 74
     1
 95
       38
 96
       34
 40
0.0
 40
0.0
 40
0.0
 40
0.0
 40
1.0
 40
1.0
 40
1.0
 40
2.0
 40
2.0
 40
2.0
 40
3.0
 40
3.0
 40
3.0
 40
4.0
 40
4.0
 40
4.0
 40
5.0
 40
5.0
 40
5.0
 40
6.0
 40
6.0
 40
6.0
 40
7.0
 40
7.0
 40
7.0
 40
8.0
 40
8.0
 40
8.0
 40
9.0
 40
9.0
 40
9.0
 40
10.0
 40
10.0
 40
10.0
 40
11.0
 40
11.0
 40
11.0
 40
11.0
 10
107.6375298125003
 20
-137.5623182164775
 10
107.6375298125003
 20
-137.0968858164202
 10
108.0013318957427
 20
-136.8219671966973
 10
108.4708984103823
 20
-136.8219671966973
 10
108.9955864527858
 20
-136.8219671966973
 10
109.281184868513
 20
-137.1647541974797
 10
109.281184868513
 20
-137.5729980124817
 10
109.281184868513
 20
-137.9178520705553
 10
109.0927381454699
 20
-138.1948377475694
 10
108.7754448512784
 20
-138.2161973395779
 10
108.7754448512784
 20
-138.2161973395779
 10
108.7754448512784
 20
-137.9857204516147
 10
108.7754448512784
 20
-137.9857204516147
 10
108.9828395994904
 20
-137.9474798917284
 10
109.0655218911364
 20
-137.727338290221
 10
109.0655218911364
 20
-137.5667968406083
 10
109.0655218911364
 20
-137.4630994665023
 10
109.0334825031236
 20
-137.3466552391008
 10
108.9573458928996
 20
-137.2536376609991
 10
108.8305663790424
 20
-137.0927517018379
 10
108.6149034016657
 20
-137.0631238806648
 10
108.4560844997957
 20
-137.0631238806648
 10
108.0161458063293
 20
-137.0631238806648
 10
107.8552598471681
 20
-137.3425211245186
 10
107.8552598471681
 20
-137.5581841018952
 10
107.8552598471681
 20
-137.6956434117567
 10
107.9355305719745
 20
-137.9664279168973
 10
108.2531683757145
 20
-137.9981227953616
 10
108.2531683757145
 20
-137.9981227953616
 10
108.2531683757145
 20
-138.2289441928733
 10
108.2531683757145
 20
-138.2289441928733
 10
108.1177761231442
 20
-138.2161973395779
 10
107.6375298125003
 20
-138.1676214932359
 10
107.6375298125003
 20
-137.5623182164775
 97
        0
 97
        0
 75
     2
 76
     1
 98
        0
  0
SPLINE
  5
47
330
41
100
AcDbEntity
  8
_U+30EC_U+30A4_U+30E4_U+30FC 1
370
     0
100
AcDbSpline
210
0.0
220
0.0
230
1.0
 70
    11
 71
     3
 72
    44
 73
    40
 74
     0
 42
0.0000000001
 43
0.0000000001
 12
1.0
 22
0.0
 32
0.0
 13
1.0
 23
0.0
 33
0.0
 40
0.0
 40
0.0
 40
0.0
 40
0.0
 40
1.0
 40
1.0
 40
1.0
 40
2.0
 40
2.0
 40
2.0
 40
3.0
 40
3.0
 40
3.0
 40
4.0
 40
4.0
 40
4.0
 40
5.0
 40
5.0
 40
5.0
 40
6.0
 40
6.0
 40
6.0
 40
7.0
 40
7.0
 40
7.0
 40
8.0
 40
8.0
 40
8.0
 40
9.0
 40
9.0
 40
9.0
 40
10.0
 40
10.0
 40
10.0
 40
11.0
 40
11.0
 40
11.0
 40
12.0
 40
12.0
 40
12.0
 40
13.0
 40
13.0
 40
13.0
 40
13.0
 10
107.6881727161335
 20
-139.437483689099
 30
0.0
 10
107.7326144478932
 20
-139.4144015493478
 30
0.0
 10
107.7853244088176
 20
-139.3930419573392
 30
0.0
 10
108.0161458063293
 20
-139.3909749000481
 30
0.0
 10
108.2593695475879
 20
-139.3868407854658
 30
0.0
 10
108.3293049859385
 20
-139.3275851431195
 30
0.0
 10
108.3293049859385
 20
-139.1498182160806
 30
0.0
 10
108.3293049859385
 20
-139.1498182160806
 30
0.0
 10
108.3293049859385
 20
-138.7415744010785
 30
0.0
 10
108.3293049859385
 20
-138.7415744010785
 30
0.0
 10
108.3293049859385
 20
-138.7415744010785
 30
0.0
 10
107.6881727161335
 20
-138.7415744010785
 30
0.0
 10
107.6881727161335
 20
-138.7415744010785
 30
0.0
 10
107.6881727161335
 20
-138.7415744010785
 30
0.0
 10
107.6881727161335
 20
-138.5066188889845
 30
0.0
 10
107.6881727161335
 20
-138.5066188889845
 30
0.0
 10
107.6881727161335
 20
-138.5066188889845
 30
0.0
 10
109.232609022171
 20
-138.5066188889845
 30
0.0
 10
109.232609022171
 20
-138.5066188889845
 30
0.0
 10
109.232609022171
 20
-138.5066188889845
 30
0.0
 10
109.232609022171
 20
-139.1815130945449
 30
0.0
 10
109.232609022171
 20
-139.1815130945449
 30
0.0
 10
109.232609022171
 20
-139.4884711022807
 30
0.0
 10
109.0610432670056
 20
-139.6555582333153
 30
0.0
 10
108.8050726724515
 20
-139.6555582333153
 30
0.0
 10
108.7544297688183
 20
-139.6555582333153
 30
0.0
 10
108.6717474771723
 20
-139.6469454946022
 30
0.0
 10
108.591476752366
 20
-139.6025037628424
 30
0.0
 10
108.48777937826
 20
-139.5432481204961
 30
0.0
 10
108.4688313530911
 20
-139.4777913062764
 30
0.0
 10
108.4519503852134
 20
-139.4164686066389
 30
0.0
 10
108.4095757107448
 20
-139.5539279165004
 30
0.0
 10
108.3609998644028
 20
-139.6214517880113
 30
0.0
 10
108.0457736275025
 20
-139.6259304121421
 30
0.0
 10
107.7749891223618
 20
-139.6300645267244
 30
0.0
 10
107.7432942438975
 20
-139.665893519771
 30
0.0
 10
107.6881727161335
 20
-139.7337619008304
 30
0.0
 10
107.6881727161335
 20
-139.7337619008304
 30
0.0
 10
107.6881727161335
 20
-139.437483689099
 30
0.0
 10
107.6881727161335
 20
-139.437483689099
 30
0.0
  0
SPLINE
  5
48
330
41
100
AcDbEntity
  8
_U+30EC_U+30A4_U+30E4_U+30FC 1
370
     0
100
AcDbSpline
210
0.0
220
0.0
230
1.0
 70
    11
 71
     3
 72
    20
 73
    16
 74
     0
 42
0.0000000001
 43
0.0000000001
 12
1.0
 22
0.0
 32
0.0
 13
1.0
 23
0.0
 33
0.0
 40
0.0
 40
0.0
 40
0.0
 40
0.0
 40
1.0
 40
1.0
 40
1.0
 40
2.0
 40
2.0
 40
2.0
 40
3.0
 40
3.0
 40
3.0
 40
4.0
 40
4.0
 40
4.0
 40
5.0
 40
5.0
 40
5.0
 40
5.0
 10
109.0210801593767
 20
-139.1859917186757
 30
0.0
 10
109.0210801593767
 20
-139.1859917186757
 30
0.0
 10
109.0210801593767
 20
-138.7415744010785
 30
0.0
 10
109.0210801593767
 20
-138.7415744010785
 30
0.0
 10
109.0210801593767
 20
-138.7415744010785
 30
0.0
 10
108.5408338487328
 20
-138.7415744010785
 30
0.0
 10
108.5408338487328
 20
-138.7415744010785
 30
0.0
 10
108.5408338487328
 20
-138.7415744010785
 30
0.0
 10
108.5408338487328
 20
-139.1835801518361
 30
0.0
 10
108.5408338487328
 20
-139.1835801518361
 30
0.0
 10
108.5408338487328
 20
-139.2831434113598
 30
0.0
 10
108.6169704589569
 20
-139.4185356639301
 30
0.0
 10
108.7881917045738
 20
-139.4185356639301
 30
0.0
 10
108.866395372089
 20
-139.4185356639301
 30
0.0
 10
109.0210801593767
 20
-139.3847737281747
 30
0.0
 10
109.0210801593767
 20
-139.1859917186757
 30
0.0
  0
HATCH
  5
49
330
41
100
AcDbEntity
  8
_U+30EC_U+30A4_U+30E4_U+30FC 1
 62
   179
420
  2234388
100
AcDbHatch
 10
0.0
 20
0.0
 30
0.0
210
0.0
220
0.0
230
1.0
  2
SOLID
 70
     1
 71
     0
 91
        2
 92
        1
 93
        1
 72
     4
 94
        3
 73
     0
 74
     1
 95
       44
 96
       40
 40
0.0
 40
0.0
 40
0.0
 40
0.0
 40
1.0
 40
1.0
 40
1.0
 40
2.0
 40
2.0
 40
2.0
 40
3.0
 40
3.0
 40
3.0
 40
4.0
 40
4.0
 40
4.0
 40
5.0
 40
5.0
 40
5.0
 40
6.0
 40
6.0
 40
6.0
 40
7.0
 40
7.0
 40
7.0
 40
8.0
 40
8.0
 40
8.0
 40
9.0
 40
9.0
 40
9.0
 40
10.0
 40
10.0
 40
10.0
 40
11.0
 40
11.0
 40
11.0
 40
12.0
 40
12.0
 40
12.0
 40
13.0
 40
13.0
 40
13.0
 40
13.0
 10
107.6881727161335
 20
-139.437483689099
 10
107.7326144478932
 20
-139.4144015493478
 10
107.7853244088176
 20
-139.3930419573392
 10
108.0161458063293
 20
-139.3909749000481
 10
108.2593695475879
 20
-139.3868407854658
 10
108.3293049859385
 20
-139.3275851431195
 10
108.3293049859385
 20
-139.1498182160806
 10
108.3293049859385
 20
-139.1498182160806
 10
108.3293049859385
 20
-138.7415744010785
 10
108.3293049859385
 20
-138.7415744010785
 10
108.3293049859385
 20
-138.7415744010785
 10
107.6881727161335
 20
-138.7415744010785
 10
107.6881727161335
 20
-138.7415744010785
 10
107.6881727161335
 20
-138.7415744010785
 10
107.6881727161335
 20
-138.5066188889845
 10
107.6881727161335
 20
-138.5066188889845
 10
107.6881727161335
 20
-138.5066188889845
 10
109.232609022171
 20
-138.5066188889845
 10
109.232609022171
 20
-138.5066188889845
 10
109.232609022171
 20
-138.5066188889845
 10
109.232609022171
 20
-139.1815130945449
 10
109.232609022171
 20
-139.1815130945449
 10
109.232609022171
 20
-139.4884711022807
 10
109.0610432670056
 20
-139.6555582333153
 10
108.8050726724515
 20
-139.6555582333153
 10
108.7544297688183
 20
-139.6555582333153
 10
108.6717474771723
 20
-139.6469454946022
 10
108.591476752366
 20
-139.6025037628424
 10
108.48777937826
 20
-139.5432481204961
 10
108.4688313530911
 20
-139.4777913062764
 10
108.4519503852134
 20
-139.4164686066389
 10
108.4095757107448
 20
-139.5539279165004
 10
108.3609998644028
 20
-139.6214517880113
 10
108.0457736275025
 20
-139.6259304121421
 10
107.7749891223618
 20
-139.6300645267244
 10
107.7432942438975
 20
-139.665893519771
 10
107.6881727161335
 20
-139.7337619008304
 10
107.6881727161335
 20
-139.7337619008304
 10
107.6881727161335
 20
-139.437483689099
 10
107.6881727161335
 20
-139.437483689099
 97
        0
 97
        0
 92
        1
 93
        1
 72
     4
 94
        3
 73
     0
 74
     1
 95
       20
 96
       16
 40
0.0
 40
0.0
 40
0.0
 40
0.0
 40
1.0
 40
1.0
 40
1.0
 40
2.0
 40
2.0
 40
2.0
 40
3.0
 40
3.0
 40
3.0
 40
4.0
 40
4.0
 40
4.0
 40
5.0
 40
5.0
 40
5.0
 40
5.0
 10
109.0210801593767
 20
-139.1859917186757
 10
109.0210801593767
 20
-139.1859917186757
 10
109.0210801593767
 20
-138.7415744010785
 10
109.0210801593767
 20
-138.7415744010785
 10
109.0210801593767
 20
-138.7415744010785
 10
108.5408338487328
 20
-138.7415744010785
 10
108.5408338487328
 20
-138.7415744010785
 10
108.5408338487328
 20
-138.7415744010785
 10
108.5408338487328
 20
-139.1835801518361
 10
108.5408338487328
 20
-139.1835801518361
 10
108.5408338487328
 20
-139.2831434113598
 10
108.6169704589569
 20
-139.4185356639301
 10
108.7881917045738
 20
-139.4185356639301
 10
108.866395372089
 20
-139.4185356639301
 10
109.0210801593767
 20
-139.3847737281747
 10
109.0210801593767
 20
-139.1859917186757
 97
        0
 97
        0
 75
     2
 76
     1
 98
        0
  0
SPLINE
  5
4A
330
41
100
AcDbEntity
  8
_U+30EC_U+30A4_U+30E4_U+30FC 1
370
     0
100
AcDbSpline
210
0.0
220
0.0
230
1.0
 70
    11
 71
     3
 72
    26
 73
    22
 74
     0
 42
0.0000000001
 43
0.0000000001
 12
1.0
 22
0.0
 32
0.0
 13
1.0
 23
0.0
 33
0.0
 40
0.0
 40
0.0
 40
0.0
 40
0.0
 40
1.0
 40
1.0
 40
1.0
 40
2.0
 40
2.0
 40
2.0
 40
3.0
 40
3.0
 40
3.0
 40
4.0
 40
4.0
 40
4.0
 40
5.0
 40
5.0
 40
5.0
 40
6.0
 40
6.0
 40
6.0
 40
7.0
 40
7.0
 40
7.0
 40
7.0
 10
108.3186251899342
 20
-140.650846319004
 30
0.0
 10
108.3186251899342
 20
-140.650846319004
 30
0.0
 10
108.3186251899342
 20
-140.1978162626936
 30
0.0
 10
108.3186251899342
 20
-140.1978162626936
 30
0.0
 10
108.3186251899342
 20
-140.1978162626936
 30
0.0
 10
107.6881727161335
 20
-140.1978162626936
 30
0.0
 10
107.6881727161335
 20
-140.1978162626936
 30
0.0
 10
107.6881727161335
 20
-140.1978162626936
 30
0.0
 10
107.6881727161335
 20
-139.9632052601481
 30
0.0
 10
107.6881727161335
 20
-139.9632052601481
 30
0.0
 10
107.6881727161335
 20
-139.9632052601481
 30
0.0
 10
109.232609022171
 20
-139.9632052601481
 30
0.0
 10
109.232609022171
 20
-139.9632052601481
 30
0.0
 10
109.232609022171
 20
-139.9632052601481
 30
0.0
 10
109.232609022171
 20
-140.650846319004
 30
0.0
 10
109.232609022171
 20
-140.650846319004
 30
0.0
 10
109.232609022171
 20
-140.9385117920223
 30
0.0
 10
109.0696560057187
 20
-141.1434949733947
 30
0.0
 10
108.7713107366961
 20
-141.1434949733947
 30
0.0
 10
108.5239528808551
 20
-141.1434949733947
 30
0.0
 10
108.3186251899342
 20
-140.982953523782
 30
0.0
 10
108.3186251899342
 20
-140.650846319004
 30
0.0
  0
SPLINE
  5
4B
330
41
100
AcDbEntity
  8
_U+30EC_U+30A4_U+30E4_U+30FC 1
370
     0
100
AcDbSpline
210
0.0
220
0.0
230
1.0
 70
    11
 71
     3
 72
    20
 73
    16
 74
     0
 42
0.0000000001
 43
0.0000000001
 12
1.0
 22
0.0
 32
0.0
 13
1.0
 23
0.0
 33
0.0
 40
0.0
 40
0.0
 40
0.0
 40
0.0
 40
1.0
 40
1.0
 40
1.0
 40
2.0
 40
2.0
 40
2.0
 40
3.0
 40
3.0
 40
3.0
 40
4.0
 40
4.0
 40
4.0
 40
5.0
 40
5.0
 40
5.0
 40
5.0
 10
109.0210801593767
 20
-140.6422335802908
 30
0.0
 10
109.0210801593767
 20
-140.6422335802908
 30
0.0
 10
109.0210801593767
 20
-140.1978162626936
 30
0.0
 10
109.0210801593767
 20
-140.1978162626936
 30
0.0
 10
109.0210801593767
 20
-140.1978162626936
 30
0.0
 10
108.5301540527286
 20
-140.1978162626936
 30
0.0
 10
108.5301540527286
 20
-140.1978162626936
 30
0.0
 10
108.5301540527286
 20
-140.1978162626936
 30
0.0
 10
108.5301540527286
 20
-140.6422335802908
 30
0.0
 10
108.5301540527286
 20
-140.6422335802908
 30
0.0
 10
108.5301540527286
 20
-140.8093207113255
 30
0.0
 10
108.6359184841258
 20
-140.8982041748449
 30
0.0
 10
108.7754448512784
 20
-140.8982041748449
 30
0.0
 10
108.8898220213887
 20
-140.8982041748449
 30
0.0
 10
109.0210801593767
 20
-140.8303357937855
 30
0.0
 10
109.0210801593767
 20
-140.6422335802908
 30
0.0
  0
HATCH
  5
4C
330
41
100
AcDbEntity
  8
_U+30EC_U+30A4_U+30E4_U+30FC 1
 62
   179
420
  2234388
100
AcDbHatch
 10
0.0
 20
0.0
 30
0.0
210
0.0
220
0.0
230
1.0
  2
SOLID
 70
     1
 71
     0
 91
        2
 92
        1
 93
        1
 72
     4
 94
        3
 73
     0
 74
     1
 95
       26
 96
       22
 40
0.0
 40
0.0
 40
0.0
 40
0.0
 40
1.0
 40
1.0
 40
1.0
 40
2.0
 40
2.0
 40
2.0
 40
3.0
 40
3.0
 40
3.0
 40
4.0
 40
4.0
 40
4.0
 40
5.0
 40
5.0
 40
5.0
 40
6.0
 40
6.0
 40
6.0
 40
7.0
 40
7.0
 40
7.0
 40
7.0
 10
108.3186251899342
 20
-140.650846319004
 10
108.3186251899342
 20
-140.650846319004
 10
108.3186251899342
 20
-140.1978162626936
 10
108.3186251899342
 20
-140.1978162626936
 10
108.3186251899342
 20
-140.1978162626936
 10
107.6881727161335
 20
-140.1978162626936
 10
107.6881727161335
 20
-140.1978162626936
 10
107.6881727161335
 20
-140.1978162626936
 10
107.6881727161335
 20
-139.9632052601481
 10
107.6881727161335
 20
-139.9632052601481
 10
107.6881727161335
 20
-139.9632052601481
 10
109.232609022171
 20
-139.9632052601481
 10
109.232609022171
 20
-139.9632052601481
 10
109.232609022171
 20
-139.9632052601481
 10
109.232609022171
 20
-140.650846319004
 10
109.232609022171
 20
-140.650846319004
 10
109.232609022171
 20
-140.9385117920223
 10
109.0696560057187
 20
-141.1434949733947
 10
108.7713107366961
 20
-141.1434949733947
 10
108.5239528808551
 20
-141.1434949733947
 10
108.3186251899342
 20
-140.982953523782
 10
108.3186251899342
 20
-140.650846319004
 97
        0
 97
        0
 92
        1
 93
        1
 72
     4
 94
        3
 73
     0
 74
     1
 95
       20
 96
       16
 40
0.0
 40
0.0
 40
0.0
 40
0.0
 40
1.0
 40
1.0
 40
1.0
 40
2.0
 40
2.0
 40
2.0
 40
3.0
 40
3.0
 40
3.0
 40
4.0
 40
4.0
 40
4.0
 40
5.0
 40
5.0
 40
5.0
 40
5.0
 10
109.0210801593767
 20
-140.6422335802908
 10
109.0210801593767
 20
-140.6422335802908
 10
109.0210801593767
 20
-140.1978162626936
 10
109.0210801593767
 20
-140.1978162626936
 10
109.0210801593767
 20
-140.1978162626936
 10
108.5301540527286
 20
-140.1978162626936
 10
108.5301540527286
 20
-140.1978162626936
 10
108.5301540527286
 20
-140.1978162626936
 10
108.5301540527286
 20
-140.6422335802908
 10
108.5301540527286
 20
-140.6422335802908
 10
108.5301540527286
 20
-140.8093207113255
 10
108.6359184841258
 20
-140.8982041748449
 10
108.7754448512784
 20
-140.8982041748449
 10
108.8898220213887
 20
-140.8982041748449
 10
109.0210801593767
 20
-140.8303357937855
 10
109.0210801593767
 20
-140.6422335802908
 97
        0
 97
        0
 75
     2
 76
     1
 98
        0
  0
POLYLINE
  5
4D
330
41
100
AcDbEntity
  8
_U+30EC_U+30A4_U+30E4_U+30FC 1
370
     0
100
AcDb2dPolyline
 66
     1
 10
0.0
 20
0.0
 30
0.0
  0
VERTEX
  5
4E
330
4D
100
AcDbEntity
  8
_U+30EC_U+30A4_U+30E4_U+30FC 1
370
     0
100
AcDbVertex
100
AcDb2dVertex
 10
108.1346570910219
 20
-141.2754421304797
 30
0.0
  0
VERTEX
  5
4F
330
4D
100
AcDbEntity
  8
_U+30EC_U+30A4_U+30E4_U+30FC 1
370
     0
100
AcDbVertex
100
AcDb2dVertex
 10
108.3503200683985
 20
-141.2754421304797
 30
0.0
  0
VERTEX
  5
50
330
4D
100
AcDbEntity
  8
_U+30EC_U+30A4_U+30E4_U+30FC 1
370
     0
100
AcDbVertex
100
AcDb2dVertex
 10
108.3503200683985
 20
-141.8614528725207
 30
0.0
  0
VERTEX
  5
51
330
4D
100
AcDbEntity
  8
_U+30EC_U+30A4_U+30E4_U+30FC 1
370
     0
100
AcDbVertex
100
AcDb2dVertex
 10
108.1346570910219
 20
-141.8614528725207
 30
0.0
  0
VERTEX
  5
52
330
4D
100
AcDbEntity
  8
_U+30EC_U+30A4_U+30E4_U+30FC 1
370
     0
100
AcDbVertex
100
AcDb2dVertex
 10
108.1346570910219
 20
-141.2754421304797
 30
0.0
  0
SEQEND
  5
53
330
4D
100
AcDbEntity
  8
_U+30EC_U+30A4_U+30E4_U+30FC 1
370
     0
  0
HATCH
  5
54
330
41
100
AcDbEntity
  8
_U+30EC_U+30A4_U+30E4_U+30FC 1
 62
   179
420
  2234388
100
AcDbHatch
 10
0.0
 20
0.0
 30
0.0
210
0.0
220
0.0
230
1.0
  2
SOLID
 70
     1
 71
     0
 91
        1
 92
        1
 93
        4
 72
     1
 10
108.1346570910219
 20
-141.2754421304797
 11
108.3503200683985
 21
-141.2754421304797
 72
     1
 10
108.3503200683985
 20
-141.2754421304797
 11
108.3503200683985
 21
-141.8614528725207
 72
     1
 10
108.3503200683985
 20
-141.8614528725207
 11
108.1346570910219
 21
-141.8614528725207
 72
     1
 10
108.1346570910219
 20
-141.8614528725207
 11
108.1346570910219
 21
-141.2754421304797
 97
        0
 75
     2
 76
     1
 98
        0
  0
SPLINE
  5
55
330
41
100
AcDbEntity
  8
_U+30EC_U+30A4_U+30E4_U+30FC 1
370
     0
100
AcDbSpline
210
0.0
220
0.0
230
1.0
 70
    11
 71
     3
 72
    62
 73
    58
 74
     0
 42
0.0000000001
 43
0.0000000001
 12
1.0
 22
0.0
 32
0.0
 13
1.0
 23
0.0
 33
0.0
 40
0.0
 40
0.0
 40
0.0
 40
0.0
 40
1.0
 40
1.0
 40
1.0
 40
2.0
 40
2.0
 40
2.0
 40
3.0
 40
3.0
 40
3.0
 40
4.0
 40
4.0
 40
4.0
 40
5.0
 40
5.0
 40
5.0
 40
6.0
 40
6.0
 40
6.0
 40
7.0
 40
7.0
 40
7.0
 40
8.0
 40
8.0
 40
8.0
 40
9.0
 40
9.0
 40
9.0
 40
10.0
 40
10.0
 40
10.0
 40
11.0
 40
11.0
 40
11.0
 40
12.0
 40
12.0
 40
12.0
 40
13.0
 40
13.0
 40
13.0
 40
14.0
 40
14.0
 40
14.0
 40
15.0
 40
15.0
 40
15.0
 40
16.0
 40
16.0
 40
16.0
 40
17.0
 40
17.0
 40
17.0
 40
18.0
 40
18.0
 40
18.0
 40
19.0
 40
19.0
 40
19.0
 40
19.0
 10
107.6375298125003
 20
-142.4819145694142
 30
0.0
 10
107.6375298125003
 20
-142.3864854244728
 30
0.0
 10
107.6585448949604
 20
-142.168755389805
 30
0.0
 10
107.8445800511639
 20
-142.0436984236905
 30
0.0
 10
107.956890163983
 20
-141.9696288707576
 30
0.0
 10
108.0561089139582
 20
-141.9654947561753
 30
0.0
 10
108.1408582628953
 20
-141.961360641593
 30
0.0
 10
108.1408582628953
 20
-141.961360641593
 30
0.0
 10
108.1408582628953
 20
-142.1815022431005
 30
0.0
 10
108.1408582628953
 20
-142.1815022431005
 30
0.0
 10
108.0667887099625
 20
-142.1835693003916
 30
0.0
 10
107.832177707417
 20
-142.1939045868474
 30
0.0
 10
107.832177707417
 20
-142.4774359452834
 30
0.0
 10
107.832177707417
 20
-142.6148952551449
 30
0.0
 10
107.901768636219
 20
-142.7675129851415
 30
0.0
 10
108.1301784668911
 20
-142.7675129851415
 30
0.0
 10
108.2466226942925
 20
-142.7675129851415
 30
0.0
 10
108.2951985406345
 20
-142.7292724252552
 30
0.0
 10
108.3268934190988
 20
-142.6975775467909
 30
0.0
 10
108.4009629720317
 20
-142.623507993858
 30
0.0
 10
108.4137098253271
 20
-142.5070637664566
 30
0.0
 10
108.4137098253271
 20
-142.4522867482411
 30
0.0
 10
108.4137098253271
 20
-142.4329942135237
 30
0.0
 10
108.411642768036
 20
-142.3971652204771
 30
0.0
 10
108.4075086534537
 20
-142.3696044565951
 30
0.0
 10
108.4075086534537
 20
-142.3696044565951
 30
0.0
 10
108.6021565483703
 20
-142.3696044565951
 30
0.0
 10
108.6021565483703
 20
-142.3696044565951
 30
0.0
 10
108.5956108669483
 20
-142.4078450164814
 30
0.0
 10
108.5935438096572
 20
-142.4498751814014
 30
0.0
 10
108.5935438096572
 20
-142.4564208628234
 30
0.0
 10
108.5935438096572
 20
-142.5218776770431
 30
0.0
 10
108.6149034016657
 20
-142.7206596865421
 30
0.0
 10
108.8515814615024
 20
-142.7206596865421
 30
0.0
 10
109.0293483885413
 20
-142.7206596865421
 30
0.0
 10
109.0844699163053
 20
-142.5897460581026
 30
0.0
 10
109.0844699163053
 20
-142.4795030025746
 30
0.0
 10
109.0844699163053
 20
-142.2152641788559
 30
0.0
 10
108.8515814615024
 20
-142.2066514401428
 30
0.0
 10
108.7799234754092
 20
-142.2025173255605
 30
0.0
 10
108.7799234754092
 20
-142.2025173255605
 30
0.0
 10
108.7799234754092
 20
-141.9992566919308
 30
0.0
 10
108.7799234754092
 20
-141.9992566919308
 30
0.0
 10
108.9046359319752
 20
-142.0078694306439
 30
0.0
 10
109.281184868513
 20
-142.0354301945259
 30
0.0
 10
109.281184868513
 20
-142.49224985587
 30
0.0
 10
109.281184868513
 20
-142.7165255719598
 30
0.0
 10
109.1540608451073
 20
-142.9576822559272
 30
0.0
 10
108.8581271429244
 20
-142.9576822559272
 30
0.0
 10
108.6717474771723
 20
-142.9576822559272
 30
0.0
 10
108.5894096950749
 20
-142.8625976205344
 30
0.0
 10
108.5280869954374
 20
-142.7630343610106
 30
0.0
 10
108.5005262315554
 20
-142.8243570606481
 30
0.0
 10
108.4202555067491
 20
-143.0062581022693
 30
0.0
 10
108.1429253201865
 20
-143.0062581022693
 30
0.0
 10
107.804616943535
 20
-143.0062581022693
 30
0.0
 10
107.6375298125003
 20
-142.7589002464283
 30
0.0
 10
107.6375298125003
 20
-142.4819145694142
 30
0.0
  0
HATCH
  5
56
330
41
100
AcDbEntity
  8
_U+30EC_U+30A4_U+30E4_U+30FC 1
 62
   179
420
  2234388
100
AcDbHatch
 10
0.0
 20
0.0
 30
0.0
210
0.0
220
0.0
230
1.0
  2
SOLID
 70
     1
 71
     0
 91
        1
 92
        1
 93
        1
 72
     4
 94
        3
 73
     0
 74
     1
 95
       62
 96
       58
 40
0.0
 40
0.0
 40
0.0
 40
0.0
 40
1.0
 40
1.0
 40
1.0
 40
2.0
 40
2.0
 40
2.0
 40
3.0
 40
3.0
 40
3.0
 40
4.0
 40
4.0
 40
4.0
 40
5.0
 40
5.0
 40
5.0
 40
6.0
 40
6.0
 40
6.0
 40
7.0
 40
7.0
 40
7.0
 40
8.0
 40
8.0
 40
8.0
 40
9.0
 40
9.0
 40
9.0
 40
10.0
 40
10.0
 40
10.0
 40
11.0
 40
11.0
 40
11.0
 40
12.0
 40
12.0
 40
12.0
 40
13.0
 40
13.0
 40
13.0
 40
14.0
 40
14.0
 40
14.0
 40
15.0
 40
15.0
 40
15.0
 40
16.0
 40
16.0
 40
16.0
 40
17.0
 40
17.0
 40
17.0
 40
18.0
 40
18.0
 40
18.0
 40
19.0
 40
19.0
 40
19.0
 40
19.0
 10
107.6375298125003
 20
-142.4819145694142
 10
107.6375298125003
 20
-142.3864854244728
 10
107.6585448949604
 20
-142.168755389805
 10
107.8445800511639
 20
-142.0436984236905
 10
107.956890163983
 20
-141.9696288707576
 10
108.0561089139582
 20
-141.9654947561753
 10
108.1408582628953
 20
-141.961360641593
 10
108.1408582628953
 20
-141.961360641593
 10
108.1408582628953
 20
-142.1815022431005
 10
108.1408582628953
 20
-142.1815022431005
 10
108.0667887099625
 20
-142.1835693003916
 10
107.832177707417
 20
-142.1939045868474
 10
107.832177707417
 20
-142.4774359452834
 10
107.832177707417
 20
-142.6148952551449
 10
107.901768636219
 20
-142.7675129851415
 10
108.1301784668911
 20
-142.7675129851415
 10
108.2466226942925
 20
-142.7675129851415
 10
108.2951985406345
 20
-142.7292724252552
 10
108.3268934190988
 20
-142.6975775467909
 10
108.4009629720317
 20
-142.623507993858
 10
108.4137098253271
 20
-142.5070637664566
 10
108.4137098253271
 20
-142.4522867482411
 10
108.4137098253271
 20
-142.4329942135237
 10
108.411642768036
 20
-142.3971652204771
 10
108.4075086534537
 20
-142.3696044565951
 10
108.4075086534537
 20
-142.3696044565951
 10
108.6021565483703
 20
-142.3696044565951
 10
108.6021565483703
 20
-142.3696044565951
 10
108.5956108669483
 20
-142.4078450164814
 10
108.5935438096572
 20
-142.4498751814014
 10
108.5935438096572
 20
-142.4564208628234
 10
108.5935438096572
 20
-142.5218776770431
 10
108.6149034016657
 20
-142.7206596865421
 10
108.8515814615024
 20
-142.7206596865421
 10
109.0293483885413
 20
-142.7206596865421
 10
109.0844699163053
 20
-142.5897460581026
 10
109.0844699163053
 20
-142.4795030025746
 10
109.0844699163053
 20
-142.2152641788559
 10
108.8515814615024
 20
-142.2066514401428
 10
108.7799234754092
 20
-142.2025173255605
 10
108.7799234754092
 20
-142.2025173255605
 10
108.7799234754092
 20
-141.9992566919308
 10
108.7799234754092
 20
-141.9992566919308
 10
108.9046359319752
 20
-142.0078694306439
 10
109.281184868513
 20
-142.0354301945259
 10
109.281184868513
 20
-142.49224985587
 10
109.281184868513
 20
-142.7165255719598
 10
109.1540608451073
 20
-142.9576822559272
 10
108.8581271429244
 20
-142.9576822559272
 10
108.6717474771723
 20
-142.9576822559272
 10
108.5894096950749
 20
-142.8625976205344
 10
108.5280869954374
 20
-142.7630343610106
 10
108.5005262315554
 20
-142.8243570606481
 10
108.4202555067491
 20
-143.0062581022693
 10
108.1429253201865
 20
-143.0062581022693
 10
107.804616943535
 20
-143.0062581022693
 10
107.6375298125003
 20
-142.7589002464283
 10
107.6375298125003
 20
-142.4819145694142
 97
        0
 97
        0
 75
     2
 76
     1
 98
        0
  0
SPLINE
  5
57
330
41
100
AcDbEntity
  8
_U+30EC_U+30A4_U+30E4_U+30FC 1
370
     0
100
AcDbSpline
210
0.0
220
0.0
230
1.0
 70
    11
 71
     3
 72
    29
 73
    25
 74
     0
 42
0.0000000001
 43
0.0000000001
 12
1.0
 22
0.0
 32
0.0
 13
1.0
 23
0.0
 33
0.0
 40
0.0
 40
0.0
 40
0.0
 40
0.0
 40
1.0
 40
1.0
 40
1.0
 40
2.0
 40
2.0
 40
2.0
 40
3.0
 40
3.0
 40
3.0
 40
4.0
 40
4.0
 40
4.0
 40
5.0
 40
5.0
 40
5.0
 40
6.0
 40
6.0
 40
6.0
 40
7.0
 40
7.0
 40
7.0
 40
8.0
 40
8.0
 40
8.0
 40
8.0
 10
107.8659396431724
 20
-144.0649359448865
 30
0.0
 10
107.6564778376692
 20
-143.9567599466497
 30
0.0
 10
107.6375298125003
 20
-143.7834716437416
 30
0.0
 10
107.6375298125003
 20
-143.6670274163402
 30
0.0
 10
107.6375298125003
 20
-143.506141457179
 30
0.0
 10
107.6840386015512
 20
-143.3645480327353
 30
0.0
 10
107.8659396431724
 20
-143.2694633973423
 30
0.0
 10
108.060587538089
 20
-143.1657660232363
 30
0.0
 10
108.2972655979257
 20
-143.146473488519
 30
0.0
 10
108.460218614378
 20
-143.146473488519
 30
0.0
 10
108.6042236056614
 20
-143.146473488519
 30
0.0
 10
108.8560600856332
 20
-143.1636989659452
 30
0.0
 10
109.0548420951321
 20
-143.2694633973423
 30
0.0
 10
109.2577582192133
 20
-143.3772948860307
 30
0.0
 10
109.281184868513
 20
-143.5381808451918
 30
0.0
 10
109.281184868513
 20
-143.6670274163402
 30
0.0
 10
109.281184868513
 20
-143.8258463182102
 30
0.0
 10
109.2367431367533
 20
-143.9695067999451
 30
0.0
 10
109.0548420951321
 20
-144.0649359448865
 30
0.0
 10
108.8622612575067
 20
-144.1641546948617
 30
0.0
 10
108.6338514268346
 20
-144.1875813441615
 30
0.0
 10
108.460218614378
 20
-144.1875813441615
 30
0.0
 10
108.2889973687611
 20
-144.1875813441615
 30
0.0
 10
108.0585204807979
 20
-144.1662217521529
 30
0.0
 10
107.8659396431724
 20
-144.0649359448865
 30
0.0
  0
SPLINE
  5
58
330
41
100
AcDbEntity
  8
_U+30EC_U+30A4_U+30E4_U+30FC 1
370
     0
100
AcDbSpline
210
0.0
220
0.0
230
1.0
 70
    11
 71
     3
 72
    17
 73
    13
 74
     0
 42
0.0000000001
 43
0.0000000001
 12
1.0
 22
0.0
 32
0.0
 13
1.0
 23
0.0
 33
0.0
 40
0.0
 40
0.0
 40
0.0
 40
0.0
 40
1.0
 40
1.0
 40
1.0
 40
2.0
 40
2.0
 40
2.0
 40
3.0
 40
3.0
 40
3.0
 40
4.0
 40
4.0
 40
4.0
 40
4.0
 10
109.0886040308876
 20
-143.6670274163402
 30
0.0
 10
109.0886040308876
 20
-143.4172579936596
 30
0.0
 10
108.8050726724515
 20
-143.3707492046087
 30
0.0
 10
108.460218614378
 20
-143.3707492046087
 30
0.0
 10
108.1408582628953
 20
-143.3707492046087
 30
0.0
 10
107.832177707417
 20
-143.4069227072038
 30
0.0
 10
107.832177707417
 20
-143.6670274163402
 30
0.0
 10
107.832177707417
 20
-143.9147297817296
 30
0.0
 10
108.1132974990133
 20
-143.9633056280717
 30
0.0
 10
108.460218614378
 20
-143.9633056280717
 30
0.0
 10
108.7799234754092
 20
-143.9633056280717
 30
0.0
 10
109.0886040308876
 20
-143.9250650681854
 30
0.0
 10
109.0886040308876
 20
-143.6670274163402
 30
0.0
  0
HATCH
  5
59
330
41
100
AcDbEntity
  8
_U+30EC_U+30A4_U+30E4_U+30FC 1
 62
   179
420
  2234388
100
AcDbHatch
 10
0.0
 20
0.0
 30
0.0
210
0.0
220
0.0
230
1.0
  2
SOLID
 70
     1
 71
     0
 91
        2
 92
        1
 93
        1
 72
     4
 94
        3
 73
     0
 74
     1
 95
       29
 96
       25
 40
0.0
 40
0.0
 40
0.0
 40
0.0
 40
1.0
 40
1.0
 40
1.0
 40
2.0
 40
2.0
 40
2.0
 40
3.0
 40
3.0
 40
3.0
 40
4.0
 40
4.0
 40
4.0
 40
5.0
 40
5.0
 40
5.0
 40
6.0
 40
6.0
 40
6.0
 40
7.0
 40
7.0
 40
7.0
 40
8.0
 40
8.0
 40
8.0
 40
8.0
 10
107.8659396431724
 20
-144.0649359448865
 10
107.6564778376692
 20
-143.9567599466497
 10
107.6375298125003
 20
-143.7834716437416
 10
107.6375298125003
 20
-143.6670274163402
 10
107.6375298125003
 20
-143.506141457179
 10
107.6840386015512
 20
-143.3645480327353
 10
107.8659396431724
 20
-143.2694633973423
 10
108.060587538089
 20
-143.1657660232363
 10
108.2972655979257
 20
-143.146473488519
 10
108.460218614378
 20
-143.146473488519
 10
108.6042236056614
 20
-143.146473488519
 10
108.8560600856332
 20
-143.1636989659452
 10
109.0548420951321
 20
-143.2694633973423
 10
109.2577582192133
 20
-143.3772948860307
 10
109.281184868513
 20
-143.5381808451918
 10
109.281184868513
 20
-143.6670274163402
 10
109.281184868513
 20
-143.8258463182102
 10
109.2367431367533
 20
-143.9695067999451
 10
109.0548420951321
 20
-144.0649359448865
 10
108.8622612575067
 20
-144.1641546948617
 10
108.6338514268346
 20
-144.1875813441615
 10
108.460218614378
 20
-144.1875813441615
 10
108.2889973687611
 20
-144.1875813441615
 10
108.0585204807979
 20
-144.1662217521529
 10
107.8659396431724
 20
-144.0649359448865
 97
        0
 97
        0
 92
        1
 93
        1
 72
     4
 94
        3
 73
     0
 74
     1
 95
       17
 96
       13
 40
0.0
 40
0.0
 40
0.0
 40
0.0
 40
1.0
 40
1.0
 40
1.0
 40
2.0
 40
2.0
 40
2.0
 40
3.0
 40
3.0
 40
3.0
 40
4.0
 40
4.0
 40
4.0
 40
4.0
 10
109.0886040308876
 20
-143.6670274163402
 10
109.0886040308876
 20
-143.4172579936596
 10
108.8050726724515
 20
-143.3707492046087
 10
108.460218614378
 20
-143.3707492046087
 10
108.1408582628953
 20
-143.3707492046087
 10
107.832177707417
 20
-143.4069227072038
 10
107.832177707417
 20
-143.6670274163402
 10
107.832177707417
 20
-143.9147297817296
 10
108.1132974990133
 20
-143.9633056280717
 10
108.460218614378
 20
-143.9633056280717
 10
108.7799234754092
 20
-143.9633056280717
 10
109.0886040308876
 20
-143.9250650681854
 10
109.0886040308876
 20
-143.6670274163402
 97
        0
 97
        0
 75
     2
 76
     1
 98
        0
  0
SPLINE
  5
5A
330
41
100
AcDbEntity
  8
_U+30EC_U+30A4_U+30E4_U+30FC 1
370
     0
100
AcDbSpline
210
0.0
220
0.0
230
1.0
 70
    11
 71
     3
 72
    20
 73
    16
 74
     0
 42
0.0000000001
 43
0.0000000001
 12
1.0
 22
0.0
 32
0.0
 13
1.0
 23
0.0
 33
0.0
 40
0.0
 40
0.0
 40
0.0
 40
0.0
 40
1.0
 40
1.0
 40
1.0
 40
2.0
 40
2.0
 40
2.0
 40
3.0
 40
3.0
 40
3.0
 40
4.0
 40
4.0
 40
4.0
 40
5.0
 40
5.0
 40
5.0
 40
5.0
 10
107.6881727161335
 20
-145.0788275461956
 30
0.0
 10
107.6881727161335
 20
-145.0788275461956
 30
0.0
 10
107.6881727161335
 20
-144.4611219256903
 30
0.0
 10
107.6881727161335
 20
-144.4611219256903
 30
0.0
 10
107.6881727161335
 20
-144.4611219256903
 30
0.0
 10
109.232609022171
 20
-144.4611219256903
 30
0.0
 10
109.232609022171
 20
-144.4611219256903
 30
0.0
 10
109.232609022171
 20
-144.4611219256903
 30
0.0
 10
109.232609022171
 20
-145.0788275461956
 30
0.0
 10
109.232609022171
 20
-145.0788275461956
 30
0.0
 10
109.232609022171
 20
-145.5421928889617
 30
0.0
 10
108.8622612575067
 20
-145.7492431276252
 30
0.0
 10
108.4540174425046
 20
-145.7492431276252
 30
0.0
 10
108.1029622125576
 20
-145.7492431276252
 30
0.0
 10
107.6881727161335
 20
-145.5714762005863
 30
0.0
 10
107.6881727161335
 20
-145.0788275461956
 30
0.0
  0
SPLINE
  5
5B
330
41
100
AcDbEntity
  8
_U+30EC_U+30A4_U+30E4_U+30FC 1
370
     0
100
AcDbSpline
210
0.0
220
0.0
230
1.0
 70
    11
 71
     3
 72
    20
 73
    16
 74
     0
 42
0.0000000001
 43
0.0000000001
 12
1.0
 22
0.0
 32
0.0
 13
1.0
 23
0.0
 33
0.0
 40
0.0
 40
0.0
 40
0.0
 40
0.0
 40
1.0
 40
1.0
 40
1.0
 40
2.0
 40
2.0
 40
2.0
 40
3.0
 40
3.0
 40
3.0
 40
4.0
 40
4.0
 40
4.0
 40
5.0
 40
5.0
 40
5.0
 40
5.0
 10
109.0210801593767
 20
-145.0808946034867
 30
0.0
 10
109.0210801593767
 20
-145.0808946034867
 30
0.0
 10
109.0210801593767
 20
-144.6957329282358
 30
0.0
 10
109.0210801593767
 20
-144.6957329282358
 30
0.0
 10
109.0210801593767
 20
-144.6957329282358
 30
0.0
 10
107.8997015789279
 20
-144.6957329282358
 30
0.0
 10
107.8997015789279
 20
-144.6957329282358
 30
0.0
 10
107.8997015789279
 20
-144.6957329282358
 30
0.0
 10
107.8997015789279
 20
-145.0808946034867
 30
0.0
 10
107.8997015789279
 20
-145.0808946034867
 30
0.0
 10
107.8997015789279
 20
-145.4488308013114
 30
0.0
 10
108.2445556370014
 20
-145.5101535009489
 30
0.0
 10
108.4667642958
 20
-145.5101535009489
 30
0.0
 10
108.6762261013032
 20
-145.5101535009489
 30
0.0
 10
109.0210801593767
 20
-145.4467637440203
 30
0.0
 10
109.0210801593767
 20
-145.0808946034867
 30
0.0
  0
HATCH
  5
5C
330
41
100
AcDbEntity
  8
_U+30EC_U+30A4_U+30E4_U+30FC 1
 62
   179
420
  2234388
100
AcDbHatch
 10
0.0
 20
0.0
 30
0.0
210
0.0
220
0.0
230
1.0
  2
SOLID
 70
     1
 71
     0
 91
        2
 92
        1
 93
        1
 72
     4
 94
        3
 73
     0
 74
     1
 95
       20
 96
       16
 40
0.0
 40
0.0
 40
0.0
 40
0.0
 40
1.0
 40
1.0
 40
1.0
 40
2.0
 40
2.0
 40
2.0
 40
3.0
 40
3.0
 40
3.0
 40
4.0
 40
4.0
 40
4.0
 40
5.0
 40
5.0
 40
5.0
 40
5.0
 10
107.6881727161335
 20
-145.0788275461956
 10
107.6881727161335
 20
-145.0788275461956
 10
107.6881727161335
 20
-144.4611219256903
 10
107.6881727161335
 20
-144.4611219256903
 10
107.6881727161335
 20
-144.4611219256903
 10
109.232609022171
 20
-144.4611219256903
 10
109.232609022171
 20
-144.4611219256903
 10
109.232609022171
 20
-144.4611219256903
 10
109.232609022171
 20
-145.0788275461956
 10
109.232609022171
 20
-145.0788275461956
 10
109.232609022171
 20
-145.5421928889617
 10
108.8622612575067
 20
-145.7492431276252
 10
108.4540174425046
 20
-145.7492431276252
 10
108.1029622125576
 20
-145.7492431276252
 10
107.6881727161335
 20
-145.5714762005863
 10
107.6881727161335
 20
-145.0788275461956
 97
        0
 97
        0
 92
        1
 93
        1
 72
     4
 94
        3
 73
     0
 74
     1
 95
       20
 96
       16
 40
0.0
 40
0.0
 40
0.0
 40
0.0
 40
1.0
 40
1.0
 40
1.0
 40
2.0
 40
2.0
 40
2.0
 40
3.0
 40
3.0
 40
3.0
 40
4.0
 40
4.0
 40
4.0
 40
5.0
 40
5.0
 40
5.0
 40
5.0
 10
109.0210801593767
 20
-145.0808946034867
 10
109.0210801593767
 20
-145.0808946034867
 10
109.0210801593767
 20
-144.6957329282358
 10
109.0210801593767
 20
-144.6957329282358
 10
109.0210801593767
 20
-144.6957329282358
 10
107.8997015789279
 20
-144.6957329282358
 10
107.8997015789279
 20
-144.6957329282358
 10
107.8997015789279
 20
-144.6957329282358
 10
107.8997015789279
 20
-145.0808946034867
 10
107.8997015789279
 20
-145.0808946034867
 10
107.8997015789279
 20
-145.4488308013114
 10
108.2445556370014
 20
-145.5101535009489
 10
108.4667642958
 20
-145.5101535009489
 10
108.6762261013032
 20
-145.5101535009489
 10
109.0210801593767
 20
-145.4467637440203
 10
109.0210801593767
 20
-145.0808946034867
 97
        0
 97
        0
 75
     2
 76
     1
 98
        0
  0
POLYLINE
  5
5D
330
41
100
AcDbEntity
  8
_U+30EC_U+30A4_U+30E4_U+30FC 1
370
     0
100
AcDb2dPolyline
 66
     1
 10
0.0
 20
0.0
 30
0.0
  0
VERTEX
  5
5E
330
5D
100
AcDbEntity
  8
_U+30EC_U+30A4_U+30E4_U+30FC 1
370
     0
100
AcDbVertex
100
AcDb2dVertex
 10
107.6881727161335
 20
-147.0046359224502
 30
0.0
  0
VERTEX
  5
5F
330
5D
100
AcDbEntity
  8
_U+30EC_U+30A4_U+30E4_U+30FC 1
370
     0
100
AcDbVertex
100
AcDb2dVertex
 10
108.4519503852134
 20
-146.5157768730933
 30
0.0
  0
VERTEX
  5
60
330
5D
100
AcDbEntity
  8
_U+30EC_U+30A4_U+30E4_U+30FC 1
370
     0
100
AcDbVertex
100
AcDb2dVertex
 10
108.1894341092374
 20
-146.2704860745435
 30
0.0
  0
VERTEX
  5
61
330
5D
100
AcDbEntity
  8
_U+30EC_U+30A4_U+30E4_U+30FC 1
370
     0
100
AcDbVertex
100
AcDb2dVertex
 10
107.6881727161335
 20
-146.2704860745435
 30
0.0
  0
VERTEX
  5
62
330
5D
100
AcDbEntity
  8
_U+30EC_U+30A4_U+30E4_U+30FC 1
370
     0
100
AcDbVertex
100
AcDb2dVertex
 10
107.6881727161335
 20
-146.035875071998
 30
0.0
  0
VERTEX
  5
63
330
5D
100
AcDbEntity
  8
_U+30EC_U+30A4_U+30E4_U+30FC 1
370
     0
100
AcDbVertex
100
AcDb2dVertex
 10
109.232609022171
 20
-146.035875071998
 30
0.0
  0
VERTEX
  5
64
330
5D
100
AcDbEntity
  8
_U+30EC_U+30A4_U+30E4_U+30FC 1
370
     0
100
AcDbVertex
100
AcDb2dVertex
 10
109.232609022171
 20
-146.2704860745435
 30
0.0
  0
VERTEX
  5
65
330
5D
100
AcDbEntity
  8
_U+30EC_U+30A4_U+30E4_U+30FC 1
370
     0
100
AcDbVertex
100
AcDb2dVertex
 10
108.5046603461377
 20
-146.2704860745435
 30
0.0
  0
VERTEX
  5
66
330
5D
100
AcDbEntity
  8
_U+30EC_U+30A4_U+30E4_U+30FC 1
370
     0
100
AcDbVertex
100
AcDb2dVertex
 10
109.232609022171
 20
-146.9495143946862
 30
0.0
  0
VERTEX
  5
67
330
5D
100
AcDbEntity
  8
_U+30EC_U+30A4_U+30E4_U+30FC 1
370
     0
100
AcDbVertex
100
AcDb2dVertex
 10
109.232609022171
 20
-147.2437255491266
 30
0.0
  0
VERTEX
  5
68
330
5D
100
AcDbEntity
  8
_U+30EC_U+30A4_U+30E4_U+30FC 1
370
     0
100
AcDbVertex
100
AcDb2dVertex
 10
108.6211045735392
 20
-146.6725287176722
 30
0.0
  0
VERTEX
  5
69
330
5D
100
AcDbEntity
  8
_U+30EC_U+30A4_U+30E4_U+30FC 1
370
     0
100
AcDbVertex
100
AcDb2dVertex
 10
107.6881727161335
 20
-147.2692192557174
 30
0.0
  0
VERTEX
  5
6A
330
5D
100
AcDbEntity
  8
_U+30EC_U+30A4_U+30E4_U+30FC 1
370
     0
100
AcDbVertex
100
AcDb2dVertex
 10
107.6881727161335
 20
-147.0046359224502
 30
0.0
  0
SEQEND
  5
6B
330
5D
100
AcDbEntity
  8
_U+30EC_U+30A4_U+30E4_U+30FC 1
370
     0
  0
HATCH
  5
6C
330
41
100
AcDbEntity
  8
_U+30EC_U+30A4_U+30E4_U+30FC 1
 62
   179
420
  2234388
100
AcDbHatch
 10
0.0
 20
0.0
 30
0.0
210
0.0
220
0.0
230
1.0
  2
SOLID
 70
     1
 71
     0
 91
        1
 92
        1
 93
       12
 72
     1
 10
107.6881727161335
 20
-147.0046359224502
 11
108.4519503852134
 21
-146.5157768730933
 72
     1
 10
108.4519503852134
 20
-146.5157768730933
 11
108.1894341092374
 21
-146.2704860745435
 72
     1
 10
108.1894341092374
 20
-146.2704860745435
 11
107.6881727161335
 21
-146.2704860745435
 72
     1
 10
107.6881727161335
 20
-146.2704860745435
 11
107.6881727161335
 21
-146.035875071998
 72
     1
 10
107.6881727161335
 20
-146.035875071998
 11
109.232609022171
 21
-146.035875071998
 72
     1
 10
109.232609022171
 20
-146.035875071998
 11
109.232609022171
 21
-146.2704860745435
 72
     1
 10
109.232609022171
 20
-146.2704860745435
 11
108.5046603461377
 21
-146.2704860745435
 72
     1
 10
108.5046603461377
 20
-146.2704860745435
 11
109.232609022171
 21
-146.9495143946862
 72
     1
 10
109.232609022171
 20
-146.9495143946862
 11
109.232609022171
 21
-147.2437255491266
 72
     1
 10
109.232609022171
 20
-147.2437255491266
 11
108.6211045735392
 21
-146.6725287176722
 72
     1
 10
108.6211045735392
 20
-146.6725287176722
 11
107.6881727161335
 21
-147.2692192557174
 72
     1
 10
107.6881727161335
 20
-147.2692192557174
 11
107.6881727161335
 21
-147.0046359224502
 97
        0
 75
     2
 76
     1
 98
        0
  0
SPLINE
  5
6D
330
41
100
AcDbEntity
  8
_U+30EC_U+30A4_U+30E4_U+30FC 1
370
     0
100
AcDbSpline
210
0.0
220
0.0
230
1.0
 70
    11
 71
     3
 72
    47
 73
    43
 74
     0
 42
0.0000000001
 43
0.0000000001
 12
1.0
 22
0.0
 32
0.0
 13
1.0
 23
0.0
 33
0.0
 40
0.0
 40
0.0
 40
0.0
 40
0.0
 40
1.0
 40
1.0
 40
1.0
 40
2.0
 40
2.0
 40
2.0
 40
3.0
 40
3.0
 40
3.0
 40
4.0
 40
4.0
 40
4.0
 40
5.0
 40
5.0
 40
5.0
 40
6.0
 40
6.0
 40
6.0
 40
7.0
 40
7.0
 40
7.0
 40
8.0
 40
8.0
 40
8.0
 40
9.0
 40
9.0
 40
9.0
 40
10.0
 40
10.0
 40
10.0
 40
11.0
 40
11.0
 40
11.0
 40
12.0
 40
12.0
 40
12.0
 40
13.0
 40
13.0
 40
13.0
 40
14.0
 40
14.0
 40
14.0
 40
14.0
 10
109.3466416827328
 20
-149.2522162170272
 30
0.0
 10
109.2177951115845
 20
-149.2480821024449
 30
0.0
 10
109.1182318520607
 20
-149.2436034783141
 30
0.0
 10
109.0083333060813
 20
-149.2436034783141
 30
0.0
 10
109.0083333060813
 20
-149.2436034783141
 30
0.0
 10
108.2869303114699
 20
-149.2436034783141
 30
0.0
 10
108.2869303114699
 20
-149.2436034783141
 30
0.0
 10
108.2573024902968
 20
-149.2436034783141
 30
0.0
 10
108.2318087837059
 20
-149.2480821024449
 30
0.0
 10
108.0033989530339
 20
-149.2522162170272
 30
0.0
 10
108.0033989530339
 20
-149.2522162170272
 30
0.0
 10
107.7939371475307
 20
-149.2563503316095
 30
0.0
 10
107.7939371475307
 20
-149.2563503316095
 30
0.0
 10
107.6268500164961
 20
-149.2608289557404
 30
0.0
 10
107.5441677248501
 20
-149.2205213385629
 30
0.0
 10
107.5441677248501
 20
-148.9900444505997
 30
0.0
 10
107.5441677248501
 20
-148.9518038907134
 30
0.0
 10
107.5441677248501
 20
-148.9263101841226
 30
0.0
 10
107.5465792916898
 20
-148.8925482483671
 30
0.0
 10
107.5465792916898
 20
-148.8925482483671
 30
0.0
 10
107.7791232369441
 20
-148.7719699063834
 30
0.0
 10
107.7791232369441
 20
-148.7719699063834
 30
0.0
 10
107.7684434409398
 20
-148.8481065166074
 30
0.0
 10
107.7622422690664
 20
-148.94560271884
 30
0.0
 10
107.7622422690664
 20
-148.994178565182
 30
0.0
 10
107.7622422690664
 20
-149.0489555833975
 30
0.0
 10
107.7749891223618
 20
-149.0489555833975
 30
0.0
 10
107.8680067004636
 20
-149.0489555833975
 30
0.0
 10
107.8680067004636
 20
-149.0489555833975
 30
0.0
 10
108.9869737140727
 20
-149.0489555833975
 30
0.0
 10
108.9869737140727
 20
-149.0489555833975
 30
0.0
 10
109.1392469345208
 20
-149.0489555833975
 30
0.0
 10
109.2894530976776
 20
-149.0448214688152
 30
0.0
 10
109.4420708276742
 20
-149.0386202969417
 30
0.0
 10
109.4420708276742
 20
-149.0386202969417
 30
0.0
 10
109.4207112356657
 20
-149.2436034783141
 30
0.0
 10
109.4207112356657
 20
-149.2436034783141
 30
0.0
 10
109.4165771210834
 20
-149.2797769809092
 30
0.0
 10
109.4145100637922
 20
-149.2925238342046
 30
0.0
 10
109.3952175290748
 20
-149.2925238342046
 30
0.0
 10
109.3828151853279
 20
-149.2925238342046
 30
0.0
 10
109.3659342174502
 20
-149.2732312994873
 30
0.0
 10
109.3466416827328
 20
-149.2522162170272
 30
0.0
  0
SPLINE
  5
6E
330
41
100
AcDbEntity
  8
_U+30EC_U+30A4_U+30E4_U+30FC 1
370
     0
100
AcDbSpline
210
0.0
220
0.0
230
1.0
 70
    11
 71
     3
 72
    83
 73
    79
 74
     0
 42
0.0000000001
 43
0.0000000001
 12
1.0
 22
0.0
 32
0.0
 13
1.0
 23
0.0
 33
0.0
 40
0.0
 40
0.0
 40
0.0
 40
0.0
 40
1.0
 40
1.0
 40
1.0
 40
2.0
 40
2.0
 40
2.0
 40
3.0
 40
3.0
 40
3.0
 40
4.0
 40
4.0
 40
4.0
 40
5.0
 40
5.0
 40
5.0
 40
6.0
 40
6.0
 40
6.0
 40
7.0
 40
7.0
 40
7.0
 40
8.0
 40
8.0
 40
8.0
 40
9.0
 40
9.0
 40
9.0
 40
10.0
 40
10.0
 40
10.0
 40
11.0
 40
11.0
 40
11.0
 40
12.0
 40
12.0
 40
12.0
 40
13.0
 40
13.0
 40
13.0
 40
14.0
 40
14.0
 40
14.0
 40
15.0
 40
15.0
 40
15.0
 40
16.0
 40
16.0
 40
16.0
 40
17.0
 40
17.0
 40
17.0
 40
18.0
 40
18.0
 40
18.0
 40
19.0
 40
19.0
 40
19.0
 40
20.0
 40
20.0
 40
20.0
 40
21.0
 40
21.0
 40
21.0
 40
22.0
 40
22.0
 40
22.0
 40
23.0
 40
23.0
 40
23.0
 40
24.0
 40
24.0
 40
24.0
 40
25.0
 40
25.0
 40
25.0
 40
26.0
 40
26.0
 40
26.0
 40
26.0
 10
108.7058539224763
 20
-148.0991427581141
 30
0.0
 10
108.7058539224763
 20
-148.0991427581141
 30
0.0
 10
108.7058539224763
 20
-147.9830430402612
 30
0.0
 10
108.7058539224763
 20
-147.9830430402612
 30
0.0
 10
108.6169704589569
 20
-147.9806314734215
 30
0.0
 10
108.5535807020283
 20
-147.9723632442569
 30
0.0
 10
108.4963921169731
 20
-147.9658175628349
 30
0.0
 10
108.4963921169731
 20
-147.9658175628349
 30
0.0
 10
108.4963921169731
 20
-148.4040337085587
 30
0.0
 10
108.4963921169731
 20
-148.4040337085587
 30
0.0
 10
108.3441188965251
 20
-148.3974880271367
 30
0.0
 10
107.9589572212742
 20
-148.3826741165502
 30
0.0
 10
107.7367485624755
 20
-148.2937906530307
 30
0.0
 10
107.6161702204918
 20
-148.2472818639799
 30
0.0
 10
107.5696614314409
 20
-148.1838921070513
 30
0.0
 10
107.5696614314409
 20
-147.9999240081389
 30
0.0
 10
107.5696614314409
 20
-147.9510036522484
 30
0.0
 10
107.5717284887321
 20
-147.9320556270795
 30
0.0
 10
107.5762071128629
 20
-147.9069064300372
 30
0.0
 10
107.5762071128629
 20
-147.9069064300372
 30
0.0
 10
107.8087510581173
 20
-147.8283582529735
 30
0.0
 10
107.8087510581173
 20
-147.8283582529735
 30
0.0
 10
107.8087510581173
 20
-147.8349039343954
 30
0.0
 10
107.8066840008261
 20
-147.8411051062689
 30
0.0
 10
107.7898030329484
 20
-147.9089734873283
 30
0.0
 10
107.7791232369441
 20
-147.9510036522484
 30
0.0
 10
107.7749891223618
 20
-147.9851100975523
 30
0.0
 10
107.7749891223618
 20
-147.9999240081389
 30
0.0
 10
107.7749891223618
 20
-148.0760606183629
 30
0.0
 10
107.8194308541215
 20
-148.1012098154053
 30
0.0
 10
107.853192789877
 20
-148.1184352928315
 30
0.0
 10
107.8700737577547
 20
-148.1267035219961
 30
0.0
 10
108.0033989530339
 20
-148.1818250497601
 30
0.0
 10
108.3248263618077
 20
-148.1987060176378
 30
0.0
 10
108.3248263618077
 20
-148.1987060176378
 30
0.0
 10
108.3248263618077
 20
-147.9341226843706
 30
0.0
 10
108.3248263618077
 20
-147.9341226843706
 30
0.0
 10
107.9548231066919
 20
-147.8517849022732
 30
0.0
 10
107.6988525121378
 20
-147.6802191471077
 30
0.0
 10
107.5824082847363
 20
-147.511064958782
 30
0.0
 10
107.5824082847363
 20
-147.511064958782
 30
0.0
 10
107.7412271866064
 20
-147.3525905664605
 30
0.0
 10
107.7412271866064
 20
-147.3525905664605
 30
0.0
 10
107.956890163983
 20
-147.6888318858209
 30
0.0
 10
108.3503200683985
 20
-147.7797824066315
 30
0.0
 10
108.7058539224763
 20
-147.7883951453446
 30
0.0
 10
108.7058539224763
 20
-147.7353406748717
 30
0.0
 10
108.7058539224763
 20
-147.7270724457071
 30
0.0
 10
108.6972411837632
 20
-147.46248911244
 30
0.0
 10
108.7585638834006
 20
-147.4666232270222
 30
0.0
 10
108.8560600856332
 20
-147.4711018511531
 30
0.0
 10
108.9511447210261
 20
-147.4711018511531
 30
0.0
 10
108.9511447210261
 20
-147.4711018511531
 30
0.0
 10
109.156472411947
 20
-147.4711018511531
 30
0.0
 10
109.156472411947
 20
-147.4711018511531
 30
0.0
 10
109.1836886662805
 20
-147.4711018511531
 30
0.0
 10
109.3066785751039
 20
-147.4686902843134
 30
0.0
 10
109.3659342174502
 20
-147.46248911244
 30
0.0
 10
109.3573214787371
 20
-147.538625722664
 30
0.0
 10
109.3531873641548
 20
-147.6740179752343
 30
0.0
 10
109.3531873641548
 20
-147.7567002668803
 30
0.0
 10
109.3531873641548
 20
-147.7567002668803
 30
0.0
 10
109.3531873641548
 20
-148.0801947329452
 30
0.0
 10
109.3531873641548
 20
-148.0801947329452
 30
0.0
 10
109.3531873641548
 20
-148.228333838811
 30
0.0
 10
109.3552544214459
 20
-148.276909685153
 30
0.0
 10
109.3659342174502
 20
-148.408167823141
 30
0.0
 10
109.2918646645173
 20
-148.3995550844279
 30
0.0
 10
109.1923014049936
 20
-148.3995550844279
 30
0.0
 10
109.1478596732339
 20
-148.3995550844279
 30
0.0
 10
109.1478596732339
 20
-148.3995550844279
 30
0.0
 10
108.9532117783173
 20
-148.3995550844279
 30
0.0
 10
108.9532117783173
 20
-148.3995550844279
 30
0.0
 10
108.8326334363335
 20
-148.3995550844279
 30
0.0
 10
108.8095512965823
 20
-148.3995550844279
 30
0.0
 10
108.6972411837632
 20
-148.408167823141
 30
0.0
 10
108.7058539224763
 20
-148.283455366575
 30
0.0
 10
108.7058539224763
 20
-148.2431477493976
 30
0.0
 10
108.7058539224763
 20
-148.0991427581141
 30
0.0
  0
SPLINE
  5
6F
330
41
100
AcDbEntity
  8
_U+30EC_U+30A4_U+30E4_U+30FC 1
370
     0
100
AcDbSpline
210
0.0
220
0.0
230
1.0
 70
    11
 71
     3
 72
    41
 73
    37
 74
     0
 42
0.0000000001
 43
0.0000000001
 12
1.0
 22
0.0
 32
0.0
 13
1.0
 23
0.0
 33
0.0
 40
0.0
 40
0.0
 40
0.0
 40
0.0
 40
1.0
 40
1.0
 40
1.0
 40
2.0
 40
2.0
 40
2.0
 40
3.0
 40
3.0
 40
3.0
 40
4.0
 40
4.0
 40
4.0
 40
5.0
 40
5.0
 40
5.0
 40
6.0
 40
6.0
 40
6.0
 40
7.0
 40
7.0
 40
7.0
 40
8.0
 40
8.0
 40
8.0
 40
9.0
 40
9.0
 40
9.0
 40
10.0
 40
10.0
 40
10.0
 40
11.0
 40
11.0
 40
11.0
 40
12.0
 40
12.0
 40
12.0
 40
12.0
 10
109.128911648065
 20
-148.8122775235608
 30
0.0
 10
109.0210801593767
 20
-148.8102104662697
 30
0.0
 10
108.9067029892664
 20
-148.8102104662697
 30
0.0
 10
108.7988715005781
 20
-148.8102104662697
 30
0.0
 10
108.7988715005781
 20
-148.8102104662697
 30
0.0
 10
108.5025932888466
 20
-148.8102104662697
 30
0.0
 10
108.5025932888466
 20
-148.8102104662697
 30
0.0
 10
108.384082004154
 20
-148.8102104662697
 30
0.0
 10
108.1746201986508
 20
-148.814344580852
 30
0.0
 10
108.0585204807979
 20
-148.8312255487297
 30
0.0
 10
108.0585204807979
 20
-148.8312255487297
 30
0.0
 10
108.0585204807979
 20
-148.5793890687579
 30
0.0
 10
108.0585204807979
 20
-148.5793890687579
 30
0.0
 10
108.1474039443173
 20
-148.5900688647622
 30
0.0
 10
108.4157768826183
 20
-148.6069498326399
 30
0.0
 10
108.5025932888466
 20
-148.6069498326399
 30
0.0
 10
108.5025932888466
 20
-148.6069498326399
 30
0.0
 10
108.8326334363335
 20
-148.6069498326399
 30
0.0
 10
108.8326334363335
 20
-148.6069498326399
 30
0.0
 10
108.8326334363335
 20
-148.6069498326399
 30
0.0
 10
108.866395372089
 20
-148.6069498326399
 30
0.0
 10
108.866395372089
 20
-148.6069498326399
 30
0.0
 10
108.866395372089
 20
-148.6069498326399
 30
0.0
 10
109.0482964137101
 20
-148.6069498326399
 30
0.0
 10
109.0482964137101
 20
-148.6069498326399
 30
0.0
 10
109.0886040308876
 20
-148.6069498326399
 30
0.0
 10
109.1519937878162
 20
-148.6048827753488
 30
0.0
 10
109.2367431367533
 20
-148.6028157180576
 30
0.0
 10
109.2367431367533
 20
-148.6028157180576
 30
0.0
 10
109.2219292261668
 20
-148.8102104662697
 30
0.0
 10
109.2219292261668
 20
-148.8102104662697
 30
0.0
 10
109.2219292261668
 20
-148.8226128100166
 30
0.0
 10
109.2198621688756
 20
-148.862920427194
 30
0.0
 10
109.1902343477024
 20
-148.862920427194
 30
0.0
 10
109.1733533798247
 20
-148.862920427194
 30
0.0
 10
109.1540608451073
 20
-148.841905344734
 30
0.0
 10
109.128911648065
 20
-148.8122775235608
 30
0.0
  0
POLYLINE
  5
70
330
41
100
AcDbEntity
  8
_U+30EC_U+30A4_U+30E4_U+30FC 1
370
     0
100
AcDb2dPolyline
 66
     1
 10
0.0
 20
0.0
 30
0.0
  0
VERTEX
  5
71
330
70
100
AcDbEntity
  8
_U+30EC_U+30A4_U+30E4_U+30FC 1
370
     0
100
AcDbVertex
100
AcDb2dVertex
 10
109.1902343477024
 20
-148.1987060176378
 30
0.0
  0
VERTEX
  5
72
330
70
100
AcDbEntity
  8
_U+30EC_U+30A4_U+30E4_U+30FC 1
370
     0
100
AcDbVertex
100
AcDb2dVertex
 10
109.1902343477024
 20
-147.6571370073566
 30
0.0
  0
VERTEX
  5
73
330
70
100
AcDbEntity
  8
_U+30EC_U+30A4_U+30E4_U+30FC 1
370
     0
100
AcDbVertex
100
AcDb2dVertex
 10
108.866395372089
 20
-147.6571370073566
 30
0.0
  0
VERTEX
  5
74
330
70
100
AcDbEntity
  8
_U+30EC_U+30A4_U+30E4_U+30FC 1
370
     0
100
AcDbVertex
100
AcDb2dVertex
 10
108.866395372089
 20
-148.1987060176378
 30
0.0
  0
VERTEX
  5
75
330
70
100
AcDbEntity
  8
_U+30EC_U+30A4_U+30E4_U+30FC 1
370
     0
100
AcDbVertex
100
AcDb2dVertex
 10
109.1902343477024
 20
-148.1987060176378
 30
0.0
  0
SEQEND
  5
76
330
70
100
AcDbEntity
  8
_U+30EC_U+30A4_U+30E4_U+30FC 1
370
     0
  0
HATCH
  5
77
330
41
100
AcDbEntity
  8
_U+30EC_U+30A4_U+30E4_U+30FC 1
 62
   179
420
  2234388
100
AcDbHatch
 10
0.0
 20
0.0
 30
0.0
210
0.0
220
0.0
230
1.0
  2
SOLID
 70
     1
 71
     0
 91
        4
 92
        1
 93
        1
 72
     4
 94
        3
 73
     0
 74
     1
 95
       47
 96
       43
 40
0.0
 40
0.0
 40
0.0
 40
0.0
 40
1.0
 40
1.0
 40
1.0
 40
2.0
 40
2.0
 40
2.0
 40
3.0
 40
3.0
 40
3.0
 40
4.0
 40
4.0
 40
4.0
 40
5.0
 40
5.0
 40
5.0
 40
6.0
 40
6.0
 40
6.0
 40
7.0
 40
7.0
 40
7.0
 40
8.0
 40
8.0
 40
8.0
 40
9.0
 40
9.0
 40
9.0
 40
10.0
 40
10.0
 40
10.0
 40
11.0
 40
11.0
 40
11.0
 40
12.0
 40
12.0
 40
12.0
 40
13.0
 40
13.0
 40
13.0
 40
14.0
 40
14.0
 40
14.0
 40
14.0
 10
109.3466416827328
 20
-149.2522162170272
 10
109.2177951115845
 20
-149.2480821024449
 10
109.1182318520607
 20
-149.2436034783141
 10
109.0083333060813
 20
-149.2436034783141
 10
109.0083333060813
 20
-149.2436034783141
 10
108.2869303114699
 20
-149.2436034783141
 10
108.2869303114699
 20
-149.2436034783141
 10
108.2573024902968
 20
-149.2436034783141
 10
108.2318087837059
 20
-149.2480821024449
 10
108.0033989530339
 20
-149.2522162170272
 10
108.0033989530339
 20
-149.2522162170272
 10
107.7939371475307
 20
-149.2563503316095
 10
107.7939371475307
 20
-149.2563503316095
 10
107.6268500164961
 20
-149.2608289557404
 10
107.5441677248501
 20
-149.2205213385629
 10
107.5441677248501
 20
-148.9900444505997
 10
107.5441677248501
 20
-148.9518038907134
 10
107.5441677248501
 20
-148.9263101841226
 10
107.5465792916898
 20
-148.8925482483671
 10
107.5465792916898
 20
-148.8925482483671
 10
107.7791232369441
 20
-148.7719699063834
 10
107.7791232369441
 20
-148.7719699063834
 10
107.7684434409398
 20
-148.8481065166074
 10
107.7622422690664
 20
-148.94560271884
 10
107.7622422690664
 20
-148.994178565182
 10
107.7622422690664
 20
-149.0489555833975
 10
107.7749891223618
 20
-149.0489555833975
 10
107.8680067004636
 20
-149.0489555833975
 10
107.8680067004636
 20
-149.0489555833975
 10
108.9869737140727
 20
-149.0489555833975
 10
108.9869737140727
 20
-149.0489555833975
 10
109.1392469345208
 20
-149.0489555833975
 10
109.2894530976776
 20
-149.0448214688152
 10
109.4420708276742
 20
-149.0386202969417
 10
109.4420708276742
 20
-149.0386202969417
 10
109.4207112356657
 20
-149.2436034783141
 10
109.4207112356657
 20
-149.2436034783141
 10
109.4165771210834
 20
-149.2797769809092
 10
109.4145100637922
 20
-149.2925238342046
 10
109.3952175290748
 20
-149.2925238342046
 10
109.3828151853279
 20
-149.2925238342046
 10
109.3659342174502
 20
-149.2732312994873
 10
109.3466416827328
 20
-149.2522162170272
 97
        0
 97
        0
 92
        1
 93
        1
 72
     4
 94
        3
 73
     0
 74
     1
 95
       83
 96
       79
 40
0.0
 40
0.0
 40
0.0
 40
0.0
 40
1.0
 40
1.0
 40
1.0
 40
2.0
 40
2.0
 40
2.0
 40
3.0
 40
3.0
 40
3.0
 40
4.0
 40
4.0
 40
4.0
 40
5.0
 40
5.0
 40
5.0
 40
6.0
 40
6.0
 40
6.0
 40
7.0
 40
7.0
 40
7.0
 40
8.0
 40
8.0
 40
8.0
 40
9.0
 40
9.0
 40
9.0
 40
10.0
 40
10.0
 40
10.0
 40
11.0
 40
11.0
 40
11.0
 40
12.0
 40
12.0
 40
12.0
 40
13.0
 40
13.0
 40
13.0
 40
14.0
 40
14.0
 40
14.0
 40
15.0
 40
15.0
 40
15.0
 40
16.0
 40
16.0
 40
16.0
 40
17.0
 40
17.0
 40
17.0
 40
18.0
 40
18.0
 40
18.0
 40
19.0
 40
19.0
 40
19.0
 40
20.0
 40
20.0
 40
20.0
 40
21.0
 40
21.0
 40
21.0
 40
22.0
 40
22.0
 40
22.0
 40
23.0
 40
23.0
 40
23.0
 40
24.0
 40
24.0
 40
24.0
 40
25.0
 40
25.0
 40
25.0
 40
26.0
 40
26.0
 40
26.0
 40
26.0
 10
108.7058539224763
 20
-148.0991427581141
 10
108.7058539224763
 20
-148.0991427581141
 10
108.7058539224763
 20
-147.9830430402612
 10
108.7058539224763
 20
-147.9830430402612
 10
108.6169704589569
 20
-147.9806314734215
 10
108.5535807020283
 20
-147.9723632442569
 10
108.4963921169731
 20
-147.9658175628349
 10
108.4963921169731
 20
-147.9658175628349
 10
108.4963921169731
 20
-148.4040337085587
 10
108.4963921169731
 20
-148.4040337085587
 10
108.3441188965251
 20
-148.3974880271367
 10
107.9589572212742
 20
-148.3826741165502
 10
107.7367485624755
 20
-148.2937906530307
 10
107.6161702204918
 20
-148.2472818639799
 10
107.5696614314409
 20
-148.1838921070513
 10
107.5696614314409
 20
-147.9999240081389
 10
107.5696614314409
 20
-147.9510036522484
 10
107.5717284887321
 20
-147.9320556270795
 10
107.5762071128629
 20
-147.9069064300372
 10
107.5762071128629
 20
-147.9069064300372
 10
107.8087510581173
 20
-147.8283582529735
 10
107.8087510581173
 20
-147.8283582529735
 10
107.8087510581173
 20
-147.8349039343954
 10
107.8066840008261
 20
-147.8411051062689
 10
107.7898030329484
 20
-147.9089734873283
 10
107.7791232369441
 20
-147.9510036522484
 10
107.7749891223618
 20
-147.9851100975523
 10
107.7749891223618
 20
-147.9999240081389
 10
107.7749891223618
 20
-148.0760606183629
 10
107.8194308541215
 20
-148.1012098154053
 10
107.853192789877
 20
-148.1184352928315
 10
107.8700737577547
 20
-148.1267035219961
 10
108.0033989530339
 20
-148.1818250497601
 10
108.3248263618077
 20
-148.1987060176378
 10
108.3248263618077
 20
-148.1987060176378
 10
108.3248263618077
 20
-147.9341226843706
 10
108.3248263618077
 20
-147.9341226843706
 10
107.9548231066919
 20
-147.8517849022732
 10
107.6988525121378
 20
-147.6802191471077
 10
107.5824082847363
 20
-147.511064958782
 10
107.5824082847363
 20
-147.511064958782
 10
107.7412271866064
 20
-147.3525905664605
 10
107.7412271866064
 20
-147.3525905664605
 10
107.956890163983
 20
-147.6888318858209
 10
108.3503200683985
 20
-147.7797824066315
 10
108.7058539224763
 20
-147.7883951453446
 10
108.7058539224763
 20
-147.7353406748717
 10
108.7058539224763
 20
-147.7270724457071
 10
108.6972411837632
 20
-147.46248911244
 10
108.7585638834006
 20
-147.4666232270222
 10
108.8560600856332
 20
-147.4711018511531
 10
108.9511447210261
 20
-147.4711018511531
 10
108.9511447210261
 20
-147.4711018511531
 10
109.156472411947
 20
-147.4711018511531
 10
109.156472411947
 20
-147.4711018511531
 10
109.1836886662805
 20
-147.4711018511531
 10
109.3066785751039
 20
-147.4686902843134
 10
109.3659342174502
 20
-147.46248911244
 10
109.3573214787371
 20
-147.538625722664
 10
109.3531873641548
 20
-147.6740179752343
 10
109.3531873641548
 20
-147.7567002668803
 10
109.3531873641548
 20
-147.7567002668803
 10
109.3531873641548
 20
-148.0801947329452
 10
109.3531873641548
 20
-148.0801947329452
 10
109.3531873641548
 20
-148.228333838811
 10
109.3552544214459
 20
-148.276909685153
 10
109.3659342174502
 20
-148.408167823141
 10
109.2918646645173
 20
-148.3995550844279
 10
109.1923014049936
 20
-148.3995550844279
 10
109.1478596732339
 20
-148.3995550844279
 10
109.1478596732339
 20
-148.3995550844279
 10
108.9532117783173
 20
-148.3995550844279
 10
108.9532117783173
 20
-148.3995550844279
 10
108.8326334363335
 20
-148.3995550844279
 10
108.8095512965823
 20
-148.3995550844279
 10
108.6972411837632
 20
-148.408167823141
 10
108.7058539224763
 20
-148.283455366575
 10
108.7058539224763
 20
-148.2431477493976
 10
108.7058539224763
 20
-148.0991427581141
 97
        0
 97
        0
 92
        1
 93
        1
 72
     4
 94
        3
 73
     0
 74
     1
 95
       41
 96
       37
 40
0.0
 40
0.0
 40
0.0
 40
0.0
 40
1.0
 40
1.0
 40
1.0
 40
2.0
 40
2.0
 40
2.0
 40
3.0
 40
3.0
 40
3.0
 40
4.0
 40
4.0
 40
4.0
 40
5.0
 40
5.0
 40
5.0
 40
6.0
 40
6.0
 40
6.0
 40
7.0
 40
7.0
 40
7.0
 40
8.0
 40
8.0
 40
8.0
 40
9.0
 40
9.0
 40
9.0
 40
10.0
 40
10.0
 40
10.0
 40
11.0
 40
11.0
 40
11.0
 40
12.0
 40
12.0
 40
12.0
 40
12.0
 10
109.128911648065
 20
-148.8122775235608
 10
109.0210801593767
 20
-148.8102104662697
 10
108.9067029892664
 20
-148.8102104662697
 10
108.7988715005781
 20
-148.8102104662697
 10
108.7988715005781
 20
-148.8102104662697
 10
108.5025932888466
 20
-148.8102104662697
 10
108.5025932888466
 20
-148.8102104662697
 10
108.384082004154
 20
-148.8102104662697
 10
108.1746201986508
 20
-148.814344580852
 10
108.0585204807979
 20
-148.8312255487297
 10
108.0585204807979
 20
-148.8312255487297
 10
108.0585204807979
 20
-148.5793890687579
 10
108.0585204807979
 20
-148.5793890687579
 10
108.1474039443173
 20
-148.5900688647622
 10
108.4157768826183
 20
-148.6069498326399
 10
108.5025932888466
 20
-148.6069498326399
 10
108.5025932888466
 20
-148.6069498326399
 10
108.8326334363335
 20
-148.6069498326399
 10
108.8326334363335
 20
-148.6069498326399
 10
108.8326334363335
 20
-148.6069498326399
 10
108.866395372089
 20
-148.6069498326399
 10
108.866395372089
 20
-148.6069498326399
 10
108.866395372089
 20
-148.6069498326399
 10
109.0482964137101
 20
-148.6069498326399
 10
109.0482964137101
 20
-148.6069498326399
 10
109.0886040308876
 20
-148.6069498326399
 10
109.1519937878162
 20
-148.6048827753488
 10
109.2367431367533
 20
-148.6028157180576
 10
109.2367431367533
 20
-148.6028157180576
 10
109.2219292261668
 20
-148.8102104662697
 10
109.2219292261668
 20
-148.8102104662697
 10
109.2219292261668
 20
-148.8226128100166
 10
109.2198621688756
 20
-148.862920427194
 10
109.1902343477024
 20
-148.862920427194
 10
109.1733533798247
 20
-148.862920427194
 10
109.1540608451073
 20
-148.841905344734
 10
109.128911648065
 20
-148.8122775235608
 97
        0
 97
        0
 92
        1
 93
        4
 72
     1
 10
109.1902343477024
 20
-148.1987060176378
 11
109.1902343477024
 21
-147.6571370073566
 72
     1
 10
109.1902343477024
 20
-147.6571370073566
 11
108.866395372089
 21
-147.6571370073566
 72
     1
 10
108.866395372089
 20
-147.6571370073566
 11
108.866395372089
 21
-148.1987060176378
 72
     1
 10
108.866395372089
 20
-148.1987060176378
 11
109.1902343477024
 21
-148.1987060176378
 97
        0
 75
     2
 76
     1
 98
        0
  0
SPLINE
  5
78
330
41
100
AcDbEntity
  8
_U+30EC_U+30A4_U+30E4_U+30FC 1
370
     0
100
AcDbSpline
210
0.0
220
0.0
230
1.0
 70
    11
 71
     3
 72
    71
 73
    67
 74
     0
 42
0.0000000001
 43
0.0000000001
 12
1.0
 22
0.0
 32
0.0
 13
1.0
 23
0.0
 33
0.0
 40
0.0
 40
0.0
 40
0.0
 40
0.0
 40
1.0
 40
1.0
 40
1.0
 40
2.0
 40
2.0
 40
2.0
 40
3.0
 40
3.0
 40
3.0
 40
4.0
 40
4.0
 40
4.0
 40
5.0
 40
5.0
 40
5.0
 40
6.0
 40
6.0
 40
6.0
 40
7.0
 40
7.0
 40
7.0
 40
8.0
 40
8.0
 40
8.0
 40
9.0
 40
9.0
 40
9.0
 40
10.0
 40
10.0
 40
10.0
 40
11.0
 40
11.0
 40
11.0
 40
12.0
 40
12.0
 40
12.0
 40
13.0
 40
13.0
 40
13.0
 40
14.0
 40
14.0
 40
14.0
 40
15.0
 40
15.0
 40
15.0
 40
16.0
 40
16.0
 40
16.0
 40
17.0
 40
17.0
 40
17.0
 40
18.0
 40
18.0
 40
18.0
 40
19.0
 40
19.0
 40
19.0
 40
20.0
 40
20.0
 40
20.0
 40
21.0
 40
21.0
 40
21.0
 40
22.0
 40
22.0
 40
22.0
 40
22.0
 10
107.6013563099052
 20
-151.4026448189202
 30
0.0
 10
107.5972221953229
 20
-151.3433891765739
 30
0.0
 10
107.5930880807406
 20
-151.2589843371853
 30
0.0
 10
107.5930880807406
 20
-151.0495225316821
 30
0.0
 10
107.5930880807406
 20
-150.9585720108715
 30
0.0
 10
107.5972221953229
 20
-150.5544623104517
 30
0.0
 10
107.5972221953229
 20
-150.4717800188057
 30
0.0
 10
107.5972221953229
 20
-150.228556277547
 30
0.0
 10
107.5972221953229
 20
-150.1713676924919
 30
0.0
 10
107.6351182456607
 20
-150.0742159998078
 30
0.0
 10
107.6795599774204
 20
-149.9557047151152
 30
0.0
 10
107.7474283584798
 20
-149.9071288687732
 30
0.0
 10
107.798071262113
 20
-149.8709553661781
 30
0.0
 10
107.7729220650707
 20
-149.841327545005
 30
0.0
 10
107.6647460668338
 20
-149.7059352924346
 30
0.0
 10
107.6437309843738
 20
-149.6787190381011
 30
0.0
 10
107.5910210234495
 20
-149.6742404139703
 30
0.0
 10
107.5634602595675
 20
-149.670106299388
 30
0.0
 10
107.5634602595675
 20
-149.642545535506
 30
0.0
 10
107.5634602595675
 20
-149.6235975103372
 30
0.0
 10
107.5865423993186
 20
-149.6108506570417
 30
0.0
 10
107.5992892526141
 20
-149.6046494851683
 30
0.0
 10
107.5992892526141
 20
-149.6046494851683
 30
0.0
 10
107.8001383194041
 20
-149.51783307894
 30
0.0
 10
107.8001383194041
 20
-149.51783307894
 30
0.0
 10
107.8173637968304
 20
-149.5832898931597
 30
0.0
 10
107.8869547256324
 20
-149.725227827152
 30
0.0
 10
107.9313964573922
 20
-149.7865505267895
 30
0.0
 10
107.9313964573922
 20
-149.7865505267895
 30
0.0
 10
108.3926947428671
 20
-149.7865505267895
 30
0.0
 10
108.3926947428671
 20
-149.7865505267895
 30
0.0
 10
108.3926947428671
 20
-149.7865505267895
 30
0.0
 10
108.3926947428671
 20
-149.6721733566792
 30
0.0
 10
108.3926947428671
 20
-149.6721733566792
 30
0.0
 10
108.3926947428671
 20
-149.670106299388
 30
0.0
 10
108.384082004154
 20
-149.5581406961174
 30
0.0
 10
108.384082004154
 20
-149.5495279574043
 30
0.0
 10
108.384082004154
 20
-149.5495279574043
 30
0.0
 10
108.5745957844883
 20
-149.5495279574043
 30
0.0
 10
108.5745957844883
 20
-149.5495279574043
 30
0.0
 10
108.5725287271972
 20
-149.6194633957549
 30
0.0
 10
108.570461669906
 20
-149.6277316249195
 30
0.0
 10
108.570461669906
 20
-149.6869872672657
 30
0.0
 10
108.570461669906
 20
-149.6869872672657
 30
0.0
 10
108.570461669906
 20
-149.8054985519584
 30
0.0
 10
108.570461669906
 20
-149.8054985519584
 30
0.0
 10
108.570461669906
 20
-149.8330593158404
 30
0.0
 10
108.5745957844883
 20
-149.924009836651
 30
0.0
 10
108.5787298990706
 20
-149.9853325362884
 30
0.0
 10
108.5046603461377
 20
-149.9767197975753
 30
0.0
 10
108.4433376465003
 20
-149.9746527402841
 30
0.0
 10
108.4330023600445
 20
-149.9746527402841
 30
0.0
 10
108.4330023600445
 20
-149.9746527402841
 30
0.0
 10
108.026481092785
 20
-149.9746527402841
 30
0.0
 10
108.026481092785
 20
-149.9746527402841
 30
0.0
 10
107.9355305719745
 20
-149.9746527402841
 30
0.0
 10
107.8659396431724
 20
-150.0380424972127
 30
0.0
 10
107.8490586752947
 20
-150.0573350319301
 30
0.0
 10
107.7581081544841
 20
-150.1672335779096
 30
0.0
 10
107.7453613011887
 20
-150.1882486603696
 30
0.0
 10
107.7453613011887
 20
-150.5479166290297
 30
0.0
 10
107.7453613011887
 20
-150.634733035258
 30
0.0
 10
107.7556965876444
 20
-151.2038628094213
 30
0.0
 10
107.7939371475307
 20
-151.4705131999796
 30
0.0
 10
107.7939371475307
 20
-151.4705131999796
 30
0.0
 10
107.6013563099052
 20
-151.4026448189202
 30
0.0
 10
107.6013563099052
 20
-151.4026448189202
 30
0.0
  0
SPLINE
  5
79
330
41
100
AcDbEntity
  8
_U+30EC_U+30A4_U+30E4_U+30FC 1
370
     0
100
AcDbSpline
210
0.0
220
0.0
230
1.0
 70
    11
 71
     3
 72
   122
 73
   118
 74
     0
 42
0.0000000001
 43
0.0000000001
 12
1.0
 22
0.0
 32
0.0
 13
1.0
 23
0.0
 33
0.0
 40
0.0
 40
0.0
 40
0.0
 40
0.0
 40
1.0
 40
1.0
 40
1.0
 40
2.0
 40
2.0
 40
2.0
 40
3.0
 40
3.0
 40
3.0
 40
4.0
 40
4.0
 40
4.0
 40
5.0
 40
5.0
 40
5.0
 40
6.0
 40
6.0
 40
6.0
 40
7.0
 40
7.0
 40
7.0
 40
8.0
 40
8.0
 40
8.0
 40
9.0
 40
9.0
 40
9.0
 40
10.0
 40
10.0
 40
10.0
 40
11.0
 40
11.0
 40
11.0
 40
12.0
 40
12.0
 40
12.0
 40
13.0
 40
13.0
 40
13.0
 40
14.0
 40
14.0
 40
14.0
 40
15.0
 40
15.0
 40
15.0
 40
16.0
 40
16.0
 40
16.0
 40
17.0
 40
17.0
 40
17.0
 40
18.0
 40
18.0
 40
18.0
 40
19.0
 40
19.0
 40
19.0
 40
20.0
 40
20.0
 40
20.0
 40
21.0
 40
21.0
 40
21.0
 40
22.0
 40
22.0
 40
22.0
 40
23.0
 40
23.0
 40
23.0
 40
24.0
 40
24.0
 40
24.0
 40
25.0
 40
25.0
 40
25.0
 40
26.0
 40
26.0
 40
26.0
 40
27.0
 40
27.0
 40
27.0
 40
28.0
 40
28.0
 40
28.0
 40
29.0
 40
29.0
 40
29.0
 40
30.0
 40
30.0
 40
30.0
 40
31.0
 40
31.0
 40
31.0
 40
32.0
 40
32.0
 40
32.0
 40
33.0
 40
33.0
 40
33.0
 40
34.0
 40
34.0
 40
34.0
 40
35.0
 40
35.0
 40
35.0
 40
36.0
 40
36.0
 40
36.0
 40
37.0
 40
37.0
 40
37.0
 40
38.0
 40
38.0
 40
38.0
 40
39.0
 40
39.0
 40
39.0
 40
39.0
 10
108.7651095648226
 20
-151.3285752659873
 30
0.0
 10
108.7775119085695
 20
-151.2862005915187
 30
0.0
 10
108.7881917045738
 20
-151.2396918024679
 30
0.0
 10
108.838834608207
 20
-151.1318603137796
 30
0.0
 10
108.838834608207
 20
-151.1318603137796
 30
0.0
 10
108.7120550943498
 20
-151.1318603137796
 30
0.0
 10
108.7120550943498
 20
-151.1318603137796
 30
0.0
 10
108.7182562662232
 20
-151.0367756783866
 30
0.0
 10
108.722734890354
 20
-150.8845024579386
 30
0.0
 10
108.722734890354
 20
-150.8231797583012
 30
0.0
 10
108.722734890354
 20
-150.8231797583012
 30
0.0
 10
108.722734890354
 20
-150.7639241159549
 30
0.0
 10
108.722734890354
 20
-150.7639241159549
 30
0.0
 10
108.722734890354
 20
-150.7639241159549
 30
0.0
 10
108.5725287271972
 20
-150.7639241159549
 30
0.0
 10
108.5725287271972
 20
-150.7639241159549
 30
0.0
 10
108.5725287271972
 20
-150.7639241159549
 30
0.0
 10
108.5725287271972
 20
-150.8800238338078
 30
0.0
 10
108.5725287271972
 20
-150.8800238338078
 30
0.0
 10
108.5725287271972
 20
-151.013349029087
 30
0.0
 10
108.5725287271972
 20
-151.1680338163747
 30
0.0
 10
108.5828640136529
 20
-151.296880387523
 30
0.0
 10
108.5828640136529
 20
-151.296880387523
 30
0.0
 10
108.411642768036
 20
-151.296880387523
 30
0.0
 10
108.411642768036
 20
-151.296880387523
 30
0.0
 10
108.4137098253271
 20
-151.1849147842524
 30
0.0
 10
108.4243896213314
 20
-150.9775200360403
 30
0.0
 10
108.4243896213314
 20
-150.8800238338078
 30
0.0
 10
108.4243896213314
 20
-150.8800238338078
 30
0.0
 10
108.4243896213314
 20
-150.7639241159549
 30
0.0
 10
108.4243896213314
 20
-150.7639241159549
 30
0.0
 10
108.4243896213314
 20
-150.7639241159549
 30
0.0
 10
108.1346570910219
 20
-150.7639241159549
 30
0.0
 10
108.1346570910219
 20
-150.7639241159549
 30
0.0
 10
108.1153645563045
 20
-150.7639241159549
 30
0.0
 10
108.026481092785
 20
-150.7680582305372
 30
0.0
 10
108.0075330676162
 20
-150.7680582305372
 30
0.0
 10
107.8214979114127
 20
-150.7680582305372
 30
0.0
 10
107.8214979114127
 20
-150.7088025881908
 30
0.0
 10
107.8194308541215
 20
-150.4486978790545
 30
0.0
 10
107.8194308541215
 20
-150.4486978790545
 30
0.0
 10
108.0350938314982
 20
-150.3680826446997
 30
0.0
 10
108.0350938314982
 20
-150.3680826446997
 30
0.0
 10
108.0161458063293
 20
-150.4338839684679
 30
0.0
 10
108.005466010325
 20
-150.5269015465697
 30
0.0
 10
108.005466010325
 20
-150.531035661152
 30
0.0
 10
108.005466010325
 20
-150.5775444502029
 30
0.0
 10
108.033026774207
 20
-150.5775444502029
 30
0.0
 10
108.1281114095999
 20
-150.5775444502029
 30
0.0
 10
108.1281114095999
 20
-150.5775444502029
 30
0.0
 10
108.4243896213314
 20
-150.5775444502029
 30
0.0
 10
108.4243896213314
 20
-150.5775444502029
 30
0.0
 10
108.4243896213314
 20
-150.5775444502029
 30
0.0
 10
108.4243896213314
 20
-150.4569661082191
 30
0.0
 10
108.4243896213314
 20
-150.4569661082191
 30
0.0
 10
108.4243896213314
 20
-150.3195067983576
 30
0.0
 10
108.418188449458
 20
-150.1820474884962
 30
0.0
 10
108.411642768036
 20
-150.0445881786347
 30
0.0
 10
108.411642768036
 20
-150.0445881786347
 30
0.0
 10
108.5828640136529
 20
-150.0445881786347
 30
0.0
 10
108.5828640136529
 20
-150.0445881786347
 30
0.0
 10
108.5725287271972
 20
-150.1713676924919
 30
0.0
 10
108.5725287271972
 20
-150.3236409129399
 30
0.0
 10
108.5725287271972
 20
-150.4569661082191
 30
0.0
 10
108.5725287271972
 20
-150.4569661082191
 30
0.0
 10
108.5725287271972
 20
-150.5775444502029
 30
0.0
 10
108.5725287271972
 20
-150.5775444502029
 30
0.0
 10
108.5725287271972
 20
-150.5775444502029
 30
0.0
 10
108.722734890354
 20
-150.5775444502029
 30
0.0
 10
108.722734890354
 20
-150.5775444502029
 30
0.0
 10
108.722734890354
 20
-150.5775444502029
 30
0.0
 10
108.722734890354
 20
-150.5120876359831
 30
0.0
 10
108.722734890354
 20
-150.5120876359831
 30
0.0
 10
108.722734890354
 20
-150.4569661082191
 30
0.0
 10
108.7182562662232
 20
-150.3088270023534
 30
0.0
 10
108.7120550943498
 20
-150.2030625709562
 30
0.0
 10
108.7120550943498
 20
-150.2030625709562
 30
0.0
 10
108.8178195257469
 20
-150.2030625709562
 30
0.0
 10
108.8178195257469
 20
-150.2030625709562
 30
0.0
 10
108.7861246472826
 20
-150.1503526100319
 30
0.0
 10
108.7671766221138
 20
-150.1100449928544
 30
0.0
 10
108.7478840873964
 20
-150.0635362038036
 30
0.0
 10
108.7478840873964
 20
-150.0635362038036
 30
0.0
 10
108.9005018173929
 20
-149.9346896326552
 30
0.0
 10
108.9005018173929
 20
-149.9346896326552
 30
0.0
 10
108.9005018173929
 20
-149.9346896326552
 30
0.0
 10
108.7775119085695
 20
-149.7503770241944
 30
0.0
 10
108.7775119085695
 20
-149.7503770241944
 30
0.0
 10
108.9787054849081
 20
-149.7083468592743
 30
0.0
 10
109.1140977374784
 20
-149.6173963384637
 30
0.0
 10
109.2305419648799
 20
-149.5092203402269
 30
0.0
 10
109.2305419648799
 20
-149.5092203402269
 30
0.0
 10
109.3404405108593
 20
-149.6532253315103
 30
0.0
 10
109.3404405108593
 20
-149.6532253315103
 30
0.0
 10
109.2091823728713
 20
-149.8034314946672
 30
0.0
 10
108.997653510077
 20
-149.8985161300601
 30
0.0
 10
108.9194498425618
 20
-149.9322780658156
 30
0.0
 10
108.949077663735
 20
-150.0528564077993
 30
0.0
 10
109.0017876246593
 20
-150.152419667323
 30
0.0
 10
109.1054849987653
 20
-150.2771321238891
 30
0.0
 10
109.2388101940445
 20
-150.4359510257591
 30
0.0
 10
109.3445746254416
 20
-150.4993407826877
 30
0.0
 10
109.4672200247165
 20
-150.5606634823251
 30
0.0
 10
109.4672200247165
 20
-150.5606634823251
 30
0.0
 10
109.3869492999102
 20
-150.793551937128
 30
0.0
 10
109.3869492999102
 20
-150.793551937128
 30
0.0
 10
109.3762695039059
 20
-150.8231797583012
 30
0.0
 10
109.3721353893236
 20
-150.8379936688877
 30
0.0
 10
109.3487087400239
 20
-150.8379936688877
 30
0.0
 10
109.3338948294374
 20
-150.8379936688877
 30
0.0
 10
109.3256266002728
 20
-150.8293809301746
 30
0.0
 10
109.3149468042685
 20
-150.8166340768792
 30
0.0
 10
109.1034179414741
 20
-150.9881998320446
 30
0.0
 10
109.0166015352459
 20
-151.1067111167372
 30
0.0
 10
108.9321966958572
 20
-151.4598334039753
 30
0.0
 10
108.9321966958572
 20
-151.4598334039753
 30
0.0
 10
108.7651095648226
 20
-151.3285752659873
 30
0.0
 10
108.7651095648226
 20
-151.3285752659873
 30
0.0
  0
SPLINE
  5
7A
330
41
100
AcDbEntity
  8
_U+30EC_U+30A4_U+30E4_U+30FC 1
370
     0
100
AcDbSpline
210
0.0
220
0.0
230
1.0
 70
    11
 71
     3
 72
    17
 73
    13
 74
     0
 42
0.0000000001
 43
0.0000000001
 12
1.0
 22
0.0
 32
0.0
 13
1.0
 23
0.0
 33
0.0
 40
0.0
 40
0.0
 40
0.0
 40
0.0
 40
1.0
 40
1.0
 40
1.0
 40
2.0
 40
2.0
 40
2.0
 40
3.0
 40
3.0
 40
3.0
 40
4.0
 40
4.0
 40
4.0
 40
4.0
 10
107.9313964573922
 20
-151.172167930957
 30
0.0
 10
108.0647216526713
 20
-151.0577907608467
 30
0.0
 10
108.1346570910219
 20
-150.9647731827449
 30
0.0
 10
108.1915011665285
 20
-150.8676214900609
 30
0.0
 10
108.1915011665285
 20
-150.8676214900609
 30
0.0
 10
108.3441188965251
 20
-150.9985351185004
 30
0.0
 10
108.3441188965251
 20
-150.9985351185004
 30
0.0
 10
108.2445556370014
 20
-151.1635551922438
 30
0.0
 10
108.1515380588996
 20
-151.2569172798941
 30
0.0
 10
108.081602620549
 20
-151.3203070368227
 30
0.0
 10
108.081602620549
 20
-151.3203070368227
 30
0.0
 10
107.9313964573922
 20
-151.172167930957
 30
0.0
 10
107.9313964573922
 20
-151.172167930957
 30
0.0
  0
SPLINE
  5
7B
330
41
100
AcDbEntity
  8
_U+30EC_U+30A4_U+30E4_U+30FC 1
370
     0
100
AcDbSpline
210
0.0
220
0.0
230
1.0
 70
    11
 71
     3
 72
    26
 73
    22
 74
     0
 42
0.0000000001
 43
0.0000000001
 12
1.0
 22
0.0
 32
0.0
 13
1.0
 23
0.0
 33
0.0
 40
0.0
 40
0.0
 40
0.0
 40
0.0
 40
1.0
 40
1.0
 40
1.0
 40
2.0
 40
2.0
 40
2.0
 40
3.0
 40
3.0
 40
3.0
 40
4.0
 40
4.0
 40
4.0
 40
5.0
 40
5.0
 40
5.0
 40
6.0
 40
6.0
 40
6.0
 40
7.0
 40
7.0
 40
7.0
 40
7.0
 10
108.1852999946551
 20
-150.4697129615145
 30
0.0
 10
108.1852999946551
 20
-150.4614447323499
 30
0.0
 10
108.1873670519462
 20
-150.4318169111768
 30
0.0
 10
108.1873670519462
 20
-150.4252712297548
 30
0.0
 10
108.1301784668911
 20
-150.3828965552862
 30
0.0
 10
108.0478406847936
 20
-150.3195067983576
 30
0.0
 10
107.9462103679787
 20
-150.1947943417916
 30
0.0
 10
107.9462103679787
 20
-150.1947943417916
 30
0.0
 10
108.0667887099625
 20
-150.0339083826304
 30
0.0
 10
108.0667887099625
 20
-150.0339083826304
 30
0.0
 10
108.0902153592622
 20
-150.0848957958121
 30
0.0
 10
108.2021809625328
 20
-150.2326903921293
 30
0.0
 10
108.3589328071117
 20
-150.311238569193
 30
0.0
 10
108.3589328071117
 20
-150.311238569193
 30
0.0
 10
108.2552354330056
 20
-150.4697129615145
 30
0.0
 10
108.2552354330056
 20
-150.4697129615145
 30
0.0
 10
108.2383544651279
 20
-150.4952066681054
 30
0.0
 10
108.2276746691236
 20
-150.5014078399788
 30
0.0
 10
108.2169948731194
 20
-150.5014078399788
 30
0.0
 10
108.2042480198239
 20
-150.5014078399788
 30
0.0
 10
108.1852999946551
 20
-150.4910725535231
 30
0.0
 10
108.1852999946551
 20
-150.4697129615145
 30
0.0
  0
SPLINE
  5
7C
330
41
100
AcDbEntity
  8
_U+30EC_U+30A4_U+30E4_U+30FC 1
370
     0
100
AcDbSpline
210
0.0
220
0.0
230
1.0
 70
    11
 71
     3
 72
    20
 73
    16
 74
     0
 42
0.0000000001
 43
0.0000000001
 12
1.0
 22
0.0
 32
0.0
 13
1.0
 23
0.0
 33
0.0
 40
0.0
 40
0.0
 40
0.0
 40
0.0
 40
1.0
 40
1.0
 40
1.0
 40
2.0
 40
2.0
 40
2.0
 40
3.0
 40
3.0
 40
3.0
 40
4.0
 40
4.0
 40
4.0
 40
5.0
 40
5.0
 40
5.0
 40
5.0
 10
109.2346760794622
 20
-150.6536810604269
 30
0.0
 10
109.0610432670056
 20
-150.5269015465697
 30
0.0
 10
108.942531982313
 20
-150.3873751794171
 30
0.0
 10
108.8832763399667
 20
-150.3046928877711
 30
0.0
 10
108.8791422253844
 20
-150.4211371151725
 30
0.0
 10
108.8770751680932
 20
-150.4569661082191
 30
0.0
 10
108.8770751680932
 20
-150.5120876359831
 30
0.0
 10
108.8770751680932
 20
-150.5120876359831
 30
0.0
 10
108.8770751680932
 20
-150.8231797583012
 30
0.0
 10
108.8770751680932
 20
-150.8231797583012
 30
0.0
 10
108.8770751680932
 20
-150.869688547352
 30
0.0
 10
108.8791422253844
 20
-150.8907036298121
 30
0.0
 10
108.8832763399667
 20
-151.0429768502601
 30
0.0
 10
108.9849066567816
 20
-150.8590087513477
 30
0.0
 10
109.1202989093519
 20
-150.738430409364
 30
0.0
 10
109.2346760794622
 20
-150.6536810604269
 30
0.0
  0
HATCH
  5
7D
330
41
100
AcDbEntity
  8
_U+30EC_U+30A4_U+30E4_U+30FC 1
 62
   179
420
  2234388
100
AcDbHatch
 10
0.0
 20
0.0
 30
0.0
210
0.0
220
0.0
230
1.0
  2
SOLID
 70
     1
 71
     0
 91
        5
 92
        1
 93
        1
 72
     4
 94
        3
 73
     0
 74
     1
 95
       71
 96
       67
 40
0.0
 40
0.0
 40
0.0
 40
0.0
 40
1.0
 40
1.0
 40
1.0
 40
2.0
 40
2.0
 40
2.0
 40
3.0
 40
3.0
 40
3.0
 40
4.0
 40
4.0
 40
4.0
 40
5.0
 40
5.0
 40
5.0
 40
6.0
 40
6.0
 40
6.0
 40
7.0
 40
7.0
 40
7.0
 40
8.0
 40
8.0
 40
8.0
 40
9.0
 40
9.0
 40
9.0
 40
10.0
 40
10.0
 40
10.0
 40
11.0
 40
11.0
 40
11.0
 40
12.0
 40
12.0
 40
12.0
 40
13.0
 40
13.0
 40
13.0
 40
14.0
 40
14.0
 40
14.0
 40
15.0
 40
15.0
 40
15.0
 40
16.0
 40
16.0
 40
16.0
 40
17.0
 40
17.0
 40
17.0
 40
18.0
 40
18.0
 40
18.0
 40
19.0
 40
19.0
 40
19.0
 40
20.0
 40
20.0
 40
20.0
 40
21.0
 40
21.0
 40
21.0
 40
22.0
 40
22.0
 40
22.0
 40
22.0
 10
107.6013563099052
 20
-151.4026448189202
 10
107.5972221953229
 20
-151.3433891765739
 10
107.5930880807406
 20
-151.2589843371853
 10
107.5930880807406
 20
-151.0495225316821
 10
107.5930880807406
 20
-150.9585720108715
 10
107.5972221953229
 20
-150.5544623104517
 10
107.5972221953229
 20
-150.4717800188057
 10
107.5972221953229
 20
-150.228556277547
 10
107.5972221953229
 20
-150.1713676924919
 10
107.6351182456607
 20
-150.0742159998078
 10
107.6795599774204
 20
-149.9557047151152
 10
107.7474283584798
 20
-149.9071288687732
 10
107.798071262113
 20
-149.8709553661781
 10
107.7729220650707
 20
-149.841327545005
 10
107.6647460668338
 20
-149.7059352924346
 10
107.6437309843738
 20
-149.6787190381011
 10
107.5910210234495
 20
-149.6742404139703
 10
107.5634602595675
 20
-149.670106299388
 10
107.5634602595675
 20
-149.642545535506
 10
107.5634602595675
 20
-149.6235975103372
 10
107.5865423993186
 20
-149.6108506570417
 10
107.5992892526141
 20
-149.6046494851683
 10
107.5992892526141
 20
-149.6046494851683
 10
107.8001383194041
 20
-149.51783307894
 10
107.8001383194041
 20
-149.51783307894
 10
107.8173637968304
 20
-149.5832898931597
 10
107.8869547256324
 20
-149.725227827152
 10
107.9313964573922
 20
-149.7865505267895
 10
107.9313964573922
 20
-149.7865505267895
 10
108.3926947428671
 20
-149.7865505267895
 10
108.3926947428671
 20
-149.7865505267895
 10
108.3926947428671
 20
-149.7865505267895
 10
108.3926947428671
 20
-149.6721733566792
 10
108.3926947428671
 20
-149.6721733566792
 10
108.3926947428671
 20
-149.670106299388
 10
108.384082004154
 20
-149.5581406961174
 10
108.384082004154
 20
-149.5495279574043
 10
108.384082004154
 20
-149.5495279574043
 10
108.5745957844883
 20
-149.5495279574043
 10
108.5745957844883
 20
-149.5495279574043
 10
108.5725287271972
 20
-149.6194633957549
 10
108.570461669906
 20
-149.6277316249195
 10
108.570461669906
 20
-149.6869872672657
 10
108.570461669906
 20
-149.6869872672657
 10
108.570461669906
 20
-149.8054985519584
 10
108.570461669906
 20
-149.8054985519584
 10
108.570461669906
 20
-149.8330593158404
 10
108.5745957844883
 20
-149.924009836651
 10
108.5787298990706
 20
-149.9853325362884
 10
108.5046603461377
 20
-149.9767197975753
 10
108.4433376465003
 20
-149.9746527402841
 10
108.4330023600445
 20
-149.9746527402841
 10
108.4330023600445
 20
-149.9746527402841
 10
108.026481092785
 20
-149.9746527402841
 10
108.026481092785
 20
-149.9746527402841
 10
107.9355305719745
 20
-149.9746527402841
 10
107.8659396431724
 20
-150.0380424972127
 10
107.8490586752947
 20
-150.0573350319301
 10
107.7581081544841
 20
-150.1672335779096
 10
107.7453613011887
 20
-150.1882486603696
 10
107.7453613011887
 20
-150.5479166290297
 10
107.7453613011887
 20
-150.634733035258
 10
107.7556965876444
 20
-151.2038628094213
 10
107.7939371475307
 20
-151.4705131999796
 10
107.7939371475307
 20
-151.4705131999796
 10
107.6013563099052
 20
-151.4026448189202
 10
107.6013563099052
 20
-151.4026448189202
 97
        0
 97
        0
 92
        1
 93
        1
 72
     4
 94
        3
 73
     0
 74
     1
 95
      122
 96
      118
 40
0.0
 40
0.0
 40
0.0
 40
0.0
 40
1.0
 40
1.0
 40
1.0
 40
2.0
 40
2.0
 40
2.0
 40
3.0
 40
3.0
 40
3.0
 40
4.0
 40
4.0
 40
4.0
 40
5.0
 40
5.0
 40
5.0
 40
6.0
 40
6.0
 40
6.0
 40
7.0
 40
7.0
 40
7.0
 40
8.0
 40
8.0
 40
8.0
 40
9.0
 40
9.0
 40
9.0
 40
10.0
 40
10.0
 40
10.0
 40
11.0
 40
11.0
 40
11.0
 40
12.0
 40
12.0
 40
12.0
 40
13.0
 40
13.0
 40
13.0
 40
14.0
 40
14.0
 40
14.0
 40
15.0
 40
15.0
 40
15.0
 40
16.0
 40
16.0
 40
16.0
 40
17.0
 40
17.0
 40
17.0
 40
18.0
 40
18.0
 40
18.0
 40
19.0
 40
19.0
 40
19.0
 40
20.0
 40
20.0
 40
20.0
 40
21.0
 40
21.0
 40
21.0
 40
22.0
 40
22.0
 40
22.0
 40
23.0
 40
23.0
 40
23.0
 40
24.0
 40
24.0
 40
24.0
 40
25.0
 40
25.0
 40
25.0
 40
26.0
 40
26.0
 40
26.0
 40
27.0
 40
27.0
 40
27.0
 40
28.0
 40
28.0
 40
28.0
 40
29.0
 40
29.0
 40
29.0
 40
30.0
 40
30.0
 40
30.0
 40
31.0
 40
31.0
 40
31.0
 40
32.0
 40
32.0
 40
32.0
 40
33.0
 40
33.0
 40
33.0
 40
34.0
 40
34.0
 40
34.0
 40
35.0
 40
35.0
 40
35.0
 40
36.0
 40
36.0
 40
36.0
 40
37.0
 40
37.0
 40
37.0
 40
38.0
 40
38.0
 40
38.0
 40
39.0
 40
39.0
 40
39.0
 40
39.0
 10
108.7651095648226
 20
-151.3285752659873
 10
108.7775119085695
 20
-151.2862005915187
 10
108.7881917045738
 20
-151.2396918024679
 10
108.838834608207
 20
-151.1318603137796
 10
108.838834608207
 20
-151.1318603137796
 10
108.7120550943498
 20
-151.1318603137796
 10
108.7120550943498
 20
-151.1318603137796
 10
108.7182562662232
 20
-151.0367756783866
 10
108.722734890354
 20
-150.8845024579386
 10
108.722734890354
 20
-150.8231797583012
 10
108.722734890354
 20
-150.8231797583012
 10
108.722734890354
 20
-150.7639241159549
 10
108.722734890354
 20
-150.7639241159549
 10
108.722734890354
 20
-150.7639241159549
 10
108.5725287271972
 20
-150.7639241159549
 10
108.5725287271972
 20
-150.7639241159549
 10
108.5725287271972
 20
-150.7639241159549
 10
108.5725287271972
 20
-150.8800238338078
 10
108.5725287271972
 20
-150.8800238338078
 10
108.5725287271972
 20
-151.013349029087
 10
108.5725287271972
 20
-151.1680338163747
 10
108.5828640136529
 20
-151.296880387523
 10
108.5828640136529
 20
-151.296880387523
 10
108.411642768036
 20
-151.296880387523
 10
108.411642768036
 20
-151.296880387523
 10
108.4137098253271
 20
-151.1849147842524
 10
108.4243896213314
 20
-150.9775200360403
 10
108.4243896213314
 20
-150.8800238338078
 10
108.4243896213314
 20
-150.8800238338078
 10
108.4243896213314
 20
-150.7639241159549
 10
108.4243896213314
 20
-150.7639241159549
 10
108.4243896213314
 20
-150.7639241159549
 10
108.1346570910219
 20
-150.7639241159549
 10
108.1346570910219
 20
-150.7639241159549
 10
108.1153645563045
 20
-150.7639241159549
 10
108.026481092785
 20
-150.7680582305372
 10
108.0075330676162
 20
-150.7680582305372
 10
107.8214979114127
 20
-150.7680582305372
 10
107.8214979114127
 20
-150.7088025881908
 10
107.8194308541215
 20
-150.4486978790545
 10
107.8194308541215
 20
-150.4486978790545
 10
108.0350938314982
 20
-150.3680826446997
 10
108.0350938314982
 20
-150.3680826446997
 10
108.0161458063293
 20
-150.4338839684679
 10
108.005466010325
 20
-150.5269015465697
 10
108.005466010325
 20
-150.531035661152
 10
108.005466010325
 20
-150.5775444502029
 10
108.033026774207
 20
-150.5775444502029
 10
108.1281114095999
 20
-150.5775444502029
 10
108.1281114095999
 20
-150.5775444502029
 10
108.4243896213314
 20
-150.5775444502029
 10
108.4243896213314
 20
-150.5775444502029
 10
108.4243896213314
 20
-150.5775444502029
 10
108.4243896213314
 20
-150.4569661082191
 10
108.4243896213314
 20
-150.4569661082191
 10
108.4243896213314
 20
-150.3195067983576
 10
108.418188449458
 20
-150.1820474884962
 10
108.411642768036
 20
-150.0445881786347
 10
108.411642768036
 20
-150.0445881786347
 10
108.5828640136529
 20
-150.0445881786347
 10
108.5828640136529
 20
-150.0445881786347
 10
108.5725287271972
 20
-150.1713676924919
 10
108.5725287271972
 20
-150.3236409129399
 10
108.5725287271972
 20
-150.4569661082191
 10
108.5725287271972
 20
-150.4569661082191
 10
108.5725287271972
 20
-150.5775444502029
 10
108.5725287271972
 20
-150.5775444502029
 10
108.5725287271972
 20
-150.5775444502029
 10
108.722734890354
 20
-150.5775444502029
 10
108.722734890354
 20
-150.5775444502029
 10
108.722734890354
 20
-150.5775444502029
 10
108.722734890354
 20
-150.5120876359831
 10
108.722734890354
 20
-150.5120876359831
 10
108.722734890354
 20
-150.4569661082191
 10
108.7182562662232
 20
-150.3088270023534
 10
108.7120550943498
 20
-150.2030625709562
 10
108.7120550943498
 20
-150.2030625709562
 10
108.8178195257469
 20
-150.2030625709562
 10
108.8178195257469
 20
-150.2030625709562
 10
108.7861246472826
 20
-150.1503526100319
 10
108.7671766221138
 20
-150.1100449928544
 10
108.7478840873964
 20
-150.0635362038036
 10
108.7478840873964
 20
-150.0635362038036
 10
108.9005018173929
 20
-149.9346896326552
 10
108.9005018173929
 20
-149.9346896326552
 10
108.9005018173929
 20
-149.9346896326552
 10
108.7775119085695
 20
-149.7503770241944
 10
108.7775119085695
 20
-149.7503770241944
 10
108.9787054849081
 20
-149.7083468592743
 10
109.1140977374784
 20
-149.6173963384637
 10
109.2305419648799
 20
-149.5092203402269
 10
109.2305419648799
 20
-149.5092203402269
 10
109.3404405108593
 20
-149.6532253315103
 10
109.3404405108593
 20
-149.6532253315103
 10
109.2091823728713
 20
-149.8034314946672
 10
108.997653510077
 20
-149.8985161300601
 10
108.9194498425618
 20
-149.9322780658156
 10
108.949077663735
 20
-150.0528564077993
 10
109.0017876246593
 20
-150.152419667323
 10
109.1054849987653
 20
-150.2771321238891
 10
109.2388101940445
 20
-150.4359510257591
 10
109.3445746254416
 20
-150.4993407826877
 10
109.4672200247165
 20
-150.5606634823251
 10
109.4672200247165
 20
-150.5606634823251
 10
109.3869492999102
 20
-150.793551937128
 10
109.3869492999102
 20
-150.793551937128
 10
109.3762695039059
 20
-150.8231797583012
 10
109.3721353893236
 20
-150.8379936688877
 10
109.3487087400239
 20
-150.8379936688877
 10
109.3338948294374
 20
-150.8379936688877
 10
109.3256266002728
 20
-150.8293809301746
 10
109.3149468042685
 20
-150.8166340768792
 10
109.1034179414741
 20
-150.9881998320446
 10
109.0166015352459
 20
-151.1067111167372
 10
108.9321966958572
 20
-151.4598334039753
 10
108.9321966958572
 20
-151.4598334039753
 10
108.7651095648226
 20
-151.3285752659873
 10
108.7651095648226
 20
-151.3285752659873
 97
        0
 97
        0
 92
        1
 93
        1
 72
     4
 94
        3
 73
     0
 74
     1
 95
       17
 96
       13
 40
0.0
 40
0.0
 40
0.0
 40
0.0
 40
1.0
 40
1.0
 40
1.0
 40
2.0
 40
2.0
 40
2.0
 40
3.0
 40
3.0
 40
3.0
 40
4.0
 40
4.0
 40
4.0
 40
4.0
 10
107.9313964573922
 20
-151.172167930957
 10
108.0647216526713
 20
-151.0577907608467
 10
108.1346570910219
 20
-150.9647731827449
 10
108.1915011665285
 20
-150.8676214900609
 10
108.1915011665285
 20
-150.8676214900609
 10
108.3441188965251
 20
-150.9985351185004
 10
108.3441188965251
 20
-150.9985351185004
 10
108.2445556370014
 20
-151.1635551922438
 10
108.1515380588996
 20
-151.2569172798941
 10
108.081602620549
 20
-151.3203070368227
 10
108.081602620549
 20
-151.3203070368227
 10
107.9313964573922
 20
-151.172167930957
 10
107.9313964573922
 20
-151.172167930957
 97
        0
 97
        0
 92
        1
 93
        1
 72
     4
 94
        3
 73
     0
 74
     1
 95
       26
 96
       22
 40
0.0
 40
0.0
 40
0.0
 40
0.0
 40
1.0
 40
1.0
 40
1.0
 40
2.0
 40
2.0
 40
2.0
 40
3.0
 40
3.0
 40
3.0
 40
4.0
 40
4.0
 40
4.0
 40
5.0
 40
5.0
 40
5.0
 40
6.0
 40
6.0
 40
6.0
 40
7.0
 40
7.0
 40
7.0
 40
7.0
 10
108.1852999946551
 20
-150.4697129615145
 10
108.1852999946551
 20
-150.4614447323499
 10
108.1873670519462
 20
-150.4318169111768
 10
108.1873670519462
 20
-150.4252712297548
 10
108.1301784668911
 20
-150.3828965552862
 10
108.0478406847936
 20
-150.3195067983576
 10
107.9462103679787
 20
-150.1947943417916
 10
107.9462103679787
 20
-150.1947943417916
 10
108.0667887099625
 20
-150.0339083826304
 10
108.0667887099625
 20
-150.0339083826304
 10
108.0902153592622
 20
-150.0848957958121
 10
108.2021809625328
 20
-150.2326903921293
 10
108.3589328071117
 20
-150.311238569193
 10
108.3589328071117
 20
-150.311238569193
 10
108.2552354330056
 20
-150.4697129615145
 10
108.2552354330056
 20
-150.4697129615145
 10
108.2383544651279
 20
-150.4952066681054
 10
108.2276746691236
 20
-150.5014078399788
 10
108.2169948731194
 20
-150.5014078399788
 10
108.2042480198239
 20
-150.5014078399788
 10
108.1852999946551
 20
-150.4910725535231
 10
108.1852999946551
 20
-150.4697129615145
 97
        0
 97
        0
 92
        1
 93
        1
 72
     4
 94
        3
 73
     0
 74
     1
 95
       20
 96
       16
 40
0.0
 40
0.0
 40
0.0
 40
0.0
 40
1.0
 40
1.0
 40
1.0
 40
2.0
 40
2.0
 40
2.0
 40
3.0
 40
3.0
 40
3.0
 40
4.0
 40
4.0
 40
4.0
 40
5.0
 40
5.0
 40
5.0
 40
5.0
 10
109.2346760794622
 20
-150.6536810604269
 10
109.0610432670056
 20
-150.5269015465697
 10
108.942531982313
 20
-150.3873751794171
 10
108.8832763399667
 20
-150.3046928877711
 10
108.8791422253844
 20
-150.4211371151725
 10
108.8770751680932
 20
-150.4569661082191
 10
108.8770751680932
 20
-150.5120876359831
 10
108.8770751680932
 20
-150.5120876359831
 10
108.8770751680932
 20
-150.8231797583012
 10
108.8770751680932
 20
-150.8231797583012
 10
108.8770751680932
 20
-150.869688547352
 10
108.8791422253844
 20
-150.8907036298121
 10
108.8832763399667
 20
-151.0429768502601
 10
108.9849066567816
 20
-150.8590087513477
 10
109.1202989093519
 20
-150.738430409364
 10
109.2346760794622
 20
-150.6536810604269
 97
        0
 97
        0
 75
     2
 76
     1
 98
        0
  0
ENDBLK
  5
44
330
41
100
AcDbEntity
  8
0
100
AcDbBlockEnd
  0
BLOCK
  5
80
330
7E
100
AcDbEntity
  8
0
100
AcDbBlockBegin
  2
block 3
 70
     0
 10
0.0
 20
0.0
 30
0.0
  3
block 3
  1

  0
SPLINE
  5
82
330
7E
100
AcDbEntity
  8
_U+30EC_U+30A4_U+30E4_U+30FC 1
370
     0
100
AcDbSpline
210
0.0
220
0.0
230
1.0
 70
    11
 71
     3
 72
    38
 73
    34
 74
     0
 42
0.0000000001
 43
0.0000000001
 12
1.0
 22
0.0
 32
0.0
 13
1.0
 23
0.0
 33
0.0
 40
0.0
 40
0.0
 40
0.0
 40
0.0
 40
1.0
 40
1.0
 40
1.0
 40
2.0
 40
2.0
 40
2.0
 40
3.0
 40
3.0
 40
3.0
 40
4.0
 40
4.0
 40
4.0
 40
5.0
 40
5.0
 40
5.0
 40
6.0
 40
6.0
 40
6.0
 40
7.0
 40
7.0
 40
7.0
 40
8.0
 40
8.0
 40
8.0
 40
9.0
 40
9.0
 40
9.0
 40
10.0
 40
10.0
 40
10.0
 40
11.0
 40
11.0
 40
11.0
 40
11.0
 10
111.0092447639144
 20
-161.6307888050784
 30
0.0
 10
110.5920437006506
 20
-161.8368055150964
 30
0.0
 10
110.184144395197
 20
-161.6321668432725
 30
0.0
 10
109.976749646985
 20
-161.2108316654265
 30
0.0
 10
109.7445502112791
 20
-160.7402316221414
 30
0.0
 10
109.9257622338033
 20
-160.3323323166878
 30
0.0
 10
110.2919758838853
 20
-160.1518093132607
 30
0.0
 10
110.6010009489123
 20
-159.9991915832641
 30
0.0
 10
110.9327636441418
 20
-160.045700372315
 30
0.0
 10
111.0922715651089
 20
-160.3209635015864
 30
0.0
 10
111.0922715651089
 20
-160.3209635015864
 30
0.0
 10
110.8855658359939
 20
-160.4229383279498
 30
0.0
 10
110.8855658359939
 20
-160.4229383279498
 30
0.0
 10
110.7598198507823
 20
-160.2537841396241
 30
0.0
 10
110.5255533577853
 20
-160.2768662793752
 30
0.0
 10
110.3815483665018
 20
-160.3481797559199
 30
0.0
 10
110.2888752979486
 20
-160.3939995258737
 30
0.0
 10
110.1982692866866
 20
-160.4739257411315
 30
0.0
 10
110.148659911699
 20
-160.5834797775625
 30
0.0
 10
110.0604654672766
 20
-160.7684814051204
 30
0.0
 10
110.1293673769815
 20
-160.9748426246869
 30
0.0
 10
110.1993028153321
 20
-161.1174695777762
 30
0.0
 10
110.3942952197973
 20
-161.5119330108373
 30
0.0
 10
110.7160671381196
 20
-161.5326035837488
 30
0.0
 10
110.9093369948421
 20
-161.4371744388074
 30
0.0
 10
111.0323269036655
 20
-161.376540758267
 30
0.0
 10
111.2397216518776
 20
-161.1846489397386
 30
0.0
 10
111.127756048607
 20
-160.8859591611674
 30
0.0
 10
111.127756048607
 20
-160.8859591611674
 30
0.0
 10
111.3348062872705
 20
-160.7836398252555
 30
0.0
 10
111.3348062872705
 20
-160.7836398252555
 30
0.0
 10
111.3833821336125
 20
-160.9107638486612
 30
0.0
 10
111.5521918123897
 20
-161.3631048858745
 30
0.0
 10
111.0092447639144
 20
-161.6307888050784
 30
0.0
  0
HATCH
  5
83
330
7E
100
AcDbEntity
  8
_U+30EC_U+30A4_U+30E4_U+30FC 1
 62
   179
420
  2234388
100
AcDbHatch
 10
0.0
 20
0.0
 30
0.0
210
0.0
220
0.0
230
1.0
  2
SOLID
 70
     1
 71
     0
 91
        1
 92
        1
 93
        1
 72
     4
 94
        3
 73
     0
 74
     1
 95
       38
 96
       34
 40
0.0
 40
0.0
 40
0.0
 40
0.0
 40
1.0
 40
1.0
 40
1.0
 40
2.0
 40
2.0
 40
2.0
 40
3.0
 40
3.0
 40
3.0
 40
4.0
 40
4.0
 40
4.0
 40
5.0
 40
5.0
 40
5.0
 40
6.0
 40
6.0
 40
6.0
 40
7.0
 40
7.0
 40
7.0
 40
8.0
 40
8.0
 40
8.0
 40
9.0
 40
9.0
 40
9.0
 40
10.0
 40
10.0
 40
10.0
 40
11.0
 40
11.0
 40
11.0
 40
11.0
 10
111.0092447639144
 20
-161.6307888050784
 10
110.5920437006506
 20
-161.8368055150964
 10
110.184144395197
 20
-161.6321668432725
 10
109.976749646985
 20
-161.2108316654265
 10
109.7445502112791
 20
-160.7402316221414
 10
109.9257622338033
 20
-160.3323323166878
 10
110.2919758838853
 20
-160.1518093132607
 10
110.6010009489123
 20
-159.9991915832641
 10
110.9327636441418
 20
-160.045700372315
 10
111.0922715651089
 20
-160.3209635015864
 10
111.0922715651089
 20
-160.3209635015864
 10
110.8855658359939
 20
-160.4229383279498
 10
110.8855658359939
 20
-160.4229383279498
 10
110.7598198507823
 20
-160.2537841396241
 10
110.5255533577853
 20
-160.2768662793752
 10
110.3815483665018
 20
-160.3481797559199
 10
110.2888752979486
 20
-160.3939995258737
 10
110.1982692866866
 20
-160.4739257411315
 10
110.148659911699
 20
-160.5834797775625
 10
110.0604654672766
 20
-160.7684814051204
 10
110.1293673769815
 20
-160.9748426246869
 10
110.1993028153321
 20
-161.1174695777762
 10
110.3942952197973
 20
-161.5119330108373
 10
110.7160671381196
 20
-161.5326035837488
 10
110.9093369948421
 20
-161.4371744388074
 10
111.0323269036655
 20
-161.376540758267
 10
111.2397216518776
 20
-161.1846489397386
 10
111.127756048607
 20
-160.8859591611674
 10
111.127756048607
 20
-160.8859591611674
 10
111.3348062872705
 20
-160.7836398252555
 10
111.3348062872705
 20
-160.7836398252555
 10
111.3833821336125
 20
-160.9107638486612
 10
111.5521918123897
 20
-161.3631048858745
 10
111.0092447639144
 20
-161.6307888050784
 97
        0
 97
        0
 75
     2
 76
     1
 98
        0
  0
SPLINE
  5
84
330
7E
100
AcDbEntity
  8
_U+30EC_U+30A4_U+30E4_U+30FC 1
370
     0
100
AcDbSpline
210
0.0
220
0.0
230
1.0
 70
    11
 71
     3
 72
    44
 73
    40
 74
     0
 42
0.0000000001
 43
0.0000000001
 12
1.0
 22
0.0
 32
0.0
 13
1.0
 23
0.0
 33
0.0
 40
0.0
 40
0.0
 40
0.0
 40
0.0
 40
1.0
 40
1.0
 40
1.0
 40
2.0
 40
2.0
 40
2.0
 40
3.0
 40
3.0
 40
3.0
 40
4.0
 40
4.0
 40
4.0
 40
5.0
 40
5.0
 40
5.0
 40
6.0
 40
6.0
 40
6.0
 40
7.0
 40
7.0
 40
7.0
 40
8.0
 40
8.0
 40
8.0
 40
9.0
 40
9.0
 40
9.0
 40
10.0
 40
10.0
 40
10.0
 40
11.0
 40
11.0
 40
11.0
 40
12.0
 40
12.0
 40
12.0
 40
13.0
 40
13.0
 40
13.0
 40
13.0
 10
112.6687472591592
 20
-160.755734551825
 30
0.0
 10
112.6280951324333
 20
-160.7264512402003
 30
0.0
 10
112.5857204579647
 20
-160.6882106803141
 30
0.0
 10
112.4820230838587
 20
-160.4821939702961
 30
0.0
 10
112.3707464996851
 20
-160.2658419738224
 30
0.0
 10
112.2863416602965
 20
-160.2293239616788
 30
0.0
 10
112.1271782488779
 20
-160.308216648291
 30
0.0
 10
112.1271782488779
 20
-160.308216648291
 30
0.0
 10
111.7609645987959
 20
-160.4887396517181
 30
0.0
 10
111.7609645987959
 20
-160.4887396517181
 30
0.0
 10
111.7609645987959
 20
-160.4887396517181
 30
0.0
 10
112.0444959572319
 20
-161.0637260882063
 30
0.0
 10
112.0444959572319
 20
-161.0637260882063
 30
0.0
 10
112.0444959572319
 20
-161.0637260882063
 30
0.0
 10
111.8336561135346
 20
-161.1677679718609
 30
0.0
 10
111.8336561135346
 20
-161.1677679718609
 30
0.0
 10
111.8336561135346
 20
-161.1677679718609
 30
0.0
 10
111.1508381883581
 20
-159.7824950772419
 30
0.0
 10
111.1508381883581
 20
-159.7824950772419
 30
0.0
 10
111.1508381883581
 20
-159.7824950772419
 30
0.0
 10
111.7561414651165
 20
-159.4841498082193
 30
0.0
 10
111.7561414651165
 20
-159.4841498082193
 30
0.0
 10
112.031404594388
 20
-159.3480685365519
 30
0.0
 10
112.2570583486718
 20
-159.4279947518097
 30
0.0
 10
112.3704019901366
 20
-159.6577826206758
 30
0.0
 10
112.3924506012422
 20
-159.7029133715326
 30
0.0
 10
112.4213894033183
 20
-159.7811170390478
 30
0.0
 10
112.417255288736
 20
-159.8727565789554
 30
0.0
 10
112.4096760786684
 20
-159.9919568827451
 30
0.0
 10
112.3593776845838
 20
-160.0377766526989
 30
0.0
 10
112.3118353668873
 20
-160.0801513271675
 30
0.0
 10
112.4541178104281
 20
-160.0574136969648
 30
0.0
 10
112.5364555925256
 20
-160.0708495693573
 30
0.0
 10
112.6794270551635
 20
-160.3519693609537
 30
0.0
 10
112.803105983084
 20
-160.5927815353726
 30
0.0
 10
112.8492702625863
 20
-160.6055283886681
 30
0.0
 10
112.934364121072
 20
-160.6248209233855
 30
0.0
 10
112.934364121072
 20
-160.6248209233855
 30
0.0
 10
112.6687472591592
 20
-160.755734551825
 30
0.0
 10
112.6687472591592
 20
-160.755734551825
 30
0.0
  0
SPLINE
  5
85
330
7E
100
AcDbEntity
  8
_U+30EC_U+30A4_U+30E4_U+30FC 1
370
     0
100
AcDbSpline
210
0.0
220
0.0
230
1.0
 70
    11
 71
     3
 72
    20
 73
    16
 74
     0
 42
0.0000000001
 43
0.0000000001
 12
1.0
 22
0.0
 32
0.0
 13
1.0
 23
0.0
 33
0.0
 40
0.0
 40
0.0
 40
0.0
 40
0.0
 40
1.0
 40
1.0
 40
1.0
 40
2.0
 40
2.0
 40
2.0
 40
3.0
 40
3.0
 40
3.0
 40
4.0
 40
4.0
 40
4.0
 40
5.0
 40
5.0
 40
5.0
 40
5.0
 10
111.8536376673491
 20
-159.6719075121654
 30
0.0
 10
111.8536376673491
 20
-159.6719075121654
 30
0.0
 10
111.4550401197057
 20
-159.8682779548246
 30
0.0
 10
111.4550401197057
 20
-159.8682779548246
 30
0.0
 10
111.4550401197057
 20
-159.8682779548246
 30
0.0
 10
111.6672580015971
 20
-160.2989148904808
 30
0.0
 10
111.6672580015971
 20
-160.2989148904808
 30
0.0
 10
111.6672580015971
 20
-160.2989148904808
 30
0.0
 10
112.0637884919493
 20
-160.1035779764672
 30
0.0
 10
112.0637884919493
 20
-160.1035779764672
 30
0.0
 10
112.1530164650173
 20
-160.059480754256
 30
0.0
 10
112.2408663998912
 20
-159.9313232022047
 30
0.0
 10
112.1650742992157
 20
-159.7776719435625
 30
0.0
 10
112.1306233443632
 20
-159.7073919956634
 30
0.0
 10
112.0317491039365
 20
-159.583713067743
 30
0.0
 10
111.8536376673491
 20
-159.6719075121654
 30
0.0
  0
HATCH
  5
86
330
7E
100
AcDbEntity
  8
_U+30EC_U+30A4_U+30E4_U+30FC 1
 62
   179
420
  2234388
100
AcDbHatch
 10
0.0
 20
0.0
 30
0.0
210
0.0
220
0.0
230
1.0
  2
SOLID
 70
     1
 71
     0
 91
        2
 92
        1
 93
        1
 72
     4
 94
        3
 73
     0
 74
     1
 95
       44
 96
       40
 40
0.0
 40
0.0
 40
0.0
 40
0.0
 40
1.0
 40
1.0
 40
1.0
 40
2.0
 40
2.0
 40
2.0
 40
3.0
 40
3.0
 40
3.0
 40
4.0
 40
4.0
 40
4.0
 40
5.0
 40
5.0
 40
5.0
 40
6.0
 40
6.0
 40
6.0
 40
7.0
 40
7.0
 40
7.0
 40
8.0
 40
8.0
 40
8.0
 40
9.0
 40
9.0
 40
9.0
 40
10.0
 40
10.0
 40
10.0
 40
11.0
 40
11.0
 40
11.0
 40
12.0
 40
12.0
 40
12.0
 40
13.0
 40
13.0
 40
13.0
 40
13.0
 10
112.6687472591592
 20
-160.755734551825
 10
112.6280951324333
 20
-160.7264512402003
 10
112.5857204579647
 20
-160.6882106803141
 10
112.4820230838587
 20
-160.4821939702961
 10
112.3707464996851
 20
-160.2658419738224
 10
112.2863416602965
 20
-160.2293239616788
 10
112.1271782488779
 20
-160.308216648291
 10
112.1271782488779
 20
-160.308216648291
 10
111.7609645987959
 20
-160.4887396517181
 10
111.7609645987959
 20
-160.4887396517181
 10
111.7609645987959
 20
-160.4887396517181
 10
112.0444959572319
 20
-161.0637260882063
 10
112.0444959572319
 20
-161.0637260882063
 10
112.0444959572319
 20
-161.0637260882063
 10
111.8336561135346
 20
-161.1677679718609
 10
111.8336561135346
 20
-161.1677679718609
 10
111.8336561135346
 20
-161.1677679718609
 10
111.1508381883581
 20
-159.7824950772419
 10
111.1508381883581
 20
-159.7824950772419
 10
111.1508381883581
 20
-159.7824950772419
 10
111.7561414651165
 20
-159.4841498082193
 10
111.7561414651165
 20
-159.4841498082193
 10
112.031404594388
 20
-159.3480685365519
 10
112.2570583486718
 20
-159.4279947518097
 10
112.3704019901366
 20
-159.6577826206758
 10
112.3924506012422
 20
-159.7029133715326
 10
112.4213894033183
 20
-159.7811170390478
 10
112.417255288736
 20
-159.8727565789554
 10
112.4096760786684
 20
-159.9919568827451
 10
112.3593776845838
 20
-160.0377766526989
 10
112.3118353668873
 20
-160.0801513271675
 10
112.4541178104281
 20
-160.0574136969648
 10
112.5364555925256
 20
-160.0708495693573
 10
112.6794270551635
 20
-160.3519693609537
 10
112.803105983084
 20
-160.5927815353726
 10
112.8492702625863
 20
-160.6055283886681
 10
112.934364121072
 20
-160.6248209233855
 10
112.934364121072
 20
-160.6248209233855
 10
112.6687472591592
 20
-160.755734551825
 10
112.6687472591592
 20
-160.755734551825
 97
        0
 97
        0
 92
        1
 93
        1
 72
     4
 94
        3
 73
     0
 74
     1
 95
       20
 96
       16
 40
0.0
 40
0.0
 40
0.0
 40
0.0
 40
1.0
 40
1.0
 40
1.0
 40
2.0
 40
2.0
 40
2.0
 40
3.0
 40
3.0
 40
3.0
 40
4.0
 40
4.0
 40
4.0
 40
5.0
 40
5.0
 40
5.0
 40
5.0
 10
111.8536376673491
 20
-159.6719075121654
 10
111.8536376673491
 20
-159.6719075121654
 10
111.4550401197057
 20
-159.8682779548246
 10
111.4550401197057
 20
-159.8682779548246
 10
111.4550401197057
 20
-159.8682779548246
 10
111.6672580015971
 20
-160.2989148904808
 10
111.6672580015971
 20
-160.2989148904808
 10
111.6672580015971
 20
-160.2989148904808
 10
112.0637884919493
 20
-160.1035779764672
 10
112.0637884919493
 20
-160.1035779764672
 10
112.1530164650173
 20
-160.059480754256
 10
112.2408663998912
 20
-159.9313232022047
 10
112.1650742992157
 20
-159.7776719435625
 10
112.1306233443632
 20
-159.7073919956634
 10
112.0317491039365
 20
-159.583713067743
 10
111.8536376673491
 20
-159.6719075121654
 97
        0
 97
        0
 75
     2
 76
     1
 98
        0
  0
SPLINE
  5
87
330
7E
100
AcDbEntity
  8
_U+30EC_U+30A4_U+30E4_U+30FC 1
370
     0
100
AcDbSpline
210
0.0
220
0.0
230
1.0
 70
    11
 71
     3
 72
    26
 73
    22
 74
     0
 42
0.0000000001
 43
0.0000000001
 12
1.0
 22
0.0
 32
0.0
 13
1.0
 23
0.0
 33
0.0
 40
0.0
 40
0.0
 40
0.0
 40
0.0
 40
1.0
 40
1.0
 40
1.0
 40
2.0
 40
2.0
 40
2.0
 40
3.0
 40
3.0
 40
3.0
 40
4.0
 40
4.0
 40
4.0
 40
5.0
 40
5.0
 40
5.0
 40
6.0
 40
6.0
 40
6.0
 40
7.0
 40
7.0
 40
7.0
 40
7.0
 10
113.4780001886444
 20
-159.6536485060935
 30
0.0
 10
113.4780001886444
 20
-159.6536485060935
 30
0.0
 10
113.0718234309334
 20
-159.8541530633351
 30
0.0
 10
113.0718234309334
 20
-159.8541530633351
 30
0.0
 10
113.0718234309334
 20
-159.8541530633351
 30
0.0
 10
113.3505316556901
 20
-160.4194932324646
 30
0.0
 10
113.3505316556901
 20
-160.4194932324646
 30
0.0
 10
113.3505316556901
 20
-160.4194932324646
 30
0.0
 10
113.1400363215414
 20
-160.5235351161191
 30
0.0
 10
113.1400363215414
 20
-160.5235351161191
 30
0.0
 10
113.1400363215414
 20
-160.5235351161191
 30
0.0
 10
112.4572183963649
 20
-159.1382622215002
 30
0.0
 10
112.4572183963649
 20
-159.1382622215002
 30
0.0
 10
112.4572183963649
 20
-159.1382622215002
 30
0.0
 10
113.0738904882246
 20
-158.8340602901526
 30
0.0
 10
113.0738904882246
 20
-158.8340602901526
 30
0.0
 10
113.3319281400698
 20
-158.7069362667469
 30
0.0
 10
113.5878987346239
 20
-158.7624023040594
 30
0.0
 10
113.7195013821604
 20
-159.0297417137148
 30
0.0
 10
113.8290554185914
 20
-159.2516058629649
 30
0.0
 10
113.7760009481185
 20
-159.5068874384219
 30
0.0
 10
113.4780001886444
 20
-159.6536485060935
 30
0.0
  0
SPLINE
  5
88
330
7E
100
AcDbEntity
  8
_U+30EC_U+30A4_U+30E4_U+30FC 1
370
     0
100
AcDbSpline
210
0.0
220
0.0
230
1.0
 70
    11
 71
     3
 72
    20
 73
    16
 74
     0
 42
0.0000000001
 43
0.0000000001
 12
1.0
 22
0.0
 32
0.0
 13
1.0
 23
0.0
 33
0.0
 40
0.0
 40
0.0
 40
0.0
 40
0.0
 40
1.0
 40
1.0
 40
1.0
 40
2.0
 40
2.0
 40
2.0
 40
3.0
 40
3.0
 40
3.0
 40
4.0
 40
4.0
 40
4.0
 40
5.0
 40
5.0
 40
5.0
 40
5.0
 10
113.1596733658073
 20
-159.0276746564236
 30
0.0
 10
113.1596733658073
 20
-159.0276746564236
 30
0.0
 10
112.7610758181639
 20
-159.2240450990829
 30
0.0
 10
112.7610758181639
 20
-159.2240450990829
 30
0.0
 10
112.7610758181639
 20
-159.2240450990829
 30
0.0
 10
112.9781168337346
 20
-159.6643283020978
 30
0.0
 10
112.9781168337346
 20
-159.6643283020978
 30
0.0
 10
112.9781168337346
 20
-159.6643283020978
 30
0.0
 10
113.3767143813781
 20
-159.4679578594386
 30
0.0
 10
113.3767143813781
 20
-159.4679578594386
 30
0.0
 10
113.5265760349864
 20
-159.3938883065057
 30
0.0
 10
113.5596489516448
 20
-159.2598740921295
 30
0.0
 10
113.4976372329103
 20
-159.1348171260149
 30
0.0
 10
113.4473388388257
 20
-159.0321532805545
 30
0.0
 10
113.3284830445845
 20
-158.9443033456806
 30
0.0
 10
113.1596733658073
 20
-159.0276746564236
 30
0.0
  0
HATCH
  5
89
330
7E
100
AcDbEntity
  8
_U+30EC_U+30A4_U+30E4_U+30FC 1
 62
   179
420
  2234388
100
AcDbHatch
 10
0.0
 20
0.0
 30
0.0
210
0.0
220
0.0
230
1.0
  2
SOLID
 70
     1
 71
     0
 91
        2
 92
        1
 93
        1
 72
     4
 94
        3
 73
     0
 74
     1
 95
       26
 96
       22
 40
0.0
 40
0.0
 40
0.0
 40
0.0
 40
1.0
 40
1.0
 40
1.0
 40
2.0
 40
2.0
 40
2.0
 40
3.0
 40
3.0
 40
3.0
 40
4.0
 40
4.0
 40
4.0
 40
5.0
 40
5.0
 40
5.0
 40
6.0
 40
6.0
 40
6.0
 40
7.0
 40
7.0
 40
7.0
 40
7.0
 10
113.4780001886444
 20
-159.6536485060935
 10
113.4780001886444
 20
-159.6536485060935
 10
113.0718234309334
 20
-159.8541530633351
 10
113.0718234309334
 20
-159.8541530633351
 10
113.0718234309334
 20
-159.8541530633351
 10
113.3505316556901
 20
-160.4194932324646
 10
113.3505316556901
 20
-160.4194932324646
 10
113.3505316556901
 20
-160.4194932324646
 10
113.1400363215414
 20
-160.5235351161191
 10
113.1400363215414
 20
-160.5235351161191
 10
113.1400363215414
 20
-160.5235351161191
 10
112.4572183963649
 20
-159.1382622215002
 10
112.4572183963649
 20
-159.1382622215002
 10
112.4572183963649
 20
-159.1382622215002
 10
113.0738904882246
 20
-158.8340602901526
 10
113.0738904882246
 20
-158.8340602901526
 10
113.3319281400698
 20
-158.7069362667469
 10
113.5878987346239
 20
-158.7624023040594
 10
113.7195013821604
 20
-159.0297417137148
 10
113.8290554185914
 20
-159.2516058629649
 10
113.7760009481185
 20
-159.5068874384219
 10
113.4780001886444
 20
-159.6536485060935
 97
        0
 97
        0
 92
        1
 93
        1
 72
     4
 94
        3
 73
     0
 74
     1
 95
       20
 96
       16
 40
0.0
 40
0.0
 40
0.0
 40
0.0
 40
1.0
 40
1.0
 40
1.0
 40
2.0
 40
2.0
 40
2.0
 40
3.0
 40
3.0
 40
3.0
 40
4.0
 40
4.0
 40
4.0
 40
5.0
 40
5.0
 40
5.0
 40
5.0
 10
113.1596733658073
 20
-159.0276746564236
 10
113.1596733658073
 20
-159.0276746564236
 10
112.7610758181639
 20
-159.2240450990829
 10
112.7610758181639
 20
-159.2240450990829
 10
112.7610758181639
 20
-159.2240450990829
 10
112.9781168337346
 20
-159.6643283020978
 10
112.9781168337346
 20
-159.6643283020978
 10
112.9781168337346
 20
-159.6643283020978
 10
113.3767143813781
 20
-159.4679578594386
 10
113.3767143813781
 20
-159.4679578594386
 10
113.5265760349864
 20
-159.3938883065057
 10
113.5596489516448
 20
-159.2598740921295
 10
113.4976372329103
 20
-159.1348171260149
 10
113.4473388388257
 20
-159.0321532805545
 10
113.3284830445845
 20
-158.9443033456806
 10
113.1596733658073
 20
-159.0276746564236
 97
        0
 97
        0
 75
     2
 76
     1
 98
        0
  0
POLYLINE
  5
8A
330
7E
100
AcDbEntity
  8
_U+30EC_U+30A4_U+30E4_U+30FC 1
370
     0
100
AcDb2dPolyline
 66
     1
 10
0.0
 20
0.0
 30
0.0
  0
VERTEX
  5
8B
330
8A
100
AcDbEntity
  8
_U+30EC_U+30A4_U+30E4_U+30FC 1
370
     0
100
AcDbVertex
100
AcDb2dVertex
 10
114.1194769679979
 20
-159.54237192192
 30
0.0
  0
VERTEX
  5
8C
330
8A
100
AcDbEntity
  8
_U+30EC_U+30A4_U+30E4_U+30FC 1
370
     0
100
AcDbVertex
100
AcDb2dVertex
 10
114.0240478230565
 20
-159.3491020651975
 30
0.0
  0
VERTEX
  5
8D
330
8A
100
AcDbEntity
  8
_U+30EC_U+30A4_U+30E4_U+30FC 1
370
     0
100
AcDbVertex
100
AcDb2dVertex
 10
114.5497693941056
 20
-159.0896863751582
 30
0.0
  0
VERTEX
  5
8E
330
8A
100
AcDbEntity
  8
_U+30EC_U+30A4_U+30E4_U+30FC 1
370
     0
100
AcDbVertex
100
AcDb2dVertex
 10
114.645198539047
 20
-159.2833007414292
 30
0.0
  0
VERTEX
  5
8F
330
8A
100
AcDbEntity
  8
_U+30EC_U+30A4_U+30E4_U+30FC 1
370
     0
100
AcDbVertex
100
AcDb2dVertex
 10
114.1194769679979
 20
-159.54237192192
 30
0.0
  0
SEQEND
  5
90
330
8A
100
AcDbEntity
  8
_U+30EC_U+30A4_U+30E4_U+30FC 1
370
     0
  0
HATCH
  5
91
330
7E
100
AcDbEntity
  8
_U+30EC_U+30A4_U+30E4_U+30FC 1
 62
   179
420
  2234388
100
AcDbHatch
 10
0.0
 20
0.0
 30
0.0
210
0.0
220
0.0
230
1.0
  2
SOLID
 70
     1
 71
     0
 91
        1
 92
        1
 93
        4
 72
     1
 10
114.1194769679979
 20
-159.54237192192
 11
114.0240478230565
 21
-159.3491020651975
 72
     1
 10
114.0240478230565
 20
-159.3491020651975
 11
114.5497693941056
 21
-159.0896863751582
 72
     1
 10
114.5497693941056
 20
-159.0896863751582
 11
114.645198539047
 21
-159.2833007414292
 72
     1
 10
114.645198539047
 20
-159.2833007414292
 11
114.1194769679979
 21
-159.54237192192
 97
        0
 75
     2
 76
     1
 98
        0
  0
SPLINE
  5
92
330
7E
100
AcDbEntity
  8
_U+30EC_U+30A4_U+30E4_U+30FC 1
370
     0
100
AcDbSpline
210
0.0
220
0.0
230
1.0
 70
    11
 71
     3
 72
    62
 73
    58
 74
     0
 42
0.0000000001
 43
0.0000000001
 12
1.0
 22
0.0
 32
0.0
 13
1.0
 23
0.0
 33
0.0
 40
0.0
 40
0.0
 40
0.0
 40
0.0
 40
1.0
 40
1.0
 40
1.0
 40
2.0
 40
2.0
 40
2.0
 40
3.0
 40
3.0
 40
3.0
 40
4.0
 40
4.0
 40
4.0
 40
5.0
 40
5.0
 40
5.0
 40
6.0
 40
6.0
 40
6.0
 40
7.0
 40
7.0
 40
7.0
 40
8.0
 40
8.0
 40
8.0
 40
9.0
 40
9.0
 40
9.0
 40
10.0
 40
10.0
 40
10.0
 40
11.0
 40
11.0
 40
11.0
 40
12.0
 40
12.0
 40
12.0
 40
13.0
 40
13.0
 40
13.0
 40
14.0
 40
14.0
 40
14.0
 40
15.0
 40
15.0
 40
15.0
 40
16.0
 40
16.0
 40
16.0
 40
17.0
 40
17.0
 40
17.0
 40
18.0
 40
18.0
 40
18.0
 40
19.0
 40
19.0
 40
19.0
 40
19.0
 10
115.4213785518738
 20
-159.4548664965946
 30
0.0
 10
115.3359401838396
 20
-159.4968966615147
 30
0.0
 10
115.1313015120158
 20
-159.5744113099328
 30
0.0
 10
114.9369981266477
 20
-159.4631347257592
 30
0.0
 10
114.8212429183433
 20
-159.3949218351513
 30
0.0
 10
114.7730115815498
 20
-159.3077609193745
 30
0.0
 10
114.7320149452753
 20
-159.2336913664416
 30
0.0
 10
114.7320149452753
 20
-159.2336913664416
 30
0.0
 10
114.9294189165801
 20
-159.136195164209
 30
0.0
 10
114.9294189165801
 20
-159.136195164209
 30
0.0
 10
114.9638698714326
 20
-159.2019964879773
 30
0.0
 10
115.0768690033488
 20
-159.4076686884467
 30
0.0
 10
115.3311170501603
 20
-159.2822672127836
 30
0.0
 10
115.4544514685322
 20
-159.2212890226947
 30
0.0
 10
115.5609049190264
 20
-159.0914089229008
 30
0.0
 10
115.4599636213086
 20
-158.8867702510769
 30
0.0
 10
115.4082871890299
 20
-158.7820393483253
 30
0.0
 10
115.3524766421688
 20
-158.7555121130889
 30
0.0
 10
115.3101019677003
 20
-158.7410427120509
 30
0.0
 10
115.2108832177251
 20
-158.7076252858439
 30
0.0
 10
115.1009846717456
 20
-158.7475883934728
 30
0.0
 10
115.0517198063065
 20
-158.7717040618696
 30
0.0
 10
115.0341498193317
 20
-158.7803168005827
 30
0.0
 10
115.0031439599645
 20
-158.7978867875575
 30
0.0
 10
114.9804063297618
 20
-158.8140787363382
 30
0.0
 10
114.9804063297618
 20
-158.8140787363382
 30
0.0
 10
114.8942789426306
 20
-158.639412395236
 30
0.0
 10
114.8942789426306
 20
-158.639412395236
 30
0.0
 10
114.9314859738713
 20
-158.6280435801347
 30
0.0
 10
114.9700710433061
 20
-158.6115071218055
 30
0.0
 10
114.975927705631
 20
-158.6087510454173
 30
0.0
 10
115.0344943288803
 20
-158.5798122433412
 30
0.0
 10
115.2033040076575
 20
-158.4726697737499
 30
0.0
 10
115.0985731049059
 20
-158.2604518918585
 30
0.0
 10
115.0200249278422
 20
-158.1009439708914
 30
0.0
 10
114.8780869938499
 20
-158.109212200056
 30
0.0
 10
114.7792127534233
 20
-158.1581325559466
 30
0.0
 10
114.5421901840381
 20
-158.2749212928966
 30
0.0
 10
114.6376193289795
 20
-158.487828193885
 30
0.0
 10
114.66552460241
 20
-158.5539740272018
 30
0.0
 10
114.66552460241
 20
-158.5539740272018
 30
0.0
 10
114.4832790512403
 20
-158.6438910193668
 30
0.0
 10
114.4832790512403
 20
-158.6438910193668
 30
0.0
 10
114.4360812430924
 20
-158.5281358110624
 30
0.0
 10
114.2941433091001
 20
-158.178114109761
 30
0.0
 10
114.7037651622963
 20
-157.9762315143254
 30
0.0
 10
114.9049587386349
 20
-157.8770127643502
 30
0.0
 10
115.1774657915181
 20
-157.8842474648692
 30
0.0
 10
115.3083794199576
 20
-158.1495198172335
 30
0.0
 10
115.3907172020551
 20
-158.3169514578166
 30
0.0
 10
115.3421413557131
 20
-158.432706666121
 30
0.0
 10
115.2797851274301
 20
-158.5315809065477
 30
0.0
 10
115.3469644893924
 20
-158.529169339708
 30
0.0
 10
115.5454019893428
 20
-158.5209011105434
 30
0.0
 10
115.6683918981662
 20
-158.7696370045784
 30
0.0
 10
115.8179090422261
 20
-159.073149916829
 30
0.0
 10
115.6701144459089
 20
-159.3322210973197
 30
0.0
 10
115.4213785518738
 20
-159.4548664965946
 30
0.0
  0
HATCH
  5
93
330
7E
100
AcDbEntity
  8
_U+30EC_U+30A4_U+30E4_U+30FC 1
 62
   179
420
  2234388
100
AcDbHatch
 10
0.0
 20
0.0
 30
0.0
210
0.0
220
0.0
230
1.0
  2
SOLID
 70
     1
 71
     0
 91
        1
 92
        1
 93
        1
 72
     4
 94
        3
 73
     0
 74
     1
 95
       62
 96
       58
 40
0.0
 40
0.0
 40
0.0
 40
0.0
 40
1.0
 40
1.0
 40
1.0
 40
2.0
 40
2.0
 40
2.0
 40
3.0
 40
3.0
 40
3.0
 40
4.0
 40
4.0
 40
4.0
 40
5.0
 40
5.0
 40
5.0
 40
6.0
 40
6.0
 40
6.0
 40
7.0
 40
7.0
 40
7.0
 40
8.0
 40
8.0
 40
8.0
 40
9.0
 40
9.0
 40
9.0
 40
10.0
 40
10.0
 40
10.0
 40
11.0
 40
11.0
 40
11.0
 40
12.0
 40
12.0
 40
12.0
 40
13.0
 40
13.0
 40
13.0
 40
14.0
 40
14.0
 40
14.0
 40
15.0
 40
15.0
 40
15.0
 40
16.0
 40
16.0
 40
16.0
 40
17.0
 40
17.0
 40
17.0
 40
18.0
 40
18.0
 40
18.0
 40
19.0
 40
19.0
 40
19.0
 40
19.0
 10
115.4213785518738
 20
-159.4548664965946
 10
115.3359401838396
 20
-159.4968966615147
 10
115.1313015120158
 20
-159.5744113099328
 10
114.9369981266477
 20
-159.4631347257592
 10
114.8212429183433
 20
-159.3949218351513
 10
114.7730115815498
 20
-159.3077609193745
 10
114.7320149452753
 20
-159.2336913664416
 10
114.7320149452753
 20
-159.2336913664416
 10
114.9294189165801
 20
-159.136195164209
 10
114.9294189165801
 20
-159.136195164209
 10
114.9638698714326
 20
-159.2019964879773
 10
115.0768690033488
 20
-159.4076686884467
 10
115.3311170501603
 20
-159.2822672127836
 10
115.4544514685322
 20
-159.2212890226947
 10
115.5609049190264
 20
-159.0914089229008
 10
115.4599636213086
 20
-158.8867702510769
 10
115.4082871890299
 20
-158.7820393483253
 10
115.3524766421688
 20
-158.7555121130889
 10
115.3101019677003
 20
-158.7410427120509
 10
115.2108832177251
 20
-158.7076252858439
 10
115.1009846717456
 20
-158.7475883934728
 10
115.0517198063065
 20
-158.7717040618696
 10
115.0341498193317
 20
-158.7803168005827
 10
115.0031439599645
 20
-158.7978867875575
 10
114.9804063297618
 20
-158.8140787363382
 10
114.9804063297618
 20
-158.8140787363382
 10
114.8942789426306
 20
-158.639412395236
 10
114.8942789426306
 20
-158.639412395236
 10
114.9314859738713
 20
-158.6280435801347
 10
114.9700710433061
 20
-158.6115071218055
 10
114.975927705631
 20
-158.6087510454173
 10
115.0344943288803
 20
-158.5798122433412
 10
115.2033040076575
 20
-158.4726697737499
 10
115.0985731049059
 20
-158.2604518918585
 10
115.0200249278422
 20
-158.1009439708914
 10
114.8780869938499
 20
-158.109212200056
 10
114.7792127534233
 20
-158.1581325559466
 10
114.5421901840381
 20
-158.2749212928966
 10
114.6376193289795
 20
-158.487828193885
 10
114.66552460241
 20
-158.5539740272018
 10
114.66552460241
 20
-158.5539740272018
 10
114.4832790512403
 20
-158.6438910193668
 10
114.4832790512403
 20
-158.6438910193668
 10
114.4360812430924
 20
-158.5281358110624
 10
114.2941433091001
 20
-158.178114109761
 10
114.7037651622963
 20
-157.9762315143254
 10
114.9049587386349
 20
-157.8770127643502
 10
115.1774657915181
 20
-157.8842474648692
 10
115.3083794199576
 20
-158.1495198172335
 10
115.3907172020551
 20
-158.3169514578166
 10
115.3421413557131
 20
-158.432706666121
 10
115.2797851274301
 20
-158.5315809065477
 10
115.3469644893924
 20
-158.529169339708
 10
115.5454019893428
 20
-158.5209011105434
 10
115.6683918981662
 20
-158.7696370045784
 10
115.8179090422261
 20
-159.073149916829
 10
115.6701144459089
 20
-159.3322210973197
 10
115.4213785518738
 20
-159.4548664965946
 97
        0
 97
        0
 75
     2
 76
     1
 98
        0
  0
SPLINE
  5
94
330
7E
100
AcDbEntity
  8
_U+30EC_U+30A4_U+30E4_U+30FC 1
370
     0
100
AcDbSpline
210
0.0
220
0.0
230
1.0
 70
    11
 71
     3
 72
    29
 73
    25
 74
     0
 42
0.0000000001
 43
0.0000000001
 12
1.0
 22
0.0
 32
0.0
 13
1.0
 23
0.0
 33
0.0
 40
0.0
 40
0.0
 40
0.0
 40
0.0
 40
1.0
 40
1.0
 40
1.0
 40
2.0
 40
2.0
 40
2.0
 40
3.0
 40
3.0
 40
3.0
 40
4.0
 40
4.0
 40
4.0
 40
5.0
 40
5.0
 40
5.0
 40
6.0
 40
6.0
 40
6.0
 40
7.0
 40
7.0
 40
7.0
 40
8.0
 40
8.0
 40
8.0
 40
8.0
 10
116.7401611036275
 20
-158.5498399126195
 30
0.0
 10
116.7360269890452
 20
-158.7854844438106
 30
0.0
 10
116.588921411825
 20
-158.8791910410094
 30
0.0
 10
116.4845350186219
 20
-158.9305229637396
 30
0.0
 10
116.34018551779
 20
-159.0018364402843
 30
0.0
 10
116.1923909214727
 20
-159.0228515227443
 30
0.0
 10
116.0266818286322
 20
-158.9015841616635
 30
0.0
 10
115.8475368633992
 20
-158.7727375905152
 30
0.0
 10
115.7259249927699
 20
-158.5687879377884
 30
0.0
 10
115.6539224971282
 20
-158.4227158892138
 30
0.0
 10
115.5901882306511
 20
-158.2938693180654
 30
0.0
 10
115.4940700666126
 20
-158.0602918441655
 30
0.0
 10
115.5009602575831
 20
-157.8353271089787
 30
0.0
 10
115.5081949581021
 20
-157.6055392401125
 30
0.0
 10
115.6418646629298
 20
-157.5135551906563
 30
0.0
 10
115.7572753616857
 20
-157.4567111151497
 30
0.0
 10
115.899902314775
 20
-157.3864311672506
 30
0.0
 10
116.0483859301893
 20
-157.3626600084024
 30
0.0
 10
116.2144395325783
 20
-157.4835828599347
 30
0.0
 10
116.388761364132
 20
-157.612429431083
 30
0.0
 10
116.5107177443098
 20
-157.8067328164511
 30
0.0
 10
116.5875433736309
 20
-157.9624511323844
 30
0.0
 10
116.6629909647579
 20
-158.1161023910265
 30
0.0
 10
116.7456732564039
 20
-158.3324543875002
 30
0.0
 10
116.7401611036275
 20
-158.5498399126195
 30
0.0
  0
SPLINE
  5
95
330
7E
100
AcDbEntity
  8
_U+30EC_U+30A4_U+30E4_U+30FC 1
370
     0
100
AcDbSpline
210
0.0
220
0.0
230
1.0
 70
    11
 71
     3
 72
    17
 73
    13
 74
     0
 42
0.0000000001
 43
0.0000000001
 12
1.0
 22
0.0
 32
0.0
 13
1.0
 23
0.0
 33
0.0
 40
0.0
 40
0.0
 40
0.0
 40
0.0
 40
1.0
 40
1.0
 40
1.0
 40
2.0
 40
2.0
 40
2.0
 40
3.0
 40
3.0
 40
3.0
 40
4.0
 40
4.0
 40
4.0
 40
4.0
 10
115.8423692201714
 20
-157.6289658894122
 30
0.0
 10
115.6191270327272
 20
-157.7395534544887
 30
0.0
 10
115.7024983434702
 20
-158.0148165837602
 30
0.0
 10
115.8547715639183
 20
-158.3238416487871
 30
0.0
 10
115.9960204788135
 20
-158.6101290836114
 30
0.0
 10
116.1648301575907
 20
-158.8712673213933
 30
0.0
 10
116.3984076314907
 20
-158.756201132186
 30
0.0
 10
116.6202717807408
 20
-158.646647095755
 30
0.0
 10
116.5396565463859
 20
-158.3731065142262
 30
0.0
 10
116.3863497972923
 20
-158.0616698823596
 30
0.0
 10
116.2447563728485
 20
-157.7750379379868
 30
0.0
 10
116.0738796367801
 20
-157.5149332288505
 30
0.0
 10
115.8423692201714
 20
-157.6289658894122
 30
0.0
  0
HATCH
  5
96
330
7E
100
AcDbEntity
  8
_U+30EC_U+30A4_U+30E4_U+30FC 1
 62
   179
420
  2234388
100
AcDbHatch
 10
0.0
 20
0.0
 30
0.0
210
0.0
220
0.0
230
1.0
  2
SOLID
 70
     1
 71
     0
 91
        2
 92
        1
 93
        1
 72
     4
 94
        3
 73
     0
 74
     1
 95
       29
 96
       25
 40
0.0
 40
0.0
 40
0.0
 40
0.0
 40
1.0
 40
1.0
 40
1.0
 40
2.0
 40
2.0
 40
2.0
 40
3.0
 40
3.0
 40
3.0
 40
4.0
 40
4.0
 40
4.0
 40
5.0
 40
5.0
 40
5.0
 40
6.0
 40
6.0
 40
6.0
 40
7.0
 40
7.0
 40
7.0
 40
8.0
 40
8.0
 40
8.0
 40
8.0
 10
116.7401611036275
 20
-158.5498399126195
 10
116.7360269890452
 20
-158.7854844438106
 10
116.588921411825
 20
-158.8791910410094
 10
116.4845350186219
 20
-158.9305229637396
 10
116.34018551779
 20
-159.0018364402843
 10
116.1923909214727
 20
-159.0228515227443
 10
116.0266818286322
 20
-158.9015841616635
 10
115.8475368633992
 20
-158.7727375905152
 10
115.7259249927699
 20
-158.5687879377884
 10
115.6539224971282
 20
-158.4227158892138
 10
115.5901882306511
 20
-158.2938693180654
 10
115.4940700666126
 20
-158.0602918441655
 10
115.5009602575831
 20
-157.8353271089787
 10
115.5081949581021
 20
-157.6055392401125
 10
115.6418646629298
 20
-157.5135551906563
 10
115.7572753616857
 20
-157.4567111151497
 10
115.899902314775
 20
-157.3864311672506
 10
116.0483859301893
 20
-157.3626600084024
 10
116.2144395325783
 20
-157.4835828599347
 10
116.388761364132
 20
-157.612429431083
 10
116.5107177443098
 20
-157.8067328164511
 10
116.5875433736309
 20
-157.9624511323844
 10
116.6629909647579
 20
-158.1161023910265
 10
116.7456732564039
 20
-158.3324543875002
 10
116.7401611036275
 20
-158.5498399126195
 97
        0
 97
        0
 92
        1
 93
        1
 72
     4
 94
        3
 73
     0
 74
     1
 95
       17
 96
       13
 40
0.0
 40
0.0
 40
0.0
 40
0.0
 40
1.0
 40
1.0
 40
1.0
 40
2.0
 40
2.0
 40
2.0
 40
3.0
 40
3.0
 40
3.0
 40
4.0
 40
4.0
 40
4.0
 40
4.0
 10
115.8423692201714
 20
-157.6289658894122
 10
115.6191270327272
 20
-157.7395534544887
 10
115.7024983434702
 20
-158.0148165837602
 10
115.8547715639183
 20
-158.3238416487871
 10
115.9960204788135
 20
-158.6101290836114
 10
116.1648301575907
 20
-158.8712673213933
 10
116.3984076314907
 20
-158.756201132186
 10
116.6202717807408
 20
-158.646647095755
 10
116.5396565463859
 20
-158.3731065142262
 10
116.3863497972923
 20
-158.0616698823596
 10
116.2447563728485
 20
-157.7750379379868
 10
116.0738796367801
 20
-157.5149332288505
 10
115.8423692201714
 20
-157.6289658894122
 97
        0
 97
        0
 75
     2
 76
     1
 98
        0
  0
POLYLINE
  5
97
330
7E
100
AcDbEntity
  8
_U+30EC_U+30A4_U+30E4_U+30FC 1
370
     0
100
AcDb2dPolyline
 66
     1
 10
0.0
 20
0.0
 30
0.0
  0
VERTEX
  5
98
330
97
100
AcDbEntity
  8
_U+30EC_U+30A4_U+30E4_U+30FC 1
370
     0
100
AcDbVertex
100
AcDb2dVertex
 10
118.0465413116342
 20
-158.1037000472796
 30
0.0
  0
VERTEX
  5
99
330
97
100
AcDbEntity
  8
_U+30EC_U+30A4_U+30E4_U+30FC 1
370
     0
100
AcDbVertex
100
AcDb2dVertex
 10
117.7351046797676
 20
-157.4718695352848
 30
0.0
  0
VERTEX
  5
9A
330
97
100
AcDbEntity
  8
_U+30EC_U+30A4_U+30E4_U+30FC 1
370
     0
100
AcDbVertex
100
AcDb2dVertex
 10
117.064000079241
 20
-157.8029432114173
 30
0.0
  0
VERTEX
  5
9B
330
97
100
AcDbEntity
  8
_U+30EC_U+30A4_U+30E4_U+30FC 1
370
     0
100
AcDbVertex
100
AcDb2dVertex
 10
117.3754367111075
 20
-158.4347737234121
 30
0.0
  0
VERTEX
  5
9C
330
97
100
AcDbEntity
  8
_U+30EC_U+30A4_U+30E4_U+30FC 1
370
     0
100
AcDbVertex
100
AcDb2dVertex
 10
117.1645968674102
 20
-158.5388156070667
 30
0.0
  0
VERTEX
  5
9D
330
97
100
AcDbEntity
  8
_U+30EC_U+30A4_U+30E4_U+30FC 1
370
     0
100
AcDbVertex
100
AcDb2dVertex
 10
116.4814344326852
 20
-157.1535427124477
 30
0.0
  0
VERTEX
  5
9E
330
97
100
AcDbEntity
  8
_U+30EC_U+30A4_U+30E4_U+30FC 1
370
     0
100
AcDbVertex
100
AcDb2dVertex
 10
116.6922742763825
 20
-157.0495008287932
 30
0.0
  0
VERTEX
  5
9F
330
97
100
AcDbEntity
  8
_U+30EC_U+30A4_U+30E4_U+30FC 1
370
     0
100
AcDbVertex
100
AcDb2dVertex
 10
116.9702934820422
 20
-157.6131184501801
 30
0.0
  0
VERTEX
  5
A0
330
97
100
AcDbEntity
  8
_U+30EC_U+30A4_U+30E4_U+30FC 1
370
     0
100
AcDbVertex
100
AcDb2dVertex
 10
117.6413980825688
 20
-157.2820447740476
 30
0.0
  0
VERTEX
  5
A1
330
97
100
AcDbEntity
  8
_U+30EC_U+30A4_U+30E4_U+30FC 1
370
     0
100
AcDbVertex
100
AcDb2dVertex
 10
117.3637233864577
 20
-156.7187716622092
 30
0.0
  0
VERTEX
  5
A2
330
97
100
AcDbEntity
  8
_U+30EC_U+30A4_U+30E4_U+30FC 1
370
     0
100
AcDbVertex
100
AcDb2dVertex
 10
117.574563230155
 20
-156.6147297785546
 30
0.0
  0
VERTEX
  5
A3
330
97
100
AcDbEntity
  8
_U+30EC_U+30A4_U+30E4_U+30FC 1
370
     0
100
AcDbVertex
100
AcDb2dVertex
 10
118.2573811553315
 20
-157.9996581636251
 30
0.0
  0
VERTEX
  5
A4
330
97
100
AcDbEntity
  8
_U+30EC_U+30A4_U+30E4_U+30FC 1
370
     0
100
AcDbVertex
100
AcDb2dVertex
 10
118.0465413116342
 20
-158.1037000472796
 30
0.0
  0
SEQEND
  5
A5
330
97
100
AcDbEntity
  8
_U+30EC_U+30A4_U+30E4_U+30FC 1
370
     0
  0
HATCH
  5
A6
330
7E
100
AcDbEntity
  8
_U+30EC_U+30A4_U+30E4_U+30FC 1
 62
   179
420
  2234388
100
AcDbHatch
 10
0.0
 20
0.0
 30
0.0
210
0.0
220
0.0
230
1.0
  2
SOLID
 70
     1
 71
     0
 91
        1
 92
        1
 93
       12
 72
     1
 10
118.0465413116342
 20
-158.1037000472796
 11
117.7351046797676
 21
-157.4718695352848
 72
     1
 10
117.7351046797676
 20
-157.4718695352848
 11
117.064000079241
 21
-157.8029432114173
 72
     1
 10
117.064000079241
 20
-157.8029432114173
 11
117.3754367111075
 21
-158.4347737234121
 72
     1
 10
117.3754367111075
 20
-158.4347737234121
 11
117.1645968674102
 21
-158.5388156070667
 72
     1
 10
117.1645968674102
 20
-158.5388156070667
 11
116.4814344326852
 21
-157.1535427124477
 72
     1
 10
116.4814344326852
 20
-157.1535427124477
 11
116.6922742763825
 21
-157.0495008287932
 72
     1
 10
116.6922742763825
 20
-157.0495008287932
 11
116.9702934820422
 21
-157.6131184501801
 72
     1
 10
116.9702934820422
 20
-157.6131184501801
 11
117.6413980825688
 21
-157.2820447740476
 72
     1
 10
117.6413980825688
 20
-157.2820447740476
 11
117.3637233864577
 21
-156.7187716622092
 72
     1
 10
117.3637233864577
 20
-156.7187716622092
 11
117.574563230155
 21
-156.6147297785546
 72
     1
 10
117.574563230155
 20
-156.6147297785546
 11
118.2573811553315
 21
-157.9996581636251
 72
     1
 10
118.2573811553315
 20
-157.9996581636251
 11
118.0465413116342
 21
-158.1037000472796
 97
        0
 75
     2
 76
     1
 98
        0
  0
SPLINE
  5
A7
330
7E
100
AcDbEntity
  8
_U+30EC_U+30A4_U+30E4_U+30FC 1
370
     0
100
AcDbSpline
210
0.0
220
0.0
230
1.0
 70
    11
 71
     3
 72
    26
 73
    22
 74
     0
 42
0.0000000001
 43
0.0000000001
 12
1.0
 22
0.0
 32
0.0
 13
1.0
 23
0.0
 33
0.0
 40
0.0
 40
0.0
 40
0.0
 40
0.0
 40
1.0
 40
1.0
 40
1.0
 40
2.0
 40
2.0
 40
2.0
 40
3.0
 40
3.0
 40
3.0
 40
4.0
 40
4.0
 40
4.0
 40
5.0
 40
5.0
 40
5.0
 40
6.0
 40
6.0
 40
6.0
 40
7.0
 40
7.0
 40
7.0
 40
7.0
 10
119.2164957384251
 20
-157.5269910630488
 30
0.0
 10
119.2164957384251
 20
-157.5269910630488
 30
0.0
 10
118.6053357993417
 20
-157.8280924084596
 30
0.0
 10
118.6053357993417
 20
-157.8280924084596
 30
0.0
 10
118.6053357993417
 20
-157.8280924084596
 30
0.0
 10
117.9221733646167
 20
-156.4431640233892
 30
0.0
 10
117.9221733646167
 20
-156.4431640233892
 30
0.0
 10
117.9221733646167
 20
-156.4431640233892
 30
0.0
 10
118.5216199790502
 20
-156.1475748307548
 30
0.0
 10
118.5216199790502
 20
-156.1475748307548
 30
0.0
 10
118.7135117975786
 20
-156.0528347049104
 30
0.0
 10
118.953979462449
 20
-156.0573133290412
 30
0.0
 10
119.0728352566901
 20
-156.2984700130087
 30
0.0
 10
119.1772216498932
 20
-156.5106878949001
 30
0.0
 10
119.0631889893314
 20
-156.647113676116
 30
0.0
 10
119.0153021620865
 20
-156.7036132420741
 30
0.0
 10
119.0855821099856
 20
-156.687765802842
 30
0.0
 10
119.3167480170458
 20
-156.6402234851455
 30
0.0
 10
119.4514512505191
 20
-156.9130750475773
 30
0.0
 10
119.5534260768825
 20
-157.1201252862408
 30
0.0
 10
119.5065727782831
 20
-157.3836750908624
 30
0.0
 10
119.2164957384251
 20
-157.5269910630488
 30
0.0
  0
SPLINE
  5
A8
330
7E
100
AcDbEntity
  8
_U+30EC_U+30A4_U+30E4_U+30FC 1
370
     0
100
AcDbSpline
210
0.0
220
0.0
230
1.0
 70
    11
 71
     3
 72
    20
 73
    16
 74
     0
 42
0.0000000001
 43
0.0000000001
 12
1.0
 22
0.0
 32
0.0
 13
1.0
 23
0.0
 33
0.0
 40
0.0
 40
0.0
 40
0.0
 40
0.0
 40
1.0
 40
1.0
 40
1.0
 40
2.0
 40
2.0
 40
2.0
 40
3.0
 40
3.0
 40
3.0
 40
4.0
 40
4.0
 40
4.0
 40
5.0
 40
5.0
 40
5.0
 40
5.0
 10
118.5529703479659
 20
-156.3680609418108
 30
0.0
 10
118.5529703479659
 20
-156.3680609418108
 30
0.0
 10
118.2267198055128
 20
-156.5289469009719
 30
0.0
 10
118.2267198055128
 20
-156.5289469009719
 30
0.0
 10
118.2267198055128
 20
-156.5289469009719
 30
0.0
 10
118.4110324139736
 20
-156.9027397611216
 30
0.0
 10
118.4110324139736
 20
-156.9027397611216
 30
0.0
 10
118.4110324139736
 20
-156.9027397611216
 30
0.0
 10
118.7372829564268
 20
-156.7418538019604
 30
0.0
 10
118.7372829564268
 20
-156.7418538019604
 30
0.0
 10
118.8623399225414
 20
-156.6801865927744
 30
0.0
 10
118.9384765327654
 20
-156.5809678427992
 30
0.0
 10
118.8699191326089
 20
-156.4428195138407
 30
0.0
 10
118.7961940892246
 20
-156.2929578602323
 30
0.0
 10
118.6570122316205
 20
-156.316384509532
 30
0.0
 10
118.5529703479659
 20
-156.3680609418108
 30
0.0
  0
SPLINE
  5
A9
330
7E
100
AcDbEntity
  8
_U+30EC_U+30A4_U+30E4_U+30FC 1
370
     0
100
AcDbSpline
210
0.0
220
0.0
230
1.0
 70
    11
 71
     3
 72
    20
 73
    16
 74
     0
 42
0.0000000001
 43
0.0000000001
 12
1.0
 22
0.0
 32
0.0
 13
1.0
 23
0.0
 33
0.0
 40
0.0
 40
0.0
 40
0.0
 40
0.0
 40
1.0
 40
1.0
 40
1.0
 40
2.0
 40
2.0
 40
2.0
 40
3.0
 40
3.0
 40
3.0
 40
4.0
 40
4.0
 40
4.0
 40
5.0
 40
5.0
 40
5.0
 40
5.0
 10
118.8781873617735
 20
-156.9082519138979
 30
0.0
 10
118.8781873617735
 20
-156.9082519138979
 30
0.0
 10
118.5047390111724
 20
-157.0925645223588
 30
0.0
 10
118.5047390111724
 20
-157.0925645223588
 30
0.0
 10
118.5047390111724
 20
-157.0925645223588
 30
0.0
 10
118.7224690458402
 20
-157.5345702731164
 30
0.0
 10
118.7224690458402
 20
-157.5345702731164
 30
0.0
 10
118.7224690458402
 20
-157.5345702731164
 30
0.0
 10
119.0959173964413
 20
-157.350602174204
 30
0.0
 10
119.0959173964413
 20
-157.350602174204
 30
0.0
 10
119.2385443495306
 20
-157.2803222263049
 30
0.0
 10
119.2967664632314
 20
-157.1500976169625
 30
0.0
 10
119.2264865153323
 20
-157.0074706638731
 30
0.0
 10
119.1658528347919
 20
-156.8841362455012
 30
0.0
 10
119.0339056777068
 20
-156.8314262845769
 30
0.0
 10
118.8781873617735
 20
-156.9082519138979
 30
0.0
  0
HATCH
  5
AA
330
7E
100
AcDbEntity
  8
_U+30EC_U+30A4_U+30E4_U+30FC 1
 62
   179
420
  2234388
100
AcDbHatch
 10
0.0
 20
0.0
 30
0.0
210
0.0
220
0.0
230
1.0
  2
SOLID
 70
     1
 71
     0
 91
        3
 92
        1
 93
        1
 72
     4
 94
        3
 73
     0
 74
     1
 95
       26
 96
       22
 40
0.0
 40
0.0
 40
0.0
 40
0.0
 40
1.0
 40
1.0
 40
1.0
 40
2.0
 40
2.0
 40
2.0
 40
3.0
 40
3.0
 40
3.0
 40
4.0
 40
4.0
 40
4.0
 40
5.0
 40
5.0
 40
5.0
 40
6.0
 40
6.0
 40
6.0
 40
7.0
 40
7.0
 40
7.0
 40
7.0
 10
119.2164957384251
 20
-157.5269910630488
 10
119.2164957384251
 20
-157.5269910630488
 10
118.6053357993417
 20
-157.8280924084596
 10
118.6053357993417
 20
-157.8280924084596
 10
118.6053357993417
 20
-157.8280924084596
 10
117.9221733646167
 20
-156.4431640233892
 10
117.9221733646167
 20
-156.4431640233892
 10
117.9221733646167
 20
-156.4431640233892
 10
118.5216199790502
 20
-156.1475748307548
 10
118.5216199790502
 20
-156.1475748307548
 10
118.7135117975786
 20
-156.0528347049104
 10
118.953979462449
 20
-156.0573133290412
 10
119.0728352566901
 20
-156.2984700130087
 10
119.1772216498932
 20
-156.5106878949001
 10
119.0631889893314
 20
-156.647113676116
 10
119.0153021620865
 20
-156.7036132420741
 10
119.0855821099856
 20
-156.687765802842
 10
119.3167480170458
 20
-156.6402234851455
 10
119.4514512505191
 20
-156.9130750475773
 10
119.5534260768825
 20
-157.1201252862408
 10
119.5065727782831
 20
-157.3836750908624
 10
119.2164957384251
 20
-157.5269910630488
 97
        0
 97
        0
 92
        1
 93
        1
 72
     4
 94
        3
 73
     0
 74
     1
 95
       20
 96
       16
 40
0.0
 40
0.0
 40
0.0
 40
0.0
 40
1.0
 40
1.0
 40
1.0
 40
2.0
 40
2.0
 40
2.0
 40
3.0
 40
3.0
 40
3.0
 40
4.0
 40
4.0
 40
4.0
 40
5.0
 40
5.0
 40
5.0
 40
5.0
 10
118.5529703479659
 20
-156.3680609418108
 10
118.5529703479659
 20
-156.3680609418108
 10
118.2267198055128
 20
-156.5289469009719
 10
118.2267198055128
 20
-156.5289469009719
 10
118.2267198055128
 20
-156.5289469009719
 10
118.4110324139736
 20
-156.9027397611216
 10
118.4110324139736
 20
-156.9027397611216
 10
118.4110324139736
 20
-156.9027397611216
 10
118.7372829564268
 20
-156.7418538019604
 10
118.7372829564268
 20
-156.7418538019604
 10
118.8623399225414
 20
-156.6801865927744
 10
118.9384765327654
 20
-156.5809678427992
 10
118.8699191326089
 20
-156.4428195138407
 10
118.7961940892246
 20
-156.2929578602323
 10
118.6570122316205
 20
-156.316384509532
 10
118.5529703479659
 20
-156.3680609418108
 97
        0
 97
        0
 92
        1
 93
        1
 72
     4
 94
        3
 73
     0
 74
     1
 95
       20
 96
       16
 40
0.0
 40
0.0
 40
0.0
 40
0.0
 40
1.0
 40
1.0
 40
1.0
 40
2.0
 40
2.0
 40
2.0
 40
3.0
 40
3.0
 40
3.0
 40
4.0
 40
4.0
 40
4.0
 40
5.0
 40
5.0
 40
5.0
 40
5.0
 10
118.8781873617735
 20
-156.9082519138979
 10
118.8781873617735
 20
-156.9082519138979
 10
118.5047390111724
 20
-157.0925645223588
 10
118.5047390111724
 20
-157.0925645223588
 10
118.5047390111724
 20
-157.0925645223588
 10
118.7224690458402
 20
-157.5345702731164
 10
118.7224690458402
 20
-157.5345702731164
 10
118.7224690458402
 20
-157.5345702731164
 10
119.0959173964413
 20
-157.350602174204
 10
119.0959173964413
 20
-157.350602174204
 10
119.2385443495306
 20
-157.2803222263049
 10
119.2967664632314
 20
-157.1500976169625
 10
119.2264865153323
 20
-157.0074706638731
 10
119.1658528347919
 20
-156.8841362455012
 10
119.0339056777068
 20
-156.8314262845769
 10
118.8781873617735
 20
-156.9082519138979
 97
        0
 97
        0
 75
     2
 76
     1
 98
        0
  0
ENDBLK
  5
81
330
7E
100
AcDbEntity
  8
0
100
AcDbBlockEnd
  0
BLOCK
  5
AD
330
AB
100
AcDbEntity
  8
0
100
AcDbBlockBegin
  2
block 4
 70
     0
 10
0.0
 20
0.0
 30
0.0
  3
block 4
  1

  0
SPLINE
  5
AF
330
AB
100
AcDbEntity
  8
_U+30EC_U+30A4_U+30E4_U+30FC 1
370
     0
100
AcDbSpline
210
0.0
220
0.0
230
1.0
 70
    11
 71
     3
 72
    38
 73
    34
 74
     0
 42
0.0000000001
 43
0.0000000001
 12
1.0
 22
0.0
 32
0.0
 13
1.0
 23
0.0
 33
0.0
 40
0.0
 40
0.0
 40
0.0
 40
0.0
 40
1.0
 40
1.0
 40
1.0
 40
2.0
 40
2.0
 40
2.0
 40
3.0
 40
3.0
 40
3.0
 40
4.0
 40
4.0
 40
4.0
 40
5.0
 40
5.0
 40
5.0
 40
6.0
 40
6.0
 40
6.0
 40
7.0
 40
7.0
 40
7.0
 40
8.0
 40
8.0
 40
8.0
 40
9.0
 40
9.0
 40
9.0
 40
10.0
 40
10.0
 40
10.0
 40
11.0
 40
11.0
 40
11.0
 40
11.0
 10
91.09590384007325
 20
-157.7140597478979
 30
0.0
 10
90.67835826726098
 20
-157.5083875474285
 30
0.0
 10
90.59274764445252
 20
-157.060525134346
 30
0.0
 10
90.80031464743881
 20
-156.6395344660484
 30
0.0
 10
91.03251408314465
 20
-156.1689344227633
 30
0.0
 10
91.46625160473761
 20
-156.0642035200117
 30
0.0
 10
91.83246525481967
 20
-156.2447265234388
 30
0.0
 10
92.14166257462084
 20
-156.3973442534354
 30
0.0
 10
92.3066826483643
 20
-156.6887993314875
 30
0.0
 10
92.18558754205777
 20
-156.9830104859279
 30
0.0
 10
92.18558754205777
 20
-156.9830104859279
 30
0.0
 10
91.97888181294279
 20
-156.8810356595645
 30
0.0
 10
91.97888181294279
 20
-156.8810356595645
 30
0.0
 10
92.03624265277219
 20
-156.6777750259347
 30
0.0
 10
91.8755289483853
 20
-156.5065537803178
 30
0.0
 10
91.73152395710184
 20
-156.4355848133217
 30
0.0
 10
91.6385063790001
 20
-156.3897650433678
 30
0.0
 10
91.51982283953325
 20
-156.3670274131652
 30
0.0
 10
91.402861847809
 20
-156.3938991579501
 30
0.0
 10
91.20235729056748
 20
-156.4366183419672
 30
0.0
 10
91.08040091038963
 20
-156.6167968358458
 30
0.0
 10
91.01012096249053
 20
-156.7594237889352
 30
0.0
 10
90.81564532234817
 20
-157.1538872219963
 30
0.0
 10
90.9951347971297
 20
-157.4219156507487
 30
0.0
 10
91.18857690862647
 20
-157.5170002861416
 30
0.0
 10
91.31173907222416
 20
-157.5779784762305
 30
0.0
 10
91.59010278743234
 20
-157.6258653034755
 30
0.0
 10
91.75908472098385
 20
-157.3550807983349
 30
0.0
 10
91.75908472098385
 20
-157.3550807983349
 30
0.0
 10
91.96613495964736
 20
-157.4570556246983
 30
0.0
 10
91.96613495964736
 20
-157.4570556246983
 30
0.0
 10
91.89482148310269
 20
-157.5728108330026
 30
0.0
 10
91.63885088854863
 20
-157.9820881766503
 30
0.0
 10
91.09590384007325
 20
-157.7140597478979
 30
0.0
  0
HATCH
  5
B0
330
AB
100
AcDbEntity
  8
_U+30EC_U+30A4_U+30E4_U+30FC 1
 62
   179
420
  2234388
100
AcDbHatch
 10
0.0
 20
0.0
 30
0.0
210
0.0
220
0.0
230
1.0
  2
SOLID
 70
     1
 71
     0
 91
        1
 92
        1
 93
        1
 72
     4
 94
        3
 73
     0
 74
     1
 95
       38
 96
       34
 40
0.0
 40
0.0
 40
0.0
 40
0.0
 40
1.0
 40
1.0
 40
1.0
 40
2.0
 40
2.0
 40
2.0
 40
3.0
 40
3.0
 40
3.0
 40
4.0
 40
4.0
 40
4.0
 40
5.0
 40
5.0
 40
5.0
 40
6.0
 40
6.0
 40
6.0
 40
7.0
 40
7.0
 40
7.0
 40
8.0
 40
8.0
 40
8.0
 40
9.0
 40
9.0
 40
9.0
 40
10.0
 40
10.0
 40
10.0
 40
11.0
 40
11.0
 40
11.0
 40
11.0
 10
91.09590384007325
 20
-157.7140597478979
 10
90.67835826726098
 20
-157.5083875474285
 10
90.59274764445252
 20
-157.060525134346
 10
90.80031464743881
 20
-156.6395344660484
 10
91.03251408314465
 20
-156.1689344227633
 10
91.46625160473761
 20
-156.0642035200117
 10
91.83246525481967
 20
-156.2447265234388
 10
92.14166257462084
 20
-156.3973442534354
 10
92.3066826483643
 20
-156.6887993314875
 10
92.18558754205777
 20
-156.9830104859279
 10
92.18558754205777
 20
-156.9830104859279
 10
91.97888181294279
 20
-156.8810356595645
 10
91.97888181294279
 20
-156.8810356595645
 10
92.03624265277219
 20
-156.6777750259347
 10
91.8755289483853
 20
-156.5065537803178
 10
91.73152395710184
 20
-156.4355848133217
 10
91.6385063790001
 20
-156.3897650433678
 10
91.51982283953325
 20
-156.3670274131652
 10
91.402861847809
 20
-156.3938991579501
 10
91.20235729056748
 20
-156.4366183419672
 10
91.08040091038963
 20
-156.6167968358458
 10
91.01012096249053
 20
-156.7594237889352
 10
90.81564532234817
 20
-157.1538872219963
 10
90.9951347971297
 20
-157.4219156507487
 10
91.18857690862647
 20
-157.5170002861416
 10
91.31173907222416
 20
-157.5779784762305
 10
91.59010278743234
 20
-157.6258653034755
 10
91.75908472098385
 20
-157.3550807983349
 10
91.75908472098385
 20
-157.3550807983349
 10
91.96613495964736
 20
-157.4570556246983
 10
91.96613495964736
 20
-157.4570556246983
 10
91.89482148310269
 20
-157.5728108330026
 10
91.63885088854863
 20
-157.9820881766503
 10
91.09590384007325
 20
-157.7140597478979
 97
        0
 97
        0
 75
     2
 76
     1
 98
        0
  0
SPLINE
  5
B1
330
AB
100
AcDbEntity
  8
_U+30EC_U+30A4_U+30E4_U+30FC 1
370
     0
100
AcDbSpline
210
0.0
220
0.0
230
1.0
 70
    11
 71
     3
 72
    44
 73
    40
 74
     0
 42
0.0000000001
 43
0.0000000001
 12
1.0
 22
0.0
 32
0.0
 13
1.0
 23
0.0
 33
0.0
 40
0.0
 40
0.0
 40
0.0
 40
0.0
 40
1.0
 40
1.0
 40
1.0
 40
2.0
 40
2.0
 40
2.0
 40
3.0
 40
3.0
 40
3.0
 40
4.0
 40
4.0
 40
4.0
 40
5.0
 40
5.0
 40
5.0
 40
6.0
 40
6.0
 40
6.0
 40
7.0
 40
7.0
 40
7.0
 40
8.0
 40
8.0
 40
8.0
 40
9.0
 40
9.0
 40
9.0
 40
10.0
 40
10.0
 40
10.0
 40
11.0
 40
11.0
 40
11.0
 40
12.0
 40
12.0
 40
12.0
 40
13.0
 40
13.0
 40
13.0
 40
13.0
 10
92.79984806707782
 20
-158.4981634803407
 30
0.0
 10
92.79898679320651
 20
-158.4482095958046
 30
0.0
 10
92.80312090778881
 20
-158.391365520298
 30
0.0
 10
92.90337318640958
 20
-158.1836262625374
 30
0.0
 10
93.00724281528986
 20
-157.96348466103
 30
0.0
 10
92.98502194941
 20
-157.8746011975105
 30
0.0
 10
92.8256862832172
 20
-157.7960530204468
 30
0.0
 10
92.8256862832172
 20
-157.7960530204468
 30
0.0
 10
92.45947263313514
 20
-157.6155300170197
 30
0.0
 10
92.45947263313514
 20
-157.6155300170197
 30
0.0
 10
92.45947263313514
 20
-157.6155300170197
 30
0.0
 10
92.17594127469907
 20
-158.1901719439594
 30
0.0
 10
92.17594127469907
 20
-158.1901719439594
 30
0.0
 10
92.17594127469907
 20
-158.1901719439594
 30
0.0
 10
91.96510143100178
 20
-158.0864745698534
 30
0.0
 10
91.96510143100178
 20
-158.0864745698534
 30
0.0
 10
91.96510143100178
 20
-158.0864745698534
 30
0.0
 10
92.64826386572683
 20
-156.7012016752344
 30
0.0
 10
92.64826386572683
 20
-156.7012016752344
 30
0.0
 10
92.64826386572683
 20
-156.7012016752344
 30
0.0
 10
93.25356714248522
 20
-156.9998914538056
 30
0.0
 10
93.25356714248522
 20
-156.9998914538056
 30
0.0
 10
93.52883027175669
 20
-157.1356282159244
 30
0.0
 10
93.60289982468956
 20
-157.3633490274995
 30
0.0
 10
93.48955618322483
 20
-157.5927923868171
 30
0.0
 10
93.46716306257072
 20
-157.6382676472224
 30
0.0
 10
93.42289358558526
 20
-157.7085475951215
 30
0.0
 10
93.34761824923254
 20
-157.7609130464973
 30
0.0
 10
93.24857175403162
 20
-157.8277478989111
 30
0.0
 10
93.18139239206924
 20
-157.8160345742613
 30
0.0
 10
93.11903616378622
 20
-157.8039767400629
 30
0.0
 10
93.22359481176355
 20
-157.9028509804896
 30
0.0
 10
93.2628689002954
 20
-157.9762315143254
 30
0.0
 10
93.12730439295082
 20
-158.260796401407
 30
0.0
 10
93.01103242032363
 20
-158.5053981808598
 30
0.0
 10
93.02929142639546
 20
-158.5498399126195
 30
0.0
 10
93.0658094385391
 20
-158.6290771087803
 30
0.0
 10
93.0658094385391
 20
-158.6290771087803
 30
0.0
 10
92.79984806707782
 20
-158.4981634803407
 30
0.0
 10
92.79984806707782
 20
-158.4981634803407
 30
0.0
  0
SPLINE
  5
B2
330
AB
100
AcDbEntity
  8
_U+30EC_U+30A4_U+30E4_U+30FC 1
370
     0
100
AcDbSpline
210
0.0
220
0.0
230
1.0
 70
    11
 71
     3
 72
    20
 73
    16
 74
     0
 42
0.0000000001
 43
0.0000000001
 12
1.0
 22
0.0
 32
0.0
 13
1.0
 23
0.0
 33
0.0
 40
0.0
 40
0.0
 40
0.0
 40
0.0
 40
1.0
 40
1.0
 40
1.0
 40
2.0
 40
2.0
 40
2.0
 40
3.0
 40
3.0
 40
3.0
 40
4.0
 40
4.0
 40
4.0
 40
5.0
 40
5.0
 40
5.0
 40
5.0
 10
93.16399465986873
 20
-157.1914387627855
 30
0.0
 10
93.16399465986873
 20
-157.1914387627855
 30
0.0
 10
92.76539711222532
 20
-156.9947238105777
 30
0.0
 10
92.76539711222532
 20
-156.9947238105777
 30
0.0
 10
92.76539711222532
 20
-156.9947238105777
 30
0.0
 10
92.55300697555967
 20
-157.4257052557825
 30
0.0
 10
92.55300697555967
 20
-157.4257052557825
 30
0.0
 10
92.55300697555967
 20
-157.4257052557825
 30
0.0
 10
92.94936521113766
 20
-157.6210421697961
 30
0.0
 10
92.94936521113766
 20
-157.6210421697961
 30
0.0
 10
93.0387654389799
 20
-157.6651393920073
 30
0.0
 10
93.1939669905904
 20
-157.6568711628427
 30
0.0
 10
93.26958683649164
 20
-157.5032199042006
 30
0.0
 10
93.3042100461184
 20
-157.43328446585
 30
0.0
 10
93.3422783512304
 20
-157.2792886976594
 30
0.0
 10
93.16399465986873
 20
-157.1914387627855
 30
0.0
  0
HATCH
  5
B3
330
AB
100
AcDbEntity
  8
_U+30EC_U+30A4_U+30E4_U+30FC 1
 62
   179
420
  2234388
100
AcDbHatch
 10
0.0
 20
0.0
 30
0.0
210
0.0
220
0.0
230
1.0
  2
SOLID
 70
     1
 71
     0
 91
        2
 92
        1
 93
        1
 72
     4
 94
        3
 73
     0
 74
     1
 95
       44
 96
       40
 40
0.0
 40
0.0
 40
0.0
 40
0.0
 40
1.0
 40
1.0
 40
1.0
 40
2.0
 40
2.0
 40
2.0
 40
3.0
 40
3.0
 40
3.0
 40
4.0
 40
4.0
 40
4.0
 40
5.0
 40
5.0
 40
5.0
 40
6.0
 40
6.0
 40
6.0
 40
7.0
 40
7.0
 40
7.0
 40
8.0
 40
8.0
 40
8.0
 40
9.0
 40
9.0
 40
9.0
 40
10.0
 40
10.0
 40
10.0
 40
11.0
 40
11.0
 40
11.0
 40
12.0
 40
12.0
 40
12.0
 40
13.0
 40
13.0
 40
13.0
 40
13.0
 10
92.79984806707782
 20
-158.4981634803407
 10
92.79898679320651
 20
-158.4482095958046
 10
92.80312090778881
 20
-158.391365520298
 10
92.90337318640958
 20
-158.1836262625374
 10
93.00724281528986
 20
-157.96348466103
 10
92.98502194941
 20
-157.8746011975105
 10
92.8256862832172
 20
-157.7960530204468
 10
92.8256862832172
 20
-157.7960530204468
 10
92.45947263313514
 20
-157.6155300170197
 10
92.45947263313514
 20
-157.6155300170197
 10
92.45947263313514
 20
-157.6155300170197
 10
92.17594127469907
 20
-158.1901719439594
 10
92.17594127469907
 20
-158.1901719439594
 10
92.17594127469907
 20
-158.1901719439594
 10
91.96510143100178
 20
-158.0864745698534
 10
91.96510143100178
 20
-158.0864745698534
 10
91.96510143100178
 20
-158.0864745698534
 10
92.64826386572683
 20
-156.7012016752344
 10
92.64826386572683
 20
-156.7012016752344
 10
92.64826386572683
 20
-156.7012016752344
 10
93.25356714248522
 20
-156.9998914538056
 10
93.25356714248522
 20
-156.9998914538056
 10
93.52883027175669
 20
-157.1356282159244
 10
93.60289982468956
 20
-157.3633490274995
 10
93.48955618322483
 20
-157.5927923868171
 10
93.46716306257072
 20
-157.6382676472224
 10
93.42289358558526
 20
-157.7085475951215
 10
93.34761824923254
 20
-157.7609130464973
 10
93.24857175403162
 20
-157.8277478989111
 10
93.18139239206924
 20
-157.8160345742613
 10
93.11903616378622
 20
-157.8039767400629
 10
93.22359481176355
 20
-157.9028509804896
 10
93.2628689002954
 20
-157.9762315143254
 10
93.12730439295082
 20
-158.260796401407
 10
93.01103242032363
 20
-158.5053981808598
 10
93.02929142639546
 20
-158.5498399126195
 10
93.0658094385391
 20
-158.6290771087803
 10
93.0658094385391
 20
-158.6290771087803
 10
92.79984806707782
 20
-158.4981634803407
 10
92.79984806707782
 20
-158.4981634803407
 97
        0
 97
        0
 92
        1
 93
        1
 72
     4
 94
        3
 73
     0
 74
     1
 95
       20
 96
       16
 40
0.0
 40
0.0
 40
0.0
 40
0.0
 40
1.0
 40
1.0
 40
1.0
 40
2.0
 40
2.0
 40
2.0
 40
3.0
 40
3.0
 40
3.0
 40
4.0
 40
4.0
 40
4.0
 40
5.0
 40
5.0
 40
5.0
 40
5.0
 10
93.16399465986873
 20
-157.1914387627855
 10
93.16399465986873
 20
-157.1914387627855
 10
92.76539711222532
 20
-156.9947238105777
 10
92.76539711222532
 20
-156.9947238105777
 10
92.76539711222532
 20
-156.9947238105777
 10
92.55300697555967
 20
-157.4257052557825
 10
92.55300697555967
 20
-157.4257052557825
 10
92.55300697555967
 20
-157.4257052557825
 10
92.94936521113766
 20
-157.6210421697961
 10
92.94936521113766
 20
-157.6210421697961
 10
93.0387654389799
 20
-157.6651393920073
 10
93.1939669905904
 20
-157.6568711628427
 10
93.26958683649164
 20
-157.5032199042006
 10
93.3042100461184
 20
-157.43328446585
 10
93.3422783512304
 20
-157.2792886976594
 10
93.16399465986873
 20
-157.1914387627855
 97
        0
 97
        0
 75
     2
 76
     1
 98
        0
  0
SPLINE
  5
B4
330
AB
100
AcDbEntity
  8
_U+30EC_U+30A4_U+30E4_U+30FC 1
370
     0
100
AcDbSpline
210
0.0
220
0.0
230
1.0
 70
    11
 71
     3
 72
    26
 73
    22
 74
     0
 42
0.0000000001
 43
0.0000000001
 12
1.0
 22
0.0
 32
0.0
 13
1.0
 23
0.0
 33
0.0
 40
0.0
 40
0.0
 40
0.0
 40
0.0
 40
1.0
 40
1.0
 40
1.0
 40
2.0
 40
2.0
 40
2.0
 40
3.0
 40
3.0
 40
3.0
 40
4.0
 40
4.0
 40
4.0
 40
5.0
 40
5.0
 40
5.0
 40
6.0
 40
6.0
 40
6.0
 40
7.0
 40
7.0
 40
7.0
 40
7.0
 10
94.16720646517348
 20
-158.4695691878132
 30
0.0
 10
94.16720646517348
 20
-158.4695691878132
 30
0.0
 10
93.760685197914
 20
-158.2690646305716
 30
0.0
 10
93.760685197914
 20
-158.2690646305716
 30
0.0
 10
93.760685197914
 20
-158.2690646305716
 30
0.0
 10
93.48197697315729
 20
-158.8344047997011
 30
0.0
 10
93.48197697315729
 20
-158.8344047997011
 30
0.0
 10
93.48197697315729
 20
-158.8344047997011
 30
0.0
 10
93.27148163900853
 20
-158.7307074255951
 30
0.0
 10
93.27148163900853
 20
-158.7307074255951
 30
0.0
 10
93.27148163900853
 20
-158.7307074255951
 30
0.0
 10
93.95464407373356
 20
-157.3454345309761
 30
0.0
 10
93.95464407373356
 20
-157.3454345309761
 30
0.0
 10
93.95464407373356
 20
-157.3454345309761
 30
0.0
 10
94.57131616559329
 20
-157.6496364623237
 30
0.0
 10
94.57131616559329
 20
-157.6496364623237
 30
0.0
 10
94.8293538174385
 20
-157.7767604857294
 30
0.0
 10
94.94114716593485
 20
-158.0137830551146
 30
0.0
 10
94.80920000884979
 20
-158.2814669743185
 30
0.0
 10
94.6998182271931
 20
-158.5033311235686
 30
0.0
 10
94.46486271509907
 20
-158.6163302554848
 30
0.0
 10
94.16720646517348
 20
-158.4695691878132
 30
0.0
  0
SPLINE
  5
B5
330
AB
100
AcDbEntity
  8
_U+30EC_U+30A4_U+30E4_U+30FC 1
370
     0
100
AcDbSpline
210
0.0
220
0.0
230
1.0
 70
    11
 71
     3
 72
    20
 73
    16
 74
     0
 42
0.0000000001
 43
0.0000000001
 12
1.0
 22
0.0
 32
0.0
 13
1.0
 23
0.0
 33
0.0
 40
0.0
 40
0.0
 40
0.0
 40
0.0
 40
1.0
 40
1.0
 40
1.0
 40
2.0
 40
2.0
 40
2.0
 40
3.0
 40
3.0
 40
3.0
 40
4.0
 40
4.0
 40
4.0
 40
5.0
 40
5.0
 40
5.0
 40
5.0
 10
94.47003035832694
 20
-157.8356716185272
 30
0.0
 10
94.47003035832694
 20
-157.8356716185272
 30
0.0
 10
94.07143281068353
 20
-157.6389566663194
 30
0.0
 10
94.07143281068353
 20
-157.6389566663194
 30
0.0
 10
94.07143281068353
 20
-157.6389566663194
 30
0.0
 10
93.85439179511279
 20
-158.0792398693344
 30
0.0
 10
93.85439179511279
 20
-158.0792398693344
 30
0.0
 10
93.85439179511279
 20
-158.0792398693344
 30
0.0
 10
94.2529893427562
 20
-158.2759548215421
 30
0.0
 10
94.2529893427562
 20
-158.2759548215421
 30
0.0
 10
94.40285099636456
 20
-158.3496798649265
 30
0.0
 10
94.52928600067324
 20
-158.294213827614
 30
0.0
 10
94.59095320985921
 20
-158.1691568614994
 30
0.0
 10
94.64159611349238
 20
-158.0664930160389
 30
0.0
 10
94.63866778232992
 20
-157.9186984197217
 30
0.0
 10
94.47003035832694
 20
-157.8356716185272
 30
0.0
  0
HATCH
  5
B6
330
AB
100
AcDbEntity
  8
_U+30EC_U+30A4_U+30E4_U+30FC 1
 62
   179
420
  2234388
100
AcDbHatch
 10
0.0
 20
0.0
 30
0.0
210
0.0
220
0.0
230
1.0
  2
SOLID
 70
     1
 71
     0
 91
        2
 92
        1
 93
        1
 72
     4
 94
        3
 73
     0
 74
     1
 95
       26
 96
       22
 40
0.0
 40
0.0
 40
0.0
 40
0.0
 40
1.0
 40
1.0
 40
1.0
 40
2.0
 40
2.0
 40
2.0
 40
3.0
 40
3.0
 40
3.0
 40
4.0
 40
4.0
 40
4.0
 40
5.0
 40
5.0
 40
5.0
 40
6.0
 40
6.0
 40
6.0
 40
7.0
 40
7.0
 40
7.0
 40
7.0
 10
94.16720646517348
 20
-158.4695691878132
 10
94.16720646517348
 20
-158.4695691878132
 10
93.760685197914
 20
-158.2690646305716
 10
93.760685197914
 20
-158.2690646305716
 10
93.760685197914
 20
-158.2690646305716
 10
93.48197697315729
 20
-158.8344047997011
 10
93.48197697315729
 20
-158.8344047997011
 10
93.48197697315729
 20
-158.8344047997011
 10
93.27148163900853
 20
-158.7307074255951
 10
93.27148163900853
 20
-158.7307074255951
 10
93.27148163900853
 20
-158.7307074255951
 10
93.95464407373356
 20
-157.3454345309761
 10
93.95464407373356
 20
-157.3454345309761
 10
93.95464407373356
 20
-157.3454345309761
 10
94.57131616559329
 20
-157.6496364623237
 10
94.57131616559329
 20
-157.6496364623237
 10
94.8293538174385
 20
-157.7767604857294
 10
94.94114716593485
 20
-158.0137830551146
 10
94.80920000884979
 20
-158.2814669743185
 10
94.6998182271931
 20
-158.5033311235686
 10
94.46486271509907
 20
-158.6163302554848
 10
94.16720646517348
 20
-158.4695691878132
 97
        0
 97
        0
 92
        1
 93
        1
 72
     4
 94
        3
 73
     0
 74
     1
 95
       20
 96
       16
 40
0.0
 40
0.0
 40
0.0
 40
0.0
 40
1.0
 40
1.0
 40
1.0
 40
2.0
 40
2.0
 40
2.0
 40
3.0
 40
3.0
 40
3.0
 40
4.0
 40
4.0
 40
4.0
 40
5.0
 40
5.0
 40
5.0
 40
5.0
 10
94.47003035832694
 20
-157.8356716185272
 10
94.47003035832694
 20
-157.8356716185272
 10
94.07143281068353
 20
-157.6389566663194
 10
94.07143281068353
 20
-157.6389566663194
 10
94.07143281068353
 20
-157.6389566663194
 10
93.85439179511279
 20
-158.0792398693344
 10
93.85439179511279
 20
-158.0792398693344
 10
93.85439179511279
 20
-158.0792398693344
 10
94.2529893427562
 20
-158.2759548215421
 10
94.2529893427562
 20
-158.2759548215421
 10
94.40285099636456
 20
-158.3496798649265
 10
94.52928600067324
 20
-158.294213827614
 10
94.59095320985921
 20
-158.1691568614994
 10
94.64159611349238
 20
-158.0664930160389
 10
94.63866778232992
 20
-157.9186984197217
 10
94.47003035832694
 20
-157.8356716185272
 97
        0
 97
        0
 75
     2
 76
     1
 98
        0
  0
POLYLINE
  5
B7
330
AB
100
AcDbEntity
  8
_U+30EC_U+30A4_U+30E4_U+30FC 1
370
     0
100
AcDb2dPolyline
 66
     1
 10
0.0
 20
0.0
 30
0.0
  0
VERTEX
  5
B8
330
B7
100
AcDbEntity
  8
_U+30EC_U+30A4_U+30E4_U+30FC 1
370
     0
100
AcDbVertex
100
AcDb2dVertex
 10
94.64590248284894
 20
-158.9108859194737
 30
0.0
  0
VERTEX
  5
B9
330
B7
100
AcDbEntity
  8
_U+30EC_U+30A4_U+30E4_U+30FC 1
370
     0
100
AcDbVertex
100
AcDb2dVertex
 10
94.74133162779036
 20
-158.7172715532026
 30
0.0
  0
VERTEX
  5
BA
330
B7
100
AcDbEntity
  8
_U+30EC_U+30A4_U+30E4_U+30FC 1
370
     0
100
AcDbVertex
100
AcDb2dVertex
 10
95.26688094406524
 20
-158.9763427336934
 30
0.0
  0
VERTEX
  5
BB
330
B7
100
AcDbEntity
  8
_U+30EC_U+30A4_U+30E4_U+30FC 1
370
     0
100
AcDbVertex
100
AcDb2dVertex
 10
95.1714517991238
 20
-159.1699570999644
 30
0.0
  0
VERTEX
  5
BC
330
B7
100
AcDbEntity
  8
_U+30EC_U+30A4_U+30E4_U+30FC 1
370
     0
100
AcDbVertex
100
AcDb2dVertex
 10
94.64590248284894
 20
-158.9108859194737
 30
0.0
  0
SEQEND
  5
BD
330
B7
100
AcDbEntity
  8
_U+30EC_U+30A4_U+30E4_U+30FC 1
370
     0
  0
HATCH
  5
BE
330
AB
100
AcDbEntity
  8
_U+30EC_U+30A4_U+30E4_U+30FC 1
 62
   179
420
  2234388
100
AcDbHatch
 10
0.0
 20
0.0
 30
0.0
210
0.0
220
0.0
230
1.0
  2
SOLID
 70
     1
 71
     0
 91
        1
 92
        1
 93
        4
 72
     1
 10
94.64590248284894
 20
-158.9108859194737
 11
94.74133162779036
 21
-158.7172715532026
 72
     1
 10
94.74133162779036
 20
-158.7172715532026
 11
95.26688094406524
 21
-158.9763427336934
 72
     1
 10
95.26688094406524
 20
-158.9763427336934
 11
95.1714517991238
 21
-159.1699570999644
 72
     1
 10
95.1714517991238
 20
-159.1699570999644
 11
94.64590248284894
 21
-158.9108859194737
 97
        0
 75
     2
 76
     1
 98
        0
  0
SPLINE
  5
BF
330
AB
100
AcDbEntity
  8
_U+30EC_U+30A4_U+30E4_U+30FC 1
370
     0
100
AcDbSpline
210
0.0
220
0.0
230
1.0
 70
    11
 71
     3
 72
    62
 73
    58
 74
     0
 42
0.0000000001
 43
0.0000000001
 12
1.0
 22
0.0
 32
0.0
 13
1.0
 23
0.0
 33
0.0
 40
0.0
 40
0.0
 40
0.0
 40
0.0
 40
1.0
 40
1.0
 40
1.0
 40
2.0
 40
2.0
 40
2.0
 40
3.0
 40
3.0
 40
3.0
 40
4.0
 40
4.0
 40
4.0
 40
5.0
 40
5.0
 40
5.0
 40
6.0
 40
6.0
 40
6.0
 40
7.0
 40
7.0
 40
7.0
 40
8.0
 40
8.0
 40
8.0
 40
9.0
 40
9.0
 40
9.0
 40
10.0
 40
10.0
 40
10.0
 40
11.0
 40
11.0
 40
11.0
 40
12.0
 40
12.0
 40
12.0
 40
13.0
 40
13.0
 40
13.0
 40
14.0
 40
14.0
 40
14.0
 40
15.0
 40
15.0
 40
15.0
 40
16.0
 40
16.0
 40
16.0
 40
17.0
 40
17.0
 40
17.0
 40
18.0
 40
18.0
 40
18.0
 40
19.0
 40
19.0
 40
19.0
 40
19.0
 10
95.50803762803271
 20
-159.8899820563817
 30
0.0
 10
95.42259925999852
 20
-159.8479518914616
 30
0.0
 10
95.23656410379503
 20
-159.7328857022543
 30
0.0
 10
95.20659177307336
 20
-159.5106770434557
 30
0.0
 10
95.19005531474416
 20
-159.3773518481765
 30
0.0
 10
95.23001842237305
 20
-159.2864013273659
 30
0.0
 10
95.2637803581285
 20
-159.2085421693993
 30
0.0
 10
95.2637803581285
 20
-159.2085421693993
 30
0.0
 10
95.46135658420758
 20
-159.3056938620833
 30
0.0
 10
95.46135658420758
 20
-159.3056938620833
 30
0.0
 10
95.43035072484034
 20
-159.3732177335942
 30
0.0
 10
95.33578285377023
 20
-159.5881916918738
 30
0.0
 10
95.59003090058167
 20
-159.7135931675369
 30
0.0
 10
95.7133653189536
 20
-159.7745713576258
 30
0.0
 10
95.88114146908528
 20
-159.7793944913052
 30
0.0
 10
95.98208276680309
 20
-159.5747558194813
 30
0.0
 10
96.03375919908184
 20
-159.4703694262782
 30
0.0
 10
96.02101234578642
 20
-159.4097357457379
 30
0.0
 10
96.00654294474838
 20
-159.3673610712693
 30
0.0
 10
95.97278100899292
 20
-159.2681423212941
 30
0.0
 10
95.87390676856624
 20
-159.205097073914
 30
0.0
 10
95.82464190312717
 20
-159.1809814055173
 30
0.0
 10
95.80741642570092
 20
-159.1723686668041
 30
0.0
 10
95.77434350904252
 20
-159.1582437753146
 30
0.0
 10
95.74781627380611
 20
-159.14997554615
 30
0.0
 10
95.74781627380611
 20
-159.14997554615
 30
0.0
 10
95.83394366093735
 20
-158.9753092050478
 30
0.0
 10
95.83394366093735
 20
-158.9753092050478
 30
0.0
 10
95.86529402985313
 20
-158.998391344799
 30
0.0
 10
95.9021565515453
 20
-159.0183728986135
 30
0.0
 10
95.90801321387022
 20
-159.0214734845502
 30
0.0
 10
95.966924346668
 20
-159.0504122866263
 30
0.0
 10
96.15468205061411
 20
-159.1189696867828
 30
0.0
 10
96.25924069859144
 20
-158.9067518048914
 30
0.0
 10
96.3379611304294
 20
-158.7475883934728
 30
0.0
 10
96.2447712975534
 20
-158.640101414333
 30
0.0
 10
96.14589705712673
 20
-158.5911810584425
 30
0.0
 10
95.90887448774154
 20
-158.4743923214925
 30
0.0
 10
95.79811466789076
 20
-158.6797200124134
 30
0.0
 10
95.76280243916695
 20
-158.7420762406964
 30
0.0
 10
95.76280243916695
 20
-158.7420762406964
 30
0.0
 10
95.58055688799723
 20
-158.6521592485314
 30
0.0
 10
95.58055688799723
 20
-158.6521592485314
 30
0.0
 10
95.64325762582877
 20
-158.5443277598431
 30
0.0
 10
95.8346326800344
 20
-158.2184217269385
 30
0.0
 10
96.2442545332306
 20
-158.4206488319226
 30
0.0
 10
96.4454481095692
 20
-158.5198675818978
 30
0.0
 10
96.60564504963331
 20
-158.7403536929538
 30
0.0
 10
96.47473142119382
 20
-159.0059705548666
 30
0.0
 10
96.39222138432208
 20
-159.1730576859012
 30
0.0
 10
96.27060951369278
 20
-159.2047525643655
 30
0.0
 10
96.15399303151706
 20
-159.2157768699183
 30
0.0
 10
96.19705672508269
 20
-159.2677978117456
 30
0.0
 10
96.32452525803693
 20
-159.4200710321936
 30
0.0
 10
96.20187985876204
 20
-159.6688069262286
 30
0.0
 10
96.0523627147022
 20
-159.9723198384791
 30
0.0
 10
95.75642901251923
 20
-160.0126274556566
 30
0.0
 10
95.50803762803271
 20
-159.8899820563817
 30
0.0
  0
HATCH
  5
C0
330
AB
100
AcDbEntity
  8
_U+30EC_U+30A4_U+30E4_U+30FC 1
 62
   179
420
  2234388
100
AcDbHatch
 10
0.0
 20
0.0
 30
0.0
210
0.0
220
0.0
230
1.0
  2
SOLID
 70
     1
 71
     0
 91
        1
 92
        1
 93
        1
 72
     4
 94
        3
 73
     0
 74
     1
 95
       62
 96
       58
 40
0.0
 40
0.0
 40
0.0
 40
0.0
 40
1.0
 40
1.0
 40
1.0
 40
2.0
 40
2.0
 40
2.0
 40
3.0
 40
3.0
 40
3.0
 40
4.0
 40
4.0
 40
4.0
 40
5.0
 40
5.0
 40
5.0
 40
6.0
 40
6.0
 40
6.0
 40
7.0
 40
7.0
 40
7.0
 40
8.0
 40
8.0
 40
8.0
 40
9.0
 40
9.0
 40
9.0
 40
10.0
 40
10.0
 40
10.0
 40
11.0
 40
11.0
 40
11.0
 40
12.0
 40
12.0
 40
12.0
 40
13.0
 40
13.0
 40
13.0
 40
14.0
 40
14.0
 40
14.0
 40
15.0
 40
15.0
 40
15.0
 40
16.0
 40
16.0
 40
16.0
 40
17.0
 40
17.0
 40
17.0
 40
18.0
 40
18.0
 40
18.0
 40
19.0
 40
19.0
 40
19.0
 40
19.0
 10
95.50803762803271
 20
-159.8899820563817
 10
95.42259925999852
 20
-159.8479518914616
 10
95.23656410379503
 20
-159.7328857022543
 10
95.20659177307336
 20
-159.5106770434557
 10
95.19005531474416
 20
-159.3773518481765
 10
95.23001842237305
 20
-159.2864013273659
 10
95.2637803581285
 20
-159.2085421693993
 10
95.2637803581285
 20
-159.2085421693993
 10
95.46135658420758
 20
-159.3056938620833
 10
95.46135658420758
 20
-159.3056938620833
 10
95.43035072484034
 20
-159.3732177335942
 10
95.33578285377023
 20
-159.5881916918738
 10
95.59003090058167
 20
-159.7135931675369
 10
95.7133653189536
 20
-159.7745713576258
 10
95.88114146908528
 20
-159.7793944913052
 10
95.98208276680309
 20
-159.5747558194813
 10
96.03375919908184
 20
-159.4703694262782
 10
96.02101234578642
 20
-159.4097357457379
 10
96.00654294474838
 20
-159.3673610712693
 10
95.97278100899292
 20
-159.2681423212941
 10
95.87390676856624
 20
-159.205097073914
 10
95.82464190312717
 20
-159.1809814055173
 10
95.80741642570092
 20
-159.1723686668041
 10
95.77434350904252
 20
-159.1582437753146
 10
95.74781627380611
 20
-159.14997554615
 10
95.74781627380611
 20
-159.14997554615
 10
95.83394366093735
 20
-158.9753092050478
 10
95.83394366093735
 20
-158.9753092050478
 10
95.86529402985313
 20
-158.998391344799
 10
95.9021565515453
 20
-159.0183728986135
 10
95.90801321387022
 20
-159.0214734845502
 10
95.966924346668
 20
-159.0504122866263
 10
96.15468205061411
 20
-159.1189696867828
 10
96.25924069859144
 20
-158.9067518048914
 10
96.3379611304294
 20
-158.7475883934728
 10
96.2447712975534
 20
-158.640101414333
 10
96.14589705712673
 20
-158.5911810584425
 10
95.90887448774154
 20
-158.4743923214925
 10
95.79811466789076
 20
-158.6797200124134
 10
95.76280243916695
 20
-158.7420762406964
 10
95.76280243916695
 20
-158.7420762406964
 10
95.58055688799723
 20
-158.6521592485314
 10
95.58055688799723
 20
-158.6521592485314
 10
95.64325762582877
 20
-158.5443277598431
 10
95.8346326800344
 20
-158.2184217269385
 10
96.2442545332306
 20
-158.4206488319226
 10
96.4454481095692
 20
-158.5198675818978
 10
96.60564504963331
 20
-158.7403536929538
 10
96.47473142119382
 20
-159.0059705548666
 10
96.39222138432208
 20
-159.1730576859012
 10
96.27060951369278
 20
-159.2047525643655
 10
96.15399303151706
 20
-159.2157768699183
 10
96.19705672508269
 20
-159.2677978117456
 10
96.32452525803693
 20
-159.4200710321936
 10
96.20187985876204
 20
-159.6688069262286
 10
96.0523627147022
 20
-159.9723198384791
 10
95.75642901251923
 20
-160.0126274556566
 10
95.50803762803271
 20
-159.8899820563817
 97
        0
 97
        0
 75
     2
 76
     1
 98
        0
  0
SPLINE
  5
C1
330
AB
100
AcDbEntity
  8
_U+30EC_U+30A4_U+30E4_U+30FC 1
370
     0
100
AcDbSpline
210
0.0
220
0.0
230
1.0
 70
    11
 71
     3
 72
    29
 73
    25
 74
     0
 42
0.0000000001
 43
0.0000000001
 12
1.0
 22
0.0
 32
0.0
 13
1.0
 23
0.0
 33
0.0
 40
0.0
 40
0.0
 40
0.0
 40
0.0
 40
1.0
 40
1.0
 40
1.0
 40
2.0
 40
2.0
 40
2.0
 40
3.0
 40
3.0
 40
3.0
 40
4.0
 40
4.0
 40
4.0
 40
5.0
 40
5.0
 40
5.0
 40
6.0
 40
6.0
 40
6.0
 40
7.0
 40
7.0
 40
7.0
 40
8.0
 40
8.0
 40
8.0
 40
8.0
 10
97.02887502999626
 20
-160.3853867871606
 30
0.0
 10
96.83922252353325
 20
-160.5252576638617
 30
0.0
 10
96.67523597843537
 20
-160.4660020215155
 30
0.0
 10
96.5708495852323
 20
-160.4143255892367
 30
0.0
 10
96.42650008440032
 20
-160.3433566222405
 30
0.0
 10
96.32021888868037
 20
-160.2389702290375
 30
0.0
 10
96.31539575500102
 20
-160.0336425381166
 30
0.0
 10
96.30850556403051
 20
-159.8131564270606
 30
0.0
 10
96.39652775367865
 20
-159.5923258064561
 30
0.0
 10
96.46835799454611
 20
-159.44659826743
 30
0.0
 10
96.53209226102324
 20
-159.3174071867332
 30
0.0
 10
96.65835501055764
 20
-159.0989881329683
 30
0.0
 10
96.84128958082441
 20
-158.9673854854318
 30
0.0
 10
97.02784150135068
 20
-158.833026761507
 30
0.0
 10
97.18235403386414
 20
-158.8833251555917
 30
0.0
 10
97.29793698739427
 20
-158.9401692310983
 30
0.0
 10
97.44039168570936
 20
-159.0104491789974
 30
0.0
 10
97.54960121259177
 20
-159.1138020435549
 30
0.0
 10
97.55476885581965
 20
-159.3191297344758
 30
0.0
 10
97.55855846085342
 20
-159.535826240498
 30
0.0
 10
97.47845999082136
 20
-159.7508001987776
 30
0.0
 10
97.40163436150029
 20
-159.9068630242594
 30
0.0
 10
97.32601451559906
 20
-160.060169773353
 30
0.0
 10
97.20474715451826
 20
-160.2575737446578
 30
0.0
 10
97.02887502999626
 20
-160.3853867871606
 30
0.0
  0
SPLINE
  5
C2
330
AB
100
AcDbEntity
  8
_U+30EC_U+30A4_U+30E4_U+30FC 1
370
     0
100
AcDbSpline
210
0.0
220
0.0
230
1.0
 70
    11
 71
     3
 72
    17
 73
    13
 74
     0
 42
0.0000000001
 43
0.0000000001
 12
1.0
 22
0.0
 32
0.0
 13
1.0
 23
0.0
 33
0.0
 40
0.0
 40
0.0
 40
0.0
 40
0.0
 40
1.0
 40
1.0
 40
1.0
 40
2.0
 40
2.0
 40
2.0
 40
3.0
 40
3.0
 40
3.0
 40
4.0
 40
4.0
 40
4.0
 40
4.0
 10
97.21267087413433
 20
-159.1127685149093
 30
0.0
 10
96.98908417714162
 20
-159.0025254593813
 30
0.0
 10
96.82165253655847
 20
-159.2361029332813
 30
0.0
 10
96.66920706133618
 20
-159.5454725078567
 30
0.0
 10
96.52795814644094
 20
-159.8317599426809
 30
0.0
 10
96.42374400801212
 20
-160.1249375684757
 30
0.0
 10
96.65697697236354
 20
-160.2400037576831
 30
0.0
 10
96.87918563116216
 20
-160.349557794114
 30
0.0
 10
97.04730629084234
 20
-160.1187363966023
 30
0.0
 10
97.20061303993596
 20
-159.8076442742842
 30
0.0
 10
97.34203420960547
 20
-159.5206678203629
 30
0.0
 10
97.44418129074313
 20
-159.2271456850196
 30
0.0
 10
97.21267087413433
 20
-159.1127685149093
 30
0.0
  0
HATCH
  5
C3
330
AB
100
AcDbEntity
  8
_U+30EC_U+30A4_U+30E4_U+30FC 1
 62
   179
420
  2234388
100
AcDbHatch
 10
0.0
 20
0.0
 30
0.0
210
0.0
220
0.0
230
1.0
  2
SOLID
 70
     1
 71
     0
 91
        2
 92
        1
 93
        1
 72
     4
 94
        3
 73
     0
 74
     1
 95
       29
 96
       25
 40
0.0
 40
0.0
 40
0.0
 40
0.0
 40
1.0
 40
1.0
 40
1.0
 40
2.0
 40
2.0
 40
2.0
 40
3.0
 40
3.0
 40
3.0
 40
4.0
 40
4.0
 40
4.0
 40
5.0
 40
5.0
 40
5.0
 40
6.0
 40
6.0
 40
6.0
 40
7.0
 40
7.0
 40
7.0
 40
8.0
 40
8.0
 40
8.0
 40
8.0
 10
97.02887502999626
 20
-160.3853867871606
 10
96.83922252353325
 20
-160.5252576638617
 10
96.67523597843537
 20
-160.4660020215155
 10
96.5708495852323
 20
-160.4143255892367
 10
96.42650008440032
 20
-160.3433566222405
 10
96.32021888868037
 20
-160.2389702290375
 10
96.31539575500102
 20
-160.0336425381166
 10
96.30850556403051
 20
-159.8131564270606
 10
96.39652775367865
 20
-159.5923258064561
 10
96.46835799454611
 20
-159.44659826743
 10
96.53209226102324
 20
-159.3174071867332
 10
96.65835501055764
 20
-159.0989881329683
 10
96.84128958082441
 20
-158.9673854854318
 10
97.02784150135068
 20
-158.833026761507
 10
97.18235403386414
 20
-158.8833251555917
 10
97.29793698739427
 20
-158.9401692310983
 10
97.44039168570936
 20
-159.0104491789974
 10
97.54960121259177
 20
-159.1138020435549
 10
97.55476885581965
 20
-159.3191297344758
 10
97.55855846085342
 20
-159.535826240498
 10
97.47845999082136
 20
-159.7508001987776
 10
97.40163436150029
 20
-159.9068630242594
 10
97.32601451559906
 20
-160.060169773353
 10
97.20474715451826
 20
-160.2575737446578
 10
97.02887502999626
 20
-160.3853867871606
 97
        0
 97
        0
 92
        1
 93
        1
 72
     4
 94
        3
 73
     0
 74
     1
 95
       17
 96
       13
 40
0.0
 40
0.0
 40
0.0
 40
0.0
 40
1.0
 40
1.0
 40
1.0
 40
2.0
 40
2.0
 40
2.0
 40
3.0
 40
3.0
 40
3.0
 40
4.0
 40
4.0
 40
4.0
 40
4.0
 10
97.21267087413433
 20
-159.1127685149093
 10
96.98908417714162
 20
-159.0025254593813
 10
96.82165253655847
 20
-159.2361029332813
 10
96.66920706133618
 20
-159.5454725078567
 10
96.52795814644094
 20
-159.8317599426809
 10
96.42374400801212
 20
-160.1249375684757
 10
96.65697697236354
 20
-160.2400037576831
 10
96.87918563116216
 20
-160.349557794114
 10
97.04730629084234
 20
-160.1187363966023
 10
97.20061303993596
 20
-159.8076442742842
 10
97.34203420960547
 20
-159.5206678203629
 10
97.44418129074313
 20
-159.2271456850196
 10
97.21267087413433
 20
-159.1127685149093
 97
        0
 97
        0
 75
     2
 76
     1
 98
        0
  0
POLYLINE
  5
C4
330
AB
100
AcDbEntity
  8
_U+30EC_U+30A4_U+30E4_U+30FC 1
370
     0
100
AcDb2dPolyline
 66
     1
 10
0.0
 20
0.0
 30
0.0
  0
VERTEX
  5
C5
330
C4
100
AcDbEntity
  8
_U+30EC_U+30A4_U+30E4_U+30FC 1
370
     0
100
AcDbVertex
100
AcDb2dVertex
 10
98.17798662910134
 20
-161.1501979848861
 30
0.0
  0
VERTEX
  5
C6
330
C4
100
AcDbEntity
  8
_U+30EC_U+30A4_U+30E4_U+30FC 1
370
     0
100
AcDbVertex
100
AcDb2dVertex
 10
98.48976777051645
 20
-160.5183674728912
 30
0.0
  0
VERTEX
  5
C7
330
C4
100
AcDbEntity
  8
_U+30EC_U+30A4_U+30E4_U+30FC 1
370
     0
100
AcDbVertex
100
AcDb2dVertex
 10
97.81831866044126
 20
-160.1876383063073
 30
0.0
  0
VERTEX
  5
C8
330
C4
100
AcDbEntity
  8
_U+30EC_U+30A4_U+30E4_U+30FC 1
370
     0
100
AcDbVertex
100
AcDb2dVertex
 10
97.50653751902615
 20
-160.8194688183021
 30
0.0
  0
VERTEX
  5
C9
330
C4
100
AcDbEntity
  8
_U+30EC_U+30A4_U+30E4_U+30FC 1
370
     0
100
AcDbVertex
100
AcDb2dVertex
 10
97.29604218487738
 20
-160.7154269346476
 30
0.0
  0
VERTEX
  5
CA
330
C4
100
AcDbEntity
  8
_U+30EC_U+30A4_U+30E4_U+30FC 1
370
     0
100
AcDbVertex
100
AcDb2dVertex
 10
97.97920461960243
 20
-159.3301540400286
 30
0.0
  0
VERTEX
  5
CB
330
C4
100
AcDbEntity
  8
_U+30EC_U+30A4_U+30E4_U+30FC 1
370
     0
100
AcDbVertex
100
AcDb2dVertex
 10
98.18969995375119
 20
-159.4341959236831
 30
0.0
  0
VERTEX
  5
CC
330
C4
100
AcDbEntity
  8
_U+30EC_U+30A4_U+30E4_U+30FC 1
370
     0
100
AcDbVertex
100
AcDb2dVertex
 10
97.9118530028658
 20
-159.99781354507
 30
0.0
  0
VERTEX
  5
CD
330
C4
100
AcDbEntity
  8
_U+30EC_U+30A4_U+30E4_U+30FC 1
370
     0
100
AcDbVertex
100
AcDb2dVertex
 10
98.58330211294098
 20
-160.3288872212025
 30
0.0
  0
VERTEX
  5
CE
330
C4
100
AcDbEntity
  8
_U+30EC_U+30A4_U+30E4_U+30FC 1
370
     0
100
AcDbVertex
100
AcDb2dVertex
 10
98.86114906382639
 20
-159.7652695998156
 30
0.0
  0
VERTEX
  5
CF
330
C4
100
AcDbEntity
  8
_U+30EC_U+30A4_U+30E4_U+30FC 1
370
     0
100
AcDbVertex
100
AcDb2dVertex
 10
99.07198890752368
 20
-159.8693114834702
 30
0.0
  0
VERTEX
  5
D0
330
C4
100
AcDbEntity
  8
_U+30EC_U+30A4_U+30E4_U+30FC 1
370
     0
100
AcDbVertex
100
AcDb2dVertex
 10
98.38882647279863
 20
-161.2542398685406
 30
0.0
  0
VERTEX
  5
D1
330
C4
100
AcDbEntity
  8
_U+30EC_U+30A4_U+30E4_U+30FC 1
370
     0
100
AcDbVertex
100
AcDb2dVertex
 10
98.17798662910134
 20
-161.1501979848861
 30
0.0
  0
SEQEND
  5
D2
330
C4
100
AcDbEntity
  8
_U+30EC_U+30A4_U+30E4_U+30FC 1
370
     0
  0
HATCH
  5
D3
330
AB
100
AcDbEntity
  8
_U+30EC_U+30A4_U+30E4_U+30FC 1
 62
   179
420
  2234388
100
AcDbHatch
 10
0.0
 20
0.0
 30
0.0
210
0.0
220
0.0
230
1.0
  2
SOLID
 70
     1
 71
     0
 91
        1
 92
        1
 93
       12
 72
     1
 10
98.17798662910134
 20
-161.1501979848861
 11
98.48976777051645
 21
-160.5183674728912
 72
     1
 10
98.48976777051645
 20
-160.5183674728912
 11
97.81831866044126
 21
-160.1876383063073
 72
     1
 10
97.81831866044126
 20
-160.1876383063073
 11
97.50653751902615
 21
-160.8194688183021
 72
     1
 10
97.50653751902615
 20
-160.8194688183021
 11
97.29604218487738
 21
-160.7154269346476
 72
     1
 10
97.29604218487738
 20
-160.7154269346476
 11
97.97920461960243
 21
-159.3301540400286
 72
     1
 10
97.97920461960243
 20
-159.3301540400286
 11
98.18969995375119
 21
-159.4341959236831
 72
     1
 10
98.18969995375119
 20
-159.4341959236831
 11
97.9118530028658
 21
-159.99781354507
 72
     1
 10
97.9118530028658
 20
-159.99781354507
 11
98.58330211294098
 21
-160.3288872212025
 72
     1
 10
98.58330211294098
 20
-160.3288872212025
 11
98.86114906382639
 21
-159.7652695998156
 72
     1
 10
98.86114906382639
 20
-159.7652695998156
 11
99.07198890752368
 21
-159.8693114834702
 72
     1
 10
99.07198890752368
 20
-159.8693114834702
 11
98.38882647279863
 21
-161.2542398685406
 72
     1
 10
98.38882647279863
 20
-161.2542398685406
 11
98.17798662910134
 21
-161.1501979848861
 97
        0
 75
     2
 76
     1
 98
        0
  0
SPLINE
  5
D4
330
AB
100
AcDbEntity
  8
_U+30EC_U+30A4_U+30E4_U+30FC 1
370
     0
100
AcDbSpline
210
0.0
220
0.0
230
1.0
 70
    11
 71
     3
 72
    26
 73
    22
 74
     0
 42
0.0000000001
 43
0.0000000001
 12
1.0
 22
0.0
 32
0.0
 13
1.0
 23
0.0
 33
0.0
 40
0.0
 40
0.0
 40
0.0
 40
0.0
 40
1.0
 40
1.0
 40
1.0
 40
2.0
 40
2.0
 40
2.0
 40
3.0
 40
3.0
 40
3.0
 40
4.0
 40
4.0
 40
4.0
 40
5.0
 40
5.0
 40
5.0
 40
6.0
 40
6.0
 40
6.0
 40
7.0
 40
7.0
 40
7.0
 40
7.0
 10
99.34759654634367
 20
-161.7269069691169
 30
0.0
 10
99.34759654634367
 20
-161.7269069691169
 30
0.0
 10
98.73678111680887
 20
-161.4258056237061
 30
0.0
 10
98.73678111680887
 20
-161.4258056237061
 30
0.0
 10
98.73678111680887
 20
-161.4258056237061
 30
0.0
 10
99.4199435515339
 20
-160.0408772386356
 30
0.0
 10
99.4199435515339
 20
-160.0408772386356
 30
0.0
 10
99.4199435515339
 20
-160.0408772386356
 30
0.0
 10
100.0193901659674
 20
-160.3364664312701
 30
0.0
 10
100.0193901659674
 20
-160.3364664312701
 30
0.0
 10
100.2112819844958
 20
-160.4308620475659
 30
0.0
 10
100.3539089375851
 20
-160.6244764138369
 30
0.0
 10
100.235053143344
 20
-160.8652885882559
 30
0.0
 10
100.1303222405924
 20
-161.0775064701473
 30
0.0
 10
99.95255531355353
 20
-161.0702717696283
 30
0.0
 10
99.87848576062066
 20
-161.066826674143
 30
0.0
 10
99.93395179793319
 20
-161.1126464440968
 30
0.0
 10
100.1124077440691
 20
-161.266986721836
 30
0.0
 10
99.97770451059586
 20
-161.5401827938163
 30
0.0
 10
99.87572968423247
 20
-161.7468885229313
 30
0.0
 10
99.63801809575023
 20
-161.8702229413033
 30
0.0
 10
99.34759654634367
 20
-161.7269069691169
 30
0.0
  0
SPLINE
  5
D5
330
AB
100
AcDbEntity
  8
_U+30EC_U+30A4_U+30E4_U+30FC 1
370
     0
100
AcDbSpline
210
0.0
220
0.0
230
1.0
 70
    11
 71
     3
 72
    20
 73
    16
 74
     0
 42
0.0000000001
 43
0.0000000001
 12
1.0
 22
0.0
 32
0.0
 13
1.0
 23
0.0
 33
0.0
 40
0.0
 40
0.0
 40
0.0
 40
0.0
 40
1.0
 40
1.0
 40
1.0
 40
2.0
 40
2.0
 40
2.0
 40
3.0
 40
3.0
 40
3.0
 40
4.0
 40
4.0
 40
4.0
 40
5.0
 40
5.0
 40
5.0
 40
5.0
 10
99.63250594297382
 20
-161.0819850942781
 30
0.0
 10
99.63250594297382
 20
-161.0819850942781
 30
0.0
 10
99.25905759237274
 20
-160.8980169953658
 30
0.0
 10
99.25905759237274
 20
-160.8980169953658
 30
0.0
 10
99.25905759237274
 20
-160.8980169953658
 30
0.0
 10
99.04115530293069
 20
-161.3400227461233
 30
0.0
 10
99.04115530293069
 20
-161.3400227461233
 30
0.0
 10
99.04115530293069
 20
-161.3400227461233
 30
0.0
 10
99.41460365353177
 20
-161.5243353545842
 30
0.0
 10
99.41460365353177
 20
-161.5243353545842
 30
0.0
 10
99.55705835184685
 20
-161.5946153024833
 30
0.0
 10
99.69589569990242
 20
-161.5615423858249
 30
0.0
 10
99.76600339302725
 20
-161.4189154327356
 30
0.0
 10
99.82680932834191
 20
-161.2959255239121
 30
0.0
 10
99.78822425890712
 20
-161.1591552331477
 30
0.0
 10
99.63250594297382
 20
-161.0819850942781
 30
0.0
  0
SPLINE
  5
D6
330
AB
100
AcDbEntity
  8
_U+30EC_U+30A4_U+30E4_U+30FC 1
370
     0
100
AcDbSpline
210
0.0
220
0.0
230
1.0
 70
    11
 71
     3
 72
    20
 73
    16
 74
     0
 42
0.0000000001
 43
0.0000000001
 12
1.0
 22
0.0
 32
0.0
 13
1.0
 23
0.0
 33
0.0
 40
0.0
 40
0.0
 40
0.0
 40
0.0
 40
1.0
 40
1.0
 40
1.0
 40
2.0
 40
2.0
 40
2.0
 40
3.0
 40
3.0
 40
3.0
 40
4.0
 40
4.0
 40
4.0
 40
5.0
 40
5.0
 40
5.0
 40
5.0
 10
99.86332734048557
 20
-160.4952853331401
 30
0.0
 10
99.86332734048557
 20
-160.4952853331401
 30
0.0
 10
99.5370767980324
 20
-160.3343993739789
 30
0.0
 10
99.5370767980324
 20
-160.3343993739789
 30
0.0
 10
99.5370767980324
 20
-160.3343993739789
 30
0.0
 10
99.35276418957153
 20
-160.7081922341285
 30
0.0
 10
99.35276418957153
 20
-160.7081922341285
 30
0.0
 10
99.35276418957153
 20
-160.7081922341285
 30
0.0
 10
99.6790147320247
 20
-160.8690781932897
 30
0.0
 10
99.6790147320247
 20
-160.8690781932897
 30
0.0
 10
99.80407169813927
 20
-160.9310899120242
 30
0.0
 10
99.92878415470531
 20
-160.9310899120242
 30
0.0
 10
99.99699704531325
 20
-160.7925970735171
 30
0.0
 10
100.0710665982461
 20
-160.6427354199088
 30
0.0
 10
99.9673692241401
 20
-160.5466172558703
 30
0.0
 10
99.86332734048557
 20
-160.4952853331401
 30
0.0
  0
HATCH
  5
D7
330
AB
100
AcDbEntity
  8
_U+30EC_U+30A4_U+30E4_U+30FC 1
 62
   179
420
  2234388
100
AcDbHatch
 10
0.0
 20
0.0
 30
0.0
210
0.0
220
0.0
230
1.0
  2
SOLID
 70
     1
 71
     0
 91
        3
 92
        1
 93
        1
 72
     4
 94
        3
 73
     0
 74
     1
 95
       26
 96
       22
 40
0.0
 40
0.0
 40
0.0
 40
0.0
 40
1.0
 40
1.0
 40
1.0
 40
2.0
 40
2.0
 40
2.0
 40
3.0
 40
3.0
 40
3.0
 40
4.0
 40
4.0
 40
4.0
 40
5.0
 40
5.0
 40
5.0
 40
6.0
 40
6.0
 40
6.0
 40
7.0
 40
7.0
 40
7.0
 40
7.0
 10
99.34759654634367
 20
-161.7269069691169
 10
99.34759654634367
 20
-161.7269069691169
 10
98.73678111680887
 20
-161.4258056237061
 10
98.73678111680887
 20
-161.4258056237061
 10
98.73678111680887
 20
-161.4258056237061
 10
99.4199435515339
 20
-160.0408772386356
 10
99.4199435515339
 20
-160.0408772386356
 10
99.4199435515339
 20
-160.0408772386356
 10
100.0193901659674
 20
-160.3364664312701
 10
100.0193901659674
 20
-160.3364664312701
 10
100.2112819844958
 20
-160.4308620475659
 10
100.3539089375851
 20
-160.6244764138369
 10
100.235053143344
 20
-160.8652885882559
 10
100.1303222405924
 20
-161.0775064701473
 10
99.95255531355353
 20
-161.0702717696283
 10
99.87848576062066
 20
-161.066826674143
 10
99.93395179793319
 20
-161.1126464440968
 10
100.1124077440691
 20
-161.266986721836
 10
99.97770451059586
 20
-161.5401827938163
 10
99.87572968423247
 20
-161.7468885229313
 10
99.63801809575023
 20
-161.8702229413033
 10
99.34759654634367
 20
-161.7269069691169
 97
        0
 97
        0
 92
        1
 93
        1
 72
     4
 94
        3
 73
     0
 74
     1
 95
       20
 96
       16
 40
0.0
 40
0.0
 40
0.0
 40
0.0
 40
1.0
 40
1.0
 40
1.0
 40
2.0
 40
2.0
 40
2.0
 40
3.0
 40
3.0
 40
3.0
 40
4.0
 40
4.0
 40
4.0
 40
5.0
 40
5.0
 40
5.0
 40
5.0
 10
99.63250594297382
 20
-161.0819850942781
 10
99.63250594297382
 20
-161.0819850942781
 10
99.25905759237274
 20
-160.8980169953658
 10
99.25905759237274
 20
-160.8980169953658
 10
99.25905759237274
 20
-160.8980169953658
 10
99.04115530293069
 20
-161.3400227461233
 10
99.04115530293069
 20
-161.3400227461233
 10
99.04115530293069
 20
-161.3400227461233
 10
99.41460365353177
 20
-161.5243353545842
 10
99.41460365353177
 20
-161.5243353545842
 10
99.55705835184685
 20
-161.5946153024833
 10
99.69589569990242
 20
-161.5615423858249
 10
99.76600339302725
 20
-161.4189154327356
 10
99.82680932834191
 20
-161.2959255239121
 10
99.78822425890712
 20
-161.1591552331477
 10
99.63250594297382
 20
-161.0819850942781
 97
        0
 97
        0
 92
        1
 93
        1
 72
     4
 94
        3
 73
     0
 74
     1
 95
       20
 96
       16
 40
0.0
 40
0.0
 40
0.0
 40
0.0
 40
1.0
 40
1.0
 40
1.0
 40
2.0
 40
2.0
 40
2.0
 40
3.0
 40
3.0
 40
3.0
 40
4.0
 40
4.0
 40
4.0
 40
5.0
 40
5.0
 40
5.0
 40
5.0
 10
99.86332734048557
 20
-160.4952853331401
 10
99.86332734048557
 20
-160.4952853331401
 10
99.5370767980324
 20
-160.3343993739789
 10
99.5370767980324
 20
-160.3343993739789
 10
99.5370767980324
 20
-160.3343993739789
 10
99.35276418957153
 20
-160.7081922341285
 10
99.35276418957153
 20
-160.7081922341285
 10
99.35276418957153
 20
-160.7081922341285
 10
99.6790147320247
 20
-160.8690781932897
 10
99.6790147320247
 20
-160.8690781932897
 10
99.80407169813927
 20
-160.9310899120242
 10
99.92878415470531
 20
-160.9310899120242
 10
99.99699704531325
 20
-160.7925970735171
 10
100.0710665982461
 20
-160.6427354199088
 10
99.9673692241401
 20
-160.5466172558703
 10
99.86332734048557
 20
-160.4952853331401
 97
        0
 97
        0
 75
     2
 76
     1
 98
        0
  0
ENDBLK
  5
AE
330
AB
100
AcDbEntity
  8
0
100
AcDbBlockEnd
  0
ENDSEC
  0
SECTION
  2
ENTITIES
  0
INSERT
  5
42
330
1F
100
AcDbEntity
  8
_U+30EC_U+30A4_U+30E4_U+30FC 1
100
AcDbBlockReference
  2
block 2
 10
0.0
 20
0.0
 30
0.0
  0
INSERT
  5
7F
330
1F
100
AcDbEntity
  8
_U+30EC_U+30A4_U+30E4_U+30FC 1
100
AcDbBlockReference
  2
block 3
 10
0.0
 20
0.0
 30
0.0
  0
INSERT
  5
AC
330
1F
100
AcDbEntity
  8
_U+30EC_U+30A4_U+30E4_U+30FC 1
100
AcDbBlockReference
  2
block 4
 10
0.0
 20
0.0
 30
0.0
  0
SPLINE
  5
D8
330
1F
100
AcDbEntity
  8
_U+30EC_U+30A4_U+30E4_U+30FC 1
 62
   179
420
  2234388
370
    15
100
AcDbSpline
210
0.0
220
0.0
230
1.0
 70
     8
 71
     3
 72
     8
 73
     4
 74
     0
 42
0.0000000001
 43
0.0000000001
 12
1.0
 22
0.0
 32
0.0
 13
1.0
 23
0.0
 33
0.0
 40
0.0
 40
0.0
 40
0.0
 40
0.0
 40
1.0
 40
1.0
 40
1.0
 40
1.0
 10
88.93904798191564
 20
-153.2493182752863
 30
0.0
 10
90.21186004078797
 20
-153.0655224311482
 30
0.0
 10
91.13790170722312
 20
-151.3676017382812
 30
0.0
 10
91.03348301624987
 20
-149.6224132587641
 30
0.0
  0
POLYLINE
  5
D9
330
1F
100
AcDbEntity
  8
_U+30EC_U+30A4_U+30E4_U+30FC 1
 62
   179
420
  2234388
370
    15
100
AcDb2dPolyline
 66
     1
 10
0.0
 20
0.0
 30
0.0
  0
VERTEX
  5
DA
330
D9
100
AcDbEntity
  8
_U+30EC_U+30A4_U+30E4_U+30FC 1
 62
   179
420
  2234388
370
    15
100
AcDbVertex
100
AcDb2dVertex
 10
105.0700293384247
 20
-162.0170809022854
 30
0.0
  0
VERTEX
  5
DB
330
D9
100
AcDbEntity
  8
_U+30EC_U+30A4_U+30E4_U+30FC 1
 62
   179
420
  2234388
370
    15
100
AcDbVertex
100
AcDb2dVertex
 10
88.57977835242103
 20
-153.8721484753259
 30
0.0
  0
VERTEX
  5
DC
330
D9
100
AcDbEntity
  8
_U+30EC_U+30A4_U+30E4_U+30FC 1
 62
   179
420
  2234388
370
    15
100
AcDbVertex
100
AcDb2dVertex
 10
88.93890802491154
 20
-153.2491460205121
 30
0.0
  0
SEQEND
  5
DD
330
D9
100
AcDbEntity
  8
_U+30EC_U+30A4_U+30E4_U+30FC 1
 62
   179
420
  2234388
370
    15
  0
POLYLINE
  5
DE
330
1F
100
AcDbEntity
  8
_U+30EC_U+30A4_U+30E4_U+30FC 1
 62
   179
420
  2234388
370
    15
100
AcDb2dPolyline
 66
     1
 10
0.0
 20
0.0
 30
0.0
  0
VERTEX
  5
DF
330
DE
100
AcDbEntity
  8
_U+30EC_U+30A4_U+30E4_U+30FC 1
 62
   179
420
  2234388
370
    15
100
AcDbVertex
100
AcDb2dVertex
 10
88.93904798191564
 20
-153.2493182752863
 30
0.0
  0
VERTEX
  5
E0
330
DE
100
AcDbEntity
  8
_U+30EC_U+30A4_U+30E4_U+30FC 1
 62
   179
420
  2234388
370
    15
100
AcDbVertex
100
AcDb2dVertex
 10
105.070158529505
 20
-161.2171620283806
 30
0.0
  0
SEQEND
  5
E1
330
DE
100
AcDbEntity
  8
_U+30EC_U+30A4_U+30E4_U+30FC 1
 62
   179
420
  2234388
370
    15
  0
POLYLINE
  5
E2
330
1F
100
AcDbEntity
  8
_U+30EC_U+30A4_U+30E4_U+30FC 1
 62
   179
420
  2234388
370
    15
100
AcDb2dPolyline
 66
     1
 10
0.0
 20
0.0
 30
0.0
  0
VERTEX
  5
E3
330
E2
100
AcDbEntity
  8
_U+30EC_U+30A4_U+30E4_U+30FC 1
 62
   179
420
  2234388
370
    15
100
AcDbVertex
100
AcDb2dVertex
 10
91.03335382516919
 20
-149.6223055995302
 30
0.0
  0
VERTEX
  5
E4
330
E2
100
AcDbEntity
  8
_U+30EC_U+30A4_U+30E4_U+30FC 1
 62
   179
420
  2234388
370
    15
100
AcDbVertex
100
AcDb2dVertex
 10
105.0700293384247
 20
-156.5550973288897
 30
0.0
  0
SEQEND
  5
E5
330
E2
100
AcDbEntity
  8
_U+30EC_U+30A4_U+30E4_U+30FC 1
 62
   179
420
  2234388
370
    15
  0
POLYLINE
  5
E6
330
1F
100
AcDbEntity
  8
_U+30EC_U+30A4_U+30E4_U+30FC 1
 62
   179
420
  2234388
370
    15
100
AcDb2dPolyline
 66
     1
 10
0.0
 20
0.0
 30
0.0
  0
VERTEX
  5
E7
330
E6
100
AcDbEntity
  8
_U+30EC_U+30A4_U+30E4_U+30FC 1
 62
   179
420
  2234388
370
    15
100
AcDbVertex
100
AcDb2dVertex
 10
89.61807630205837
 20
-152.9854078122311
 30
0.0
  0
VERTEX
  5
E8
330
E6
100
AcDbEntity
  8
_U+30EC_U+30A4_U+30E4_U+30FC 1
 62
   179
420
  2234388
370
    15
100
AcDbVertex
100
AcDb2dVertex
 10
88.31032882178125
 20
-152.3391240480833
 30
0.0
  0
VERTEX
  5
E9
330
E6
100
AcDbEntity
  8
_U+30EC_U+30A4_U+30E4_U+30FC 1
 62
   179
420
  2234388
370
    15
100
AcDbVertex
100
AcDb2dVertex
 10
88.57984294796138
 20
-153.8722938152917
 30
0.0
  0
SEQEND
  5
EA
330
E6
100
AcDbEntity
  8
_U+30EC_U+30A4_U+30E4_U+30FC 1
 62
   179
420
  2234388
370
    15
  0
POLYLINE
  5
EB
330
1F
100
AcDbEntity
  8
_U+30EC_U+30A4_U+30E4_U+30FC 1
 62
   179
420
  2234388
370
    15
100
AcDb2dPolyline
 66
     1
 10
0.0
 20
0.0
 30
0.0
  0
VERTEX
  5
EC
330
EB
100
AcDbEntity
  8
_U+30EC_U+30A4_U+30E4_U+30FC 1
 62
   179
420
  2234388
370
    15
100
AcDbVertex
100
AcDb2dVertex
 10
91.39301102790587
 20
-148.9994431017204
 30
0.0
  0
VERTEX
  5
ED
330
EB
100
AcDbEntity
  8
_U+30EC_U+30A4_U+30E4_U+30FC 1
 62
   179
420
  2234388
370
    15
100
AcDbVertex
100
AcDb2dVertex
 10
89.86547722159288
 20
-149.6450270808478
 30
0.0
  0
VERTEX
  5
EE
330
EB
100
AcDbEntity
  8
_U+30EC_U+30A4_U+30E4_U+30FC 1
 62
   179
420
  2234388
370
    15
100
AcDbVertex
100
AcDb2dVertex
 10
91.01694655792068
 20
-150.2101788463179
 30
0.0
  0
SEQEND
  5
EF
330
EB
100
AcDbEntity
  8
_U+30EC_U+30A4_U+30E4_U+30FC 1
 62
   179
420
  2234388
370
    15
  0
SPLINE
  5
F0
330
1F
100
AcDbEntity
  8
_U+30EC_U+30A4_U+30E4_U+30FC 1
 62
   179
420
  2234388
370
    15
100
AcDbSpline
210
0.0
220
0.0
230
1.0
 70
     8
 71
     3
 72
     8
 73
     4
 74
     0
 42
0.0000000001
 43
0.0000000001
 12
1.0
 22
0.0
 32
0.0
 13
1.0
 23
0.0
 33
0.0
 40
0.0
 40
0.0
 40
0.0
 40
0.0
 40
1.0
 40
1.0
 40
1.0
 40
1.0
 10
121.2009999290097
 20
-153.2493182752863
 30
0.0
 10
119.9281771042139
 20
-153.0655224311482
 30
0.0
 10
119.0021354377788
 20
-151.3676017382812
 30
0.0
 10
119.106554128752
 20
-149.6224132587641
 30
0.0
  0
POLYLINE
  5
F1
330
1F
100
AcDbEntity
  8
_U+30EC_U+30A4_U+30E4_U+30FC 1
 62
   179
420
  2234388
370
    15
100
AcDb2dPolyline
 66
     1
 10
0.0
 20
0.0
 30
0.0
  0
VERTEX
  5
F2
330
F1
100
AcDbEntity
  8
_U+30EC_U+30A4_U+30E4_U+30FC 1
 62
   179
420
  2234388
370
    15
100
AcDbVertex
100
AcDb2dVertex
 10
105.0700293384247
 20
-162.0170809022854
 30
0.0
  0
VERTEX
  5
F3
330
F1
100
AcDbEntity
  8
_U+30EC_U+30A4_U+30E4_U+30FC 1
 62
   179
420
  2234388
370
    15
100
AcDbVertex
100
AcDb2dVertex
 10
121.5602695585042
 20
-153.8721484753259
 30
0.0
  0
VERTEX
  5
F4
330
F1
100
AcDbEntity
  8
_U+30EC_U+30A4_U+30E4_U+30FC 1
 62
   179
420
  2234388
370
    15
100
AcDbVertex
100
AcDb2dVertex
 10
121.2011398860137
 20
-153.2491460205121
 30
0.0
  0
SEQEND
  5
F5
330
F1
100
AcDbEntity
  8
_U+30EC_U+30A4_U+30E4_U+30FC 1
 62
   179
420
  2234388
370
    15
  0
POLYLINE
  5
F6
330
1F
100
AcDbEntity
  8
_U+30EC_U+30A4_U+30E4_U+30FC 1
 62
   179
420
  2234388
370
    15
100
AcDb2dPolyline
 66
     1
 10
0.0
 20
0.0
 30
0.0
  0
VERTEX
  5
F7
330
F6
100
AcDbEntity
  8
_U+30EC_U+30A4_U+30E4_U+30FC 1
 62
   179
420
  2234388
370
    15
100
AcDbVertex
100
AcDb2dVertex
 10
121.2009999290097
 20
-153.2493182752863
 30
0.0
  0
VERTEX
  5
F8
330
F6
100
AcDbEntity
  8
_U+30EC_U+30A4_U+30E4_U+30FC 1
 62
   179
420
  2234388
370
    15
100
AcDbVertex
100
AcDb2dVertex
 10
105.0698786154969
 20
-161.2171620283806
 30
0.0
  0
SEQEND
  5
F9
330
F6
100
AcDbEntity
  8
_U+30EC_U+30A4_U+30E4_U+30FC 1
 62
   179
420
  2234388
370
    15
  0
POLYLINE
  5
FA
330
1F
100
AcDbEntity
  8
_U+30EC_U+30A4_U+30E4_U+30FC 1
 62
   179
420
  2234388
370
    15
100
AcDb2dPolyline
 66
     1
 10
0.0
 20
0.0
 30
0.0
  0
VERTEX
  5
FB
330
FA
100
AcDbEntity
  8
_U+30EC_U+30A4_U+30E4_U+30FC 1
 62
   179
420
  2234388
370
    15
100
AcDbVertex
100
AcDb2dVertex
 10
119.1067371494497
 20
-149.6223055995302
 30
0.0
  0
VERTEX
  5
FC
330
FA
100
AcDbEntity
  8
_U+30EC_U+30A4_U+30E4_U+30FC 1
 62
   179
420
  2234388
370
    15
100
AcDbVertex
100
AcDb2dVertex
 10
105.0700616361945
 20
-156.5550973288897
 30
0.0
  0
SEQEND
  5
FD
330
FA
100
AcDbEntity
  8
_U+30EC_U+30A4_U+30E4_U+30FC 1
 62
   179
420
  2234388
370
    15
  0
POLYLINE
  5
FE
330
1F
100
AcDbEntity
  8
_U+30EC_U+30A4_U+30E4_U+30FC 1
 62
   179
420
  2234388
370
    15
100
AcDb2dPolyline
 66
     1
 10
0.0
 20
0.0
 30
0.0
  0
VERTEX
  5
FF
330
FE
100
AcDbEntity
  8
_U+30EC_U+30A4_U+30E4_U+30FC 1
 62
   179
420
  2234388
370
    15
100
AcDbVertex
100
AcDb2dVertex
 10
120.5219716088669
 20
-152.9854078122311
 30
0.0
  0
VERTEX
  5
100
330
FE
100
AcDbEntity
  8
_U+30EC_U+30A4_U+30E4_U+30FC 1
 62
   179
420
  2234388
370
    15
100
AcDbVertex
100
AcDb2dVertex
 10
121.829708323221
 20
-152.3391240480833
 30
0.0
  0
VERTEX
  5
101
330
FE
100
AcDbEntity
  8
_U+30EC_U+30A4_U+30E4_U+30FC 1
 62
   179
420
  2234388
370
    15
100
AcDbVertex
100
AcDb2dVertex
 10
121.5601941970405
 20
-153.8722938152917
 30
0.0
  0
SEQEND
  5
102
330
FE
100
AcDbEntity
  8
_U+30EC_U+30A4_U+30E4_U+30FC 1
 62
   179
420
  2234388
370
    15
  0
POLYLINE
  5
103
330
1F
100
AcDbEntity
  8
_U+30EC_U+30A4_U+30E4_U+30FC 1
 62
   179
420
  2234388
370
    15
100
AcDb2dPolyline
 66
     1
 10
0.0
 20
0.0
 30
0.0
  0
VERTEX
  5
104
330
103
100
AcDbEntity
  8
_U+30EC_U+30A4_U+30E4_U+30FC 1
 62
   179
420
  2234388
370
    15
100
AcDbVertex
100
AcDb2dVertex
 10
118.747079946713
 20
-148.9994431017204
 30
0.0
  0
VERTEX
  5
105
330
103
100
AcDbEntity
  8
_U+30EC_U+30A4_U+30E4_U+30FC 1
 62
   179
420
  2234388
370
    15
100
AcDbVertex
100
AcDb2dVertex
 10
120.2746029871026
 20
-149.6450270808478
 30
0.0
  0
VERTEX
  5
106
330
103
100
AcDbEntity
  8
_U+30EC_U+30A4_U+30E4_U+30FC 1
 62
   179
420
  2234388
370
    15
100
AcDbVertex
100
AcDb2dVertex
 10
119.1287749946319
 20
-150.2101788463179
 30
0.0
  0
SEQEND
  5
107
330
103
100
AcDbEntity
  8
_U+30EC_U+30A4_U+30E4_U+30FC 1
 62
   179
420
  2234388
370
    15
  0
POLYLINE
  5
108
330
1F
100
AcDbEntity
  8
_U+30EC_U+30A4_U+30E4_U+30FC 1
 62
   179
420
  2234388
370
    15
100
AcDb2dPolyline
 66
     1
 10
0.0
 20
0.0
 30
0.0
  0
VERTEX
  5
109
330
108
100
AcDbEntity
  8
_U+30EC_U+30A4_U+30E4_U+30FC 1
 62
   179
420
  2234388
370
    15
100
AcDbVertex
100
AcDb2dVertex
 10
105.0700293384247
 20
-135.1184805214369
 30
0.0
  0
VERTEX
  5
10A
330
108
100
AcDbEntity
  8
_U+30EC_U+30A4_U+30E4_U+30FC 1
 62
   179
420
  2234388
370
    15
100
AcDbVertex
100
AcDb2dVertex
 10
105.0700293384247
 20
-162.0170809022854
 30
0.0
  0
SEQEND
  5
10B
330
108
100
AcDbEntity
  8
_U+30EC_U+30A4_U+30E4_U+30FC 1
 62
   179
420
  2234388
370
    15
  0
POLYLINE
  5
10C
330
1F
100
AcDbEntity
  8
_U+30EC_U+30A4_U+30E4_U+30FC 1
 62
   179
420
  2234388
370
    15
100
AcDb2dPolyline
 66
     1
 10
0.0
 20
0.0
 30
0.0
  0
VERTEX
  5
10D
330
10C
100
AcDbEntity
  8
_U+30EC_U+30A4_U+30E4_U+30FC 1
 62
   179
420
  2234388
370
    15
100
AcDbVertex
100
AcDb2dVertex
 10
103.247229317179
 20
-155.6374476997381
 30
0.0
  0
VERTEX
  5
10E
330
10C
100
AcDbEntity
  8
_U+30EC_U+30A4_U+30E4_U+30FC 1
 62
   179
420
  2234388
370
    15
100
AcDbVertex
100
AcDb2dVertex
 10
103.247229317179
 20
-134.4362116583533
 30
0.0
  0
VERTEX
  5
10F
330
10C
100
AcDbEntity
  8
_U+30EC_U+30A4_U+30E4_U+30FC 1
 62
   179
420
  2234388
370
    15
100
AcDbVertex
100
AcDb2dVertex
 10
105.0700293384247
 20
-135.1184805214369
 30
0.0
  0
VERTEX
  5
110
330
10C
100
AcDbEntity
  8
_U+30EC_U+30A4_U+30E4_U+30FC 1
 62
   179
420
  2234388
370
    15
100
AcDbVertex
100
AcDb2dVertex
 10
106.8931846351419
 20
-134.4362116583533
 30
0.0
  0
VERTEX
  5
111
330
10C
100
AcDbEntity
  8
_U+30EC_U+30A4_U+30E4_U+30FC 1
 62
   179
420
  2234388
370
    15
100
AcDbVertex
100
AcDb2dVertex
 10
106.8931846351419
 20
-155.6374476997381
 30
0.0
  0
SEQEND
  5
112
330
10C
100
AcDbEntity
  8
_U+30EC_U+30A4_U+30E4_U+30FC 1
 62
   179
420
  2234388
370
    15
  0
POLYLINE
  5
113
330
1F
100
AcDbEntity
  8
_U+30EC_U+30A4_U+30E4_U+30FC 1
 62
   179
420
  2234388
370
    15
100
AcDb2dPolyline
 66
     1
 10
0.0
 20
0.0
 30
0.0
  0
VERTEX
  5
114
330
113
100
AcDbEntity
  8
_U+30EC_U+30A4_U+30E4_U+30FC 1
 62
   179
420
  2234388
370
    15
100
AcDbVertex
100
AcDb2dVertex
 10
103.247229317179
 20
-134.4363516153574
 30
0.0
  0
VERTEX
  5
115
330
113
100
AcDbEntity
  8
_U+30EC_U+30A4_U+30E4_U+30FC 1
 62
   179
420
  2234388
370
    15
100
AcDbVertex
100
AcDb2dVertex
 10
103.982057418259
 20
-134.4363516153574
 30
0.0
  0
VERTEX
  5
116
330
113
100
AcDbEntity
  8
_U+30EC_U+30A4_U+30E4_U+30FC 1
 62
   179
420
  2234388
370
    15
100
AcDbVertex
100
AcDb2dVertex
 10
103.982057418259
 20
-134.7217508615018
 30
0.0
  0
SEQEND
  5
117
330
113
100
AcDbEntity
  8
_U+30EC_U+30A4_U+30E4_U+30FC 1
 62
   179
420
  2234388
370
    15
  0
POLYLINE
  5
118
330
1F
100
AcDbEntity
  8
_U+30EC_U+30A4_U+30E4_U+30FC 1
 62
   179
420
  2234388
370
    15
100
AcDb2dPolyline
 66
     1
 10
0.0
 20
0.0
 30
0.0
  0
VERTEX
  5
119
330
118
100
AcDbEntity
  8
_U+30EC_U+30A4_U+30E4_U+30FC 1
 62
   179
420
  2234388
370
    15
100
AcDbVertex
100
AcDb2dVertex
 10
106.8931846351419
 20
-134.4363516153574
 30
0.0
  0
VERTEX
  5
11A
330
118
100
AcDbEntity
  8
_U+30EC_U+30A4_U+30E4_U+30FC 1
 62
   179
420
  2234388
370
    15
100
AcDbVertex
100
AcDb2dVertex
 10
106.1583457681381
 20
-134.4363516153574
 30
0.0
  0
VERTEX
  5
11B
330
118
100
AcDbEntity
  8
_U+30EC_U+30A4_U+30E4_U+30FC 1
 62
   179
420
  2234388
370
    15
100
AcDbVertex
100
AcDb2dVertex
 10
106.1583457681381
 20
-134.7217508615018
 30
0.0
  0
SEQEND
  5
11C
330
118
100
AcDbEntity
  8
_U+30EC_U+30A4_U+30E4_U+30FC 1
 62
   179
420
  2234388
370
    15
  0
POLYLINE
  5
11D
330
1F
100
AcDbEntity
  8
_U+30EC_U+30A4_U+30E4_U+30FC 1
 62
   179
420
  2234388
370
    15
100
AcDb2dPolyline
 66
     1
 10
0.0
 20
0.0
 30
0.0
  0
VERTEX
  5
11E
330
11D
100
AcDbEntity
  8
_U+30EC_U+30A4_U+30E4_U+30FC 1
 62
   179
420
  2234388
370
    15
100
AcDbVertex
100
AcDb2dVertex
 10
103.2548085272465
 20
-154.858866885995
 30
0.0
  0
VERTEX
  5
11F
330
11D
100
AcDbEntity
  8
_U+30EC_U+30A4_U+30E4_U+30FC 1
 62
   179
420
  2234388
370
    15
100
AcDbVertex
100
AcDb2dVertex
 10
91.3930002619828
 20
-148.9995830587245
 30
0.0
  0
VERTEX
  5
120
330
11D
100
AcDbEntity
  8
_U+30EC_U+30A4_U+30E4_U+30FC 1
 62
   179
420
  2234388
370
    15
100
AcDbVertex
100
AcDb2dVertex
 10
91.03317080447152
 20
-149.6222356210282
 30
0.0
  0
SEQEND
  5
121
330
11D
100
AcDbEntity
  8
_U+30EC_U+30A4_U+30E4_U+30FC 1
 62
   179
420
  2234388
370
    15
  0
POLYLINE
  5
122
330
1F
100
AcDbEntity
  8
_U+30EC_U+30A4_U+30E4_U+30FC 1
 62
   179
420
  2234388
370
    15
100
AcDb2dPolyline
 66
     1
 10
0.0
 20
0.0
 30
0.0
  0
VERTEX
  5
123
330
122
100
AcDbEntity
  8
_U+30EC_U+30A4_U+30E4_U+30FC 1
 62
   179
420
  2234388
370
    15
100
AcDbVertex
100
AcDb2dVertex
 10
106.8852501496025
 20
-154.858866885995
 30
0.0
  0
VERTEX
  5
124
330
122
100
AcDbEntity
  8
_U+30EC_U+30A4_U+30E4_U+30FC 1
 62
   179
420
  2234388
370
    15
100
AcDbVertex
100
AcDb2dVertex
 10
118.7470476489428
 20
-148.9995830587245
 30
0.0
  0
VERTEX
  5
125
330
122
100
AcDbEntity
  8
_U+30EC_U+30A4_U+30E4_U+30FC 1
 62
   179
420
  2234388
370
    15
100
AcDbVertex
100
AcDb2dVertex
 10
119.1068771064538
 20
-149.6222356210282
 30
0.0
  0
SEQEND
  5
126
330
122
100
AcDbEntity
  8
_U+30EC_U+30A4_U+30E4_U+30FC 1
 62
   179
420
  2234388
370
    15
  0
ENDSEC
  0
SECTION
  2
OBJECTS
  0
DICTIONARY
  5
C
330
0
100
AcDbDictionary
281
     1
  3
ACAD_GROUP
350
D
  3
ACAD_LAYOUT
350
1A
  3
ACAD_MATERIAL
350
3B
  3
ACAD_MLEADERSTYLE
350
128
  3
ACAD_MLINESTYLE
350
17
  3
ACAD_PLOTSETTINGS
350
19
  3
ACAD_PLOTSTYLENAME
350
E
  3
ACAD_TABLESTYLE
350
127
  3
ACAD_VISUALSTYLE
350
2A
  0
SUN
  5
3F
330
29
100
AcDbSun
 90
        1
290
     0
 63
     7
421
 16777215
 40
1.0
291
     1
 91
  2455826
 92
 54000000
292
     0
 70
     2
 71
   256
280
     1
  0
DICTIONARY
  5
D
102
{ACAD_REACTORS
330
C
102
}
330
C
100
AcDbDictionary
281
     1
  0
DICTIONARY
  5
1A
102
{ACAD_REACTORS
330
C
102
}
330
C
100
AcDbDictionary
281
     1
  3
Layout1
350
1E
  3
Layout2
350
26
  3
Model
350
22
  0
DICTIONARY
  5
3B
102
{ACAD_REACTORS
330
C
102
}
330
C
100
AcDbDictionary
281
     1
  3
ByBlock
350
3D
  3
ByLayer
350
3C
  3
Global
350
3E
  0
DICTIONARY
  5
128
102
{ACAD_REACTORS
330
C
102
}
330
C
100
AcDbDictionary
281
     1
  0
DICTIONARY
  5
17
102
{ACAD_REACTORS
330
C
102
}
330
C
100
AcDbDictionary
281
     1
  3
Standard
350
18
  0
DICTIONARY
  5
19
102
{ACAD_REACTORS
330
C
102
}
330
C
100
AcDbDictionary
281
     1
  0
ACDBDICTIONARYWDFLT
  5
E
102
{ACAD_REACTORS
330
C
102
}
330
C
100
AcDbDictionary
281
     1
  3
Normal
350
F
100
AcDbDictionaryWithDefault
340
F
  0
DICTIONARY
  5
127
102
{ACAD_REACTORS
330
C
102
}
330
C
100
AcDbDictionary
281
     1
  0
DICTIONARY
  5
2A
102
{ACAD_REACTORS
330
C
102
}
330
C
100
AcDbDictionary
281
     1
  3
2dWireframe
350
2F
  3
3D Hidden
350
31
  3
3dWireframe
350
30
  3
Basic
350
32
  3
Brighten
350
36
  3
ColorChange
350
3A
  3
Conceptual
350
34
  3
Dim
350
35
  3
Facepattern
350
39
  3
Flat
350
2B
  3
FlatWithEdges
350
2C
  3
Gouraud
350
2D
  3
GouraudWithEdges
350
2E
  3
Linepattern
350
38
  3
Realistic
350
33
  3
Thicken
350
37
  0
LAYOUT
  5
1E
102
{ACAD_REACTORS
330
1A
102
}
330
1A
100
AcDbPlotSettings
  1

  2
none_device
  4

  6

 40
0.0
 41
0.0
 42
0.0
 43
0.0
 44
0.0
 45
0.0
 46
0.0
 47
0.0
 48
0.0
 49
0.0
140
0.0
141
0.0
142
1.0
143
1.0
 70
   688
 72
     0
 73
     0
 74
     5
  7

 75
    16
 76
     0
 77
     2
 78
   300
147
1.0
148
0.0
149
0.0
100
AcDbLayout
  1
Layout1
 70
     1
 71
     1
 10
0.0
 20
0.0
 11
12.0
 21
9.0
 12
0.0
 22
0.0
 32
0.0
 14
1.000000000000000E+20
 24
1.000000000000000E+20
 34
1.000000000000000E+20
 15
-1.000000000000000E+20
 25
-1.000000000000000E+20
 35
-1.000000000000000E+20
146
0.0
 13
0.0
 23
0.0
 33
0.0
 16
1.0
 26
0.0
 36
0.0
 17
0.0
 27
1.0
 37
0.0
 76
     0
330
1B
  0
LAYOUT
  5
26
102
{ACAD_REACTORS
330
1A
102
}
330
1A
100
AcDbPlotSettings
  1

  2
none_device
  4

  6

 40
0.0
 41
0.0
 42
0.0
 43
0.0
 44
0.0
 45
0.0
 46
0.0
 47
0.0
 48
0.0
 49
0.0
140
0.0
141
0.0
142
1.0
143
1.0
 70
   688
 72
     0
 73
     0
 74
     5
  7

 75
    16
 76
     0
 77
     2
 78
   300
147
1.0
148
0.0
149
0.0
100
AcDbLayout
  1
Layout2
 70
     1
 71
     2
 10
0.0
 20
0.0
 11
0.0
 21
0.0
 12
0.0
 22
0.0
 32
0.0
 14
0.0
 24
0.0
 34
0.0
 15
0.0
 25
0.0
 35
0.0
146
0.0
 13
0.0
 23
0.0
 33
0.0
 16
1.0
 26
0.0
 36
0.0
 17
0.0
 27
1.0
 37
0.0
 76
     0
330
23
  0
LAYOUT
  5
22
102
{ACAD_REACTORS
330
1A
102
}
330
1A
100
AcDbPlotSettings
  1

  2
none_device
  4

  6

 40
0.0
 41
0.0
 42
0.0
 43
0.0
 44
0.0
 45
0.0
 46
0.0
 47
0.0
 48
0.0
 49
0.0
140
0.0
141
0.0
142
1.0
143
1.0
 70
  1712
 72
     0
 73
     0
 74
     0
  7

 75
     0
 76
     0
 77
     2
 78
   300
147
1.0
148
0.0
149
0.0
100
AcDbLayout
  1
Model
 70
     1
 71
     0
 10
0.0
 20
0.0
 11
12.0
 21
9.0
 12
0.0
 22
0.0
 32
0.0
 14
1.000000000000000E+20
 24
1.000000000000000E+20
 34
1.000000000000000E+20
 15
-1.000000000000000E+20
 25
-1.000000000000000E+20
 35
-1.000000000000000E+20
146
0.0
 13
0.0
 23
0.0
 33
0.0
 16
1.0
 26
0.0
 36
0.0
 17
0.0
 27
1.0
 37
0.0
 76
     0
330
1F
331
29
  0
MATERIAL
  5
3D
102
{ACAD_REACTORS
330
3B
102
}
330
3B
100
AcDbMaterial
  1
ByBlock
 72
     1
 94
      127
  0
MATERIAL
  5
3C
102
{ACAD_REACTORS
330
3B
102
}
330
3B
100
AcDbMaterial
  1
ByLayer
 72
     1
 94
      127
  0
MATERIAL
  5
3E
102
{ACAD_REACTORS
330
3B
102
}
330
3B
100
AcDbMaterial
  1
Global
 72
     1
 94
      127
  0
MLINESTYLE
  5
18
102
{ACAD_REACTORS
330
17
102
}
330
17
100
AcDbMlineStyle
  2
Standard
 70
     0
  3

 62
   256
 51
90.0
 52
90.0
 71
     2
 49
0.5
 62
   256
  6
BYLAYER
 49
-0.5
 62
   256
  6
BYLAYER
  0
ACDBPLACEHOLDER
  5
F
102
{ACAD_REACTORS
330
E
102
}
330
E
  0
VISUALSTYLE
  5
2F
102
{ACAD_REACTORS
330
2A
102
}
330
2A
100
AcDbVisualStyle
  2
2dWireframe
 70
     4
177
     2
291
     0
 71
     0
176
     1
 72
     2
176
     1
 73
     0
176
     1
 90
        0
176
     1
 40
-0.6
176
     1
 41
-30.0
176
     1
 62
     5
 63
     7
421
 16777215
176
     1
 74
     1
176
     1
 91
        4
176
     1
 64
     7
176
     1
 65
   257
176
     1
 75
     1
176
     1
175
     1
176
     1
 42
1.0
176
     1
 92
        0
176
     1
 66
   257
176
     1
 43
1.0
176
     1
 76
     1
176
     1
 77
     6
176
     1
 78
     2
176
     1
 67
     7
176
     1
 79
     5
176
     1
170
     0
176
     1
171
     0
176
     1
290
     0
176
     1
 93
        1
176
     1
 44
0.0
176
     1
173
     0
176
     1
  0
VISUALSTYLE
  5
31
102
{ACAD_REACTORS
330
2A
102
}
330
2A
100
AcDbVisualStyle
  2
3D Hidden
 70
     6
177
     2
291
     0
 71
     1
176
     1
 72
     2
176
     1
 73
     2
176
     1
 90
        0
176
     1
 40
-0.6
176
     1
 41
-30.0
176
     1
 62
     5
 63
     7
421
 16777215
176
     1
 74
     2
176
     1
 91
        2
176
     1
 64
     7
176
     1
 65
   257
176
     1
 75
     2
176
     1
175
     1
176
     1
 42
40.0
176
     1
 92
        0
176
     1
 66
   257
176
     1
 43
1.0
176
     1
 76
     1
176
     1
 77
     6
176
     1
 78
     2
176
     1
 67
     7
176
     1
 79
     3
176
     1
170
     0
176
     1
171
     0
176
     1
290
     0
176
     1
 93
        1
176
     1
 44
0.0
176
     1
173
     0
176
     1
  0
VISUALSTYLE
  5
30
102
{ACAD_REACTORS
330
2A
102
}
330
2A
100
AcDbVisualStyle
  2
3dWireframe
 70
     5
177
     2
291
     0
 71
     0
176
     1
 72
     2
176
     1
 73
     0
176
     1
 90
        0
176
     1
 40
-0.6
176
     1
 41
-30.0
176
     1
 62
     5
 63
     7
421
 16777215
176
     1
 74
     1
176
     1
 91
        4
176
     1
 64
     7
176
     1
 65
   257
176
     1
 75
     1
176
     1
175
     1
176
     1
 42
1.0
176
     1
 92
        0
176
     1
 66
   257
176
     1
 43
1.0
176
     1
 76
     1
176
     1
 77
     6
176
     1
 78
     2
176
     1
 67
     7
176
     1
 79
     5
176
     1
170
     0
176
     1
171
     0
176
     1
290
     0
176
     1
 93
        1
176
     1
 44
0.0
176
     1
173
     0
176
     1
  0
VISUALSTYLE
  5
32
102
{ACAD_REACTORS
330
2A
102
}
330
2A
100
AcDbVisualStyle
  2
Basic
 70
     7
177
     2
291
     1
 71
     1
176
     1
 72
     0
176
     1
 73
     1
176
     1
 90
        0
176
     1
 40
-0.6
176
     1
 41
-30.0
176
     1
 62
     5
 63
     7
421
 16777215
176
     1
 74
     0
176
     1
 91
        4
176
     1
 64
     7
176
     1
 65
   257
176
     1
 75
     1
176
     1
175
     1
176
     1
 42
1.0
176
     1
 92
        8
176
     1
 66
     7
176
     1
 43
1.0
176
     1
 76
     1
176
     1
 77
     6
176
     1
 78
     2
176
     1
 67
     7
176
     1
 79
     5
176
     1
170
     0
176
     1
171
     0
176
     1
290
     0
176
     1
 93
        1
176
     1
 44
0.0
176
     1
173
     0
176
     1
  0
VISUALSTYLE
  5
36
102
{ACAD_REACTORS
330
2A
102
}
330
2A
100
AcDbVisualStyle
  2
Brighten
 70
    12
177
     2
291
     1
 71
     2
176
     1
 72
     2
176
     1
 73
     0
176
     1
 90
        0
176
     1
 40
-0.6
176
     1
 41
-30.0
176
     1
 62
     5
 63
     7
421
 16777215
176
     1
 74
     1
176
     1
 91
        4
176
     1
 64
     7
176
     1
 65
   257
176
     1
 75
     1
176
     1
175
     1
176
     1
 42
1.0
176
     1
 92
        8
176
     1
 66
     7
176
     1
 43
1.0
176
     1
 76
     1
176
     1
 77
     6
176
     1
 78
     2
176
     1
 67
     7
176
     1
 79
     5
176
     1
170
     0
176
     1
171
     0
176
     1
290
     0
176
     1
 93
        1
176
     1
 44
50.0
176
     1
173
     0
176
     1
  0
VISUALSTYLE
  5
3A
102
{ACAD_REACTORS
330
2A
102
}
330
2A
100
AcDbVisualStyle
  2
ColorChange
 70
    16
177
     2
291
     1
 71
     2
176
     1
 72
     2
176
     1
 73
     3
176
     1
 90
        0
176
     1
 40
-0.6
176
     1
 41
-30.0
176
     1
 62
     5
 63
     8
421
  8421504
176
     1
 74
     1
176
     1
 91
        4
176
     1
 64
     7
176
     1
 65
   257
176
     1
 75
     1
176
     1
175
     1
176
     1
 42
1.0
176
     1
 92
        8
176
     1
 66
     8
424
  8421504
176
     1
 43
1.0
176
     1
 76
     1
176
     1
 77
     6
176
     1
 78
     2
176
     1
 67
     7
176
     1
 79
     5
176
     1
170
     0
176
     1
171
     0
176
     1
290
     0
176
     1
 93
        1
176
     1
 44
0.0
176
     1
173
     0
176
     1
  0
VISUALSTYLE
  5
34
102
{ACAD_REACTORS
330
2A
102
}
330
2A
100
AcDbVisualStyle
  2
Conceptual
 70
     9
177
     2
291
     0
 71
     3
176
     1
 72
     2
176
     1
 73
     0
176
     1
 90
        0
176
     1
 40
-0.6
176
     1
 41
-30.0
176
     1
 62
     5
 63
     7
421
 16777215
176
     1
 74
     2
176
     1
 91
        2
176
     1
 64
     7
176
     1
 65
   257
176
     1
 75
     1
176
     1
175
     1
176
     1
 42
40.0
176
     1
 92
        8
176
     1
 66
     7
176
     1
 43
1.0
176
     1
 76
     1
176
     1
 77
     6
176
     1
 78
     2
176
     1
 67
     7
176
     1
 79
     3
176
     1
170
     0
176
     1
171
     0
176
     1
290
     0
176
     1
 93
        1
176
     1
 44
0.0
176
     1
173
     0
176
     1
  0
VISUALSTYLE
  5
35
102
{ACAD_REACTORS
330
2A
102
}
330
2A
100
AcDbVisualStyle
  2
Dim
 70
    11
177
     2
291
     1
 71
     2
176
     1
 72
     2
176
     1
 73
     0
176
     1
 90
        0
176
     1
 40
-0.6
176
     1
 41
-30.0
176
     1
 62
     5
 63
     7
421
 16777215
176
     1
 74
     1
176
     1
 91
        4
176
     1
 64
     7
176
     1
 65
   257
176
     1
 75
     1
176
     1
175
     1
176
     1
 42
1.0
176
     1
 92
        8
176
     1
 66
     7
176
     1
 43
1.0
176
     1
 76
     1
176
     1
 77
     6
176
     1
 78
     2
176
     1
 67
     7
176
     1
 79
     5
176
     1
170
     0
176
     1
171
     0
176
     1
290
     0
176
     1
 93
        1
176
     1
 44
-50.0
176
     1
173
     0
176
     1
  0
VISUALSTYLE
  5
39
102
{ACAD_REACTORS
330
2A
102
}
330
2A
100
AcDbVisualStyle
  2
Facepattern
 70
    15
177
     2
291
     1
 71
     2
176
     1
 72
     2
176
     1
 73
     0
176
     1
 90
        0
176
     1
 40
-0.6
176
     1
 41
-30.0
176
     1
 62
     5
 63
     7
421
 16777215
176
     1
 74
     1
176
     1
 91
        4
176
     1
 64
     7
176
     1
 65
   257
176
     1
 75
     1
176
     1
175
     1
176
     1
 42
1.0
176
     1
 92
        8
176
     1
 66
     7
176
     1
 43
1.0
176
     1
 76
     1
176
     1
 77
     6
176
     1
 78
     2
176
     1
 67
     7
176
     1
 79
     5
176
     1
170
     0
176
     1
171
     0
176
     1
290
     0
176
     1
 93
        1
176
     1
 44
0.0
176
     1
173
     0
176
     1
  0
VISUALSTYLE
  5
2B
102
{ACAD_REACTORS
330
2A
102
}
330
2A
100
AcDbVisualStyle
  2
Flat
 70
     0
177
     2
291
     1
 71
     2
176
     1
 72
     1
176
     1
 73
     1
176
     1
 90
        2
176
     1
 40
-0.6
176
     1
 41
30.0
176
     1
 62
     5
 63
     7
421
 16777215
176
     1
 74
     0
176
     1
 91
        4
176
     1
 64
     7
176
     1
 65
   257
176
     1
 75
     1
176
     1
175
     1
176
     1
 42
1.0
176
     1
 92
        8
176
     1
 66
     7
176
     1
 43
1.0
176
     1
 76
     1
176
     1
 77
     6
176
     1
 78
     2
176
     1
 67
     7
176
     1
 79
     5
176
     1
170
     0
176
     1
171
     0
176
     1
290
     0
176
     1
 93
       13
176
     1
 44
0.0
176
     1
173
     0
176
     1
  0
VISUALSTYLE
  5
2C
102
{ACAD_REACTORS
330
2A
102
}
330
2A
100
AcDbVisualStyle
  2
FlatWithEdges
 70
     1
177
     2
291
     1
 71
     2
176
     1
 72
     1
176
     1
 73
     1
176
     1
 90
        2
176
     1
 40
-0.6
176
     1
 41
30.0
176
     1
 62
     5
 63
     7
421
 16777215
176
     1
 74
     1
176
     1
 91
        4
176
     1
 64
     7
176
     1
 65
   257
176
     1
 75
     1
176
     1
175
     1
176
     1
 42
1.0
176
     1
 92
        0
176
     1
 66
   257
176
     1
 43
1.0
176
     1
 76
     1
176
     1
 77
     6
176
     1
 78
     2
176
     1
 67
     7
176
     1
 79
     5
176
     1
170
     0
176
     1
171
     0
176
     1
290
     0
176
     1
 93
       13
176
     1
 44
0.0
176
     1
173
     0
176
     1
  0
VISUALSTYLE
  5
2D
102
{ACAD_REACTORS
330
2A
102
}
330
2A
100
AcDbVisualStyle
  2
Gouraud
 70
     2
177
     2
291
     1
 71
     2
176
     1
 72
     2
176
     1
 73
     1
176
     1
 90
        2
176
     1
 40
-0.6
176
     1
 41
30.0
176
     1
 62
     5
 63
     7
421
 16777215
176
     1
 74
     0
176
     1
 91
        4
176
     1
 64
     7
176
     1
 65
   257
176
     1
 75
     1
176
     1
175
     1
176
     1
 42
1.0
176
     1
 92
        0
176
     1
 66
     7
176
     1
 43
1.0
176
     1
 76
     1
176
     1
 77
     6
176
     1
 78
     2
176
     1
 67
     7
176
     1
 79
     5
176
     1
170
     0
176
     1
171
     0
176
     1
290
     0
176
     1
 93
       13
176
     1
 44
0.0
176
     1
173
     0
176
     1
  0
VISUALSTYLE
  5
2E
102
{ACAD_REACTORS
330
2A
102
}
330
2A
100
AcDbVisualStyle
  2
GouraudWithEdges
 70
     3
177
     2
291
     1
 71
     2
176
     1
 72
     2
176
     1
 73
     1
176
     1
 90
        2
176
     1
 40
-0.6
176
     1
 41
30.0
176
     1
 62
     5
 63
     7
421
 16777215
176
     1
 74
     1
176
     1
 91
        4
176
     1
 64
     7
176
     1
 65
   257
176
     1
 75
     1
176
     1
175
     1
176
     1
 42
1.0
176
     1
 92
        0
176
     1
 66
   257
176
     1
 43
1.0
176
     1
 76
     1
176
     1
 77
     6
176
     1
 78
     2
176
     1
 67
     7
176
     1
 79
     5
176
     1
170
     0
176
     1
171
     0
176
     1
290
     0
176
     1
 93
       13
176
     1
 44
0.0
176
     1
173
     0
176
     1
  0
VISUALSTYLE
  5
38
102
{ACAD_REACTORS
330
2A
102
}
330
2A
100
AcDbVisualStyle
  2
Linepattern
 70
    14
177
     2
291
     1
 71
     2
176
     1
 72
     2
176
     1
 73
     0
176
     1
 90
        0
176
     1
 40
-0.6
176
     1
 41
-30.0
176
     1
 62
     5
 63
     7
421
 16777215
176
     1
 74
     1
176
     1
 91
        4
176
     1
 64
     7
176
     1
 65
   257
176
     1
 75
     7
176
     1
175
     7
176
     1
 42
1.0
176
     1
 92
        8
176
     1
 66
     7
176
     1
 43
1.0
176
     1
 76
     1
176
     1
 77
     6
176
     1
 78
     2
176
     1
 67
     7
176
     1
 79
     5
176
     1
170
     0
176
     1
171
     0
176
     1
290
     0
176
     1
 93
        1
176
     1
 44
0.0
176
     1
173
     0
176
     1
  0
VISUALSTYLE
  5
33
102
{ACAD_REACTORS
330
2A
102
}
330
2A
100
AcDbVisualStyle
  2
Realistic
 70
     8
177
     2
291
     0
 71
     2
176
     1
 72
     2
176
     1
 73
     0
176
     1
 90
        0
176
     1
 40
-0.6
176
     1
 41
-30.0
176
     1
 62
     5
 63
     7
421
 16777215
176
     1
 74
     1
176
     1
 91
        0
176
     1
 64
     7
176
     1
 65
   257
176
     1
 75
     1
176
     1
175
     1
176
     1
 42
1.0
176
     1
 92
        8
176
     1
 66
     8
424
  7895160
176
     1
 43
1.0
176
     1
 76
     1
176
     1
 77
     6
176
     1
 78
     2
176
     1
 67
     7
176
     1
 79
     5
176
     1
170
     0
176
     1
171
     0
176
     1
290
     0
176
     1
 93
       13
176
     1
 44
0.0
176
     1
173
     0
176
     1
  0
VISUALSTYLE
  5
37
102
{ACAD_REACTORS
330
2A
102
}
330
2A
100
AcDbVisualStyle
  2
Thicken
 70
    13
177
     2
291
     1
 71
     2
176
     1
 72
     2
176
     1
 73
     0
176
     1
 90
        0
176
     1
 40
-0.6
176
     1
 41
-30.0
176
     1
 62
     5
 63
     7
421
 16777215
176
     1
 74
     1
176
     1
 91
        4
176
     1
 64
     7
176
     1
 65
   257
176
     1
 75
     1
176
     1
175
     1
176
     1
 42
1.0
176
     1
 92
       12
176
     1
 66
     7
176
     1
 43
1.0
176
     1
 76
     1
176
     1
 77
     6
176
     1
 78
     2
176
     1
 67
     7
176
     1
 79
     5
176
     1
170
     0
176
     1
171
     0
176
     1
290
     0
176
     1
 93
        1
176
     1
 44
0.0
176
     1
173
     0
176
     1
  0
ENDSEC
  0
EOF
