  0
SECTION
  2
HEADER
  9
$ACADVER
  1
AC1024
  9
$ACADMAINTVER
 70
     6
  9
$DWGCODEPAGE
  3
UNDEFINED
  9
$INSBASE
 10
0.0
 20
0.0
 30
0.0
  9
$EXTMIN
 10
1.000000000000000E+20
 20
1.000000000000000E+20
 30
1.000000000000000E+20
  9
$EXTMAX
 10
-1.000000000000000E+20
 20
-1.000000000000000E+20
 30
-1.000000000000000E+20
  9
$LIMMIN
 10
0.0
 20
0.0
  9
$LIMMAX
 10
12.0
 20
9.0
  9
$ORTHOMODE
 70
     0
  9
$REGENMODE
 70
     1
  9
$FILLMODE
 70
     1
  9
$QTEXTMODE
 70
     0
  9
$MIRRTEXT
 70
     1
  9
$LTSCALE
 40
1.0
  9
$ATTMODE
 70
     1
  9
$TEXTSIZE
 40
0.2
  9
$TRACEWID
 40
0.05
  9
$TEXTSTYLE
  7
Standard
  9
$CLAYER
  8
0
  9
$CELTYPE
  6
ByLayer
  9
$CECOLOR
 62
   256
  9
$CELTSCALE
 40
1.0
  9
$DISPSILH
 70
     0
  9
$DIMSCALE
 40
1.0
  9
$DIMASZ
 40
0.18
  9
$DIMEXO
 40
0.0625
  9
$DIMDLI
 40
0.38
  9
$DIMRND
 40
0.0
  9
$DIMDLE
 40
0.0
  9
$DIMEXE
 40
0.18
  9
$DIMTP
 40
0.0
  9
$DIMTM
 40
0.0
  9
$DIMTXT
 40
0.18
  9
$DIMCEN
 40
0.09
  9
$DIMTSZ
 40
0.0
  9
$DIMTOL
 70
     0
  9
$DIMLIM
 70
     0
  9
$DIMTIH
 70
     1
  9
$DIMTOH
 70
     1
  9
$DIMSE1
 70
     0
  9
$DIMSE2
 70
     0
  9
$DIMTAD
 70
     0
  9
$DIMZIN
 70
     0
  9
$DIMBLK
  1

  9
$DIMASO
 70
     1
  9
$DIMSHO
 70
     1
  9
$DIMPOST
  1

  9
$DIMAPOST
  1

  9
$DIMALT
 70
     0
  9
$DIMALTD
 70
     2
  9
$DIMALTF
 40
25.4
  9
$DIMLFAC
 40
1.0
  9
$DIMTOFL
 70
     0
  9
$DIMTVP
 40
0.0
  9
$DIMTIX
 70
     0
  9
$DIMSOXD
 70
     0
  9
$DIMSAH
 70
     0
  9
$DIMBLK1
  1

  9
$DIMBLK2
  1

  9
$DIMSTYLE
  2
Standard
  9
$DIMCLRD
 70
     0
  9
$DIMCLRE
 70
     0
  9
$DIMCLRT
 70
     0
  9
$DIMTFAC
 40
1.0
  9
$DIMGAP
 40
0.09
  9
$DIMJUST
 70
     0
  9
$DIMSD1
 70
     0
  9
$DIMSD2
 70
     0
  9
$DIMTOLJ
 70
     1
  9
$DIMTZIN
 70
     0
  9
$DIMALTZ
 70
     0
  9
$DIMALTTZ
 70
     0
  9
$DIMUPT
 70
     0
  9
$DIMDEC
 70
     4
  9
$DIMTDEC
 70
     4
  9
$DIMALTU
 70
     2
  9
$DIMALTTD
 70
     2
  9
$DIMTXSTY
  7
Standard
  9
$DIMAUNIT
 70
     0
  9
$DIMADEC
 70
     0
  9
$DIMALTRND
 40
0.0
  9
$DIMAZIN
 70
     0
  9
$DIMDSEP
 70
    46
  9
$DIMATFIT
 70
     3
  9
$DIMFRAC
 70
     0
  9
$DIMLDRBLK
  1

  9
$DIMLUNIT
 70
     2
  9
$DIMLWD
 70
    -2
  9
$DIMLWE
 70
    -2
  9
$DIMTMOVE
 70
     0
  9
$DIMFXL
 40
1.0
  9
$DIMFXLON
 70
     0
  9
$DIMJOGANG
 40
0.7853981633974483
  9
$DIMTFILL
 70
     0
  9
$DIMTFILLCLR
 70
     0
  9
$DIMARCSYM
 70
     0
  9
$DIMLTYPE
  6

  9
$DIMLTEX1
  6

  9
$DIMLTEX2
  6

  9
$DIMTXTDIRECTION
 70
     0
  9
$LUNITS
 70
     2
  9
$LUPREC
 70
     4
  9
$SKETCHINC
 40
0.1
  9
$FILLETRAD
 40
0.5
  9
$AUNITS
 70
     0
  9
$AUPREC
 70
     0
  9
$MENU
  1
.
  9
$ELEVATION
 40
0.0
  9
$PELEVATION
 40
0.0
  9
$THICKNESS
 40
0.0
  9
$LIMCHECK
 70
     0
  9
$CHAMFERA
 40
0.5
  9
$CHAMFERB
 40
0.5
  9
$CHAMFERC
 40
1.0
  9
$CHAMFERD
 40
0.0
  9
$SKPOLY
 70
     0
  9
$TDCREATE
 40
2458263.578344908
  9
$TDUCREATE
 40
2458263.203344908
  9
$TDUPDATE
 40
2458263.578344908
  9
$TDUUPDATE
 40
2458263.203344908
  9
$TDINDWG
 40
0.0000000116
  9
$TDUSRTIMER
 40
0.0000000116
  9
$USRTIMER
 70
     1
  9
$ANGBASE
 50
0.0
  9
$ANGDIR
 70
     0
  9
$PDMODE
 70
     0
  9
$PDSIZE
 40
0.0
  9
$PLINEWID
 40
0.0
  9
$SPLFRAME
 70
     0
  9
$SPLINETYPE
 70
     6
  9
$SPLINESEGS
 70
     8
  9
$HANDSEED
  5
151
  9
$SURFTAB1
 70
     6
  9
$SURFTAB2
 70
     6
  9
$SURFTYPE
 70
     6
  9
$SURFU
 70
     6
  9
$SURFV
 70
     6
  9
$UCSBASE
  2

  9
$UCSNAME
  2

  9
$UCSORG
 10
0.0
 20
0.0
 30
0.0
  9
$UCSXDIR
 10
1.0
 20
0.0
 30
0.0
  9
$UCSYDIR
 10
0.0
 20
1.0
 30
0.0
  9
$UCSORTHOREF
  2

  9
$UCSORTHOVIEW
 70
     0
  9
$UCSORGTOP
 10
0.0
 20
0.0
 30
0.0
  9
$UCSORGBOTTOM
 10
0.0
 20
0.0
 30
0.0
  9
$UCSORGLEFT
 10
0.0
 20
0.0
 30
0.0
  9
$UCSORGRIGHT
 10
0.0
 20
0.0
 30
0.0
  9
$UCSORGFRONT
 10
0.0
 20
0.0
 30
0.0
  9
$UCSORGBACK
 10
0.0
 20
0.0
 30
0.0
  9
$PUCSBASE
  2

  9
$PUCSNAME
  2

  9
$PUCSORG
 10
0.0
 20
0.0
 30
0.0
  9
$PUCSXDIR
 10
1.0
 20
0.0
 30
0.0
  9
$PUCSYDIR
 10
0.0
 20
1.0
 30
0.0
  9
$PUCSORTHOREF
  2

  9
$PUCSORTHOVIEW
 70
     0
  9
$PUCSORGTOP
 10
0.0
 20
0.0
 30
0.0
  9
$PUCSORGBOTTOM
 10
0.0
 20
0.0
 30
0.0
  9
$PUCSORGLEFT
 10
0.0
 20
0.0
 30
0.0
  9
$PUCSORGRIGHT
 10
0.0
 20
0.0
 30
0.0
  9
$PUCSORGFRONT
 10
0.0
 20
0.0
 30
0.0
  9
$PUCSORGBACK
 10
0.0
 20
0.0
 30
0.0
  9
$USERI1
 70
     0
  9
$USERI2
 70
     0
  9
$USERI3
 70
     0
  9
$USERI4
 70
     0
  9
$USERI5
 70
     0
  9
$USERR1
 40
0.0
  9
$USERR2
 40
0.0
  9
$USERR3
 40
0.0
  9
$USERR4
 40
0.0
  9
$USERR5
 40
0.0
  9
$WORLDVIEW
 70
     1
  9
$SHADEDGE
 70
     3
  9
$SHADEDIF
 70
    70
  9
$TILEMODE
 70
     1
  9
$MAXACTVP
 70
    64
  9
$PINSBASE
 10
0.0
 20
0.0
 30
0.0
  9
$PLIMCHECK
 70
     0
  9
$PEXTMIN
 10
1.000000000000000E+20
 20
1.000000000000000E+20
 30
1.000000000000000E+20
  9
$PEXTMAX
 10
-1.000000000000000E+20
 20
-1.000000000000000E+20
 30
-1.000000000000000E+20
  9
$PLIMMIN
 10
0.0
 20
0.0
  9
$PLIMMAX
 10
12.0
 20
9.0
  9
$UNITMODE
 70
     0
  9
$VISRETAIN
 70
     1
  9
$PLINEGEN
 70
     0
  9
$PSLTSCALE
 70
     1
  9
$TREEDEPTH
 70
  3020
  9
$CMLSTYLE
  2
Standard
  9
$CMLJUST
 70
     0
  9
$CMLSCALE
 40
1.0
  9
$PROXYGRAPHICS
 70
     1
  9
$MEASUREMENT
 70
     0
  9
$CELWEIGHT
370
    -1
  9
$ENDCAPS
280
     0
  9
$JOINSTYLE
280
     0
  9
$LWDISPLAY
290
     1
  9
$INSUNITS
 70
     1
  9
$HYPERLINKBASE
  1

  9
$STYLESHEET
  1

  9
$XEDIT
290
     1
  9
$CEPSNTYPE
380
     0
  9
$PSTYLEMODE
290
     1
  9
$FINGERPRINTGUID
  2
{79CE4BE7-79C0-F6F8-94E7-19246CEC87D3}
  9
$VERSIONGUID
  2
{FAEB1C32-E019-11D5-929B-00C0DF256EC4}
  9
$EXTNAMES
290
     1
  9
$PSVPSCALE
 40
0.0
  9
$OLESTARTUP
290
     0
  9
$SORTENTS
280
   127
  9
$INDEXCTL
280
     0
  9
$HIDETEXT
280
     1
  9
$XCLIPFRAME
280
     2
  9
$HALOGAP
280
     0
  9
$OBSCOLOR
 70
   257
  9
$OBSLTYPE
280
     0
  9
$INTERSECTIONDISPLAY
280
     0
  9
$INTERSECTIONCOLOR
 70
   257
  9
$DIMASSOC
280
     2
  9
$PROJECTNAME
  1

  9
$CAMERADISPLAY
290
     0
  9
$LENSLENGTH
 40
50.0
  9
$CAMERAHEIGHT
 40
0.0
  9
$STEPSPERSEC
 40
2.0
  9
$STEPSIZE
 40
6.0
  9
$3DDWFPREC
 40
2.0
  9
$PSOLWIDTH
 40
0.25
  9
$PSOLHEIGHT
 40
4.0
  9
$LOFTANG1
 40
1.570796326794897
  9
$LOFTANG2
 40
1.570796326794897
  9
$LOFTMAG1
 40
0.0
  9
$LOFTMAG2
 40
0.0
  9
$LOFTPARAM
 70
     7
  9
$LOFTNORMALS
280
     1
  9
$LATITUDE
 40
37.795
  9
$LONGITUDE
 40
-122.394
  9
$NORTHDIRECTION
 40
0.0
  9
$TIMEZONE
 70
 -8000
  9
$LIGHTGLYPHDISPLAY
280
     1
  9
$TILEMODELIGHTSYNCH
280
     1
  9
$CMATERIAL
347
3C
  9
$SOLIDHIST
280
     1
  9
$SHOWHIST
280
     1
  9
$DWFFRAME
280
     2
  9
$DGNFRAME
280
     2
  9
$REALWORLDSCALE
290
     1
  9
$INTERFERECOLOR
 62
   256
  9
$CSHADOW
280
     0
  9
$SHADOWPLANELOCATION
 40
0.0
  0
ENDSEC
  0
SECTION
  2
CLASSES
  0
CLASS
  1
ACDBDICTIONARYWDFLT
  2
AcDbDictionaryWithDefault
  3
ObjectDBX Classes
 90
        0
 91
        4
280
     0
281
     0
  0
CLASS
  1
VISUALSTYLE
  2
AcDbVisualStyle
  3
ObjectDBX Classes
 90
     4095
 91
        4
280
     0
281
     0
  0
CLASS
  1
MATERIAL
  2
AcDbMaterial
  3
ObjectDBX Classes
 90
     1153
 91
        4
280
     0
281
     0
  0
CLASS
  1
SUN
  2
AcDbSun
  3
SCENEOE
 90
     1024
 91
        4
280
     0
281
     0
  0
ENDSEC
  0
SECTION
  2
TABLES
  0
TABLE
  2
VPORT
  5
8
330
0
100
AcDbSymbolTable
 70
     1
  0
VPORT
  5
29
330
8
100
AcDbSymbolTableRecord
100
AcDbViewportTableRecord
  2
*Active
 70
     0
 10
0.0
 20
0.0
 11
1.0
 21
1.0
 12
0.0
 22
0.0
 13
0.0
 23
0.0
 14
0.5
 24
0.5
 15
0.5
 25
0.5
 16
0.0
 26
0.0
 36
1.0
 17
105.0007777515277
 27
-148.5000416295416
 37
0.0
 40
297.0000832590831
 41
0.7070757462376333
 42
50.0
 43
0.0
 44
0.0
 50
0.0
 51
0.0
 71
     0
 72
   100
 73
     1
 74
     3
 75
     0
 76
     0
 77
     0
 78
     0
281
     0
 65
     1
110
0.0
120
0.0
130
0.0
111
1.0
121
0.0
131
0.0
112
0.0
122
1.0
132
0.0
 79
     0
146
0.0
 60
     3
 61
     5
292
     1
282
     1
141
0.0
142
0.0
 63
   250
361
3F
  0
ENDTAB
  0
TABLE
  2
LTYPE
  5
5
330
0
100
AcDbSymbolTable
 70
     1
  0
LTYPE
  5
14
330
5
100
AcDbSymbolTableRecord
100
AcDbLinetypeTableRecord
  2
ByBlock
 70
     0
  3

 72
    65
 73
     0
 40
0.0
  0
LTYPE
  5
15
330
5
100
AcDbSymbolTableRecord
100
AcDbLinetypeTableRecord
  2
ByLayer
 70
     0
  3

 72
    65
 73
     0
 40
0.0
  0
LTYPE
  5
16
330
5
100
AcDbSymbolTableRecord
100
AcDbLinetypeTableRecord
  2
Continuous
 70
     0
  3
Solid line
 72
    65
 73
     0
 40
0.0
  0
ENDTAB
  0
TABLE
  2
LAYER
  5
2
330
0
100
AcDbSymbolTable
 70
     2
  0
LAYER
  5
10
330
2
100
AcDbSymbolTableRecord
100
AcDbLayerTableRecord
  2
0
 70
     0
 62
     7
  6
Continuous
370
    -3
390
F
347
3E
  0
LAYER
  5
40
330
2
100
AcDbSymbolTableRecord
100
AcDbLayerTableRecord
  2
_U+30EC_U+30A4_U+30E4_U+30FC 1
 70
     0
 62
     7
  6
Continuous
370
    -3
390
F
347
3E
  0
ENDTAB
  0
TABLE
  2
STYLE
  5
3
330
0
100
AcDbSymbolTable
 70
     1
  0
STYLE
  5
11
330
3
100
AcDbSymbolTableRecord
100
AcDbTextStyleTableRecord
  2
Standard
 70
     0
 40
0.0
 41
1.0
 50
0.0
 71
     0
 42
0.2
  3
txt
  4

  0
ENDTAB
  0
TABLE
  2
VIEW
  5
6
330
0
100
AcDbSymbolTable
 70
     0
  0
ENDTAB
  0
TABLE
  2
UCS
  5
7
330
0
100
AcDbSymbolTable
 70
     0
  0
ENDTAB
  0
TABLE
  2
APPID
  5
9
330
0
100
AcDbSymbolTable
 70
     1
  0
APPID
  5
12
330
9
100
AcDbSymbolTableRecord
100
AcDbRegAppTableRecord
  2
ACAD
 70
     0
  0
ENDTAB
  0
TABLE
  2
DIMSTYLE
  5
A
330
0
100
AcDbSymbolTable
 70
     1
100
AcDbDimStyleTable
  0
DIMSTYLE
105
27
330
A
100
AcDbSymbolTableRecord
100
AcDbDimStyleTableRecord
  2
Standard
 70
     0
178
     0
340
11
  0
ENDTAB
  0
TABLE
  2
BLOCK_RECORD
  5
1
330
0
100
AcDbSymbolTable
 70
     4
  0
BLOCK_RECORD
  5
1F
330
1
100
AcDbSymbolTableRecord
100
AcDbBlockTableRecord
  2
*Model_Space
340
22
 70
     0
280
     1
281
     0
  0
BLOCK_RECORD
  5
1B
330
1
100
AcDbSymbolTableRecord
100
AcDbBlockTableRecord
  2
*Paper_Space
340
1E
 70
     0
280
     1
281
     0
  0
BLOCK_RECORD
  5
23
330
1
100
AcDbSymbolTableRecord
100
AcDbBlockTableRecord
  2
*Paper_Space0
340
26
 70
     0
280
     1
281
     0
  0
BLOCK_RECORD
  5
41
330
1
100
AcDbSymbolTableRecord
100
AcDbBlockTableRecord
  2
block 2
340
0
102
{BLKREFS
331
42
102
}
 70
     0
280
     1
281
     0
  0
BLOCK_RECORD
  5
7E
330
1
100
AcDbSymbolTableRecord
100
AcDbBlockTableRecord
  2
block 3
340
0
102
{BLKREFS
331
7F
102
}
 70
     0
280
     1
281
     0
  0
BLOCK_RECORD
  5
BF
330
1
100
AcDbSymbolTableRecord
100
AcDbBlockTableRecord
  2
block 4
340
0
102
{BLKREFS
331
C0
102
}
 70
     0
280
     1
281
     0
  0
ENDTAB
  0
ENDSEC
  0
SECTION
  2
BLOCKS
  0
BLOCK
  5
20
330
1F
100
AcDbEntity
  8
0
100
AcDbBlockBegin
  2
*Model_Space
 70
     0
 10
0.0
 20
0.0
 30
0.0
  3
*Model_Space
  1

  0
ENDBLK
  5
21
330
1F
100
AcDbEntity
  8
0
100
AcDbBlockEnd
  0
BLOCK
  5
1C
330
1B
100
AcDbEntity
 67
     1
  8
0
100
AcDbBlockBegin
  2
*Paper_Space
 70
     0
 10
0.0
 20
0.0
 30
0.0
  3
*Paper_Space
  1

  0
ENDBLK
  5
1D
330
1B
100
AcDbEntity
 67
     1
  8
0
100
AcDbBlockEnd
  0
BLOCK
  5
24
330
23
100
AcDbEntity
  8
0
100
AcDbBlockBegin
  2
*Paper_Space0
 70
     0
 10
0.0
 20
0.0
 30
0.0
  3
*Paper_Space0
  1

  0
ENDBLK
  5
25
330
23
100
AcDbEntity
  8
0
100
AcDbBlockEnd
  0
BLOCK
  5
43
330
41
100
AcDbEntity
  8
0
100
AcDbBlockBegin
  2
block 2
 70
     0
 10
0.0
 20
0.0
 30
0.0
  3
block 2
  1

  0
SPLINE
  5
45
330
41
100
AcDbEntity
  8
_U+30EC_U+30A4_U+30E4_U+30FC 1
370
     0
100
AcDbSpline
210
0.0
220
0.0
230
1.0
 70
    11
 71
     3
 72
    38
 73
    34
 74
     0
 42
0.0000000001
 43
0.0000000001
 12
1.0
 22
0.0
 32
0.0
 13
1.0
 23
0.0
 33
0.0
 40
0.0
 40
0.0
 40
0.0
 40
0.0
 40
1.0
 40
1.0
 40
1.0
 40
2.0
 40
2.0
 40
2.0
 40
3.0
 40
3.0
 40
3.0
 40
4.0
 40
4.0
 40
4.0
 40
5.0
 40
5.0
 40
5.0
 40
6.0
 40
6.0
 40
6.0
 40
7.0
 40
7.0
 40
7.0
 40
8.0
 40
8.0
 40
8.0
 40
9.0
 40
9.0
 40
9.0
 40
10.0
 40
10.0
 40
10.0
 40
11.0
 40
11.0
 40
11.0
 40
11.0
 10
107.6227159019138
 20
-146.1013318862177
 30
0.0
 10
107.6227159019138
 20
-145.6358994861605
 30
0.0
 10
107.9865179851562
 20
-145.3609808664375
 30
0.0
 10
108.4564290093442
 20
-145.3609808664375
 30
0.0
 10
108.9807725421993
 20
-145.3609808664375
 30
0.0
 10
109.266715467475
 20
-145.7037678672199
 30
0.0
 10
109.266715467475
 20
-146.112011682222
 30
0.0
 10
109.266715467475
 20
-146.4568657402955
 30
0.0
 10
109.0782687444318
 20
-146.7338514173096
 30
0.0
 10
108.7609754502403
 20
-146.7552110093181
 30
0.0
 10
108.7609754502403
 20
-146.7552110093181
 30
0.0
 10
108.7609754502403
 20
-146.5247341213549
 30
0.0
 10
108.7609754502403
 20
-146.5247341213549
 30
0.0
 10
108.9683701984524
 20
-146.4864935614686
 30
0.0
 10
109.0507079805498
 20
-146.2663519599612
 30
0.0
 10
109.0507079805498
 20
-146.1058105103486
 30
0.0
 10
109.0507079805498
 20
-146.0021131362425
 30
0.0
 10
109.0190131020855
 20
-145.8856689088411
 30
0.0
 10
108.9428764918615
 20
-145.7926513307393
 30
0.0
 10
108.8160969780043
 20
-145.6317653715782
 30
0.0
 10
108.6000894910791
 20
-145.602137550405
 30
0.0
 10
108.4412705892091
 20
-145.602137550405
 30
0.0
 10
108.0016764052912
 20
-145.602137550405
 30
0.0
 10
107.8404459365816
 20
-145.8815347942588
 30
0.0
 10
107.8404459365816
 20
-146.0971977716354
 30
0.0
 10
107.8404459365816
 20
-146.2346570814969
 30
0.0
 10
107.9210611709364
 20
-146.5054415866375
 30
0.0
 10
108.2383544651279
 20
-146.5371364651018
 30
0.0
 10
108.2383544651279
 20
-146.5371364651018
 30
0.0
 10
108.2383544651279
 20
-146.7679578626136
 30
0.0
 10
108.2383544651279
 20
-146.7679578626136
 30
0.0
 10
108.1029622125576
 20
-146.7552110093181
 30
0.0
 10
107.6227159019138
 20
-146.7066351629761
 30
0.0
 10
107.6227159019138
 20
-146.1013318862177
 30
0.0
  0
HATCH
  5
46
330
41
100
AcDbEntity
  8
_U+30EC_U+30A4_U+30E4_U+30FC 1
 62
   179
420
  2234388
100
AcDbHatch
 10
0.0
 20
0.0
 30
0.0
210
0.0
220
0.0
230
1.0
  2
SOLID
 70
     1
 71
     0
 91
        1
 92
        1
 93
        1
 72
     4
 94
        3
 73
     0
 74
     1
 95
       38
 96
       34
 40
0.0
 40
0.0
 40
0.0
 40
0.0
 40
1.0
 40
1.0
 40
1.0
 40
2.0
 40
2.0
 40
2.0
 40
3.0
 40
3.0
 40
3.0
 40
4.0
 40
4.0
 40
4.0
 40
5.0
 40
5.0
 40
5.0
 40
6.0
 40
6.0
 40
6.0
 40
7.0
 40
7.0
 40
7.0
 40
8.0
 40
8.0
 40
8.0
 40
9.0
 40
9.0
 40
9.0
 40
10.0
 40
10.0
 40
10.0
 40
11.0
 40
11.0
 40
11.0
 40
11.0
 10
107.6227159019138
 20
-146.1013318862177
 10
107.6227159019138
 20
-145.6358994861605
 10
107.9865179851562
 20
-145.3609808664375
 10
108.4564290093442
 20
-145.3609808664375
 10
108.9807725421993
 20
-145.3609808664375
 10
109.266715467475
 20
-145.7037678672199
 10
109.266715467475
 20
-146.112011682222
 10
109.266715467475
 20
-146.4568657402955
 10
109.0782687444318
 20
-146.7338514173096
 10
108.7609754502403
 20
-146.7552110093181
 10
108.7609754502403
 20
-146.7552110093181
 10
108.7609754502403
 20
-146.5247341213549
 10
108.7609754502403
 20
-146.5247341213549
 10
108.9683701984524
 20
-146.4864935614686
 10
109.0507079805498
 20
-146.2663519599612
 10
109.0507079805498
 20
-146.1058105103486
 10
109.0507079805498
 20
-146.0021131362425
 10
109.0190131020855
 20
-145.8856689088411
 10
108.9428764918615
 20
-145.7926513307393
 10
108.8160969780043
 20
-145.6317653715782
 10
108.6000894910791
 20
-145.602137550405
 10
108.4412705892091
 20
-145.602137550405
 10
108.0016764052912
 20
-145.602137550405
 10
107.8404459365816
 20
-145.8815347942588
 10
107.8404459365816
 20
-146.0971977716354
 10
107.8404459365816
 20
-146.2346570814969
 10
107.9210611709364
 20
-146.5054415866375
 10
108.2383544651279
 20
-146.5371364651018
 10
108.2383544651279
 20
-146.5371364651018
 10
108.2383544651279
 20
-146.7679578626136
 10
108.2383544651279
 20
-146.7679578626136
 10
108.1029622125576
 20
-146.7552110093181
 10
107.6227159019138
 20
-146.7066351629761
 10
107.6227159019138
 20
-146.1013318862177
 97
        0
 97
        0
 75
     2
 76
     1
 98
        0
  0
SPLINE
  5
47
330
41
100
AcDbEntity
  8
_U+30EC_U+30A4_U+30E4_U+30FC 1
370
     0
100
AcDbSpline
210
0.0
220
0.0
230
1.0
 70
    11
 71
     3
 72
    44
 73
    40
 74
     0
 42
0.0000000001
 43
0.0000000001
 12
1.0
 22
0.0
 32
0.0
 13
1.0
 23
0.0
 33
0.0
 40
0.0
 40
0.0
 40
0.0
 40
0.0
 40
1.0
 40
1.0
 40
1.0
 40
2.0
 40
2.0
 40
2.0
 40
3.0
 40
3.0
 40
3.0
 40
4.0
 40
4.0
 40
4.0
 40
5.0
 40
5.0
 40
5.0
 40
6.0
 40
6.0
 40
6.0
 40
7.0
 40
7.0
 40
7.0
 40
8.0
 40
8.0
 40
8.0
 40
9.0
 40
9.0
 40
9.0
 40
10.0
 40
10.0
 40
10.0
 40
11.0
 40
11.0
 40
11.0
 40
12.0
 40
12.0
 40
12.0
 40
13.0
 40
13.0
 40
13.0
 40
13.0
 10
107.6737033150955
 20
-147.9764973588392
 30
0.0
 10
107.7178005373067
 20
-147.953415219088
 30
0.0
 10
107.7708550077795
 20
-147.9320556270795
 30
0.0
 10
108.0016764052912
 20
-147.9299885697883
 30
0.0
 10
108.2449001465499
 20
-147.925854455206
 30
0.0
 10
108.3144910753519
 20
-147.8665988128597
 30
0.0
 10
108.3144910753519
 20
-147.6888318858209
 30
0.0
 10
108.3144910753519
 20
-147.6888318858209
 30
0.0
 10
108.3144910753519
 20
-147.2805880708187
 30
0.0
 10
108.3144910753519
 20
-147.2805880708187
 30
0.0
 10
108.3144910753519
 20
-147.2805880708187
 30
0.0
 10
107.6737033150955
 20
-147.2805880708187
 30
0.0
 10
107.6737033150955
 20
-147.2805880708187
 30
0.0
 10
107.6737033150955
 20
-147.2805880708187
 30
0.0
 10
107.6737033150955
 20
-147.0456325587247
 30
0.0
 10
107.6737033150955
 20
-147.0456325587247
 30
0.0
 10
107.6737033150955
 20
-147.0456325587247
 30
0.0
 10
109.2177951115845
 20
-147.0456325587247
 30
0.0
 10
109.2177951115845
 20
-147.0456325587247
 30
0.0
 10
109.2177951115845
 20
-147.0456325587247
 30
0.0
 10
109.2177951115845
 20
-147.7205267642852
 30
0.0
 10
109.2177951115845
 20
-147.7205267642852
 30
0.0
 10
109.2177951115845
 20
-148.0274847720209
 30
0.0
 10
109.0465738659675
 20
-148.1945719030555
 30
0.0
 10
108.7906032714135
 20
-148.1945719030555
 30
0.0
 10
108.7396158582318
 20
-148.1945719030555
 30
0.0
 10
108.6572780761343
 20
-148.1859591643424
 30
0.0
 10
108.577007351328
 20
-148.1415174325827
 30
0.0
 10
108.4729654676734
 20
-148.0822617902364
 30
0.0
 10
108.4543619520531
 20
-148.0168049760166
 30
0.0
 10
108.4371364746268
 20
-147.9554822763792
 30
0.0
 10
108.3951063097068
 20
-148.0929415862407
 30
0.0
 10
108.3461859538162
 20
-148.1604654577516
 30
0.0
 10
108.0313042264644
 20
-148.1649440818824
 30
0.0
 10
107.7605197213238
 20
-148.1690781964647
 30
0.0
 10
107.7284803333109
 20
-148.2049071895113
 30
0.0
 10
107.6737033150955
 20
-148.2727755705707
 30
0.0
 10
107.6737033150955
 20
-148.2727755705707
 30
0.0
 10
107.6737033150955
 20
-147.9764973588392
 30
0.0
 10
107.6737033150955
 20
-147.9764973588392
 30
0.0
  0
SPLINE
  5
48
330
41
100
AcDbEntity
  8
_U+30EC_U+30A4_U+30E4_U+30FC 1
370
     0
100
AcDbSpline
210
0.0
220
0.0
230
1.0
 70
    11
 71
     3
 72
    20
 73
    16
 74
     0
 42
0.0000000001
 43
0.0000000001
 12
1.0
 22
0.0
 32
0.0
 13
1.0
 23
0.0
 33
0.0
 40
0.0
 40
0.0
 40
0.0
 40
0.0
 40
1.0
 40
1.0
 40
1.0
 40
2.0
 40
2.0
 40
2.0
 40
3.0
 40
3.0
 40
3.0
 40
4.0
 40
4.0
 40
4.0
 40
5.0
 40
5.0
 40
5.0
 40
5.0
 10
109.0062662487901
 20
-147.725005388416
 30
0.0
 10
109.0062662487901
 20
-147.725005388416
 30
0.0
 10
109.0062662487901
 20
-147.2805880708187
 30
0.0
 10
109.0062662487901
 20
-147.2805880708187
 30
0.0
 10
109.0062662487901
 20
-147.2805880708187
 30
0.0
 10
108.5260199381463
 20
-147.2805880708187
 30
0.0
 10
108.5260199381463
 20
-147.2805880708187
 30
0.0
 10
108.5260199381463
 20
-147.2805880708187
 30
0.0
 10
108.5260199381463
 20
-147.7225938215763
 30
0.0
 10
108.5260199381463
 20
-147.7225938215763
 30
0.0
 10
108.5260199381463
 20
-147.8221570811
 30
0.0
 10
108.6021565483703
 20
-147.9575493336703
 30
0.0
 10
108.7733777939872
 20
-147.9575493336703
 30
0.0
 10
108.8519259710509
 20
-147.9575493336703
 30
0.0
 10
109.0062662487901
 20
-147.9237873979149
 30
0.0
 10
109.0062662487901
 20
-147.725005388416
 30
0.0
  0
HATCH
  5
49
330
41
100
AcDbEntity
  8
_U+30EC_U+30A4_U+30E4_U+30FC 1
 62
   179
420
  2234388
100
AcDbHatch
 10
0.0
 20
0.0
 30
0.0
210
0.0
220
0.0
230
1.0
  2
SOLID
 70
     1
 71
     0
 91
        2
 92
        1
 93
        1
 72
     4
 94
        3
 73
     0
 74
     1
 95
       44
 96
       40
 40
0.0
 40
0.0
 40
0.0
 40
0.0
 40
1.0
 40
1.0
 40
1.0
 40
2.0
 40
2.0
 40
2.0
 40
3.0
 40
3.0
 40
3.0
 40
4.0
 40
4.0
 40
4.0
 40
5.0
 40
5.0
 40
5.0
 40
6.0
 40
6.0
 40
6.0
 40
7.0
 40
7.0
 40
7.0
 40
8.0
 40
8.0
 40
8.0
 40
9.0
 40
9.0
 40
9.0
 40
10.0
 40
10.0
 40
10.0
 40
11.0
 40
11.0
 40
11.0
 40
12.0
 40
12.0
 40
12.0
 40
13.0
 40
13.0
 40
13.0
 40
13.0
 10
107.6737033150955
 20
-147.9764973588392
 10
107.7178005373067
 20
-147.953415219088
 10
107.7708550077795
 20
-147.9320556270795
 10
108.0016764052912
 20
-147.9299885697883
 10
108.2449001465499
 20
-147.925854455206
 10
108.3144910753519
 20
-147.8665988128597
 10
108.3144910753519
 20
-147.6888318858209
 10
108.3144910753519
 20
-147.6888318858209
 10
108.3144910753519
 20
-147.2805880708187
 10
108.3144910753519
 20
-147.2805880708187
 10
108.3144910753519
 20
-147.2805880708187
 10
107.6737033150955
 20
-147.2805880708187
 10
107.6737033150955
 20
-147.2805880708187
 10
107.6737033150955
 20
-147.2805880708187
 10
107.6737033150955
 20
-147.0456325587247
 10
107.6737033150955
 20
-147.0456325587247
 10
107.6737033150955
 20
-147.0456325587247
 10
109.2177951115845
 20
-147.0456325587247
 10
109.2177951115845
 20
-147.0456325587247
 10
109.2177951115845
 20
-147.0456325587247
 10
109.2177951115845
 20
-147.7205267642852
 10
109.2177951115845
 20
-147.7205267642852
 10
109.2177951115845
 20
-148.0274847720209
 10
109.0465738659675
 20
-148.1945719030555
 10
108.7906032714135
 20
-148.1945719030555
 10
108.7396158582318
 20
-148.1945719030555
 10
108.6572780761343
 20
-148.1859591643424
 10
108.577007351328
 20
-148.1415174325827
 10
108.4729654676734
 20
-148.0822617902364
 10
108.4543619520531
 20
-148.0168049760166
 10
108.4371364746268
 20
-147.9554822763792
 10
108.3951063097068
 20
-148.0929415862407
 10
108.3461859538162
 20
-148.1604654577516
 10
108.0313042264644
 20
-148.1649440818824
 10
107.7605197213238
 20
-148.1690781964647
 10
107.7284803333109
 20
-148.2049071895113
 10
107.6737033150955
 20
-148.2727755705707
 10
107.6737033150955
 20
-148.2727755705707
 10
107.6737033150955
 20
-147.9764973588392
 10
107.6737033150955
 20
-147.9764973588392
 97
        0
 97
        0
 92
        1
 93
        1
 72
     4
 94
        3
 73
     0
 74
     1
 95
       20
 96
       16
 40
0.0
 40
0.0
 40
0.0
 40
0.0
 40
1.0
 40
1.0
 40
1.0
 40
2.0
 40
2.0
 40
2.0
 40
3.0
 40
3.0
 40
3.0
 40
4.0
 40
4.0
 40
4.0
 40
5.0
 40
5.0
 40
5.0
 40
5.0
 10
109.0062662487901
 20
-147.725005388416
 10
109.0062662487901
 20
-147.725005388416
 10
109.0062662487901
 20
-147.2805880708187
 10
109.0062662487901
 20
-147.2805880708187
 10
109.0062662487901
 20
-147.2805880708187
 10
108.5260199381463
 20
-147.2805880708187
 10
108.5260199381463
 20
-147.2805880708187
 10
108.5260199381463
 20
-147.2805880708187
 10
108.5260199381463
 20
-147.7225938215763
 10
108.5260199381463
 20
-147.7225938215763
 10
108.5260199381463
 20
-147.8221570811
 10
108.6021565483703
 20
-147.9575493336703
 10
108.7733777939872
 20
-147.9575493336703
 10
108.8519259710509
 20
-147.9575493336703
 10
109.0062662487901
 20
-147.9237873979149
 10
109.0062662487901
 20
-147.725005388416
 97
        0
 97
        0
 75
     2
 76
     1
 98
        0
  0
SPLINE
  5
4A
330
41
100
AcDbEntity
  8
_U+30EC_U+30A4_U+30E4_U+30FC 1
370
     0
100
AcDbSpline
210
0.0
220
0.0
230
1.0
 70
    11
 71
     3
 72
    26
 73
    22
 74
     0
 42
0.0000000001
 43
0.0000000001
 12
1.0
 22
0.0
 32
0.0
 13
1.0
 23
0.0
 33
0.0
 40
0.0
 40
0.0
 40
0.0
 40
0.0
 40
1.0
 40
1.0
 40
1.0
 40
2.0
 40
2.0
 40
2.0
 40
3.0
 40
3.0
 40
3.0
 40
4.0
 40
4.0
 40
4.0
 40
5.0
 40
5.0
 40
5.0
 40
6.0
 40
6.0
 40
6.0
 40
7.0
 40
7.0
 40
7.0
 40
7.0
 10
108.3041557888962
 20
-149.1898599887442
 30
0.0
 10
108.3041557888962
 20
-149.1898599887442
 30
0.0
 10
108.3041557888962
 20
-148.7368299324339
 30
0.0
 10
108.3041557888962
 20
-148.7368299324339
 30
0.0
 10
108.3041557888962
 20
-148.7368299324339
 30
0.0
 10
107.6737033150955
 20
-148.7368299324339
 30
0.0
 10
107.6737033150955
 20
-148.7368299324339
 30
0.0
 10
107.6737033150955
 20
-148.7368299324339
 30
0.0
 10
107.6737033150955
 20
-148.5022189298883
 30
0.0
 10
107.6737033150955
 20
-148.5022189298883
 30
0.0
 10
107.6737033150955
 20
-148.5022189298883
 30
0.0
 10
109.2177951115845
 20
-148.5022189298883
 30
0.0
 10
109.2177951115845
 20
-148.5022189298883
 30
0.0
 10
109.2177951115845
 20
-148.5022189298883
 30
0.0
 10
109.2177951115845
 20
-149.1898599887442
 30
0.0
 10
109.2177951115845
 20
-149.1898599887442
 30
0.0
 10
109.2177951115845
 20
-149.4775254617626
 30
0.0
 10
109.0551866046807
 20
-149.6825086431349
 30
0.0
 10
108.756841335658
 20
-149.6825086431349
 30
0.0
 10
108.5091389702686
 20
-149.6825086431349
 30
0.0
 10
108.3041557888962
 20
-149.5219671935223
 30
0.0
 10
108.3041557888962
 20
-149.1898599887442
 30
0.0
  0
SPLINE
  5
4B
330
41
100
AcDbEntity
  8
_U+30EC_U+30A4_U+30E4_U+30FC 1
370
     0
100
AcDbSpline
210
0.0
220
0.0
230
1.0
 70
    11
 71
     3
 72
    20
 73
    16
 74
     0
 42
0.0000000001
 43
0.0000000001
 12
1.0
 22
0.0
 32
0.0
 13
1.0
 23
0.0
 33
0.0
 40
0.0
 40
0.0
 40
0.0
 40
0.0
 40
1.0
 40
1.0
 40
1.0
 40
2.0
 40
2.0
 40
2.0
 40
3.0
 40
3.0
 40
3.0
 40
4.0
 40
4.0
 40
4.0
 40
5.0
 40
5.0
 40
5.0
 40
5.0
 10
109.0062662487901
 20
-149.1812472500311
 30
0.0
 10
109.0062662487901
 20
-149.1812472500311
 30
0.0
 10
109.0062662487901
 20
-148.7368299324339
 30
0.0
 10
109.0062662487901
 20
-148.7368299324339
 30
0.0
 10
109.0062662487901
 20
-148.7368299324339
 30
0.0
 10
108.5156846516905
 20
-148.7368299324339
 30
0.0
 10
108.5156846516905
 20
-148.7368299324339
 30
0.0
 10
108.5156846516905
 20
-148.7368299324339
 30
0.0
 10
108.5156846516905
 20
-149.1812472500311
 30
0.0
 10
108.5156846516905
 20
-149.1812472500311
 30
0.0
 10
108.5156846516905
 20
-149.3483343810657
 30
0.0
 10
108.6211045735392
 20
-149.4372178445851
 30
0.0
 10
108.7609754502403
 20
-149.4372178445851
 30
0.0
 10
108.8753526203506
 20
-149.4372178445851
 30
0.0
 10
109.0062662487901
 20
-149.3693494635257
 30
0.0
 10
109.0062662487901
 20
-149.1812472500311
 30
0.0
  0
HATCH
  5
4C
330
41
100
AcDbEntity
  8
_U+30EC_U+30A4_U+30E4_U+30FC 1
 62
   179
420
  2234388
100
AcDbHatch
 10
0.0
 20
0.0
 30
0.0
210
0.0
220
0.0
230
1.0
  2
SOLID
 70
     1
 71
     0
 91
        2
 92
        1
 93
        1
 72
     4
 94
        3
 73
     0
 74
     1
 95
       26
 96
       22
 40
0.0
 40
0.0
 40
0.0
 40
0.0
 40
1.0
 40
1.0
 40
1.0
 40
2.0
 40
2.0
 40
2.0
 40
3.0
 40
3.0
 40
3.0
 40
4.0
 40
4.0
 40
4.0
 40
5.0
 40
5.0
 40
5.0
 40
6.0
 40
6.0
 40
6.0
 40
7.0
 40
7.0
 40
7.0
 40
7.0
 10
108.3041557888962
 20
-149.1898599887442
 10
108.3041557888962
 20
-149.1898599887442
 10
108.3041557888962
 20
-148.7368299324339
 10
108.3041557888962
 20
-148.7368299324339
 10
108.3041557888962
 20
-148.7368299324339
 10
107.6737033150955
 20
-148.7368299324339
 10
107.6737033150955
 20
-148.7368299324339
 10
107.6737033150955
 20
-148.7368299324339
 10
107.6737033150955
 20
-148.5022189298883
 10
107.6737033150955
 20
-148.5022189298883
 10
107.6737033150955
 20
-148.5022189298883
 10
109.2177951115845
 20
-148.5022189298883
 10
109.2177951115845
 20
-148.5022189298883
 10
109.2177951115845
 20
-148.5022189298883
 10
109.2177951115845
 20
-149.1898599887442
 10
109.2177951115845
 20
-149.1898599887442
 10
109.2177951115845
 20
-149.4775254617626
 10
109.0551866046807
 20
-149.6825086431349
 10
108.756841335658
 20
-149.6825086431349
 10
108.5091389702686
 20
-149.6825086431349
 10
108.3041557888962
 20
-149.5219671935223
 10
108.3041557888962
 20
-149.1898599887442
 97
        0
 97
        0
 92
        1
 93
        1
 72
     4
 94
        3
 73
     0
 74
     1
 95
       20
 96
       16
 40
0.0
 40
0.0
 40
0.0
 40
0.0
 40
1.0
 40
1.0
 40
1.0
 40
2.0
 40
2.0
 40
2.0
 40
3.0
 40
3.0
 40
3.0
 40
4.0
 40
4.0
 40
4.0
 40
5.0
 40
5.0
 40
5.0
 40
5.0
 10
109.0062662487901
 20
-149.1812472500311
 10
109.0062662487901
 20
-149.1812472500311
 10
109.0062662487901
 20
-148.7368299324339
 10
109.0062662487901
 20
-148.7368299324339
 10
109.0062662487901
 20
-148.7368299324339
 10
108.5156846516905
 20
-148.7368299324339
 10
108.5156846516905
 20
-148.7368299324339
 10
108.5156846516905
 20
-148.7368299324339
 10
108.5156846516905
 20
-149.1812472500311
 10
108.5156846516905
 20
-149.1812472500311
 10
108.5156846516905
 20
-149.3483343810657
 10
108.6211045735392
 20
-149.4372178445851
 10
108.7609754502403
 20
-149.4372178445851
 10
108.8753526203506
 20
-149.4372178445851
 10
109.0062662487901
 20
-149.3693494635257
 10
109.0062662487901
 20
-149.1812472500311
 97
        0
 97
        0
 75
     2
 76
     1
 98
        0
  0
POLYLINE
  5
4D
330
41
100
AcDbEntity
  8
_U+30EC_U+30A4_U+30E4_U+30FC 1
370
     0
100
AcDb2dPolyline
 66
     1
 10
0.0
 20
0.0
 30
0.0
  0
VERTEX
  5
4E
330
4D
100
AcDbEntity
  8
_U+30EC_U+30A4_U+30E4_U+30FC 1
370
     0
100
AcDbVertex
100
AcDb2dVertex
 10
108.1198431804353
 20
-149.81445580022
 30
0.0
  0
VERTEX
  5
4F
330
4D
100
AcDbEntity
  8
_U+30EC_U+30A4_U+30E4_U+30FC 1
370
     0
100
AcDbVertex
100
AcDb2dVertex
 10
108.3358506673605
 20
-149.81445580022
 30
0.0
  0
VERTEX
  5
50
330
4D
100
AcDbEntity
  8
_U+30EC_U+30A4_U+30E4_U+30FC 1
370
     0
100
AcDbVertex
100
AcDb2dVertex
 10
108.3358506673605
 20
-150.400466542261
 30
0.0
  0
VERTEX
  5
51
330
4D
100
AcDbEntity
  8
_U+30EC_U+30A4_U+30E4_U+30FC 1
370
     0
100
AcDbVertex
100
AcDb2dVertex
 10
108.1198431804353
 20
-150.400466542261
 30
0.0
  0
VERTEX
  5
52
330
4D
100
AcDbEntity
  8
_U+30EC_U+30A4_U+30E4_U+30FC 1
370
     0
100
AcDbVertex
100
AcDb2dVertex
 10
108.1198431804353
 20
-149.81445580022
 30
0.0
  0
SEQEND
  5
53
330
4D
100
AcDbEntity
  8
_U+30EC_U+30A4_U+30E4_U+30FC 1
370
     0
  0
HATCH
  5
54
330
41
100
AcDbEntity
  8
_U+30EC_U+30A4_U+30E4_U+30FC 1
 62
   179
420
  2234388
100
AcDbHatch
 10
0.0
 20
0.0
 30
0.0
210
0.0
220
0.0
230
1.0
  2
SOLID
 70
     1
 71
     0
 91
        1
 92
        1
 93
        4
 72
     1
 10
108.1198431804353
 20
-149.81445580022
 11
108.3358506673605
 21
-149.81445580022
 72
     1
 10
108.3358506673605
 20
-149.81445580022
 11
108.3358506673605
 21
-150.400466542261
 72
     1
 10
108.3358506673605
 20
-150.400466542261
 11
108.1198431804353
 21
-150.400466542261
 72
     1
 10
108.1198431804353
 20
-150.400466542261
 11
108.1198431804353
 21
-149.81445580022
 97
        0
 75
     2
 76
     1
 98
        0
  0
SPLINE
  5
55
330
41
100
AcDbEntity
  8
_U+30EC_U+30A4_U+30E4_U+30FC 1
370
     0
100
AcDbSpline
210
0.0
220
0.0
230
1.0
 70
    11
 71
     3
 72
    62
 73
    58
 74
     0
 42
0.0000000001
 43
0.0000000001
 12
1.0
 22
0.0
 32
0.0
 13
1.0
 23
0.0
 33
0.0
 40
0.0
 40
0.0
 40
0.0
 40
0.0
 40
1.0
 40
1.0
 40
1.0
 40
2.0
 40
2.0
 40
2.0
 40
3.0
 40
3.0
 40
3.0
 40
4.0
 40
4.0
 40
4.0
 40
5.0
 40
5.0
 40
5.0
 40
6.0
 40
6.0
 40
6.0
 40
7.0
 40
7.0
 40
7.0
 40
8.0
 40
8.0
 40
8.0
 40
9.0
 40
9.0
 40
9.0
 40
10.0
 40
10.0
 40
10.0
 40
11.0
 40
11.0
 40
11.0
 40
12.0
 40
12.0
 40
12.0
 40
13.0
 40
13.0
 40
13.0
 40
14.0
 40
14.0
 40
14.0
 40
15.0
 40
15.0
 40
15.0
 40
16.0
 40
16.0
 40
16.0
 40
17.0
 40
17.0
 40
17.0
 40
18.0
 40
18.0
 40
18.0
 40
19.0
 40
19.0
 40
19.0
 40
19.0
 10
107.6227159019138
 20
-151.0209282391545
 30
0.0
 10
107.6227159019138
 20
-150.9254990942131
 30
0.0
 10
107.6440754939223
 20
-150.7077690595453
 30
0.0
 10
107.8301106501258
 20
-150.5827120934307
 30
0.0
 10
107.9424207629449
 20
-150.5086425404978
 30
0.0
 10
108.0416395129202
 20
-150.5045084259156
 30
0.0
 10
108.1263888618573
 20
-150.5003743113332
 30
0.0
 10
108.1263888618573
 20
-150.5003743113332
 30
0.0
 10
108.1263888618573
 20
-150.7205159128407
 30
0.0
 10
108.1263888618573
 20
-150.7205159128407
 30
0.0
 10
108.0519747993759
 20
-150.7225829701319
 30
0.0
 10
107.8173637968304
 20
-150.7329182565876
 30
0.0
 10
107.8173637968304
 20
-151.0164496150237
 30
0.0
 10
107.8173637968304
 20
-151.1539089248851
 30
0.0
 10
107.887299235181
 20
-151.3065266548817
 30
0.0
 10
108.115709065853
 20
-151.3065266548817
 30
0.0
 10
108.2318087837059
 20
-151.3065266548817
 30
0.0
 10
108.2807291395965
 20
-151.2682860949954
 30
0.0
 10
108.3124240180608
 20
-151.2365912165311
 30
0.0
 10
108.3864935709937
 20
-151.1625216635983
 30
0.0
 10
108.3992404242891
 20
-151.0460774361968
 30
0.0
 10
108.3992404242891
 20
-150.9913004179813
 30
0.0
 10
108.3992404242891
 20
-150.972007883264
 30
0.0
 10
108.3971733669979
 20
-150.9361788902173
 30
0.0
 10
108.3930392524156
 20
-150.9086181263353
 30
0.0
 10
108.3930392524156
 20
-150.9086181263353
 30
0.0
 10
108.5873426377837
 20
-150.9086181263353
 30
0.0
 10
108.5873426377837
 20
-150.9086181263353
 30
0.0
 10
108.5811414659103
 20
-150.9468586862216
 30
0.0
 10
108.5790744086191
 20
-150.9888888511417
 30
0.0
 10
108.5790744086191
 20
-150.9954345325636
 30
0.0
 10
108.5790744086191
 20
-151.0608913467834
 30
0.0
 10
108.6000894910791
 20
-151.2596733562823
 30
0.0
 10
108.8371120604643
 20
-151.2596733562823
 30
0.0
 10
109.0145344779547
 20
-151.2596733562823
 30
0.0
 10
109.0696560057187
 20
-151.1287597278428
 30
0.0
 10
109.0696560057187
 20
-151.0185166723148
 30
0.0
 10
109.0696560057187
 20
-150.7542778485962
 30
0.0
 10
108.8371120604643
 20
-150.745665109883
 30
0.0
 10
108.7651095648226
 20
-150.7415309953007
 30
0.0
 10
108.7651095648226
 20
-150.7415309953007
 30
0.0
 10
108.7651095648226
 20
-150.538270361671
 30
0.0
 10
108.7651095648226
 20
-150.538270361671
 30
0.0
 10
108.8898220213887
 20
-150.5468831003841
 30
0.0
 10
109.266715467475
 20
-150.5744438642661
 30
0.0
 10
109.266715467475
 20
-151.0312635256103
 30
0.0
 10
109.266715467475
 20
-151.2555392417
 30
0.0
 10
109.1395914440693
 20
-151.4966959256675
 30
0.0
 10
108.8436577418863
 20
-151.4966959256675
 30
0.0
 10
108.6572780761343
 20
-151.4966959256675
 30
0.0
 10
108.5749402940368
 20
-151.4016112902746
 30
0.0
 10
108.5136175943994
 20
-151.3020480307509
 30
0.0
 10
108.4860568305174
 20
-151.3633707303883
 30
0.0
 10
108.4054415961625
 20
-151.5452717720095
 30
0.0
 10
108.1284559191485
 20
-151.5452717720095
 30
0.0
 10
107.7898030329484
 20
-151.5452717720095
 30
0.0
 10
107.6227159019138
 20
-151.2979139161686
 30
0.0
 10
107.6227159019138
 20
-151.0209282391545
 30
0.0
  0
HATCH
  5
56
330
41
100
AcDbEntity
  8
_U+30EC_U+30A4_U+30E4_U+30FC 1
 62
   179
420
  2234388
100
AcDbHatch
 10
0.0
 20
0.0
 30
0.0
210
0.0
220
0.0
230
1.0
  2
SOLID
 70
     1
 71
     0
 91
        1
 92
        1
 93
        1
 72
     4
 94
        3
 73
     0
 74
     1
 95
       62
 96
       58
 40
0.0
 40
0.0
 40
0.0
 40
0.0
 40
1.0
 40
1.0
 40
1.0
 40
2.0
 40
2.0
 40
2.0
 40
3.0
 40
3.0
 40
3.0
 40
4.0
 40
4.0
 40
4.0
 40
5.0
 40
5.0
 40
5.0
 40
6.0
 40
6.0
 40
6.0
 40
7.0
 40
7.0
 40
7.0
 40
8.0
 40
8.0
 40
8.0
 40
9.0
 40
9.0
 40
9.0
 40
10.0
 40
10.0
 40
10.0
 40
11.0
 40
11.0
 40
11.0
 40
12.0
 40
12.0
 40
12.0
 40
13.0
 40
13.0
 40
13.0
 40
14.0
 40
14.0
 40
14.0
 40
15.0
 40
15.0
 40
15.0
 40
16.0
 40
16.0
 40
16.0
 40
17.0
 40
17.0
 40
17.0
 40
18.0
 40
18.0
 40
18.0
 40
19.0
 40
19.0
 40
19.0
 40
19.0
 10
107.6227159019138
 20
-151.0209282391545
 10
107.6227159019138
 20
-150.9254990942131
 10
107.6440754939223
 20
-150.7077690595453
 10
107.8301106501258
 20
-150.5827120934307
 10
107.9424207629449
 20
-150.5086425404978
 10
108.0416395129202
 20
-150.5045084259156
 10
108.1263888618573
 20
-150.5003743113332
 10
108.1263888618573
 20
-150.5003743113332
 10
108.1263888618573
 20
-150.7205159128407
 10
108.1263888618573
 20
-150.7205159128407
 10
108.0519747993759
 20
-150.7225829701319
 10
107.8173637968304
 20
-150.7329182565876
 10
107.8173637968304
 20
-151.0164496150237
 10
107.8173637968304
 20
-151.1539089248851
 10
107.887299235181
 20
-151.3065266548817
 10
108.115709065853
 20
-151.3065266548817
 10
108.2318087837059
 20
-151.3065266548817
 10
108.2807291395965
 20
-151.2682860949954
 10
108.3124240180608
 20
-151.2365912165311
 10
108.3864935709937
 20
-151.1625216635983
 10
108.3992404242891
 20
-151.0460774361968
 10
108.3992404242891
 20
-150.9913004179813
 10
108.3992404242891
 20
-150.972007883264
 10
108.3971733669979
 20
-150.9361788902173
 10
108.3930392524156
 20
-150.9086181263353
 10
108.3930392524156
 20
-150.9086181263353
 10
108.5873426377837
 20
-150.9086181263353
 10
108.5873426377837
 20
-150.9086181263353
 10
108.5811414659103
 20
-150.9468586862216
 10
108.5790744086191
 20
-150.9888888511417
 10
108.5790744086191
 20
-150.9954345325636
 10
108.5790744086191
 20
-151.0608913467834
 10
108.6000894910791
 20
-151.2596733562823
 10
108.8371120604643
 20
-151.2596733562823
 10
109.0145344779547
 20
-151.2596733562823
 10
109.0696560057187
 20
-151.1287597278428
 10
109.0696560057187
 20
-151.0185166723148
 10
109.0696560057187
 20
-150.7542778485962
 10
108.8371120604643
 20
-150.745665109883
 10
108.7651095648226
 20
-150.7415309953007
 10
108.7651095648226
 20
-150.7415309953007
 10
108.7651095648226
 20
-150.538270361671
 10
108.7651095648226
 20
-150.538270361671
 10
108.8898220213887
 20
-150.5468831003841
 10
109.266715467475
 20
-150.5744438642661
 10
109.266715467475
 20
-151.0312635256103
 10
109.266715467475
 20
-151.2555392417
 10
109.1395914440693
 20
-151.4966959256675
 10
108.8436577418863
 20
-151.4966959256675
 10
108.6572780761343
 20
-151.4966959256675
 10
108.5749402940368
 20
-151.4016112902746
 10
108.5136175943994
 20
-151.3020480307509
 10
108.4860568305174
 20
-151.3633707303883
 10
108.4054415961625
 20
-151.5452717720095
 10
108.1284559191485
 20
-151.5452717720095
 10
107.7898030329484
 20
-151.5452717720095
 10
107.6227159019138
 20
-151.2979139161686
 10
107.6227159019138
 20
-151.0209282391545
 97
        0
 97
        0
 75
     2
 76
     1
 98
        0
  0
SPLINE
  5
57
330
41
100
AcDbEntity
  8
_U+30EC_U+30A4_U+30E4_U+30FC 1
370
     0
100
AcDbSpline
210
0.0
220
0.0
230
1.0
 70
    11
 71
     3
 72
    29
 73
    25
 74
     0
 42
0.0000000001
 43
0.0000000001
 12
1.0
 22
0.0
 32
0.0
 13
1.0
 23
0.0
 33
0.0
 40
0.0
 40
0.0
 40
0.0
 40
0.0
 40
1.0
 40
1.0
 40
1.0
 40
2.0
 40
2.0
 40
2.0
 40
3.0
 40
3.0
 40
3.0
 40
4.0
 40
4.0
 40
4.0
 40
5.0
 40
5.0
 40
5.0
 40
6.0
 40
6.0
 40
6.0
 40
7.0
 40
7.0
 40
7.0
 40
8.0
 40
8.0
 40
8.0
 40
8.0
 10
107.8514702421344
 20
-152.6039496146268
 30
0.0
 10
107.6420084366312
 20
-152.49577361639
 30
0.0
 10
107.6227159019138
 20
-152.3224853134819
 30
0.0
 10
107.6227159019138
 20
-152.2060410860804
 30
0.0
 10
107.6227159019138
 20
-152.0451551269193
 30
0.0
 10
107.6692246909646
 20
-151.9035617024755
 30
0.0
 10
107.8514702421344
 20
-151.8084770670826
 30
0.0
 10
108.0457736275025
 20
-151.7047796929766
 30
0.0
 10
108.2827961968876
 20
-151.6854871582592
 30
0.0
 10
108.44574921334
 20
-151.6854871582592
 30
0.0
 10
108.5894096950749
 20
-151.6854871582592
 30
0.0
 10
108.8412461750466
 20
-151.7027126356854
 30
0.0
 10
109.0400281845455
 20
-151.8084770670826
 30
0.0
 10
109.2432888181753
 20
-151.9163085557709
 30
0.0
 10
109.266715467475
 20
-152.0771945149321
 30
0.0
 10
109.266715467475
 20
-152.2060410860804
 30
0.0
 10
109.266715467475
 20
-152.3648599879505
 30
0.0
 10
109.2219292261668
 20
-152.5085204696854
 30
0.0
 10
109.0400281845455
 20
-152.6039496146268
 30
0.0
 10
108.8477918564686
 20
-152.703168364602
 30
0.0
 10
108.619037516248
 20
-152.7265950139017
 30
0.0
 10
108.44574921334
 20
-152.7265950139017
 30
0.0
 10
108.274527967723
 20
-152.7265950139017
 30
0.0
 10
108.0437065702113
 20
-152.7052354218931
 30
0.0
 10
107.8514702421344
 20
-152.6039496146268
 30
0.0
  0
SPLINE
  5
58
330
41
100
AcDbEntity
  8
_U+30EC_U+30A4_U+30E4_U+30FC 1
370
     0
100
AcDbSpline
210
0.0
220
0.0
230
1.0
 70
    11
 71
     3
 72
    17
 73
    13
 74
     0
 42
0.0000000001
 43
0.0000000001
 12
1.0
 22
0.0
 32
0.0
 13
1.0
 23
0.0
 33
0.0
 40
0.0
 40
0.0
 40
0.0
 40
0.0
 40
1.0
 40
1.0
 40
1.0
 40
2.0
 40
2.0
 40
2.0
 40
3.0
 40
3.0
 40
3.0
 40
4.0
 40
4.0
 40
4.0
 40
4.0
 10
109.073790120301
 20
-152.2060410860804
 30
0.0
 10
109.073790120301
 20
-151.9562716633998
 30
0.0
 10
108.7906032714135
 20
-151.909762874349
 30
0.0
 10
108.44574921334
 20
-151.909762874349
 30
0.0
 10
108.1263888618573
 20
-151.909762874349
 30
0.0
 10
107.8173637968304
 20
-151.9459363769441
 30
0.0
 10
107.8173637968304
 20
-152.2060410860804
 30
0.0
 10
107.8173637968304
 20
-152.4537434514699
 30
0.0
 10
108.0988280979753
 20
-152.5023192978119
 30
0.0
 10
108.44574921334
 20
-152.5023192978119
 30
0.0
 10
108.7651095648226
 20
-152.5023192978119
 30
0.0
 10
109.073790120301
 20
-152.4640787379257
 30
0.0
 10
109.073790120301
 20
-152.2060410860804
 30
0.0
  0
HATCH
  5
59
330
41
100
AcDbEntity
  8
_U+30EC_U+30A4_U+30E4_U+30FC 1
 62
   179
420
  2234388
100
AcDbHatch
 10
0.0
 20
0.0
 30
0.0
210
0.0
220
0.0
230
1.0
  2
SOLID
 70
     1
 71
     0
 91
        2
 92
        1
 93
        1
 72
     4
 94
        3
 73
     0
 74
     1
 95
       29
 96
       25
 40
0.0
 40
0.0
 40
0.0
 40
0.0
 40
1.0
 40
1.0
 40
1.0
 40
2.0
 40
2.0
 40
2.0
 40
3.0
 40
3.0
 40
3.0
 40
4.0
 40
4.0
 40
4.0
 40
5.0
 40
5.0
 40
5.0
 40
6.0
 40
6.0
 40
6.0
 40
7.0
 40
7.0
 40
7.0
 40
8.0
 40
8.0
 40
8.0
 40
8.0
 10
107.8514702421344
 20
-152.6039496146268
 10
107.6420084366312
 20
-152.49577361639
 10
107.6227159019138
 20
-152.3224853134819
 10
107.6227159019138
 20
-152.2060410860804
 10
107.6227159019138
 20
-152.0451551269193
 10
107.6692246909646
 20
-151.9035617024755
 10
107.8514702421344
 20
-151.8084770670826
 10
108.0457736275025
 20
-151.7047796929766
 10
108.2827961968876
 20
-151.6854871582592
 10
108.44574921334
 20
-151.6854871582592
 10
108.5894096950749
 20
-151.6854871582592
 10
108.8412461750466
 20
-151.7027126356854
 10
109.0400281845455
 20
-151.8084770670826
 10
109.2432888181753
 20
-151.9163085557709
 10
109.266715467475
 20
-152.0771945149321
 10
109.266715467475
 20
-152.2060410860804
 10
109.266715467475
 20
-152.3648599879505
 10
109.2219292261668
 20
-152.5085204696854
 10
109.0400281845455
 20
-152.6039496146268
 10
108.8477918564686
 20
-152.703168364602
 10
108.619037516248
 20
-152.7265950139017
 10
108.44574921334
 20
-152.7265950139017
 10
108.274527967723
 20
-152.7265950139017
 10
108.0437065702113
 20
-152.7052354218931
 10
107.8514702421344
 20
-152.6039496146268
 97
        0
 97
        0
 92
        1
 93
        1
 72
     4
 94
        3
 73
     0
 74
     1
 95
       17
 96
       13
 40
0.0
 40
0.0
 40
0.0
 40
0.0
 40
1.0
 40
1.0
 40
1.0
 40
2.0
 40
2.0
 40
2.0
 40
3.0
 40
3.0
 40
3.0
 40
4.0
 40
4.0
 40
4.0
 40
4.0
 10
109.073790120301
 20
-152.2060410860804
 10
109.073790120301
 20
-151.9562716633998
 10
108.7906032714135
 20
-151.909762874349
 10
108.44574921334
 20
-151.909762874349
 10
108.1263888618573
 20
-151.909762874349
 10
107.8173637968304
 20
-151.9459363769441
 10
107.8173637968304
 20
-152.2060410860804
 10
107.8173637968304
 20
-152.4537434514699
 10
108.0988280979753
 20
-152.5023192978119
 10
108.44574921334
 20
-152.5023192978119
 10
108.7651095648226
 20
-152.5023192978119
 10
109.073790120301
 20
-152.4640787379257
 10
109.073790120301
 20
-152.2060410860804
 97
        0
 97
        0
 75
     2
 76
     1
 98
        0
  0
SPLINE
  5
5A
330
41
100
AcDbEntity
  8
_U+30EC_U+30A4_U+30E4_U+30FC 1
370
     0
100
AcDbSpline
210
0.0
220
0.0
230
1.0
 70
    11
 71
     3
 72
    20
 73
    16
 74
     0
 42
0.0000000001
 43
0.0000000001
 12
1.0
 22
0.0
 32
0.0
 13
1.0
 23
0.0
 33
0.0
 40
0.0
 40
0.0
 40
0.0
 40
0.0
 40
1.0
 40
1.0
 40
1.0
 40
2.0
 40
2.0
 40
2.0
 40
3.0
 40
3.0
 40
3.0
 40
4.0
 40
4.0
 40
4.0
 40
5.0
 40
5.0
 40
5.0
 40
5.0
 10
107.6737033150955
 20
-153.6178412159358
 30
0.0
 10
107.6737033150955
 20
-153.6178412159358
 30
0.0
 10
107.6737033150955
 20
-153.0001355954305
 30
0.0
 10
107.6737033150955
 20
-153.0001355954305
 30
0.0
 10
107.6737033150955
 20
-153.0001355954305
 30
0.0
 10
109.2177951115845
 20
-153.0001355954305
 30
0.0
 10
109.2177951115845
 20
-153.0001355954305
 30
0.0
 10
109.2177951115845
 20
-153.0001355954305
 30
0.0
 10
109.2177951115845
 20
-153.6178412159358
 30
0.0
 10
109.2177951115845
 20
-153.6178412159358
 30
0.0
 10
109.2177951115845
 20
-154.0812065587019
 30
0.0
 10
108.8477918564686
 20
-154.2882567973654
 30
0.0
 10
108.439203531918
 20
-154.2882567973654
 30
0.0
 10
108.088148301971
 20
-154.2882567973654
 30
0.0
 10
107.6737033150955
 20
-154.1104898703265
 30
0.0
 10
107.6737033150955
 20
-153.6178412159358
 30
0.0
  0
SPLINE
  5
5B
330
41
100
AcDbEntity
  8
_U+30EC_U+30A4_U+30E4_U+30FC 1
370
     0
100
AcDbSpline
210
0.0
220
0.0
230
1.0
 70
    11
 71
     3
 72
    20
 73
    16
 74
     0
 42
0.0000000001
 43
0.0000000001
 12
1.0
 22
0.0
 32
0.0
 13
1.0
 23
0.0
 33
0.0
 40
0.0
 40
0.0
 40
0.0
 40
0.0
 40
1.0
 40
1.0
 40
1.0
 40
2.0
 40
2.0
 40
2.0
 40
3.0
 40
3.0
 40
3.0
 40
4.0
 40
4.0
 40
4.0
 40
5.0
 40
5.0
 40
5.0
 40
5.0
 10
109.0062662487901
 20
-153.619908273227
 30
0.0
 10
109.0062662487901
 20
-153.619908273227
 30
0.0
 10
109.0062662487901
 20
-153.2347465979761
 30
0.0
 10
109.0062662487901
 20
-153.2347465979761
 30
0.0
 10
109.0062662487901
 20
-153.2347465979761
 30
0.0
 10
107.8852321778898
 20
-153.2347465979761
 30
0.0
 10
107.8852321778898
 20
-153.2347465979761
 30
0.0
 10
107.8852321778898
 20
-153.2347465979761
 30
0.0
 10
107.8852321778898
 20
-153.619908273227
 30
0.0
 10
107.8852321778898
 20
-153.619908273227
 30
0.0
 10
107.8852321778898
 20
-153.9878444710517
 30
0.0
 10
108.2297417264148
 20
-154.0491671706891
 30
0.0
 10
108.4519503852134
 20
-154.0491671706891
 30
0.0
 10
108.6614121907166
 20
-154.0491671706891
 30
0.0
 10
109.0062662487901
 20
-153.9857774137605
 30
0.0
 10
109.0062662487901
 20
-153.619908273227
 30
0.0
  0
HATCH
  5
5C
330
41
100
AcDbEntity
  8
_U+30EC_U+30A4_U+30E4_U+30FC 1
 62
   179
420
  2234388
100
AcDbHatch
 10
0.0
 20
0.0
 30
0.0
210
0.0
220
0.0
230
1.0
  2
SOLID
 70
     1
 71
     0
 91
        2
 92
        1
 93
        1
 72
     4
 94
        3
 73
     0
 74
     1
 95
       20
 96
       16
 40
0.0
 40
0.0
 40
0.0
 40
0.0
 40
1.0
 40
1.0
 40
1.0
 40
2.0
 40
2.0
 40
2.0
 40
3.0
 40
3.0
 40
3.0
 40
4.0
 40
4.0
 40
4.0
 40
5.0
 40
5.0
 40
5.0
 40
5.0
 10
107.6737033150955
 20
-153.6178412159358
 10
107.6737033150955
 20
-153.6178412159358
 10
107.6737033150955
 20
-153.0001355954305
 10
107.6737033150955
 20
-153.0001355954305
 10
107.6737033150955
 20
-153.0001355954305
 10
109.2177951115845
 20
-153.0001355954305
 10
109.2177951115845
 20
-153.0001355954305
 10
109.2177951115845
 20
-153.0001355954305
 10
109.2177951115845
 20
-153.6178412159358
 10
109.2177951115845
 20
-153.6178412159358
 10
109.2177951115845
 20
-154.0812065587019
 10
108.8477918564686
 20
-154.2882567973654
 10
108.439203531918
 20
-154.2882567973654
 10
108.088148301971
 20
-154.2882567973654
 10
107.6737033150955
 20
-154.1104898703265
 10
107.6737033150955
 20
-153.6178412159358
 97
        0
 97
        0
 92
        1
 93
        1
 72
     4
 94
        3
 73
     0
 74
     1
 95
       20
 96
       16
 40
0.0
 40
0.0
 40
0.0
 40
0.0
 40
1.0
 40
1.0
 40
1.0
 40
2.0
 40
2.0
 40
2.0
 40
3.0
 40
3.0
 40
3.0
 40
4.0
 40
4.0
 40
4.0
 40
5.0
 40
5.0
 40
5.0
 40
5.0
 10
109.0062662487901
 20
-153.619908273227
 10
109.0062662487901
 20
-153.619908273227
 10
109.0062662487901
 20
-153.2347465979761
 10
109.0062662487901
 20
-153.2347465979761
 10
109.0062662487901
 20
-153.2347465979761
 10
107.8852321778898
 20
-153.2347465979761
 10
107.8852321778898
 20
-153.2347465979761
 10
107.8852321778898
 20
-153.2347465979761
 10
107.8852321778898
 20
-153.619908273227
 10
107.8852321778898
 20
-153.619908273227
 10
107.8852321778898
 20
-153.9878444710517
 10
108.2297417264148
 20
-154.0491671706891
 10
108.4519503852134
 20
-154.0491671706891
 10
108.6614121907166
 20
-154.0491671706891
 10
109.0062662487901
 20
-153.9857774137605
 10
109.0062662487901
 20
-153.619908273227
 97
        0
 97
        0
 75
     2
 76
     1
 98
        0
  0
POLYLINE
  5
5D
330
41
100
AcDbEntity
  8
_U+30EC_U+30A4_U+30E4_U+30FC 1
370
     0
100
AcDb2dPolyline
 66
     1
 10
0.0
 20
0.0
 30
0.0
  0
VERTEX
  5
5E
330
5D
100
AcDbEntity
  8
_U+30EC_U+30A4_U+30E4_U+30FC 1
370
     0
100
AcDbVertex
100
AcDb2dVertex
 10
107.6737033150955
 20
-155.5436495921905
 30
0.0
  0
VERTEX
  5
5F
330
5D
100
AcDbEntity
  8
_U+30EC_U+30A4_U+30E4_U+30FC 1
370
     0
100
AcDbVertex
100
AcDb2dVertex
 10
108.4371364746268
 20
-155.0547905428335
 30
0.0
  0
VERTEX
  5
60
330
5D
100
AcDbEntity
  8
_U+30EC_U+30A4_U+30E4_U+30FC 1
370
     0
100
AcDbVertex
100
AcDb2dVertex
 10
108.1749647081993
 20
-154.8094997442838
 30
0.0
  0
VERTEX
  5
61
330
5D
100
AcDbEntity
  8
_U+30EC_U+30A4_U+30E4_U+30FC 1
370
     0
100
AcDbVertex
100
AcDb2dVertex
 10
107.6737033150955
 20
-154.8094997442838
 30
0.0
  0
VERTEX
  5
62
330
5D
100
AcDbEntity
  8
_U+30EC_U+30A4_U+30E4_U+30FC 1
370
     0
100
AcDbVertex
100
AcDb2dVertex
 10
107.6737033150955
 20
-154.5748887417382
 30
0.0
  0
VERTEX
  5
63
330
5D
100
AcDbEntity
  8
_U+30EC_U+30A4_U+30E4_U+30FC 1
370
     0
100
AcDbVertex
100
AcDb2dVertex
 10
109.2177951115845
 20
-154.5748887417382
 30
0.0
  0
VERTEX
  5
64
330
5D
100
AcDbEntity
  8
_U+30EC_U+30A4_U+30E4_U+30FC 1
370
     0
100
AcDbVertex
100
AcDb2dVertex
 10
109.2177951115845
 20
-154.8094997442838
 30
0.0
  0
VERTEX
  5
65
330
5D
100
AcDbEntity
  8
_U+30EC_U+30A4_U+30E4_U+30FC 1
370
     0
100
AcDbVertex
100
AcDb2dVertex
 10
108.4901909450997
 20
-154.8094997442838
 30
0.0
  0
VERTEX
  5
66
330
5D
100
AcDbEntity
  8
_U+30EC_U+30A4_U+30E4_U+30FC 1
370
     0
100
AcDbVertex
100
AcDb2dVertex
 10
109.2177951115845
 20
-155.4885280644265
 30
0.0
  0
VERTEX
  5
67
330
5D
100
AcDbEntity
  8
_U+30EC_U+30A4_U+30E4_U+30FC 1
370
     0
100
AcDbVertex
100
AcDb2dVertex
 10
109.2177951115845
 20
-155.7827392188668
 30
0.0
  0
VERTEX
  5
68
330
5D
100
AcDbEntity
  8
_U+30EC_U+30A4_U+30E4_U+30FC 1
370
     0
100
AcDbVertex
100
AcDb2dVertex
 10
108.6066351725011
 20
-155.2115423874124
 30
0.0
  0
VERTEX
  5
69
330
5D
100
AcDbEntity
  8
_U+30EC_U+30A4_U+30E4_U+30FC 1
370
     0
100
AcDbVertex
100
AcDb2dVertex
 10
107.6737033150955
 20
-155.8082329254577
 30
0.0
  0
VERTEX
  5
6A
330
5D
100
AcDbEntity
  8
_U+30EC_U+30A4_U+30E4_U+30FC 1
370
     0
100
AcDbVertex
100
AcDb2dVertex
 10
107.6737033150955
 20
-155.5436495921905
 30
0.0
  0
SEQEND
  5
6B
330
5D
100
AcDbEntity
  8
_U+30EC_U+30A4_U+30E4_U+30FC 1
370
     0
  0
HATCH
  5
6C
330
41
100
AcDbEntity
  8
_U+30EC_U+30A4_U+30E4_U+30FC 1
 62
   179
420
  2234388
100
AcDbHatch
 10
0.0
 20
0.0
 30
0.0
210
0.0
220
0.0
230
1.0
  2
SOLID
 70
     1
 71
     0
 91
        1
 92
        1
 93
       12
 72
     1
 10
107.6737033150955
 20
-155.5436495921905
 11
108.4371364746268
 21
-155.0547905428335
 72
     1
 10
108.4371364746268
 20
-155.0547905428335
 11
108.1749647081993
 21
-154.8094997442838
 72
     1
 10
108.1749647081993
 20
-154.8094997442838
 11
107.6737033150955
 21
-154.8094997442838
 72
     1
 10
107.6737033150955
 20
-154.8094997442838
 11
107.6737033150955
 21
-154.5748887417382
 72
     1
 10
107.6737033150955
 20
-154.5748887417382
 11
109.2177951115845
 21
-154.5748887417382
 72
     1
 10
109.2177951115845
 20
-154.5748887417382
 11
109.2177951115845
 21
-154.8094997442838
 72
     1
 10
109.2177951115845
 20
-154.8094997442838
 11
108.4901909450997
 21
-154.8094997442838
 72
     1
 10
108.4901909450997
 20
-154.8094997442838
 11
109.2177951115845
 21
-155.4885280644265
 72
     1
 10
109.2177951115845
 20
-155.4885280644265
 11
109.2177951115845
 21
-155.7827392188668
 72
     1
 10
109.2177951115845
 20
-155.7827392188668
 11
108.6066351725011
 21
-155.2115423874124
 72
     1
 10
108.6066351725011
 20
-155.2115423874124
 11
107.6737033150955
 21
-155.8082329254577
 72
     1
 10
107.6737033150955
 20
-155.8082329254577
 11
107.6737033150955
 21
-155.5436495921905
 97
        0
 75
     2
 76
     1
 98
        0
  0
SPLINE
  5
6D
330
41
100
AcDbEntity
  8
_U+30EC_U+30A4_U+30E4_U+30FC 1
370
     0
100
AcDbSpline
210
0.0
220
0.0
230
1.0
 70
    11
 71
     3
 72
    47
 73
    43
 74
     0
 42
0.0000000001
 43
0.0000000001
 12
1.0
 22
0.0
 32
0.0
 13
1.0
 23
0.0
 33
0.0
 40
0.0
 40
0.0
 40
0.0
 40
0.0
 40
1.0
 40
1.0
 40
1.0
 40
2.0
 40
2.0
 40
2.0
 40
3.0
 40
3.0
 40
3.0
 40
4.0
 40
4.0
 40
4.0
 40
5.0
 40
5.0
 40
5.0
 40
6.0
 40
6.0
 40
6.0
 40
7.0
 40
7.0
 40
7.0
 40
8.0
 40
8.0
 40
8.0
 40
9.0
 40
9.0
 40
9.0
 40
10.0
 40
10.0
 40
10.0
 40
11.0
 40
11.0
 40
11.0
 40
12.0
 40
12.0
 40
12.0
 40
13.0
 40
13.0
 40
13.0
 40
14.0
 40
14.0
 40
14.0
 40
14.0
 10
109.3321722816947
 20
-157.7912298867675
 30
0.0
 10
109.2029812009979
 20
-157.7870957721852
 30
0.0
 10
109.1034179414741
 20
-157.7826171480544
 30
0.0
 10
108.9935193954947
 20
-157.7826171480544
 30
0.0
 10
108.9935193954947
 20
-157.7826171480544
 30
0.0
 10
108.2724609104319
 20
-157.7826171480544
 30
0.0
 10
108.2724609104319
 20
-157.7826171480544
 30
0.0
 10
108.2428330892587
 20
-157.7826171480544
 30
0.0
 10
108.2173393826679
 20
-157.7870957721852
 30
0.0
 10
107.9885850424473
 20
-157.7912298867675
 30
0.0
 10
107.9885850424473
 20
-157.7912298867675
 30
0.0
 10
107.7791232369441
 20
-157.7953640013498
 30
0.0
 10
107.7791232369441
 20
-157.7953640013498
 30
0.0
 10
107.612380615458
 20
-157.7998426254806
 30
0.0
 10
107.529698323812
 20
-157.7595350083032
 30
0.0
 10
107.529698323812
 20
-157.52905812034
 30
0.0
 10
107.529698323812
 20
-157.4908175604537
 30
0.0
 10
107.529698323812
 20
-157.4653238538629
 30
0.0
 10
107.5317653811032
 20
-157.4315619181074
 30
0.0
 10
107.5317653811032
 20
-157.4315619181074
 30
0.0
 10
107.7646538359061
 20
-157.3109835761236
 30
0.0
 10
107.7646538359061
 20
-157.3109835761236
 30
0.0
 10
107.7539740399018
 20
-157.3871201863477
 30
0.0
 10
107.7474283584798
 20
-157.4846163885802
 30
0.0
 10
107.7474283584798
 20
-157.5331922349223
 30
0.0
 10
107.7474283584798
 20
-157.5879692531377
 30
0.0
 10
107.7605197213238
 20
-157.5879692531377
 30
0.0
 10
107.8535372994255
 20
-157.5879692531377
 30
0.0
 10
107.8535372994255
 20
-157.5879692531377
 30
0.0
 10
108.9725043130347
 20
-157.5879692531377
 30
0.0
 10
108.9725043130347
 20
-157.5879692531377
 30
0.0
 10
109.1247775334827
 20
-157.5879692531377
 30
0.0
 10
109.2749836966396
 20
-157.5838351385554
 30
0.0
 10
109.4272569170876
 20
-157.577633966682
 30
0.0
 10
109.4272569170876
 20
-157.577633966682
 30
0.0
 10
109.4058973250791
 20
-157.7826171480544
 30
0.0
 10
109.4058973250791
 20
-157.7826171480544
 30
0.0
 10
109.4017632104968
 20
-157.8187906506495
 30
0.0
 10
109.3996961532056
 20
-157.8315375039449
 30
0.0
 10
109.3807481280368
 20
-157.8315375039449
 30
0.0
 10
109.3680012747413
 20
-157.8315375039449
 30
0.0
 10
109.3511203068636
 20
-157.8122449692275
 30
0.0
 10
109.3321722816947
 20
-157.7912298867675
 30
0.0
  0
SPLINE
  5
6E
330
41
100
AcDbEntity
  8
_U+30EC_U+30A4_U+30E4_U+30FC 1
370
     0
100
AcDbSpline
210
0.0
220
0.0
230
1.0
 70
    11
 71
     3
 72
    83
 73
    79
 74
     0
 42
0.0000000001
 43
0.0000000001
 12
1.0
 22
0.0
 32
0.0
 13
1.0
 23
0.0
 33
0.0
 40
0.0
 40
0.0
 40
0.0
 40
0.0
 40
1.0
 40
1.0
 40
1.0
 40
2.0
 40
2.0
 40
2.0
 40
3.0
 40
3.0
 40
3.0
 40
4.0
 40
4.0
 40
4.0
 40
5.0
 40
5.0
 40
5.0
 40
6.0
 40
6.0
 40
6.0
 40
7.0
 40
7.0
 40
7.0
 40
8.0
 40
8.0
 40
8.0
 40
9.0
 40
9.0
 40
9.0
 40
10.0
 40
10.0
 40
10.0
 40
11.0
 40
11.0
 40
11.0
 40
12.0
 40
12.0
 40
12.0
 40
13.0
 40
13.0
 40
13.0
 40
14.0
 40
14.0
 40
14.0
 40
15.0
 40
15.0
 40
15.0
 40
16.0
 40
16.0
 40
16.0
 40
17.0
 40
17.0
 40
17.0
 40
18.0
 40
18.0
 40
18.0
 40
19.0
 40
19.0
 40
19.0
 40
20.0
 40
20.0
 40
20.0
 40
21.0
 40
21.0
 40
21.0
 40
22.0
 40
22.0
 40
22.0
 40
23.0
 40
23.0
 40
23.0
 40
24.0
 40
24.0
 40
24.0
 40
25.0
 40
25.0
 40
25.0
 40
26.0
 40
26.0
 40
26.0
 40
26.0
 10
108.6910400118897
 20
-156.6381564278544
 30
0.0
 10
108.6910400118897
 20
-156.6381564278544
 30
0.0
 10
108.6910400118897
 20
-156.5220567100014
 30
0.0
 10
108.6910400118897
 20
-156.5220567100014
 30
0.0
 10
108.6021565483703
 20
-156.5196451431618
 30
0.0
 10
108.5387667914417
 20
-156.5113769139972
 30
0.0
 10
108.4815782063866
 20
-156.5048312325752
 30
0.0
 10
108.4815782063866
 20
-156.5048312325752
 30
0.0
 10
108.4815782063866
 20
-156.943047378299
 30
0.0
 10
108.4815782063866
 20
-156.943047378299
 30
0.0
 10
108.3293049859385
 20
-156.936501696877
 30
0.0
 10
107.9444878202361
 20
-156.9216877862904
 30
0.0
 10
107.721934651889
 20
-156.832804322771
 30
0.0
 10
107.6013563099052
 20
-156.7862955337201
 30
0.0
 10
107.5551920304029
 20
-156.7229057767915
 30
0.0
 10
107.5551920304029
 20
-156.5389376778792
 30
0.0
 10
107.5551920304029
 20
-156.4900173219886
 30
0.0
 10
107.557259087694
 20
-156.4710692968197
 30
0.0
 10
107.5613932022763
 20
-156.4459200997774
 30
0.0
 10
107.5613932022763
 20
-156.4459200997774
 30
0.0
 10
107.7942816570792
 20
-156.3673719227137
 30
0.0
 10
107.7942816570792
 20
-156.3673719227137
 30
0.0
 10
107.7942816570792
 20
-156.3739176041357
 30
0.0
 10
107.7922145997881
 20
-156.3801187760091
 30
0.0
 10
107.7749891223618
 20
-156.4479871570686
 30
0.0
 10
107.7646538359061
 20
-156.4900173219886
 30
0.0
 10
107.7605197213238
 20
-156.5241237672926
 30
0.0
 10
107.7605197213238
 20
-156.5389376778792
 30
0.0
 10
107.7605197213238
 20
-156.6150742881032
 30
0.0
 10
107.804616943535
 20
-156.6402234851455
 30
0.0
 10
107.8383788792904
 20
-156.6574489625717
 30
0.0
 10
107.8556043567167
 20
-156.6657171917363
 30
0.0
 10
107.9885850424473
 20
-156.7208387195004
 30
0.0
 10
108.3103569607696
 20
-156.7377196873781
 30
0.0
 10
108.3103569607696
 20
-156.7377196873781
 30
0.0
 10
108.3103569607696
 20
-156.4731363541109
 30
0.0
 10
108.3103569607696
 20
-156.4731363541109
 30
0.0
 10
107.9400091961053
 20
-156.3907985720134
 30
0.0
 10
107.6840386015512
 20
-156.219232816848
 30
0.0
 10
107.5675943741498
 20
-156.0500786285222
 30
0.0
 10
107.5675943741498
 20
-156.0500786285222
 30
0.0
 10
107.7264132760198
 20
-155.8916042362007
 30
0.0
 10
107.7264132760198
 20
-155.8916042362007
 30
0.0
 10
107.9424207629449
 20
-156.2278455555611
 30
0.0
 10
108.3358506673605
 20
-156.3187960763717
 30
0.0
 10
108.6910400118897
 20
-156.3274088150848
 30
0.0
 10
108.6910400118897
 20
-156.274354344612
 30
0.0
 10
108.6910400118897
 20
-156.2660861154474
 30
0.0
 10
108.6824272731766
 20
-156.0015027821802
 30
0.0
 10
108.7437499728141
 20
-156.0056368967625
 30
0.0
 10
108.8412461750466
 20
-156.0101155208933
 30
0.0
 10
108.9366753199881
 20
-156.0101155208933
 30
0.0
 10
108.9366753199881
 20
-156.0101155208933
 30
0.0
 10
109.1416585013604
 20
-156.0101155208933
 30
0.0
 10
109.1416585013604
 20
-156.0101155208933
 30
0.0
 10
109.1692192652424
 20
-156.0101155208933
 30
0.0
 10
109.2918646645173
 20
-156.0077039540536
 30
0.0
 10
109.3511203068636
 20
-156.0015027821802
 30
0.0
 10
109.3425075681505
 20
-156.0776393924042
 30
0.0
 10
109.3383734535682
 20
-156.2130316449745
 30
0.0
 10
109.3383734535682
 20
-156.2957139366205
 30
0.0
 10
109.3383734535682
 20
-156.2957139366205
 30
0.0
 10
109.3383734535682
 20
-156.6192084026855
 30
0.0
 10
109.3383734535682
 20
-156.6192084026855
 30
0.0
 10
109.3383734535682
 20
-156.7673475085512
 30
0.0
 10
109.3404405108593
 20
-156.8159233548932
 30
0.0
 10
109.3511203068636
 20
-156.9471814928813
 30
0.0
 10
109.2770507539307
 20
-156.9385687541681
 30
0.0
 10
109.1778320039555
 20
-156.9385687541681
 30
0.0
 10
109.1330457626473
 20
-156.9385687541681
 30
0.0
 10
109.1330457626473
 20
-156.9385687541681
 30
0.0
 10
108.9387423772792
 20
-156.9385687541681
 30
0.0
 10
108.9387423772792
 20
-156.9385687541681
 30
0.0
 10
108.8181640352955
 20
-156.9385687541681
 30
0.0
 10
108.7947373859958
 20
-156.9385687541681
 30
0.0
 10
108.6824272731766
 20
-156.9471814928813
 30
0.0
 10
108.6910400118897
 20
-156.8224690363152
 30
0.0
 10
108.6910400118897
 20
-156.7821614191378
 30
0.0
 10
108.6910400118897
 20
-156.6381564278544
 30
0.0
  0
SPLINE
  5
6F
330
41
100
AcDbEntity
  8
_U+30EC_U+30A4_U+30E4_U+30FC 1
370
     0
100
AcDbSpline
210
0.0
220
0.0
230
1.0
 70
    11
 71
     3
 72
    41
 73
    37
 74
     0
 42
0.0000000001
 43
0.0000000001
 12
1.0
 22
0.0
 32
0.0
 13
1.0
 23
0.0
 33
0.0
 40
0.0
 40
0.0
 40
0.0
 40
0.0
 40
1.0
 40
1.0
 40
1.0
 40
2.0
 40
2.0
 40
2.0
 40
3.0
 40
3.0
 40
3.0
 40
4.0
 40
4.0
 40
4.0
 40
5.0
 40
5.0
 40
5.0
 40
6.0
 40
6.0
 40
6.0
 40
7.0
 40
7.0
 40
7.0
 40
8.0
 40
8.0
 40
8.0
 40
9.0
 40
9.0
 40
9.0
 40
10.0
 40
10.0
 40
10.0
 40
11.0
 40
11.0
 40
11.0
 40
12.0
 40
12.0
 40
12.0
 40
12.0
 10
109.1144422470269
 20
-157.3512911933011
 30
0.0
 10
109.0062662487901
 20
-157.3492241360099
 30
0.0
 10
108.8918890786798
 20
-157.3492241360099
 30
0.0
 10
108.78440209954
 20
-157.3492241360099
 30
0.0
 10
108.78440209954
 20
-157.3492241360099
 30
0.0
 10
108.4881238878085
 20
-157.3492241360099
 30
0.0
 10
108.4881238878085
 20
-157.3492241360099
 30
0.0
 10
108.3696126031159
 20
-157.3492241360099
 30
0.0
 10
108.1601507976127
 20
-157.3533582505922
 30
0.0
 10
108.0437065702113
 20
-157.3702392184699
 30
0.0
 10
108.0437065702113
 20
-157.3702392184699
 30
0.0
 10
108.0437065702113
 20
-157.1184027384982
 30
0.0
 10
108.0437065702113
 20
-157.1184027384982
 30
0.0
 10
108.1325900337308
 20
-157.1290825345025
 30
0.0
 10
108.4013074815802
 20
-157.1459635023802
 30
0.0
 10
108.4881238878085
 20
-157.1459635023802
 30
0.0
 10
108.4881238878085
 20
-157.1459635023802
 30
0.0
 10
108.8181640352955
 20
-157.1459635023802
 30
0.0
 10
108.8181640352955
 20
-157.1459635023802
 30
0.0
 10
108.8181640352955
 20
-157.1459635023802
 30
0.0
 10
108.8519259710509
 20
-157.1459635023802
 30
0.0
 10
108.8519259710509
 20
-157.1459635023802
 30
0.0
 10
108.8519259710509
 20
-157.1459635023802
 30
0.0
 10
109.0338270126721
 20
-157.1459635023802
 30
0.0
 10
109.0338270126721
 20
-157.1459635023802
 30
0.0
 10
109.073790120301
 20
-157.1459635023802
 30
0.0
 10
109.1375243867781
 20
-157.143896445089
 30
0.0
 10
109.2219292261668
 20
-157.1418293877979
 30
0.0
 10
109.2219292261668
 20
-157.1418293877979
 30
0.0
 10
109.2074598251287
 20
-157.3492241360099
 30
0.0
 10
109.2074598251287
 20
-157.3492241360099
 30
0.0
 10
109.2074598251287
 20
-157.3616264797568
 30
0.0
 10
109.2053927678376
 20
-157.4019340969342
 30
0.0
 10
109.1757649466644
 20
-157.4019340969342
 30
0.0
 10
109.1585394692381
 20
-157.4019340969342
 30
0.0
 10
109.1395914440693
 20
-157.3809190144742
 30
0.0
 10
109.1144422470269
 20
-157.3512911933011
 30
0.0
  0
POLYLINE
  5
70
330
41
100
AcDbEntity
  8
_U+30EC_U+30A4_U+30E4_U+30FC 1
370
     0
100
AcDb2dPolyline
 66
     1
 10
0.0
 20
0.0
 30
0.0
  0
VERTEX
  5
71
330
70
100
AcDbEntity
  8
_U+30EC_U+30A4_U+30E4_U+30FC 1
370
     0
100
AcDbVertex
100
AcDb2dVertex
 10
109.1757649466644
 20
-156.7377196873781
 30
0.0
  0
VERTEX
  5
72
330
70
100
AcDbEntity
  8
_U+30EC_U+30A4_U+30E4_U+30FC 1
370
     0
100
AcDbVertex
100
AcDb2dVertex
 10
109.1757649466644
 20
-156.1961506770968
 30
0.0
  0
VERTEX
  5
73
330
70
100
AcDbEntity
  8
_U+30EC_U+30A4_U+30E4_U+30FC 1
370
     0
100
AcDbVertex
100
AcDb2dVertex
 10
108.8519259710509
 20
-156.1961506770968
 30
0.0
  0
VERTEX
  5
74
330
70
100
AcDbEntity
  8
_U+30EC_U+30A4_U+30E4_U+30FC 1
370
     0
100
AcDbVertex
100
AcDb2dVertex
 10
108.8519259710509
 20
-156.7377196873781
 30
0.0
  0
VERTEX
  5
75
330
70
100
AcDbEntity
  8
_U+30EC_U+30A4_U+30E4_U+30FC 1
370
     0
100
AcDbVertex
100
AcDb2dVertex
 10
109.1757649466644
 20
-156.7377196873781
 30
0.0
  0
SEQEND
  5
76
330
70
100
AcDbEntity
  8
_U+30EC_U+30A4_U+30E4_U+30FC 1
370
     0
  0
HATCH
  5
77
330
41
100
AcDbEntity
  8
_U+30EC_U+30A4_U+30E4_U+30FC 1
 62
   179
420
  2234388
100
AcDbHatch
 10
0.0
 20
0.0
 30
0.0
210
0.0
220
0.0
230
1.0
  2
SOLID
 70
     1
 71
     0
 91
        4
 92
        1
 93
        1
 72
     4
 94
        3
 73
     0
 74
     1
 95
       47
 96
       43
 40
0.0
 40
0.0
 40
0.0
 40
0.0
 40
1.0
 40
1.0
 40
1.0
 40
2.0
 40
2.0
 40
2.0
 40
3.0
 40
3.0
 40
3.0
 40
4.0
 40
4.0
 40
4.0
 40
5.0
 40
5.0
 40
5.0
 40
6.0
 40
6.0
 40
6.0
 40
7.0
 40
7.0
 40
7.0
 40
8.0
 40
8.0
 40
8.0
 40
9.0
 40
9.0
 40
9.0
 40
10.0
 40
10.0
 40
10.0
 40
11.0
 40
11.0
 40
11.0
 40
12.0
 40
12.0
 40
12.0
 40
13.0
 40
13.0
 40
13.0
 40
14.0
 40
14.0
 40
14.0
 40
14.0
 10
109.3321722816947
 20
-157.7912298867675
 10
109.2029812009979
 20
-157.7870957721852
 10
109.1034179414741
 20
-157.7826171480544
 10
108.9935193954947
 20
-157.7826171480544
 10
108.9935193954947
 20
-157.7826171480544
 10
108.2724609104319
 20
-157.7826171480544
 10
108.2724609104319
 20
-157.7826171480544
 10
108.2428330892587
 20
-157.7826171480544
 10
108.2173393826679
 20
-157.7870957721852
 10
107.9885850424473
 20
-157.7912298867675
 10
107.9885850424473
 20
-157.7912298867675
 10
107.7791232369441
 20
-157.7953640013498
 10
107.7791232369441
 20
-157.7953640013498
 10
107.612380615458
 20
-157.7998426254806
 10
107.529698323812
 20
-157.7595350083032
 10
107.529698323812
 20
-157.52905812034
 10
107.529698323812
 20
-157.4908175604537
 10
107.529698323812
 20
-157.4653238538629
 10
107.5317653811032
 20
-157.4315619181074
 10
107.5317653811032
 20
-157.4315619181074
 10
107.7646538359061
 20
-157.3109835761236
 10
107.7646538359061
 20
-157.3109835761236
 10
107.7539740399018
 20
-157.3871201863477
 10
107.7474283584798
 20
-157.4846163885802
 10
107.7474283584798
 20
-157.5331922349223
 10
107.7474283584798
 20
-157.5879692531377
 10
107.7605197213238
 20
-157.5879692531377
 10
107.8535372994255
 20
-157.5879692531377
 10
107.8535372994255
 20
-157.5879692531377
 10
108.9725043130347
 20
-157.5879692531377
 10
108.9725043130347
 20
-157.5879692531377
 10
109.1247775334827
 20
-157.5879692531377
 10
109.2749836966396
 20
-157.5838351385554
 10
109.4272569170876
 20
-157.577633966682
 10
109.4272569170876
 20
-157.577633966682
 10
109.4058973250791
 20
-157.7826171480544
 10
109.4058973250791
 20
-157.7826171480544
 10
109.4017632104968
 20
-157.8187906506495
 10
109.3996961532056
 20
-157.8315375039449
 10
109.3807481280368
 20
-157.8315375039449
 10
109.3680012747413
 20
-157.8315375039449
 10
109.3511203068636
 20
-157.8122449692275
 10
109.3321722816947
 20
-157.7912298867675
 97
        0
 97
        0
 92
        1
 93
        1
 72
     4
 94
        3
 73
     0
 74
     1
 95
       83
 96
       79
 40
0.0
 40
0.0
 40
0.0
 40
0.0
 40
1.0
 40
1.0
 40
1.0
 40
2.0
 40
2.0
 40
2.0
 40
3.0
 40
3.0
 40
3.0
 40
4.0
 40
4.0
 40
4.0
 40
5.0
 40
5.0
 40
5.0
 40
6.0
 40
6.0
 40
6.0
 40
7.0
 40
7.0
 40
7.0
 40
8.0
 40
8.0
 40
8.0
 40
9.0
 40
9.0
 40
9.0
 40
10.0
 40
10.0
 40
10.0
 40
11.0
 40
11.0
 40
11.0
 40
12.0
 40
12.0
 40
12.0
 40
13.0
 40
13.0
 40
13.0
 40
14.0
 40
14.0
 40
14.0
 40
15.0
 40
15.0
 40
15.0
 40
16.0
 40
16.0
 40
16.0
 40
17.0
 40
17.0
 40
17.0
 40
18.0
 40
18.0
 40
18.0
 40
19.0
 40
19.0
 40
19.0
 40
20.0
 40
20.0
 40
20.0
 40
21.0
 40
21.0
 40
21.0
 40
22.0
 40
22.0
 40
22.0
 40
23.0
 40
23.0
 40
23.0
 40
24.0
 40
24.0
 40
24.0
 40
25.0
 40
25.0
 40
25.0
 40
26.0
 40
26.0
 40
26.0
 40
26.0
 10
108.6910400118897
 20
-156.6381564278544
 10
108.6910400118897
 20
-156.6381564278544
 10
108.6910400118897
 20
-156.5220567100014
 10
108.6910400118897
 20
-156.5220567100014
 10
108.6021565483703
 20
-156.5196451431618
 10
108.5387667914417
 20
-156.5113769139972
 10
108.4815782063866
 20
-156.5048312325752
 10
108.4815782063866
 20
-156.5048312325752
 10
108.4815782063866
 20
-156.943047378299
 10
108.4815782063866
 20
-156.943047378299
 10
108.3293049859385
 20
-156.936501696877
 10
107.9444878202361
 20
-156.9216877862904
 10
107.721934651889
 20
-156.832804322771
 10
107.6013563099052
 20
-156.7862955337201
 10
107.5551920304029
 20
-156.7229057767915
 10
107.5551920304029
 20
-156.5389376778792
 10
107.5551920304029
 20
-156.4900173219886
 10
107.557259087694
 20
-156.4710692968197
 10
107.5613932022763
 20
-156.4459200997774
 10
107.5613932022763
 20
-156.4459200997774
 10
107.7942816570792
 20
-156.3673719227137
 10
107.7942816570792
 20
-156.3673719227137
 10
107.7942816570792
 20
-156.3739176041357
 10
107.7922145997881
 20
-156.3801187760091
 10
107.7749891223618
 20
-156.4479871570686
 10
107.7646538359061
 20
-156.4900173219886
 10
107.7605197213238
 20
-156.5241237672926
 10
107.7605197213238
 20
-156.5389376778792
 10
107.7605197213238
 20
-156.6150742881032
 10
107.804616943535
 20
-156.6402234851455
 10
107.8383788792904
 20
-156.6574489625717
 10
107.8556043567167
 20
-156.6657171917363
 10
107.9885850424473
 20
-156.7208387195004
 10
108.3103569607696
 20
-156.7377196873781
 10
108.3103569607696
 20
-156.7377196873781
 10
108.3103569607696
 20
-156.4731363541109
 10
108.3103569607696
 20
-156.4731363541109
 10
107.9400091961053
 20
-156.3907985720134
 10
107.6840386015512
 20
-156.219232816848
 10
107.5675943741498
 20
-156.0500786285222
 10
107.5675943741498
 20
-156.0500786285222
 10
107.7264132760198
 20
-155.8916042362007
 10
107.7264132760198
 20
-155.8916042362007
 10
107.9424207629449
 20
-156.2278455555611
 10
108.3358506673605
 20
-156.3187960763717
 10
108.6910400118897
 20
-156.3274088150848
 10
108.6910400118897
 20
-156.274354344612
 10
108.6910400118897
 20
-156.2660861154474
 10
108.6824272731766
 20
-156.0015027821802
 10
108.7437499728141
 20
-156.0056368967625
 10
108.8412461750466
 20
-156.0101155208933
 10
108.9366753199881
 20
-156.0101155208933
 10
108.9366753199881
 20
-156.0101155208933
 10
109.1416585013604
 20
-156.0101155208933
 10
109.1416585013604
 20
-156.0101155208933
 10
109.1692192652424
 20
-156.0101155208933
 10
109.2918646645173
 20
-156.0077039540536
 10
109.3511203068636
 20
-156.0015027821802
 10
109.3425075681505
 20
-156.0776393924042
 10
109.3383734535682
 20
-156.2130316449745
 10
109.3383734535682
 20
-156.2957139366205
 10
109.3383734535682
 20
-156.2957139366205
 10
109.3383734535682
 20
-156.6192084026855
 10
109.3383734535682
 20
-156.6192084026855
 10
109.3383734535682
 20
-156.7673475085512
 10
109.3404405108593
 20
-156.8159233548932
 10
109.3511203068636
 20
-156.9471814928813
 10
109.2770507539307
 20
-156.9385687541681
 10
109.1778320039555
 20
-156.9385687541681
 10
109.1330457626473
 20
-156.9385687541681
 10
109.1330457626473
 20
-156.9385687541681
 10
108.9387423772792
 20
-156.9385687541681
 10
108.9387423772792
 20
-156.9385687541681
 10
108.8181640352955
 20
-156.9385687541681
 10
108.7947373859958
 20
-156.9385687541681
 10
108.6824272731766
 20
-156.9471814928813
 10
108.6910400118897
 20
-156.8224690363152
 10
108.6910400118897
 20
-156.7821614191378
 10
108.6910400118897
 20
-156.6381564278544
 97
        0
 97
        0
 92
        1
 93
        1
 72
     4
 94
        3
 73
     0
 74
     1
 95
       41
 96
       37
 40
0.0
 40
0.0
 40
0.0
 40
0.0
 40
1.0
 40
1.0
 40
1.0
 40
2.0
 40
2.0
 40
2.0
 40
3.0
 40
3.0
 40
3.0
 40
4.0
 40
4.0
 40
4.0
 40
5.0
 40
5.0
 40
5.0
 40
6.0
 40
6.0
 40
6.0
 40
7.0
 40
7.0
 40
7.0
 40
8.0
 40
8.0
 40
8.0
 40
9.0
 40
9.0
 40
9.0
 40
10.0
 40
10.0
 40
10.0
 40
11.0
 40
11.0
 40
11.0
 40
12.0
 40
12.0
 40
12.0
 40
12.0
 10
109.1144422470269
 20
-157.3512911933011
 10
109.0062662487901
 20
-157.3492241360099
 10
108.8918890786798
 20
-157.3492241360099
 10
108.78440209954
 20
-157.3492241360099
 10
108.78440209954
 20
-157.3492241360099
 10
108.4881238878085
 20
-157.3492241360099
 10
108.4881238878085
 20
-157.3492241360099
 10
108.3696126031159
 20
-157.3492241360099
 10
108.1601507976127
 20
-157.3533582505922
 10
108.0437065702113
 20
-157.3702392184699
 10
108.0437065702113
 20
-157.3702392184699
 10
108.0437065702113
 20
-157.1184027384982
 10
108.0437065702113
 20
-157.1184027384982
 10
108.1325900337308
 20
-157.1290825345025
 10
108.4013074815802
 20
-157.1459635023802
 10
108.4881238878085
 20
-157.1459635023802
 10
108.4881238878085
 20
-157.1459635023802
 10
108.8181640352955
 20
-157.1459635023802
 10
108.8181640352955
 20
-157.1459635023802
 10
108.8181640352955
 20
-157.1459635023802
 10
108.8519259710509
 20
-157.1459635023802
 10
108.8519259710509
 20
-157.1459635023802
 10
108.8519259710509
 20
-157.1459635023802
 10
109.0338270126721
 20
-157.1459635023802
 10
109.0338270126721
 20
-157.1459635023802
 10
109.073790120301
 20
-157.1459635023802
 10
109.1375243867781
 20
-157.143896445089
 10
109.2219292261668
 20
-157.1418293877979
 10
109.2219292261668
 20
-157.1418293877979
 10
109.2074598251287
 20
-157.3492241360099
 10
109.2074598251287
 20
-157.3492241360099
 10
109.2074598251287
 20
-157.3616264797568
 10
109.2053927678376
 20
-157.4019340969342
 10
109.1757649466644
 20
-157.4019340969342
 10
109.1585394692381
 20
-157.4019340969342
 10
109.1395914440693
 20
-157.3809190144742
 10
109.1144422470269
 20
-157.3512911933011
 97
        0
 97
        0
 92
        1
 93
        4
 72
     1
 10
109.1757649466644
 20
-156.7377196873781
 11
109.1757649466644
 21
-156.1961506770968
 72
     1
 10
109.1757649466644
 20
-156.1961506770968
 11
108.8519259710509
 21
-156.1961506770968
 72
     1
 10
108.8519259710509
 20
-156.1961506770968
 11
108.8519259710509
 21
-156.7377196873781
 72
     1
 10
108.8519259710509
 20
-156.7377196873781
 11
109.1757649466644
 21
-156.7377196873781
 97
        0
 75
     2
 76
     1
 98
        0
  0
SPLINE
  5
78
330
41
100
AcDbEntity
  8
_U+30EC_U+30A4_U+30E4_U+30FC 1
370
     0
100
AcDbSpline
210
0.0
220
0.0
230
1.0
 70
    11
 71
     3
 72
    71
 73
    67
 74
     0
 42
0.0000000001
 43
0.0000000001
 12
1.0
 22
0.0
 32
0.0
 13
1.0
 23
0.0
 33
0.0
 40
0.0
 40
0.0
 40
0.0
 40
0.0
 40
1.0
 40
1.0
 40
1.0
 40
2.0
 40
2.0
 40
2.0
 40
3.0
 40
3.0
 40
3.0
 40
4.0
 40
4.0
 40
4.0
 40
5.0
 40
5.0
 40
5.0
 40
6.0
 40
6.0
 40
6.0
 40
7.0
 40
7.0
 40
7.0
 40
8.0
 40
8.0
 40
8.0
 40
9.0
 40
9.0
 40
9.0
 40
10.0
 40
10.0
 40
10.0
 40
11.0
 40
11.0
 40
11.0
 40
12.0
 40
12.0
 40
12.0
 40
13.0
 40
13.0
 40
13.0
 40
14.0
 40
14.0
 40
14.0
 40
15.0
 40
15.0
 40
15.0
 40
16.0
 40
16.0
 40
16.0
 40
17.0
 40
17.0
 40
17.0
 40
18.0
 40
18.0
 40
18.0
 40
19.0
 40
19.0
 40
19.0
 40
20.0
 40
20.0
 40
20.0
 40
21.0
 40
21.0
 40
21.0
 40
22.0
 40
22.0
 40
22.0
 40
22.0
 10
107.5868869088672
 20
-159.9416584886604
 30
0.0
 10
107.5827527942849
 20
-159.8824028463141
 30
0.0
 10
107.578274170154
 20
-159.7979980069255
 30
0.0
 10
107.578274170154
 20
-159.5885362014223
 30
0.0
 10
107.578274170154
 20
-159.4975856806117
 30
0.0
 10
107.5827527942849
 20
-159.0934759801919
 30
0.0
 10
107.5827527942849
 20
-159.0107936885459
 30
0.0
 10
107.5827527942849
 20
-158.7675699472873
 30
0.0
 10
107.5827527942849
 20
-158.7103813622321
 30
0.0
 10
107.6206488446226
 20
-158.6132296695481
 30
0.0
 10
107.6650905763823
 20
-158.4947183848555
 30
0.0
 10
107.7329589574418
 20
-158.4461425385135
 30
0.0
 10
107.7836018610749
 20
-158.4099690359184
 30
0.0
 10
107.7581081544841
 20
-158.3803412147452
 30
0.0
 10
107.6502766657958
 20
-158.2449489621749
 30
0.0
 10
107.6289170737872
 20
-158.2177327078414
 30
0.0
 10
107.5762071128629
 20
-158.2132540837106
 30
0.0
 10
107.5486463489809
 20
-158.2091199691283
 30
0.0
 10
107.5486463489809
 20
-158.1815592052463
 30
0.0
 10
107.5486463489809
 20
-158.1626111800774
 30
0.0
 10
107.5720729982806
 20
-158.149864326782
 30
0.0
 10
107.584819851576
 20
-158.1436631549085
 30
0.0
 10
107.584819851576
 20
-158.1436631549085
 30
0.0
 10
107.7856689183661
 20
-158.0568467486802
 30
0.0
 10
107.7856689183661
 20
-158.0568467486802
 30
0.0
 10
107.8025498862438
 20
-158.1223035629
 30
0.0
 10
107.8721408150459
 20
-158.2642414968923
 30
0.0
 10
107.9169270563541
 20
-158.3255641965297
 30
0.0
 10
107.9169270563541
 20
-158.3255641965297
 30
0.0
 10
108.3778808322805
 20
-158.3255641965297
 30
0.0
 10
108.3778808322805
 20
-158.3255641965297
 30
0.0
 10
108.3778808322805
 20
-158.3255641965297
 30
0.0
 10
108.3778808322805
 20
-158.2111870264194
 30
0.0
 10
108.3778808322805
 20
-158.2111870264194
 30
0.0
 10
108.3778808322805
 20
-158.2091199691283
 30
0.0
 10
108.3696126031159
 20
-158.0971543658577
 30
0.0
 10
108.3696126031159
 20
-158.0885416271445
 30
0.0
 10
108.3696126031159
 20
-158.0885416271445
 30
0.0
 10
108.5597818739017
 20
-158.0885416271445
 30
0.0
 10
108.5597818739017
 20
-158.0885416271445
 30
0.0
 10
108.5577148166106
 20
-158.1584770654951
 30
0.0
 10
108.5556477593194
 20
-158.1667452946597
 30
0.0
 10
108.5556477593194
 20
-158.226000937006
 30
0.0
 10
108.5556477593194
 20
-158.226000937006
 30
0.0
 10
108.5556477593194
 20
-158.3445122216986
 30
0.0
 10
108.5556477593194
 20
-158.3445122216986
 30
0.0
 10
108.5556477593194
 20
-158.3720729855806
 30
0.0
 10
108.5597818739017
 20
-158.4630235063912
 30
0.0
 10
108.563915988484
 20
-158.5243462060286
 30
0.0
 10
108.4901909450997
 20
-158.5157334673155
 30
0.0
 10
108.4288682454622
 20
-158.5136664100244
 30
0.0
 10
108.418188449458
 20
-158.5136664100244
 30
0.0
 10
108.418188449458
 20
-158.5136664100244
 30
0.0
 10
108.012011691747
 20
-158.5136664100244
 30
0.0
 10
108.012011691747
 20
-158.5136664100244
 30
0.0
 10
107.9210611709364
 20
-158.5136664100244
 30
0.0
 10
107.8514702421344
 20
-158.577056166953
 30
0.0
 10
107.8342447647081
 20
-158.5963487016704
 30
0.0
 10
107.7432942438975
 20
-158.7062472476498
 30
0.0
 10
107.7308919001506
 20
-158.7272623301099
 30
0.0
 10
107.7308919001506
 20
-159.0869302987699
 30
0.0
 10
107.7308919001506
 20
-159.1737467049983
 30
0.0
 10
107.7412271866064
 20
-159.7428764791615
 30
0.0
 10
107.7791232369441
 20
-160.0095268697198
 30
0.0
 10
107.7791232369441
 20
-160.0095268697198
 30
0.0
 10
107.5868869088672
 20
-159.9416584886604
 30
0.0
 10
107.5868869088672
 20
-159.9416584886604
 30
0.0
  0
SPLINE
  5
79
330
41
100
AcDbEntity
  8
_U+30EC_U+30A4_U+30E4_U+30FC 1
370
     0
100
AcDbSpline
210
0.0
220
0.0
230
1.0
 70
    11
 71
     3
 72
   122
 73
   118
 74
     0
 42
0.0000000001
 43
0.0000000001
 12
1.0
 22
0.0
 32
0.0
 13
1.0
 23
0.0
 33
0.0
 40
0.0
 40
0.0
 40
0.0
 40
0.0
 40
1.0
 40
1.0
 40
1.0
 40
2.0
 40
2.0
 40
2.0
 40
3.0
 40
3.0
 40
3.0
 40
4.0
 40
4.0
 40
4.0
 40
5.0
 40
5.0
 40
5.0
 40
6.0
 40
6.0
 40
6.0
 40
7.0
 40
7.0
 40
7.0
 40
8.0
 40
8.0
 40
8.0
 40
9.0
 40
9.0
 40
9.0
 40
10.0
 40
10.0
 40
10.0
 40
11.0
 40
11.0
 40
11.0
 40
12.0
 40
12.0
 40
12.0
 40
13.0
 40
13.0
 40
13.0
 40
14.0
 40
14.0
 40
14.0
 40
15.0
 40
15.0
 40
15.0
 40
16.0
 40
16.0
 40
16.0
 40
17.0
 40
17.0
 40
17.0
 40
18.0
 40
18.0
 40
18.0
 40
19.0
 40
19.0
 40
19.0
 40
20.0
 40
20.0
 40
20.0
 40
21.0
 40
21.0
 40
21.0
 40
22.0
 40
22.0
 40
22.0
 40
23.0
 40
23.0
 40
23.0
 40
24.0
 40
24.0
 40
24.0
 40
25.0
 40
25.0
 40
25.0
 40
26.0
 40
26.0
 40
26.0
 40
27.0
 40
27.0
 40
27.0
 40
28.0
 40
28.0
 40
28.0
 40
29.0
 40
29.0
 40
29.0
 40
30.0
 40
30.0
 40
30.0
 40
31.0
 40
31.0
 40
31.0
 40
32.0
 40
32.0
 40
32.0
 40
33.0
 40
33.0
 40
33.0
 40
34.0
 40
34.0
 40
34.0
 40
35.0
 40
35.0
 40
35.0
 40
36.0
 40
36.0
 40
36.0
 40
37.0
 40
37.0
 40
37.0
 40
38.0
 40
38.0
 40
38.0
 40
39.0
 40
39.0
 40
39.0
 40
39.0
 10
108.750295654236
 20
-159.8675889357276
 30
0.0
 10
108.7630425075315
 20
-159.825214261259
 30
0.0
 10
108.7733777939872
 20
-159.7787054722081
 30
0.0
 10
108.8243652071689
 20
-159.6708739835198
 30
0.0
 10
108.8243652071689
 20
-159.6708739835198
 30
0.0
 10
108.6975856933117
 20
-159.6708739835198
 30
0.0
 10
108.6975856933117
 20
-159.6708739835198
 30
0.0
 10
108.7037868651852
 20
-159.5757893481269
 30
0.0
 10
108.7079209797675
 20
-159.4235161276789
 30
0.0
 10
108.7079209797675
 20
-159.3621934280414
 30
0.0
 10
108.7079209797675
 20
-159.3621934280414
 30
0.0
 10
108.7079209797675
 20
-159.3029377856951
 30
0.0
 10
108.7079209797675
 20
-159.3029377856951
 30
0.0
 10
108.7079209797675
 20
-159.3029377856951
 30
0.0
 10
108.5577148166106
 20
-159.3029377856951
 30
0.0
 10
108.5577148166106
 20
-159.3029377856951
 30
0.0
 10
108.5577148166106
 20
-159.3029377856951
 30
0.0
 10
108.5577148166106
 20
-159.419037503548
 30
0.0
 10
108.5577148166106
 20
-159.419037503548
 30
0.0
 10
108.5577148166106
 20
-159.5523626988272
 30
0.0
 10
108.5577148166106
 20
-159.7070474861149
 30
0.0
 10
108.5683946126149
 20
-159.8358940572633
 30
0.0
 10
108.5683946126149
 20
-159.8358940572633
 30
0.0
 10
108.3971733669979
 20
-159.8358940572633
 30
0.0
 10
108.3971733669979
 20
-159.8358940572633
 30
0.0
 10
108.3992404242891
 20
-159.7239284539926
 30
0.0
 10
108.4095757107448
 20
-159.5165337057806
 30
0.0
 10
108.4095757107448
 20
-159.419037503548
 30
0.0
 10
108.4095757107448
 20
-159.419037503548
 30
0.0
 10
108.4095757107448
 20
-159.3029377856951
 30
0.0
 10
108.4095757107448
 20
-159.3029377856951
 30
0.0
 10
108.4095757107448
 20
-159.3029377856951
 30
0.0
 10
108.1198431804353
 20
-159.3029377856951
 30
0.0
 10
108.1198431804353
 20
-159.3029377856951
 30
0.0
 10
108.1008951552664
 20
-159.3029377856951
 30
0.0
 10
108.012011691747
 20
-159.3070719002774
 30
0.0
 10
107.9927191570296
 20
-159.3070719002774
 30
0.0
 10
107.8066840008261
 20
-159.3070719002774
 30
0.0
 10
107.8066840008261
 20
-159.2478162579311
 30
0.0
 10
107.804616943535
 20
-158.9877115487947
 30
0.0
 10
107.804616943535
 20
-158.9877115487947
 30
0.0
 10
108.0202799209116
 20
-158.9070963144399
 30
0.0
 10
108.0202799209116
 20
-158.9070963144399
 30
0.0
 10
108.0016764052912
 20
-158.9728976382082
 30
0.0
 10
107.9906520997385
 20
-159.0659152163099
 30
0.0
 10
107.9906520997385
 20
-159.0700493308922
 30
0.0
 10
107.9906520997385
 20
-159.1165581199431
 30
0.0
 10
108.0182128636204
 20
-159.1165581199431
 30
0.0
 10
108.1136420085619
 20
-159.1165581199431
 30
0.0
 10
108.1136420085619
 20
-159.1165581199431
 30
0.0
 10
108.4095757107448
 20
-159.1165581199431
 30
0.0
 10
108.4095757107448
 20
-159.1165581199431
 30
0.0
 10
108.4095757107448
 20
-159.1165581199431
 30
0.0
 10
108.4095757107448
 20
-158.9959797779593
 30
0.0
 10
108.4095757107448
 20
-158.9959797779593
 30
0.0
 10
108.4095757107448
 20
-158.8585204680979
 30
0.0
 10
108.4033745388714
 20
-158.7210611582364
 30
0.0
 10
108.3971733669979
 20
-158.5836018483749
 30
0.0
 10
108.3971733669979
 20
-158.5836018483749
 30
0.0
 10
108.5683946126149
 20
-158.5836018483749
 30
0.0
 10
108.5683946126149
 20
-158.5836018483749
 30
0.0
 10
108.5577148166106
 20
-158.7103813622321
 30
0.0
 10
108.5577148166106
 20
-158.8626545826802
 30
0.0
 10
108.5577148166106
 20
-158.9959797779593
 30
0.0
 10
108.5577148166106
 20
-158.9959797779593
 30
0.0
 10
108.5577148166106
 20
-159.1165581199431
 30
0.0
 10
108.5577148166106
 20
-159.1165581199431
 30
0.0
 10
108.5577148166106
 20
-159.1165581199431
 30
0.0
 10
108.7079209797675
 20
-159.1165581199431
 30
0.0
 10
108.7079209797675
 20
-159.1165581199431
 30
0.0
 10
108.7079209797675
 20
-159.1165581199431
 30
0.0
 10
108.7079209797675
 20
-159.0511013057233
 30
0.0
 10
108.7079209797675
 20
-159.0511013057233
 30
0.0
 10
108.7079209797675
 20
-158.9959797779593
 30
0.0
 10
108.7037868651852
 20
-158.8478406720936
 30
0.0
 10
108.6975856933117
 20
-158.7420762406964
 30
0.0
 10
108.6975856933117
 20
-158.7420762406964
 30
0.0
 10
108.8030056151604
 20
-158.7420762406964
 30
0.0
 10
108.8030056151604
 20
-158.7420762406964
 30
0.0
 10
108.7713107366961
 20
-158.6893662797721
 30
0.0
 10
108.7523627115272
 20
-158.6490586625947
 30
0.0
 10
108.7334146863583
 20
-158.6025498735438
 30
0.0
 10
108.7334146863583
 20
-158.6025498735438
 30
0.0
 10
108.8856879068064
 20
-158.4737033023955
 30
0.0
 10
108.8856879068064
 20
-158.4737033023955
 30
0.0
 10
108.8856879068064
 20
-158.4737033023955
 30
0.0
 10
108.7630425075315
 20
-158.2893906939346
 30
0.0
 10
108.7630425075315
 20
-158.2893906939346
 30
0.0
 10
108.9642360838701
 20
-158.2473605290145
 30
0.0
 10
109.0992838268918
 20
-158.1564100082039
 30
0.0
 10
109.2157280542933
 20
-158.0482340099671
 30
0.0
 10
109.2157280542933
 20
-158.0482340099671
 30
0.0
 10
109.3259711098213
 20
-158.1922390012506
 30
0.0
 10
109.3259711098213
 20
-158.1922390012506
 30
0.0
 10
109.1943684622847
 20
-158.3424451644075
 30
0.0
 10
108.9828395994904
 20
-158.4375297998004
 30
0.0
 10
108.9049804415238
 20
-158.4712917355558
 30
0.0
 10
108.9346082626969
 20
-158.5918700775395
 30
0.0
 10
108.9873182236212
 20
-158.6914333370633
 30
0.0
 10
109.0910155977272
 20
-158.8161457936293
 30
0.0
 10
109.2239962834579
 20
-158.9749646954993
 30
0.0
 10
109.3301052244036
 20
-159.0383544524279
 30
0.0
 10
109.4527506236785
 20
-159.0996771520654
 30
0.0
 10
109.4527506236785
 20
-159.0996771520654
 30
0.0
 10
109.3721353893236
 20
-159.3325656068683
 30
0.0
 10
109.3721353893236
 20
-159.3325656068683
 30
0.0
 10
109.3618001028679
 20
-159.3621934280414
 30
0.0
 10
109.3576659882856
 20
-159.377007338628
 30
0.0
 10
109.3342393389859
 20
-159.377007338628
 30
0.0
 10
109.3194254283993
 20
-159.377007338628
 30
0.0
 10
109.3108126896862
 20
-159.3683945999149
 30
0.0
 10
109.3004774032304
 20
-159.3556477466194
 30
0.0
 10
109.0889485404361
 20
-159.5272135017849
 30
0.0
 10
109.0021321342078
 20
-159.6457247864775
 30
0.0
 10
108.9173827852707
 20
-159.9988470737156
 30
0.0
 10
108.9173827852707
 20
-159.9988470737156
 30
0.0
 10
108.750295654236
 20
-159.8675889357276
 30
0.0
 10
108.750295654236
 20
-159.8675889357276
 30
0.0
  0
SPLINE
  5
7A
330
41
100
AcDbEntity
  8
_U+30EC_U+30A4_U+30E4_U+30FC 1
370
     0
100
AcDbSpline
210
0.0
220
0.0
230
1.0
 70
    11
 71
     3
 72
    17
 73
    13
 74
     0
 42
0.0000000001
 43
0.0000000001
 12
1.0
 22
0.0
 32
0.0
 13
1.0
 23
0.0
 33
0.0
 40
0.0
 40
0.0
 40
0.0
 40
0.0
 40
1.0
 40
1.0
 40
1.0
 40
2.0
 40
2.0
 40
2.0
 40
3.0
 40
3.0
 40
3.0
 40
4.0
 40
4.0
 40
4.0
 40
4.0
 10
107.9169270563541
 20
-159.7111816006972
 30
0.0
 10
108.0499077420848
 20
-159.5968044305869
 30
0.0
 10
108.1198431804353
 20
-159.5037868524852
 30
0.0
 10
108.1770317654905
 20
-159.4066351598011
 30
0.0
 10
108.1770317654905
 20
-159.4066351598011
 30
0.0
 10
108.3293049859385
 20
-159.5375487882406
 30
0.0
 10
108.3293049859385
 20
-159.5375487882406
 30
0.0
 10
108.2297417264148
 20
-159.7025688619841
 30
0.0
 10
108.136724148313
 20
-159.7959309496344
 30
0.0
 10
108.067133219511
 20
-159.859320706563
 30
0.0
 10
108.067133219511
 20
-159.859320706563
 30
0.0
 10
107.9169270563541
 20
-159.7111816006972
 30
0.0
 10
107.9169270563541
 20
-159.7111816006972
 30
0.0
  0
SPLINE
  5
7B
330
41
100
AcDbEntity
  8
_U+30EC_U+30A4_U+30E4_U+30FC 1
370
     0
100
AcDbSpline
210
0.0
220
0.0
230
1.0
 70
    11
 71
     3
 72
    26
 73
    22
 74
     0
 42
0.0000000001
 43
0.0000000001
 12
1.0
 22
0.0
 32
0.0
 13
1.0
 23
0.0
 33
0.0
 40
0.0
 40
0.0
 40
0.0
 40
0.0
 40
1.0
 40
1.0
 40
1.0
 40
2.0
 40
2.0
 40
2.0
 40
3.0
 40
3.0
 40
3.0
 40
4.0
 40
4.0
 40
4.0
 40
5.0
 40
5.0
 40
5.0
 40
6.0
 40
6.0
 40
6.0
 40
7.0
 40
7.0
 40
7.0
 40
7.0
 10
108.1704860840685
 20
-159.0087266312548
 30
0.0
 10
108.1704860840685
 20
-159.0004584020902
 30
0.0
 10
108.1725531413596
 20
-158.970830580917
 30
0.0
 10
108.1725531413596
 20
-158.9642848994951
 30
0.0
 10
108.115709065853
 20
-158.9219102250265
 30
0.0
 10
108.0333712837556
 20
-158.8585204680979
 30
0.0
 10
107.9313964573922
 20
-158.7338080115318
 30
0.0
 10
107.9313964573922
 20
-158.7338080115318
 30
0.0
 10
108.0519747993759
 20
-158.5729220523707
 30
0.0
 10
108.0519747993759
 20
-158.5729220523707
 30
0.0
 10
108.0754014486756
 20
-158.6239094655524
 30
0.0
 10
108.1877115614947
 20
-158.7717040618696
 30
0.0
 10
108.3441188965251
 20
-158.8502522389333
 30
0.0
 10
108.3441188965251
 20
-158.8502522389333
 30
0.0
 10
108.2404215224191
 20
-159.0087266312548
 30
0.0
 10
108.2404215224191
 20
-159.0087266312548
 30
0.0
 10
108.2235405545413
 20
-159.0342203378456
 30
0.0
 10
108.2132052680856
 20
-159.0404215097191
 30
0.0
 10
108.2021809625328
 20
-159.0404215097191
 30
0.0
 10
108.1897786187859
 20
-159.0404215097191
 30
0.0
 10
108.1704860840685
 20
-159.0300862232633
 30
0.0
 10
108.1704860840685
 20
-159.0087266312548
 30
0.0
  0
SPLINE
  5
7C
330
41
100
AcDbEntity
  8
_U+30EC_U+30A4_U+30E4_U+30FC 1
370
     0
100
AcDbSpline
210
0.0
220
0.0
230
1.0
 70
    11
 71
     3
 72
    20
 73
    16
 74
     0
 42
0.0000000001
 43
0.0000000001
 12
1.0
 22
0.0
 32
0.0
 13
1.0
 23
0.0
 33
0.0
 40
0.0
 40
0.0
 40
0.0
 40
0.0
 40
1.0
 40
1.0
 40
1.0
 40
2.0
 40
2.0
 40
2.0
 40
3.0
 40
3.0
 40
3.0
 40
4.0
 40
4.0
 40
4.0
 40
5.0
 40
5.0
 40
5.0
 40
5.0
 10
109.2198621688756
 20
-159.1926947301671
 30
0.0
 10
109.0465738659675
 20
-159.0659152163099
 30
0.0
 10
108.9280625812749
 20
-158.9263888491573
 30
0.0
 10
108.8688069389286
 20
-158.8437065575113
 30
0.0
 10
108.8643283147978
 20
-158.9601507849127
 30
0.0
 10
108.8622612575067
 20
-158.9959797779593
 30
0.0
 10
108.8622612575067
 20
-159.0511013057233
 30
0.0
 10
108.8622612575067
 20
-159.0511013057233
 30
0.0
 10
108.8622612575067
 20
-159.3621934280414
 30
0.0
 10
108.8622612575067
 20
-159.3621934280414
 30
0.0
 10
108.8622612575067
 20
-159.4087022170923
 30
0.0
 10
108.8643283147978
 20
-159.4297172995523
 30
0.0
 10
108.8688069389286
 20
-159.5819905200003
 30
0.0
 10
108.9704372557435
 20
-159.398022421088
 30
0.0
 10
109.1054849987653
 20
-159.2774440791043
 30
0.0
 10
109.2198621688756
 20
-159.1926947301671
 30
0.0
  0
HATCH
  5
7D
330
41
100
AcDbEntity
  8
_U+30EC_U+30A4_U+30E4_U+30FC 1
 62
   179
420
  2234388
100
AcDbHatch
 10
0.0
 20
0.0
 30
0.0
210
0.0
220
0.0
230
1.0
  2
SOLID
 70
     1
 71
     0
 91
        5
 92
        1
 93
        1
 72
     4
 94
        3
 73
     0
 74
     1
 95
       71
 96
       67
 40
0.0
 40
0.0
 40
0.0
 40
0.0
 40
1.0
 40
1.0
 40
1.0
 40
2.0
 40
2.0
 40
2.0
 40
3.0
 40
3.0
 40
3.0
 40
4.0
 40
4.0
 40
4.0
 40
5.0
 40
5.0
 40
5.0
 40
6.0
 40
6.0
 40
6.0
 40
7.0
 40
7.0
 40
7.0
 40
8.0
 40
8.0
 40
8.0
 40
9.0
 40
9.0
 40
9.0
 40
10.0
 40
10.0
 40
10.0
 40
11.0
 40
11.0
 40
11.0
 40
12.0
 40
12.0
 40
12.0
 40
13.0
 40
13.0
 40
13.0
 40
14.0
 40
14.0
 40
14.0
 40
15.0
 40
15.0
 40
15.0
 40
16.0
 40
16.0
 40
16.0
 40
17.0
 40
17.0
 40
17.0
 40
18.0
 40
18.0
 40
18.0
 40
19.0
 40
19.0
 40
19.0
 40
20.0
 40
20.0
 40
20.0
 40
21.0
 40
21.0
 40
21.0
 40
22.0
 40
22.0
 40
22.0
 40
22.0
 10
107.5868869088672
 20
-159.9416584886604
 10
107.5827527942849
 20
-159.8824028463141
 10
107.578274170154
 20
-159.7979980069255
 10
107.578274170154
 20
-159.5885362014223
 10
107.578274170154
 20
-159.4975856806117
 10
107.5827527942849
 20
-159.0934759801919
 10
107.5827527942849
 20
-159.0107936885459
 10
107.5827527942849
 20
-158.7675699472873
 10
107.5827527942849
 20
-158.7103813622321
 10
107.6206488446226
 20
-158.6132296695481
 10
107.6650905763823
 20
-158.4947183848555
 10
107.7329589574418
 20
-158.4461425385135
 10
107.7836018610749
 20
-158.4099690359184
 10
107.7581081544841
 20
-158.3803412147452
 10
107.6502766657958
 20
-158.2449489621749
 10
107.6289170737872
 20
-158.2177327078414
 10
107.5762071128629
 20
-158.2132540837106
 10
107.5486463489809
 20
-158.2091199691283
 10
107.5486463489809
 20
-158.1815592052463
 10
107.5486463489809
 20
-158.1626111800774
 10
107.5720729982806
 20
-158.149864326782
 10
107.584819851576
 20
-158.1436631549085
 10
107.584819851576
 20
-158.1436631549085
 10
107.7856689183661
 20
-158.0568467486802
 10
107.7856689183661
 20
-158.0568467486802
 10
107.8025498862438
 20
-158.1223035629
 10
107.8721408150459
 20
-158.2642414968923
 10
107.9169270563541
 20
-158.3255641965297
 10
107.9169270563541
 20
-158.3255641965297
 10
108.3778808322805
 20
-158.3255641965297
 10
108.3778808322805
 20
-158.3255641965297
 10
108.3778808322805
 20
-158.3255641965297
 10
108.3778808322805
 20
-158.2111870264194
 10
108.3778808322805
 20
-158.2111870264194
 10
108.3778808322805
 20
-158.2091199691283
 10
108.3696126031159
 20
-158.0971543658577
 10
108.3696126031159
 20
-158.0885416271445
 10
108.3696126031159
 20
-158.0885416271445
 10
108.5597818739017
 20
-158.0885416271445
 10
108.5597818739017
 20
-158.0885416271445
 10
108.5577148166106
 20
-158.1584770654951
 10
108.5556477593194
 20
-158.1667452946597
 10
108.5556477593194
 20
-158.226000937006
 10
108.5556477593194
 20
-158.226000937006
 10
108.5556477593194
 20
-158.3445122216986
 10
108.5556477593194
 20
-158.3445122216986
 10
108.5556477593194
 20
-158.3720729855806
 10
108.5597818739017
 20
-158.4630235063912
 10
108.563915988484
 20
-158.5243462060286
 10
108.4901909450997
 20
-158.5157334673155
 10
108.4288682454622
 20
-158.5136664100244
 10
108.418188449458
 20
-158.5136664100244
 10
108.418188449458
 20
-158.5136664100244
 10
108.012011691747
 20
-158.5136664100244
 10
108.012011691747
 20
-158.5136664100244
 10
107.9210611709364
 20
-158.5136664100244
 10
107.8514702421344
 20
-158.577056166953
 10
107.8342447647081
 20
-158.5963487016704
 10
107.7432942438975
 20
-158.7062472476498
 10
107.7308919001506
 20
-158.7272623301099
 10
107.7308919001506
 20
-159.0869302987699
 10
107.7308919001506
 20
-159.1737467049983
 10
107.7412271866064
 20
-159.7428764791615
 10
107.7791232369441
 20
-160.0095268697198
 10
107.7791232369441
 20
-160.0095268697198
 10
107.5868869088672
 20
-159.9416584886604
 10
107.5868869088672
 20
-159.9416584886604
 97
        0
 97
        0
 92
        1
 93
        1
 72
     4
 94
        3
 73
     0
 74
     1
 95
      122
 96
      118
 40
0.0
 40
0.0
 40
0.0
 40
0.0
 40
1.0
 40
1.0
 40
1.0
 40
2.0
 40
2.0
 40
2.0
 40
3.0
 40
3.0
 40
3.0
 40
4.0
 40
4.0
 40
4.0
 40
5.0
 40
5.0
 40
5.0
 40
6.0
 40
6.0
 40
6.0
 40
7.0
 40
7.0
 40
7.0
 40
8.0
 40
8.0
 40
8.0
 40
9.0
 40
9.0
 40
9.0
 40
10.0
 40
10.0
 40
10.0
 40
11.0
 40
11.0
 40
11.0
 40
12.0
 40
12.0
 40
12.0
 40
13.0
 40
13.0
 40
13.0
 40
14.0
 40
14.0
 40
14.0
 40
15.0
 40
15.0
 40
15.0
 40
16.0
 40
16.0
 40
16.0
 40
17.0
 40
17.0
 40
17.0
 40
18.0
 40
18.0
 40
18.0
 40
19.0
 40
19.0
 40
19.0
 40
20.0
 40
20.0
 40
20.0
 40
21.0
 40
21.0
 40
21.0
 40
22.0
 40
22.0
 40
22.0
 40
23.0
 40
23.0
 40
23.0
 40
24.0
 40
24.0
 40
24.0
 40
25.0
 40
25.0
 40
25.0
 40
26.0
 40
26.0
 40
26.0
 40
27.0
 40
27.0
 40
27.0
 40
28.0
 40
28.0
 40
28.0
 40
29.0
 40
29.0
 40
29.0
 40
30.0
 40
30.0
 40
30.0
 40
31.0
 40
31.0
 40
31.0
 40
32.0
 40
32.0
 40
32.0
 40
33.0
 40
33.0
 40
33.0
 40
34.0
 40
34.0
 40
34.0
 40
35.0
 40
35.0
 40
35.0
 40
36.0
 40
36.0
 40
36.0
 40
37.0
 40
37.0
 40
37.0
 40
38.0
 40
38.0
 40
38.0
 40
39.0
 40
39.0
 40
39.0
 40
39.0
 10
108.750295654236
 20
-159.8675889357276
 10
108.7630425075315
 20
-159.825214261259
 10
108.7733777939872
 20
-159.7787054722081
 10
108.8243652071689
 20
-159.6708739835198
 10
108.8243652071689
 20
-159.6708739835198
 10
108.6975856933117
 20
-159.6708739835198
 10
108.6975856933117
 20
-159.6708739835198
 10
108.7037868651852
 20
-159.5757893481269
 10
108.7079209797675
 20
-159.4235161276789
 10
108.7079209797675
 20
-159.3621934280414
 10
108.7079209797675
 20
-159.3621934280414
 10
108.7079209797675
 20
-159.3029377856951
 10
108.7079209797675
 20
-159.3029377856951
 10
108.7079209797675
 20
-159.3029377856951
 10
108.5577148166106
 20
-159.3029377856951
 10
108.5577148166106
 20
-159.3029377856951
 10
108.5577148166106
 20
-159.3029377856951
 10
108.5577148166106
 20
-159.419037503548
 10
108.5577148166106
 20
-159.419037503548
 10
108.5577148166106
 20
-159.5523626988272
 10
108.5577148166106
 20
-159.7070474861149
 10
108.5683946126149
 20
-159.8358940572633
 10
108.5683946126149
 20
-159.8358940572633
 10
108.3971733669979
 20
-159.8358940572633
 10
108.3971733669979
 20
-159.8358940572633
 10
108.3992404242891
 20
-159.7239284539926
 10
108.4095757107448
 20
-159.5165337057806
 10
108.4095757107448
 20
-159.419037503548
 10
108.4095757107448
 20
-159.419037503548
 10
108.4095757107448
 20
-159.3029377856951
 10
108.4095757107448
 20
-159.3029377856951
 10
108.4095757107448
 20
-159.3029377856951
 10
108.1198431804353
 20
-159.3029377856951
 10
108.1198431804353
 20
-159.3029377856951
 10
108.1008951552664
 20
-159.3029377856951
 10
108.012011691747
 20
-159.3070719002774
 10
107.9927191570296
 20
-159.3070719002774
 10
107.8066840008261
 20
-159.3070719002774
 10
107.8066840008261
 20
-159.2478162579311
 10
107.804616943535
 20
-158.9877115487947
 10
107.804616943535
 20
-158.9877115487947
 10
108.0202799209116
 20
-158.9070963144399
 10
108.0202799209116
 20
-158.9070963144399
 10
108.0016764052912
 20
-158.9728976382082
 10
107.9906520997385
 20
-159.0659152163099
 10
107.9906520997385
 20
-159.0700493308922
 10
107.9906520997385
 20
-159.1165581199431
 10
108.0182128636204
 20
-159.1165581199431
 10
108.1136420085619
 20
-159.1165581199431
 10
108.1136420085619
 20
-159.1165581199431
 10
108.4095757107448
 20
-159.1165581199431
 10
108.4095757107448
 20
-159.1165581199431
 10
108.4095757107448
 20
-159.1165581199431
 10
108.4095757107448
 20
-158.9959797779593
 10
108.4095757107448
 20
-158.9959797779593
 10
108.4095757107448
 20
-158.8585204680979
 10
108.4033745388714
 20
-158.7210611582364
 10
108.3971733669979
 20
-158.5836018483749
 10
108.3971733669979
 20
-158.5836018483749
 10
108.5683946126149
 20
-158.5836018483749
 10
108.5683946126149
 20
-158.5836018483749
 10
108.5577148166106
 20
-158.7103813622321
 10
108.5577148166106
 20
-158.8626545826802
 10
108.5577148166106
 20
-158.9959797779593
 10
108.5577148166106
 20
-158.9959797779593
 10
108.5577148166106
 20
-159.1165581199431
 10
108.5577148166106
 20
-159.1165581199431
 10
108.5577148166106
 20
-159.1165581199431
 10
108.7079209797675
 20
-159.1165581199431
 10
108.7079209797675
 20
-159.1165581199431
 10
108.7079209797675
 20
-159.1165581199431
 10
108.7079209797675
 20
-159.0511013057233
 10
108.7079209797675
 20
-159.0511013057233
 10
108.7079209797675
 20
-158.9959797779593
 10
108.7037868651852
 20
-158.8478406720936
 10
108.6975856933117
 20
-158.7420762406964
 10
108.6975856933117
 20
-158.7420762406964
 10
108.8030056151604
 20
-158.7420762406964
 10
108.8030056151604
 20
-158.7420762406964
 10
108.7713107366961
 20
-158.6893662797721
 10
108.7523627115272
 20
-158.6490586625947
 10
108.7334146863583
 20
-158.6025498735438
 10
108.7334146863583
 20
-158.6025498735438
 10
108.8856879068064
 20
-158.4737033023955
 10
108.8856879068064
 20
-158.4737033023955
 10
108.8856879068064
 20
-158.4737033023955
 10
108.7630425075315
 20
-158.2893906939346
 10
108.7630425075315
 20
-158.2893906939346
 10
108.9642360838701
 20
-158.2473605290145
 10
109.0992838268918
 20
-158.1564100082039
 10
109.2157280542933
 20
-158.0482340099671
 10
109.2157280542933
 20
-158.0482340099671
 10
109.3259711098213
 20
-158.1922390012506
 10
109.3259711098213
 20
-158.1922390012506
 10
109.1943684622847
 20
-158.3424451644075
 10
108.9828395994904
 20
-158.4375297998004
 10
108.9049804415238
 20
-158.4712917355558
 10
108.9346082626969
 20
-158.5918700775395
 10
108.9873182236212
 20
-158.6914333370633
 10
109.0910155977272
 20
-158.8161457936293
 10
109.2239962834579
 20
-158.9749646954993
 10
109.3301052244036
 20
-159.0383544524279
 10
109.4527506236785
 20
-159.0996771520654
 10
109.4527506236785
 20
-159.0996771520654
 10
109.3721353893236
 20
-159.3325656068683
 10
109.3721353893236
 20
-159.3325656068683
 10
109.3618001028679
 20
-159.3621934280414
 10
109.3576659882856
 20
-159.377007338628
 10
109.3342393389859
 20
-159.377007338628
 10
109.3194254283993
 20
-159.377007338628
 10
109.3108126896862
 20
-159.3683945999149
 10
109.3004774032304
 20
-159.3556477466194
 10
109.0889485404361
 20
-159.5272135017849
 10
109.0021321342078
 20
-159.6457247864775
 10
108.9173827852707
 20
-159.9988470737156
 10
108.9173827852707
 20
-159.9988470737156
 10
108.750295654236
 20
-159.8675889357276
 10
108.750295654236
 20
-159.8675889357276
 97
        0
 97
        0
 92
        1
 93
        1
 72
     4
 94
        3
 73
     0
 74
     1
 95
       17
 96
       13
 40
0.0
 40
0.0
 40
0.0
 40
0.0
 40
1.0
 40
1.0
 40
1.0
 40
2.0
 40
2.0
 40
2.0
 40
3.0
 40
3.0
 40
3.0
 40
4.0
 40
4.0
 40
4.0
 40
4.0
 10
107.9169270563541
 20
-159.7111816006972
 10
108.0499077420848
 20
-159.5968044305869
 10
108.1198431804353
 20
-159.5037868524852
 10
108.1770317654905
 20
-159.4066351598011
 10
108.1770317654905
 20
-159.4066351598011
 10
108.3293049859385
 20
-159.5375487882406
 10
108.3293049859385
 20
-159.5375487882406
 10
108.2297417264148
 20
-159.7025688619841
 10
108.136724148313
 20
-159.7959309496344
 10
108.067133219511
 20
-159.859320706563
 10
108.067133219511
 20
-159.859320706563
 10
107.9169270563541
 20
-159.7111816006972
 10
107.9169270563541
 20
-159.7111816006972
 97
        0
 97
        0
 92
        1
 93
        1
 72
     4
 94
        3
 73
     0
 74
     1
 95
       26
 96
       22
 40
0.0
 40
0.0
 40
0.0
 40
0.0
 40
1.0
 40
1.0
 40
1.0
 40
2.0
 40
2.0
 40
2.0
 40
3.0
 40
3.0
 40
3.0
 40
4.0
 40
4.0
 40
4.0
 40
5.0
 40
5.0
 40
5.0
 40
6.0
 40
6.0
 40
6.0
 40
7.0
 40
7.0
 40
7.0
 40
7.0
 10
108.1704860840685
 20
-159.0087266312548
 10
108.1704860840685
 20
-159.0004584020902
 10
108.1725531413596
 20
-158.970830580917
 10
108.1725531413596
 20
-158.9642848994951
 10
108.115709065853
 20
-158.9219102250265
 10
108.0333712837556
 20
-158.8585204680979
 10
107.9313964573922
 20
-158.7338080115318
 10
107.9313964573922
 20
-158.7338080115318
 10
108.0519747993759
 20
-158.5729220523707
 10
108.0519747993759
 20
-158.5729220523707
 10
108.0754014486756
 20
-158.6239094655524
 10
108.1877115614947
 20
-158.7717040618696
 10
108.3441188965251
 20
-158.8502522389333
 10
108.3441188965251
 20
-158.8502522389333
 10
108.2404215224191
 20
-159.0087266312548
 10
108.2404215224191
 20
-159.0087266312548
 10
108.2235405545413
 20
-159.0342203378456
 10
108.2132052680856
 20
-159.0404215097191
 10
108.2021809625328
 20
-159.0404215097191
 10
108.1897786187859
 20
-159.0404215097191
 10
108.1704860840685
 20
-159.0300862232633
 10
108.1704860840685
 20
-159.0087266312548
 97
        0
 97
        0
 92
        1
 93
        1
 72
     4
 94
        3
 73
     0
 74
     1
 95
       20
 96
       16
 40
0.0
 40
0.0
 40
0.0
 40
0.0
 40
1.0
 40
1.0
 40
1.0
 40
2.0
 40
2.0
 40
2.0
 40
3.0
 40
3.0
 40
3.0
 40
4.0
 40
4.0
 40
4.0
 40
5.0
 40
5.0
 40
5.0
 40
5.0
 10
109.2198621688756
 20
-159.1926947301671
 10
109.0465738659675
 20
-159.0659152163099
 10
108.9280625812749
 20
-158.9263888491573
 10
108.8688069389286
 20
-158.8437065575113
 10
108.8643283147978
 20
-158.9601507849127
 10
108.8622612575067
 20
-158.9959797779593
 10
108.8622612575067
 20
-159.0511013057233
 10
108.8622612575067
 20
-159.0511013057233
 10
108.8622612575067
 20
-159.3621934280414
 10
108.8622612575067
 20
-159.3621934280414
 10
108.8622612575067
 20
-159.4087022170923
 10
108.8643283147978
 20
-159.4297172995523
 10
108.8688069389286
 20
-159.5819905200003
 10
108.9704372557435
 20
-159.398022421088
 10
109.1054849987653
 20
-159.2774440791043
 10
109.2198621688756
 20
-159.1926947301671
 97
        0
 97
        0
 75
     2
 76
     1
 98
        0
  0
ENDBLK
  5
44
330
41
100
AcDbEntity
  8
0
100
AcDbBlockEnd
  0
BLOCK
  5
80
330
7E
100
AcDbEntity
  8
0
100
AcDbBlockBegin
  2
block 3
 70
     0
 10
0.0
 20
0.0
 30
0.0
  3
block 3
  1

  0
SPLINE
  5
82
330
7E
100
AcDbEntity
  8
_U+30EC_U+30A4_U+30E4_U+30FC 1
370
     0
100
AcDbSpline
210
0.0
220
0.0
230
1.0
 70
    11
 71
     3
 72
    38
 73
    34
 74
     0
 42
0.0000000001
 43
0.0000000001
 12
1.0
 22
0.0
 32
0.0
 13
1.0
 23
0.0
 33
0.0
 40
0.0
 40
0.0
 40
0.0
 40
0.0
 40
1.0
 40
1.0
 40
1.0
 40
2.0
 40
2.0
 40
2.0
 40
3.0
 40
3.0
 40
3.0
 40
4.0
 40
4.0
 40
4.0
 40
5.0
 40
5.0
 40
5.0
 40
6.0
 40
6.0
 40
6.0
 40
7.0
 40
7.0
 40
7.0
 40
8.0
 40
8.0
 40
8.0
 40
9.0
 40
9.0
 40
9.0
 40
10.0
 40
10.0
 40
10.0
 40
11.0
 40
11.0
 40
11.0
 40
11.0
 10
91.38305254876883
 20
-141.5176323430928
 30
0.0
 10
90.96550697595654
 20
-141.7236490531108
 30
0.0
 10
90.55795218005149
 20
-141.5186658717384
 30
0.0
 10
90.35021292229092
 20
-141.0976752034409
 30
0.0
 10
90.11835799613361
 20
-140.6270751601557
 30
0.0
 10
90.29957001865775
 20
-140.2195203642507
 30
0.0
 10
90.6657836687398
 20
-140.0388251060493
 30
0.0
 10
90.97480873376672
 20
-139.886379630827
 30
0.0
 10
91.30657142899628
 20
-139.9325439103294
 30
0.0
 10
91.46607934996335
 20
-140.2078070396008
 30
0.0
 10
91.46607934996335
 20
-140.2078070396008
 30
0.0
 10
91.25937362084835
 20
-140.3097818659642
 30
0.0
 10
91.25937362084835
 20
-140.3097818659642
 30
0.0
 10
91.13362763563674
 20
-140.1406276776385
 30
0.0
 10
90.89936114263975
 20
-140.1640543269382
 30
0.0
 10
90.75570066090484
 20
-140.2350232939343
 30
0.0
 10
90.66268308280308
 20
-140.2808430638881
 30
0.0
 10
90.57207707154102
 20
-140.3607692791459
 30
0.0
 10
90.52246769655342
 20
-140.4703233155769
 30
0.0
 10
90.43427325213102
 20
-140.6553249431348
 30
0.0
 10
90.50317516183601
 20
-140.8620306722498
 30
0.0
 10
90.57345510973511
 20
-141.0043131157906
 30
0.0
 10
90.76775849510321
 20
-141.3987765488517
 30
0.0
 10
91.08953041342554
 20
-141.4196193765375
 30
0.0
 10
91.28314477969658
 20
-141.3243624863703
 30
0.0
 10
91.40613468852
 20
-141.2633842962814
 30
0.0
 10
91.61352943673204
 20
-141.071492477753
 30
0.0
 10
91.50156383346142
 20
-140.7728026991818
 30
0.0
 10
91.50156383346142
 20
-140.7728026991818
 30
0.0
 10
91.70861407212493
 20
-140.6708278728184
 30
0.0
 10
91.70861407212493
 20
-140.6708278728184
 30
0.0
 10
91.75718991846696
 20
-140.7979518962241
 30
0.0
 10
91.9259995972442
 20
-141.2499484238889
 30
0.0
 10
91.38305254876883
 20
-141.5176323430928
 30
0.0
  0
HATCH
  5
83
330
7E
100
AcDbEntity
  8
_U+30EC_U+30A4_U+30E4_U+30FC 1
 62
   179
420
  2234388
100
AcDbHatch
 10
0.0
 20
0.0
 30
0.0
210
0.0
220
0.0
230
1.0
  2
SOLID
 70
     1
 71
     0
 91
        1
 92
        1
 93
        1
 72
     4
 94
        3
 73
     0
 74
     1
 95
       38
 96
       34
 40
0.0
 40
0.0
 40
0.0
 40
0.0
 40
1.0
 40
1.0
 40
1.0
 40
2.0
 40
2.0
 40
2.0
 40
3.0
 40
3.0
 40
3.0
 40
4.0
 40
4.0
 40
4.0
 40
5.0
 40
5.0
 40
5.0
 40
6.0
 40
6.0
 40
6.0
 40
7.0
 40
7.0
 40
7.0
 40
8.0
 40
8.0
 40
8.0
 40
9.0
 40
9.0
 40
9.0
 40
10.0
 40
10.0
 40
10.0
 40
11.0
 40
11.0
 40
11.0
 40
11.0
 10
91.38305254876883
 20
-141.5176323430928
 10
90.96550697595654
 20
-141.7236490531108
 10
90.55795218005149
 20
-141.5186658717384
 10
90.35021292229092
 20
-141.0976752034409
 10
90.11835799613361
 20
-140.6270751601557
 10
90.29957001865775
 20
-140.2195203642507
 10
90.6657836687398
 20
-140.0388251060493
 10
90.97480873376672
 20
-139.886379630827
 10
91.30657142899628
 20
-139.9325439103294
 10
91.46607934996335
 20
-140.2078070396008
 10
91.46607934996335
 20
-140.2078070396008
 10
91.25937362084835
 20
-140.3097818659642
 10
91.25937362084835
 20
-140.3097818659642
 10
91.13362763563674
 20
-140.1406276776385
 10
90.89936114263975
 20
-140.1640543269382
 10
90.75570066090484
 20
-140.2350232939343
 10
90.66268308280308
 20
-140.2808430638881
 10
90.57207707154102
 20
-140.3607692791459
 10
90.52246769655342
 20
-140.4703233155769
 10
90.43427325213102
 20
-140.6553249431348
 10
90.50317516183601
 20
-140.8620306722498
 10
90.57345510973511
 20
-141.0043131157906
 10
90.76775849510321
 20
-141.3987765488517
 10
91.08953041342554
 20
-141.4196193765375
 10
91.28314477969658
 20
-141.3243624863703
 10
91.40613468852
 20
-141.2633842962814
 10
91.61352943673204
 20
-141.071492477753
 10
91.50156383346142
 20
-140.7728026991818
 10
91.50156383346142
 20
-140.7728026991818
 10
91.70861407212493
 20
-140.6708278728184
 10
91.70861407212493
 20
-140.6708278728184
 10
91.75718991846696
 20
-140.7979518962241
 10
91.9259995972442
 20
-141.2499484238889
 10
91.38305254876883
 20
-141.5176323430928
 97
        0
 97
        0
 75
     2
 76
     1
 98
        0
  0
SPLINE
  5
84
330
7E
100
AcDbEntity
  8
_U+30EC_U+30A4_U+30E4_U+30FC 1
370
     0
100
AcDbSpline
210
0.0
220
0.0
230
1.0
 70
    11
 71
     3
 72
    44
 73
    40
 74
     0
 42
0.0000000001
 43
0.0000000001
 12
1.0
 22
0.0
 32
0.0
 13
1.0
 23
0.0
 33
0.0
 40
0.0
 40
0.0
 40
0.0
 40
0.0
 40
1.0
 40
1.0
 40
1.0
 40
2.0
 40
2.0
 40
2.0
 40
3.0
 40
3.0
 40
3.0
 40
4.0
 40
4.0
 40
4.0
 40
5.0
 40
5.0
 40
5.0
 40
6.0
 40
6.0
 40
6.0
 40
7.0
 40
7.0
 40
7.0
 40
8.0
 40
8.0
 40
8.0
 40
9.0
 40
9.0
 40
9.0
 40
10.0
 40
10.0
 40
10.0
 40
11.0
 40
11.0
 40
11.0
 40
12.0
 40
12.0
 40
12.0
 40
13.0
 40
13.0
 40
13.0
 40
13.0
 10
93.04255504401367
 20
-140.6429225993879
 30
0.0
 10
93.00190291728772
 20
-140.6131225234405
 30
0.0
 10
92.95952824281915
 20
-140.5752264731027
 30
0.0
 10
92.8554863591646
 20
-140.369382017859
 30
0.0
 10
92.74455428453956
 20
-140.1530300213853
 30
0.0
 10
92.66049395469946
 20
-140.116684264016
 30
0.0
 10
92.5009860337324
 20
-140.1954046958539
 30
0.0
 10
92.5009860337324
 20
-140.1954046958539
 30
0.0
 10
92.13477238365034
 20
-140.375927699281
 30
0.0
 10
92.13477238365034
 20
-140.375927699281
 30
0.0
 10
92.13477238365034
 20
-140.375927699281
 30
0.0
 10
92.4183037420864
 20
-140.9505696262207
 30
0.0
 10
92.4183037420864
 20
-140.9505696262207
 30
0.0
 10
92.4183037420864
 20
-140.9505696262207
 30
0.0
 10
92.20746389838911
 20
-141.0546115098752
 30
0.0
 10
92.20746389838911
 20
-141.0546115098752
 30
0.0
 10
92.20746389838911
 20
-141.0546115098752
 30
0.0
 10
91.52464597321259
 20
-139.6695108700305
 30
0.0
 10
91.52464597321259
 20
-139.6695108700305
 30
0.0
 10
91.52464597321259
 20
-139.6695108700305
 30
0.0
 10
92.12994924997099
 20
-139.3709933462337
 30
0.0
 10
92.12994924997099
 20
-139.3709933462337
 30
0.0
 10
92.40521237924246
 20
-139.2352565841148
 30
0.0
 10
92.63086613352631
 20
-139.3150105445983
 30
0.0
 10
92.74386526544251
 20
-139.5446261586902
 30
0.0
 10
92.76660289564516
 20
-139.5901014190955
 30
0.0
 10
92.79519718817274
 20
-139.6679605770622
 30
0.0
 10
92.79106307359044
 20
-139.7597723717441
 30
0.0
 10
92.78348386352289
 20
-139.879144930308
 30
0.0
 10
92.73318546943824
 20
-139.9249647002618
 30
0.0
 10
92.68564315174179
 20
-139.9671671199561
 30
0.0
 10
92.82792559528261
 20
-139.9444294897535
 30
0.0
 10
92.90991886783155
 20
-139.9583821264687
 30
0.0
 10
93.05323484001795
 20
-140.2388128989681
 30
0.0
 10
93.17656925838989
 20
-140.4799695829356
 30
0.0
 10
93.22307804744077
 20
-140.492716436231
 30
0.0
 10
93.30817190592643
 20
-140.5118367161741
 30
0.0
 10
93.30817190592643
 20
-140.5118367161741
 30
0.0
 10
93.04255504401367
 20
-140.6429225993879
 30
0.0
 10
93.04255504401367
 20
-140.6429225993879
 30
0.0
  0
SPLINE
  5
85
330
7E
100
AcDbEntity
  8
_U+30EC_U+30A4_U+30E4_U+30FC 1
370
     0
100
AcDbSpline
210
0.0
220
0.0
230
1.0
 70
    11
 71
     3
 72
    20
 73
    16
 74
     0
 42
0.0000000001
 43
0.0000000001
 12
1.0
 22
0.0
 32
0.0
 13
1.0
 23
0.0
 33
0.0
 40
0.0
 40
0.0
 40
0.0
 40
0.0
 40
1.0
 40
1.0
 40
1.0
 40
2.0
 40
2.0
 40
2.0
 40
3.0
 40
3.0
 40
3.0
 40
4.0
 40
4.0
 40
4.0
 40
5.0
 40
5.0
 40
5.0
 40
5.0
 10
92.22744545220355
 20
-139.5587510501798
 30
0.0
 10
92.22744545220355
 20
-139.5587510501798
 30
0.0
 10
91.82884790456015
 20
-139.7554660023875
 30
0.0
 10
91.82884790456015
 20
-139.7554660023875
 30
0.0
 10
91.82884790456015
 20
-139.7554660023875
 30
0.0
 10
92.04106578645154
 20
-140.1861029380437
 30
0.0
 10
92.04106578645154
 20
-140.1861029380437
 30
0.0
 10
92.04106578645154
 20
-140.1861029380437
 30
0.0
 10
92.4375962768038
 20
-139.9905937692558
 30
0.0
 10
92.4375962768038
 20
-139.9905937692558
 30
0.0
 10
92.52682424987177
 20
-139.9464965470446
 30
0.0
 10
92.61467418474564
 20
-139.8185112497676
 30
0.0
 10
92.53888208407014
 20
-139.6645154815769
 30
0.0
 10
92.50408661966912
 20
-139.5942355336778
 30
0.0
 10
92.40555688879098
 20
-139.4709011153059
 30
0.0
 10
92.22744545220355
 20
-139.5587510501798
 30
0.0
  0
HATCH
  5
86
330
7E
100
AcDbEntity
  8
_U+30EC_U+30A4_U+30E4_U+30FC 1
 62
   179
420
  2234388
100
AcDbHatch
 10
0.0
 20
0.0
 30
0.0
210
0.0
220
0.0
230
1.0
  2
SOLID
 70
     1
 71
     0
 91
        2
 92
        1
 93
        1
 72
     4
 94
        3
 73
     0
 74
     1
 95
       44
 96
       40
 40
0.0
 40
0.0
 40
0.0
 40
0.0
 40
1.0
 40
1.0
 40
1.0
 40
2.0
 40
2.0
 40
2.0
 40
3.0
 40
3.0
 40
3.0
 40
4.0
 40
4.0
 40
4.0
 40
5.0
 40
5.0
 40
5.0
 40
6.0
 40
6.0
 40
6.0
 40
7.0
 40
7.0
 40
7.0
 40
8.0
 40
8.0
 40
8.0
 40
9.0
 40
9.0
 40
9.0
 40
10.0
 40
10.0
 40
10.0
 40
11.0
 40
11.0
 40
11.0
 40
12.0
 40
12.0
 40
12.0
 40
13.0
 40
13.0
 40
13.0
 40
13.0
 10
93.04255504401367
 20
-140.6429225993879
 10
93.00190291728772
 20
-140.6131225234405
 10
92.95952824281915
 20
-140.5752264731027
 10
92.8554863591646
 20
-140.369382017859
 10
92.74455428453956
 20
-140.1530300213853
 10
92.66049395469946
 20
-140.116684264016
 10
92.5009860337324
 20
-140.1954046958539
 10
92.5009860337324
 20
-140.1954046958539
 10
92.13477238365034
 20
-140.375927699281
 10
92.13477238365034
 20
-140.375927699281
 10
92.13477238365034
 20
-140.375927699281
 10
92.4183037420864
 20
-140.9505696262207
 10
92.4183037420864
 20
-140.9505696262207
 10
92.4183037420864
 20
-140.9505696262207
 10
92.20746389838911
 20
-141.0546115098752
 10
92.20746389838911
 20
-141.0546115098752
 10
92.20746389838911
 20
-141.0546115098752
 10
91.52464597321259
 20
-139.6695108700305
 10
91.52464597321259
 20
-139.6695108700305
 10
91.52464597321259
 20
-139.6695108700305
 10
92.12994924997099
 20
-139.3709933462337
 10
92.12994924997099
 20
-139.3709933462337
 10
92.40521237924246
 20
-139.2352565841148
 10
92.63086613352631
 20
-139.3150105445983
 10
92.74386526544251
 20
-139.5446261586902
 10
92.76660289564516
 20
-139.5901014190955
 10
92.79519718817274
 20
-139.6679605770622
 10
92.79106307359044
 20
-139.7597723717441
 10
92.78348386352289
 20
-139.879144930308
 10
92.73318546943824
 20
-139.9249647002618
 10
92.68564315174179
 20
-139.9671671199561
 10
92.82792559528261
 20
-139.9444294897535
 10
92.90991886783155
 20
-139.9583821264687
 10
93.05323484001795
 20
-140.2388128989681
 10
93.17656925838989
 20
-140.4799695829356
 10
93.22307804744077
 20
-140.492716436231
 10
93.30817190592643
 20
-140.5118367161741
 10
93.30817190592643
 20
-140.5118367161741
 10
93.04255504401367
 20
-140.6429225993879
 10
93.04255504401367
 20
-140.6429225993879
 97
        0
 97
        0
 92
        1
 93
        1
 72
     4
 94
        3
 73
     0
 74
     1
 95
       20
 96
       16
 40
0.0
 40
0.0
 40
0.0
 40
0.0
 40
1.0
 40
1.0
 40
1.0
 40
2.0
 40
2.0
 40
2.0
 40
3.0
 40
3.0
 40
3.0
 40
4.0
 40
4.0
 40
4.0
 40
5.0
 40
5.0
 40
5.0
 40
5.0
 10
92.22744545220355
 20
-139.5587510501798
 10
92.22744545220355
 20
-139.5587510501798
 10
91.82884790456015
 20
-139.7554660023875
 10
91.82884790456015
 20
-139.7554660023875
 10
91.82884790456015
 20
-139.7554660023875
 10
92.04106578645154
 20
-140.1861029380437
 10
92.04106578645154
 20
-140.1861029380437
 10
92.04106578645154
 20
-140.1861029380437
 10
92.4375962768038
 20
-139.9905937692558
 10
92.4375962768038
 20
-139.9905937692558
 10
92.52682424987177
 20
-139.9464965470446
 10
92.61467418474564
 20
-139.8185112497676
 10
92.53888208407014
 20
-139.6645154815769
 10
92.50408661966912
 20
-139.5942355336778
 10
92.40555688879098
 20
-139.4709011153059
 10
92.22744545220355
 20
-139.5587510501798
 97
        0
 97
        0
 75
     2
 76
     1
 98
        0
  0
SPLINE
  5
87
330
7E
100
AcDbEntity
  8
_U+30EC_U+30A4_U+30E4_U+30FC 1
370
     0
100
AcDbSpline
210
0.0
220
0.0
230
1.0
 70
    11
 71
     3
 72
    26
 73
    22
 74
     0
 42
0.0000000001
 43
0.0000000001
 12
1.0
 22
0.0
 32
0.0
 13
1.0
 23
0.0
 33
0.0
 40
0.0
 40
0.0
 40
0.0
 40
0.0
 40
1.0
 40
1.0
 40
1.0
 40
2.0
 40
2.0
 40
2.0
 40
3.0
 40
3.0
 40
3.0
 40
4.0
 40
4.0
 40
4.0
 40
5.0
 40
5.0
 40
5.0
 40
6.0
 40
6.0
 40
6.0
 40
7.0
 40
7.0
 40
7.0
 40
7.0
 10
93.85180797349886
 20
-139.5408365536565
 30
0.0
 10
93.85180797349886
 20
-139.5408365536565
 30
0.0
 10
93.44528670623937
 20
-139.7409966013495
 30
0.0
 10
93.44528670623937
 20
-139.7409966013495
 30
0.0
 10
93.44528670623937
 20
-139.7409966013495
 30
0.0
 10
93.72433944054461
 20
-140.3066812800275
 30
0.0
 10
93.72433944054461
 20
-140.3066812800275
 30
0.0
 10
93.72433944054461
 20
-140.3066812800275
 30
0.0
 10
93.51384410639585
 20
-140.4103786541335
 30
0.0
 10
93.51384410639585
 20
-140.4103786541335
 30
0.0
 10
93.51384410639585
 20
-140.4103786541335
 30
0.0
 10
92.83102618121933
 20
-139.0252780142888
 30
0.0
 10
92.83102618121933
 20
-139.0252780142888
 30
0.0
 10
92.83102618121933
 20
-139.0252780142888
 30
0.0
 10
93.44769827307906
 20
-138.7212483377155
 30
0.0
 10
93.44769827307906
 20
-138.7212483377155
 30
0.0
 10
93.70573592492427
 20
-138.5939520595356
 30
0.0
 10
93.9613620099298
 20
-138.6492458420738
 30
0.0
 10
94.09330916701487
 20
-138.9169297612777
 30
0.0
 10
94.20286320344582
 20
-139.1387939105278
 30
0.0
 10
94.14946422342445
 20
-139.3937309764363
 30
0.0
 10
93.85180797349886
 20
-139.5408365536565
 30
0.0
  0
SPLINE
  5
88
330
7E
100
AcDbEntity
  8
_U+30EC_U+30A4_U+30E4_U+30FC 1
370
     0
100
AcDbSpline
210
0.0
220
0.0
230
1.0
 70
    11
 71
     3
 72
    20
 73
    16
 74
     0
 42
0.0000000001
 43
0.0000000001
 12
1.0
 22
0.0
 32
0.0
 13
1.0
 23
0.0
 33
0.0
 40
0.0
 40
0.0
 40
0.0
 40
0.0
 40
1.0
 40
1.0
 40
1.0
 40
2.0
 40
2.0
 40
2.0
 40
3.0
 40
3.0
 40
3.0
 40
4.0
 40
4.0
 40
4.0
 40
5.0
 40
5.0
 40
5.0
 40
5.0
 10
93.53348115066177
 20
-138.9148627039866
 30
0.0
 10
93.53348115066177
 20
-138.9148627039866
 30
0.0
 10
93.13488360301837
 20
-139.1112331466458
 30
0.0
 10
93.13488360301837
 20
-139.1112331466458
 30
0.0
 10
93.13488360301837
 20
-139.1112331466458
 30
0.0
 10
93.35192461858911
 20
-139.5515163496607
 30
0.0
 10
93.35192461858911
 20
-139.5515163496607
 30
0.0
 10
93.35192461858911
 20
-139.5515163496607
 30
0.0
 10
93.75052216623251
 20
-139.354801397453
 30
0.0
 10
93.75052216623251
 20
-139.354801397453
 30
0.0
 10
93.90038381984088
 20
-139.2810763540686
 30
0.0
 10
93.93311222695075
 20
-139.1467176301439
 30
0.0
 10
93.87144501776478
 20
-139.0216606640293
 30
0.0
 10
93.82080211413161
 20
-138.9189968185689
 30
0.0
 10
93.70229082943902
 20
-138.8314913932435
 30
0.0
 10
93.53348115066177
 20
-138.9148627039866
 30
0.0
  0
HATCH
  5
89
330
7E
100
AcDbEntity
  8
_U+30EC_U+30A4_U+30E4_U+30FC 1
 62
   179
420
  2234388
100
AcDbHatch
 10
0.0
 20
0.0
 30
0.0
210
0.0
220
0.0
230
1.0
  2
SOLID
 70
     1
 71
     0
 91
        2
 92
        1
 93
        1
 72
     4
 94
        3
 73
     0
 74
     1
 95
       26
 96
       22
 40
0.0
 40
0.0
 40
0.0
 40
0.0
 40
1.0
 40
1.0
 40
1.0
 40
2.0
 40
2.0
 40
2.0
 40
3.0
 40
3.0
 40
3.0
 40
4.0
 40
4.0
 40
4.0
 40
5.0
 40
5.0
 40
5.0
 40
6.0
 40
6.0
 40
6.0
 40
7.0
 40
7.0
 40
7.0
 40
7.0
 10
93.85180797349886
 20
-139.5408365536565
 10
93.85180797349886
 20
-139.5408365536565
 10
93.44528670623937
 20
-139.7409966013495
 10
93.44528670623937
 20
-139.7409966013495
 10
93.44528670623937
 20
-139.7409966013495
 10
93.72433944054461
 20
-140.3066812800275
 10
93.72433944054461
 20
-140.3066812800275
 10
93.72433944054461
 20
-140.3066812800275
 10
93.51384410639585
 20
-140.4103786541335
 10
93.51384410639585
 20
-140.4103786541335
 10
93.51384410639585
 20
-140.4103786541335
 10
92.83102618121933
 20
-139.0252780142888
 10
92.83102618121933
 20
-139.0252780142888
 10
92.83102618121933
 20
-139.0252780142888
 10
93.44769827307906
 20
-138.7212483377155
 10
93.44769827307906
 20
-138.7212483377155
 10
93.70573592492427
 20
-138.5939520595356
 10
93.9613620099298
 20
-138.6492458420738
 10
94.09330916701487
 20
-138.9169297612777
 10
94.20286320344582
 20
-139.1387939105278
 10
94.14946422342445
 20
-139.3937309764363
 10
93.85180797349886
 20
-139.5408365536565
 97
        0
 97
        0
 92
        1
 93
        1
 72
     4
 94
        3
 73
     0
 74
     1
 95
       20
 96
       16
 40
0.0
 40
0.0
 40
0.0
 40
0.0
 40
1.0
 40
1.0
 40
1.0
 40
2.0
 40
2.0
 40
2.0
 40
3.0
 40
3.0
 40
3.0
 40
4.0
 40
4.0
 40
4.0
 40
5.0
 40
5.0
 40
5.0
 40
5.0
 10
93.53348115066177
 20
-138.9148627039866
 10
93.53348115066177
 20
-138.9148627039866
 10
93.13488360301837
 20
-139.1112331466458
 10
93.13488360301837
 20
-139.1112331466458
 10
93.13488360301837
 20
-139.1112331466458
 10
93.35192461858911
 20
-139.5515163496607
 10
93.35192461858911
 20
-139.5515163496607
 10
93.35192461858911
 20
-139.5515163496607
 10
93.75052216623251
 20
-139.354801397453
 10
93.75052216623251
 20
-139.354801397453
 10
93.90038381984088
 20
-139.2810763540686
 10
93.93311222695075
 20
-139.1467176301439
 10
93.87144501776478
 20
-139.0216606640293
 10
93.82080211413161
 20
-138.9189968185689
 10
93.70229082943902
 20
-138.8314913932435
 10
93.53348115066177
 20
-138.9148627039866
 97
        0
 97
        0
 75
     2
 76
     1
 98
        0
  0
POLYLINE
  5
8A
330
7E
100
AcDbEntity
  8
_U+30EC_U+30A4_U+30E4_U+30FC 1
370
     0
100
AcDb2dPolyline
 66
     1
 10
0.0
 20
0.0
 30
0.0
  0
VERTEX
  5
8B
330
8A
100
AcDbEntity
  8
_U+30EC_U+30A4_U+30E4_U+30FC 1
370
     0
100
AcDbVertex
100
AcDb2dVertex
 10
94.49328475285238
 20
-139.4295599694829
 30
0.0
  0
VERTEX
  5
8C
330
8A
100
AcDbEntity
  8
_U+30EC_U+30A4_U+30E4_U+30FC 1
370
     0
100
AcDbVertex
100
AcDb2dVertex
 10
94.39785560791096
 20
-139.2359456032119
 30
0.0
  0
VERTEX
  5
8D
330
8A
100
AcDbEntity
  8
_U+30EC_U+30A4_U+30E4_U+30FC 1
370
     0
100
AcDbVertex
100
AcDb2dVertex
 10
94.92357717896009
 20
-138.9768744227211
 30
0.0
  0
VERTEX
  5
8E
330
8A
100
AcDbEntity
  8
_U+30EC_U+30A4_U+30E4_U+30FC 1
370
     0
100
AcDbVertex
100
AcDb2dVertex
 10
95.01900632390151
 20
-139.1704887889921
 30
0.0
  0
VERTEX
  5
8F
330
8A
100
AcDbEntity
  8
_U+30EC_U+30A4_U+30E4_U+30FC 1
370
     0
100
AcDbVertex
100
AcDb2dVertex
 10
94.49328475285238
 20
-139.4295599694829
 30
0.0
  0
SEQEND
  5
90
330
8A
100
AcDbEntity
  8
_U+30EC_U+30A4_U+30E4_U+30FC 1
370
     0
  0
HATCH
  5
91
330
7E
100
AcDbEntity
  8
_U+30EC_U+30A4_U+30E4_U+30FC 1
 62
   179
420
  2234388
100
AcDbHatch
 10
0.0
 20
0.0
 30
0.0
210
0.0
220
0.0
230
1.0
  2
SOLID
 70
     1
 71
     0
 91
        1
 92
        1
 93
        4
 72
     1
 10
94.49328475285238
 20
-139.4295599694829
 11
94.39785560791096
 21
-139.2359456032119
 72
     1
 10
94.39785560791096
 20
-139.2359456032119
 11
94.92357717896009
 21
-138.9768744227211
 72
     1
 10
94.92357717896009
 20
-138.9768744227211
 11
95.01900632390151
 21
-139.1704887889921
 72
     1
 10
95.01900632390151
 20
-139.1704887889921
 11
94.49328475285238
 21
-139.4295599694829
 97
        0
 75
     2
 76
     1
 98
        0
  0
SPLINE
  5
92
330
7E
100
AcDbEntity
  8
_U+30EC_U+30A4_U+30E4_U+30FC 1
370
     0
100
AcDbSpline
210
0.0
220
0.0
230
1.0
 70
    11
 71
     3
 72
    62
 73
    58
 74
     0
 42
0.0000000001
 43
0.0000000001
 12
1.0
 22
0.0
 32
0.0
 13
1.0
 23
0.0
 33
0.0
 40
0.0
 40
0.0
 40
0.0
 40
0.0
 40
1.0
 40
1.0
 40
1.0
 40
2.0
 40
2.0
 40
2.0
 40
3.0
 40
3.0
 40
3.0
 40
4.0
 40
4.0
 40
4.0
 40
5.0
 40
5.0
 40
5.0
 40
6.0
 40
6.0
 40
6.0
 40
7.0
 40
7.0
 40
7.0
 40
8.0
 40
8.0
 40
8.0
 40
9.0
 40
9.0
 40
9.0
 40
10.0
 40
10.0
 40
10.0
 40
11.0
 40
11.0
 40
11.0
 40
12.0
 40
12.0
 40
12.0
 40
13.0
 40
13.0
 40
13.0
 40
14.0
 40
14.0
 40
14.0
 40
15.0
 40
15.0
 40
15.0
 40
16.0
 40
16.0
 40
16.0
 40
17.0
 40
17.0
 40
17.0
 40
18.0
 40
18.0
 40
18.0
 40
19.0
 40
19.0
 40
19.0
 40
19.0
 10
95.79553084627682
 20
-139.3418822893833
 30
0.0
 10
95.70974796869409
 20
-139.3840847090776
 30
0.0
 10
95.50510929687026
 20
-139.4614271027214
 30
0.0
 10
95.31046140195365
 20
-139.3498060089994
 30
0.0
 10
95.19470619364924
 20
-139.2819376279399
 30
0.0
 10
95.14681936640427
 20
-139.1946044573889
 30
0.0
 10
95.1058227301298
 20
-139.120534904456
 30
0.0
 10
95.1058227301298
 20
-139.120534904456
 30
0.0
 10
95.30322670143461
 20
-139.0232109569977
 30
0.0
 10
95.30322670143461
 20
-139.0232109569977
 30
0.0
 10
95.33767765628711
 20
-139.0886677712174
 30
0.0
 10
95.45102129775184
 20
-139.2948567360096
 30
0.0
 10
95.70526934456328
 20
-139.1694552603465
 30
0.0
 10
95.82860376293522
 20
-139.1084770702576
 30
0.0
 10
95.9347127038809
 20
-138.9785969704637
 30
0.0
 10
95.83342689661457
 20
-138.7736137890913
 30
0.0
 10
95.78209497388434
 20
-138.6692273958882
 30
0.0
 10
95.72628442702329
 20
-138.6423556511033
 30
0.0
 10
95.68390975255473
 20
-138.6278862500652
 30
0.0
 10
95.58469100257953
 20
-138.5944688238583
 30
0.0
 10
95.47444794705153
 20
-138.6344319314872
 30
0.0
 10
95.42552759116099
 20
-138.6587198546582
 30
0.0
 10
95.40795760418621
 20
-138.6671603385971
 30
0.0
 10
95.37695174481897
 20
-138.6850748351204
 30
0.0
 10
95.35386960506779
 20
-138.7007500195783
 30
0.0
 10
95.35386960506779
 20
-138.7007500195783
 30
0.0
 10
95.26808672748507
 20
-138.5264281880247
 30
0.0
 10
95.26808672748507
 20
-138.5264281880247
 30
0.0
 10
95.30494924917724
 20
-138.5150593729233
 30
0.0
 10
95.34353431861204
 20
-138.4985229145941
 30
0.0
 10
95.34973549048549
 20
-138.4955945834317
 30
0.0
 10
95.40830211373473
 20
-138.4666557813556
 30
0.0
 10
95.57711179251197
 20
-138.3598578213128
 30
0.0
 10
95.47238088976039
 20
-138.1471231750986
 30
0.0
 10
95.39383271269668
 20
-137.9879597636801
 30
0.0
 10
95.2518947787044
 20
-137.996400247619
 30
0.0
 10
95.15302053827772
 20
-138.0451483487352
 30
0.0
 10
94.91599796889253
 20
-138.1621093404595
 30
0.0
 10
95.01142711383395
 20
-138.3743272223509
 30
0.0
 10
95.039676896813
 20
-138.4408175652162
 30
0.0
 10
95.039676896813
 20
-138.4408175652162
 30
0.0
 10
94.85708683609477
 20
-138.5307345573812
 30
0.0
 10
94.85708683609477
 20
-138.5307345573812
 30
0.0
 10
94.80954451839831
 20
-138.4149793490768
 30
0.0
 10
94.66795109395454
 20
-138.065302157324
 30
0.0
 10
95.07757294715076
 20
-137.8630750523398
 30
0.0
 10
95.27876652348934
 20
-137.7638563023646
 30
0.0
 10
95.55127357637261
 20
-137.7710910028836
 30
0.0
 10
95.6821872048121
 20
-138.0367078647964
 30
0.0
 10
95.76452498690956
 20
-138.203794995831
 30
0.0
 10
95.71560463101902
 20
-138.3195502041354
 30
0.0
 10
95.65359291228452
 20
-138.4187689541106
 30
0.0
 10
95.7207722742469
 20
-138.4163573872709
 30
0.0
 10
95.91955428374581
 20
-138.4080891581063
 30
0.0
 10
96.0421996830207
 20
-138.6564805425928
 30
0.0
 10
96.19171682708054
 20
-138.9599934548433
 30
0.0
 10
96.0435777212148
 20
-139.2194091448827
 30
0.0
 10
95.79553084627682
 20
-139.3418822893833
 30
0.0
  0
HATCH
  5
93
330
7E
100
AcDbEntity
  8
_U+30EC_U+30A4_U+30E4_U+30FC 1
 62
   179
420
  2234388
100
AcDbHatch
 10
0.0
 20
0.0
 30
0.0
210
0.0
220
0.0
230
1.0
  2
SOLID
 70
     1
 71
     0
 91
        1
 92
        1
 93
        1
 72
     4
 94
        3
 73
     0
 74
     1
 95
       62
 96
       58
 40
0.0
 40
0.0
 40
0.0
 40
0.0
 40
1.0
 40
1.0
 40
1.0
 40
2.0
 40
2.0
 40
2.0
 40
3.0
 40
3.0
 40
3.0
 40
4.0
 40
4.0
 40
4.0
 40
5.0
 40
5.0
 40
5.0
 40
6.0
 40
6.0
 40
6.0
 40
7.0
 40
7.0
 40
7.0
 40
8.0
 40
8.0
 40
8.0
 40
9.0
 40
9.0
 40
9.0
 40
10.0
 40
10.0
 40
10.0
 40
11.0
 40
11.0
 40
11.0
 40
12.0
 40
12.0
 40
12.0
 40
13.0
 40
13.0
 40
13.0
 40
14.0
 40
14.0
 40
14.0
 40
15.0
 40
15.0
 40
15.0
 40
16.0
 40
16.0
 40
16.0
 40
17.0
 40
17.0
 40
17.0
 40
18.0
 40
18.0
 40
18.0
 40
19.0
 40
19.0
 40
19.0
 40
19.0
 10
95.79553084627682
 20
-139.3418822893833
 10
95.70974796869409
 20
-139.3840847090776
 10
95.50510929687026
 20
-139.4614271027214
 10
95.31046140195365
 20
-139.3498060089994
 10
95.19470619364924
 20
-139.2819376279399
 10
95.14681936640427
 20
-139.1946044573889
 10
95.1058227301298
 20
-139.120534904456
 10
95.1058227301298
 20
-139.120534904456
 10
95.30322670143461
 20
-139.0232109569977
 10
95.30322670143461
 20
-139.0232109569977
 10
95.33767765628711
 20
-139.0886677712174
 10
95.45102129775184
 20
-139.2948567360096
 10
95.70526934456328
 20
-139.1694552603465
 10
95.82860376293522
 20
-139.1084770702576
 10
95.9347127038809
 20
-138.9785969704637
 10
95.83342689661457
 20
-138.7736137890913
 10
95.78209497388434
 20
-138.6692273958882
 10
95.72628442702329
 20
-138.6423556511033
 10
95.68390975255473
 20
-138.6278862500652
 10
95.58469100257953
 20
-138.5944688238583
 10
95.47444794705153
 20
-138.6344319314872
 10
95.42552759116099
 20
-138.6587198546582
 10
95.40795760418621
 20
-138.6671603385971
 10
95.37695174481897
 20
-138.6850748351204
 10
95.35386960506779
 20
-138.7007500195783
 10
95.35386960506779
 20
-138.7007500195783
 10
95.26808672748507
 20
-138.5264281880247
 10
95.26808672748507
 20
-138.5264281880247
 10
95.30494924917724
 20
-138.5150593729233
 10
95.34353431861204
 20
-138.4985229145941
 10
95.34973549048549
 20
-138.4955945834317
 10
95.40830211373473
 20
-138.4666557813556
 10
95.57711179251197
 20
-138.3598578213128
 10
95.47238088976039
 20
-138.1471231750986
 10
95.39383271269668
 20
-137.9879597636801
 10
95.2518947787044
 20
-137.996400247619
 10
95.15302053827772
 20
-138.0451483487352
 10
94.91599796889253
 20
-138.1621093404595
 10
95.01142711383395
 20
-138.3743272223509
 10
95.039676896813
 20
-138.4408175652162
 10
95.039676896813
 20
-138.4408175652162
 10
94.85708683609477
 20
-138.5307345573812
 10
94.85708683609477
 20
-138.5307345573812
 10
94.80954451839831
 20
-138.4149793490768
 10
94.66795109395454
 20
-138.065302157324
 10
95.07757294715076
 20
-137.8630750523398
 10
95.27876652348934
 20
-137.7638563023646
 10
95.55127357637261
 20
-137.7710910028836
 10
95.6821872048121
 20
-138.0367078647964
 10
95.76452498690956
 20
-138.203794995831
 10
95.71560463101902
 20
-138.3195502041354
 10
95.65359291228452
 20
-138.4187689541106
 10
95.7207722742469
 20
-138.4163573872709
 10
95.91955428374581
 20
-138.4080891581063
 10
96.0421996830207
 20
-138.6564805425928
 10
96.19171682708054
 20
-138.9599934548433
 10
96.0435777212148
 20
-139.2194091448827
 10
95.79553084627682
 20
-139.3418822893833
 97
        0
 97
        0
 75
     2
 76
     1
 98
        0
  0
SPLINE
  5
94
330
7E
100
AcDbEntity
  8
_U+30EC_U+30A4_U+30E4_U+30FC 1
370
     0
100
AcDbSpline
210
0.0
220
0.0
230
1.0
 70
    11
 71
     3
 72
    29
 73
    25
 74
     0
 42
0.0000000001
 43
0.0000000001
 12
1.0
 22
0.0
 32
0.0
 13
1.0
 23
0.0
 33
0.0
 40
0.0
 40
0.0
 40
0.0
 40
0.0
 40
1.0
 40
1.0
 40
1.0
 40
2.0
 40
2.0
 40
2.0
 40
3.0
 40
3.0
 40
3.0
 40
4.0
 40
4.0
 40
4.0
 40
5.0
 40
5.0
 40
5.0
 40
6.0
 40
6.0
 40
6.0
 40
7.0
 40
7.0
 40
7.0
 40
8.0
 40
8.0
 40
8.0
 40
8.0
 10
97.11396888848193
 20
-138.4366834506339
 30
0.0
 10
97.10949026435111
 20
-138.6725002365992
 30
0.0
 10
96.96272919667946
 20
-138.766206833798
 30
0.0
 10
96.85799829392786
 20
-138.8177110113025
 30
0.0
 10
96.71399330264443
 20
-138.8888522330729
 30
0.0
 10
96.5661987063272
 20
-138.9096950607587
 30
0.0
 10
96.40048961348668
 20
-138.7884276996779
 30
0.0
 10
96.22134464825369
 20
-138.6600978928523
 30
0.0
 10
96.09938826807586
 20
-138.4559759853513
 30
0.0
 10
96.02738577243413
 20
-138.3099039367767
 30
0.0
 10
95.963651505957
 20
-138.1807128560798
 30
0.0
 10
95.86787785146706
 20
-137.9474798917284
 30
0.0
 10
95.87476804243757
 20
-137.7221706469931
 30
0.0
 10
95.88165823340806
 20
-137.4925550329012
 30
0.0
 10
96.01567244778428
 20
-137.4003987286708
 30
0.0
 10
96.13108314654015
 20
-137.3435546531641
 30
0.0
 10
96.2737100996295
 20
-137.273274705265
 30
0.0
 10
96.42219371504376
 20
-137.2495035464168
 30
0.0
 10
96.5882473174328
 20
-137.3704263979491
 30
0.0
 10
96.76222463943792
 20
-137.4992729690974
 30
0.0
 10
96.88452552916429
 20
-137.693920864014
 30
0.0
 10
96.96135115848536
 20
-137.8492946703988
 30
0.0
 10
97.03714325916086
 20
-138.0032904385895
 30
0.0
 10
97.11982555080685
 20
-138.2192979255146
 30
0.0
 10
97.11396888848193
 20
-138.4366834506339
 30
0.0
  0
SPLINE
  5
95
330
7E
100
AcDbEntity
  8
_U+30EC_U+30A4_U+30E4_U+30FC 1
370
     0
100
AcDbSpline
210
0.0
220
0.0
230
1.0
 70
    11
 71
     3
 72
    17
 73
    13
 74
     0
 42
0.0000000001
 43
0.0000000001
 12
1.0
 22
0.0
 32
0.0
 13
1.0
 23
0.0
 33
0.0
 40
0.0
 40
0.0
 40
0.0
 40
0.0
 40
1.0
 40
1.0
 40
1.0
 40
2.0
 40
2.0
 40
2.0
 40
3.0
 40
3.0
 40
3.0
 40
4.0
 40
4.0
 40
4.0
 40
4.0
 10
96.21652151457435
 20
-137.5161539369751
 30
0.0
 10
95.9925903080331
 20
-137.6265692472774
 30
0.0
 10
96.07596161877615
 20
-137.9013156122261
 30
0.0
 10
96.22857934877273
 20
-138.2106851868015
 30
0.0
 10
96.36982826366797
 20
-138.4973171311743
 30
0.0
 10
96.53898245199373
 20
-138.7582831141819
 30
0.0
 10
96.77221541634515
 20
-138.6432169249746
 30
0.0
 10
96.99442407514375
 20
-138.5336628885437
 30
0.0
 10
96.91346433124039
 20
-138.259605542692
 30
0.0
 10
96.76015758214677
 20
-137.948513420374
 30
0.0
 10
96.61890866725153
 20
-137.6620537307755
 30
0.0
 10
96.44803193118314
 20
-137.4021212764134
 30
0.0
 10
96.21652151457435
 20
-137.5161539369751
 30
0.0
  0
HATCH
  5
96
330
7E
100
AcDbEntity
  8
_U+30EC_U+30A4_U+30E4_U+30FC 1
 62
   179
420
  2234388
100
AcDbHatch
 10
0.0
 20
0.0
 30
0.0
210
0.0
220
0.0
230
1.0
  2
SOLID
 70
     1
 71
     0
 91
        2
 92
        1
 93
        1
 72
     4
 94
        3
 73
     0
 74
     1
 95
       29
 96
       25
 40
0.0
 40
0.0
 40
0.0
 40
0.0
 40
1.0
 40
1.0
 40
1.0
 40
2.0
 40
2.0
 40
2.0
 40
3.0
 40
3.0
 40
3.0
 40
4.0
 40
4.0
 40
4.0
 40
5.0
 40
5.0
 40
5.0
 40
6.0
 40
6.0
 40
6.0
 40
7.0
 40
7.0
 40
7.0
 40
8.0
 40
8.0
 40
8.0
 40
8.0
 10
97.11396888848193
 20
-138.4366834506339
 10
97.10949026435111
 20
-138.6725002365992
 10
96.96272919667946
 20
-138.766206833798
 10
96.85799829392786
 20
-138.8177110113025
 10
96.71399330264443
 20
-138.8888522330729
 10
96.5661987063272
 20
-138.9096950607587
 10
96.40048961348668
 20
-138.7884276996779
 10
96.22134464825369
 20
-138.6600978928523
 10
96.09938826807586
 20
-138.4559759853513
 10
96.02738577243413
 20
-138.3099039367767
 10
95.963651505957
 20
-138.1807128560798
 10
95.86787785146706
 20
-137.9474798917284
 10
95.87476804243757
 20
-137.7221706469931
 10
95.88165823340806
 20
-137.4925550329012
 10
96.01567244778428
 20
-137.4003987286708
 10
96.13108314654015
 20
-137.3435546531641
 10
96.2737100996295
 20
-137.273274705265
 10
96.42219371504376
 20
-137.2495035464168
 10
96.5882473174328
 20
-137.3704263979491
 10
96.76222463943792
 20
-137.4992729690974
 10
96.88452552916429
 20
-137.693920864014
 10
96.96135115848536
 20
-137.8492946703988
 10
97.03714325916086
 20
-138.0032904385895
 10
97.11982555080685
 20
-138.2192979255146
 10
97.11396888848193
 20
-138.4366834506339
 97
        0
 97
        0
 92
        1
 93
        1
 72
     4
 94
        3
 73
     0
 74
     1
 95
       17
 96
       13
 40
0.0
 40
0.0
 40
0.0
 40
0.0
 40
1.0
 40
1.0
 40
1.0
 40
2.0
 40
2.0
 40
2.0
 40
3.0
 40
3.0
 40
3.0
 40
4.0
 40
4.0
 40
4.0
 40
4.0
 10
96.21652151457435
 20
-137.5161539369751
 10
95.9925903080331
 20
-137.6265692472774
 10
96.07596161877615
 20
-137.9013156122261
 10
96.22857934877273
 20
-138.2106851868015
 10
96.36982826366797
 20
-138.4973171311743
 10
96.53898245199373
 20
-138.7582831141819
 10
96.77221541634515
 20
-138.6432169249746
 10
96.99442407514375
 20
-138.5336628885437
 10
96.91346433124039
 20
-138.259605542692
 10
96.76015758214677
 20
-137.948513420374
 10
96.61890866725153
 20
-137.6620537307755
 10
96.44803193118314
 20
-137.4021212764134
 10
96.21652151457435
 20
-137.5161539369751
 97
        0
 97
        0
 75
     2
 76
     1
 98
        0
  0
POLYLINE
  5
97
330
7E
100
AcDbEntity
  8
_U+30EC_U+30A4_U+30E4_U+30FC 1
370
     0
100
AcDb2dPolyline
 66
     1
 10
0.0
 20
0.0
 30
0.0
  0
VERTEX
  5
98
330
97
100
AcDbEntity
  8
_U+30EC_U+30A4_U+30E4_U+30FC 1
370
     0
100
AcDbVertex
100
AcDb2dVertex
 10
98.64634736032106
 20
-137.8792670011205
 30
0.0
  0
VERTEX
  5
99
330
97
100
AcDbEntity
  8
_U+30EC_U+30A4_U+30E4_U+30FC 1
370
     0
100
AcDbVertex
100
AcDb2dVertex
 10
98.1740247692933
 20
-136.9211859466725
 30
0.0
  0
VERTEX
  5
9A
330
97
100
AcDbEntity
  8
_U+30EC_U+30A4_U+30E4_U+30FC 1
370
     0
100
AcDbVertex
100
AcDb2dVertex
 10
98.10718991687946
 20
-136.7723578217097
 30
0.0
  0
VERTEX
  5
9B
330
97
100
AcDbEntity
  8
_U+30EC_U+30A4_U+30E4_U+30FC 1
370
     0
100
AcDbVertex
100
AcDb2dVertex
 10
98.14370792902311
 20
-136.9266980994489
 30
0.0
  0
VERTEX
  5
9C
330
97
100
AcDbEntity
  8
_U+30EC_U+30A4_U+30E4_U+30FC 1
370
     0
100
AcDbVertex
100
AcDb2dVertex
 10
98.3104505505092
 20
-138.044976093961
 30
0.0
  0
VERTEX
  5
9D
330
97
100
AcDbEntity
  8
_U+30EC_U+30A4_U+30E4_U+30FC 1
370
     0
100
AcDbVertex
100
AcDb2dVertex
 10
98.06757131879908
 20
-138.1646931620734
 30
0.0
  0
VERTEX
  5
9E
330
97
100
AcDbEntity
  8
_U+30EC_U+30A4_U+30E4_U+30FC 1
370
     0
100
AcDbVertex
100
AcDb2dVertex
 10
97.28381209590475
 20
-137.3504448441346
 30
0.0
  0
VERTEX
  5
9F
330
97
100
AcDbEntity
  8
_U+30EC_U+30A4_U+30E4_U+30FC 1
370
     0
100
AcDbVertex
100
AcDb2dVertex
 10
97.18355981728398
 20
-137.2277994448597
 30
0.0
  0
VERTEX
  5
A0
330
97
100
AcDbEntity
  8
_U+30EC_U+30A4_U+30E4_U+30FC 1
370
     0
100
AcDbVertex
100
AcDb2dVertex
 10
97.25935191795948
 20
-137.3721489456917
 30
0.0
  0
VERTEX
  5
A1
330
97
100
AcDbEntity
  8
_U+30EC_U+30A4_U+30E4_U+30FC 1
370
     0
100
AcDbVertex
100
AcDb2dVertex
 10
97.73167450898723
 20
-138.3302300001397
 30
0.0
  0
VERTEX
  5
A2
330
97
100
AcDbEntity
  8
_U+30EC_U+30A4_U+30E4_U+30FC 1
370
     0
100
AcDbVertex
100
AcDb2dVertex
 10
97.53633759497356
 20
-138.4266926737267
 30
0.0
  0
VERTEX
  5
A3
330
97
100
AcDbEntity
  8
_U+30EC_U+30A4_U+30E4_U+30FC 1
370
     0
100
AcDbVertex
100
AcDb2dVertex
 10
96.85351966979704
 20
-137.0414197791077
 30
0.0
  0
VERTEX
  5
A4
330
97
100
AcDbEntity
  8
_U+30EC_U+30A4_U+30E4_U+30FC 1
370
     0
100
AcDbVertex
100
AcDb2dVertex
 10
97.1398071046213
 20
-136.9001708642125
 30
0.0
  0
VERTEX
  5
A5
330
97
100
AcDbEntity
  8
_U+30EC_U+30A4_U+30E4_U+30FC 1
370
     0
100
AcDbVertex
100
AcDb2dVertex
 10
97.98006589347374
 20
-137.7666123787528
 30
0.0
  0
VERTEX
  5
A6
330
97
100
AcDbEntity
  8
_U+30EC_U+30A4_U+30E4_U+30FC 1
370
     0
100
AcDbVertex
100
AcDb2dVertex
 10
98.07687307660926
 20
-137.8771999438293
 30
0.0
  0
VERTEX
  5
A7
330
97
100
AcDbEntity
  8
_U+30EC_U+30A4_U+30E4_U+30FC 1
370
     0
100
AcDbVertex
100
AcDb2dVertex
 10
98.04827878408169
 20
-137.7331949525459
 30
0.0
  0
VERTEX
  5
A8
330
97
100
AcDbEntity
  8
_U+30EC_U+30A4_U+30E4_U+30FC 1
370
     0
100
AcDbVertex
100
AcDb2dVertex
 10
97.87395695252805
 20
-136.538263583487
 30
0.0
  0
VERTEX
  5
A9
330
97
100
AcDbEntity
  8
_U+30EC_U+30A4_U+30E4_U+30FC 1
370
     0
100
AcDbVertex
100
AcDb2dVertex
 10
98.1588663491582
 20
-136.397875942463
 30
0.0
  0
VERTEX
  5
AA
330
97
100
AcDbEntity
  8
_U+30EC_U+30A4_U+30E4_U+30FC 1
370
     0
100
AcDbVertex
100
AcDb2dVertex
 10
98.84202878388325
 20
-137.7828043275335
 30
0.0
  0
VERTEX
  5
AB
330
97
100
AcDbEntity
  8
_U+30EC_U+30A4_U+30E4_U+30FC 1
370
     0
100
AcDbVertex
100
AcDb2dVertex
 10
98.64634736032106
 20
-137.8792670011205
 30
0.0
  0
SEQEND
  5
AC
330
97
100
AcDbEntity
  8
_U+30EC_U+30A4_U+30E4_U+30FC 1
370
     0
  0
HATCH
  5
AD
330
7E
100
AcDbEntity
  8
_U+30EC_U+30A4_U+30E4_U+30FC 1
 62
   179
420
  2234388
100
AcDbHatch
 10
0.0
 20
0.0
 30
0.0
210
0.0
220
0.0
230
1.0
  2
SOLID
 70
     1
 71
     0
 91
        1
 92
        1
 93
       19
 72
     1
 10
98.64634736032106
 20
-137.8792670011205
 11
98.1740247692933
 21
-136.9211859466725
 72
     1
 10
98.1740247692933
 20
-136.9211859466725
 11
98.10718991687946
 21
-136.7723578217097
 72
     1
 10
98.10718991687946
 20
-136.7723578217097
 11
98.14370792902311
 21
-136.9266980994489
 72
     1
 10
98.14370792902311
 20
-136.9266980994489
 11
98.3104505505092
 21
-138.044976093961
 72
     1
 10
98.3104505505092
 20
-138.044976093961
 11
98.06757131879908
 21
-138.1646931620734
 72
     1
 10
98.06757131879908
 20
-138.1646931620734
 11
97.28381209590475
 21
-137.3504448441346
 72
     1
 10
97.28381209590475
 20
-137.3504448441346
 11
97.18355981728398
 21
-137.2277994448597
 72
     1
 10
97.18355981728398
 20
-137.2277994448597
 11
97.25935191795948
 21
-137.3721489456917
 72
     1
 10
97.25935191795948
 20
-137.3721489456917
 11
97.73167450898723
 21
-138.3302300001397
 72
     1
 10
97.73167450898723
 20
-138.3302300001397
 11
97.53633759497356
 21
-138.4266926737267
 72
     1
 10
97.53633759497356
 20
-138.4266926737267
 11
96.85351966979704
 21
-137.0414197791077
 72
     1
 10
96.85351966979704
 20
-137.0414197791077
 11
97.1398071046213
 21
-136.9001708642125
 72
     1
 10
97.1398071046213
 20
-136.9001708642125
 11
97.98006589347374
 21
-137.7666123787528
 72
     1
 10
97.98006589347374
 20
-137.7666123787528
 11
98.07687307660926
 21
-137.8771999438293
 72
     1
 10
98.07687307660926
 20
-137.8771999438293
 11
98.04827878408169
 21
-137.7331949525459
 72
     1
 10
98.04827878408169
 20
-137.7331949525459
 11
97.87395695252805
 21
-136.538263583487
 72
     1
 10
97.87395695252805
 20
-136.538263583487
 11
98.1588663491582
 21
-136.397875942463
 72
     1
 10
98.1588663491582
 20
-136.397875942463
 11
98.84202878388325
 21
-137.7828043275335
 72
     1
 10
98.84202878388325
 20
-137.7828043275335
 11
98.64634736032106
 21
-137.8792670011205
 97
        0
 75
     2
 76
     1
 98
        0
  0
POLYLINE
  5
AE
330
7E
100
AcDbEntity
  8
_U+30EC_U+30A4_U+30E4_U+30FC 1
370
     0
100
AcDb2dPolyline
 66
     1
 10
0.0
 20
0.0
 30
0.0
  0
VERTEX
  5
AF
330
AE
100
AcDbEntity
  8
_U+30EC_U+30A4_U+30E4_U+30FC 1
370
     0
100
AcDbVertex
100
AcDb2dVertex
 10
100.4095472296719
 20
-137.0097249006434
 30
0.0
  0
VERTEX
  5
B0
330
AE
100
AcDbEntity
  8
_U+30EC_U+30A4_U+30E4_U+30FC 1
370
     0
100
AcDbVertex
100
AcDb2dVertex
 10
100.1670125075103
 20
-137.1294419687558
 30
0.0
  0
VERTEX
  5
B1
330
AE
100
AcDbEntity
  8
_U+30EC_U+30A4_U+30E4_U+30FC 1
370
     0
100
AcDbVertex
100
AcDb2dVertex
 10
99.3474242915694
 20
-136.1136555649299
 30
0.0
  0
VERTEX
  5
B2
330
AE
100
AcDbEntity
  8
_U+30EC_U+30A4_U+30E4_U+30FC 1
370
     0
100
AcDbVertex
100
AcDb2dVertex
 10
99.65679386614484
 20
-137.3811061939533
 30
0.0
  0
VERTEX
  5
B3
330
AE
100
AcDbEntity
  8
_U+30EC_U+30A4_U+30E4_U+30FC 1
370
     0
100
AcDbVertex
100
AcDb2dVertex
 10
99.41391463443472
 20
-137.5008232620658
 30
0.0
  0
VERTEX
  5
B4
330
AE
100
AcDbEntity
  8
_U+30EC_U+30A4_U+30E4_U+30FC 1
370
     0
100
AcDbVertex
100
AcDb2dVertex
 10
98.38727617983027
 20
-136.2852213200954
 30
0.0
  0
VERTEX
  5
B5
330
AE
100
AcDbEntity
  8
_U+30EC_U+30A4_U+30E4_U+30FC 1
370
     0
100
AcDbVertex
100
AcDb2dVertex
 10
98.59604896623641
 20
-136.1822129650864
 30
0.0
  0
VERTEX
  5
B6
330
AE
100
AcDbEntity
  8
_U+30EC_U+30A4_U+30E4_U+30FC 1
370
     0
100
AcDbVertex
100
AcDb2dVertex
 10
99.40530189572159
 20
-137.1771565412265
 30
0.0
  0
VERTEX
  5
B7
330
AE
100
AcDbEntity
  8
_U+30EC_U+30A4_U+30E4_U+30FC 1
370
     0
100
AcDbVertex
100
AcDb2dVertex
 10
99.10247800256813
 20
-135.9324435424058
 30
0.0
  0
VERTEX
  5
B8
330
AE
100
AcDbEntity
  8
_U+30EC_U+30A4_U+30E4_U+30FC 1
370
     0
100
AcDbVertex
100
AcDb2dVertex
 10
99.35328095389433
 20
-135.8087646144853
 30
0.0
  0
VERTEX
  5
B9
330
AE
100
AcDbEntity
  8
_U+30EC_U+30A4_U+30E4_U+30FC 1
370
     0
100
AcDbVertex
100
AcDb2dVertex
 10
100.1563327115061
 20
-136.8068087765622
 30
0.0
  0
VERTEX
  5
BA
330
AE
100
AcDbEntity
  8
_U+30EC_U+30A4_U+30E4_U+30FC 1
370
     0
100
AcDbVertex
100
AcDb2dVertex
 10
99.86143253796867
 20
-135.5583061727077
 30
0.0
  0
VERTEX
  5
BB
330
AE
100
AcDbEntity
  8
_U+30EC_U+30A4_U+30E4_U+30FC 1
370
     0
100
AcDbVertex
100
AcDb2dVertex
 10
100.0702053243748
 20
-135.4552978176987
 30
0.0
  0
VERTEX
  5
BC
330
AE
100
AcDbEntity
  8
_U+30EC_U+30A4_U+30E4_U+30FC 1
370
     0
100
AcDbVertex
100
AcDb2dVertex
 10
100.4095472296719
 20
-137.0097249006434
 30
0.0
  0
SEQEND
  5
BD
330
AE
100
AcDbEntity
  8
_U+30EC_U+30A4_U+30E4_U+30FC 1
370
     0
  0
HATCH
  5
BE
330
7E
100
AcDbEntity
  8
_U+30EC_U+30A4_U+30E4_U+30FC 1
 62
   179
420
  2234388
100
AcDbHatch
 10
0.0
 20
0.0
 30
0.0
210
0.0
220
0.0
230
1.0
  2
SOLID
 70
     1
 71
     0
 91
        1
 92
        1
 93
       13
 72
     1
 10
100.4095472296719
 20
-137.0097249006434
 11
100.1670125075103
 21
-137.1294419687558
 72
     1
 10
100.1670125075103
 20
-137.1294419687558
 11
99.3474242915694
 21
-136.1136555649299
 72
     1
 10
99.3474242915694
 20
-136.1136555649299
 11
99.65679386614484
 21
-137.3811061939533
 72
     1
 10
99.65679386614484
 20
-137.3811061939533
 11
99.41391463443472
 21
-137.5008232620658
 72
     1
 10
99.41391463443472
 20
-137.5008232620658
 11
98.38727617983027
 21
-136.2852213200954
 72
     1
 10
98.38727617983027
 20
-136.2852213200954
 11
98.59604896623641
 21
-136.1822129650864
 72
     1
 10
98.59604896623641
 20
-136.1822129650864
 11
99.40530189572159
 21
-137.1771565412265
 72
     1
 10
99.40530189572159
 20
-137.1771565412265
 11
99.10247800256813
 21
-135.9324435424058
 72
     1
 10
99.10247800256813
 20
-135.9324435424058
 11
99.35328095389433
 21
-135.8087646144853
 72
     1
 10
99.35328095389433
 20
-135.8087646144853
 11
100.1563327115061
 21
-136.8068087765622
 72
     1
 10
100.1563327115061
 20
-136.8068087765622
 11
99.86143253796867
 21
-135.5583061727077
 72
     1
 10
99.86143253796867
 20
-135.5583061727077
 11
100.0702053243748
 21
-135.4552978176987
 72
     1
 10
100.0702053243748
 20
-135.4552978176987
 11
100.4095472296719
 21
-137.0097249006434
 97
        0
 75
     2
 76
     1
 98
        0
  0
ENDBLK
  5
81
330
7E
100
AcDbEntity
  8
0
100
AcDbBlockEnd
  0
BLOCK
  5
C1
330
BF
100
AcDbEntity
  8
0
100
AcDbBlockBegin
  2
block 4
 70
     0
 10
0.0
 20
0.0
 30
0.0
  3
block 4
  1

  0
SPLINE
  5
C3
330
BF
100
AcDbEntity
  8
_U+30EC_U+30A4_U+30E4_U+30FC 1
370
     0
100
AcDbSpline
210
0.0
220
0.0
230
1.0
 70
    11
 71
     3
 72
    38
 73
    34
 74
     0
 42
0.0000000001
 43
0.0000000001
 12
1.0
 22
0.0
 32
0.0
 13
1.0
 23
0.0
 33
0.0
 40
0.0
 40
0.0
 40
0.0
 40
0.0
 40
1.0
 40
1.0
 40
1.0
 40
2.0
 40
2.0
 40
2.0
 40
3.0
 40
3.0
 40
3.0
 40
4.0
 40
4.0
 40
4.0
 40
5.0
 40
5.0
 40
5.0
 40
6.0
 40
6.0
 40
6.0
 40
7.0
 40
7.0
 40
7.0
 40
8.0
 40
8.0
 40
8.0
 40
9.0
 40
9.0
 40
9.0
 40
10.0
 40
10.0
 40
10.0
 40
11.0
 40
11.0
 40
11.0
 40
11.0
 10
109.9440212398751
 20
-137.2541544253219
 30
0.0
 10
109.5264756670628
 20
-137.0481377153039
 30
0.0
 10
109.4406927894801
 20
-136.6002753022215
 30
0.0
 10
109.6484320472407
 20
-136.1792846339239
 30
0.0
 10
109.8806314829465
 20
-135.7086845906388
 30
0.0
 10
110.3143690045395
 20
-135.6039536878872
 30
0.0
 10
110.6805826546215
 20
-135.7848212008628
 30
0.0
 10
110.9896077196484
 20
-135.9370944213109
 30
0.0
 10
111.1546277933919
 20
-136.228549499363
 30
0.0
 10
111.0337049418596
 20
-136.5224161442548
 30
0.0
 10
111.0337049418596
 20
-136.5224161442548
 30
0.0
 10
110.8269992127446
 20
-136.4204413178914
 30
0.0
 10
110.8269992127446
 20
-136.4204413178914
 30
0.0
 10
110.8841877977998
 20
-136.2178697033587
 30
0.0
 10
110.7233018386386
 20
-136.0463039481933
 30
0.0
 10
110.5792968473552
 20
-135.9753349811971
 30
0.0
 10
110.4862792692534
 20
-135.9295152112433
 30
0.0
 10
110.3677679845608
 20
-135.9064330714922
 30
0.0
 10
110.2509792476109
 20
-135.9336493258256
 30
0.0
 10
110.0504746903693
 20
-135.9763685098427
 30
0.0
 10
109.9285183101915
 20
-136.1568915132698
 30
0.0
 10
109.8582383622924
 20
-136.2991739568106
 30
0.0
 10
109.6635904673758
 20
-136.6936373898717
 30
0.0
 10
109.8430799421573
 20
-136.9616658186242
 30
0.0
 10
110.0363497988798
 20
-137.0570949635656
 30
0.0
 10
110.1596842172518
 20
-137.117728644106
 30
0.0
 10
110.4380479324599
 20
-137.1652709618024
 30
0.0
 10
110.6068576112372
 20
-136.8948309662103
 30
0.0
 10
110.6068576112372
 20
-136.8948309662103
 30
0.0
 10
110.8139078499007
 20
-136.9968057925737
 30
0.0
 10
110.8139078499007
 20
-136.9968057925737
 30
0.0
 10
110.742594373356
 20
-137.1129055104266
 30
0.0
 10
110.4869682883505
 20
-137.5218383445258
 30
0.0
 10
109.9440212398751
 20
-137.2541544253219
 30
0.0
  0
HATCH
  5
C4
330
BF
100
AcDbEntity
  8
_U+30EC_U+30A4_U+30E4_U+30FC 1
 62
   179
420
  2234388
100
AcDbHatch
 10
0.0
 20
0.0
 30
0.0
210
0.0
220
0.0
230
1.0
  2
SOLID
 70
     1
 71
     0
 91
        1
 92
        1
 93
        1
 72
     4
 94
        3
 73
     0
 74
     1
 95
       38
 96
       34
 40
0.0
 40
0.0
 40
0.0
 40
0.0
 40
1.0
 40
1.0
 40
1.0
 40
2.0
 40
2.0
 40
2.0
 40
3.0
 40
3.0
 40
3.0
 40
4.0
 40
4.0
 40
4.0
 40
5.0
 40
5.0
 40
5.0
 40
6.0
 40
6.0
 40
6.0
 40
7.0
 40
7.0
 40
7.0
 40
8.0
 40
8.0
 40
8.0
 40
9.0
 40
9.0
 40
9.0
 40
10.0
 40
10.0
 40
10.0
 40
11.0
 40
11.0
 40
11.0
 40
11.0
 10
109.9440212398751
 20
-137.2541544253219
 10
109.5264756670628
 20
-137.0481377153039
 10
109.4406927894801
 20
-136.6002753022215
 10
109.6484320472407
 20
-136.1792846339239
 10
109.8806314829465
 20
-135.7086845906388
 10
110.3143690045395
 20
-135.6039536878872
 10
110.6805826546215
 20
-135.7848212008628
 10
110.9896077196484
 20
-135.9370944213109
 10
111.1546277933919
 20
-136.228549499363
 10
111.0337049418596
 20
-136.5224161442548
 10
111.0337049418596
 20
-136.5224161442548
 10
110.8269992127446
 20
-136.4204413178914
 10
110.8269992127446
 20
-136.4204413178914
 10
110.8841877977998
 20
-136.2178697033587
 10
110.7233018386386
 20
-136.0463039481933
 10
110.5792968473552
 20
-135.9753349811971
 10
110.4862792692534
 20
-135.9295152112433
 10
110.3677679845608
 20
-135.9064330714922
 10
110.2509792476109
 20
-135.9336493258256
 10
110.0504746903693
 20
-135.9763685098427
 10
109.9285183101915
 20
-136.1568915132698
 10
109.8582383622924
 20
-136.2991739568106
 10
109.6635904673758
 20
-136.6936373898717
 10
109.8430799421573
 20
-136.9616658186242
 10
110.0363497988798
 20
-137.0570949635656
 10
110.1596842172518
 20
-137.117728644106
 10
110.4380479324599
 20
-137.1652709618024
 10
110.6068576112372
 20
-136.8948309662103
 10
110.6068576112372
 20
-136.8948309662103
 10
110.8139078499007
 20
-136.9968057925737
 10
110.8139078499007
 20
-136.9968057925737
 10
110.742594373356
 20
-137.1129055104266
 10
110.4869682883505
 20
-137.5218383445258
 10
109.9440212398751
 20
-137.2541544253219
 97
        0
 97
        0
 75
     2
 76
     1
 98
        0
  0
SPLINE
  5
C5
330
BF
100
AcDbEntity
  8
_U+30EC_U+30A4_U+30E4_U+30FC 1
370
     0
100
AcDbSpline
210
0.0
220
0.0
230
1.0
 70
    11
 71
     3
 72
    44
 73
    40
 74
     0
 42
0.0000000001
 43
0.0000000001
 12
1.0
 22
0.0
 32
0.0
 13
1.0
 23
0.0
 33
0.0
 40
0.0
 40
0.0
 40
0.0
 40
0.0
 40
1.0
 40
1.0
 40
1.0
 40
2.0
 40
2.0
 40
2.0
 40
3.0
 40
3.0
 40
3.0
 40
4.0
 40
4.0
 40
4.0
 40
5.0
 40
5.0
 40
5.0
 40
6.0
 40
6.0
 40
6.0
 40
7.0
 40
7.0
 40
7.0
 40
8.0
 40
8.0
 40
8.0
 40
9.0
 40
9.0
 40
9.0
 40
10.0
 40
10.0
 40
10.0
 40
11.0
 40
11.0
 40
11.0
 40
12.0
 40
12.0
 40
12.0
 40
13.0
 40
13.0
 40
13.0
 40
13.0
 10
111.6479654668797
 20
-138.0379136482162
 30
0.0
 10
111.6469319382341
 20
-137.9879597636801
 30
0.0
 10
111.6514105623649
 20
-137.9311156881735
 30
0.0
 10
111.7513183314372
 20
-137.7233764304129
 30
0.0
 10
111.8553602150917
 20
-137.5032348289054
 30
0.0
 10
111.8329670944376
 20
-137.4146958749345
 30
0.0
 10
111.6734591734705
 20
-137.3361476978708
 30
0.0
 10
111.6734591734705
 20
-137.3361476978708
 30
0.0
 10
111.307590032937
 20
-137.1556246944437
 30
0.0
 10
111.307590032937
 20
-137.1556246944437
 30
0.0
 10
111.307590032937
 20
-137.1556246944437
 30
0.0
 10
111.0240586745009
 20
-137.7302666213834
 30
0.0
 10
111.0240586745009
 20
-137.7302666213834
 30
0.0
 10
111.0240586745009
 20
-137.7302666213834
 30
0.0
 10
110.8132188308036
 20
-137.6262247377289
 30
0.0
 10
110.8132188308036
 20
-137.6262247377289
 30
0.0
 10
110.8132188308036
 20
-137.6262247377289
 30
0.0
 10
111.4963812655287
 20
-136.2412963526584
 30
0.0
 10
111.4963812655287
 20
-136.2412963526584
 30
0.0
 10
111.4963812655287
 20
-136.2412963526584
 30
0.0
 10
112.1016845422871
 20
-136.5396416216811
 30
0.0
 10
112.1016845422871
 20
-136.5396416216811
 30
0.0
 10
112.3769476715585
 20
-136.6753783837999
 30
0.0
 10
112.4510172244914
 20
-136.9030991953749
 30
0.0
 10
112.3376735830267
 20
-137.1328870642411
 30
0.0
 10
112.3152804623726
 20
-137.1780178150979
 30
0.0
 10
112.2708387306129
 20
-137.248297762997
 30
0.0
 10
112.1957356490344
 20
-137.3010077239213
 30
0.0
 10
112.0965168990592
 20
-137.3678425763351
 30
0.0
 10
112.0293375370968
 20
-137.3554402325882
 30
0.0
 10
111.9669813088138
 20
-137.3437269079384
 30
0.0
 10
112.0717122115654
 20
-137.442601148365
 30
0.0
 10
112.1109863000973
 20
-137.5163261917494
 30
0.0
 10
111.9752495379784
 20
-137.8005465692825
 30
0.0
 10
111.8591498201255
 20
-138.0451483487352
 30
0.0
 10
111.8774088261973
 20
-138.0899345900435
 30
0.0
 10
111.913926838341
 20
-138.1691717862042
 30
0.0
 10
111.913926838341
 20
-138.1691717862042
 30
0.0
 10
111.6479654668797
 20
-138.0379136482162
 30
0.0
 10
111.6479654668797
 20
-138.0379136482162
 30
0.0
  0
SPLINE
  5
C6
330
BF
100
AcDbEntity
  8
_U+30EC_U+30A4_U+30E4_U+30FC 1
370
     0
100
AcDbSpline
210
0.0
220
0.0
230
1.0
 70
    11
 71
     3
 72
    20
 73
    16
 74
     0
 42
0.0000000001
 43
0.0000000001
 12
1.0
 22
0.0
 32
0.0
 13
1.0
 23
0.0
 33
0.0
 40
0.0
 40
0.0
 40
0.0
 40
0.0
 40
1.0
 40
1.0
 40
1.0
 40
2.0
 40
2.0
 40
2.0
 40
3.0
 40
3.0
 40
3.0
 40
4.0
 40
4.0
 40
4.0
 40
5.0
 40
5.0
 40
5.0
 40
5.0
 10
112.0121120596706
 20
-136.7315334402095
 30
0.0
 10
112.0121120596706
 20
-136.7315334402095
 30
0.0
 10
111.6135145120272
 20
-136.5348184880017
 30
0.0
 10
111.6135145120272
 20
-136.5348184880017
 30
0.0
 10
111.6135145120272
 20
-136.5348184880017
 30
0.0
 10
111.4009521205873
 20
-136.9654554236579
 30
0.0
 10
111.4009521205873
 20
-136.9654554236579
 30
0.0
 10
111.4009521205873
 20
-136.9654554236579
 30
0.0
 10
111.7974826109395
 20
-137.1611368472201
 30
0.0
 10
111.7974826109395
 20
-137.1611368472201
 30
0.0
 10
111.8867105840075
 20
-137.2052340694313
 30
0.0
 10
112.0417398808437
 20
-137.1969658402667
 30
0.0
 10
112.1175319815192
 20
-137.0429700720761
 30
0.0
 10
112.1523274459202
 20
-136.972690124177
 30
0.0
 10
112.190223496258
 20
-136.8193833750834
 30
0.0
 10
112.0121120596706
 20
-136.7315334402095
 30
0.0
  0
HATCH
  5
C7
330
BF
100
AcDbEntity
  8
_U+30EC_U+30A4_U+30E4_U+30FC 1
 62
   179
420
  2234388
100
AcDbHatch
 10
0.0
 20
0.0
 30
0.0
210
0.0
220
0.0
230
1.0
  2
SOLID
 70
     1
 71
     0
 91
        2
 92
        1
 93
        1
 72
     4
 94
        3
 73
     0
 74
     1
 95
       44
 96
       40
 40
0.0
 40
0.0
 40
0.0
 40
0.0
 40
1.0
 40
1.0
 40
1.0
 40
2.0
 40
2.0
 40
2.0
 40
3.0
 40
3.0
 40
3.0
 40
4.0
 40
4.0
 40
4.0
 40
5.0
 40
5.0
 40
5.0
 40
6.0
 40
6.0
 40
6.0
 40
7.0
 40
7.0
 40
7.0
 40
8.0
 40
8.0
 40
8.0
 40
9.0
 40
9.0
 40
9.0
 40
10.0
 40
10.0
 40
10.0
 40
11.0
 40
11.0
 40
11.0
 40
12.0
 40
12.0
 40
12.0
 40
13.0
 40
13.0
 40
13.0
 40
13.0
 10
111.6479654668797
 20
-138.0379136482162
 10
111.6469319382341
 20
-137.9879597636801
 10
111.6514105623649
 20
-137.9311156881735
 10
111.7513183314372
 20
-137.7233764304129
 10
111.8553602150917
 20
-137.5032348289054
 10
111.8329670944376
 20
-137.4146958749345
 10
111.6734591734705
 20
-137.3361476978708
 10
111.6734591734705
 20
-137.3361476978708
 10
111.307590032937
 20
-137.1556246944437
 10
111.307590032937
 20
-137.1556246944437
 10
111.307590032937
 20
-137.1556246944437
 10
111.0240586745009
 20
-137.7302666213834
 10
111.0240586745009
 20
-137.7302666213834
 10
111.0240586745009
 20
-137.7302666213834
 10
110.8132188308036
 20
-137.6262247377289
 10
110.8132188308036
 20
-137.6262247377289
 10
110.8132188308036
 20
-137.6262247377289
 10
111.4963812655287
 20
-136.2412963526584
 10
111.4963812655287
 20
-136.2412963526584
 10
111.4963812655287
 20
-136.2412963526584
 10
112.1016845422871
 20
-136.5396416216811
 10
112.1016845422871
 20
-136.5396416216811
 10
112.3769476715585
 20
-136.6753783837999
 10
112.4510172244914
 20
-136.9030991953749
 10
112.3376735830267
 20
-137.1328870642411
 10
112.3152804623726
 20
-137.1780178150979
 10
112.2708387306129
 20
-137.248297762997
 10
112.1957356490344
 20
-137.3010077239213
 10
112.0965168990592
 20
-137.3678425763351
 10
112.0293375370968
 20
-137.3554402325882
 10
111.9669813088138
 20
-137.3437269079384
 10
112.0717122115654
 20
-137.442601148365
 10
112.1109863000973
 20
-137.5163261917494
 10
111.9752495379784
 20
-137.8005465692825
 10
111.8591498201255
 20
-138.0451483487352
 10
111.8774088261973
 20
-138.0899345900435
 10
111.913926838341
 20
-138.1691717862042
 10
111.913926838341
 20
-138.1691717862042
 10
111.6479654668797
 20
-138.0379136482162
 10
111.6479654668797
 20
-138.0379136482162
 97
        0
 97
        0
 92
        1
 93
        1
 72
     4
 94
        3
 73
     0
 74
     1
 95
       20
 96
       16
 40
0.0
 40
0.0
 40
0.0
 40
0.0
 40
1.0
 40
1.0
 40
1.0
 40
2.0
 40
2.0
 40
2.0
 40
3.0
 40
3.0
 40
3.0
 40
4.0
 40
4.0
 40
4.0
 40
5.0
 40
5.0
 40
5.0
 40
5.0
 10
112.0121120596706
 20
-136.7315334402095
 10
112.0121120596706
 20
-136.7315334402095
 10
111.6135145120272
 20
-136.5348184880017
 10
111.6135145120272
 20
-136.5348184880017
 10
111.6135145120272
 20
-136.5348184880017
 10
111.4009521205873
 20
-136.9654554236579
 10
111.4009521205873
 20
-136.9654554236579
 10
111.4009521205873
 20
-136.9654554236579
 10
111.7974826109395
 20
-137.1611368472201
 10
111.7974826109395
 20
-137.1611368472201
 10
111.8867105840075
 20
-137.2052340694313
 10
112.0417398808437
 20
-137.1969658402667
 10
112.1175319815192
 20
-137.0429700720761
 10
112.1523274459202
 20
-136.972690124177
 10
112.190223496258
 20
-136.8193833750834
 10
112.0121120596706
 20
-136.7315334402095
 97
        0
 97
        0
 75
     2
 76
     1
 98
        0
  0
SPLINE
  5
C8
330
BF
100
AcDbEntity
  8
_U+30EC_U+30A4_U+30E4_U+30FC 1
370
     0
100
AcDbSpline
210
0.0
220
0.0
230
1.0
 70
    11
 71
     3
 72
    26
 73
    22
 74
     0
 42
0.0000000001
 43
0.0000000001
 12
1.0
 22
0.0
 32
0.0
 13
1.0
 23
0.0
 33
0.0
 40
0.0
 40
0.0
 40
0.0
 40
0.0
 40
1.0
 40
1.0
 40
1.0
 40
2.0
 40
2.0
 40
2.0
 40
3.0
 40
3.0
 40
3.0
 40
4.0
 40
4.0
 40
4.0
 40
5.0
 40
5.0
 40
5.0
 40
6.0
 40
6.0
 40
6.0
 40
7.0
 40
7.0
 40
7.0
 40
7.0
 10
113.0149793554268
 20
-138.0093193556887
 30
0.0
 10
113.0149793554268
 20
-138.0093193556887
 30
0.0
 10
112.6088025977159
 20
-137.8088147984471
 30
0.0
 10
112.6088025977159
 20
-137.8088147984471
 30
0.0
 10
112.6088025977159
 20
-137.8088147984471
 30
0.0
 10
112.3300943729592
 20
-138.3744994771251
 30
0.0
 10
112.3300943729592
 20
-138.3744994771251
 30
0.0
 10
112.3300943729592
 20
-138.3744994771251
 30
0.0
 10
112.1195990388104
 20
-138.2704575934706
 30
0.0
 10
112.1195990388104
 20
-138.2704575934706
 30
0.0
 10
112.1195990388104
 20
-138.2704575934706
 30
0.0
 10
112.8027614735354
 20
-136.8855292084002
 30
0.0
 10
112.8027614735354
 20
-136.8855292084002
 30
0.0
 10
112.8027614735354
 20
-136.8855292084002
 30
0.0
 10
113.4194335653952
 20
-137.1893866301992
 30
0.0
 10
113.4194335653952
 20
-137.1893866301992
 30
0.0
 10
113.6774712172404
 20
-137.3168551631534
 30
0.0
 10
113.7890923109625
 20
-137.5535332229901
 30
0.0
 10
113.6571451538774
 20
-137.821217142194
 30
0.0
 10
113.5475911174464
 20
-138.0430812914441
 30
0.0
 10
113.3129801149009
 20
-138.1560804233603
 30
0.0
 10
113.0149793554268
 20
-138.0093193556887
 30
0.0
  0
SPLINE
  5
C9
330
BF
100
AcDbEntity
  8
_U+30EC_U+30A4_U+30E4_U+30FC 1
370
     0
100
AcDbSpline
210
0.0
220
0.0
230
1.0
 70
    11
 71
     3
 72
    20
 73
    16
 74
     0
 42
0.0000000001
 43
0.0000000001
 12
1.0
 22
0.0
 32
0.0
 13
1.0
 23
0.0
 33
0.0
 40
0.0
 40
0.0
 40
0.0
 40
0.0
 40
1.0
 40
1.0
 40
1.0
 40
2.0
 40
2.0
 40
2.0
 40
3.0
 40
3.0
 40
3.0
 40
4.0
 40
4.0
 40
4.0
 40
5.0
 40
5.0
 40
5.0
 40
5.0
 10
113.3181477581288
 20
-137.3754217864027
 30
0.0
 10
113.3181477581288
 20
-137.3754217864027
 30
0.0
 10
112.9195502104854
 20
-137.1790513437434
 30
0.0
 10
112.9195502104854
 20
-137.1790513437434
 30
0.0
 10
112.9195502104854
 20
-137.1790513437434
 30
0.0
 10
112.7021646853661
 20
-137.6193345467584
 30
0.0
 10
112.7021646853661
 20
-137.6193345467584
 30
0.0
 10
112.7021646853661
 20
-137.6193345467584
 30
0.0
 10
113.1011067425581
 20
-137.8157049894176
 30
0.0
 10
113.1011067425581
 20
-137.8157049894176
 30
0.0
 10
113.2506238866179
 20
-137.889430032802
 30
0.0
 10
113.3774034004751
 20
-137.8339639954894
 30
0.0
 10
113.4390706096611
 20
-137.7089070293749
 30
0.0
 10
113.4897135132942
 20
-137.6062431839144
 30
0.0
 10
113.4866129273575
 20
-137.4587930971457
 30
0.0
 10
113.3181477581288
 20
-137.3754217864027
 30
0.0
  0
HATCH
  5
CA
330
BF
100
AcDbEntity
  8
_U+30EC_U+30A4_U+30E4_U+30FC 1
 62
   179
420
  2234388
100
AcDbHatch
 10
0.0
 20
0.0
 30
0.0
210
0.0
220
0.0
230
1.0
  2
SOLID
 70
     1
 71
     0
 91
        2
 92
        1
 93
        1
 72
     4
 94
        3
 73
     0
 74
     1
 95
       26
 96
       22
 40
0.0
 40
0.0
 40
0.0
 40
0.0
 40
1.0
 40
1.0
 40
1.0
 40
2.0
 40
2.0
 40
2.0
 40
3.0
 40
3.0
 40
3.0
 40
4.0
 40
4.0
 40
4.0
 40
5.0
 40
5.0
 40
5.0
 40
6.0
 40
6.0
 40
6.0
 40
7.0
 40
7.0
 40
7.0
 40
7.0
 10
113.0149793554268
 20
-138.0093193556887
 10
113.0149793554268
 20
-138.0093193556887
 10
112.6088025977159
 20
-137.8088147984471
 10
112.6088025977159
 20
-137.8088147984471
 10
112.6088025977159
 20
-137.8088147984471
 10
112.3300943729592
 20
-138.3744994771251
 10
112.3300943729592
 20
-138.3744994771251
 10
112.3300943729592
 20
-138.3744994771251
 10
112.1195990388104
 20
-138.2704575934706
 10
112.1195990388104
 20
-138.2704575934706
 10
112.1195990388104
 20
-138.2704575934706
 10
112.8027614735354
 20
-136.8855292084002
 10
112.8027614735354
 20
-136.8855292084002
 10
112.8027614735354
 20
-136.8855292084002
 10
113.4194335653952
 20
-137.1893866301992
 10
113.4194335653952
 20
-137.1893866301992
 10
113.6774712172404
 20
-137.3168551631534
 10
113.7890923109625
 20
-137.5535332229901
 10
113.6571451538774
 20
-137.821217142194
 10
113.5475911174464
 20
-138.0430812914441
 10
113.3129801149009
 20
-138.1560804233603
 10
113.0149793554268
 20
-138.0093193556887
 97
        0
 97
        0
 92
        1
 93
        1
 72
     4
 94
        3
 73
     0
 74
     1
 95
       20
 96
       16
 40
0.0
 40
0.0
 40
0.0
 40
0.0
 40
1.0
 40
1.0
 40
1.0
 40
2.0
 40
2.0
 40
2.0
 40
3.0
 40
3.0
 40
3.0
 40
4.0
 40
4.0
 40
4.0
 40
5.0
 40
5.0
 40
5.0
 40
5.0
 10
113.3181477581288
 20
-137.3754217864027
 10
113.3181477581288
 20
-137.3754217864027
 10
112.9195502104854
 20
-137.1790513437434
 10
112.9195502104854
 20
-137.1790513437434
 10
112.9195502104854
 20
-137.1790513437434
 10
112.7021646853661
 20
-137.6193345467584
 10
112.7021646853661
 20
-137.6193345467584
 10
112.7021646853661
 20
-137.6193345467584
 10
113.1011067425581
 20
-137.8157049894176
 10
113.1011067425581
 20
-137.8157049894176
 10
113.2506238866179
 20
-137.889430032802
 10
113.3774034004751
 20
-137.8339639954894
 10
113.4390706096611
 20
-137.7089070293749
 10
113.4897135132942
 20
-137.6062431839144
 10
113.4866129273575
 20
-137.4587930971457
 10
113.3181477581288
 20
-137.3754217864027
 97
        0
 97
        0
 75
     2
 76
     1
 98
        0
  0
POLYLINE
  5
CB
330
BF
100
AcDbEntity
  8
_U+30EC_U+30A4_U+30E4_U+30FC 1
370
     0
100
AcDb2dPolyline
 66
     1
 10
0.0
 20
0.0
 30
0.0
  0
VERTEX
  5
CC
330
CB
100
AcDbEntity
  8
_U+30EC_U+30A4_U+30E4_U+30FC 1
370
     0
100
AcDbVertex
100
AcDb2dVertex
 10
113.4938476278765
 20
-138.4506360873492
 30
0.0
  0
VERTEX
  5
CD
330
CB
100
AcDbEntity
  8
_U+30EC_U+30A4_U+30E4_U+30FC 1
370
     0
100
AcDbVertex
100
AcDb2dVertex
 10
113.589276772818
 20
-138.2570217210781
 30
0.0
  0
VERTEX
  5
CE
330
CB
100
AcDbEntity
  8
_U+30EC_U+30A4_U+30E4_U+30FC 1
370
     0
100
AcDbVertex
100
AcDb2dVertex
 10
114.1149983438671
 20
-138.5160929015689
 30
0.0
  0
VERTEX
  5
CF
330
CB
100
AcDbEntity
  8
_U+30EC_U+30A4_U+30E4_U+30FC 1
370
     0
100
AcDbVertex
100
AcDb2dVertex
 10
114.0195691989257
 20
-138.7097072678399
 30
0.0
  0
VERTEX
  5
D0
330
CB
100
AcDbEntity
  8
_U+30EC_U+30A4_U+30E4_U+30FC 1
370
     0
100
AcDbVertex
100
AcDb2dVertex
 10
113.4938476278765
 20
-138.4506360873492
 30
0.0
  0
SEQEND
  5
D1
330
CB
100
AcDbEntity
  8
_U+30EC_U+30A4_U+30E4_U+30FC 1
370
     0
  0
HATCH
  5
D2
330
BF
100
AcDbEntity
  8
_U+30EC_U+30A4_U+30E4_U+30FC 1
 62
   179
420
  2234388
100
AcDbHatch
 10
0.0
 20
0.0
 30
0.0
210
0.0
220
0.0
230
1.0
  2
SOLID
 70
     1
 71
     0
 91
        1
 92
        1
 93
        4
 72
     1
 10
113.4938476278765
 20
-138.4506360873492
 11
113.589276772818
 21
-138.2570217210781
 72
     1
 10
113.589276772818
 20
-138.2570217210781
 11
114.1149983438671
 21
-138.5160929015689
 72
     1
 10
114.1149983438671
 20
-138.5160929015689
 11
114.0195691989257
 21
-138.7097072678399
 72
     1
 10
114.0195691989257
 20
-138.7097072678399
 11
113.4938476278765
 21
-138.4506360873492
 97
        0
 75
     2
 76
     1
 98
        0
  0
SPLINE
  5
D3
330
BF
100
AcDbEntity
  8
_U+30EC_U+30A4_U+30E4_U+30FC 1
370
     0
100
AcDbSpline
210
0.0
220
0.0
230
1.0
 70
    11
 71
     3
 72
    62
 73
    58
 74
     0
 42
0.0000000001
 43
0.0000000001
 12
1.0
 22
0.0
 32
0.0
 13
1.0
 23
0.0
 33
0.0
 40
0.0
 40
0.0
 40
0.0
 40
0.0
 40
1.0
 40
1.0
 40
1.0
 40
2.0
 40
2.0
 40
2.0
 40
3.0
 40
3.0
 40
3.0
 40
4.0
 40
4.0
 40
4.0
 40
5.0
 40
5.0
 40
5.0
 40
6.0
 40
6.0
 40
6.0
 40
7.0
 40
7.0
 40
7.0
 40
8.0
 40
8.0
 40
8.0
 40
9.0
 40
9.0
 40
9.0
 40
10.0
 40
10.0
 40
10.0
 40
11.0
 40
11.0
 40
11.0
 40
12.0
 40
12.0
 40
12.0
 40
13.0
 40
13.0
 40
13.0
 40
14.0
 40
14.0
 40
14.0
 40
15.0
 40
15.0
 40
15.0
 40
16.0
 40
16.0
 40
16.0
 40
17.0
 40
17.0
 40
17.0
 40
18.0
 40
18.0
 40
18.0
 40
19.0
 40
19.0
 40
19.0
 40
19.0
 10
114.3561550278346
 20
-139.4300767338057
 30
0.0
 10
114.2703721502519
 20
-139.3877020593371
 30
0.0
 10
114.0843369940484
 20
-139.2726358701298
 30
0.0
 10
114.0547091728752
 20
-139.0504272113311
 30
0.0
 10
114.038172714546
 20
-138.917102016052
 30
0.0
 10
114.0781358221749
 20
-138.8258069856929
 30
0.0
 10
114.1118977579304
 20
-138.7482923372747
 30
0.0
 10
114.1118977579304
 20
-138.7482923372747
 30
0.0
 10
114.3093017292352
 20
-138.8457885395073
 30
0.0
 10
114.3093017292352
 20
-138.8457885395073
 30
0.0
 10
114.2782958698679
 20
-138.9129679014697
 30
0.0
 10
114.1839002535721
 20
-139.1282863692978
 30
0.0
 10
114.4381483003835
 20
-139.2536878449609
 30
0.0
 10
114.5614827187555
 20
-139.3143215255013
 30
0.0
 10
114.7292588688871
 20
-139.3191446591806
 30
0.0
 10
114.830200166605
 20
-139.1145059873568
 30
0.0
 10
114.8815320893352
 20
-139.0097750846052
 30
0.0
 10
114.8687852360398
 20
-138.9491414040648
 30
0.0
 10
114.8543158350017
 20
-138.9067667295962
 30
0.0
 10
114.8208984087948
 20
-138.8078924891696
 30
0.0
 10
114.7220241683681
 20
-138.7448472417895
 30
0.0
 10
114.672759302929
 20
-138.7207315733927
 30
0.0
 10
114.6555338255028
 20
-138.7121188346796
 30
0.0
 10
114.6224609088444
 20
-138.6983384527386
 30
0.0
 10
114.595933673608
 20
-138.6897257140255
 30
0.0
 10
114.595933673608
 20
-138.6897257140255
 30
0.0
 10
114.6820610607392
 20
-138.5150593729233
 30
0.0
 10
114.6820610607392
 20
-138.5150593729233
 30
0.0
 10
114.713411429655
 20
-138.537797003126
 30
0.0
 10
114.7502739513472
 20
-138.5584675760375
 30
0.0
 10
114.7561306136721
 20
-138.5612236524257
 30
0.0
 10
114.8146972369213
 20
-138.5901624545018
 30
0.0
 10
115.0024549408675
 20
-138.6590643642068
 30
0.0
 10
115.1075303531676
 20
-138.4465019727668
 30
0.0
 10
115.1860785302313
 20
-138.2873385613483
 30
0.0
 10
115.092716442581
 20
-138.1798515822085
 30
0.0
 10
114.9938422021543
 20
-138.1312757358665
 30
0.0
 10
114.7568196327691
 20
-138.014142489368
 30
0.0
 10
114.6462320676926
 20
-138.2194701802889
 30
0.0
 10
114.6107475841945
 20
-138.2818264085719
 30
0.0
 10
114.6107475841945
 20
-138.2818264085719
 30
0.0
 10
114.4285020330248
 20
-138.1919094164069
 30
0.0
 10
114.4285020330248
 20
-138.1919094164069
 30
0.0
 10
114.4912027708564
 20
-138.0837334181701
 30
0.0
 10
114.6827500798363
 20
-137.7585164043625
 30
0.0
 10
115.0923719330325
 20
-137.9603989997981
 30
0.0
 10
115.2935655093711
 20
-138.0596177497733
 30
0.0
 10
115.4537624494352
 20
-138.2801038608293
 30
0.0
 10
115.3228488209957
 20
-138.5457207227421
 30
0.0
 10
115.2405110388982
 20
-138.7128078537767
 30
0.0
 10
115.1185546587204
 20
-138.744502732241
 30
0.0
 10
115.0021104313189
 20
-138.7555270377938
 30
0.0
 10
115.044829615336
 20
-138.8072034700725
 30
0.0
 10
115.1726426578388
 20
-138.9601657096176
 30
0.0
 10
115.0499972585639
 20
-139.2085570941041
 30
0.0
 10
114.9001356049555
 20
-139.5120700063546
 30
0.0
 10
114.6045464123211
 20
-139.5527221330806
 30
0.0
 10
114.3561550278346
 20
-139.4300767338057
 30
0.0
  0
HATCH
  5
D4
330
BF
100
AcDbEntity
  8
_U+30EC_U+30A4_U+30E4_U+30FC 1
 62
   179
420
  2234388
100
AcDbHatch
 10
0.0
 20
0.0
 30
0.0
210
0.0
220
0.0
230
1.0
  2
SOLID
 70
     1
 71
     0
 91
        1
 92
        1
 93
        1
 72
     4
 94
        3
 73
     0
 74
     1
 95
       62
 96
       58
 40
0.0
 40
0.0
 40
0.0
 40
0.0
 40
1.0
 40
1.0
 40
1.0
 40
2.0
 40
2.0
 40
2.0
 40
3.0
 40
3.0
 40
3.0
 40
4.0
 40
4.0
 40
4.0
 40
5.0
 40
5.0
 40
5.0
 40
6.0
 40
6.0
 40
6.0
 40
7.0
 40
7.0
 40
7.0
 40
8.0
 40
8.0
 40
8.0
 40
9.0
 40
9.0
 40
9.0
 40
10.0
 40
10.0
 40
10.0
 40
11.0
 40
11.0
 40
11.0
 40
12.0
 40
12.0
 40
12.0
 40
13.0
 40
13.0
 40
13.0
 40
14.0
 40
14.0
 40
14.0
 40
15.0
 40
15.0
 40
15.0
 40
16.0
 40
16.0
 40
16.0
 40
17.0
 40
17.0
 40
17.0
 40
18.0
 40
18.0
 40
18.0
 40
19.0
 40
19.0
 40
19.0
 40
19.0
 10
114.3561550278346
 20
-139.4300767338057
 10
114.2703721502519
 20
-139.3877020593371
 10
114.0843369940484
 20
-139.2726358701298
 10
114.0547091728752
 20
-139.0504272113311
 10
114.038172714546
 20
-138.917102016052
 10
114.0781358221749
 20
-138.8258069856929
 10
114.1118977579304
 20
-138.7482923372747
 10
114.1118977579304
 20
-138.7482923372747
 10
114.3093017292352
 20
-138.8457885395073
 10
114.3093017292352
 20
-138.8457885395073
 10
114.2782958698679
 20
-138.9129679014697
 10
114.1839002535721
 20
-139.1282863692978
 10
114.4381483003835
 20
-139.2536878449609
 10
114.5614827187555
 20
-139.3143215255013
 10
114.7292588688871
 20
-139.3191446591806
 10
114.830200166605
 20
-139.1145059873568
 10
114.8815320893352
 20
-139.0097750846052
 10
114.8687852360398
 20
-138.9491414040648
 10
114.8543158350017
 20
-138.9067667295962
 10
114.8208984087948
 20
-138.8078924891696
 10
114.7220241683681
 20
-138.7448472417895
 10
114.672759302929
 20
-138.7207315733927
 10
114.6555338255028
 20
-138.7121188346796
 10
114.6224609088444
 20
-138.6983384527386
 10
114.595933673608
 20
-138.6897257140255
 10
114.595933673608
 20
-138.6897257140255
 10
114.6820610607392
 20
-138.5150593729233
 10
114.6820610607392
 20
-138.5150593729233
 10
114.713411429655
 20
-138.537797003126
 10
114.7502739513472
 20
-138.5584675760375
 10
114.7561306136721
 20
-138.5612236524257
 10
114.8146972369213
 20
-138.5901624545018
 10
115.0024549408675
 20
-138.6590643642068
 10
115.1075303531676
 20
-138.4465019727668
 10
115.1860785302313
 20
-138.2873385613483
 10
115.092716442581
 20
-138.1798515822085
 10
114.9938422021543
 20
-138.1312757358665
 10
114.7568196327691
 20
-138.014142489368
 10
114.6462320676926
 20
-138.2194701802889
 10
114.6107475841945
 20
-138.2818264085719
 10
114.6107475841945
 20
-138.2818264085719
 10
114.4285020330248
 20
-138.1919094164069
 10
114.4285020330248
 20
-138.1919094164069
 10
114.4912027708564
 20
-138.0837334181701
 10
114.6827500798363
 20
-137.7585164043625
 10
115.0923719330325
 20
-137.9603989997981
 10
115.2935655093711
 20
-138.0596177497733
 10
115.4537624494352
 20
-138.2801038608293
 10
115.3228488209957
 20
-138.5457207227421
 10
115.2405110388982
 20
-138.7128078537767
 10
115.1185546587204
 20
-138.744502732241
 10
115.0021104313189
 20
-138.7555270377938
 10
115.044829615336
 20
-138.8072034700725
 10
115.1726426578388
 20
-138.9601657096176
 10
115.0499972585639
 20
-139.2085570941041
 10
114.9001356049555
 20
-139.5120700063546
 10
114.6045464123211
 20
-139.5527221330806
 10
114.3561550278346
 20
-139.4300767338057
 97
        0
 97
        0
 75
     2
 76
     1
 98
        0
  0
SPLINE
  5
D5
330
BF
100
AcDbEntity
  8
_U+30EC_U+30A4_U+30E4_U+30FC 1
370
     0
100
AcDbSpline
210
0.0
220
0.0
230
1.0
 70
    11
 71
     3
 72
    29
 73
    25
 74
     0
 42
0.0000000001
 43
0.0000000001
 12
1.0
 22
0.0
 32
0.0
 13
1.0
 23
0.0
 33
0.0
 40
0.0
 40
0.0
 40
0.0
 40
0.0
 40
1.0
 40
1.0
 40
1.0
 40
2.0
 40
2.0
 40
2.0
 40
3.0
 40
3.0
 40
3.0
 40
4.0
 40
4.0
 40
4.0
 40
5.0
 40
5.0
 40
5.0
 40
6.0
 40
6.0
 40
6.0
 40
7.0
 40
7.0
 40
7.0
 40
8.0
 40
8.0
 40
8.0
 40
8.0
 10
115.8768201750239
 20
-139.9251369550361
 30
0.0
 10
115.6873399233351
 20
-140.0653523412857
 30
0.0
 10
115.5233533782372
 20
-140.0057521893909
 30
0.0
 10
115.4189669850341
 20
-139.9540757571122
 30
0.0
 10
115.2746174842022
 20
-139.883106790116
 30
0.0
 10
115.168164033708
 20
-139.778720396913
 30
0.0
 10
115.1633409000286
 20
-139.5733927059921
 30
0.0
 10
115.1564507090581
 20
-139.3529065949361
 30
0.0
 10
115.244300643932
 20
-139.1324204838801
 30
0.0
 10
115.3163031395737
 20
-138.986003925757
 30
0.0
 10
115.3800374060508
 20
-138.8568128450601
 30
0.0
 10
115.5064724103595
 20
-138.6387383008438
 30
0.0
 10
115.6894069806263
 20
-138.5071356533072
 30
0.0
 10
115.8757866463783
 20
-138.3727769293825
 30
0.0
 10
116.030471433666
 20
-138.4230753234671
 30
0.0
 10
116.1458821324219
 20
-138.4799193989738
 30
0.0
 10
116.2885090855112
 20
-138.5501993468729
 30
0.0
 10
116.3977186123936
 20
-138.6535522114304
 30
0.0
 10
116.4028862556215
 20
-138.8588799023512
 30
0.0
 10
116.4063313511068
 20
-139.0755764083735
 30
0.0
 10
116.326405135849
 20
-139.2908948762016
 30
0.0
 10
116.2499240160764
 20
-139.4462686825863
 30
0.0
 10
116.1741319154009
 20
-139.600264450777
 30
0.0
 10
116.0528645543201
 20
-139.7976684220818
 30
0.0
 10
115.8768201750239
 20
-139.9251369550361
 30
0.0
  0
SPLINE
  5
D6
330
BF
100
AcDbEntity
  8
_U+30EC_U+30A4_U+30E4_U+30FC 1
370
     0
100
AcDbSpline
210
0.0
220
0.0
230
1.0
 70
    11
 71
     3
 72
    17
 73
    13
 74
     0
 42
0.0000000001
 43
0.0000000001
 12
1.0
 22
0.0
 32
0.0
 13
1.0
 23
0.0
 33
0.0
 40
0.0
 40
0.0
 40
0.0
 40
0.0
 40
1.0
 40
1.0
 40
1.0
 40
2.0
 40
2.0
 40
2.0
 40
3.0
 40
3.0
 40
3.0
 40
4.0
 40
4.0
 40
4.0
 40
4.0
 10
116.0607882739362
 20
-138.6525186827848
 30
0.0
 10
115.8372015769435
 20
-138.5422756272568
 30
0.0
 10
115.6697699363603
 20
-138.7761976107053
 30
0.0
 10
115.5171522063638
 20
-139.0848781661836
 30
0.0
 10
115.3759032914685
 20
-139.3715101105564
 30
0.0
 10
115.271861407814
 20
-139.6646877363512
 30
0.0
 10
115.5050943721654
 20
-139.7797539255585
 30
0.0
 10
115.727303030964
 20
-139.8893079619895
 30
0.0
 10
115.8954236906442
 20
-139.6584865644778
 30
0.0
 10
116.0487304397378
 20
-139.3470499326112
 30
0.0
 10
116.1899793546331
 20
-139.0607624977869
 30
0.0
 10
116.292298690545
 20
-138.7665513433465
 30
0.0
 10
116.0607882739362
 20
-138.6525186827848
 30
0.0
  0
HATCH
  5
D7
330
BF
100
AcDbEntity
  8
_U+30EC_U+30A4_U+30E4_U+30FC 1
 62
   179
420
  2234388
100
AcDbHatch
 10
0.0
 20
0.0
 30
0.0
210
0.0
220
0.0
230
1.0
  2
SOLID
 70
     1
 71
     0
 91
        2
 92
        1
 93
        1
 72
     4
 94
        3
 73
     0
 74
     1
 95
       29
 96
       25
 40
0.0
 40
0.0
 40
0.0
 40
0.0
 40
1.0
 40
1.0
 40
1.0
 40
2.0
 40
2.0
 40
2.0
 40
3.0
 40
3.0
 40
3.0
 40
4.0
 40
4.0
 40
4.0
 40
5.0
 40
5.0
 40
5.0
 40
6.0
 40
6.0
 40
6.0
 40
7.0
 40
7.0
 40
7.0
 40
8.0
 40
8.0
 40
8.0
 40
8.0
 10
115.8768201750239
 20
-139.9251369550361
 10
115.6873399233351
 20
-140.0653523412857
 10
115.5233533782372
 20
-140.0057521893909
 10
115.4189669850341
 20
-139.9540757571122
 10
115.2746174842022
 20
-139.883106790116
 10
115.168164033708
 20
-139.778720396913
 10
115.1633409000286
 20
-139.5733927059921
 10
115.1564507090581
 20
-139.3529065949361
 10
115.244300643932
 20
-139.1324204838801
 10
115.3163031395737
 20
-138.986003925757
 10
115.3800374060508
 20
-138.8568128450601
 10
115.5064724103595
 20
-138.6387383008438
 10
115.6894069806263
 20
-138.5071356533072
 10
115.8757866463783
 20
-138.3727769293825
 10
116.030471433666
 20
-138.4230753234671
 10
116.1458821324219
 20
-138.4799193989738
 10
116.2885090855112
 20
-138.5501993468729
 10
116.3977186123936
 20
-138.6535522114304
 10
116.4028862556215
 20
-138.8588799023512
 10
116.4063313511068
 20
-139.0755764083735
 10
116.326405135849
 20
-139.2908948762016
 10
116.2499240160764
 20
-139.4462686825863
 10
116.1741319154009
 20
-139.600264450777
 10
116.0528645543201
 20
-139.7976684220818
 10
115.8768201750239
 20
-139.9251369550361
 97
        0
 97
        0
 92
        1
 93
        1
 72
     4
 94
        3
 73
     0
 74
     1
 95
       17
 96
       13
 40
0.0
 40
0.0
 40
0.0
 40
0.0
 40
1.0
 40
1.0
 40
1.0
 40
2.0
 40
2.0
 40
2.0
 40
3.0
 40
3.0
 40
3.0
 40
4.0
 40
4.0
 40
4.0
 40
4.0
 10
116.0607882739362
 20
-138.6525186827848
 10
115.8372015769435
 20
-138.5422756272568
 10
115.6697699363603
 20
-138.7761976107053
 10
115.5171522063638
 20
-139.0848781661836
 10
115.3759032914685
 20
-139.3715101105564
 10
115.271861407814
 20
-139.6646877363512
 10
115.5050943721654
 20
-139.7797539255585
 10
115.727303030964
 20
-139.8893079619895
 10
115.8954236906442
 20
-139.6584865644778
 10
116.0487304397378
 20
-139.3470499326112
 10
116.1899793546331
 20
-139.0607624977869
 10
116.292298690545
 20
-138.7665513433465
 10
116.0607882739362
 20
-138.6525186827848
 97
        0
 97
        0
 75
     2
 76
     1
 98
        0
  0
POLYLINE
  5
D8
330
BF
100
AcDbEntity
  8
_U+30EC_U+30A4_U+30E4_U+30FC 1
370
     0
100
AcDb2dPolyline
 66
     1
 10
0.0
 20
0.0
 30
0.0
  0
VERTEX
  5
D9
330
D8
100
AcDbEntity
  8
_U+30EC_U+30A4_U+30E4_U+30FC 1
370
     0
100
AcDbVertex
100
AcDb2dVertex
 10
117.2521022927356
 20
-140.8015692464836
 30
0.0
  0
VERTEX
  5
DA
330
D8
100
AcDbEntity
  8
_U+30EC_U+30A4_U+30E4_U+30FC 1
370
     0
100
AcDbVertex
100
AcDb2dVertex
 10
117.7244248837633
 20
-139.8434881920357
 30
0.0
  0
VERTEX
  5
DB
330
D8
100
AcDbEntity
  8
_U+30EC_U+30A4_U+30E4_U+30FC 1
370
     0
100
AcDbVertex
100
AcDb2dVertex
 10
117.80228404173
 20
-139.7001722198493
 30
0.0
  0
VERTEX
  5
DC
330
D8
100
AcDbEntity
  8
_U+30EC_U+30A4_U+30E4_U+30FC 1
370
     0
100
AcDbVertex
100
AcDb2dVertex
 10
117.7016872535607
 20
-139.8228176191242
 30
0.0
  0
VERTEX
  5
DD
330
D8
100
AcDbEntity
  8
_U+30EC_U+30A4_U+30E4_U+30FC 1
370
     0
100
AcDbVertex
100
AcDb2dVertex
 10
116.9162054829237
 20
-140.6358601536431
 30
0.0
  0
VERTEX
  5
DE
330
D8
100
AcDbEntity
  8
_U+30EC_U+30A4_U+30E4_U+30FC 1
370
     0
100
AcDbVertex
100
AcDb2dVertex
 10
116.6733262512136
 20
-140.5163153403049
 30
0.0
  0
VERTEX
  5
DF
330
D8
100
AcDbEntity
  8
_U+30EC_U+30A4_U+30E4_U+30FC 1
370
     0
100
AcDbVertex
100
AcDb2dVertex
 10
116.8421359299909
 20
-139.3990708744384
 30
0.0
  0
VERTEX
  5
E0
330
D8
100
AcDbEntity
  8
_U+30EC_U+30A4_U+30E4_U+30FC 1
370
     0
100
AcDbVertex
100
AcDb2dVertex
 10
116.878309432586
 20
-139.2443860871507
 30
0.0
  0
VERTEX
  5
E1
330
D8
100
AcDbEntity
  8
_U+30EC_U+30A4_U+30E4_U+30FC 1
370
     0
100
AcDbVertex
100
AcDb2dVertex
 10
116.810096541978
 20
-139.3925251930165
 30
0.0
  0
VERTEX
  5
E2
330
D8
100
AcDbEntity
  8
_U+30EC_U+30A4_U+30E4_U+30FC 1
370
     0
100
AcDbVertex
100
AcDb2dVertex
 10
116.3374294414018
 20
-140.3506062474644
 30
0.0
  0
VERTEX
  5
E3
330
D8
100
AcDbEntity
  8
_U+30EC_U+30A4_U+30E4_U+30FC 1
370
     0
100
AcDbVertex
100
AcDb2dVertex
 10
116.1420925273881
 20
-140.2541435738775
 30
0.0
  0
VERTEX
  5
E4
330
D8
100
AcDbEntity
  8
_U+30EC_U+30A4_U+30E4_U+30FC 1
370
     0
100
AcDbVertex
100
AcDb2dVertex
 10
116.8252549621131
 20
-138.869215188807
 30
0.0
  0
VERTEX
  5
E5
330
D8
100
AcDbEntity
  8
_U+30EC_U+30A4_U+30E4_U+30FC 1
370
     0
100
AcDbVertex
100
AcDb2dVertex
 10
117.1115423969374
 20
-139.0104641037022
 30
0.0
  0
VERTEX
  5
E6
330
D8
100
AcDbEntity
  8
_U+30EC_U+30A4_U+30E4_U+30FC 1
370
     0
100
AcDbVertex
100
AcDb2dVertex
 10
116.9354980176411
 20
-140.2045341988898
 30
0.0
  0
VERTEX
  5
E7
330
D8
100
AcDbEntity
  8
_U+30EC_U+30A4_U+30E4_U+30FC 1
370
     0
100
AcDbVertex
100
AcDb2dVertex
 10
116.9072482346621
 20
-140.3485391901733
 30
0.0
  0
VERTEX
  5
E8
330
D8
100
AcDbEntity
  8
_U+30EC_U+30A4_U+30E4_U+30FC 1
370
     0
100
AcDbVertex
100
AcDb2dVertex
 10
117.0040554177976
 20
-140.2382961346453
 30
0.0
  0
VERTEX
  5
E9
330
D8
100
AcDbEntity
  8
_U+30EC_U+30A4_U+30E4_U+30FC 1
370
     0
100
AcDbVertex
100
AcDb2dVertex
 10
117.8456922448441
 20
-139.372543639202
 30
0.0
  0
VERTEX
  5
EA
330
D8
100
AcDbEntity
  8
_U+30EC_U+30A4_U+30E4_U+30FC 1
370
     0
100
AcDbVertex
100
AcDb2dVertex
 10
118.1306016414743
 20
-139.5127590254517
 30
0.0
  0
VERTEX
  5
EB
330
D8
100
AcDbEntity
  8
_U+30EC_U+30A4_U+30E4_U+30FC 1
370
     0
100
AcDbVertex
100
AcDb2dVertex
 10
117.4477837162978
 20
-140.8980319200707
 30
0.0
  0
VERTEX
  5
EC
330
D8
100
AcDbEntity
  8
_U+30EC_U+30A4_U+30E4_U+30FC 1
370
     0
100
AcDbVertex
100
AcDb2dVertex
 10
117.2521022927356
 20
-140.8015692464836
 30
0.0
  0
SEQEND
  5
ED
330
D8
100
AcDbEntity
  8
_U+30EC_U+30A4_U+30E4_U+30FC 1
370
     0
  0
HATCH
  5
EE
330
BF
100
AcDbEntity
  8
_U+30EC_U+30A4_U+30E4_U+30FC 1
 62
   179
420
  2234388
100
AcDbHatch
 10
0.0
 20
0.0
 30
0.0
210
0.0
220
0.0
230
1.0
  2
SOLID
 70
     1
 71
     0
 91
        1
 92
        1
 93
       19
 72
     1
 10
117.2521022927356
 20
-140.8015692464836
 11
117.7244248837633
 21
-139.8434881920357
 72
     1
 10
117.7244248837633
 20
-139.8434881920357
 11
117.80228404173
 21
-139.7001722198493
 72
     1
 10
117.80228404173
 20
-139.7001722198493
 11
117.7016872535607
 21
-139.8228176191242
 72
     1
 10
117.7016872535607
 20
-139.8228176191242
 11
116.9162054829237
 21
-140.6358601536431
 72
     1
 10
116.9162054829237
 20
-140.6358601536431
 11
116.6733262512136
 21
-140.5163153403049
 72
     1
 10
116.6733262512136
 20
-140.5163153403049
 11
116.8421359299909
 21
-139.3990708744384
 72
     1
 10
116.8421359299909
 20
-139.3990708744384
 11
116.878309432586
 21
-139.2443860871507
 72
     1
 10
116.878309432586
 20
-139.2443860871507
 11
116.810096541978
 21
-139.3925251930165
 72
     1
 10
116.810096541978
 20
-139.3925251930165
 11
116.3374294414018
 21
-140.3506062474644
 72
     1
 10
116.3374294414018
 20
-140.3506062474644
 11
116.1420925273881
 21
-140.2541435738775
 72
     1
 10
116.1420925273881
 20
-140.2541435738775
 11
116.8252549621131
 21
-138.869215188807
 72
     1
 10
116.8252549621131
 20
-138.869215188807
 11
117.1115423969374
 21
-139.0104641037022
 72
     1
 10
117.1115423969374
 20
-139.0104641037022
 11
116.9354980176411
 21
-140.2045341988898
 72
     1
 10
116.9354980176411
 20
-140.2045341988898
 11
116.9072482346621
 21
-140.3485391901733
 72
     1
 10
116.9072482346621
 20
-140.3485391901733
 11
117.0040554177976
 21
-140.2382961346453
 72
     1
 10
117.0040554177976
 20
-140.2382961346453
 11
117.8456922448441
 21
-139.372543639202
 72
     1
 10
117.8456922448441
 20
-139.372543639202
 11
118.1306016414743
 21
-139.5127590254517
 72
     1
 10
118.1306016414743
 20
-139.5127590254517
 11
117.4477837162978
 21
-140.8980319200707
 72
     1
 10
117.4477837162978
 20
-140.8980319200707
 11
117.2521022927356
 21
-140.8015692464836
 97
        0
 75
     2
 76
     1
 98
        0
  0
POLYLINE
  5
EF
330
BF
100
AcDbEntity
  8
_U+30EC_U+30A4_U+30E4_U+30FC 1
370
     0
100
AcDb2dPolyline
 66
     1
 10
0.0
 20
0.0
 30
0.0
  0
VERTEX
  5
F0
330
EF
100
AcDbEntity
  8
_U+30EC_U+30A4_U+30E4_U+30FC 1
370
     0
100
AcDbVertex
100
AcDb2dVertex
 10
119.0153021620865
 20
-141.6711113469607
 30
0.0
  0
VERTEX
  5
F1
330
EF
100
AcDbEntity
  8
_U+30EC_U+30A4_U+30E4_U+30FC 1
370
     0
100
AcDbVertex
100
AcDb2dVertex
 10
118.7724229303764
 20
-141.5515665336225
 30
0.0
  0
VERTEX
  5
F2
330
EF
100
AcDbEntity
  8
_U+30EC_U+30A4_U+30E4_U+30FC 1
370
     0
100
AcDbVertex
100
AcDb2dVertex
 10
119.0797254476606
 20
-140.2830823759535
 30
0.0
  0
VERTEX
  5
F3
330
EF
100
AcDbEntity
  8
_U+30EC_U+30A4_U+30E4_U+30FC 1
370
     0
100
AcDbVertex
100
AcDb2dVertex
 10
118.2625487985594
 20
-141.3000745631993
 30
0.0
  0
VERTEX
  5
F4
330
EF
100
AcDbEntity
  8
_U+30EC_U+30A4_U+30E4_U+30FC 1
370
     0
100
AcDbVertex
100
AcDb2dVertex
 10
118.0196695668493
 20
-141.1801852403126
 30
0.0
  0
VERTEX
  5
F5
330
EF
100
AcDbEntity
  8
_U+30EC_U+30A4_U+30E4_U+30FC 1
370
     0
100
AcDbVertex
100
AcDb2dVertex
 10
118.3590114721464
 20
-139.6257581573679
 30
0.0
  0
VERTEX
  5
F6
330
EF
100
AcDbEntity
  8
_U+30EC_U+30A4_U+30E4_U+30FC 1
370
     0
100
AcDbVertex
100
AcDb2dVertex
 10
118.5677842585525
 20
-139.7284220028283
 30
0.0
  0
VERTEX
  5
F7
330
EF
100
AcDbEntity
  8
_U+30EC_U+30A4_U+30E4_U+30FC 1
370
     0
100
AcDbVertex
100
AcDb2dVertex
 10
118.270817027724
 20
-140.9762355875858
 30
0.0
  0
VERTEX
  5
F8
330
EF
100
AcDbEntity
  8
_U+30EC_U+30A4_U+30E4_U+30FC 1
370
     0
100
AcDbVertex
100
AcDb2dVertex
 10
119.0742132948842
 20
-139.9781914255089
 30
0.0
  0
VERTEX
  5
F9
330
EF
100
AcDbEntity
  8
_U+30EC_U+30A4_U+30E4_U+30FC 1
370
     0
100
AcDbVertex
100
AcDb2dVertex
 10
119.3250162462104
 20
-140.1018703534294
 30
0.0
  0
VERTEX
  5
FA
330
EF
100
AcDbEntity
  8
_U+30EC_U+30A4_U+30E4_U+30FC 1
370
     0
100
AcDbVertex
100
AcDb2dVertex
 10
119.022192353057
 20
-141.3465833522502
 30
0.0
  0
VERTEX
  5
FB
330
EF
100
AcDbEntity
  8
_U+30EC_U+30A4_U+30E4_U+30FC 1
370
     0
100
AcDbVertex
100
AcDb2dVertex
 10
119.8331678302848
 20
-140.3526733047556
 30
0.0
  0
VERTEX
  5
FC
330
EF
100
AcDbEntity
  8
_U+30EC_U+30A4_U+30E4_U+30FC 1
370
     0
100
AcDbVertex
100
AcDb2dVertex
 10
120.0419406166909
 20
-140.455337150216
 30
0.0
  0
VERTEX
  5
FD
330
EF
100
AcDbEntity
  8
_U+30EC_U+30A4_U+30E4_U+30FC 1
370
     0
100
AcDbVertex
100
AcDb2dVertex
 10
119.0153021620865
 20
-141.6711113469607
 30
0.0
  0
SEQEND
  5
FE
330
EF
100
AcDbEntity
  8
_U+30EC_U+30A4_U+30E4_U+30FC 1
370
     0
  0
HATCH
  5
FF
330
BF
100
AcDbEntity
  8
_U+30EC_U+30A4_U+30E4_U+30FC 1
 62
   179
420
  2234388
100
AcDbHatch
 10
0.0
 20
0.0
 30
0.0
210
0.0
220
0.0
230
1.0
  2
SOLID
 70
     1
 71
     0
 91
        1
 92
        1
 93
       13
 72
     1
 10
119.0153021620865
 20
-141.6711113469607
 11
118.7724229303764
 21
-141.5515665336225
 72
     1
 10
118.7724229303764
 20
-141.5515665336225
 11
119.0797254476606
 21
-140.2830823759535
 72
     1
 10
119.0797254476606
 20
-140.2830823759535
 11
118.2625487985594
 21
-141.3000745631993
 72
     1
 10
118.2625487985594
 20
-141.3000745631993
 11
118.0196695668493
 21
-141.1801852403126
 72
     1
 10
118.0196695668493
 20
-141.1801852403126
 11
118.3590114721464
 21
-139.6257581573679
 72
     1
 10
118.3590114721464
 20
-139.6257581573679
 11
118.5677842585525
 21
-139.7284220028283
 72
     1
 10
118.5677842585525
 20
-139.7284220028283
 11
118.270817027724
 21
-140.9762355875858
 72
     1
 10
118.270817027724
 20
-140.9762355875858
 11
119.0742132948842
 21
-139.9781914255089
 72
     1
 10
119.0742132948842
 20
-139.9781914255089
 11
119.3250162462104
 21
-140.1018703534294
 72
     1
 10
119.3250162462104
 20
-140.1018703534294
 11
119.022192353057
 21
-141.3465833522502
 72
     1
 10
119.022192353057
 20
-141.3465833522502
 11
119.8331678302848
 21
-140.3526733047556
 72
     1
 10
119.8331678302848
 20
-140.3526733047556
 11
120.0419406166909
 21
-140.455337150216
 72
     1
 10
120.0419406166909
 20
-140.455337150216
 11
119.0153021620865
 21
-141.6711113469607
 97
        0
 75
     2
 76
     1
 98
        0
  0
ENDBLK
  5
C2
330
BF
100
AcDbEntity
  8
0
100
AcDbBlockEnd
  0
ENDSEC
  0
SECTION
  2
ENTITIES
  0
INSERT
  5
42
330
1F
100
AcDbEntity
  8
_U+30EC_U+30A4_U+30E4_U+30FC 1
100
AcDbBlockReference
  2
block 2
 10
0.0
 20
0.0
 30
0.0
  0
INSERT
  5
7F
330
1F
100
AcDbEntity
  8
_U+30EC_U+30A4_U+30E4_U+30FC 1
100
AcDbBlockReference
  2
block 3
 10
0.0
 20
0.0
 30
0.0
  0
INSERT
  5
C0
330
1F
100
AcDbEntity
  8
_U+30EC_U+30A4_U+30E4_U+30FC 1
100
AcDbBlockReference
  2
block 4
 10
0.0
 20
0.0
 30
0.0
  0
SPLINE
  5
100
330
1F
100
AcDbEntity
  8
_U+30EC_U+30A4_U+30E4_U+30FC 1
 62
   179
420
  2234388
370
    15
100
AcDbSpline
210
0.0
220
0.0
230
1.0
 70
     8
 71
     3
 72
     8
 73
     4
 74
     0
 42
0.0000000001
 43
0.0000000001
 12
1.0
 22
0.0
 32
0.0
 13
1.0
 23
0.0
 33
0.0
 40
0.0
 40
0.0
 40
0.0
 40
0.0
 40
1.0
 40
1.0
 40
1.0
 40
1.0
 10
88.85085353749324
 20
-144.4905128965488
 30
0.0
 10
90.12366559636557
 20
-144.6746747820825
 30
0.0
 10
91.04970726280072
 20
-146.3722455824394
 30
0.0
 10
90.94528857182749
 20
-148.1177893374283
 30
0.0
  0
POLYLINE
  5
101
330
1F
100
AcDbEntity
  8
_U+30EC_U+30A4_U+30E4_U+30FC 1
 62
   179
420
  2234388
370
    15
100
AcDb2dPolyline
 66
     1
 10
0.0
 20
0.0
 30
0.0
  0
VERTEX
  5
102
330
101
100
AcDbEntity
  8
_U+30EC_U+30A4_U+30E4_U+30FC 1
 62
   179
420
  2234388
370
    15
100
AcDbVertex
100
AcDb2dVertex
 10
104.9818348940023
 20
-135.7228525458222
 30
0.0
  0
VERTEX
  5
103
330
101
100
AcDbEntity
  8
_U+30EC_U+30A4_U+30E4_U+30FC 1
 62
   179
420
  2234388
370
    15
100
AcDbVertex
100
AcDb2dVertex
 10
88.49158390799863
 20
-143.8681563971384
 30
0.0
  0
VERTEX
  5
104
330
101
100
AcDbEntity
  8
_U+30EC_U+30A4_U+30E4_U+30FC 1
 62
   179
420
  2234388
370
    15
100
AcDbVertex
100
AcDb2dVertex
 10
88.85071358048914
 20
-144.4904483010088
 30
0.0
  0
SEQEND
  5
105
330
101
100
AcDbEntity
  8
_U+30EC_U+30A4_U+30E4_U+30FC 1
 62
   179
420
  2234388
370
    15
  0
POLYLINE
  5
106
330
1F
100
AcDbEntity
  8
_U+30EC_U+30A4_U+30E4_U+30FC 1
 62
   179
420
  2234388
370
    15
100
AcDb2dPolyline
 66
     1
 10
0.0
 20
0.0
 30
0.0
  0
VERTEX
  5
107
330
106
100
AcDbEntity
  8
_U+30EC_U+30A4_U+30E4_U+30FC 1
 62
   179
420
  2234388
370
    15
100
AcDbVertex
100
AcDb2dVertex
 10
88.85085353749324
 20
-144.4905128965488
 30
0.0
  0
VERTEX
  5
108
330
106
100
AcDbEntity
  8
_U+30EC_U+30A4_U+30E4_U+30FC 1
 62
   179
420
  2234388
370
    15
100
AcDbVertex
100
AcDb2dVertex
 10
104.9819640850826
 20
-136.5230405678115
 30
0.0
  0
SEQEND
  5
109
330
106
100
AcDbEntity
  8
_U+30EC_U+30A4_U+30E4_U+30FC 1
 62
   179
420
  2234388
370
    15
  0
POLYLINE
  5
10A
330
1F
100
AcDbEntity
  8
_U+30EC_U+30A4_U+30E4_U+30FC 1
 62
   179
420
  2234388
370
    15
100
AcDb2dPolyline
 66
     1
 10
0.0
 20
0.0
 30
0.0
  0
VERTEX
  5
10B
330
10A
100
AcDbEntity
  8
_U+30EC_U+30A4_U+30E4_U+30FC 1
 62
   179
420
  2234388
370
    15
100
AcDbVertex
100
AcDb2dVertex
 10
90.94515938074679
 20
-148.1179831240491
 30
0.0
  0
VERTEX
  5
10C
330
10A
100
AcDbEntity
  8
_U+30EC_U+30A4_U+30E4_U+30FC 1
 62
   179
420
  2234388
370
    15
100
AcDbVertex
100
AcDb2dVertex
 10
104.9818348940023
 20
-141.1848576510645
 30
0.0
  0
SEQEND
  5
10D
330
10A
100
AcDbEntity
  8
_U+30EC_U+30A4_U+30E4_U+30FC 1
 62
   179
420
  2234388
370
    15
  0
POLYLINE
  5
10E
330
1F
100
AcDbEntity
  8
_U+30EC_U+30A4_U+30E4_U+30FC 1
 62
   179
420
  2234388
370
    15
100
AcDb2dPolyline
 66
     1
 10
0.0
 20
0.0
 30
0.0
  0
VERTEX
  5
10F
330
10E
100
AcDbEntity
  8
_U+30EC_U+30A4_U+30E4_U+30FC 1
 62
   179
420
  2234388
370
    15
100
AcDbVertex
100
AcDb2dVertex
 10
89.52988185763598
 20
-144.7545794654932
 30
0.0
  0
VERTEX
  5
110
330
10E
100
AcDbEntity
  8
_U+30EC_U+30A4_U+30E4_U+30FC 1
 62
   179
420
  2234388
370
    15
100
AcDbVertex
100
AcDb2dVertex
 10
88.22213437735886
 20
-145.4012238880746
 30
0.0
  0
VERTEX
  5
111
330
10E
100
AcDbEntity
  8
_U+30EC_U+30A4_U+30E4_U+30FC 1
 62
   179
420
  2234388
370
    15
100
AcDbVertex
100
AcDb2dVertex
 10
88.49164850353898
 20
-143.8680702697513
 30
0.0
  0
SEQEND
  5
112
330
10E
100
AcDbEntity
  8
_U+30EC_U+30A4_U+30E4_U+30FC 1
 62
   179
420
  2234388
370
    15
  0
POLYLINE
  5
113
330
1F
100
AcDbEntity
  8
_U+30EC_U+30A4_U+30E4_U+30FC 1
 62
   179
420
  2234388
370
    15
100
AcDb2dPolyline
 66
     1
 10
0.0
 20
0.0
 30
0.0
  0
VERTEX
  5
114
330
113
100
AcDbEntity
  8
_U+30EC_U+30A4_U+30E4_U+30FC 1
 62
   179
420
  2234388
370
    15
100
AcDbVertex
100
AcDb2dVertex
 10
91.30481658348347
 20
-148.740318091613
 30
0.0
  0
VERTEX
  5
115
330
113
100
AcDbEntity
  8
_U+30EC_U+30A4_U+30E4_U+30FC 1
 62
   179
420
  2234388
370
    15
100
AcDbVertex
100
AcDb2dVertex
 10
89.77728277717048
 20
-148.0950947709189
 30
0.0
  0
VERTEX
  5
116
330
113
100
AcDbEntity
  8
_U+30EC_U+30A4_U+30E4_U+30FC 1
 62
   179
420
  2234388
370
    15
100
AcDbVertex
100
AcDb2dVertex
 10
90.92875211349829
 20
-147.5299483884105
 30
0.0
  0
SEQEND
  5
117
330
113
100
AcDbEntity
  8
_U+30EC_U+30A4_U+30E4_U+30FC 1
 62
   179
420
  2234388
370
    15
  0
SPLINE
  5
118
330
1F
100
AcDbEntity
  8
_U+30EC_U+30A4_U+30E4_U+30FC 1
 62
   179
420
  2234388
370
    15
100
AcDbSpline
210
0.0
220
0.0
230
1.0
 70
     8
 71
     3
 72
     8
 73
     4
 74
     0
 42
0.0000000001
 43
0.0000000001
 12
1.0
 22
0.0
 32
0.0
 13
1.0
 23
0.0
 33
0.0
 40
0.0
 40
0.0
 40
0.0
 40
0.0
 40
1.0
 40
1.0
 40
1.0
 40
1.0
 10
121.1128054845873
 20
-144.4905128965488
 30
0.0
 10
119.8399826597915
 20
-144.6746747820825
 30
0.0
 10
118.9139409933564
 20
-146.3722455824394
 30
0.0
 10
119.0183596843296
 20
-148.1177893374283
 30
0.0
  0
POLYLINE
  5
119
330
1F
100
AcDbEntity
  8
_U+30EC_U+30A4_U+30E4_U+30FC 1
 62
   179
420
  2234388
370
    15
100
AcDb2dPolyline
 66
     1
 10
0.0
 20
0.0
 30
0.0
  0
VERTEX
  5
11A
330
119
100
AcDbEntity
  8
_U+30EC_U+30A4_U+30E4_U+30FC 1
 62
   179
420
  2234388
370
    15
100
AcDbVertex
100
AcDb2dVertex
 10
104.9818348940023
 20
-135.7228525458222
 30
0.0
  0
VERTEX
  5
11B
330
119
100
AcDbEntity
  8
_U+30EC_U+30A4_U+30E4_U+30FC 1
 62
   179
420
  2234388
370
    15
100
AcDbVertex
100
AcDb2dVertex
 10
121.4720751140819
 20
-143.8681563971384
 30
0.0
  0
VERTEX
  5
11C
330
119
100
AcDbEntity
  8
_U+30EC_U+30A4_U+30E4_U+30FC 1
 62
   179
420
  2234388
370
    15
100
AcDbVertex
100
AcDb2dVertex
 10
121.1129454415914
 20
-144.4904483010088
 30
0.0
  0
SEQEND
  5
11D
330
119
100
AcDbEntity
  8
_U+30EC_U+30A4_U+30E4_U+30FC 1
 62
   179
420
  2234388
370
    15
  0
POLYLINE
  5
11E
330
1F
100
AcDbEntity
  8
_U+30EC_U+30A4_U+30E4_U+30FC 1
 62
   179
420
  2234388
370
    15
100
AcDb2dPolyline
 66
     1
 10
0.0
 20
0.0
 30
0.0
  0
VERTEX
  5
11F
330
11E
100
AcDbEntity
  8
_U+30EC_U+30A4_U+30E4_U+30FC 1
 62
   179
420
  2234388
370
    15
100
AcDbVertex
100
AcDb2dVertex
 10
121.1128054845873
 20
-144.4905128965488
 30
0.0
  0
VERTEX
  5
120
330
11E
100
AcDbEntity
  8
_U+30EC_U+30A4_U+30E4_U+30FC 1
 62
   179
420
  2234388
370
    15
100
AcDbVertex
100
AcDb2dVertex
 10
104.9816841710745
 20
-136.5230405678115
 30
0.0
  0
SEQEND
  5
121
330
11E
100
AcDbEntity
  8
_U+30EC_U+30A4_U+30E4_U+30FC 1
 62
   179
420
  2234388
370
    15
  0
POLYLINE
  5
122
330
1F
100
AcDbEntity
  8
_U+30EC_U+30A4_U+30E4_U+30FC 1
 62
   179
420
  2234388
370
    15
100
AcDb2dPolyline
 66
     1
 10
0.0
 20
0.0
 30
0.0
  0
VERTEX
  5
123
330
122
100
AcDbEntity
  8
_U+30EC_U+30A4_U+30E4_U+30FC 1
 62
   179
420
  2234388
370
    15
100
AcDbVertex
100
AcDb2dVertex
 10
119.0185427050273
 20
-148.1179831240491
 30
0.0
  0
VERTEX
  5
124
330
122
100
AcDbEntity
  8
_U+30EC_U+30A4_U+30E4_U+30FC 1
 62
   179
420
  2234388
370
    15
100
AcDbVertex
100
AcDb2dVertex
 10
104.9818671917721
 20
-141.1848576510645
 30
0.0
  0
SEQEND
  5
125
330
122
100
AcDbEntity
  8
_U+30EC_U+30A4_U+30E4_U+30FC 1
 62
   179
420
  2234388
370
    15
  0
POLYLINE
  5
126
330
1F
100
AcDbEntity
  8
_U+30EC_U+30A4_U+30E4_U+30FC 1
 62
   179
420
  2234388
370
    15
100
AcDb2dPolyline
 66
     1
 10
0.0
 20
0.0
 30
0.0
  0
VERTEX
  5
127
330
126
100
AcDbEntity
  8
_U+30EC_U+30A4_U+30E4_U+30FC 1
 62
   179
420
  2234388
370
    15
100
AcDbVertex
100
AcDb2dVertex
 10
120.4337771644445
 20
-144.7545794654932
 30
0.0
  0
VERTEX
  5
128
330
126
100
AcDbEntity
  8
_U+30EC_U+30A4_U+30E4_U+30FC 1
 62
   179
420
  2234388
370
    15
100
AcDbVertex
100
AcDb2dVertex
 10
121.7415138787986
 20
-145.4012238880746
 30
0.0
  0
VERTEX
  5
129
330
126
100
AcDbEntity
  8
_U+30EC_U+30A4_U+30E4_U+30FC 1
 62
   179
420
  2234388
370
    15
100
AcDbVertex
100
AcDb2dVertex
 10
121.4719997526181
 20
-143.8680702697513
 30
0.0
  0
SEQEND
  5
12A
330
126
100
AcDbEntity
  8
_U+30EC_U+30A4_U+30E4_U+30FC 1
 62
   179
420
  2234388
370
    15
  0
POLYLINE
  5
12B
330
1F
100
AcDbEntity
  8
_U+30EC_U+30A4_U+30E4_U+30FC 1
 62
   179
420
  2234388
370
    15
100
AcDb2dPolyline
 66
     1
 10
0.0
 20
0.0
 30
0.0
  0
VERTEX
  5
12C
330
12B
100
AcDbEntity
  8
_U+30EC_U+30A4_U+30E4_U+30FC 1
 62
   179
420
  2234388
370
    15
100
AcDbVertex
100
AcDb2dVertex
 10
118.6588855022906
 20
-148.740318091613
 30
0.0
  0
VERTEX
  5
12D
330
12B
100
AcDbEntity
  8
_U+30EC_U+30A4_U+30E4_U+30FC 1
 62
   179
420
  2234388
370
    15
100
AcDbVertex
100
AcDb2dVertex
 10
120.1864085426802
 20
-148.0950947709189
 30
0.0
  0
VERTEX
  5
12E
330
12B
100
AcDbEntity
  8
_U+30EC_U+30A4_U+30E4_U+30FC 1
 62
   179
420
  2234388
370
    15
100
AcDbVertex
100
AcDb2dVertex
 10
119.0405805502095
 20
-147.5299483884105
 30
0.0
  0
SEQEND
  5
12F
330
12B
100
AcDbEntity
  8
_U+30EC_U+30A4_U+30E4_U+30FC 1
 62
   179
420
  2234388
370
    15
  0
POLYLINE
  5
130
330
1F
100
AcDbEntity
  8
_U+30EC_U+30A4_U+30E4_U+30FC 1
 62
   179
420
  2234388
370
    15
100
AcDb2dPolyline
 66
     1
 10
0.0
 20
0.0
 30
0.0
  0
VERTEX
  5
131
330
130
100
AcDbEntity
  8
_U+30EC_U+30A4_U+30E4_U+30FC 1
 62
   179
420
  2234388
370
    15
100
AcDbVertex
100
AcDb2dVertex
 10
104.9818348940023
 20
-162.6219858398784
 30
0.0
  0
VERTEX
  5
132
330
130
100
AcDbEntity
  8
_U+30EC_U+30A4_U+30E4_U+30FC 1
 62
   179
420
  2234388
370
    15
100
AcDbVertex
100
AcDb2dVertex
 10
104.9818348940023
 20
-135.722680291048
 30
0.0
  0
SEQEND
  5
133
330
130
100
AcDbEntity
  8
_U+30EC_U+30A4_U+30E4_U+30FC 1
 62
   179
420
  2234388
370
    15
  0
POLYLINE
  5
134
330
1F
100
AcDbEntity
  8
_U+30EC_U+30A4_U+30E4_U+30FC 1
 62
   179
420
  2234388
370
    15
100
AcDb2dPolyline
 66
     1
 10
0.0
 20
0.0
 30
0.0
  0
VERTEX
  5
135
330
134
100
AcDbEntity
  8
_U+30EC_U+30A4_U+30E4_U+30FC 1
 62
   179
420
  2234388
370
    15
100
AcDbVertex
100
AcDb2dVertex
 10
103.1590348727566
 20
-142.1023511743269
 30
0.0
  0
VERTEX
  5
136
330
134
100
AcDbEntity
  8
_U+30EC_U+30A4_U+30E4_U+30FC 1
 62
   179
420
  2234388
370
    15
100
AcDbVertex
100
AcDb2dVertex
 10
103.1590348727566
 20
-163.3043085325789
 30
0.0
  0
VERTEX
  5
137
330
134
100
AcDbEntity
  8
_U+30EC_U+30A4_U+30E4_U+30FC 1
 62
   179
420
  2234388
370
    15
100
AcDbVertex
100
AcDb2dVertex
 10
104.9818348940023
 20
-162.6220289035719
 30
0.0
  0
VERTEX
  5
138
330
134
100
AcDbEntity
  8
_U+30EC_U+30A4_U+30E4_U+30FC 1
 62
   179
420
  2234388
370
    15
100
AcDbVertex
100
AcDb2dVertex
 10
106.8049901907196
 20
-163.3043085325789
 30
0.0
  0
VERTEX
  5
139
330
134
100
AcDbEntity
  8
_U+30EC_U+30A4_U+30E4_U+30FC 1
 62
   179
420
  2234388
370
    15
100
AcDbVertex
100
AcDb2dVertex
 10
106.8049901907196
 20
-142.1023511743269
 30
0.0
  0
SEQEND
  5
13A
330
134
100
AcDbEntity
  8
_U+30EC_U+30A4_U+30E4_U+30FC 1
 62
   179
420
  2234388
370
    15
  0
POLYLINE
  5
13B
330
1F
100
AcDbEntity
  8
_U+30EC_U+30A4_U+30E4_U+30FC 1
 62
   179
420
  2234388
370
    15
100
AcDb2dPolyline
 66
     1
 10
0.0
 20
0.0
 30
0.0
  0
VERTEX
  5
13C
330
13B
100
AcDbEntity
  8
_U+30EC_U+30A4_U+30E4_U+30FC 1
 62
   179
420
  2234388
370
    15
100
AcDbVertex
100
AcDb2dVertex
 10
103.1590348727566
 20
-163.3041147459578
 30
0.0
  0
VERTEX
  5
13D
330
13B
100
AcDbEntity
  8
_U+30EC_U+30A4_U+30E4_U+30FC 1
 62
   179
420
  2234388
370
    15
100
AcDbVertex
100
AcDb2dVertex
 10
103.8938629738366
 20
-163.3041147459578
 30
0.0
  0
VERTEX
  5
13E
330
13B
100
AcDbEntity
  8
_U+30EC_U+30A4_U+30E4_U+30FC 1
 62
   179
420
  2234388
370
    15
100
AcDbVertex
100
AcDb2dVertex
 10
103.8938629738366
 20
-163.0187316486985
 30
0.0
  0
SEQEND
  5
13F
330
13B
100
AcDbEntity
  8
_U+30EC_U+30A4_U+30E4_U+30FC 1
 62
   179
420
  2234388
370
    15
  0
POLYLINE
  5
140
330
1F
100
AcDbEntity
  8
_U+30EC_U+30A4_U+30E4_U+30FC 1
 62
   179
420
  2234388
370
    15
100
AcDb2dPolyline
 66
     1
 10
0.0
 20
0.0
 30
0.0
  0
VERTEX
  5
141
330
140
100
AcDbEntity
  8
_U+30EC_U+30A4_U+30E4_U+30FC 1
 62
   179
420
  2234388
370
    15
100
AcDbVertex
100
AcDb2dVertex
 10
106.8049901907196
 20
-163.3041147459578
 30
0.0
  0
VERTEX
  5
142
330
140
100
AcDbEntity
  8
_U+30EC_U+30A4_U+30E4_U+30FC 1
 62
   179
420
  2234388
370
    15
100
AcDbVertex
100
AcDb2dVertex
 10
106.0701513237158
 20
-163.3041147459578
 30
0.0
  0
VERTEX
  5
143
330
140
100
AcDbEntity
  8
_U+30EC_U+30A4_U+30E4_U+30FC 1
 62
   179
420
  2234388
370
    15
100
AcDbVertex
100
AcDb2dVertex
 10
106.0701513237158
 20
-163.0187316486985
 30
0.0
  0
SEQEND
  5
144
330
140
100
AcDbEntity
  8
_U+30EC_U+30A4_U+30E4_U+30FC 1
 62
   179
420
  2234388
370
    15
  0
POLYLINE
  5
145
330
1F
100
AcDbEntity
  8
_U+30EC_U+30A4_U+30E4_U+30FC 1
 62
   179
420
  2234388
370
    15
100
AcDb2dPolyline
 66
     1
 10
0.0
 20
0.0
 30
0.0
  0
VERTEX
  5
146
330
145
100
AcDbEntity
  8
_U+30EC_U+30A4_U+30E4_U+30FC 1
 62
   179
420
  2234388
370
    15
100
AcDbVertex
100
AcDb2dVertex
 10
103.1666140828241
 20
-142.8812441998486
 30
0.0
  0
VERTEX
  5
147
330
145
100
AcDbEntity
  8
_U+30EC_U+30A4_U+30E4_U+30FC 1
 62
   179
420
  2234388
370
    15
100
AcDbVertex
100
AcDb2dVertex
 10
91.3048058175604
 20
-148.740188900532
 30
0.0
  0
VERTEX
  5
148
330
145
100
AcDbEntity
  8
_U+30EC_U+30A4_U+30E4_U+30FC 1
 62
   179
420
  2234388
370
    15
100
AcDbVertex
100
AcDb2dVertex
 10
90.94497636004914
 20
-148.1178969966619
 30
0.0
  0
SEQEND
  5
149
330
145
100
AcDbEntity
  8
_U+30EC_U+30A4_U+30E4_U+30FC 1
 62
   179
420
  2234388
370
    15
  0
POLYLINE
  5
14A
330
1F
100
AcDbEntity
  8
_U+30EC_U+30A4_U+30E4_U+30FC 1
 62
   179
420
  2234388
370
    15
100
AcDb2dPolyline
 66
     1
 10
0.0
 20
0.0
 30
0.0
  0
VERTEX
  5
14B
330
14A
100
AcDbEntity
  8
_U+30EC_U+30A4_U+30E4_U+30FC 1
 62
   179
420
  2234388
370
    15
100
AcDbVertex
100
AcDb2dVertex
 10
106.7970557051801
 20
-142.8812441998486
 30
0.0
  0
VERTEX
  5
14C
330
14A
100
AcDbEntity
  8
_U+30EC_U+30A4_U+30E4_U+30FC 1
 62
   179
420
  2234388
370
    15
100
AcDbVertex
100
AcDb2dVertex
 10
118.6588532045204
 20
-148.740188900532
 30
0.0
  0
VERTEX
  5
14D
330
14A
100
AcDbEntity
  8
_U+30EC_U+30A4_U+30E4_U+30FC 1
 62
   179
420
  2234388
370
    15
100
AcDbVertex
100
AcDb2dVertex
 10
119.0186826620314
 20
-148.1178969966619
 30
0.0
  0
SEQEND
  5
14E
330
14A
100
AcDbEntity
  8
_U+30EC_U+30A4_U+30E4_U+30FC 1
 62
   179
420
  2234388
370
    15
  0
ENDSEC
  0
SECTION
  2
OBJECTS
  0
DICTIONARY
  5
C
330
0
100
AcDbDictionary
281
     1
  3
ACAD_GROUP
350
D
  3
ACAD_LAYOUT
350
1A
  3
ACAD_MATERIAL
350
3B
  3
ACAD_MLEADERSTYLE
350
150
  3
ACAD_MLINESTYLE
350
17
  3
ACAD_PLOTSETTINGS
350
19
  3
ACAD_PLOTSTYLENAME
350
E
  3
ACAD_TABLESTYLE
350
14F
  3
ACAD_VISUALSTYLE
350
2A
  0
SUN
  5
3F
330
29
100
AcDbSun
 90
        1
290
     0
 63
     7
421
 16777215
 40
1.0
291
     1
 91
  2455826
 92
 54000000
292
     0
 70
     2
 71
   256
280
     1
  0
DICTIONARY
  5
D
102
{ACAD_REACTORS
330
C
102
}
330
C
100
AcDbDictionary
281
     1
  0
DICTIONARY
  5
1A
102
{ACAD_REACTORS
330
C
102
}
330
C
100
AcDbDictionary
281
     1
  3
Layout1
350
1E
  3
Layout2
350
26
  3
Model
350
22
  0
DICTIONARY
  5
3B
102
{ACAD_REACTORS
330
C
102
}
330
C
100
AcDbDictionary
281
     1
  3
ByBlock
350
3D
  3
ByLayer
350
3C
  3
Global
350
3E
  0
DICTIONARY
  5
150
102
{ACAD_REACTORS
330
C
102
}
330
C
100
AcDbDictionary
281
     1
  0
DICTIONARY
  5
17
102
{ACAD_REACTORS
330
C
102
}
330
C
100
AcDbDictionary
281
     1
  3
Standard
350
18
  0
DICTIONARY
  5
19
102
{ACAD_REACTORS
330
C
102
}
330
C
100
AcDbDictionary
281
     1
  0
ACDBDICTIONARYWDFLT
  5
E
102
{ACAD_REACTORS
330
C
102
}
330
C
100
AcDbDictionary
281
     1
  3
Normal
350
F
100
AcDbDictionaryWithDefault
340
F
  0
DICTIONARY
  5
14F
102
{ACAD_REACTORS
330
C
102
}
330
C
100
AcDbDictionary
281
     1
  0
DICTIONARY
  5
2A
102
{ACAD_REACTORS
330
C
102
}
330
C
100
AcDbDictionary
281
     1
  3
2dWireframe
350
2F
  3
3D Hidden
350
31
  3
3dWireframe
350
30
  3
Basic
350
32
  3
Brighten
350
36
  3
ColorChange
350
3A
  3
Conceptual
350
34
  3
Dim
350
35
  3
Facepattern
350
39
  3
Flat
350
2B
  3
FlatWithEdges
350
2C
  3
Gouraud
350
2D
  3
GouraudWithEdges
350
2E
  3
Linepattern
350
38
  3
Realistic
350
33
  3
Thicken
350
37
  0
LAYOUT
  5
1E
102
{ACAD_REACTORS
330
1A
102
}
330
1A
100
AcDbPlotSettings
  1

  2
none_device
  4

  6

 40
0.0
 41
0.0
 42
0.0
 43
0.0
 44
0.0
 45
0.0
 46
0.0
 47
0.0
 48
0.0
 49
0.0
140
0.0
141
0.0
142
1.0
143
1.0
 70
   688
 72
     0
 73
     0
 74
     5
  7

 75
    16
 76
     0
 77
     2
 78
   300
147
1.0
148
0.0
149
0.0
100
AcDbLayout
  1
Layout1
 70
     1
 71
     1
 10
0.0
 20
0.0
 11
12.0
 21
9.0
 12
0.0
 22
0.0
 32
0.0
 14
1.000000000000000E+20
 24
1.000000000000000E+20
 34
1.000000000000000E+20
 15
-1.000000000000000E+20
 25
-1.000000000000000E+20
 35
-1.000000000000000E+20
146
0.0
 13
0.0
 23
0.0
 33
0.0
 16
1.0
 26
0.0
 36
0.0
 17
0.0
 27
1.0
 37
0.0
 76
     0
330
1B
  0
LAYOUT
  5
26
102
{ACAD_REACTORS
330
1A
102
}
330
1A
100
AcDbPlotSettings
  1

  2
none_device
  4

  6

 40
0.0
 41
0.0
 42
0.0
 43
0.0
 44
0.0
 45
0.0
 46
0.0
 47
0.0
 48
0.0
 49
0.0
140
0.0
141
0.0
142
1.0
143
1.0
 70
   688
 72
     0
 73
     0
 74
     5
  7

 75
    16
 76
     0
 77
     2
 78
   300
147
1.0
148
0.0
149
0.0
100
AcDbLayout
  1
Layout2
 70
     1
 71
     2
 10
0.0
 20
0.0
 11
0.0
 21
0.0
 12
0.0
 22
0.0
 32
0.0
 14
0.0
 24
0.0
 34
0.0
 15
0.0
 25
0.0
 35
0.0
146
0.0
 13
0.0
 23
0.0
 33
0.0
 16
1.0
 26
0.0
 36
0.0
 17
0.0
 27
1.0
 37
0.0
 76
     0
330
23
  0
LAYOUT
  5
22
102
{ACAD_REACTORS
330
1A
102
}
330
1A
100
AcDbPlotSettings
  1

  2
none_device
  4

  6

 40
0.0
 41
0.0
 42
0.0
 43
0.0
 44
0.0
 45
0.0
 46
0.0
 47
0.0
 48
0.0
 49
0.0
140
0.0
141
0.0
142
1.0
143
1.0
 70
  1712
 72
     0
 73
     0
 74
     0
  7

 75
     0
 76
     0
 77
     2
 78
   300
147
1.0
148
0.0
149
0.0
100
AcDbLayout
  1
Model
 70
     1
 71
     0
 10
0.0
 20
0.0
 11
12.0
 21
9.0
 12
0.0
 22
0.0
 32
0.0
 14
1.000000000000000E+20
 24
1.000000000000000E+20
 34
1.000000000000000E+20
 15
-1.000000000000000E+20
 25
-1.000000000000000E+20
 35
-1.000000000000000E+20
146
0.0
 13
0.0
 23
0.0
 33
0.0
 16
1.0
 26
0.0
 36
0.0
 17
0.0
 27
1.0
 37
0.0
 76
     0
330
1F
331
29
  0
MATERIAL
  5
3D
102
{ACAD_REACTORS
330
3B
102
}
330
3B
100
AcDbMaterial
  1
ByBlock
 72
     1
 94
      127
  0
MATERIAL
  5
3C
102
{ACAD_REACTORS
330
3B
102
}
330
3B
100
AcDbMaterial
  1
ByLayer
 72
     1
 94
      127
  0
MATERIAL
  5
3E
102
{ACAD_REACTORS
330
3B
102
}
330
3B
100
AcDbMaterial
  1
Global
 72
     1
 94
      127
  0
MLINESTYLE
  5
18
102
{ACAD_REACTORS
330
17
102
}
330
17
100
AcDbMlineStyle
  2
Standard
 70
     0
  3

 62
   256
 51
90.0
 52
90.0
 71
     2
 49
0.5
 62
   256
  6
BYLAYER
 49
-0.5
 62
   256
  6
BYLAYER
  0
ACDBPLACEHOLDER
  5
F
102
{ACAD_REACTORS
330
E
102
}
330
E
  0
VISUALSTYLE
  5
2F
102
{ACAD_REACTORS
330
2A
102
}
330
2A
100
AcDbVisualStyle
  2
2dWireframe
 70
     4
177
     2
291
     0
 71
     0
176
     1
 72
     2
176
     1
 73
     0
176
     1
 90
        0
176
     1
 40
-0.6
176
     1
 41
-30.0
176
     1
 62
     5
 63
     7
421
 16777215
176
     1
 74
     1
176
     1
 91
        4
176
     1
 64
     7
176
     1
 65
   257
176
     1
 75
     1
176
     1
175
     1
176
     1
 42
1.0
176
     1
 92
        0
176
     1
 66
   257
176
     1
 43
1.0
176
     1
 76
     1
176
     1
 77
     6
176
     1
 78
     2
176
     1
 67
     7
176
     1
 79
     5
176
     1
170
     0
176
     1
171
     0
176
     1
290
     0
176
     1
 93
        1
176
     1
 44
0.0
176
     1
173
     0
176
     1
  0
VISUALSTYLE
  5
31
102
{ACAD_REACTORS
330
2A
102
}
330
2A
100
AcDbVisualStyle
  2
3D Hidden
 70
     6
177
     2
291
     0
 71
     1
176
     1
 72
     2
176
     1
 73
     2
176
     1
 90
        0
176
     1
 40
-0.6
176
     1
 41
-30.0
176
     1
 62
     5
 63
     7
421
 16777215
176
     1
 74
     2
176
     1
 91
        2
176
     1
 64
     7
176
     1
 65
   257
176
     1
 75
     2
176
     1
175
     1
176
     1
 42
40.0
176
     1
 92
        0
176
     1
 66
   257
176
     1
 43
1.0
176
     1
 76
     1
176
     1
 77
     6
176
     1
 78
     2
176
     1
 67
     7
176
     1
 79
     3
176
     1
170
     0
176
     1
171
     0
176
     1
290
     0
176
     1
 93
        1
176
     1
 44
0.0
176
     1
173
     0
176
     1
  0
VISUALSTYLE
  5
30
102
{ACAD_REACTORS
330
2A
102
}
330
2A
100
AcDbVisualStyle
  2
3dWireframe
 70
     5
177
     2
291
     0
 71
     0
176
     1
 72
     2
176
     1
 73
     0
176
     1
 90
        0
176
     1
 40
-0.6
176
     1
 41
-30.0
176
     1
 62
     5
 63
     7
421
 16777215
176
     1
 74
     1
176
     1
 91
        4
176
     1
 64
     7
176
     1
 65
   257
176
     1
 75
     1
176
     1
175
     1
176
     1
 42
1.0
176
     1
 92
        0
176
     1
 66
   257
176
     1
 43
1.0
176
     1
 76
     1
176
     1
 77
     6
176
     1
 78
     2
176
     1
 67
     7
176
     1
 79
     5
176
     1
170
     0
176
     1
171
     0
176
     1
290
     0
176
     1
 93
        1
176
     1
 44
0.0
176
     1
173
     0
176
     1
  0
VISUALSTYLE
  5
32
102
{ACAD_REACTORS
330
2A
102
}
330
2A
100
AcDbVisualStyle
  2
Basic
 70
     7
177
     2
291
     1
 71
     1
176
     1
 72
     0
176
     1
 73
     1
176
     1
 90
        0
176
     1
 40
-0.6
176
     1
 41
-30.0
176
     1
 62
     5
 63
     7
421
 16777215
176
     1
 74
     0
176
     1
 91
        4
176
     1
 64
     7
176
     1
 65
   257
176
     1
 75
     1
176
     1
175
     1
176
     1
 42
1.0
176
     1
 92
        8
176
     1
 66
     7
176
     1
 43
1.0
176
     1
 76
     1
176
     1
 77
     6
176
     1
 78
     2
176
     1
 67
     7
176
     1
 79
     5
176
     1
170
     0
176
     1
171
     0
176
     1
290
     0
176
     1
 93
        1
176
     1
 44
0.0
176
     1
173
     0
176
     1
  0
VISUALSTYLE
  5
36
102
{ACAD_REACTORS
330
2A
102
}
330
2A
100
AcDbVisualStyle
  2
Brighten
 70
    12
177
     2
291
     1
 71
     2
176
     1
 72
     2
176
     1
 73
     0
176
     1
 90
        0
176
     1
 40
-0.6
176
     1
 41
-30.0
176
     1
 62
     5
 63
     7
421
 16777215
176
     1
 74
     1
176
     1
 91
        4
176
     1
 64
     7
176
     1
 65
   257
176
     1
 75
     1
176
     1
175
     1
176
     1
 42
1.0
176
     1
 92
        8
176
     1
 66
     7
176
     1
 43
1.0
176
     1
 76
     1
176
     1
 77
     6
176
     1
 78
     2
176
     1
 67
     7
176
     1
 79
     5
176
     1
170
     0
176
     1
171
     0
176
     1
290
     0
176
     1
 93
        1
176
     1
 44
50.0
176
     1
173
     0
176
     1
  0
VISUALSTYLE
  5
3A
102
{ACAD_REACTORS
330
2A
102
}
330
2A
100
AcDbVisualStyle
  2
ColorChange
 70
    16
177
     2
291
     1
 71
     2
176
     1
 72
     2
176
     1
 73
     3
176
     1
 90
        0
176
     1
 40
-0.6
176
     1
 41
-30.0
176
     1
 62
     5
 63
     8
421
  8421504
176
     1
 74
     1
176
     1
 91
        4
176
     1
 64
     7
176
     1
 65
   257
176
     1
 75
     1
176
     1
175
     1
176
     1
 42
1.0
176
     1
 92
        8
176
     1
 66
     8
424
  8421504
176
     1
 43
1.0
176
     1
 76
     1
176
     1
 77
     6
176
     1
 78
     2
176
     1
 67
     7
176
     1
 79
     5
176
     1
170
     0
176
     1
171
     0
176
     1
290
     0
176
     1
 93
        1
176
     1
 44
0.0
176
     1
173
     0
176
     1
  0
VISUALSTYLE
  5
34
102
{ACAD_REACTORS
330
2A
102
}
330
2A
100
AcDbVisualStyle
  2
Conceptual
 70
     9
177
     2
291
     0
 71
     3
176
     1
 72
     2
176
     1
 73
     0
176
     1
 90
        0
176
     1
 40
-0.6
176
     1
 41
-30.0
176
     1
 62
     5
 63
     7
421
 16777215
176
     1
 74
     2
176
     1
 91
        2
176
     1
 64
     7
176
     1
 65
   257
176
     1
 75
     1
176
     1
175
     1
176
     1
 42
40.0
176
     1
 92
        8
176
     1
 66
     7
176
     1
 43
1.0
176
     1
 76
     1
176
     1
 77
     6
176
     1
 78
     2
176
     1
 67
     7
176
     1
 79
     3
176
     1
170
     0
176
     1
171
     0
176
     1
290
     0
176
     1
 93
        1
176
     1
 44
0.0
176
     1
173
     0
176
     1
  0
VISUALSTYLE
  5
35
102
{ACAD_REACTORS
330
2A
102
}
330
2A
100
AcDbVisualStyle
  2
Dim
 70
    11
177
     2
291
     1
 71
     2
176
     1
 72
     2
176
     1
 73
     0
176
     1
 90
        0
176
     1
 40
-0.6
176
     1
 41
-30.0
176
     1
 62
     5
 63
     7
421
 16777215
176
     1
 74
     1
176
     1
 91
        4
176
     1
 64
     7
176
     1
 65
   257
176
     1
 75
     1
176
     1
175
     1
176
     1
 42
1.0
176
     1
 92
        8
176
     1
 66
     7
176
     1
 43
1.0
176
     1
 76
     1
176
     1
 77
     6
176
     1
 78
     2
176
     1
 67
     7
176
     1
 79
     5
176
     1
170
     0
176
     1
171
     0
176
     1
290
     0
176
     1
 93
        1
176
     1
 44
-50.0
176
     1
173
     0
176
     1
  0
VISUALSTYLE
  5
39
102
{ACAD_REACTORS
330
2A
102
}
330
2A
100
AcDbVisualStyle
  2
Facepattern
 70
    15
177
     2
291
     1
 71
     2
176
     1
 72
     2
176
     1
 73
     0
176
     1
 90
        0
176
     1
 40
-0.6
176
     1
 41
-30.0
176
     1
 62
     5
 63
     7
421
 16777215
176
     1
 74
     1
176
     1
 91
        4
176
     1
 64
     7
176
     1
 65
   257
176
     1
 75
     1
176
     1
175
     1
176
     1
 42
1.0
176
     1
 92
        8
176
     1
 66
     7
176
     1
 43
1.0
176
     1
 76
     1
176
     1
 77
     6
176
     1
 78
     2
176
     1
 67
     7
176
     1
 79
     5
176
     1
170
     0
176
     1
171
     0
176
     1
290
     0
176
     1
 93
        1
176
     1
 44
0.0
176
     1
173
     0
176
     1
  0
VISUALSTYLE
  5
2B
102
{ACAD_REACTORS
330
2A
102
}
330
2A
100
AcDbVisualStyle
  2
Flat
 70
     0
177
     2
291
     1
 71
     2
176
     1
 72
     1
176
     1
 73
     1
176
     1
 90
        2
176
     1
 40
-0.6
176
     1
 41
30.0
176
     1
 62
     5
 63
     7
421
 16777215
176
     1
 74
     0
176
     1
 91
        4
176
     1
 64
     7
176
     1
 65
   257
176
     1
 75
     1
176
     1
175
     1
176
     1
 42
1.0
176
     1
 92
        8
176
     1
 66
     7
176
     1
 43
1.0
176
     1
 76
     1
176
     1
 77
     6
176
     1
 78
     2
176
     1
 67
     7
176
     1
 79
     5
176
     1
170
     0
176
     1
171
     0
176
     1
290
     0
176
     1
 93
       13
176
     1
 44
0.0
176
     1
173
     0
176
     1
  0
VISUALSTYLE
  5
2C
102
{ACAD_REACTORS
330
2A
102
}
330
2A
100
AcDbVisualStyle
  2
FlatWithEdges
 70
     1
177
     2
291
     1
 71
     2
176
     1
 72
     1
176
     1
 73
     1
176
     1
 90
        2
176
     1
 40
-0.6
176
     1
 41
30.0
176
     1
 62
     5
 63
     7
421
 16777215
176
     1
 74
     1
176
     1
 91
        4
176
     1
 64
     7
176
     1
 65
   257
176
     1
 75
     1
176
     1
175
     1
176
     1
 42
1.0
176
     1
 92
        0
176
     1
 66
   257
176
     1
 43
1.0
176
     1
 76
     1
176
     1
 77
     6
176
     1
 78
     2
176
     1
 67
     7
176
     1
 79
     5
176
     1
170
     0
176
     1
171
     0
176
     1
290
     0
176
     1
 93
       13
176
     1
 44
0.0
176
     1
173
     0
176
     1
  0
VISUALSTYLE
  5
2D
102
{ACAD_REACTORS
330
2A
102
}
330
2A
100
AcDbVisualStyle
  2
Gouraud
 70
     2
177
     2
291
     1
 71
     2
176
     1
 72
     2
176
     1
 73
     1
176
     1
 90
        2
176
     1
 40
-0.6
176
     1
 41
30.0
176
     1
 62
     5
 63
     7
421
 16777215
176
     1
 74
     0
176
     1
 91
        4
176
     1
 64
     7
176
     1
 65
   257
176
     1
 75
     1
176
     1
175
     1
176
     1
 42
1.0
176
     1
 92
        0
176
     1
 66
     7
176
     1
 43
1.0
176
     1
 76
     1
176
     1
 77
     6
176
     1
 78
     2
176
     1
 67
     7
176
     1
 79
     5
176
     1
170
     0
176
     1
171
     0
176
     1
290
     0
176
     1
 93
       13
176
     1
 44
0.0
176
     1
173
     0
176
     1
  0
VISUALSTYLE
  5
2E
102
{ACAD_REACTORS
330
2A
102
}
330
2A
100
AcDbVisualStyle
  2
GouraudWithEdges
 70
     3
177
     2
291
     1
 71
     2
176
     1
 72
     2
176
     1
 73
     1
176
     1
 90
        2
176
     1
 40
-0.6
176
     1
 41
30.0
176
     1
 62
     5
 63
     7
421
 16777215
176
     1
 74
     1
176
     1
 91
        4
176
     1
 64
     7
176
     1
 65
   257
176
     1
 75
     1
176
     1
175
     1
176
     1
 42
1.0
176
     1
 92
        0
176
     1
 66
   257
176
     1
 43
1.0
176
     1
 76
     1
176
     1
 77
     6
176
     1
 78
     2
176
     1
 67
     7
176
     1
 79
     5
176
     1
170
     0
176
     1
171
     0
176
     1
290
     0
176
     1
 93
       13
176
     1
 44
0.0
176
     1
173
     0
176
     1
  0
VISUALSTYLE
  5
38
102
{ACAD_REACTORS
330
2A
102
}
330
2A
100
AcDbVisualStyle
  2
Linepattern
 70
    14
177
     2
291
     1
 71
     2
176
     1
 72
     2
176
     1
 73
     0
176
     1
 90
        0
176
     1
 40
-0.6
176
     1
 41
-30.0
176
     1
 62
     5
 63
     7
421
 16777215
176
     1
 74
     1
176
     1
 91
        4
176
     1
 64
     7
176
     1
 65
   257
176
     1
 75
     7
176
     1
175
     7
176
     1
 42
1.0
176
     1
 92
        8
176
     1
 66
     7
176
     1
 43
1.0
176
     1
 76
     1
176
     1
 77
     6
176
     1
 78
     2
176
     1
 67
     7
176
     1
 79
     5
176
     1
170
     0
176
     1
171
     0
176
     1
290
     0
176
     1
 93
        1
176
     1
 44
0.0
176
     1
173
     0
176
     1
  0
VISUALSTYLE
  5
33
102
{ACAD_REACTORS
330
2A
102
}
330
2A
100
AcDbVisualStyle
  2
Realistic
 70
     8
177
     2
291
     0
 71
     2
176
     1
 72
     2
176
     1
 73
     0
176
     1
 90
        0
176
     1
 40
-0.6
176
     1
 41
-30.0
176
     1
 62
     5
 63
     7
421
 16777215
176
     1
 74
     1
176
     1
 91
        0
176
     1
 64
     7
176
     1
 65
   257
176
     1
 75
     1
176
     1
175
     1
176
     1
 42
1.0
176
     1
 92
        8
176
     1
 66
     8
424
  7895160
176
     1
 43
1.0
176
     1
 76
     1
176
     1
 77
     6
176
     1
 78
     2
176
     1
 67
     7
176
     1
 79
     5
176
     1
170
     0
176
     1
171
     0
176
     1
290
     0
176
     1
 93
       13
176
     1
 44
0.0
176
     1
173
     0
176
     1
  0
VISUALSTYLE
  5
37
102
{ACAD_REACTORS
330
2A
102
}
330
2A
100
AcDbVisualStyle
  2
Thicken
 70
    13
177
     2
291
     1
 71
     2
176
     1
 72
     2
176
     1
 73
     0
176
     1
 90
        0
176
     1
 40
-0.6
176
     1
 41
-30.0
176
     1
 62
     5
 63
     7
421
 16777215
176
     1
 74
     1
176
     1
 91
        4
176
     1
 64
     7
176
     1
 65
   257
176
     1
 75
     1
176
     1
175
     1
176
     1
 42
1.0
176
     1
 92
       12
176
     1
 66
     7
176
     1
 43
1.0
176
     1
 76
     1
176
     1
 77
     6
176
     1
 78
     2
176
     1
 67
     7
176
     1
 79
     5
176
     1
170
     0
176
     1
171
     0
176
     1
290
     0
176
     1
 93
        1
176
     1
 44
0.0
176
     1
173
     0
176
     1
  0
ENDSEC
  0
EOF
