  0
SECTION
  2
HEADER
  9
$ACADVER
  1
AC1024
  9
$ACADMAINTVER
 70
     6
  9
$DWGCODEPAGE
  3
UNDEFINED
  9
$INSBASE
 10
0.0
 20
0.0
 30
0.0
  9
$EXTMIN
 10
1.000000000000000E+20
 20
1.000000000000000E+20
 30
1.000000000000000E+20
  9
$EXTMAX
 10
-1.000000000000000E+20
 20
-1.000000000000000E+20
 30
-1.000000000000000E+20
  9
$LIMMIN
 10
0.0
 20
0.0
  9
$LIMMAX
 10
12.0
 20
9.0
  9
$ORTHOMODE
 70
     0
  9
$REGENMODE
 70
     1
  9
$FILLMODE
 70
     1
  9
$QTEXTMODE
 70
     0
  9
$MIRRTEXT
 70
     1
  9
$LTSCALE
 40
1.0
  9
$ATTMODE
 70
     1
  9
$TEXTSIZE
 40
0.2
  9
$TRACEWID
 40
0.05
  9
$TEXTSTYLE
  7
Standard
  9
$CLAYER
  8
0
  9
$CELTYPE
  6
ByLayer
  9
$CECOLOR
 62
   256
  9
$CELTSCALE
 40
1.0
  9
$DISPSILH
 70
     0
  9
$DIMSCALE
 40
1.0
  9
$DIMASZ
 40
0.18
  9
$DIMEXO
 40
0.0625
  9
$DIMDLI
 40
0.38
  9
$DIMRND
 40
0.0
  9
$DIMDLE
 40
0.0
  9
$DIMEXE
 40
0.18
  9
$DIMTP
 40
0.0
  9
$DIMTM
 40
0.0
  9
$DIMTXT
 40
0.18
  9
$DIMCEN
 40
0.09
  9
$DIMTSZ
 40
0.0
  9
$DIMTOL
 70
     0
  9
$DIMLIM
 70
     0
  9
$DIMTIH
 70
     1
  9
$DIMTOH
 70
     1
  9
$DIMSE1
 70
     0
  9
$DIMSE2
 70
     0
  9
$DIMTAD
 70
     0
  9
$DIMZIN
 70
     0
  9
$DIMBLK
  1

  9
$DIMASO
 70
     1
  9
$DIMSHO
 70
     1
  9
$DIMPOST
  1

  9
$DIMAPOST
  1

  9
$DIMALT
 70
     0
  9
$DIMALTD
 70
     2
  9
$DIMALTF
 40
25.4
  9
$DIMLFAC
 40
1.0
  9
$DIMTOFL
 70
     0
  9
$DIMTVP
 40
0.0
  9
$DIMTIX
 70
     0
  9
$DIMSOXD
 70
     0
  9
$DIMSAH
 70
     0
  9
$DIMBLK1
  1

  9
$DIMBLK2
  1

  9
$DIMSTYLE
  2
Standard
  9
$DIMCLRD
 70
     0
  9
$DIMCLRE
 70
     0
  9
$DIMCLRT
 70
     0
  9
$DIMTFAC
 40
1.0
  9
$DIMGAP
 40
0.09
  9
$DIMJUST
 70
     0
  9
$DIMSD1
 70
     0
  9
$DIMSD2
 70
     0
  9
$DIMTOLJ
 70
     1
  9
$DIMTZIN
 70
     0
  9
$DIMALTZ
 70
     0
  9
$DIMALTTZ
 70
     0
  9
$DIMUPT
 70
     0
  9
$DIMDEC
 70
     4
  9
$DIMTDEC
 70
     4
  9
$DIMALTU
 70
     2
  9
$DIMALTTD
 70
     2
  9
$DIMTXSTY
  7
Standard
  9
$DIMAUNIT
 70
     0
  9
$DIMADEC
 70
     0
  9
$DIMALTRND
 40
0.0
  9
$DIMAZIN
 70
     0
  9
$DIMDSEP
 70
    46
  9
$DIMATFIT
 70
     3
  9
$DIMFRAC
 70
     0
  9
$DIMLDRBLK
  1

  9
$DIMLUNIT
 70
     2
  9
$DIMLWD
 70
    -2
  9
$DIMLWE
 70
    -2
  9
$DIMTMOVE
 70
     0
  9
$DIMFXL
 40
1.0
  9
$DIMFXLON
 70
     0
  9
$DIMJOGANG
 40
0.7853981633974483
  9
$DIMTFILL
 70
     0
  9
$DIMTFILLCLR
 70
     0
  9
$DIMARCSYM
 70
     0
  9
$DIMLTYPE
  6

  9
$DIMLTEX1
  6

  9
$DIMLTEX2
  6

  9
$DIMTXTDIRECTION
 70
     0
  9
$LUNITS
 70
     2
  9
$LUPREC
 70
     4
  9
$SKETCHINC
 40
0.1
  9
$FILLETRAD
 40
0.5
  9
$AUNITS
 70
     0
  9
$AUPREC
 70
     0
  9
$MENU
  1
.
  9
$ELEVATION
 40
0.0
  9
$PELEVATION
 40
0.0
  9
$THICKNESS
 40
0.0
  9
$LIMCHECK
 70
     0
  9
$CHAMFERA
 40
0.5
  9
$CHAMFERB
 40
0.5
  9
$CHAMFERC
 40
1.0
  9
$CHAMFERD
 40
0.0
  9
$SKPOLY
 70
     0
  9
$TDCREATE
 40
2457917.611701377
  9
$TDUCREATE
 40
2457917.236701389
  9
$TDUPDATE
 40
2457917.611701377
  9
$TDUUPDATE
 40
2457917.236701389
  9
$TDINDWG
 40
0.0000000116
  9
$TDUSRTIMER
 40
0.0000000116
  9
$USRTIMER
 70
     1
  9
$ANGBASE
 50
0.0
  9
$ANGDIR
 70
     0
  9
$PDMODE
 70
     0
  9
$PDSIZE
 40
0.0
  9
$PLINEWID
 40
0.0
  9
$SPLFRAME
 70
     0
  9
$SPLINETYPE
 70
     6
  9
$SPLINESEGS
 70
     8
  9
$HANDSEED
  5
12C
  9
$SURFTAB1
 70
     6
  9
$SURFTAB2
 70
     6
  9
$SURFTYPE
 70
     6
  9
$SURFU
 70
     6
  9
$SURFV
 70
     6
  9
$UCSBASE
  2

  9
$UCSNAME
  2

  9
$UCSORG
 10
0.0
 20
0.0
 30
0.0
  9
$UCSXDIR
 10
1.0
 20
0.0
 30
0.0
  9
$UCSYDIR
 10
0.0
 20
1.0
 30
0.0
  9
$UCSORTHOREF
  2

  9
$UCSORTHOVIEW
 70
     0
  9
$UCSORGTOP
 10
0.0
 20
0.0
 30
0.0
  9
$UCSORGBOTTOM
 10
0.0
 20
0.0
 30
0.0
  9
$UCSORGLEFT
 10
0.0
 20
0.0
 30
0.0
  9
$UCSORGRIGHT
 10
0.0
 20
0.0
 30
0.0
  9
$UCSORGFRONT
 10
0.0
 20
0.0
 30
0.0
  9
$UCSORGBACK
 10
0.0
 20
0.0
 30
0.0
  9
$PUCSBASE
  2

  9
$PUCSNAME
  2

  9
$PUCSORG
 10
0.0
 20
0.0
 30
0.0
  9
$PUCSXDIR
 10
1.0
 20
0.0
 30
0.0
  9
$PUCSYDIR
 10
0.0
 20
1.0
 30
0.0
  9
$PUCSORTHOREF
  2

  9
$PUCSORTHOVIEW
 70
     0
  9
$PUCSORGTOP
 10
0.0
 20
0.0
 30
0.0
  9
$PUCSORGBOTTOM
 10
0.0
 20
0.0
 30
0.0
  9
$PUCSORGLEFT
 10
0.0
 20
0.0
 30
0.0
  9
$PUCSORGRIGHT
 10
0.0
 20
0.0
 30
0.0
  9
$PUCSORGFRONT
 10
0.0
 20
0.0
 30
0.0
  9
$PUCSORGBACK
 10
0.0
 20
0.0
 30
0.0
  9
$USERI1
 70
     0
  9
$USERI2
 70
     0
  9
$USERI3
 70
     0
  9
$USERI4
 70
     0
  9
$USERI5
 70
     0
  9
$USERR1
 40
0.0
  9
$USERR2
 40
0.0
  9
$USERR3
 40
0.0
  9
$USERR4
 40
0.0
  9
$USERR5
 40
0.0
  9
$WORLDVIEW
 70
     1
  9
$SHADEDGE
 70
     3
  9
$SHADEDIF
 70
    70
  9
$TILEMODE
 70
     1
  9
$MAXACTVP
 70
    64
  9
$PINSBASE
 10
0.0
 20
0.0
 30
0.0
  9
$PLIMCHECK
 70
     0
  9
$PEXTMIN
 10
1.000000000000000E+20
 20
1.000000000000000E+20
 30
1.000000000000000E+20
  9
$PEXTMAX
 10
-1.000000000000000E+20
 20
-1.000000000000000E+20
 30
-1.000000000000000E+20
  9
$PLIMMIN
 10
0.0
 20
0.0
  9
$PLIMMAX
 10
12.0
 20
9.0
  9
$UNITMODE
 70
     0
  9
$VISRETAIN
 70
     1
  9
$PLINEGEN
 70
     0
  9
$PSLTSCALE
 70
     1
  9
$TREEDEPTH
 70
  3020
  9
$CMLSTYLE
  2
Standard
  9
$CMLJUST
 70
     0
  9
$CMLSCALE
 40
1.0
  9
$PROXYGRAPHICS
 70
     1
  9
$MEASUREMENT
 70
     0
  9
$CELWEIGHT
370
    -1
  9
$ENDCAPS
280
     0
  9
$JOINSTYLE
280
     0
  9
$LWDISPLAY
290
     1
  9
$INSUNITS
 70
     1
  9
$HYPERLINKBASE
  1

  9
$STYLESHEET
  1

  9
$XEDIT
290
     1
  9
$CEPSNTYPE
380
     0
  9
$PSTYLEMODE
290
     1
  9
$FINGERPRINTGUID
  2
{0B768422-3758-6B91-A806-DFF5F58F973F}
  9
$VERSIONGUID
  2
{FAEB1C32-E019-11D5-929B-00C0DF256EC4}
  9
$EXTNAMES
290
     1
  9
$PSVPSCALE
 40
0.0
  9
$OLESTARTUP
290
     0
  9
$SORTENTS
280
   127
  9
$INDEXCTL
280
     0
  9
$HIDETEXT
280
     1
  9
$XCLIPFRAME
280
     2
  9
$HALOGAP
280
     0
  9
$OBSCOLOR
 70
   257
  9
$OBSLTYPE
280
     0
  9
$INTERSECTIONDISPLAY
280
     0
  9
$INTERSECTIONCOLOR
 70
   257
  9
$DIMASSOC
280
     2
  9
$PROJECTNAME
  1

  9
$CAMERADISPLAY
290
     0
  9
$LENSLENGTH
 40
50.0
  9
$CAMERAHEIGHT
 40
0.0
  9
$STEPSPERSEC
 40
2.0
  9
$STEPSIZE
 40
6.0
  9
$3DDWFPREC
 40
2.0
  9
$PSOLWIDTH
 40
0.25
  9
$PSOLHEIGHT
 40
4.0
  9
$LOFTANG1
 40
1.570796326794897
  9
$LOFTANG2
 40
1.570796326794897
  9
$LOFTMAG1
 40
0.0
  9
$LOFTMAG2
 40
0.0
  9
$LOFTPARAM
 70
     7
  9
$LOFTNORMALS
280
     1
  9
$LATITUDE
 40
37.795
  9
$LONGITUDE
 40
-122.394
  9
$NORTHDIRECTION
 40
0.0
  9
$TIMEZONE
 70
 -8000
  9
$LIGHTGLYPHDISPLAY
280
     1
  9
$TILEMODELIGHTSYNCH
280
     1
  9
$CMATERIAL
347
3C
  9
$SOLIDHIST
280
     1
  9
$SHOWHIST
280
     1
  9
$DWFFRAME
280
     2
  9
$DGNFRAME
280
     2
  9
$REALWORLDSCALE
290
     1
  9
$INTERFERECOLOR
 62
   256
  9
$CSHADOW
280
     0
  9
$SHADOWPLANELOCATION
 40
0.0
  0
ENDSEC
  0
SECTION
  2
CLASSES
  0
CLASS
  1
ACDBDICTIONARYWDFLT
  2
AcDbDictionaryWithDefault
  3
ObjectDBX Classes
 90
        0
 91
        4
280
     0
281
     0
  0
CLASS
  1
VISUALSTYLE
  2
AcDbVisualStyle
  3
ObjectDBX Classes
 90
     4095
 91
        4
280
     0
281
     0
  0
CLASS
  1
MATERIAL
  2
AcDbMaterial
  3
ObjectDBX Classes
 90
     1153
 91
        4
280
     0
281
     0
  0
CLASS
  1
SUN
  2
AcDbSun
  3
SCENEOE
 90
     1024
 91
        4
280
     0
281
     0
  0
ENDSEC
  0
SECTION
  2
TABLES
  0
TABLE
  2
VPORT
  5
8
330
0
100
AcDbSymbolTable
 70
     1
  0
VPORT
  5
29
330
8
100
AcDbSymbolTableRecord
100
AcDbViewportTableRecord
  2
*Active
 70
     0
 10
0.0
 20
0.0
 11
1.0
 21
1.0
 12
0.0
 22
0.0
 13
0.0
 23
0.0
 14
0.5
 24
0.5
 15
0.5
 25
0.5
 16
0.0
 26
0.0
 36
1.0
 17
91.00082462281999
 27
-128.4993055234307
 37
0.0
 40
256.9986110468615
 41
0.7081814508812795
 42
50.0
 43
0.0
 44
0.0
 50
0.0
 51
0.0
 71
     0
 72
   100
 73
     1
 74
     3
 75
     0
 76
     0
 77
     0
 78
     0
281
     0
 65
     1
110
0.0
120
0.0
130
0.0
111
1.0
121
0.0
131
0.0
112
0.0
122
1.0
132
0.0
 79
     0
146
0.0
 60
     3
 61
     5
292
     1
282
     1
141
0.0
142
0.0
 63
   250
361
3F
  0
ENDTAB
  0
TABLE
  2
LTYPE
  5
5
330
0
100
AcDbSymbolTable
 70
     1
  0
LTYPE
  5
14
330
5
100
AcDbSymbolTableRecord
100
AcDbLinetypeTableRecord
  2
ByBlock
 70
     0
  3

 72
    65
 73
     0
 40
0.0
  0
LTYPE
  5
15
330
5
100
AcDbSymbolTableRecord
100
AcDbLinetypeTableRecord
  2
ByLayer
 70
     0
  3

 72
    65
 73
     0
 40
0.0
  0
LTYPE
  5
16
330
5
100
AcDbSymbolTableRecord
100
AcDbLinetypeTableRecord
  2
Continuous
 70
     0
  3
Solid line
 72
    65
 73
     0
 40
0.0
  0
ENDTAB
  0
TABLE
  2
LAYER
  5
2
330
0
100
AcDbSymbolTable
 70
     2
  0
LAYER
  5
10
330
2
100
AcDbSymbolTableRecord
100
AcDbLayerTableRecord
  2
0
 70
     0
 62
     7
  6
Continuous
370
    -3
390
F
347
3E
  0
LAYER
  5
40
330
2
100
AcDbSymbolTableRecord
100
AcDbLayerTableRecord
  2
_U+30EC_U+30A4_U+30E4_U+30FC 1
 70
     0
 62
     7
  6
Continuous
370
    -3
390
F
347
3E
  0
ENDTAB
  0
TABLE
  2
STYLE
  5
3
330
0
100
AcDbSymbolTable
 70
     1
  0
STYLE
  5
11
330
3
100
AcDbSymbolTableRecord
100
AcDbTextStyleTableRecord
  2
Standard
 70
     0
 40
0.0
 41
1.0
 50
0.0
 71
     0
 42
0.2
  3
txt
  4

  0
ENDTAB
  0
TABLE
  2
VIEW
  5
6
330
0
100
AcDbSymbolTable
 70
     0
  0
ENDTAB
  0
TABLE
  2
UCS
  5
7
330
0
100
AcDbSymbolTable
 70
     0
  0
ENDTAB
  0
TABLE
  2
APPID
  5
9
330
0
100
AcDbSymbolTable
 70
     1
  0
APPID
  5
12
330
9
100
AcDbSymbolTableRecord
100
AcDbRegAppTableRecord
  2
ACAD
 70
     0
  0
ENDTAB
  0
TABLE
  2
DIMSTYLE
  5
A
330
0
100
AcDbSymbolTable
 70
     1
100
AcDbDimStyleTable
  0
DIMSTYLE
105
27
330
A
100
AcDbSymbolTableRecord
100
AcDbDimStyleTableRecord
  2
Standard
 70
     0
178
     0
340
11
  0
ENDTAB
  0
TABLE
  2
BLOCK_RECORD
  5
1
330
0
100
AcDbSymbolTable
 70
     4
  0
BLOCK_RECORD
  5
1F
330
1
100
AcDbSymbolTableRecord
100
AcDbBlockTableRecord
  2
*Model_Space
340
22
 70
     0
280
     1
281
     0
  0
BLOCK_RECORD
  5
1B
330
1
100
AcDbSymbolTableRecord
100
AcDbBlockTableRecord
  2
*Paper_Space
340
1E
 70
     0
280
     1
281
     0
  0
BLOCK_RECORD
  5
23
330
1
100
AcDbSymbolTableRecord
100
AcDbBlockTableRecord
  2
*Paper_Space0
340
26
 70
     0
280
     1
281
     0
  0
BLOCK_RECORD
  5
41
330
1
100
AcDbSymbolTableRecord
100
AcDbBlockTableRecord
  2
block 2
340
0
102
{BLKREFS
331
42
102
}
 70
     0
280
     1
281
     0
  0
BLOCK_RECORD
  5
82
330
1
100
AcDbSymbolTableRecord
100
AcDbBlockTableRecord
  2
block 3
340
0
102
{BLKREFS
331
83
102
}
 70
     0
280
     1
281
     0
  0
BLOCK_RECORD
  5
AF
330
1
100
AcDbSymbolTableRecord
100
AcDbBlockTableRecord
  2
block 4
340
0
102
{BLKREFS
331
B0
102
}
 70
     0
280
     1
281
     0
  0
ENDTAB
  0
ENDSEC
  0
SECTION
  2
BLOCKS
  0
BLOCK
  5
20
330
1F
100
AcDbEntity
  8
0
100
AcDbBlockBegin
  2
*Model_Space
 70
     0
 10
0.0
 20
0.0
 30
0.0
  3
*Model_Space
  1

  0
ENDBLK
  5
21
330
1F
100
AcDbEntity
  8
0
100
AcDbBlockEnd
  0
BLOCK
  5
1C
330
1B
100
AcDbEntity
 67
     1
  8
0
100
AcDbBlockBegin
  2
*Paper_Space
 70
     0
 10
0.0
 20
0.0
 30
0.0
  3
*Paper_Space
  1

  0
ENDBLK
  5
1D
330
1B
100
AcDbEntity
 67
     1
  8
0
100
AcDbBlockEnd
  0
BLOCK
  5
24
330
23
100
AcDbEntity
  8
0
100
AcDbBlockBegin
  2
*Paper_Space0
 70
     0
 10
0.0
 20
0.0
 30
0.0
  3
*Paper_Space0
  1

  0
ENDBLK
  5
25
330
23
100
AcDbEntity
  8
0
100
AcDbBlockEnd
  0
BLOCK
  5
43
330
41
100
AcDbEntity
  8
0
100
AcDbBlockBegin
  2
block 2
 70
     0
 10
0.0
 20
0.0
 30
0.0
  3
block 2
  1

  0
SPLINE
  5
45
330
41
100
AcDbEntity
  8
_U+30EC_U+30A4_U+30E4_U+30FC 1
370
     0
100
AcDbSpline
210
0.0
220
0.0
230
1.0
 70
    11
 71
     3
 72
    38
 73
    34
 74
     0
 42
0.0000000001
 43
0.0000000001
 12
1.0
 22
0.0
 32
0.0
 13
1.0
 23
0.0
 33
0.0
 40
0.0
 40
0.0
 40
0.0
 40
0.0
 40
1.0
 40
1.0
 40
1.0
 40
2.0
 40
2.0
 40
2.0
 40
3.0
 40
3.0
 40
3.0
 40
4.0
 40
4.0
 40
4.0
 40
5.0
 40
5.0
 40
5.0
 40
6.0
 40
6.0
 40
6.0
 40
7.0
 40
7.0
 40
7.0
 40
8.0
 40
8.0
 40
8.0
 40
9.0
 40
9.0
 40
9.0
 40
10.0
 40
10.0
 40
10.0
 40
11.0
 40
11.0
 40
11.0
 40
11.0
 10
93.85783689059805
 20
-118.2938991674751
 30
0.0
 10
93.85783689059805
 20
-117.8284667674179
 30
0.0
 10
94.22163897384043
 20
-117.5533758929207
 30
0.0
 10
94.69120548847998
 20
-117.5533758929207
 30
0.0
 10
95.21589353088353
 20
-117.5533758929207
 30
0.0
 10
95.50149194661074
 20
-117.896162893703
 30
0.0
 10
95.50149194661074
 20
-118.3044067087052
 30
0.0
 10
95.50149194661074
 20
-118.6492607667787
 30
0.0
 10
95.31304522356757
 20
-118.926418698567
 30
0.0
 10
94.99575192937607
 20
-118.9476060358013
 30
0.0
 10
94.99575192937607
 20
-118.9476060358013
 30
0.0
 10
94.99575192937607
 20
-118.7169568930638
 30
0.0
 10
94.99575192937607
 20
-118.7169568930638
 30
0.0
 10
95.20314667758811
 20
-118.6788885879518
 30
0.0
 10
95.2858289692341
 20
-118.4589192412186
 30
0.0
 10
95.2858289692341
 20
-118.2980332820574
 30
0.0
 10
95.2858289692341
 20
-118.1945081627257
 30
0.0
 10
95.25378958122128
 20
-118.0780639353242
 30
0.0
 10
95.17765297099726
 20
-117.9850463572225
 30
0.0
 10
95.05087345714007
 20
-117.8241603980613
 30
0.0
 10
94.83521047976342
 20
-117.7945325768882
 30
0.0
 10
94.67639157789341
 20
-117.7945325768882
 30
0.0
 10
94.236452884427
 20
-117.7945325768882
 30
0.0
 10
94.07556692526583
 20
-118.0739298207419
 30
0.0
 10
94.07556692526583
 20
-118.2895927981186
 30
0.0
 10
94.07556692526583
 20
-118.4272243627543
 30
0.0
 10
94.15583765007216
 20
-118.6980088678949
 30
0.0
 10
94.47347545381218
 20
-118.7297037463592
 30
0.0
 10
94.47347545381218
 20
-118.7297037463592
 30
0.0
 10
94.47347545381218
 20
-118.9601806343225
 30
0.0
 10
94.47347545381218
 20
-118.9601806343225
 30
0.0
 10
94.33808320124187
 20
-118.9476060358013
 30
0.0
 10
93.85783689059805
 20
-118.898857934685
 30
0.0
 10
93.85783689059805
 20
-118.2938991674751
 30
0.0
  0
HATCH
  5
46
330
41
100
AcDbEntity
  8
_U+30EC_U+30A4_U+30E4_U+30FC 1
 62
   179
420
  2234388
100
AcDbHatch
 10
0.0
 20
0.0
 30
0.0
210
0.0
220
0.0
230
1.0
  2
SOLID
 70
     1
 71
     0
 91
        1
 92
        1
 93
        1
 72
     4
 94
        3
 73
     0
 74
     1
 95
       38
 96
       34
 40
0.0
 40
0.0
 40
0.0
 40
0.0
 40
1.0
 40
1.0
 40
1.0
 40
2.0
 40
2.0
 40
2.0
 40
3.0
 40
3.0
 40
3.0
 40
4.0
 40
4.0
 40
4.0
 40
5.0
 40
5.0
 40
5.0
 40
6.0
 40
6.0
 40
6.0
 40
7.0
 40
7.0
 40
7.0
 40
8.0
 40
8.0
 40
8.0
 40
9.0
 40
9.0
 40
9.0
 40
10.0
 40
10.0
 40
10.0
 40
11.0
 40
11.0
 40
11.0
 40
11.0
 10
93.85783689059805
 20
-118.2938991674751
 10
93.85783689059805
 20
-117.8284667674179
 10
94.22163897384043
 20
-117.5533758929207
 10
94.69120548847998
 20
-117.5533758929207
 10
95.21589353088353
 20
-117.5533758929207
 10
95.50149194661074
 20
-117.896162893703
 10
95.50149194661074
 20
-118.3044067087052
 10
95.50149194661074
 20
-118.6492607667787
 10
95.31304522356757
 20
-118.926418698567
 10
94.99575192937607
 20
-118.9476060358013
 10
94.99575192937607
 20
-118.9476060358013
 10
94.99575192937607
 20
-118.7169568930638
 10
94.99575192937607
 20
-118.7169568930638
 10
95.20314667758811
 20
-118.6788885879518
 10
95.2858289692341
 20
-118.4589192412186
 10
95.2858289692341
 20
-118.2980332820574
 10
95.2858289692341
 20
-118.1945081627257
 10
95.25378958122128
 20
-118.0780639353242
 10
95.17765297099726
 20
-117.9850463572225
 10
95.05087345714007
 20
-117.8241603980613
 10
94.83521047976342
 20
-117.7945325768882
 10
94.67639157789341
 20
-117.7945325768882
 10
94.236452884427
 20
-117.7945325768882
 10
94.07556692526583
 20
-118.0739298207419
 10
94.07556692526583
 20
-118.2895927981186
 10
94.07556692526583
 20
-118.4272243627543
 10
94.15583765007216
 20
-118.6980088678949
 10
94.47347545381218
 20
-118.7297037463592
 10
94.47347545381218
 20
-118.7297037463592
 10
94.47347545381218
 20
-118.9601806343225
 10
94.47347545381218
 20
-118.9601806343225
 10
94.33808320124187
 20
-118.9476060358013
 10
93.85783689059805
 20
-118.898857934685
 10
93.85783689059805
 20
-118.2938991674751
 97
        0
 97
        0
 75
     2
 76
     1
 98
        0
  0
SPLINE
  5
47
330
41
100
AcDbEntity
  8
_U+30EC_U+30A4_U+30E4_U+30FC 1
370
     0
100
AcDbSpline
210
0.0
220
0.0
230
1.0
 70
    11
 71
     3
 72
    44
 73
    40
 74
     0
 42
0.0000000001
 43
0.0000000001
 12
1.0
 22
0.0
 32
0.0
 13
1.0
 23
0.0
 33
0.0
 40
0.0
 40
0.0
 40
0.0
 40
0.0
 40
1.0
 40
1.0
 40
1.0
 40
2.0
 40
2.0
 40
2.0
 40
3.0
 40
3.0
 40
3.0
 40
4.0
 40
4.0
 40
4.0
 40
5.0
 40
5.0
 40
5.0
 40
6.0
 40
6.0
 40
6.0
 40
7.0
 40
7.0
 40
7.0
 40
8.0
 40
8.0
 40
8.0
 40
9.0
 40
9.0
 40
9.0
 40
10.0
 40
10.0
 40
10.0
 40
11.0
 40
11.0
 40
11.0
 40
12.0
 40
12.0
 40
12.0
 40
13.0
 40
13.0
 40
13.0
 40
13.0
 10
93.90847979423121
 20
-120.1690646400966
 30
0.0
 10
93.95292152599094
 20
-120.1456379907969
 30
0.0
 10
94.00563148691526
 20
-120.1246229083369
 30
0.0
 10
94.236452884427
 20
-120.1223835962715
 30
0.0
 10
94.47967662568564
 20
-120.1182494816892
 30
0.0
 10
94.54961206403621
 20
-120.0589938393429
 30
0.0
 10
94.54961206403621
 20
-119.881226912304
 30
0.0
 10
94.54961206403621
 20
-119.881226912304
 30
0.0
 10
94.54961206403621
 20
-119.4729830973019
 30
0.0
 10
94.54961206403621
 20
-119.4729830973019
 30
0.0
 10
94.54961206403621
 20
-119.4729830973019
 30
0.0
 10
93.90847979423121
 20
-119.4729830973019
 30
0.0
 10
93.90847979423121
 20
-119.4729830973019
 30
0.0
 10
93.90847979423121
 20
-119.4729830973019
 30
0.0
 10
93.90847979423121
 20
-119.2381998399821
 30
0.0
 10
93.90847979423121
 20
-119.2381998399821
 30
0.0
 10
93.90847979423121
 20
-119.2381998399821
 30
0.0
 10
95.45291610026872
 20
-119.2381998399821
 30
0.0
 10
95.45291610026872
 20
-119.2381998399821
 30
0.0
 10
95.45291610026872
 20
-119.2381998399821
 30
0.0
 10
95.45291610026872
 20
-119.9130940455426
 30
0.0
 10
95.45291610026872
 20
-119.9130940455426
 30
0.0
 10
95.45291610026872
 20
-120.2197075437298
 30
0.0
 10
95.28135034510328
 20
-120.3867946747644
 30
0.0
 10
95.02537975054922
 20
-120.3867946747644
 30
0.0
 10
94.97473684691604
 20
-120.3867946747644
 30
0.0
 10
94.89205455527005
 20
-120.3783541908256
 30
0.0
 10
94.81178383046372
 20
-120.3339124590658
 30
0.0
 10
94.7080864563577
 20
-120.2748290714938
 30
0.0
 10
94.68913843118884
 20
-120.2092000024998
 30
0.0
 10
94.67225746331111
 20
-120.1478773028623
 30
0.0
 10
94.62988278884254
 20
-120.2853366127238
 30
0.0
 10
94.5813069425005
 20
-120.353032739009
 30
0.0
 10
94.26608070560015
 20
-120.3573391083655
 30
0.0
 10
93.9952962004595
 20
-120.3614732229478
 30
0.0
 10
93.96360132199521
 20
-120.3974744707687
 30
0.0
 10
93.90847979423121
 20
-120.4651705970539
 30
0.0
 10
93.90847979423121
 20
-120.4651705970539
 30
0.0
 10
93.90847979423121
 20
-120.1690646400966
 30
0.0
 10
93.90847979423121
 20
-120.1690646400966
 30
0.0
  0
SPLINE
  5
48
330
41
100
AcDbEntity
  8
_U+30EC_U+30A4_U+30E4_U+30FC 1
370
     0
100
AcDbSpline
210
0.0
220
0.0
230
1.0
 70
    11
 71
     3
 72
    20
 73
    16
 74
     0
 42
0.0000000001
 43
0.0000000001
 12
1.0
 22
0.0
 32
0.0
 13
1.0
 23
0.0
 33
0.0
 40
0.0
 40
0.0
 40
0.0
 40
0.0
 40
1.0
 40
1.0
 40
1.0
 40
2.0
 40
2.0
 40
2.0
 40
3.0
 40
3.0
 40
3.0
 40
4.0
 40
4.0
 40
4.0
 40
5.0
 40
5.0
 40
5.0
 40
5.0
 10
95.24138723747438
 20
-119.9172281601249
 30
0.0
 10
95.24138723747438
 20
-119.9172281601249
 30
0.0
 10
95.24138723747438
 20
-119.4729830973019
 30
0.0
 10
95.24138723747438
 20
-119.4729830973019
 30
0.0
 10
95.24138723747438
 20
-119.4729830973019
 30
0.0
 10
94.76114092683055
 20
-119.4729830973019
 30
0.0
 10
94.76114092683055
 20
-119.4729830973019
 30
0.0
 10
94.76114092683055
 20
-119.4729830973019
 30
0.0
 10
94.76114092683055
 20
-119.9151611028337
 30
0.0
 10
94.76114092683055
 20
-119.9151611028337
 30
0.0
 10
94.76114092683055
 20
-120.0145521075832
 30
0.0
 10
94.83727753705458
 20
-120.1499443601535
 30
0.0
 10
95.0084987826715
 20
-120.1499443601535
 30
0.0
 10
95.08670245018666
 20
-120.1499443601535
 30
0.0
 10
95.24138723747438
 20
-120.1160101696238
 30
0.0
 10
95.24138723747438
 20
-119.9172281601249
 30
0.0
  0
HATCH
  5
49
330
41
100
AcDbEntity
  8
_U+30EC_U+30A4_U+30E4_U+30FC 1
 62
   179
420
  2234388
100
AcDbHatch
 10
0.0
 20
0.0
 30
0.0
210
0.0
220
0.0
230
1.0
  2
SOLID
 70
     1
 71
     0
 91
        2
 92
        1
 93
        1
 72
     4
 94
        3
 73
     0
 74
     1
 95
       44
 96
       40
 40
0.0
 40
0.0
 40
0.0
 40
0.0
 40
1.0
 40
1.0
 40
1.0
 40
2.0
 40
2.0
 40
2.0
 40
3.0
 40
3.0
 40
3.0
 40
4.0
 40
4.0
 40
4.0
 40
5.0
 40
5.0
 40
5.0
 40
6.0
 40
6.0
 40
6.0
 40
7.0
 40
7.0
 40
7.0
 40
8.0
 40
8.0
 40
8.0
 40
9.0
 40
9.0
 40
9.0
 40
10.0
 40
10.0
 40
10.0
 40
11.0
 40
11.0
 40
11.0
 40
12.0
 40
12.0
 40
12.0
 40
13.0
 40
13.0
 40
13.0
 40
13.0
 10
93.90847979423121
 20
-120.1690646400966
 10
93.95292152599094
 20
-120.1456379907969
 10
94.00563148691526
 20
-120.1246229083369
 10
94.236452884427
 20
-120.1223835962715
 10
94.47967662568564
 20
-120.1182494816892
 10
94.54961206403621
 20
-120.0589938393429
 10
94.54961206403621
 20
-119.881226912304
 10
94.54961206403621
 20
-119.881226912304
 10
94.54961206403621
 20
-119.4729830973019
 10
94.54961206403621
 20
-119.4729830973019
 10
94.54961206403621
 20
-119.4729830973019
 10
93.90847979423121
 20
-119.4729830973019
 10
93.90847979423121
 20
-119.4729830973019
 10
93.90847979423121
 20
-119.4729830973019
 10
93.90847979423121
 20
-119.2381998399821
 10
93.90847979423121
 20
-119.2381998399821
 10
93.90847979423121
 20
-119.2381998399821
 10
95.45291610026872
 20
-119.2381998399821
 10
95.45291610026872
 20
-119.2381998399821
 10
95.45291610026872
 20
-119.2381998399821
 10
95.45291610026872
 20
-119.9130940455426
 10
95.45291610026872
 20
-119.9130940455426
 10
95.45291610026872
 20
-120.2197075437298
 10
95.28135034510328
 20
-120.3867946747644
 10
95.02537975054922
 20
-120.3867946747644
 10
94.97473684691604
 20
-120.3867946747644
 10
94.89205455527005
 20
-120.3783541908256
 10
94.81178383046372
 20
-120.3339124590658
 10
94.7080864563577
 20
-120.2748290714938
 10
94.68913843118884
 20
-120.2092000024998
 10
94.67225746331111
 20
-120.1478773028623
 10
94.62988278884254
 20
-120.2853366127238
 10
94.5813069425005
 20
-120.353032739009
 10
94.26608070560015
 20
-120.3573391083655
 10
93.9952962004595
 20
-120.3614732229478
 10
93.96360132199521
 20
-120.3974744707687
 10
93.90847979423121
 20
-120.4651705970539
 10
93.90847979423121
 20
-120.4651705970539
 10
93.90847979423121
 20
-120.1690646400966
 10
93.90847979423121
 20
-120.1690646400966
 97
        0
 97
        0
 92
        1
 93
        1
 72
     4
 94
        3
 73
     0
 74
     1
 95
       20
 96
       16
 40
0.0
 40
0.0
 40
0.0
 40
0.0
 40
1.0
 40
1.0
 40
1.0
 40
2.0
 40
2.0
 40
2.0
 40
3.0
 40
3.0
 40
3.0
 40
4.0
 40
4.0
 40
4.0
 40
5.0
 40
5.0
 40
5.0
 40
5.0
 10
95.24138723747438
 20
-119.9172281601249
 10
95.24138723747438
 20
-119.9172281601249
 10
95.24138723747438
 20
-119.4729830973019
 10
95.24138723747438
 20
-119.4729830973019
 10
95.24138723747438
 20
-119.4729830973019
 10
94.76114092683055
 20
-119.4729830973019
 10
94.76114092683055
 20
-119.4729830973019
 10
94.76114092683055
 20
-119.4729830973019
 10
94.76114092683055
 20
-119.9151611028337
 10
94.76114092683055
 20
-119.9151611028337
 10
94.76114092683055
 20
-120.0145521075832
 10
94.83727753705458
 20
-120.1499443601535
 10
95.0084987826715
 20
-120.1499443601535
 10
95.08670245018666
 20
-120.1499443601535
 10
95.24138723747438
 20
-120.1160101696238
 10
95.24138723747438
 20
-119.9172281601249
 97
        0
 97
        0
 75
     2
 76
     1
 98
        0
  0
SPLINE
  5
4A
330
41
100
AcDbEntity
  8
_U+30EC_U+30A4_U+30E4_U+30FC 1
370
     0
100
AcDbSpline
210
0.0
220
0.0
230
1.0
 70
    11
 71
     3
 72
    26
 73
    22
 74
     0
 42
0.0000000001
 43
0.0000000001
 12
1.0
 22
0.0
 32
0.0
 13
1.0
 23
0.0
 33
0.0
 40
0.0
 40
0.0
 40
0.0
 40
0.0
 40
1.0
 40
1.0
 40
1.0
 40
2.0
 40
2.0
 40
2.0
 40
3.0
 40
3.0
 40
3.0
 40
4.0
 40
4.0
 40
4.0
 40
5.0
 40
5.0
 40
5.0
 40
6.0
 40
6.0
 40
6.0
 40
7.0
 40
7.0
 40
7.0
 40
7.0
 10
94.53893226803194
 20
-121.3820827604531
 30
0.0
 10
94.53893226803194
 20
-121.3820827604531
 30
0.0
 10
94.53893226803194
 20
-120.9293972136913
 30
0.0
 10
94.53893226803194
 20
-120.9293972136913
 30
0.0
 10
94.53893226803194
 20
-120.9293972136913
 30
0.0
 10
93.90847979423121
 20
-120.9293972136913
 30
0.0
 10
93.90847979423121
 20
-120.9293972136913
 30
0.0
 10
93.90847979423121
 20
-120.9293972136913
 30
0.0
 10
93.90847979423121
 20
-120.6946139563715
 30
0.0
 10
93.90847979423121
 20
-120.6946139563715
 30
0.0
 10
93.90847979423121
 20
-120.6946139563715
 30
0.0
 10
95.45291610026872
 20
-120.6946139563715
 30
0.0
 10
95.45291610026872
 20
-120.6946139563715
 30
0.0
 10
95.45291610026872
 20
-120.6946139563715
 30
0.0
 10
95.45291610026872
 20
-121.3820827604531
 30
0.0
 10
95.45291610026872
 20
-121.3820827604531
 30
0.0
 10
95.45291610026872
 20
-121.6697482334715
 30
0.0
 10
95.2899630838164
 20
-121.8750759243923
 30
0.0
 10
94.99161781479377
 20
-121.8750759243923
 30
0.0
 10
94.74425995895282
 20
-121.8750759243923
 30
0.0
 10
94.53893226803194
 20
-121.7141899652312
 30
0.0
 10
94.53893226803194
 20
-121.3820827604531
 30
0.0
  0
SPLINE
  5
4B
330
41
100
AcDbEntity
  8
_U+30EC_U+30A4_U+30E4_U+30FC 1
370
     0
100
AcDbSpline
210
0.0
220
0.0
230
1.0
 70
    11
 71
     3
 72
    20
 73
    16
 74
     0
 42
0.0000000001
 43
0.0000000001
 12
1.0
 22
0.0
 32
0.0
 13
1.0
 23
0.0
 33
0.0
 40
0.0
 40
0.0
 40
0.0
 40
0.0
 40
1.0
 40
1.0
 40
1.0
 40
2.0
 40
2.0
 40
2.0
 40
3.0
 40
3.0
 40
3.0
 40
4.0
 40
4.0
 40
4.0
 40
5.0
 40
5.0
 40
5.0
 40
5.0
 10
95.24138723747438
 20
-121.3736422765142
 30
0.0
 10
95.24138723747438
 20
-121.3736422765142
 30
0.0
 10
95.24138723747438
 20
-120.9293972136913
 30
0.0
 10
95.24138723747438
 20
-120.9293972136913
 30
0.0
 10
95.24138723747438
 20
-120.9293972136913
 30
0.0
 10
94.75046113082628
 20
-120.9293972136913
 30
0.0
 10
94.75046113082628
 20
-120.9293972136913
 30
0.0
 10
94.75046113082628
 20
-120.9293972136913
 30
0.0
 10
94.75046113082628
 20
-121.3736422765142
 30
0.0
 10
94.75046113082628
 20
-121.3736422765142
 30
0.0
 10
94.75046113082628
 20
-121.5407294075489
 30
0.0
 10
94.85622556222344
 20
-121.6296128710683
 30
0.0
 10
94.99575192937607
 20
-121.6296128710683
 30
0.0
 10
95.11012909948636
 20
-121.6296128710683
 30
0.0
 10
95.24138723747438
 20
-121.5619167447831
 30
0.0
 10
95.24138723747438
 20
-121.3736422765142
 30
0.0
  0
HATCH
  5
4C
330
41
100
AcDbEntity
  8
_U+30EC_U+30A4_U+30E4_U+30FC 1
 62
   179
420
  2234388
100
AcDbHatch
 10
0.0
 20
0.0
 30
0.0
210
0.0
220
0.0
230
1.0
  2
SOLID
 70
     1
 71
     0
 91
        2
 92
        1
 93
        1
 72
     4
 94
        3
 73
     0
 74
     1
 95
       26
 96
       22
 40
0.0
 40
0.0
 40
0.0
 40
0.0
 40
1.0
 40
1.0
 40
1.0
 40
2.0
 40
2.0
 40
2.0
 40
3.0
 40
3.0
 40
3.0
 40
4.0
 40
4.0
 40
4.0
 40
5.0
 40
5.0
 40
5.0
 40
6.0
 40
6.0
 40
6.0
 40
7.0
 40
7.0
 40
7.0
 40
7.0
 10
94.53893226803194
 20
-121.3820827604531
 10
94.53893226803194
 20
-121.3820827604531
 10
94.53893226803194
 20
-120.9293972136913
 10
94.53893226803194
 20
-120.9293972136913
 10
94.53893226803194
 20
-120.9293972136913
 10
93.90847979423121
 20
-120.9293972136913
 10
93.90847979423121
 20
-120.9293972136913
 10
93.90847979423121
 20
-120.9293972136913
 10
93.90847979423121
 20
-120.6946139563715
 10
93.90847979423121
 20
-120.6946139563715
 10
93.90847979423121
 20
-120.6946139563715
 10
95.45291610026872
 20
-120.6946139563715
 10
95.45291610026872
 20
-120.6946139563715
 10
95.45291610026872
 20
-120.6946139563715
 10
95.45291610026872
 20
-121.3820827604531
 10
95.45291610026872
 20
-121.3820827604531
 10
95.45291610026872
 20
-121.6697482334715
 10
95.2899630838164
 20
-121.8750759243923
 10
94.99161781479377
 20
-121.8750759243923
 10
94.74425995895282
 20
-121.8750759243923
 10
94.53893226803194
 20
-121.7141899652312
 10
94.53893226803194
 20
-121.3820827604531
 97
        0
 97
        0
 92
        1
 93
        1
 72
     4
 94
        3
 73
     0
 74
     1
 95
       20
 96
       16
 40
0.0
 40
0.0
 40
0.0
 40
0.0
 40
1.0
 40
1.0
 40
1.0
 40
2.0
 40
2.0
 40
2.0
 40
3.0
 40
3.0
 40
3.0
 40
4.0
 40
4.0
 40
4.0
 40
5.0
 40
5.0
 40
5.0
 40
5.0
 10
95.24138723747438
 20
-121.3736422765142
 10
95.24138723747438
 20
-121.3736422765142
 10
95.24138723747438
 20
-120.9293972136913
 10
95.24138723747438
 20
-120.9293972136913
 10
95.24138723747438
 20
-120.9293972136913
 10
94.75046113082628
 20
-120.9293972136913
 10
94.75046113082628
 20
-120.9293972136913
 10
94.75046113082628
 20
-120.9293972136913
 10
94.75046113082628
 20
-121.3736422765142
 10
94.75046113082628
 20
-121.3736422765142
 10
94.75046113082628
 20
-121.5407294075489
 10
94.85622556222344
 20
-121.6296128710683
 10
94.99575192937607
 20
-121.6296128710683
 10
95.11012909948636
 20
-121.6296128710683
 10
95.24138723747438
 20
-121.5619167447831
 10
95.24138723747438
 20
-121.3736422765142
 97
        0
 97
        0
 75
     2
 76
     1
 98
        0
  0
POLYLINE
  5
4D
330
41
100
AcDbEntity
  8
_U+30EC_U+30A4_U+30E4_U+30FC 1
370
     0
100
AcDb2dPolyline
 66
     1
 10
0.0
 20
0.0
 30
0.0
  0
VERTEX
  5
4E
330
4D
100
AcDbEntity
  8
_U+30EC_U+30A4_U+30E4_U+30FC 1
370
     0
100
AcDbVertex
100
AcDb2dVertex
 10
94.3549641691196
 20
-122.0068508267032
 30
0.0
  0
VERTEX
  5
4F
330
4D
100
AcDbEntity
  8
_U+30EC_U+30A4_U+30E4_U+30FC 1
370
     0
100
AcDbVertex
100
AcDb2dVertex
 10
94.57062714649624
 20
-122.0068508267032
 30
0.0
  0
VERTEX
  5
50
330
4D
100
AcDbEntity
  8
_U+30EC_U+30A4_U+30E4_U+30FC 1
370
     0
100
AcDbVertex
100
AcDb2dVertex
 10
94.57062714649624
 20
-122.5928615687442
 30
0.0
  0
VERTEX
  5
51
330
4D
100
AcDbEntity
  8
_U+30EC_U+30A4_U+30E4_U+30FC 1
370
     0
100
AcDbVertex
100
AcDb2dVertex
 10
94.3549641691196
 20
-122.5928615687442
 30
0.0
  0
VERTEX
  5
52
330
4D
100
AcDbEntity
  8
_U+30EC_U+30A4_U+30E4_U+30FC 1
370
     0
100
AcDbVertex
100
AcDb2dVertex
 10
94.3549641691196
 20
-122.0068508267032
 30
0.0
  0
SEQEND
  5
53
330
4D
100
AcDbEntity
  8
_U+30EC_U+30A4_U+30E4_U+30FC 1
370
     0
  0
HATCH
  5
54
330
41
100
AcDbEntity
  8
_U+30EC_U+30A4_U+30E4_U+30FC 1
 62
   179
420
  2234388
100
AcDbHatch
 10
0.0
 20
0.0
 30
0.0
210
0.0
220
0.0
230
1.0
  2
SOLID
 70
     1
 71
     0
 91
        1
 92
        1
 93
        4
 72
     1
 10
94.3549641691196
 20
-122.0068508267032
 11
94.57062714649624
 21
-122.0068508267032
 72
     1
 10
94.57062714649624
 20
-122.0068508267032
 11
94.57062714649624
 21
-122.5928615687442
 72
     1
 10
94.57062714649624
 20
-122.5928615687442
 11
94.3549641691196
 21
-122.5928615687442
 72
     1
 10
94.3549641691196
 20
-122.5928615687442
 11
94.3549641691196
 21
-122.0068508267032
 97
        0
 75
     2
 76
     1
 98
        0
  0
SPLINE
  5
55
330
41
100
AcDbEntity
  8
_U+30EC_U+30A4_U+30E4_U+30FC 1
370
     0
100
AcDbSpline
210
0.0
220
0.0
230
1.0
 70
    11
 71
     3
 72
    62
 73
    58
 74
     0
 42
0.0000000001
 43
0.0000000001
 12
1.0
 22
0.0
 32
0.0
 13
1.0
 23
0.0
 33
0.0
 40
0.0
 40
0.0
 40
0.0
 40
0.0
 40
1.0
 40
1.0
 40
1.0
 40
2.0
 40
2.0
 40
2.0
 40
3.0
 40
3.0
 40
3.0
 40
4.0
 40
4.0
 40
4.0
 40
5.0
 40
5.0
 40
5.0
 40
6.0
 40
6.0
 40
6.0
 40
7.0
 40
7.0
 40
7.0
 40
8.0
 40
8.0
 40
8.0
 40
9.0
 40
9.0
 40
9.0
 40
10.0
 40
10.0
 40
10.0
 40
11.0
 40
11.0
 40
11.0
 40
12.0
 40
12.0
 40
12.0
 40
13.0
 40
13.0
 40
13.0
 40
14.0
 40
14.0
 40
14.0
 40
15.0
 40
15.0
 40
15.0
 40
16.0
 40
16.0
 40
16.0
 40
17.0
 40
17.0
 40
17.0
 40
18.0
 40
18.0
 40
18.0
 40
19.0
 40
19.0
 40
19.0
 40
19.0
 10
93.85783689059805
 20
-123.2129787560891
 30
0.0
 10
93.85783689059805
 20
-123.117721865922
 30
0.0
 10
93.87885197305808
 20
-122.8998195764799
 30
0.0
 10
94.06488712926156
 20
-122.7751071199139
 30
0.0
 10
94.17719724208071
 20
-122.701037566981
 30
0.0
 10
94.2764159920559
 20
-122.6967311976244
 30
0.0
 10
94.36116534099304
 20
-122.6925970830421
 30
0.0
 10
94.36116534099304
 20
-122.6925970830421
 30
0.0
 10
94.36116534099304
 20
-122.9125664297753
 30
0.0
 10
94.36116534099304
 20
-122.9125664297753
 30
0.0
 10
94.28709578806017
 20
-122.9146334870665
 30
0.0
 10
94.05248478551466
 20
-122.9253132830708
 30
0.0
 10
94.05248478551466
 20
-123.2086723867326
 30
0.0
 10
94.05248478551466
 20
-123.3463039513683
 30
0.0
 10
94.12207571431671
 20
-123.4985771718163
 30
0.0
 10
94.35048554498877
 20
-123.4985771718163
 30
0.0
 10
94.46692977239022
 20
-123.4985771718163
 30
0.0
 10
94.51550561873223
 20
-123.4605088667043
 30
0.0
 10
94.54720049719654
 20
-123.42881398824
 30
0.0
 10
94.62127005012941
 20
-123.3547444353072
 30
0.0
 10
94.63401690342484
 20
-123.2383002079057
 30
0.0
 10
94.63401690342484
 20
-123.183350934916
 30
0.0
 10
94.63401690342484
 20
-123.1644029097471
 30
0.0
 10
94.63194984613368
 20
-123.1284016619262
 30
0.0
 10
94.62781573155138
 20
-123.1008408980442
 30
0.0
 10
94.62781573155138
 20
-123.1008408980442
 30
0.0
 10
94.822463626468
 20
-123.1008408980442
 30
0.0
 10
94.822463626468
 20
-123.1008408980442
 30
0.0
 10
94.81591794504602
 20
-123.1389092031562
 30
0.0
 10
94.81385088775488
 20
-123.1812838776248
 30
0.0
 10
94.81385088775488
 20
-123.1876573042725
 30
0.0
 10
94.81385088775488
 20
-123.2531141184923
 30
0.0
 10
94.83521047976342
 20
-123.4520683827655
 30
0.0
 10
95.07188853960008
 20
-123.4520683827655
 30
0.0
 10
95.24965546663898
 20
-123.4520683827655
 30
0.0
 10
95.30477699440297
 20
-123.3208102447774
 30
0.0
 10
95.30477699440297
 20
-123.210911698798
 30
0.0
 10
95.30477699440297
 20
-122.946500620305
 30
0.0
 10
95.07188853960008
 20
-122.9378878815919
 30
0.0
 10
95.0002305535069
 20
-122.9337537670096
 30
0.0
 10
95.0002305535069
 20
-122.9337537670096
 30
0.0
 10
95.0002305535069
 20
-122.7306653881542
 30
0.0
 10
95.0002305535069
 20
-122.7306653881542
 30
0.0
 10
95.12494301007294
 20
-122.739105872093
 30
0.0
 10
95.50149194661074
 20
-122.766666635975
 30
0.0
 10
95.50149194661074
 20
-123.2234862973191
 30
0.0
 10
95.50149194661074
 20
-123.4477620134089
 30
0.0
 10
95.37436792320503
 20
-123.6889186973764
 30
0.0
 10
95.07843422102206
 20
-123.6889186973764
 30
0.0
 10
94.89205455527005
 20
-123.6889186973764
 30
0.0
 10
94.80971677317258
 20
-123.5938340619835
 30
0.0
 10
94.74839407353512
 20
-123.4942708024598
 30
0.0
 10
94.72083330965313
 20
-123.5557657568715
 30
0.0
 10
94.6405625848468
 20
-123.7376667984927
 30
0.0
 10
94.3632323982842
 20
-123.7376667984927
 30
0.0
 10
94.02492402163266
 20
-123.7376667984927
 30
0.0
 10
93.85783689059805
 20
-123.4901366878775
 30
0.0
 10
93.85783689059805
 20
-123.2129787560891
 30
0.0
  0
HATCH
  5
56
330
41
100
AcDbEntity
  8
_U+30EC_U+30A4_U+30E4_U+30FC 1
 62
   179
420
  2234388
100
AcDbHatch
 10
0.0
 20
0.0
 30
0.0
210
0.0
220
0.0
230
1.0
  2
SOLID
 70
     1
 71
     0
 91
        1
 92
        1
 93
        1
 72
     4
 94
        3
 73
     0
 74
     1
 95
       62
 96
       58
 40
0.0
 40
0.0
 40
0.0
 40
0.0
 40
1.0
 40
1.0
 40
1.0
 40
2.0
 40
2.0
 40
2.0
 40
3.0
 40
3.0
 40
3.0
 40
4.0
 40
4.0
 40
4.0
 40
5.0
 40
5.0
 40
5.0
 40
6.0
 40
6.0
 40
6.0
 40
7.0
 40
7.0
 40
7.0
 40
8.0
 40
8.0
 40
8.0
 40
9.0
 40
9.0
 40
9.0
 40
10.0
 40
10.0
 40
10.0
 40
11.0
 40
11.0
 40
11.0
 40
12.0
 40
12.0
 40
12.0
 40
13.0
 40
13.0
 40
13.0
 40
14.0
 40
14.0
 40
14.0
 40
15.0
 40
15.0
 40
15.0
 40
16.0
 40
16.0
 40
16.0
 40
17.0
 40
17.0
 40
17.0
 40
18.0
 40
18.0
 40
18.0
 40
19.0
 40
19.0
 40
19.0
 40
19.0
 10
93.85783689059805
 20
-123.2129787560891
 10
93.85783689059805
 20
-123.117721865922
 10
93.87885197305808
 20
-122.8998195764799
 10
94.06488712926156
 20
-122.7751071199139
 10
94.17719724208071
 20
-122.701037566981
 10
94.2764159920559
 20
-122.6967311976244
 10
94.36116534099304
 20
-122.6925970830421
 10
94.36116534099304
 20
-122.6925970830421
 10
94.36116534099304
 20
-122.9125664297753
 10
94.36116534099304
 20
-122.9125664297753
 10
94.28709578806017
 20
-122.9146334870665
 10
94.05248478551466
 20
-122.9253132830708
 10
94.05248478551466
 20
-123.2086723867326
 10
94.05248478551466
 20
-123.3463039513683
 10
94.12207571431671
 20
-123.4985771718163
 10
94.35048554498877
 20
-123.4985771718163
 10
94.46692977239022
 20
-123.4985771718163
 10
94.51550561873223
 20
-123.4605088667043
 10
94.54720049719654
 20
-123.42881398824
 10
94.62127005012941
 20
-123.3547444353072
 10
94.63401690342484
 20
-123.2383002079057
 10
94.63401690342484
 20
-123.183350934916
 10
94.63401690342484
 20
-123.1644029097471
 10
94.63194984613368
 20
-123.1284016619262
 10
94.62781573155138
 20
-123.1008408980442
 10
94.62781573155138
 20
-123.1008408980442
 10
94.822463626468
 20
-123.1008408980442
 10
94.822463626468
 20
-123.1008408980442
 10
94.81591794504602
 20
-123.1389092031562
 10
94.81385088775488
 20
-123.1812838776248
 10
94.81385088775488
 20
-123.1876573042725
 10
94.81385088775488
 20
-123.2531141184923
 10
94.83521047976342
 20
-123.4520683827655
 10
95.07188853960008
 20
-123.4520683827655
 10
95.24965546663898
 20
-123.4520683827655
 10
95.30477699440297
 20
-123.3208102447774
 10
95.30477699440297
 20
-123.210911698798
 10
95.30477699440297
 20
-122.946500620305
 10
95.07188853960008
 20
-122.9378878815919
 10
95.0002305535069
 20
-122.9337537670096
 10
95.0002305535069
 20
-122.9337537670096
 10
95.0002305535069
 20
-122.7306653881542
 10
95.0002305535069
 20
-122.7306653881542
 10
95.12494301007294
 20
-122.739105872093
 10
95.50149194661074
 20
-122.766666635975
 10
95.50149194661074
 20
-123.2234862973191
 10
95.50149194661074
 20
-123.4477620134089
 10
95.37436792320503
 20
-123.6889186973764
 10
95.07843422102206
 20
-123.6889186973764
 10
94.89205455527005
 20
-123.6889186973764
 10
94.80971677317258
 20
-123.5938340619835
 10
94.74839407353512
 20
-123.4942708024598
 10
94.72083330965313
 20
-123.5557657568715
 10
94.6405625848468
 20
-123.7376667984927
 10
94.3632323982842
 20
-123.7376667984927
 10
94.02492402163266
 20
-123.7376667984927
 10
93.85783689059805
 20
-123.4901366878775
 10
93.85783689059805
 20
-123.2129787560891
 97
        0
 97
        0
 75
     2
 76
     1
 98
        0
  0
SPLINE
  5
57
330
41
100
AcDbEntity
  8
_U+30EC_U+30A4_U+30E4_U+30FC 1
370
     0
100
AcDbSpline
210
0.0
220
0.0
230
1.0
 70
    11
 71
     3
 72
    29
 73
    25
 74
     0
 42
0.0000000001
 43
0.0000000001
 12
1.0
 22
0.0
 32
0.0
 13
1.0
 23
0.0
 33
0.0
 40
0.0
 40
0.0
 40
0.0
 40
0.0
 40
1.0
 40
1.0
 40
1.0
 40
2.0
 40
2.0
 40
2.0
 40
3.0
 40
3.0
 40
3.0
 40
4.0
 40
4.0
 40
4.0
 40
5.0
 40
5.0
 40
5.0
 40
6.0
 40
6.0
 40
6.0
 40
7.0
 40
7.0
 40
7.0
 40
8.0
 40
8.0
 40
8.0
 40
8.0
 10
94.08624672127011
 20
-124.7961723863357
 30
0.0
 10
93.87678491576692
 20
-124.6883408976474
 30
0.0
 10
93.85783689059805
 20
-124.514880339965
 30
0.0
 10
93.85783689059805
 20
-124.3984361125636
 30
0.0
 10
93.85783689059805
 20
-124.2377224081767
 30
0.0
 10
93.90434567964891
 20
-124.0959567289587
 30
0.0
 10
94.08624672127011
 20
-124.0006998387915
 30
0.0
 10
94.28089461618673
 20
-123.8971747194597
 30
0.0
 10
94.51757267602339
 20
-123.8780544395166
 30
0.0
 10
94.68052569247571
 20
-123.8780544395166
 30
0.0
 10
94.82453068375915
 20
-123.8780544395166
 30
0.0
 10
95.07636716373091
 20
-123.8949354073943
 30
0.0
 10
95.27514917322983
 20
-124.0006998387915
 30
0.0
 10
95.47806529731105
 20
-124.1087035822541
 30
0.0
 10
95.50149194661074
 20
-124.269417286641
 30
0.0
 10
95.50149194661074
 20
-124.3984361125636
 30
0.0
 10
95.50149194661074
 20
-124.5570827596594
 30
0.0
 10
95.45705021485102
 20
-124.7009154961685
 30
0.0
 10
95.27514917322983
 20
-124.7961723863357
 30
0.0
 10
95.08256833560436
 20
-124.8955633910851
 30
0.0
 10
94.8541585049323
 20
-124.9188177856106
 30
0.0
 10
94.68052569247571
 20
-124.9188177856106
 30
0.0
 10
94.50930444685879
 20
-124.9188177856106
 30
0.0
 10
94.27882755889557
 20
-124.8978027031506
 30
0.0
 10
94.08624672127011
 20
-124.7961723863357
 30
0.0
  0
SPLINE
  5
58
330
41
100
AcDbEntity
  8
_U+30EC_U+30A4_U+30E4_U+30FC 1
370
     0
100
AcDbSpline
210
0.0
220
0.0
230
1.0
 70
    11
 71
     3
 72
    17
 73
    13
 74
     0
 42
0.0000000001
 43
0.0000000001
 12
1.0
 22
0.0
 32
0.0
 13
1.0
 23
0.0
 33
0.0
 40
0.0
 40
0.0
 40
0.0
 40
0.0
 40
1.0
 40
1.0
 40
1.0
 40
2.0
 40
2.0
 40
2.0
 40
3.0
 40
3.0
 40
3.0
 40
4.0
 40
4.0
 40
4.0
 40
4.0
 10
95.30891110898527
 20
-124.3984361125636
 30
0.0
 10
95.30891110898527
 20
-124.1488389446572
 30
0.0
 10
95.02537975054922
 20
-124.1023301556064
 30
0.0
 10
94.68052569247571
 20
-124.1023301556064
 30
0.0
 10
94.36116534099304
 20
-124.1023301556064
 30
0.0
 10
94.05248478551466
 20
-124.1383314034272
 30
0.0
 10
94.05248478551466
 20
-124.3984361125636
 30
0.0
 10
94.05248478551466
 20
-124.6459662231788
 30
0.0
 10
94.33360457711105
 20
-124.6947143242951
 30
0.0
 10
94.68052569247571
 20
-124.6947143242951
 30
0.0
 10
95.0002305535069
 20
-124.6947143242951
 30
0.0
 10
95.30891110898527
 20
-124.6566460191831
 30
0.0
 10
95.30891110898527
 20
-124.3984361125636
 30
0.0
  0
HATCH
  5
59
330
41
100
AcDbEntity
  8
_U+30EC_U+30A4_U+30E4_U+30FC 1
 62
   179
420
  2234388
100
AcDbHatch
 10
0.0
 20
0.0
 30
0.0
210
0.0
220
0.0
230
1.0
  2
SOLID
 70
     1
 71
     0
 91
        2
 92
        1
 93
        1
 72
     4
 94
        3
 73
     0
 74
     1
 95
       29
 96
       25
 40
0.0
 40
0.0
 40
0.0
 40
0.0
 40
1.0
 40
1.0
 40
1.0
 40
2.0
 40
2.0
 40
2.0
 40
3.0
 40
3.0
 40
3.0
 40
4.0
 40
4.0
 40
4.0
 40
5.0
 40
5.0
 40
5.0
 40
6.0
 40
6.0
 40
6.0
 40
7.0
 40
7.0
 40
7.0
 40
8.0
 40
8.0
 40
8.0
 40
8.0
 10
94.08624672127011
 20
-124.7961723863357
 10
93.87678491576692
 20
-124.6883408976474
 10
93.85783689059805
 20
-124.514880339965
 10
93.85783689059805
 20
-124.3984361125636
 10
93.85783689059805
 20
-124.2377224081767
 10
93.90434567964891
 20
-124.0959567289587
 10
94.08624672127011
 20
-124.0006998387915
 10
94.28089461618673
 20
-123.8971747194597
 10
94.51757267602339
 20
-123.8780544395166
 10
94.68052569247571
 20
-123.8780544395166
 10
94.82453068375915
 20
-123.8780544395166
 10
95.07636716373091
 20
-123.8949354073943
 10
95.27514917322983
 20
-124.0006998387915
 10
95.47806529731105
 20
-124.1087035822541
 10
95.50149194661074
 20
-124.269417286641
 10
95.50149194661074
 20
-124.3984361125636
 10
95.50149194661074
 20
-124.5570827596594
 10
95.45705021485102
 20
-124.7009154961685
 10
95.27514917322983
 20
-124.7961723863357
 10
95.08256833560436
 20
-124.8955633910851
 10
94.8541585049323
 20
-124.9188177856106
 10
94.68052569247571
 20
-124.9188177856106
 10
94.50930444685879
 20
-124.9188177856106
 10
94.27882755889557
 20
-124.8978027031506
 10
94.08624672127011
 20
-124.7961723863357
 97
        0
 97
        0
 92
        1
 93
        1
 72
     4
 94
        3
 73
     0
 74
     1
 95
       17
 96
       13
 40
0.0
 40
0.0
 40
0.0
 40
0.0
 40
1.0
 40
1.0
 40
1.0
 40
2.0
 40
2.0
 40
2.0
 40
3.0
 40
3.0
 40
3.0
 40
4.0
 40
4.0
 40
4.0
 40
4.0
 10
95.30891110898527
 20
-124.3984361125636
 10
95.30891110898527
 20
-124.1488389446572
 10
95.02537975054922
 20
-124.1023301556064
 10
94.68052569247571
 20
-124.1023301556064
 10
94.36116534099304
 20
-124.1023301556064
 10
94.05248478551466
 20
-124.1383314034272
 10
94.05248478551466
 20
-124.3984361125636
 10
94.05248478551466
 20
-124.6459662231788
 10
94.33360457711105
 20
-124.6947143242951
 10
94.68052569247571
 20
-124.6947143242951
 10
95.0002305535069
 20
-124.6947143242951
 10
95.30891110898527
 20
-124.6566460191831
 10
95.30891110898527
 20
-124.3984361125636
 97
        0
 97
        0
 75
     2
 76
     1
 98
        0
  0
POLYLINE
  5
5A
330
41
100
AcDbEntity
  8
_U+30EC_U+30A4_U+30E4_U+30FC 1
370
     0
100
AcDb2dPolyline
 66
     1
 10
0.0
 20
0.0
 30
0.0
  0
VERTEX
  5
5B
330
5A
100
AcDbEntity
  8
_U+30EC_U+30A4_U+30E4_U+30FC 1
370
     0
100
AcDbVertex
100
AcDb2dVertex
 10
93.90847979423121
 20
-126.4174343216943
 30
0.0
  0
VERTEX
  5
5C
330
5A
100
AcDbEntity
  8
_U+30EC_U+30A4_U+30E4_U+30FC 1
370
     0
100
AcDbVertex
100
AcDb2dVertex
 10
94.97680390420719
 20
-126.4174343216943
 30
0.0
  0
VERTEX
  5
5D
330
5A
100
AcDbEntity
  8
_U+30EC_U+30A4_U+30E4_U+30FC 1
370
     0
100
AcDbVertex
100
AcDb2dVertex
 10
95.13975692065951
 20
-126.4236354935677
 30
0.0
  0
VERTEX
  5
5E
330
5A
100
AcDbEntity
  8
_U+30EC_U+30A4_U+30E4_U+30FC 1
370
     0
100
AcDbVertex
100
AcDb2dVertex
 10
94.98541664292031
 20
-126.3878065005211
 30
0.0
  0
VERTEX
  5
5F
330
5A
100
AcDbEntity
  8
_U+30EC_U+30A4_U+30E4_U+30FC 1
370
     0
100
AcDbVertex
100
AcDb2dVertex
 10
93.90847979423121
 20
-126.0429524424476
 30
0.0
  0
VERTEX
  5
60
330
5A
100
AcDbEntity
  8
_U+30EC_U+30A4_U+30E4_U+30FC 1
370
     0
100
AcDbVertex
100
AcDb2dVertex
 10
93.90847979423121
 20
-125.772167937307
 30
0.0
  0
VERTEX
  5
61
330
5A
100
AcDbEntity
  8
_U+30EC_U+30A4_U+30E4_U+30FC 1
370
     0
100
AcDbVertex
100
AcDb2dVertex
 10
94.98541664292031
 20
-125.4293809365246
 30
0.0
  0
VERTEX
  5
62
330
5A
100
AcDbEntity
  8
_U+30EC_U+30A4_U+30E4_U+30FC 1
370
     0
100
AcDbVertex
100
AcDb2dVertex
 10
95.13975692065951
 20
-125.3933796887037
 30
0.0
  0
VERTEX
  5
63
330
5A
100
AcDbEntity
  8
_U+30EC_U+30A4_U+30E4_U+30FC 1
370
     0
100
AcDbVertex
100
AcDb2dVertex
 10
94.97680390420719
 20
-125.3976860580603
 30
0.0
  0
VERTEX
  5
64
330
5A
100
AcDbEntity
  8
_U+30EC_U+30A4_U+30E4_U+30FC 1
370
     0
100
AcDbVertex
100
AcDb2dVertex
 10
93.90847979423121
 20
-125.3976860580603
 30
0.0
  0
VERTEX
  5
65
330
5A
100
AcDbEntity
  8
_U+30EC_U+30A4_U+30E4_U+30FC 1
370
     0
100
AcDbVertex
100
AcDb2dVertex
 10
93.90847979423121
 20
-125.1797837686183
 30
0.0
  0
VERTEX
  5
66
330
5A
100
AcDbEntity
  8
_U+30EC_U+30A4_U+30E4_U+30FC 1
370
     0
100
AcDbVertex
100
AcDb2dVertex
 10
95.45291610026872
 20
-125.1797837686183
 30
0.0
  0
VERTEX
  5
67
330
5A
100
AcDbEntity
  8
_U+30EC_U+30A4_U+30E4_U+30FC 1
370
     0
100
AcDbVertex
100
AcDb2dVertex
 10
95.45291610026872
 20
-125.4991441201009
 30
0.0
  0
VERTEX
  5
68
330
5A
100
AcDbEntity
  8
_U+30EC_U+30A4_U+30E4_U+30FC 1
370
     0
100
AcDbVertex
100
AcDb2dVertex
 10
94.3039767559379
 20
-125.869319629991
 30
0.0
  0
VERTEX
  5
69
330
5A
100
AcDbEntity
  8
_U+30EC_U+30A4_U+30E4_U+30FC 1
370
     0
100
AcDbVertex
100
AcDb2dVertex
 10
94.16238333149413
 20
-125.9075601898773
 30
0.0
  0
VERTEX
  5
6A
330
5A
100
AcDbEntity
  8
_U+30EC_U+30A4_U+30E4_U+30FC 1
370
     0
100
AcDbVertex
100
AcDb2dVertex
 10
94.3039767559379
 20
-125.945456240215
 30
0.0
  0
VERTEX
  5
6B
330
5A
100
AcDbEntity
  8
_U+30EC_U+30A4_U+30E4_U+30FC 1
370
     0
100
AcDbVertex
100
AcDb2dVertex
 10
95.45291610026872
 20
-126.3178710621705
 30
0.0
  0
VERTEX
  5
6C
330
5A
100
AcDbEntity
  8
_U+30EC_U+30A4_U+30E4_U+30FC 1
370
     0
100
AcDbVertex
100
AcDb2dVertex
 10
95.45291610026872
 20
-126.6351643563621
 30
0.0
  0
VERTEX
  5
6D
330
5A
100
AcDbEntity
  8
_U+30EC_U+30A4_U+30E4_U+30FC 1
370
     0
100
AcDbVertex
100
AcDb2dVertex
 10
93.90847979423121
 20
-126.6351643563621
 30
0.0
  0
VERTEX
  5
6E
330
5A
100
AcDbEntity
  8
_U+30EC_U+30A4_U+30E4_U+30FC 1
370
     0
100
AcDbVertex
100
AcDb2dVertex
 10
93.90847979423121
 20
-126.4174343216943
 30
0.0
  0
SEQEND
  5
6F
330
5A
100
AcDbEntity
  8
_U+30EC_U+30A4_U+30E4_U+30FC 1
370
     0
  0
HATCH
  5
70
330
41
100
AcDbEntity
  8
_U+30EC_U+30A4_U+30E4_U+30FC 1
 62
   179
420
  2234388
100
AcDbHatch
 10
0.0
 20
0.0
 30
0.0
210
0.0
220
0.0
230
1.0
  2
SOLID
 70
     1
 71
     0
 91
        1
 92
        1
 93
       19
 72
     1
 10
93.90847979423121
 20
-126.4174343216943
 11
94.97680390420719
 21
-126.4174343216943
 72
     1
 10
94.97680390420719
 20
-126.4174343216943
 11
95.13975692065951
 21
-126.4236354935677
 72
     1
 10
95.13975692065951
 20
-126.4236354935677
 11
94.98541664292031
 21
-126.3878065005211
 72
     1
 10
94.98541664292031
 20
-126.3878065005211
 11
93.90847979423121
 21
-126.0429524424476
 72
     1
 10
93.90847979423121
 20
-126.0429524424476
 11
93.90847979423121
 21
-125.772167937307
 72
     1
 10
93.90847979423121
 20
-125.772167937307
 11
94.98541664292031
 21
-125.4293809365246
 72
     1
 10
94.98541664292031
 20
-125.4293809365246
 11
95.13975692065951
 21
-125.3933796887037
 72
     1
 10
95.13975692065951
 20
-125.3933796887037
 11
94.97680390420719
 21
-125.3976860580603
 72
     1
 10
94.97680390420719
 20
-125.3976860580603
 11
93.90847979423121
 21
-125.3976860580603
 72
     1
 10
93.90847979423121
 20
-125.3976860580603
 11
93.90847979423121
 21
-125.1797837686183
 72
     1
 10
93.90847979423121
 20
-125.1797837686183
 11
95.45291610026872
 21
-125.1797837686183
 72
     1
 10
95.45291610026872
 20
-125.1797837686183
 11
95.45291610026872
 21
-125.4991441201009
 72
     1
 10
95.45291610026872
 20
-125.4991441201009
 11
94.3039767559379
 21
-125.869319629991
 72
     1
 10
94.3039767559379
 20
-125.869319629991
 11
94.16238333149413
 21
-125.9075601898773
 72
     1
 10
94.16238333149413
 20
-125.9075601898773
 11
94.3039767559379
 21
-125.945456240215
 72
     1
 10
94.3039767559379
 20
-125.945456240215
 11
95.45291610026872
 21
-126.3178710621705
 72
     1
 10
95.45291610026872
 20
-126.3178710621705
 11
95.45291610026872
 21
-126.6351643563621
 72
     1
 10
95.45291610026872
 20
-126.6351643563621
 11
93.90847979423121
 21
-126.6351643563621
 72
     1
 10
93.90847979423121
 20
-126.6351643563621
 11
93.90847979423121
 21
-126.4174343216943
 97
        0
 75
     2
 76
     1
 98
        0
  0
POLYLINE
  5
71
330
41
100
AcDbEntity
  8
_U+30EC_U+30A4_U+30E4_U+30FC 1
370
     0
100
AcDb2dPolyline
 66
     1
 10
0.0
 20
0.0
 30
0.0
  0
VERTEX
  5
72
330
71
100
AcDbEntity
  8
_U+30EC_U+30A4_U+30E4_U+30FC 1
370
     0
100
AcDbVertex
100
AcDb2dVertex
 10
93.90847979423121
 20
-128.3835503151263
 30
0.0
  0
VERTEX
  5
73
330
71
100
AcDbEntity
  8
_U+30EC_U+30A4_U+30E4_U+30FC 1
370
     0
100
AcDbVertex
100
AcDb2dVertex
 10
93.90847979423121
 20
-128.1127658099857
 30
0.0
  0
VERTEX
  5
74
330
71
100
AcDbEntity
  8
_U+30EC_U+30A4_U+30E4_U+30FC 1
370
     0
100
AcDbVertex
100
AcDb2dVertex
 10
95.18213159512808
 20
-127.8271673942585
 30
0.0
  0
VERTEX
  5
75
330
71
100
AcDbEntity
  8
_U+30EC_U+30A4_U+30E4_U+30FC 1
370
     0
100
AcDbVertex
100
AcDb2dVertex
 10
93.90847979423121
 20
-127.543980545371
 30
0.0
  0
VERTEX
  5
76
330
71
100
AcDbEntity
  8
_U+30EC_U+30A4_U+30E4_U+30FC 1
370
     0
100
AcDbVertex
100
AcDb2dVertex
 10
93.90847979423121
 20
-127.2731960402303
 30
0.0
  0
VERTEX
  5
77
330
71
100
AcDbEntity
  8
_U+30EC_U+30A4_U+30E4_U+30FC 1
370
     0
100
AcDbVertex
100
AcDb2dVertex
 10
95.45291610026872
 20
-126.8901014222705
 30
0.0
  0
VERTEX
  5
78
330
71
100
AcDbEntity
  8
_U+30EC_U+30A4_U+30E4_U+30FC 1
370
     0
100
AcDbVertex
100
AcDb2dVertex
 10
95.45291610026872
 20
-127.1229898770734
 30
0.0
  0
VERTEX
  5
79
330
71
100
AcDbEntity
  8
_U+30EC_U+30A4_U+30E4_U+30FC 1
370
     0
100
AcDbVertex
100
AcDb2dVertex
 10
94.20269094867156
 20
-127.4085882928006
 30
0.0
  0
VERTEX
  5
7A
330
71
100
AcDbEntity
  8
_U+30EC_U+30A4_U+30E4_U+30FC 1
370
     0
100
AcDbVertex
100
AcDb2dVertex
 10
95.45291610026872
 20
-127.6876410271059
 30
0.0
  0
VERTEX
  5
7B
330
71
100
AcDbEntity
  8
_U+30EC_U+30A4_U+30E4_U+30FC 1
370
     0
100
AcDbVertex
100
AcDb2dVertex
 10
95.45291610026872
 20
-127.9670382709596
 30
0.0
  0
VERTEX
  5
7C
330
71
100
AcDbEntity
  8
_U+30EC_U+30A4_U+30E4_U+30FC 1
370
     0
100
AcDbVertex
100
AcDb2dVertex
 10
94.20269094867156
 20
-128.2460910052649
 30
0.0
  0
VERTEX
  5
7D
330
71
100
AcDbEntity
  8
_U+30EC_U+30A4_U+30E4_U+30FC 1
370
     0
100
AcDbVertex
100
AcDb2dVertex
 10
95.45291610026872
 20
-128.5337564782832
 30
0.0
  0
VERTEX
  5
7E
330
71
100
AcDbEntity
  8
_U+30EC_U+30A4_U+30E4_U+30FC 1
370
     0
100
AcDbVertex
100
AcDb2dVertex
 10
95.45291610026872
 20
-128.7666449330861
 30
0.0
  0
VERTEX
  5
7F
330
71
100
AcDbEntity
  8
_U+30EC_U+30A4_U+30E4_U+30FC 1
370
     0
100
AcDbVertex
100
AcDb2dVertex
 10
93.90847979423121
 20
-128.3835503151263
 30
0.0
  0
SEQEND
  5
80
330
71
100
AcDbEntity
  8
_U+30EC_U+30A4_U+30E4_U+30FC 1
370
     0
  0
HATCH
  5
81
330
41
100
AcDbEntity
  8
_U+30EC_U+30A4_U+30E4_U+30FC 1
 62
   179
420
  2234388
100
AcDbHatch
 10
0.0
 20
0.0
 30
0.0
210
0.0
220
0.0
230
1.0
  2
SOLID
 70
     1
 71
     0
 91
        1
 92
        1
 93
       13
 72
     1
 10
93.90847979423121
 20
-128.3835503151263
 11
93.90847979423121
 21
-128.1127658099857
 72
     1
 10
93.90847979423121
 20
-128.1127658099857
 11
95.18213159512808
 21
-127.8271673942585
 72
     1
 10
95.18213159512808
 20
-127.8271673942585
 11
93.90847979423121
 21
-127.543980545371
 72
     1
 10
93.90847979423121
 20
-127.543980545371
 11
93.90847979423121
 21
-127.2731960402303
 72
     1
 10
93.90847979423121
 20
-127.2731960402303
 11
95.45291610026872
 21
-126.8901014222705
 72
     1
 10
95.45291610026872
 20
-126.8901014222705
 11
95.45291610026872
 21
-127.1229898770734
 72
     1
 10
95.45291610026872
 20
-127.1229898770734
 11
94.20269094867156
 21
-127.4085882928006
 72
     1
 10
94.20269094867156
 20
-127.4085882928006
 11
95.45291610026872
 21
-127.6876410271059
 72
     1
 10
95.45291610026872
 20
-127.6876410271059
 11
95.45291610026872
 21
-127.9670382709596
 72
     1
 10
95.45291610026872
 20
-127.9670382709596
 11
94.20269094867156
 21
-128.2460910052649
 72
     1
 10
94.20269094867156
 20
-128.2460910052649
 11
95.45291610026872
 21
-128.5337564782832
 72
     1
 10
95.45291610026872
 20
-128.5337564782832
 11
95.45291610026872
 21
-128.7666449330861
 72
     1
 10
95.45291610026872
 20
-128.7666449330861
 11
93.90847979423121
 21
-128.3835503151263
 97
        0
 75
     2
 76
     1
 98
        0
  0
ENDBLK
  5
44
330
41
100
AcDbEntity
  8
0
100
AcDbBlockEnd
  0
BLOCK
  5
84
330
82
100
AcDbEntity
  8
0
100
AcDbBlockBegin
  2
block 3
 70
     0
 10
0.0
 20
0.0
 30
0.0
  3
block 3
  1

  0
SPLINE
  5
86
330
82
100
AcDbEntity
  8
_U+30EC_U+30A4_U+30E4_U+30FC 1
370
     0
100
AcDbSpline
210
0.0
220
0.0
230
1.0
 70
    11
 71
     3
 72
    38
 73
    34
 74
     0
 42
0.0000000001
 43
0.0000000001
 12
1.0
 22
0.0
 32
0.0
 13
1.0
 23
0.0
 33
0.0
 40
0.0
 40
0.0
 40
0.0
 40
0.0
 40
1.0
 40
1.0
 40
1.0
 40
2.0
 40
2.0
 40
2.0
 40
3.0
 40
3.0
 40
3.0
 40
4.0
 40
4.0
 40
4.0
 40
5.0
 40
5.0
 40
5.0
 40
6.0
 40
6.0
 40
6.0
 40
7.0
 40
7.0
 40
7.0
 40
8.0
 40
8.0
 40
8.0
 40
9.0
 40
9.0
 40
9.0
 40
10.0
 40
10.0
 40
10.0
 40
11.0
 40
11.0
 40
11.0
 40
11.0
 10
78.07344290582887
 20
-135.4508191935679
 30
0.0
 10
77.65589733301658
 20
-135.6568359035858
 30
0.0
 10
77.24834253711153
 20
-135.4521972317619
 30
0.0
 10
77.04060327935096
 20
-135.0312065634644
 30
0.0
 10
76.80874835319365
 20
-134.5606065201793
 30
0.0
 10
76.98961586616926
 20
-134.1527072147257
 30
0.0
 10
77.35582951625132
 20
-133.9721842112986
 30
0.0
 10
77.66519909082676
 20
-133.819566481302
 30
0.0
 10
77.99730629560484
 20
-133.8660752703529
 30
0.0
 10
78.15646970702339
 20
-134.1409938900759
 30
0.0
 10
78.15646970702339
 20
-134.1409938900759
 30
0.0
 10
77.94941946835988
 20
-134.2433132259878
 30
0.0
 10
77.94941946835988
 20
-134.2433132259878
 30
0.0
 10
77.82367348314826
 20
-134.074159037662
 30
0.0
 10
77.58975149969979
 20
-134.0972411774132
 30
0.0
 10
77.44574650841635
 20
-134.1685546539579
 30
0.0
 10
77.3527289303146
 20
-134.2140299143632
 30
0.0
 10
77.26246742860106
 20
-134.294645148718
 30
0.0
 10
77.21285805361346
 20
-134.4038546756004
 30
0.0
 10
77.12466360919106
 20
-134.5888563031583
 30
0.0
 10
77.19322100934752
 20
-134.7952175227248
 30
0.0
 10
77.26350095724663
 20
-134.9374999662656
 30
0.0
 10
77.45814885216325
 20
-135.3323079088753
 30
0.0
 10
77.77992077048557
 20
-135.3529784817867
 30
0.0
 10
77.9731906272081
 20
-135.2575493368453
 30
0.0
 10
78.09652504558004
 20
-135.1965711467564
 30
0.0
 10
78.30391979379208
 20
-135.0050238377765
 30
0.0
 10
78.19195419052146
 20
-134.7059895496568
 30
0.0
 10
78.19195419052146
 20
-134.7059895496568
 30
0.0
 10
78.39865991963644
 20
-134.6040147232935
 30
0.0
 10
78.39865991963644
 20
-134.6040147232935
 30
0.0
 10
78.44723576597848
 20
-134.7307942371506
 30
0.0
 10
78.61604544475571
 20
-135.1834797839125
 30
0.0
 10
78.07344290582887
 20
-135.4508191935679
 30
0.0
  0
HATCH
  5
87
330
82
100
AcDbEntity
  8
_U+30EC_U+30A4_U+30E4_U+30FC 1
 62
   179
420
  2234388
100
AcDbHatch
 10
0.0
 20
0.0
 30
0.0
210
0.0
220
0.0
230
1.0
  2
SOLID
 70
     1
 71
     0
 91
        1
 92
        1
 93
        1
 72
     4
 94
        3
 73
     0
 74
     1
 95
       38
 96
       34
 40
0.0
 40
0.0
 40
0.0
 40
0.0
 40
1.0
 40
1.0
 40
1.0
 40
2.0
 40
2.0
 40
2.0
 40
3.0
 40
3.0
 40
3.0
 40
4.0
 40
4.0
 40
4.0
 40
5.0
 40
5.0
 40
5.0
 40
6.0
 40
6.0
 40
6.0
 40
7.0
 40
7.0
 40
7.0
 40
8.0
 40
8.0
 40
8.0
 40
9.0
 40
9.0
 40
9.0
 40
10.0
 40
10.0
 40
10.0
 40
11.0
 40
11.0
 40
11.0
 40
11.0
 10
78.07344290582887
 20
-135.4508191935679
 10
77.65589733301658
 20
-135.6568359035858
 10
77.24834253711153
 20
-135.4521972317619
 10
77.04060327935096
 20
-135.0312065634644
 10
76.80874835319365
 20
-134.5606065201793
 10
76.98961586616926
 20
-134.1527072147257
 10
77.35582951625132
 20
-133.9721842112986
 10
77.66519909082676
 20
-133.819566481302
 10
77.99730629560484
 20
-133.8660752703529
 10
78.15646970702339
 20
-134.1409938900759
 10
78.15646970702339
 20
-134.1409938900759
 10
77.94941946835988
 20
-134.2433132259878
 10
77.94941946835988
 20
-134.2433132259878
 10
77.82367348314826
 20
-134.074159037662
 10
77.58975149969979
 20
-134.0972411774132
 10
77.44574650841635
 20
-134.1685546539579
 10
77.3527289303146
 20
-134.2140299143632
 10
77.26246742860106
 20
-134.294645148718
 10
77.21285805361346
 20
-134.4038546756004
 10
77.12466360919106
 20
-134.5888563031583
 10
77.19322100934752
 20
-134.7952175227248
 10
77.26350095724663
 20
-134.9374999662656
 10
77.45814885216325
 20
-135.3323079088753
 10
77.77992077048557
 20
-135.3529784817867
 10
77.9731906272081
 20
-135.2575493368453
 10
78.09652504558004
 20
-135.1965711467564
 10
78.30391979379208
 20
-135.0050238377765
 10
78.19195419052146
 20
-134.7059895496568
 10
78.19195419052146
 20
-134.7059895496568
 10
78.39865991963644
 20
-134.6040147232935
 10
78.39865991963644
 20
-134.6040147232935
 10
78.44723576597848
 20
-134.7307942371506
 10
78.61604544475571
 20
-135.1834797839125
 10
78.07344290582887
 20
-135.4508191935679
 97
        0
 97
        0
 75
     2
 76
     1
 98
        0
  0
SPLINE
  5
88
330
82
100
AcDbEntity
  8
_U+30EC_U+30A4_U+30E4_U+30FC 1
370
     0
100
AcDbSpline
210
0.0
220
0.0
230
1.0
 70
    11
 71
     3
 72
    44
 73
    40
 74
     0
 42
0.0000000001
 43
0.0000000001
 12
1.0
 22
0.0
 32
0.0
 13
1.0
 23
0.0
 33
0.0
 40
0.0
 40
0.0
 40
0.0
 40
0.0
 40
1.0
 40
1.0
 40
1.0
 40
2.0
 40
2.0
 40
2.0
 40
3.0
 40
3.0
 40
3.0
 40
4.0
 40
4.0
 40
4.0
 40
5.0
 40
5.0
 40
5.0
 40
6.0
 40
6.0
 40
6.0
 40
7.0
 40
7.0
 40
7.0
 40
8.0
 40
8.0
 40
8.0
 40
9.0
 40
9.0
 40
9.0
 40
10.0
 40
10.0
 40
10.0
 40
11.0
 40
11.0
 40
11.0
 40
12.0
 40
12.0
 40
12.0
 40
13.0
 40
13.0
 40
13.0
 40
13.0
 10
79.7329454010737
 20
-134.5761094498629
 30
0.0
 10
79.69229327434776
 20
-134.5468261382383
 30
0.0
 10
79.64991859987919
 20
-134.508585578352
 30
0.0
 10
79.54587671622464
 20
-134.3025688683341
 30
0.0
 10
79.43460013205107
 20
-134.0862168718604
 30
0.0
 10
79.35053980221097
 20
-134.0496988597168
 30
0.0
 10
79.19103188124392
 20
-134.128591546329
 30
0.0
 10
79.19103188124392
 20
-134.128591546329
 30
0.0
 10
78.82481823116186
 20
-134.3091145497561
 30
0.0
 10
78.82481823116186
 20
-134.3091145497561
 30
0.0
 10
78.82481823116186
 20
-134.3091145497561
 30
0.0
 10
79.10834958959792
 20
-134.8837564766957
 30
0.0
 10
79.10834958959792
 20
-134.8837564766957
 30
0.0
 10
79.10834958959792
 20
-134.8837564766957
 30
0.0
 10
78.89785425544915
 20
-134.9877983603503
 30
0.0
 10
78.89785425544915
 20
-134.9877983603503
 30
0.0
 10
78.89785425544915
 20
-134.9877983603503
 30
0.0
 10
78.21469182072411
 20
-133.6028699752798
 30
0.0
 10
78.21469182072411
 20
-133.6028699752798
 30
0.0
 10
78.21469182072411
 20
-133.6028699752798
 30
0.0
 10
78.8199950974825
 20
-133.3041801967087
 30
0.0
 10
78.8199950974825
 20
-133.3041801967087
 30
0.0
 10
79.09525822675397
 20
-133.1687879441384
 30
0.0
 10
79.32091198103784
 20
-133.2483696498476
 30
0.0
 10
79.43425562250255
 20
-133.4781575187138
 30
0.0
 10
79.45664874315668
 20
-133.5236327791191
 30
0.0
 10
79.48524303568425
 20
-133.6014919370857
 30
0.0
 10
79.48110892110195
 20
-133.6931314769934
 30
0.0
 10
79.47387422058293
 20
-133.812331780783
 30
0.0
 10
79.42357582649828
 20
-133.8584960602854
 30
0.0
 10
79.37603350880183
 20
-133.9005262252054
 30
0.0
 10
79.51797144279412
 20
-133.8777885950028
 30
0.0
 10
79.60030922489159
 20
-133.8912244673953
 30
0.0
 10
79.74362519707799
 20
-134.1719997494431
 30
0.0
 10
79.86695961544993
 20
-134.4131564334106
 30
0.0
 10
79.91312389495228
 20
-134.4255587771575
 30
0.0
 10
79.99821775343796
 20
-134.4451958214234
 30
0.0
 10
79.99821775343796
 20
-134.4451958214234
 30
0.0
 10
79.7329454010737
 20
-134.5761094498629
 30
0.0
 10
79.7329454010737
 20
-134.5761094498629
 30
0.0
  0
SPLINE
  5
89
330
82
100
AcDbEntity
  8
_U+30EC_U+30A4_U+30E4_U+30FC 1
370
     0
100
AcDbSpline
210
0.0
220
0.0
230
1.0
 70
    11
 71
     3
 72
    20
 73
    16
 74
     0
 42
0.0000000001
 43
0.0000000001
 12
1.0
 22
0.0
 32
0.0
 13
1.0
 23
0.0
 33
0.0
 40
0.0
 40
0.0
 40
0.0
 40
0.0
 40
1.0
 40
1.0
 40
1.0
 40
2.0
 40
2.0
 40
2.0
 40
3.0
 40
3.0
 40
3.0
 40
4.0
 40
4.0
 40
4.0
 40
5.0
 40
5.0
 40
5.0
 40
5.0
 10
78.91749129971508
 20
-133.4919379006548
 30
0.0
 10
78.91749129971508
 20
-133.4919379006548
 30
0.0
 10
78.51889375207166
 20
-133.688308343314
 30
0.0
 10
78.51889375207166
 20
-133.688308343314
 30
0.0
 10
78.51889375207166
 20
-133.688308343314
 30
0.0
 10
78.73145614351158
 20
-134.1192897885188
 30
0.0
 10
78.73145614351158
 20
-134.1192897885188
 30
0.0
 10
78.73145614351158
 20
-134.1192897885188
 30
0.0
 10
79.12798663386384
 20
-133.9239528745051
 30
0.0
 10
79.12798663386384
 20
-133.9239528745051
 30
0.0
 10
79.2172146069318
 20
-133.8798556522939
 30
0.0
 10
79.30472003225715
 20
-133.7516981002426
 30
0.0
 10
79.22927244113019
 20
-133.5980468416005
 30
0.0
 10
79.19447697672916
 20
-133.5277668937014
 30
0.0
 10
79.09594724585102
 20
-133.4040879657809
 30
0.0
 10
78.91749129971508
 20
-133.4919379006548
 30
0.0
  0
HATCH
  5
8A
330
82
100
AcDbEntity
  8
_U+30EC_U+30A4_U+30E4_U+30FC 1
 62
   179
420
  2234388
100
AcDbHatch
 10
0.0
 20
0.0
 30
0.0
210
0.0
220
0.0
230
1.0
  2
SOLID
 70
     1
 71
     0
 91
        2
 92
        1
 93
        1
 72
     4
 94
        3
 73
     0
 74
     1
 95
       44
 96
       40
 40
0.0
 40
0.0
 40
0.0
 40
0.0
 40
1.0
 40
1.0
 40
1.0
 40
2.0
 40
2.0
 40
2.0
 40
3.0
 40
3.0
 40
3.0
 40
4.0
 40
4.0
 40
4.0
 40
5.0
 40
5.0
 40
5.0
 40
6.0
 40
6.0
 40
6.0
 40
7.0
 40
7.0
 40
7.0
 40
8.0
 40
8.0
 40
8.0
 40
9.0
 40
9.0
 40
9.0
 40
10.0
 40
10.0
 40
10.0
 40
11.0
 40
11.0
 40
11.0
 40
12.0
 40
12.0
 40
12.0
 40
13.0
 40
13.0
 40
13.0
 40
13.0
 10
79.7329454010737
 20
-134.5761094498629
 10
79.69229327434776
 20
-134.5468261382383
 10
79.64991859987919
 20
-134.508585578352
 10
79.54587671622464
 20
-134.3025688683341
 10
79.43460013205107
 20
-134.0862168718604
 10
79.35053980221097
 20
-134.0496988597168
 10
79.19103188124392
 20
-134.128591546329
 10
79.19103188124392
 20
-134.128591546329
 10
78.82481823116186
 20
-134.3091145497561
 10
78.82481823116186
 20
-134.3091145497561
 10
78.82481823116186
 20
-134.3091145497561
 10
79.10834958959792
 20
-134.8837564766957
 10
79.10834958959792
 20
-134.8837564766957
 10
79.10834958959792
 20
-134.8837564766957
 10
78.89785425544915
 20
-134.9877983603503
 10
78.89785425544915
 20
-134.9877983603503
 10
78.89785425544915
 20
-134.9877983603503
 10
78.21469182072411
 20
-133.6028699752798
 10
78.21469182072411
 20
-133.6028699752798
 10
78.21469182072411
 20
-133.6028699752798
 10
78.8199950974825
 20
-133.3041801967087
 10
78.8199950974825
 20
-133.3041801967087
 10
79.09525822675397
 20
-133.1687879441384
 10
79.32091198103784
 20
-133.2483696498476
 10
79.43425562250255
 20
-133.4781575187138
 10
79.45664874315668
 20
-133.5236327791191
 10
79.48524303568425
 20
-133.6014919370857
 10
79.48110892110195
 20
-133.6931314769934
 10
79.47387422058293
 20
-133.812331780783
 10
79.42357582649828
 20
-133.8584960602854
 10
79.37603350880183
 20
-133.9005262252054
 10
79.51797144279412
 20
-133.8777885950028
 10
79.60030922489159
 20
-133.8912244673953
 10
79.74362519707799
 20
-134.1719997494431
 10
79.86695961544993
 20
-134.4131564334106
 10
79.91312389495228
 20
-134.4255587771575
 10
79.99821775343796
 20
-134.4451958214234
 10
79.99821775343796
 20
-134.4451958214234
 10
79.7329454010737
 20
-134.5761094498629
 10
79.7329454010737
 20
-134.5761094498629
 97
        0
 97
        0
 92
        1
 93
        1
 72
     4
 94
        3
 73
     0
 74
     1
 95
       20
 96
       16
 40
0.0
 40
0.0
 40
0.0
 40
0.0
 40
1.0
 40
1.0
 40
1.0
 40
2.0
 40
2.0
 40
2.0
 40
3.0
 40
3.0
 40
3.0
 40
4.0
 40
4.0
 40
4.0
 40
5.0
 40
5.0
 40
5.0
 40
5.0
 10
78.91749129971508
 20
-133.4919379006548
 10
78.91749129971508
 20
-133.4919379006548
 10
78.51889375207166
 20
-133.688308343314
 10
78.51889375207166
 20
-133.688308343314
 10
78.51889375207166
 20
-133.688308343314
 10
78.73145614351158
 20
-134.1192897885188
 10
78.73145614351158
 20
-134.1192897885188
 10
78.73145614351158
 20
-134.1192897885188
 10
79.12798663386384
 20
-133.9239528745051
 10
79.12798663386384
 20
-133.9239528745051
 10
79.2172146069318
 20
-133.8798556522939
 10
79.30472003225715
 20
-133.7516981002426
 10
79.22927244113019
 20
-133.5980468416005
 10
79.19447697672916
 20
-133.5277668937014
 10
79.09594724585102
 20
-133.4040879657809
 10
78.91749129971508
 20
-133.4919379006548
 97
        0
 97
        0
 75
     2
 76
     1
 98
        0
  0
SPLINE
  5
8B
330
82
100
AcDbEntity
  8
_U+30EC_U+30A4_U+30E4_U+30FC 1
370
     0
100
AcDbSpline
210
0.0
220
0.0
230
1.0
 70
    11
 71
     3
 72
    26
 73
    22
 74
     0
 42
0.0000000001
 43
0.0000000001
 12
1.0
 22
0.0
 32
0.0
 13
1.0
 23
0.0
 33
0.0
 40
0.0
 40
0.0
 40
0.0
 40
0.0
 40
1.0
 40
1.0
 40
1.0
 40
2.0
 40
2.0
 40
2.0
 40
3.0
 40
3.0
 40
3.0
 40
4.0
 40
4.0
 40
4.0
 40
5.0
 40
5.0
 40
5.0
 40
6.0
 40
6.0
 40
6.0
 40
7.0
 40
7.0
 40
7.0
 40
7.0
 10
80.54185382101038
 20
-133.47436791368
 30
0.0
 10
80.54185382101038
 20
-133.47436791368
 30
0.0
 10
80.13567706329941
 20
-133.674527961373
 30
0.0
 10
80.13567706329941
 20
-133.674527961373
 30
0.0
 10
80.13567706329941
 20
-133.674527961373
 30
0.0
 10
80.41472979760465
 20
-134.2398681305025
 30
0.0
 10
80.41472979760465
 20
-134.2398681305025
 30
0.0
 10
80.41472979760465
 20
-134.2398681305025
 30
0.0
 10
80.20423446345589
 20
-134.3435655046086
 30
0.0
 10
80.20423446345589
 20
-134.3435655046086
 30
0.0
 10
80.20423446345589
 20
-134.3435655046086
 30
0.0
 10
79.52107202873084
 20
-132.9586371195381
 30
0.0
 10
79.52107202873084
 20
-132.9586371195381
 30
0.0
 10
79.52107202873084
 20
-132.9586371195381
 30
0.0
 10
80.13774412059057
 20
-132.6544351881906
 30
0.0
 10
80.13774412059057
 20
-132.6544351881906
 30
0.0
 10
80.39543726288726
 20
-132.5273111647848
 30
0.0
 10
80.65175236698984
 20
-132.5824326925488
 30
0.0
 10
80.78369952407492
 20
-132.8501166117528
 30
0.0
 10
80.89325356050585
 20
-133.0719807610028
 30
0.0
 10
80.83985458048448
 20
-133.3272623364599
 30
0.0
 10
80.54185382101038
 20
-133.47436791368
 30
0.0
  0
SPLINE
  5
8C
330
82
100
AcDbEntity
  8
_U+30EC_U+30A4_U+30E4_U+30FC 1
370
     0
100
AcDbSpline
210
0.0
220
0.0
230
1.0
 70
    11
 71
     3
 72
    20
 73
    16
 74
     0
 42
0.0000000001
 43
0.0000000001
 12
1.0
 22
0.0
 32
0.0
 13
1.0
 23
0.0
 33
0.0
 40
0.0
 40
0.0
 40
0.0
 40
0.0
 40
1.0
 40
1.0
 40
1.0
 40
2.0
 40
2.0
 40
2.0
 40
3.0
 40
3.0
 40
3.0
 40
4.0
 40
4.0
 40
4.0
 40
5.0
 40
5.0
 40
5.0
 40
5.0
 10
80.22352699817328
 20
-132.8477050449131
 30
0.0
 10
80.22352699817328
 20
-132.8477050449131
 30
0.0
 10
79.8252739600784
 20
-133.0444199971209
 30
0.0
 10
79.8252739600784
 20
-133.0444199971209
 30
0.0
 10
79.8252739600784
 20
-133.0444199971209
 30
0.0
 10
80.04231497564915
 20
-133.4847032001358
 30
0.0
 10
80.04231497564915
 20
-133.4847032001358
 30
0.0
 10
80.04231497564915
 20
-133.4847032001358
 30
0.0
 10
80.44091252329255
 20
-133.287988247928
 30
0.0
 10
80.44091252329255
 20
-133.287988247928
 30
0.0
 10
80.5904296673524
 20
-133.2142632045437
 30
0.0
 10
80.6235025840108
 20
-133.0802489901674
 30
0.0
 10
80.56183537482482
 20
-132.9548475145043
 30
0.0
 10
80.51119247119165
 20
-132.8525281785924
 30
0.0
 10
80.39268118649906
 20
-132.7646782437185
 30
0.0
 10
80.22352699817328
 20
-132.8477050449131
 30
0.0
  0
HATCH
  5
8D
330
82
100
AcDbEntity
  8
_U+30EC_U+30A4_U+30E4_U+30FC 1
 62
   179
420
  2234388
100
AcDbHatch
 10
0.0
 20
0.0
 30
0.0
210
0.0
220
0.0
230
1.0
  2
SOLID
 70
     1
 71
     0
 91
        2
 92
        1
 93
        1
 72
     4
 94
        3
 73
     0
 74
     1
 95
       26
 96
       22
 40
0.0
 40
0.0
 40
0.0
 40
0.0
 40
1.0
 40
1.0
 40
1.0
 40
2.0
 40
2.0
 40
2.0
 40
3.0
 40
3.0
 40
3.0
 40
4.0
 40
4.0
 40
4.0
 40
5.0
 40
5.0
 40
5.0
 40
6.0
 40
6.0
 40
6.0
 40
7.0
 40
7.0
 40
7.0
 40
7.0
 10
80.54185382101038
 20
-133.47436791368
 10
80.54185382101038
 20
-133.47436791368
 10
80.13567706329941
 20
-133.674527961373
 10
80.13567706329941
 20
-133.674527961373
 10
80.13567706329941
 20
-133.674527961373
 10
80.41472979760465
 20
-134.2398681305025
 10
80.41472979760465
 20
-134.2398681305025
 10
80.41472979760465
 20
-134.2398681305025
 10
80.20423446345589
 20
-134.3435655046086
 10
80.20423446345589
 20
-134.3435655046086
 10
80.20423446345589
 20
-134.3435655046086
 10
79.52107202873084
 20
-132.9586371195381
 10
79.52107202873084
 20
-132.9586371195381
 10
79.52107202873084
 20
-132.9586371195381
 10
80.13774412059057
 20
-132.6544351881906
 10
80.13774412059057
 20
-132.6544351881906
 10
80.39543726288726
 20
-132.5273111647848
 10
80.65175236698984
 20
-132.5824326925488
 10
80.78369952407492
 20
-132.8501166117528
 10
80.89325356050585
 20
-133.0719807610028
 10
80.83985458048448
 20
-133.3272623364599
 10
80.54185382101038
 20
-133.47436791368
 97
        0
 97
        0
 92
        1
 93
        1
 72
     4
 94
        3
 73
     0
 74
     1
 95
       20
 96
       16
 40
0.0
 40
0.0
 40
0.0
 40
0.0
 40
1.0
 40
1.0
 40
1.0
 40
2.0
 40
2.0
 40
2.0
 40
3.0
 40
3.0
 40
3.0
 40
4.0
 40
4.0
 40
4.0
 40
5.0
 40
5.0
 40
5.0
 40
5.0
 10
80.22352699817328
 20
-132.8477050449131
 10
80.22352699817328
 20
-132.8477050449131
 10
79.8252739600784
 20
-133.0444199971209
 10
79.8252739600784
 20
-133.0444199971209
 10
79.8252739600784
 20
-133.0444199971209
 10
80.04231497564915
 20
-133.4847032001358
 10
80.04231497564915
 20
-133.4847032001358
 10
80.04231497564915
 20
-133.4847032001358
 10
80.44091252329255
 20
-133.287988247928
 10
80.44091252329255
 20
-133.287988247928
 10
80.5904296673524
 20
-133.2142632045437
 10
80.6235025840108
 20
-133.0802489901674
 10
80.56183537482482
 20
-132.9548475145043
 10
80.51119247119165
 20
-132.8525281785924
 10
80.39268118649906
 20
-132.7646782437185
 10
80.22352699817328
 20
-132.8477050449131
 97
        0
 97
        0
 75
     2
 76
     1
 98
        0
  0
POLYLINE
  5
8E
330
82
100
AcDbEntity
  8
_U+30EC_U+30A4_U+30E4_U+30FC 1
370
     0
100
AcDb2dPolyline
 66
     1
 10
0.0
 20
0.0
 30
0.0
  0
VERTEX
  5
8F
330
8E
100
AcDbEntity
  8
_U+30EC_U+30A4_U+30E4_U+30FC 1
370
     0
100
AcDbVertex
100
AcDb2dVertex
 10
81.18367510991241
 20
-133.3630913295065
 30
0.0
  0
VERTEX
  5
90
330
8E
100
AcDbEntity
  8
_U+30EC_U+30A4_U+30E4_U+30FC 1
370
     0
100
AcDbVertex
100
AcDb2dVertex
 10
81.088245964971
 20
-133.1694769632354
 30
0.0
  0
VERTEX
  5
91
330
8E
100
AcDbEntity
  8
_U+30EC_U+30A4_U+30E4_U+30FC 1
370
     0
100
AcDbVertex
100
AcDb2dVertex
 10
81.61396753602013
 20
-132.9104057827446
 30
0.0
  0
VERTEX
  5
92
330
8E
100
AcDbEntity
  8
_U+30EC_U+30A4_U+30E4_U+30FC 1
370
     0
100
AcDbVertex
100
AcDb2dVertex
 10
81.70939668096155
 20
-133.1036756394672
 30
0.0
  0
VERTEX
  5
93
330
8E
100
AcDbEntity
  8
_U+30EC_U+30A4_U+30E4_U+30FC 1
370
     0
100
AcDbVertex
100
AcDb2dVertex
 10
81.18367510991241
 20
-133.3630913295065
 30
0.0
  0
SEQEND
  5
94
330
8E
100
AcDbEntity
  8
_U+30EC_U+30A4_U+30E4_U+30FC 1
370
     0
  0
HATCH
  5
95
330
82
100
AcDbEntity
  8
_U+30EC_U+30A4_U+30E4_U+30FC 1
 62
   179
420
  2234388
100
AcDbHatch
 10
0.0
 20
0.0
 30
0.0
210
0.0
220
0.0
230
1.0
  2
SOLID
 70
     1
 71
     0
 91
        1
 92
        1
 93
        4
 72
     1
 10
81.18367510991241
 20
-133.3630913295065
 11
81.088245964971
 21
-133.1694769632354
 72
     1
 10
81.088245964971
 20
-133.1694769632354
 11
81.61396753602013
 21
-132.9104057827446
 72
     1
 10
81.61396753602013
 20
-132.9104057827446
 11
81.70939668096155
 21
-133.1036756394672
 72
     1
 10
81.70939668096155
 20
-133.1036756394672
 11
81.18367510991241
 21
-133.3630913295065
 97
        0
 75
     2
 76
     1
 98
        0
  0
SPLINE
  5
96
330
82
100
AcDbEntity
  8
_U+30EC_U+30A4_U+30E4_U+30FC 1
370
     0
100
AcDbSpline
210
0.0
220
0.0
230
1.0
 70
    11
 71
     3
 72
    62
 73
    58
 74
     0
 42
0.0000000001
 43
0.0000000001
 12
1.0
 22
0.0
 32
0.0
 13
1.0
 23
0.0
 33
0.0
 40
0.0
 40
0.0
 40
0.0
 40
0.0
 40
1.0
 40
1.0
 40
1.0
 40
2.0
 40
2.0
 40
2.0
 40
3.0
 40
3.0
 40
3.0
 40
4.0
 40
4.0
 40
4.0
 40
5.0
 40
5.0
 40
5.0
 40
6.0
 40
6.0
 40
6.0
 40
7.0
 40
7.0
 40
7.0
 40
8.0
 40
8.0
 40
8.0
 40
9.0
 40
9.0
 40
9.0
 40
10.0
 40
10.0
 40
10.0
 40
11.0
 40
11.0
 40
11.0
 40
12.0
 40
12.0
 40
12.0
 40
13.0
 40
13.0
 40
13.0
 40
14.0
 40
14.0
 40
14.0
 40
15.0
 40
15.0
 40
15.0
 40
16.0
 40
16.0
 40
16.0
 40
17.0
 40
17.0
 40
17.0
 40
18.0
 40
18.0
 40
18.0
 40
19.0
 40
19.0
 40
19.0
 40
19.0
 10
82.4852321842398
 20
-133.2752413946326
 30
0.0
 10
82.39979381620562
 20
-133.3172715595526
 30
0.0
 10
82.19515514438177
 20
-133.3947862079708
 30
0.0
 10
82.00085175901368
 20
-133.2831651142486
 30
0.0
 10
81.88509655070928
 20
-133.2149522236407
 30
0.0
 10
81.83720972346431
 20
-133.1281358174124
 30
0.0
 10
81.79621308718984
 20
-133.053721754931
 30
0.0
 10
81.79621308718984
 20
-133.053721754931
 30
0.0
 10
81.99327254894612
 20
-132.956570062247
 30
0.0
 10
81.99327254894612
 20
-132.956570062247
 30
0.0
 10
82.02806801334715
 20
-133.0220268764667
 30
0.0
 10
82.14141165481188
 20
-133.2276990769361
 30
0.0
 10
82.39565970162332
 20
-133.1026421108216
 30
0.0
 10
82.51899411999526
 20
-133.0416639207326
 30
0.0
 10
82.62475855139243
 20
-132.9117838209387
 30
0.0
 10
82.52381725367461
 20
-132.7071451491149
 30
0.0
 10
82.47214082139585
 20
-132.6027587559118
 30
0.0
 10
82.41633027453481
 20
-132.5758870111269
 30
0.0
 10
82.37395560006624
 20
-132.5614176100888
 30
0.0
 10
82.27473685009105
 20
-132.5276556743334
 30
0.0
 10
82.16483830411157
 20
-132.5679632915108
 30
0.0
 10
82.1155734386725
 20
-132.5920789599076
 30
0.0
 10
82.09869247079477
 20
-132.6006916986207
 30
0.0
 10
82.06699759233048
 20
-132.6182616855954
 30
0.0
 10
82.04425996212782
 20
-132.6341091248276
 30
0.0
 10
82.04425996212782
 20
-132.6341091248276
 30
0.0
 10
81.95813257499658
 20
-132.4594427837254
 30
0.0
 10
81.95813257499658
 20
-132.4594427837254
 30
0.0
 10
81.99499509668875
 20
-132.4487629877212
 30
0.0
 10
82.03392467567208
 20
-132.4315375102949
 30
0.0
 10
82.039781337997
 20
-132.4287814339067
 30
0.0
 10
82.09869247079477
 20
-132.3998426318306
 30
0.0
 10
82.26750214957201
 20
-132.2930446717879
 30
0.0
 10
82.16277124682043
 20
-132.0808267898965
 30
0.0
 10
82.08422306975673
 20
-131.9209743593809
 30
0.0
 10
81.94228513576444
 20
-131.9299316076425
 30
0.0
 10
81.84341089533777
 20
-131.978162944436
 30
0.0
 10
81.60638832595258
 20
-132.0952961909345
 30
0.0
 10
81.701817470894
 20
-132.308203091923
 30
0.0
 10
81.72972274432452
 20
-132.3740044156912
 30
0.0
 10
81.72972274432452
 20
-132.3740044156912
 30
0.0
 10
81.5474771931548
 20
-132.4639214078562
 30
0.0
 10
81.5474771931548
 20
-132.4639214078562
 30
0.0
 10
81.49993487545835
 20
-132.3485107091004
 30
0.0
 10
81.35799694146606
 20
-131.998489007799
 30
0.0
 10
81.7679633042108
 20
-131.7962619028148
 30
0.0
 10
81.96915688054938
 20
-131.6970431528396
 30
0.0
 10
82.24131942388412
 20
-131.7046223629072
 30
0.0
 10
82.37223305232361
 20
-131.9698947152714
 30
0.0
 10
82.4549153439696
 20
-132.136981846306
 30
0.0
 10
82.40599498807906
 20
-132.2530815641589
 30
0.0
 10
82.34398326934456
 20
-132.3519558045856
 30
0.0
 10
82.41116263130694
 20
-132.349544237746
 30
0.0
 10
82.60994464080585
 20
-132.3412760085814
 30
0.0
 10
82.73259004008075
 20
-132.5896673930679
 30
0.0
 10
82.8821071841406
 20
-132.8931803053184
 30
0.0
 10
82.73396807827484
 20
-133.1525959953577
 30
0.0
 10
82.4852321842398
 20
-133.2752413946326
 30
0.0
  0
HATCH
  5
97
330
82
100
AcDbEntity
  8
_U+30EC_U+30A4_U+30E4_U+30FC 1
 62
   179
420
  2234388
100
AcDbHatch
 10
0.0
 20
0.0
 30
0.0
210
0.0
220
0.0
230
1.0
  2
SOLID
 70
     1
 71
     0
 91
        1
 92
        1
 93
        1
 72
     4
 94
        3
 73
     0
 74
     1
 95
       62
 96
       58
 40
0.0
 40
0.0
 40
0.0
 40
0.0
 40
1.0
 40
1.0
 40
1.0
 40
2.0
 40
2.0
 40
2.0
 40
3.0
 40
3.0
 40
3.0
 40
4.0
 40
4.0
 40
4.0
 40
5.0
 40
5.0
 40
5.0
 40
6.0
 40
6.0
 40
6.0
 40
7.0
 40
7.0
 40
7.0
 40
8.0
 40
8.0
 40
8.0
 40
9.0
 40
9.0
 40
9.0
 40
10.0
 40
10.0
 40
10.0
 40
11.0
 40
11.0
 40
11.0
 40
12.0
 40
12.0
 40
12.0
 40
13.0
 40
13.0
 40
13.0
 40
14.0
 40
14.0
 40
14.0
 40
15.0
 40
15.0
 40
15.0
 40
16.0
 40
16.0
 40
16.0
 40
17.0
 40
17.0
 40
17.0
 40
18.0
 40
18.0
 40
18.0
 40
19.0
 40
19.0
 40
19.0
 40
19.0
 10
82.4852321842398
 20
-133.2752413946326
 10
82.39979381620562
 20
-133.3172715595526
 10
82.19515514438177
 20
-133.3947862079708
 10
82.00085175901368
 20
-133.2831651142486
 10
81.88509655070928
 20
-133.2149522236407
 10
81.83720972346431
 20
-133.1281358174124
 10
81.79621308718984
 20
-133.053721754931
 10
81.79621308718984
 20
-133.053721754931
 10
81.99327254894612
 20
-132.956570062247
 10
81.99327254894612
 20
-132.956570062247
 10
82.02806801334715
 20
-133.0220268764667
 10
82.14141165481188
 20
-133.2276990769361
 10
82.39565970162332
 20
-133.1026421108216
 10
82.51899411999526
 20
-133.0416639207326
 10
82.62475855139243
 20
-132.9117838209387
 10
82.52381725367461
 20
-132.7071451491149
 10
82.47214082139585
 20
-132.6027587559118
 10
82.41633027453481
 20
-132.5758870111269
 10
82.37395560006624
 20
-132.5614176100888
 10
82.27473685009105
 20
-132.5276556743334
 10
82.16483830411157
 20
-132.5679632915108
 10
82.1155734386725
 20
-132.5920789599076
 10
82.09869247079477
 20
-132.6006916986207
 10
82.06699759233048
 20
-132.6182616855954
 10
82.04425996212782
 20
-132.6341091248276
 10
82.04425996212782
 20
-132.6341091248276
 10
81.95813257499658
 20
-132.4594427837254
 10
81.95813257499658
 20
-132.4594427837254
 10
81.99499509668875
 20
-132.4487629877212
 10
82.03392467567208
 20
-132.4315375102949
 10
82.039781337997
 20
-132.4287814339067
 10
82.09869247079477
 20
-132.3998426318306
 10
82.26750214957201
 20
-132.2930446717879
 10
82.16277124682043
 20
-132.0808267898965
 10
82.08422306975673
 20
-131.9209743593809
 10
81.94228513576444
 20
-131.9299316076425
 10
81.84341089533777
 20
-131.978162944436
 10
81.60638832595258
 20
-132.0952961909345
 10
81.701817470894
 20
-132.308203091923
 10
81.72972274432452
 20
-132.3740044156912
 10
81.72972274432452
 20
-132.3740044156912
 10
81.5474771931548
 20
-132.4639214078562
 10
81.5474771931548
 20
-132.4639214078562
 10
81.49993487545835
 20
-132.3485107091004
 10
81.35799694146606
 20
-131.998489007799
 10
81.7679633042108
 20
-131.7962619028148
 10
81.96915688054938
 20
-131.6970431528396
 10
82.24131942388412
 20
-131.7046223629072
 10
82.37223305232361
 20
-131.9698947152714
 10
82.4549153439696
 20
-132.136981846306
 10
82.40599498807906
 20
-132.2530815641589
 10
82.34398326934456
 20
-132.3519558045856
 10
82.41116263130694
 20
-132.349544237746
 10
82.60994464080585
 20
-132.3412760085814
 10
82.73259004008075
 20
-132.5896673930679
 10
82.8821071841406
 20
-132.8931803053184
 10
82.73396807827484
 20
-133.1525959953577
 10
82.4852321842398
 20
-133.2752413946326
 97
        0
 97
        0
 75
     2
 76
     1
 98
        0
  0
SPLINE
  5
98
330
82
100
AcDbEntity
  8
_U+30EC_U+30A4_U+30E4_U+30FC 1
370
     0
100
AcDbSpline
210
0.0
220
0.0
230
1.0
 70
    11
 71
     3
 72
    29
 73
    25
 74
     0
 42
0.0000000001
 43
0.0000000001
 12
1.0
 22
0.0
 32
0.0
 13
1.0
 23
0.0
 33
0.0
 40
0.0
 40
0.0
 40
0.0
 40
0.0
 40
1.0
 40
1.0
 40
1.0
 40
2.0
 40
2.0
 40
2.0
 40
3.0
 40
3.0
 40
3.0
 40
4.0
 40
4.0
 40
4.0
 40
5.0
 40
5.0
 40
5.0
 40
6.0
 40
6.0
 40
6.0
 40
7.0
 40
7.0
 40
7.0
 40
8.0
 40
8.0
 40
8.0
 40
8.0
 10
83.80401473599345
 20
-132.3702148106574
 30
0.0
 10
83.79988062141115
 20
-132.6058593418485
 30
0.0
 10
83.6531195537395
 20
-132.6995659390473
 30
0.0
 10
83.5483886509879
 20
-132.7508978617776
 30
0.0
 10
83.40438365970446
 20
-132.8222113383222
 30
0.0
 10
83.25658906338724
 20
-132.8428819112337
 30
0.0
 10
83.09087997054672
 20
-132.7219590597014
 30
0.0
 10
82.91173500531373
 20
-132.5931124885531
 30
0.0
 10
82.7897786251359
 20
-132.3895073453749
 30
0.0
 10
82.71777612949417
 20
-132.2430907872517
 30
0.0
 10
82.65404186301704
 20
-132.1142442161034
 30
0.0
 10
82.55792369897858
 20
-131.8806667422035
 30
0.0
 10
82.56481388994908
 20
-131.6557020070166
 30
0.0
 10
82.5720485904681
 20
-131.4259141381505
 30
0.0
 10
82.7057182952958
 20
-131.3339300886943
 30
0.0
 10
82.82147350360019
 20
-131.2767415036392
 30
0.0
 10
82.96375594714101
 20
-131.20646155574
 30
0.0
 10
83.11223956255527
 20
-131.1826903968918
 30
0.0
 10
83.27829316494432
 20
-131.3036132484241
 30
0.0
 10
83.45261499649796
 20
-131.4324598195724
 30
0.0
 10
83.5745713766758
 20
-131.6271077144891
 30
0.0
 10
83.65139700599687
 20
-131.7828260304223
 30
0.0
 10
83.72684459712384
 20
-131.9364772890645
 30
0.0
 10
83.81021590786689
 20
-132.1524847759896
 30
0.0
 10
83.80401473599345
 20
-132.3702148106574
 30
0.0
  0
SPLINE
  5
99
330
82
100
AcDbEntity
  8
_U+30EC_U+30A4_U+30E4_U+30FC 1
370
     0
100
AcDbSpline
210
0.0
220
0.0
230
1.0
 70
    11
 71
     3
 72
    17
 73
    13
 74
     0
 42
0.0000000001
 43
0.0000000001
 12
1.0
 22
0.0
 32
0.0
 13
1.0
 23
0.0
 33
0.0
 40
0.0
 40
0.0
 40
0.0
 40
0.0
 40
1.0
 40
1.0
 40
1.0
 40
2.0
 40
2.0
 40
2.0
 40
3.0
 40
3.0
 40
3.0
 40
4.0
 40
4.0
 40
4.0
 40
4.0
 10
82.90656736208587
 20
-131.4496852969987
 30
0.0
 10
82.68298066509315
 20
-131.5599283525267
 30
0.0
 10
82.76635197583619
 20
-131.8348469722496
 30
0.0
 10
82.91896970583277
 20
-132.1438720372765
 30
0.0
 10
83.06021862072801
 20
-132.4305039816493
 30
0.0
 10
83.22902829950525
 20
-132.6912977098827
 30
0.0
 10
83.46226126385666
 20
-132.5762315206754
 30
0.0
 10
83.68412541310676
 20
-132.4666774842445
 30
0.0
 10
83.6035101787519
 20
-132.1931369027156
 30
0.0
 10
83.45020342965829
 20
-131.8820447803976
 30
0.0
 10
83.30895451476304
 20
-131.5954128360248
 30
0.0
 10
83.13807777869465
 20
-131.3353081268884
 30
0.0
 10
82.90656736208587
 20
-131.4496852969987
 30
0.0
  0
HATCH
  5
9A
330
82
100
AcDbEntity
  8
_U+30EC_U+30A4_U+30E4_U+30FC 1
 62
   179
420
  2234388
100
AcDbHatch
 10
0.0
 20
0.0
 30
0.0
210
0.0
220
0.0
230
1.0
  2
SOLID
 70
     1
 71
     0
 91
        2
 92
        1
 93
        1
 72
     4
 94
        3
 73
     0
 74
     1
 95
       29
 96
       25
 40
0.0
 40
0.0
 40
0.0
 40
0.0
 40
1.0
 40
1.0
 40
1.0
 40
2.0
 40
2.0
 40
2.0
 40
3.0
 40
3.0
 40
3.0
 40
4.0
 40
4.0
 40
4.0
 40
5.0
 40
5.0
 40
5.0
 40
6.0
 40
6.0
 40
6.0
 40
7.0
 40
7.0
 40
7.0
 40
8.0
 40
8.0
 40
8.0
 40
8.0
 10
83.80401473599345
 20
-132.3702148106574
 10
83.79988062141115
 20
-132.6058593418485
 10
83.6531195537395
 20
-132.6995659390473
 10
83.5483886509879
 20
-132.7508978617776
 10
83.40438365970446
 20
-132.8222113383222
 10
83.25658906338724
 20
-132.8428819112337
 10
83.09087997054672
 20
-132.7219590597014
 10
82.91173500531373
 20
-132.5931124885531
 10
82.7897786251359
 20
-132.3895073453749
 10
82.71777612949417
 20
-132.2430907872517
 10
82.65404186301704
 20
-132.1142442161034
 10
82.55792369897858
 20
-131.8806667422035
 10
82.56481388994908
 20
-131.6557020070166
 10
82.5720485904681
 20
-131.4259141381505
 10
82.7057182952958
 20
-131.3339300886943
 10
82.82147350360019
 20
-131.2767415036392
 10
82.96375594714101
 20
-131.20646155574
 10
83.11223956255527
 20
-131.1826903968918
 10
83.27829316494432
 20
-131.3036132484241
 10
83.45261499649796
 20
-131.4324598195724
 10
83.5745713766758
 20
-131.6271077144891
 10
83.65139700599687
 20
-131.7828260304223
 10
83.72684459712384
 20
-131.9364772890645
 10
83.81021590786689
 20
-132.1524847759896
 10
83.80401473599345
 20
-132.3702148106574
 97
        0
 97
        0
 92
        1
 93
        1
 72
     4
 94
        3
 73
     0
 74
     1
 95
       17
 96
       13
 40
0.0
 40
0.0
 40
0.0
 40
0.0
 40
1.0
 40
1.0
 40
1.0
 40
2.0
 40
2.0
 40
2.0
 40
3.0
 40
3.0
 40
3.0
 40
4.0
 40
4.0
 40
4.0
 40
4.0
 10
82.90656736208587
 20
-131.4496852969987
 10
82.68298066509315
 20
-131.5599283525267
 10
82.76635197583619
 20
-131.8348469722496
 10
82.91896970583277
 20
-132.1438720372765
 10
83.06021862072801
 20
-132.4305039816493
 10
83.22902829950525
 20
-132.6912977098827
 10
83.46226126385666
 20
-132.5762315206754
 10
83.68412541310676
 20
-132.4666774842445
 10
83.6035101787519
 20
-132.1931369027156
 10
83.45020342965829
 20
-131.8820447803976
 10
83.30895451476304
 20
-131.5954128360248
 10
83.13807777869465
 20
-131.3353081268884
 10
82.90656736208587
 20
-131.4496852969987
 97
        0
 97
        0
 75
     2
 76
     1
 98
        0
  0
POLYLINE
  5
9B
330
82
100
AcDbEntity
  8
_U+30EC_U+30A4_U+30E4_U+30FC 1
370
     0
100
AcDb2dPolyline
 66
     1
 10
0.0
 20
0.0
 30
0.0
  0
VERTEX
  5
9C
330
9B
100
AcDbEntity
  8
_U+30EC_U+30A4_U+30E4_U+30FC 1
370
     0
100
AcDbVertex
100
AcDb2dVertex
 10
85.1107394535487
 20
-131.9240749453176
 30
0.0
  0
VERTEX
  5
9D
330
9B
100
AcDbEntity
  8
_U+30EC_U+30A4_U+30E4_U+30FC 1
370
     0
100
AcDbVertex
100
AcDb2dVertex
 10
84.79930282168212
 20
-131.2922444333228
 30
0.0
  0
VERTEX
  5
9E
330
9B
100
AcDbEntity
  8
_U+30EC_U+30A4_U+30E4_U+30FC 1
370
     0
100
AcDbVertex
100
AcDb2dVertex
 10
84.12785371160693
 20
-131.6233181094553
 30
0.0
  0
VERTEX
  5
9F
330
9B
100
AcDbEntity
  8
_U+30EC_U+30A4_U+30E4_U+30FC 1
370
     0
100
AcDbVertex
100
AcDb2dVertex
 10
84.43929034347352
 20
-132.2551486214501
 30
0.0
  0
VERTEX
  5
A0
330
9B
100
AcDbEntity
  8
_U+30EC_U+30A4_U+30E4_U+30FC 1
370
     0
100
AcDbVertex
100
AcDb2dVertex
 10
84.22845049977623
 20
-132.3591905051047
 30
0.0
  0
VERTEX
  5
A1
330
9B
100
AcDbEntity
  8
_U+30EC_U+30A4_U+30E4_U+30FC 1
370
     0
100
AcDbVertex
100
AcDb2dVertex
 10
83.54563257459971
 20
-130.9739176104857
 30
0.0
  0
VERTEX
  5
A2
330
9B
100
AcDbEntity
  8
_U+30EC_U+30A4_U+30E4_U+30FC 1
370
     0
100
AcDbVertex
100
AcDb2dVertex
 10
83.756472418297
 20
-130.8698757268311
 30
0.0
  0
VERTEX
  5
A3
330
9B
100
AcDbEntity
  8
_U+30EC_U+30A4_U+30E4_U+30FC 1
370
     0
100
AcDbVertex
100
AcDb2dVertex
 10
84.03414711440813
 20
-131.433493348218
 30
0.0
  0
VERTEX
  5
A4
330
9B
100
AcDbEntity
  8
_U+30EC_U+30A4_U+30E4_U+30FC 1
370
     0
100
AcDbVertex
100
AcDb2dVertex
 10
84.70559622448333
 20
-131.1024196720855
 30
0.0
  0
VERTEX
  5
A5
330
9B
100
AcDbEntity
  8
_U+30EC_U+30A4_U+30E4_U+30FC 1
370
     0
100
AcDbVertex
100
AcDb2dVertex
 10
84.42757701882367
 20
-130.5388020506986
 30
0.0
  0
VERTEX
  5
A6
330
9B
100
AcDbEntity
  8
_U+30EC_U+30A4_U+30E4_U+30FC 1
370
     0
100
AcDbVertex
100
AcDb2dVertex
 10
84.63841686252096
 20
-130.4347601670441
 30
0.0
  0
VERTEX
  5
A7
330
9B
100
AcDbEntity
  8
_U+30EC_U+30A4_U+30E4_U+30FC 1
370
     0
100
AcDbVertex
100
AcDb2dVertex
 10
85.321579297246
 20
-131.8200330616631
 30
0.0
  0
VERTEX
  5
A8
330
9B
100
AcDbEntity
  8
_U+30EC_U+30A4_U+30E4_U+30FC 1
370
     0
100
AcDbVertex
100
AcDb2dVertex
 10
85.1107394535487
 20
-131.9240749453176
 30
0.0
  0
SEQEND
  5
A9
330
9B
100
AcDbEntity
  8
_U+30EC_U+30A4_U+30E4_U+30FC 1
370
     0
  0
HATCH
  5
AA
330
82
100
AcDbEntity
  8
_U+30EC_U+30A4_U+30E4_U+30FC 1
 62
   179
420
  2234388
100
AcDbHatch
 10
0.0
 20
0.0
 30
0.0
210
0.0
220
0.0
230
1.0
  2
SOLID
 70
     1
 71
     0
 91
        1
 92
        1
 93
       12
 72
     1
 10
85.1107394535487
 20
-131.9240749453176
 11
84.79930282168212
 21
-131.2922444333228
 72
     1
 10
84.79930282168212
 20
-131.2922444333228
 11
84.12785371160693
 21
-131.6233181094553
 72
     1
 10
84.12785371160693
 20
-131.6233181094553
 11
84.43929034347352
 21
-132.2551486214501
 72
     1
 10
84.43929034347352
 20
-132.2551486214501
 11
84.22845049977623
 21
-132.3591905051047
 72
     1
 10
84.22845049977623
 20
-132.3591905051047
 11
83.54563257459971
 21
-130.9739176104857
 72
     1
 10
83.54563257459971
 20
-130.9739176104857
 11
83.756472418297
 21
-130.8698757268311
 72
     1
 10
83.756472418297
 20
-130.8698757268311
 11
84.03414711440813
 21
-131.433493348218
 72
     1
 10
84.03414711440813
 20
-131.433493348218
 11
84.70559622448333
 21
-131.1024196720855
 72
     1
 10
84.70559622448333
 20
-131.1024196720855
 11
84.42757701882367
 21
-130.5388020506986
 72
     1
 10
84.42757701882367
 20
-130.5388020506986
 11
84.63841686252096
 21
-130.4347601670441
 72
     1
 10
84.63841686252096
 20
-130.4347601670441
 11
85.321579297246
 21
-131.8200330616631
 72
     1
 10
85.321579297246
 20
-131.8200330616631
 11
85.1107394535487
 21
-131.9240749453176
 97
        0
 75
     2
 76
     1
 98
        0
  0
SPLINE
  5
AB
330
82
100
AcDbEntity
  8
_U+30EC_U+30A4_U+30E4_U+30FC 1
370
     0
100
AcDbSpline
210
0.0
220
0.0
230
1.0
 70
    11
 71
     3
 72
    26
 73
    22
 74
     0
 42
0.0000000001
 43
0.0000000001
 12
1.0
 22
0.0
 32
0.0
 13
1.0
 23
0.0
 33
0.0
 40
0.0
 40
0.0
 40
0.0
 40
0.0
 40
1.0
 40
1.0
 40
1.0
 40
2.0
 40
2.0
 40
2.0
 40
3.0
 40
3.0
 40
3.0
 40
4.0
 40
4.0
 40
4.0
 40
5.0
 40
5.0
 40
5.0
 40
6.0
 40
6.0
 40
6.0
 40
7.0
 40
7.0
 40
7.0
 40
7.0
 10
86.28034937079103
 20
-131.3470214515382
 30
0.0
 10
86.28034937079103
 20
-131.3470214515382
 30
0.0
 10
85.66953394125623
 20
-131.6484673064976
 30
0.0
 10
85.66953394125623
 20
-131.6484673064976
 30
0.0
 10
85.66953394125623
 20
-131.6484673064976
 30
0.0
 10
84.98637150653119
 20
-130.2631944118787
 30
0.0
 10
84.98637150653119
 20
-130.2631944118787
 30
0.0
 10
84.98637150653119
 20
-130.2631944118787
 30
0.0
 10
85.58581812096466
 20
-129.9676052192442
 30
0.0
 10
85.58581812096466
 20
-129.9676052192442
 30
0.0
 10
85.77736542994455
 20
-129.8732096029484
 30
0.0
 10
86.01783309481499
 20
-129.8773437175307
 30
0.0
 10
86.13703339860463
 20
-130.1185004014982
 30
0.0
 10
86.24176430135623
 20
-130.3307182833896
 30
0.0
 10
86.12738713124594
 20
-130.467488574154
 30
0.0
 10
86.07950030400096
 20
-130.5239881401121
 30
0.0
 10
86.14943574235153
 20
-130.5081407008799
 30
0.0
 10
86.3806016494118
 20
-130.4602538736349
 30
0.0
 10
86.51530488288506
 20
-130.7337944551638
 30
0.0
 10
86.61727970924846
 20
-130.9405001842788
 30
0.0
 10
86.57077092019759
 20
-131.2040499889004
 30
0.0
 10
86.28034937079103
 20
-131.3470214515382
 30
0.0
  0
SPLINE
  5
AC
330
82
100
AcDbEntity
  8
_U+30EC_U+30A4_U+30E4_U+30FC 1
370
     0
100
AcDbSpline
210
0.0
220
0.0
230
1.0
 70
    11
 71
     3
 72
    20
 73
    16
 74
     0
 42
0.0000000001
 43
0.0000000001
 12
1.0
 22
0.0
 32
0.0
 13
1.0
 23
0.0
 33
0.0
 40
0.0
 40
0.0
 40
0.0
 40
0.0
 40
1.0
 40
1.0
 40
1.0
 40
2.0
 40
2.0
 40
2.0
 40
3.0
 40
3.0
 40
3.0
 40
4.0
 40
4.0
 40
4.0
 40
5.0
 40
5.0
 40
5.0
 40
5.0
 10
85.61682398033192
 20
-130.1880913303002
 30
0.0
 10
85.61682398033192
 20
-130.1880913303002
 30
0.0
 10
85.29057343787875
 20
-130.3489772894614
 30
0.0
 10
85.29057343787875
 20
-130.3489772894614
 30
0.0
 10
85.29057343787875
 20
-130.3489772894614
 30
0.0
 10
85.47488604633962
 20
-130.7231146591595
 30
0.0
 10
85.47488604633962
 20
-130.7231146591595
 30
0.0
 10
85.47488604633962
 20
-130.7231146591595
 30
0.0
 10
85.80113658879277
 20
-130.5622286999983
 30
0.0
 10
85.80113658879277
 20
-130.5622286999983
 30
0.0
 10
85.92653806445587
 20
-130.5005614908124
 30
0.0
 10
86.0026746746799
 20
-130.4016872503857
 30
0.0
 10
85.93446178407194
 20
-130.2631944118787
 30
0.0
 10
85.86039223113907
 20
-130.1129882487218
 30
0.0
 10
85.72121037353497
 20
-130.13675940757
 30
0.0
 10
85.61682398033192
 20
-130.1880913303002
 30
0.0
  0
SPLINE
  5
AD
330
82
100
AcDbEntity
  8
_U+30EC_U+30A4_U+30E4_U+30FC 1
370
     0
100
AcDbSpline
210
0.0
220
0.0
230
1.0
 70
    11
 71
     3
 72
    20
 73
    16
 74
     0
 42
0.0000000001
 43
0.0000000001
 12
1.0
 22
0.0
 32
0.0
 13
1.0
 23
0.0
 33
0.0
 40
0.0
 40
0.0
 40
0.0
 40
0.0
 40
1.0
 40
1.0
 40
1.0
 40
2.0
 40
2.0
 40
2.0
 40
3.0
 40
3.0
 40
3.0
 40
4.0
 40
4.0
 40
4.0
 40
5.0
 40
5.0
 40
5.0
 40
5.0
 10
85.94204099413949
 20
-130.7286268119359
 30
0.0
 10
85.94204099413949
 20
-130.7286268119359
 30
0.0
 10
85.56859264353841
 20
-130.9125949108482
 30
0.0
 10
85.56859264353841
 20
-130.9125949108482
 30
0.0
 10
85.56859264353841
 20
-130.9125949108482
 30
0.0
 10
85.78666718775473
 20
-131.3549451711543
 30
0.0
 10
85.78666718775473
 20
-131.3549451711543
 30
0.0
 10
85.78666718775473
 20
-131.3549451711543
 30
0.0
 10
86.16011553835581
 20
-131.1706325626935
 30
0.0
 10
86.16011553835581
 20
-131.1706325626935
 30
0.0
 10
86.30274249144516
 20
-131.1003526147944
 30
0.0
 10
86.36096460514587
 20
-130.9701280054519
 30
0.0
 10
86.29068465724677
 20
-130.8278455619111
 30
0.0
 10
86.23005097670638
 20
-130.7045111435392
 30
0.0
 10
86.09775931007279
 20
-130.6518011826148
 30
0.0
 10
85.94204099413949
 20
-130.7286268119359
 30
0.0
  0
HATCH
  5
AE
330
82
100
AcDbEntity
  8
_U+30EC_U+30A4_U+30E4_U+30FC 1
 62
   179
420
  2234388
100
AcDbHatch
 10
0.0
 20
0.0
 30
0.0
210
0.0
220
0.0
230
1.0
  2
SOLID
 70
     1
 71
     0
 91
        3
 92
        1
 93
        1
 72
     4
 94
        3
 73
     0
 74
     1
 95
       26
 96
       22
 40
0.0
 40
0.0
 40
0.0
 40
0.0
 40
1.0
 40
1.0
 40
1.0
 40
2.0
 40
2.0
 40
2.0
 40
3.0
 40
3.0
 40
3.0
 40
4.0
 40
4.0
 40
4.0
 40
5.0
 40
5.0
 40
5.0
 40
6.0
 40
6.0
 40
6.0
 40
7.0
 40
7.0
 40
7.0
 40
7.0
 10
86.28034937079103
 20
-131.3470214515382
 10
86.28034937079103
 20
-131.3470214515382
 10
85.66953394125623
 20
-131.6484673064976
 10
85.66953394125623
 20
-131.6484673064976
 10
85.66953394125623
 20
-131.6484673064976
 10
84.98637150653119
 20
-130.2631944118787
 10
84.98637150653119
 20
-130.2631944118787
 10
84.98637150653119
 20
-130.2631944118787
 10
85.58581812096466
 20
-129.9676052192442
 10
85.58581812096466
 20
-129.9676052192442
 10
85.77736542994455
 20
-129.8732096029484
 10
86.01783309481499
 20
-129.8773437175307
 10
86.13703339860463
 20
-130.1185004014982
 10
86.24176430135623
 20
-130.3307182833896
 10
86.12738713124594
 20
-130.467488574154
 10
86.07950030400096
 20
-130.5239881401121
 10
86.14943574235153
 20
-130.5081407008799
 10
86.3806016494118
 20
-130.4602538736349
 10
86.51530488288506
 20
-130.7337944551638
 10
86.61727970924846
 20
-130.9405001842788
 10
86.57077092019759
 20
-131.2040499889004
 10
86.28034937079103
 20
-131.3470214515382
 97
        0
 97
        0
 92
        1
 93
        1
 72
     4
 94
        3
 73
     0
 74
     1
 95
       20
 96
       16
 40
0.0
 40
0.0
 40
0.0
 40
0.0
 40
1.0
 40
1.0
 40
1.0
 40
2.0
 40
2.0
 40
2.0
 40
3.0
 40
3.0
 40
3.0
 40
4.0
 40
4.0
 40
4.0
 40
5.0
 40
5.0
 40
5.0
 40
5.0
 10
85.61682398033192
 20
-130.1880913303002
 10
85.61682398033192
 20
-130.1880913303002
 10
85.29057343787875
 20
-130.3489772894614
 10
85.29057343787875
 20
-130.3489772894614
 10
85.29057343787875
 20
-130.3489772894614
 10
85.47488604633962
 20
-130.7231146591595
 10
85.47488604633962
 20
-130.7231146591595
 10
85.47488604633962
 20
-130.7231146591595
 10
85.80113658879277
 20
-130.5622286999983
 10
85.80113658879277
 20
-130.5622286999983
 10
85.92653806445587
 20
-130.5005614908124
 10
86.0026746746799
 20
-130.4016872503857
 10
85.93446178407194
 20
-130.2631944118787
 10
85.86039223113907
 20
-130.1129882487218
 10
85.72121037353497
 20
-130.13675940757
 10
85.61682398033192
 20
-130.1880913303002
 97
        0
 97
        0
 92
        1
 93
        1
 72
     4
 94
        3
 73
     0
 74
     1
 95
       20
 96
       16
 40
0.0
 40
0.0
 40
0.0
 40
0.0
 40
1.0
 40
1.0
 40
1.0
 40
2.0
 40
2.0
 40
2.0
 40
3.0
 40
3.0
 40
3.0
 40
4.0
 40
4.0
 40
4.0
 40
5.0
 40
5.0
 40
5.0
 40
5.0
 10
85.94204099413949
 20
-130.7286268119359
 10
85.94204099413949
 20
-130.7286268119359
 10
85.56859264353841
 20
-130.9125949108482
 10
85.56859264353841
 20
-130.9125949108482
 10
85.56859264353841
 20
-130.9125949108482
 10
85.78666718775473
 20
-131.3549451711543
 10
85.78666718775473
 20
-131.3549451711543
 10
85.78666718775473
 20
-131.3549451711543
 10
86.16011553835581
 20
-131.1706325626935
 10
86.16011553835581
 20
-131.1706325626935
 10
86.30274249144516
 20
-131.1003526147944
 10
86.36096460514587
 20
-130.9701280054519
 10
86.29068465724677
 20
-130.8278455619111
 10
86.23005097670638
 20
-130.7045111435392
 10
86.09775931007279
 20
-130.6518011826148
 10
85.94204099413949
 20
-130.7286268119359
 97
        0
 97
        0
 75
     2
 76
     1
 98
        0
  0
ENDBLK
  5
85
330
82
100
AcDbEntity
  8
0
100
AcDbBlockEnd
  0
BLOCK
  5
B1
330
AF
100
AcDbEntity
  8
0
100
AcDbBlockBegin
  2
block 4
 70
     0
 10
0.0
 20
0.0
 30
0.0
  3
block 4
  1

  0
SPLINE
  5
B3
330
AF
100
AcDbEntity
  8
_U+30EC_U+30A4_U+30E4_U+30FC 1
370
     0
100
AcDbSpline
210
0.0
220
0.0
230
1.0
 70
    11
 71
     3
 72
    38
 73
    34
 74
     0
 42
0.0000000001
 43
0.0000000001
 12
1.0
 22
0.0
 32
0.0
 13
1.0
 23
0.0
 33
0.0
 40
0.0
 40
0.0
 40
0.0
 40
0.0
 40
1.0
 40
1.0
 40
1.0
 40
2.0
 40
2.0
 40
2.0
 40
3.0
 40
3.0
 40
3.0
 40
4.0
 40
4.0
 40
4.0
 40
5.0
 40
5.0
 40
5.0
 40
6.0
 40
6.0
 40
6.0
 40
7.0
 40
7.0
 40
7.0
 40
8.0
 40
8.0
 40
8.0
 40
9.0
 40
9.0
 40
9.0
 40
10.0
 40
10.0
 40
10.0
 40
11.0
 40
11.0
 40
11.0
 40
11.0
 10
95.82016327899635
 20
-131.5151421112184
 30
0.0
 10
95.4029622157326
 20
-131.309469910749
 30
0.0
 10
95.31717933814987
 20
-130.8616074976665
 30
0.0
 10
95.52491859591044
 20
-130.4402723198205
 30
0.0
 10
95.75677352206776
 20
-129.9696722765354
 30
0.0
 10
96.1905110436607
 20
-129.8652858833323
 30
0.0
 10
96.55672469374277
 20
-130.0458088867594
 30
0.0
 10
96.86609426831821
 20
-130.1980821072074
 30
0.0
 10
97.03111434206167
 20
-130.4898816948081
 30
0.0
 10
96.90984698098087
 20
-130.7837483396999
 30
0.0
 10
96.90984698098087
 20
-130.7837483396999
 30
0.0
 10
96.70314125186589
 20
-130.6817735133365
 30
0.0
 10
96.70314125186589
 20
-130.6817735133365
 30
0.0
 10
96.76067434646956
 20
-130.4788573892553
 30
0.0
 10
96.5997883873084
 20
-130.3076361436384
 30
0.0
 10
96.45578339602494
 20
-130.2363226670937
 30
0.0
 10
96.3627658179232
 20
-130.1905028971399
 30
0.0
 10
96.2442545332306
 20
-130.1677652669372
 30
0.0
 10
96.12712128673212
 20
-130.1949815212707
 30
0.0
 10
95.92661672949058
 20
-130.2373561957393
 30
0.0
 10
95.80466034931273
 20
-130.4178791991664
 30
0.0
 10
95.73438040141363
 20
-130.5601616427072
 30
0.0
 10
95.53973250649702
 20
-130.9546250757683
 30
0.0
 10
95.71922198127854
 20
-131.2226535045207
 30
0.0
 10
95.91283634754957
 20
-131.3180826494622
 30
0.0
 10
96.03617076592151
 20
-131.3787163300026
 30
0.0
 10
96.3145344811297
 20
-131.4266031572475
 30
0.0
 10
96.48334415990695
 20
-131.1558186521069
 30
0.0
 10
96.48334415990695
 20
-131.1558186521069
 30
0.0
 10
96.69004988902194
 20
-131.2577934784703
 30
0.0
 10
96.69004988902194
 20
-131.2577934784703
 30
0.0
 10
96.61908092202579
 20
-131.3735486867747
 30
0.0
 10
96.3627658179232
 20
-131.7828260304223
 30
0.0
 10
95.82016327899635
 20
-131.5151421112184
 30
0.0
  0
HATCH
  5
B4
330
AF
100
AcDbEntity
  8
_U+30EC_U+30A4_U+30E4_U+30FC 1
 62
   179
420
  2234388
100
AcDbHatch
 10
0.0
 20
0.0
 30
0.0
210
0.0
220
0.0
230
1.0
  2
SOLID
 70
     1
 71
     0
 91
        1
 92
        1
 93
        1
 72
     4
 94
        3
 73
     0
 74
     1
 95
       38
 96
       34
 40
0.0
 40
0.0
 40
0.0
 40
0.0
 40
1.0
 40
1.0
 40
1.0
 40
2.0
 40
2.0
 40
2.0
 40
3.0
 40
3.0
 40
3.0
 40
4.0
 40
4.0
 40
4.0
 40
5.0
 40
5.0
 40
5.0
 40
6.0
 40
6.0
 40
6.0
 40
7.0
 40
7.0
 40
7.0
 40
8.0
 40
8.0
 40
8.0
 40
9.0
 40
9.0
 40
9.0
 40
10.0
 40
10.0
 40
10.0
 40
11.0
 40
11.0
 40
11.0
 40
11.0
 10
95.82016327899635
 20
-131.5151421112184
 10
95.4029622157326
 20
-131.309469910749
 10
95.31717933814987
 20
-130.8616074976665
 10
95.52491859591044
 20
-130.4402723198205
 10
95.75677352206776
 20
-129.9696722765354
 10
96.1905110436607
 20
-129.8652858833323
 10
96.55672469374277
 20
-130.0458088867594
 10
96.86609426831821
 20
-130.1980821072074
 10
97.03111434206167
 20
-130.4898816948081
 10
96.90984698098087
 20
-130.7837483396999
 10
96.90984698098087
 20
-130.7837483396999
 10
96.70314125186589
 20
-130.6817735133365
 10
96.70314125186589
 20
-130.6817735133365
 10
96.76067434646956
 20
-130.4788573892553
 10
96.5997883873084
 20
-130.3076361436384
 10
96.45578339602494
 20
-130.2363226670937
 10
96.3627658179232
 20
-130.1905028971399
 10
96.2442545332306
 20
-130.1677652669372
 10
96.12712128673212
 20
-130.1949815212707
 10
95.92661672949058
 20
-130.2373561957393
 10
95.80466034931273
 20
-130.4178791991664
 10
95.73438040141363
 20
-130.5601616427072
 10
95.53973250649702
 20
-130.9546250757683
 10
95.71922198127854
 20
-131.2226535045207
 10
95.91283634754957
 20
-131.3180826494622
 10
96.03617076592151
 20
-131.3787163300026
 10
96.3145344811297
 20
-131.4266031572475
 10
96.48334415990695
 20
-131.1558186521069
 10
96.48334415990695
 20
-131.1558186521069
 10
96.69004988902194
 20
-131.2577934784703
 10
96.69004988902194
 20
-131.2577934784703
 10
96.61908092202579
 20
-131.3735486867747
 10
96.3627658179232
 20
-131.7828260304223
 10
95.82016327899635
 20
-131.5151421112184
 97
        0
 97
        0
 75
     2
 76
     1
 98
        0
  0
SPLINE
  5
B5
330
AF
100
AcDbEntity
  8
_U+30EC_U+30A4_U+30E4_U+30FC 1
370
     0
100
AcDbSpline
210
0.0
220
0.0
230
1.0
 70
    11
 71
     3
 72
    44
 73
    40
 74
     0
 42
0.0000000001
 43
0.0000000001
 12
1.0
 22
0.0
 32
0.0
 13
1.0
 23
0.0
 33
0.0
 40
0.0
 40
0.0
 40
0.0
 40
0.0
 40
1.0
 40
1.0
 40
1.0
 40
2.0
 40
2.0
 40
2.0
 40
3.0
 40
3.0
 40
3.0
 40
4.0
 40
4.0
 40
4.0
 40
5.0
 40
5.0
 40
5.0
 40
6.0
 40
6.0
 40
6.0
 40
7.0
 40
7.0
 40
7.0
 40
8.0
 40
8.0
 40
8.0
 40
9.0
 40
9.0
 40
9.0
 40
10.0
 40
10.0
 40
10.0
 40
11.0
 40
11.0
 40
11.0
 40
12.0
 40
12.0
 40
12.0
 40
13.0
 40
13.0
 40
13.0
 40
13.0
 10
97.52445201554944
 20
-132.2989013341128
 30
0.0
 10
97.52307397735535
 20
-132.2489474495767
 30
0.0
 10
97.52755260148618
 20
-132.19210337407
 30
0.0
 10
97.62780488010694
 20
-131.9843641163095
 30
0.0
 10
97.73150225421296
 20
-131.764222514802
 30
0.0
 10
97.70945364310737
 20
-131.6753390512825
 30
0.0
 10
97.5499457221403
 20
-131.5967908742189
 30
0.0
 10
97.5499457221403
 20
-131.5967908742189
 30
0.0
 10
97.18373207205823
 20
-131.4162678707918
 30
0.0
 10
97.18373207205823
 20
-131.4162678707918
 30
0.0
 10
97.18373207205823
 20
-131.4162678707918
 30
0.0
 10
96.90020071362218
 20
-131.99125430728
 30
0.0
 10
96.90020071362218
 20
-131.99125430728
 30
0.0
 10
96.90020071362218
 20
-131.99125430728
 30
0.0
 10
96.68970537947341
 20
-131.887556933174
 30
0.0
 10
96.68970537947341
 20
-131.887556933174
 30
0.0
 10
96.68970537947341
 20
-131.887556933174
 30
0.0
 10
97.37286781419846
 20
-130.502284038555
 30
0.0
 10
97.37286781419846
 20
-130.502284038555
 30
0.0
 10
97.37286781419846
 20
-130.502284038555
 30
0.0
 10
97.97782658140832
 20
-130.8006293075776
 30
0.0
 10
97.97782658140832
 20
-130.8006293075776
 30
0.0
 10
98.25274520113126
 20
-130.9363660696965
 30
0.0
 10
98.32715926361266
 20
-131.1640868812715
 30
0.0
 10
98.21381562214793
 20
-131.3938747501377
 30
0.0
 10
98.19142250149382
 20
-131.4393500105429
 30
0.0
 10
98.14732527928261
 20
-131.509629958442
 30
0.0
 10
98.07187768815565
 20
-131.5619954098179
 30
0.0
 10
97.97300344772897
 20
-131.6288302622317
 30
0.0
 10
97.90582408576661
 20
-131.6167724280333
 30
0.0
 10
97.84312334793506
 20
-131.6047145938349
 30
0.0
 10
97.94785425068665
 20
-131.7035888342616
 30
0.0
 10
97.9871283392185
 20
-131.7769693680974
 30
0.0
 10
97.85139157709966
 20
-132.0615342551791
 30
0.0
 10
97.73529185924674
 20
-132.3064805441803
 30
0.0
 10
97.75389537486708
 20
-132.3505777663915
 30
0.0
 10
97.7900688774622
 20
-132.4301594721008
 30
0.0
 10
97.7900688774622
 20
-132.4301594721008
 30
0.0
 10
97.52445201554944
 20
-132.2989013341128
 30
0.0
 10
97.52445201554944
 20
-132.2989013341128
 30
0.0
  0
SPLINE
  5
B6
330
AF
100
AcDbEntity
  8
_U+30EC_U+30A4_U+30E4_U+30FC 1
370
     0
100
AcDbSpline
210
0.0
220
0.0
230
1.0
 70
    11
 71
     3
 72
    20
 73
    16
 74
     0
 42
0.0000000001
 43
0.0000000001
 12
1.0
 22
0.0
 32
0.0
 13
1.0
 23
0.0
 33
0.0
 40
0.0
 40
0.0
 40
0.0
 40
0.0
 40
1.0
 40
1.0
 40
1.0
 40
2.0
 40
2.0
 40
2.0
 40
3.0
 40
3.0
 40
3.0
 40
4.0
 40
4.0
 40
4.0
 40
5.0
 40
5.0
 40
5.0
 40
5.0
 10
97.8879095892433
 20
-130.9921766165575
 30
0.0
 10
97.8879095892433
 20
-130.9921766165575
 30
0.0
 10
97.48965655114843
 20
-130.7958061738983
 30
0.0
 10
97.48965655114843
 20
-130.7958061738983
 30
0.0
 10
97.48965655114843
 20
-130.7958061738983
 30
0.0
 10
97.27709415970851
 20
-131.226787619103
 30
0.0
 10
97.27709415970851
 20
-131.226787619103
 30
0.0
 10
97.27709415970851
 20
-131.226787619103
 30
0.0
 10
97.67396915960929
 20
-131.4221245331167
 30
0.0
 10
97.67396915960929
 20
-131.4221245331167
 30
0.0
 10
97.76285262312874
 20
-131.4662217553279
 30
0.0
 10
97.91788191996498
 20
-131.4576090166148
 30
0.0
 10
97.99367402064047
 20
-131.3039577579726
 30
0.0
 10
98.0284694850415
 20
-131.2340223196221
 30
0.0
 10
98.06636553537925
 20
-131.0803710609799
 30
0.0
 10
97.8879095892433
 20
-130.9921766165575
 30
0.0
  0
HATCH
  5
B7
330
AF
100
AcDbEntity
  8
_U+30EC_U+30A4_U+30E4_U+30FC 1
 62
   179
420
  2234388
100
AcDbHatch
 10
0.0
 20
0.0
 30
0.0
210
0.0
220
0.0
230
1.0
  2
SOLID
 70
     1
 71
     0
 91
        2
 92
        1
 93
        1
 72
     4
 94
        3
 73
     0
 74
     1
 95
       44
 96
       40
 40
0.0
 40
0.0
 40
0.0
 40
0.0
 40
1.0
 40
1.0
 40
1.0
 40
2.0
 40
2.0
 40
2.0
 40
3.0
 40
3.0
 40
3.0
 40
4.0
 40
4.0
 40
4.0
 40
5.0
 40
5.0
 40
5.0
 40
6.0
 40
6.0
 40
6.0
 40
7.0
 40
7.0
 40
7.0
 40
8.0
 40
8.0
 40
8.0
 40
9.0
 40
9.0
 40
9.0
 40
10.0
 40
10.0
 40
10.0
 40
11.0
 40
11.0
 40
11.0
 40
12.0
 40
12.0
 40
12.0
 40
13.0
 40
13.0
 40
13.0
 40
13.0
 10
97.52445201554944
 20
-132.2989013341128
 10
97.52307397735535
 20
-132.2489474495767
 10
97.52755260148618
 20
-132.19210337407
 10
97.62780488010694
 20
-131.9843641163095
 10
97.73150225421296
 20
-131.764222514802
 10
97.70945364310737
 20
-131.6753390512825
 10
97.5499457221403
 20
-131.5967908742189
 10
97.5499457221403
 20
-131.5967908742189
 10
97.18373207205823
 20
-131.4162678707918
 10
97.18373207205823
 20
-131.4162678707918
 10
97.18373207205823
 20
-131.4162678707918
 10
96.90020071362218
 20
-131.99125430728
 10
96.90020071362218
 20
-131.99125430728
 10
96.90020071362218
 20
-131.99125430728
 10
96.68970537947341
 20
-131.887556933174
 10
96.68970537947341
 20
-131.887556933174
 10
96.68970537947341
 20
-131.887556933174
 10
97.37286781419846
 20
-130.502284038555
 10
97.37286781419846
 20
-130.502284038555
 10
97.37286781419846
 20
-130.502284038555
 10
97.97782658140832
 20
-130.8006293075776
 10
97.97782658140832
 20
-130.8006293075776
 10
98.25274520113126
 20
-130.9363660696965
 10
98.32715926361266
 20
-131.1640868812715
 10
98.21381562214793
 20
-131.3938747501377
 10
98.19142250149382
 20
-131.4393500105429
 10
98.14732527928261
 20
-131.509629958442
 10
98.07187768815565
 20
-131.5619954098179
 10
97.97300344772897
 20
-131.6288302622317
 10
97.90582408576661
 20
-131.6167724280333
 10
97.84312334793506
 20
-131.6047145938349
 10
97.94785425068665
 20
-131.7035888342616
 10
97.9871283392185
 20
-131.7769693680974
 10
97.85139157709966
 20
-132.0615342551791
 10
97.73529185924674
 20
-132.3064805441803
 10
97.75389537486708
 20
-132.3505777663915
 10
97.7900688774622
 20
-132.4301594721008
 10
97.7900688774622
 20
-132.4301594721008
 10
97.52445201554944
 20
-132.2989013341128
 10
97.52445201554944
 20
-132.2989013341128
 97
        0
 97
        0
 92
        1
 93
        1
 72
     4
 94
        3
 73
     0
 74
     1
 95
       20
 96
       16
 40
0.0
 40
0.0
 40
0.0
 40
0.0
 40
1.0
 40
1.0
 40
1.0
 40
2.0
 40
2.0
 40
2.0
 40
3.0
 40
3.0
 40
3.0
 40
4.0
 40
4.0
 40
4.0
 40
5.0
 40
5.0
 40
5.0
 40
5.0
 10
97.8879095892433
 20
-130.9921766165575
 10
97.8879095892433
 20
-130.9921766165575
 10
97.48965655114843
 20
-130.7958061738983
 10
97.48965655114843
 20
-130.7958061738983
 10
97.48965655114843
 20
-130.7958061738983
 10
97.27709415970851
 20
-131.226787619103
 10
97.27709415970851
 20
-131.226787619103
 10
97.27709415970851
 20
-131.226787619103
 10
97.67396915960929
 20
-131.4221245331167
 10
97.67396915960929
 20
-131.4221245331167
 10
97.76285262312874
 20
-131.4662217553279
 10
97.91788191996498
 20
-131.4576090166148
 10
97.99367402064047
 20
-131.3039577579726
 10
98.0284694850415
 20
-131.2340223196221
 10
98.06636553537925
 20
-131.0803710609799
 10
97.8879095892433
 20
-130.9921766165575
 97
        0
 97
        0
 75
     2
 76
     1
 98
        0
  0
SPLINE
  5
B8
330
AF
100
AcDbEntity
  8
_U+30EC_U+30A4_U+30E4_U+30FC 1
370
     0
100
AcDbSpline
210
0.0
220
0.0
230
1.0
 70
    11
 71
     3
 72
    26
 73
    22
 74
     0
 42
0.0000000001
 43
0.0000000001
 12
1.0
 22
0.0
 32
0.0
 13
1.0
 23
0.0
 33
0.0
 40
0.0
 40
0.0
 40
0.0
 40
0.0
 40
1.0
 40
1.0
 40
1.0
 40
2.0
 40
2.0
 40
2.0
 40
3.0
 40
3.0
 40
3.0
 40
4.0
 40
4.0
 40
4.0
 40
5.0
 40
5.0
 40
5.0
 40
6.0
 40
6.0
 40
6.0
 40
7.0
 40
7.0
 40
7.0
 40
7.0
 10
98.89112139454805
 20
-132.2703070415852
 30
0.0
 10
98.89112139454805
 20
-132.2703070415852
 30
0.0
 10
98.4849446368371
 20
-132.0701469938922
 30
0.0
 10
98.4849446368371
 20
-132.0701469938922
 30
0.0
 10
98.4849446368371
 20
-132.0701469938922
 30
0.0
 10
98.20623641208039
 20
-132.6354871630217
 30
0.0
 10
98.20623641208039
 20
-132.6354871630217
 30
0.0
 10
98.20623641208039
 20
-132.6354871630217
 30
0.0
 10
97.99574107793163
 20
-132.5314452793671
 30
0.0
 10
97.99574107793163
 20
-132.5314452793671
 30
0.0
 10
97.99574107793163
 20
-132.5314452793671
 30
0.0
 10
98.67890351265667
 20
-131.1465168942967
 30
0.0
 10
98.67890351265667
 20
-131.1465168942967
 30
0.0
 10
98.67890351265667
 20
-131.1465168942967
 30
0.0
 10
99.29523109496786
 20
-131.4503743160957
 30
0.0
 10
99.29523109496786
 20
-131.4503743160957
 30
0.0
 10
99.5536132563616
 20
-131.57784284905
 30
0.0
 10
99.66557885963222
 20
-131.8145209088867
 30
0.0
 10
99.53363170254715
 20
-132.0822048280906
 30
0.0
 10
99.4240776661162
 20
-132.3040689773406
 30
0.0
 10
99.18912215402217
 20
-132.4170681092569
 30
0.0
 10
98.89112139454805
 20
-132.2703070415852
 30
0.0
  0
SPLINE
  5
B9
330
AF
100
AcDbEntity
  8
_U+30EC_U+30A4_U+30E4_U+30FC 1
370
     0
100
AcDbSpline
210
0.0
220
0.0
230
1.0
 70
    11
 71
     3
 72
    20
 73
    16
 74
     0
 42
0.0000000001
 43
0.0000000001
 12
1.0
 22
0.0
 32
0.0
 13
1.0
 23
0.0
 33
0.0
 40
0.0
 40
0.0
 40
0.0
 40
0.0
 40
1.0
 40
1.0
 40
1.0
 40
2.0
 40
2.0
 40
2.0
 40
3.0
 40
3.0
 40
3.0
 40
4.0
 40
4.0
 40
4.0
 40
5.0
 40
5.0
 40
5.0
 40
5.0
 10
99.19428979725004
 20
-131.6364094722992
 30
0.0
 10
99.19428979725004
 20
-131.6364094722992
 30
0.0
 10
98.79569224960663
 20
-131.44003902964
 30
0.0
 10
98.79569224960663
 20
-131.44003902964
 30
0.0
 10
98.79569224960663
 20
-131.44003902964
 30
0.0
 10
98.5786512340359
 20
-131.8803222326549
 30
0.0
 10
98.5786512340359
 20
-131.8803222326549
 30
0.0
 10
98.5786512340359
 20
-131.8803222326549
 30
0.0
 10
98.97690427213078
 20
-132.0766926753142
 30
0.0
 10
98.97690427213078
 20
-132.0766926753142
 30
0.0
 10
99.12711043528768
 20
-132.150762228247
 30
0.0
 10
99.25354543959634
 20
-132.0952961909345
 30
0.0
 10
99.3152126487823
 20
-131.9698947152714
 30
0.0
 10
99.36585555241548
 20
-131.8675753793595
 30
0.0
 10
99.36309947602729
 20
-131.7197807830423
 30
0.0
 10
99.19428979725004
 20
-131.6364094722992
 30
0.0
  0
HATCH
  5
BA
330
AF
100
AcDbEntity
  8
_U+30EC_U+30A4_U+30E4_U+30FC 1
 62
   179
420
  2234388
100
AcDbHatch
 10
0.0
 20
0.0
 30
0.0
210
0.0
220
0.0
230
1.0
  2
SOLID
 70
     1
 71
     0
 91
        2
 92
        1
 93
        1
 72
     4
 94
        3
 73
     0
 74
     1
 95
       26
 96
       22
 40
0.0
 40
0.0
 40
0.0
 40
0.0
 40
1.0
 40
1.0
 40
1.0
 40
2.0
 40
2.0
 40
2.0
 40
3.0
 40
3.0
 40
3.0
 40
4.0
 40
4.0
 40
4.0
 40
5.0
 40
5.0
 40
5.0
 40
6.0
 40
6.0
 40
6.0
 40
7.0
 40
7.0
 40
7.0
 40
7.0
 10
98.89112139454805
 20
-132.2703070415852
 10
98.89112139454805
 20
-132.2703070415852
 10
98.4849446368371
 20
-132.0701469938922
 10
98.4849446368371
 20
-132.0701469938922
 10
98.4849446368371
 20
-132.0701469938922
 10
98.20623641208039
 20
-132.6354871630217
 10
98.20623641208039
 20
-132.6354871630217
 10
98.20623641208039
 20
-132.6354871630217
 10
97.99574107793163
 20
-132.5314452793671
 10
97.99574107793163
 20
-132.5314452793671
 10
97.99574107793163
 20
-132.5314452793671
 10
98.67890351265667
 20
-131.1465168942967
 10
98.67890351265667
 20
-131.1465168942967
 10
98.67890351265667
 20
-131.1465168942967
 10
99.29523109496786
 20
-131.4503743160957
 10
99.29523109496786
 20
-131.4503743160957
 10
99.5536132563616
 20
-131.57784284905
 10
99.66557885963222
 20
-131.8145209088867
 10
99.53363170254715
 20
-132.0822048280906
 10
99.4240776661162
 20
-132.3040689773406
 10
99.18912215402217
 20
-132.4170681092569
 10
98.89112139454805
 20
-132.2703070415852
 97
        0
 97
        0
 92
        1
 93
        1
 72
     4
 94
        3
 73
     0
 74
     1
 95
       20
 96
       16
 40
0.0
 40
0.0
 40
0.0
 40
0.0
 40
1.0
 40
1.0
 40
1.0
 40
2.0
 40
2.0
 40
2.0
 40
3.0
 40
3.0
 40
3.0
 40
4.0
 40
4.0
 40
4.0
 40
5.0
 40
5.0
 40
5.0
 40
5.0
 10
99.19428979725004
 20
-131.6364094722992
 10
99.19428979725004
 20
-131.6364094722992
 10
98.79569224960663
 20
-131.44003902964
 10
98.79569224960663
 20
-131.44003902964
 10
98.79569224960663
 20
-131.44003902964
 10
98.5786512340359
 20
-131.8803222326549
 10
98.5786512340359
 20
-131.8803222326549
 10
98.5786512340359
 20
-131.8803222326549
 10
98.97690427213078
 20
-132.0766926753142
 10
98.97690427213078
 20
-132.0766926753142
 10
99.12711043528768
 20
-132.150762228247
 10
99.25354543959634
 20
-132.0952961909345
 10
99.3152126487823
 20
-131.9698947152714
 10
99.36585555241548
 20
-131.8675753793595
 10
99.36309947602729
 20
-131.7197807830423
 10
99.19428979725004
 20
-131.6364094722992
 97
        0
 97
        0
 75
     2
 76
     1
 98
        0
  0
POLYLINE
  5
BB
330
AF
100
AcDbEntity
  8
_U+30EC_U+30A4_U+30E4_U+30FC 1
370
     0
100
AcDb2dPolyline
 66
     1
 10
0.0
 20
0.0
 30
0.0
  0
VERTEX
  5
BC
330
BB
100
AcDbEntity
  8
_U+30EC_U+30A4_U+30E4_U+30FC 1
370
     0
100
AcDbVertex
100
AcDb2dVertex
 10
99.36998966699778
 20
-132.7116237732457
 30
0.0
  0
VERTEX
  5
BD
330
BB
100
AcDbEntity
  8
_U+30EC_U+30A4_U+30E4_U+30FC 1
370
     0
100
AcDbVertex
100
AcDb2dVertex
 10
99.4654188119392
 20
-132.5180094069747
 30
0.0
  0
VERTEX
  5
BE
330
BB
100
AcDbEntity
  8
_U+30EC_U+30A4_U+30E4_U+30FC 1
370
     0
100
AcDbVertex
100
AcDb2dVertex
 10
99.99114038298833
 20
-132.777425097014
 30
0.0
  0
VERTEX
  5
BF
330
BB
100
AcDbEntity
  8
_U+30EC_U+30A4_U+30E4_U+30FC 1
370
     0
100
AcDbVertex
100
AcDb2dVertex
 10
99.89571123804691
 20
-132.9706949537365
 30
0.0
  0
VERTEX
  5
C0
330
BB
100
AcDbEntity
  8
_U+30EC_U+30A4_U+30E4_U+30FC 1
370
     0
100
AcDbVertex
100
AcDb2dVertex
 10
99.36998966699778
 20
-132.7116237732457
 30
0.0
  0
SEQEND
  5
C1
330
BB
100
AcDbEntity
  8
_U+30EC_U+30A4_U+30E4_U+30FC 1
370
     0
  0
HATCH
  5
C2
330
AF
100
AcDbEntity
  8
_U+30EC_U+30A4_U+30E4_U+30FC 1
 62
   179
420
  2234388
100
AcDbHatch
 10
0.0
 20
0.0
 30
0.0
210
0.0
220
0.0
230
1.0
  2
SOLID
 70
     1
 71
     0
 91
        1
 92
        1
 93
        4
 72
     1
 10
99.36998966699778
 20
-132.7116237732457
 11
99.4654188119392
 21
-132.5180094069747
 72
     1
 10
99.4654188119392
 20
-132.5180094069747
 11
99.99114038298833
 21
-132.777425097014
 72
     1
 10
99.99114038298833
 20
-132.777425097014
 11
99.89571123804691
 21
-132.9706949537365
 72
     1
 10
99.89571123804691
 20
-132.9706949537365
 11
99.36998966699778
 21
-132.7116237732457
 97
        0
 75
     2
 76
     1
 98
        0
  0
SPLINE
  5
C3
330
AF
100
AcDbEntity
  8
_U+30EC_U+30A4_U+30E4_U+30FC 1
370
     0
100
AcDbSpline
210
0.0
220
0.0
230
1.0
 70
    11
 71
     3
 72
    62
 73
    58
 74
     0
 42
0.0000000001
 43
0.0000000001
 12
1.0
 22
0.0
 32
0.0
 13
1.0
 23
0.0
 33
0.0
 40
0.0
 40
0.0
 40
0.0
 40
0.0
 40
1.0
 40
1.0
 40
1.0
 40
2.0
 40
2.0
 40
2.0
 40
3.0
 40
3.0
 40
3.0
 40
4.0
 40
4.0
 40
4.0
 40
5.0
 40
5.0
 40
5.0
 40
6.0
 40
6.0
 40
6.0
 40
7.0
 40
7.0
 40
7.0
 40
8.0
 40
8.0
 40
8.0
 40
9.0
 40
9.0
 40
9.0
 40
10.0
 40
10.0
 40
10.0
 40
11.0
 40
11.0
 40
11.0
 40
12.0
 40
12.0
 40
12.0
 40
13.0
 40
13.0
 40
13.0
 40
14.0
 40
14.0
 40
14.0
 40
15.0
 40
15.0
 40
15.0
 40
16.0
 40
16.0
 40
16.0
 40
17.0
 40
17.0
 40
17.0
 40
18.0
 40
18.0
 40
18.0
 40
19.0
 40
19.0
 40
19.0
 40
19.0
 10
100.2322970669558
 20
-133.6910644197022
 30
0.0
 10
100.1468586989216
 20
-133.6486897452337
 30
0.0
 10
99.96082354271813
 20
-133.5336235560263
 30
0.0
 10
99.93119572154498
 20
-133.3117594067762
 30
0.0
 10
99.91431475366726
 20
-133.1780897019486
 30
0.0
 10
99.95427786129616
 20
-133.087139181138
 30
0.0
 10
99.98803979705161
 20
-133.0092800231713
 30
0.0
 10
99.98803979705161
 20
-133.0092800231713
 30
0.0
 10
100.1854437683564
 20
-133.1064317158553
 30
0.0
 10
100.1854437683564
 20
-133.1064317158553
 30
0.0
 10
100.1544379089892
 20
-133.1739555873662
 30
0.0
 10
100.0600422926933
 20
-133.3889295456458
 30
0.0
 10
100.3142903395048
 20
-133.5143310213089
 30
0.0
 10
100.4376247578767
 20
-133.5753092113978
 30
0.0
 10
100.6050563984599
 20
-133.5801323450772
 30
0.0
 10
100.7063422057262
 20
-133.3754936732533
 30
0.0
 10
100.7576741284564
 20
-133.2711072800503
 30
0.0
 10
100.744927275161
 20
-133.2104735995099
 30
0.0
 10
100.7308023836715
 20
-133.1680989250413
 30
0.0
 10
100.697040447916
 20
-133.0688801750661
 30
0.0
 10
100.5981662074894
 20
-133.0061794372346
 30
0.0
 10
100.5489013420503
 20
-132.9817192592893
 30
0.0
 10
100.5320203741726
 20
-132.9734510301247
 30
0.0
 10
100.4989474575142
 20
-132.9589816290867
 30
0.0
 10
100.4720757127292
 20
-132.9507133999221
 30
0.0
 10
100.4720757127292
 20
-132.9507133999221
 30
0.0
 10
100.5582030998604
 20
-132.7760470588199
 30
0.0
 10
100.5582030998604
 20
-132.7760470588199
 30
0.0
 10
100.5895534687762
 20
-132.7991291985711
 30
0.0
 10
100.6264159904684
 20
-132.819455261934
 30
0.0
 10
100.6322726527933
 20
-132.8222113383222
 30
0.0
 10
100.6911837855911
 20
-132.8511501403983
 30
0.0
 10
100.8789414895372
 20
-132.9200520501033
 30
0.0
 10
100.9836723922888
 20
-132.7078341682119
 30
0.0
 10
101.0622205693525
 20
-132.5483262472449
 30
0.0
 10
100.9688584817022
 20
-132.4408392681051
 30
0.0
 10
100.8703287508241
 20
-132.3922634217631
 30
0.0
 10
100.6333061814389
 20
-132.2754746848131
 30
0.0
 10
100.5223741068139
 20
-132.4804578661854
 30
0.0
 10
100.4868896233158
 20
-132.5428140944685
 30
0.0
 10
100.4868896233158
 20
-132.5428140944685
 30
0.0
 10
100.3049885816946
 20
-132.453241611852
 30
0.0
 10
100.3049885816946
 20
-132.453241611852
 30
0.0
 10
100.3676893195261
 20
-132.3450656136151
 30
0.0
 10
100.5588921189575
 20
-132.019504090259
 30
0.0
 10
100.9685139721537
 20
-132.2213866856947
 30
0.0
 10
101.1697075484923
 20
-132.3206054356698
 30
0.0
 10
101.3299044885564
 20
-132.5414360562744
 30
0.0
 10
101.1989908601169
 20
-132.8067084086386
 30
0.0
 10
101.1163085684709
 20
-132.9737955396732
 30
0.0
 10
100.9946966978416
 20
-133.005834927686
 30
0.0
 10
100.8785969799887
 20
-133.0165147236903
 30
0.0
 10
100.9213161640058
 20
-133.0685356655176
 30
0.0
 10
101.04878469696
 20
-133.2211533955142
 30
0.0
 10
100.9261392976851
 20
-133.4695447800007
 30
0.0
 10
100.7766221536253
 20
-133.7730576922512
 30
0.0
 10
100.4806884514423
 20
-133.8133653094286
 30
0.0
 10
100.2322970669558
 20
-133.6910644197022
 30
0.0
  0
HATCH
  5
C4
330
AF
100
AcDbEntity
  8
_U+30EC_U+30A4_U+30E4_U+30FC 1
 62
   179
420
  2234388
100
AcDbHatch
 10
0.0
 20
0.0
 30
0.0
210
0.0
220
0.0
230
1.0
  2
SOLID
 70
     1
 71
     0
 91
        1
 92
        1
 93
        1
 72
     4
 94
        3
 73
     0
 74
     1
 95
       62
 96
       58
 40
0.0
 40
0.0
 40
0.0
 40
0.0
 40
1.0
 40
1.0
 40
1.0
 40
2.0
 40
2.0
 40
2.0
 40
3.0
 40
3.0
 40
3.0
 40
4.0
 40
4.0
 40
4.0
 40
5.0
 40
5.0
 40
5.0
 40
6.0
 40
6.0
 40
6.0
 40
7.0
 40
7.0
 40
7.0
 40
8.0
 40
8.0
 40
8.0
 40
9.0
 40
9.0
 40
9.0
 40
10.0
 40
10.0
 40
10.0
 40
11.0
 40
11.0
 40
11.0
 40
12.0
 40
12.0
 40
12.0
 40
13.0
 40
13.0
 40
13.0
 40
14.0
 40
14.0
 40
14.0
 40
15.0
 40
15.0
 40
15.0
 40
16.0
 40
16.0
 40
16.0
 40
17.0
 40
17.0
 40
17.0
 40
18.0
 40
18.0
 40
18.0
 40
19.0
 40
19.0
 40
19.0
 40
19.0
 10
100.2322970669558
 20
-133.6910644197022
 10
100.1468586989216
 20
-133.6486897452337
 10
99.96082354271813
 20
-133.5336235560263
 10
99.93119572154498
 20
-133.3117594067762
 10
99.91431475366726
 20
-133.1780897019486
 10
99.95427786129616
 20
-133.087139181138
 10
99.98803979705161
 20
-133.0092800231713
 10
99.98803979705161
 20
-133.0092800231713
 10
100.1854437683564
 20
-133.1064317158553
 10
100.1854437683564
 20
-133.1064317158553
 10
100.1544379089892
 20
-133.1739555873662
 10
100.0600422926933
 20
-133.3889295456458
 10
100.3142903395048
 20
-133.5143310213089
 10
100.4376247578767
 20
-133.5753092113978
 10
100.6050563984599
 20
-133.5801323450772
 10
100.7063422057262
 20
-133.3754936732533
 10
100.7576741284564
 20
-133.2711072800503
 10
100.744927275161
 20
-133.2104735995099
 10
100.7308023836715
 20
-133.1680989250413
 10
100.697040447916
 20
-133.0688801750661
 10
100.5981662074894
 20
-133.0061794372346
 10
100.5489013420503
 20
-132.9817192592893
 10
100.5320203741726
 20
-132.9734510301247
 10
100.4989474575142
 20
-132.9589816290867
 10
100.4720757127292
 20
-132.9507133999221
 10
100.4720757127292
 20
-132.9507133999221
 10
100.5582030998604
 20
-132.7760470588199
 10
100.5582030998604
 20
-132.7760470588199
 10
100.5895534687762
 20
-132.7991291985711
 10
100.6264159904684
 20
-132.819455261934
 10
100.6322726527933
 20
-132.8222113383222
 10
100.6911837855911
 20
-132.8511501403983
 10
100.8789414895372
 20
-132.9200520501033
 10
100.9836723922888
 20
-132.7078341682119
 10
101.0622205693525
 20
-132.5483262472449
 10
100.9688584817022
 20
-132.4408392681051
 10
100.8703287508241
 20
-132.3922634217631
 10
100.6333061814389
 20
-132.2754746848131
 10
100.5223741068139
 20
-132.4804578661854
 10
100.4868896233158
 20
-132.5428140944685
 10
100.4868896233158
 20
-132.5428140944685
 10
100.3049885816946
 20
-132.453241611852
 10
100.3049885816946
 20
-132.453241611852
 10
100.3676893195261
 20
-132.3450656136151
 10
100.5588921189575
 20
-132.019504090259
 10
100.9685139721537
 20
-132.2213866856947
 10
101.1697075484923
 20
-132.3206054356698
 10
101.3299044885564
 20
-132.5414360562744
 10
101.1989908601169
 20
-132.8067084086386
 10
101.1163085684709
 20
-132.9737955396732
 10
100.9946966978416
 20
-133.005834927686
 10
100.8785969799887
 20
-133.0165147236903
 10
100.9213161640058
 20
-133.0685356655176
 10
101.04878469696
 20
-133.2211533955142
 10
100.9261392976851
 20
-133.4695447800007
 10
100.7766221536253
 20
-133.7730576922512
 10
100.4806884514423
 20
-133.8133653094286
 10
100.2322970669558
 20
-133.6910644197022
 97
        0
 97
        0
 75
     2
 76
     1
 98
        0
  0
SPLINE
  5
C5
330
AF
100
AcDbEntity
  8
_U+30EC_U+30A4_U+30E4_U+30FC 1
370
     0
100
AcDbSpline
210
0.0
220
0.0
230
1.0
 70
    11
 71
     3
 72
    29
 73
    25
 74
     0
 42
0.0000000001
 43
0.0000000001
 12
1.0
 22
0.0
 32
0.0
 13
1.0
 23
0.0
 33
0.0
 40
0.0
 40
0.0
 40
0.0
 40
0.0
 40
1.0
 40
1.0
 40
1.0
 40
2.0
 40
2.0
 40
2.0
 40
3.0
 40
3.0
 40
3.0
 40
4.0
 40
4.0
 40
4.0
 40
5.0
 40
5.0
 40
5.0
 40
6.0
 40
6.0
 40
6.0
 40
7.0
 40
7.0
 40
7.0
 40
8.0
 40
8.0
 40
8.0
 40
8.0
 10
101.7529622141451
 20
-134.1861246409326
 30
0.0
 10
101.5634819624564
 20
-134.3263400271823
 30
0.0
 10
101.3994954173585
 20
-134.2667398752875
 30
0.0
 10
101.2951090241554
 20
-134.2150634430087
 30
0.0
 10
101.151104032872
 20
-134.1440944760126
 30
0.0
 10
101.0446505823777
 20
-134.0397080828095
 30
0.0
 10
101.0394829391498
 20
-133.8343803918886
 30
0.0
 10
101.0329372577279
 20
-133.6138942808327
 30
0.0
 10
101.1204426830532
 20
-133.3934081697766
 30
0.0
 10
101.192445178695
 20
-133.2469916116535
 30
0.0
 10
101.2561794451721
 20
-133.1181450405052
 30
0.0
 10
101.3826144494807
 20
-132.8997259867403
 30
0.0
 10
101.5655490197475
 20
-132.7681233392038
 30
0.0
 10
101.7519286854995
 20
-132.6337646152791
 30
0.0
 10
101.9066134727872
 20
-132.6840630093637
 30
0.0
 10
102.0220241715431
 20
-132.7409070848703
 30
0.0
 10
102.1646511246325
 20
-132.8111870327694
 30
0.0
 10
102.2738606515149
 20
-132.9145398973269
 30
0.0
 10
102.2786837851942
 20
-133.1198675882478
 30
0.0
 10
102.2828178997765
 20
-133.33656409427
 30
0.0
 10
102.2025471749702
 20
-133.5515380525496
 30
0.0
 10
102.1257215456491
 20
-133.7072563684829
 30
0.0
 10
102.0499294449736
 20
-133.860907627125
 30
0.0
 10
101.9293511029899
 20
-134.0586561079784
 30
0.0
 10
101.7529622141451
 20
-134.1861246409326
 30
0.0
  0
SPLINE
  5
C6
330
AF
100
AcDbEntity
  8
_U+30EC_U+30A4_U+30E4_U+30FC 1
370
     0
100
AcDbSpline
210
0.0
220
0.0
230
1.0
 70
    11
 71
     3
 72
    17
 73
    13
 74
     0
 42
0.0000000001
 43
0.0000000001
 12
1.0
 22
0.0
 32
0.0
 13
1.0
 23
0.0
 33
0.0
 40
0.0
 40
0.0
 40
0.0
 40
0.0
 40
1.0
 40
1.0
 40
1.0
 40
2.0
 40
2.0
 40
2.0
 40
3.0
 40
3.0
 40
3.0
 40
4.0
 40
4.0
 40
4.0
 40
4.0
 10
101.9369303130574
 20
-132.9138508782299
 30
0.0
 10
101.7129991065162
 20
-132.8032633131534
 30
0.0
 10
101.5462564850301
 20
-133.0371852966018
 30
0.0
 10
101.3936387550335
 20
-133.3462103616287
 30
0.0
 10
101.2523898401383
 20
-133.6328423060015
 30
0.0
 10
101.1480034469352
 20
-133.9256754222478
 30
0.0
 10
101.3812364112866
 20
-134.0403971019066
 30
0.0
 10
101.6034450700853
 20
-134.1499511383375
 30
0.0
 10
101.7715657297654
 20
-133.9194742503743
 30
0.0
 10
101.9248724788591
 20
-133.6083821280562
 30
0.0
 10
102.0661213937543
 20
-133.3217501836835
 30
0.0
 10
102.1684407296662
 20
-133.0278835387917
 30
0.0
 10
101.9369303130574
 20
-132.9138508782299
 30
0.0
  0
HATCH
  5
C7
330
AF
100
AcDbEntity
  8
_U+30EC_U+30A4_U+30E4_U+30FC 1
 62
   179
420
  2234388
100
AcDbHatch
 10
0.0
 20
0.0
 30
0.0
210
0.0
220
0.0
230
1.0
  2
SOLID
 70
     1
 71
     0
 91
        2
 92
        1
 93
        1
 72
     4
 94
        3
 73
     0
 74
     1
 95
       29
 96
       25
 40
0.0
 40
0.0
 40
0.0
 40
0.0
 40
1.0
 40
1.0
 40
1.0
 40
2.0
 40
2.0
 40
2.0
 40
3.0
 40
3.0
 40
3.0
 40
4.0
 40
4.0
 40
4.0
 40
5.0
 40
5.0
 40
5.0
 40
6.0
 40
6.0
 40
6.0
 40
7.0
 40
7.0
 40
7.0
 40
8.0
 40
8.0
 40
8.0
 40
8.0
 10
101.7529622141451
 20
-134.1861246409326
 10
101.5634819624564
 20
-134.3263400271823
 10
101.3994954173585
 20
-134.2667398752875
 10
101.2951090241554
 20
-134.2150634430087
 10
101.151104032872
 20
-134.1440944760126
 10
101.0446505823777
 20
-134.0397080828095
 10
101.0394829391498
 20
-133.8343803918886
 10
101.0329372577279
 20
-133.6138942808327
 10
101.1204426830532
 20
-133.3934081697766
 10
101.192445178695
 20
-133.2469916116535
 10
101.2561794451721
 20
-133.1181450405052
 10
101.3826144494807
 20
-132.8997259867403
 10
101.5655490197475
 20
-132.7681233392038
 10
101.7519286854995
 20
-132.6337646152791
 10
101.9066134727872
 20
-132.6840630093637
 10
102.0220241715431
 20
-132.7409070848703
 10
102.1646511246325
 20
-132.8111870327694
 10
102.2738606515149
 20
-132.9145398973269
 10
102.2786837851942
 20
-133.1198675882478
 10
102.2828178997765
 20
-133.33656409427
 10
102.2025471749702
 20
-133.5515380525496
 10
102.1257215456491
 20
-133.7072563684829
 10
102.0499294449736
 20
-133.860907627125
 10
101.9293511029899
 20
-134.0586561079784
 10
101.7529622141451
 20
-134.1861246409326
 97
        0
 97
        0
 92
        1
 93
        1
 72
     4
 94
        3
 73
     0
 74
     1
 95
       17
 96
       13
 40
0.0
 40
0.0
 40
0.0
 40
0.0
 40
1.0
 40
1.0
 40
1.0
 40
2.0
 40
2.0
 40
2.0
 40
3.0
 40
3.0
 40
3.0
 40
4.0
 40
4.0
 40
4.0
 40
4.0
 10
101.9369303130574
 20
-132.9138508782299
 10
101.7129991065162
 20
-132.8032633131534
 10
101.5462564850301
 20
-133.0371852966018
 10
101.3936387550335
 20
-133.3462103616287
 10
101.2523898401383
 20
-133.6328423060015
 10
101.1480034469352
 20
-133.9256754222478
 10
101.3812364112866
 20
-134.0403971019066
 10
101.6034450700853
 20
-134.1499511383375
 10
101.7715657297654
 20
-133.9194742503743
 10
101.9248724788591
 20
-133.6083821280562
 10
102.0661213937543
 20
-133.3217501836835
 10
102.1684407296662
 20
-133.0278835387917
 10
101.9369303130574
 20
-132.9138508782299
 97
        0
 97
        0
 75
     2
 76
     1
 98
        0
  0
POLYLINE
  5
C8
330
AF
100
AcDbEntity
  8
_U+30EC_U+30A4_U+30E4_U+30FC 1
370
     0
100
AcDb2dPolyline
 66
     1
 10
0.0
 20
0.0
 30
0.0
  0
VERTEX
  5
C9
330
C8
100
AcDbEntity
  8
_U+30EC_U+30A4_U+30E4_U+30FC 1
370
     0
100
AcDbVertex
100
AcDb2dVertex
 10
102.902590577573
 20
-134.9512803482066
 30
0.0
  0
VERTEX
  5
CA
330
C8
100
AcDbEntity
  8
_U+30EC_U+30A4_U+30E4_U+30FC 1
370
     0
100
AcDbVertex
100
AcDb2dVertex
 10
103.2140272094395
 20
-134.3194498362118
 30
0.0
  0
VERTEX
  5
CB
330
C8
100
AcDbEntity
  8
_U+30EC_U+30A4_U+30E4_U+30FC 1
370
     0
100
AcDbVertex
100
AcDb2dVertex
 10
102.5425780993644
 20
-133.9883761600793
 30
0.0
  0
VERTEX
  5
CC
330
C8
100
AcDbEntity
  8
_U+30EC_U+30A4_U+30E4_U+30FC 1
370
     0
100
AcDbVertex
100
AcDb2dVertex
 10
102.2311414674978
 20
-134.6202066720741
 30
0.0
  0
VERTEX
  5
CD
330
C8
100
AcDbEntity
  8
_U+30EC_U+30A4_U+30E4_U+30FC 1
370
     0
100
AcDbVertex
100
AcDb2dVertex
 10
102.0203016238005
 20
-134.5161647884196
 30
0.0
  0
VERTEX
  5
CE
330
C8
100
AcDbEntity
  8
_U+30EC_U+30A4_U+30E4_U+30FC 1
370
     0
100
AcDbVertex
100
AcDb2dVertex
 10
102.703119548977
 20
-133.1312364033491
 30
0.0
  0
VERTEX
  5
CF
330
C8
100
AcDbEntity
  8
_U+30EC_U+30A4_U+30E4_U+30FC 1
370
     0
100
AcDbVertex
100
AcDb2dVertex
 10
102.9139593926743
 20
-133.2349337774552
 30
0.0
  0
VERTEX
  5
D0
330
C8
100
AcDbEntity
  8
_U+30EC_U+30A4_U+30E4_U+30FC 1
370
     0
100
AcDbVertex
100
AcDb2dVertex
 10
102.6362846965632
 20
-133.798551398842
 30
0.0
  0
VERTEX
  5
D1
330
C8
100
AcDbEntity
  8
_U+30EC_U+30A4_U+30E4_U+30FC 1
370
     0
100
AcDbVertex
100
AcDb2dVertex
 10
103.3077338066384
 20
-134.1296250749745
 30
0.0
  0
VERTEX
  5
D2
330
C8
100
AcDbEntity
  8
_U+30EC_U+30A4_U+30E4_U+30FC 1
370
     0
100
AcDbVertex
100
AcDb2dVertex
 10
103.585753012298
 20
-133.5660074535877
 30
0.0
  0
VERTEX
  5
D3
330
C8
100
AcDbEntity
  8
_U+30EC_U+30A4_U+30E4_U+30FC 1
370
     0
100
AcDbVertex
100
AcDb2dVertex
 10
103.7962483464468
 20
-133.6700493372422
 30
0.0
  0
VERTEX
  5
D4
330
C8
100
AcDbEntity
  8
_U+30EC_U+30A4_U+30E4_U+30FC 1
370
     0
100
AcDbVertex
100
AcDb2dVertex
 10
103.1130859117217
 20
-135.0549777223127
 30
0.0
  0
VERTEX
  5
D5
330
C8
100
AcDbEntity
  8
_U+30EC_U+30A4_U+30E4_U+30FC 1
370
     0
100
AcDbVertex
100
AcDb2dVertex
 10
102.902590577573
 20
-134.9512803482066
 30
0.0
  0
SEQEND
  5
D6
330
C8
100
AcDbEntity
  8
_U+30EC_U+30A4_U+30E4_U+30FC 1
370
     0
  0
HATCH
  5
D7
330
AF
100
AcDbEntity
  8
_U+30EC_U+30A4_U+30E4_U+30FC 1
 62
   179
420
  2234388
100
AcDbHatch
 10
0.0
 20
0.0
 30
0.0
210
0.0
220
0.0
230
1.0
  2
SOLID
 70
     1
 71
     0
 91
        1
 92
        1
 93
       12
 72
     1
 10
102.902590577573
 20
-134.9512803482066
 11
103.2140272094395
 21
-134.3194498362118
 72
     1
 10
103.2140272094395
 20
-134.3194498362118
 11
102.5425780993644
 21
-133.9883761600793
 72
     1
 10
102.5425780993644
 20
-133.9883761600793
 11
102.2311414674978
 21
-134.6202066720741
 72
     1
 10
102.2311414674978
 20
-134.6202066720741
 11
102.0203016238005
 21
-134.5161647884196
 72
     1
 10
102.0203016238005
 20
-134.5161647884196
 11
102.703119548977
 21
-133.1312364033491
 72
     1
 10
102.703119548977
 20
-133.1312364033491
 11
102.9139593926743
 21
-133.2349337774552
 72
     1
 10
102.9139593926743
 20
-133.2349337774552
 11
102.6362846965632
 21
-133.798551398842
 72
     1
 10
102.6362846965632
 20
-133.798551398842
 11
103.3077338066384
 21
-134.1296250749745
 72
     1
 10
103.3077338066384
 20
-134.1296250749745
 11
103.585753012298
 21
-133.5660074535877
 72
     1
 10
103.585753012298
 20
-133.5660074535877
 11
103.7962483464468
 21
-133.6700493372422
 72
     1
 10
103.7962483464468
 20
-133.6700493372422
 11
103.1130859117217
 21
-135.0549777223127
 72
     1
 10
103.1130859117217
 20
-135.0549777223127
 11
102.902590577573
 21
-134.9512803482066
 97
        0
 75
     2
 76
     1
 98
        0
  0
SPLINE
  5
D8
330
AF
100
AcDbEntity
  8
_U+30EC_U+30A4_U+30E4_U+30FC 1
370
     0
100
AcDbSpline
210
0.0
220
0.0
230
1.0
 70
    11
 71
     3
 72
    26
 73
    22
 74
     0
 42
0.0000000001
 43
0.0000000001
 12
1.0
 22
0.0
 32
0.0
 13
1.0
 23
0.0
 33
0.0
 40
0.0
 40
0.0
 40
0.0
 40
0.0
 40
1.0
 40
1.0
 40
1.0
 40
2.0
 40
2.0
 40
2.0
 40
3.0
 40
3.0
 40
3.0
 40
4.0
 40
4.0
 40
4.0
 40
5.0
 40
5.0
 40
5.0
 40
6.0
 40
6.0
 40
6.0
 40
7.0
 40
7.0
 40
7.0
 40
7.0
 10
104.0718559852668
 20
-135.5279893324374
 30
0.0
 10
104.0718559852668
 20
-135.5279893324374
 30
0.0
 10
103.461040555732
 20
-135.2265434774781
 30
0.0
 10
103.461040555732
 20
-135.2265434774781
 30
0.0
 10
103.461040555732
 20
-135.2265434774781
 30
0.0
 10
104.144202990457
 20
-133.8416150924077
 30
0.0
 10
104.144202990457
 20
-133.8416150924077
 30
0.0
 10
104.144202990457
 20
-133.8416150924077
 30
0.0
 10
104.7436496048905
 20
-134.1372042850421
 30
0.0
 10
104.7436496048905
 20
-134.1372042850421
 30
0.0
 10
104.9355414234189
 20
-134.2319444108865
 30
0.0
 10
105.0781683765082
 20
-134.425214267609
 30
0.0
 10
104.9596570918156
 20
-134.6663709515765
 30
0.0
 10
104.854926189064
 20
-134.8785888334679
 30
0.0
 10
104.6764702429281
 20
-134.8710096234003
 30
0.0
 10
104.6027451995438
 20
-134.8675645279151
 30
0.0
 10
104.6578667273078
 20
-134.9133842978689
 30
0.0
 10
104.8366671829922
 20
-135.0677245756081
 30
0.0
 10
104.701963949519
 20
-135.3409206475884
 30
0.0
 10
104.5999891231556
 20
-135.5476263767034
 30
0.0
 10
104.3622775346733
 20
-135.6713053046238
 30
0.0
 10
104.0718559852668
 20
-135.5279893324374
 30
0.0
  0
SPLINE
  5
D9
330
AF
100
AcDbEntity
  8
_U+30EC_U+30A4_U+30E4_U+30FC 1
370
     0
100
AcDbSpline
210
0.0
220
0.0
230
1.0
 70
    11
 71
     3
 72
    20
 73
    16
 74
     0
 42
0.0000000001
 43
0.0000000001
 12
1.0
 22
0.0
 32
0.0
 13
1.0
 23
0.0
 33
0.0
 40
0.0
 40
0.0
 40
0.0
 40
0.0
 40
1.0
 40
1.0
 40
1.0
 40
2.0
 40
2.0
 40
2.0
 40
3.0
 40
3.0
 40
3.0
 40
4.0
 40
4.0
 40
4.0
 40
5.0
 40
5.0
 40
5.0
 40
5.0
 10
104.3567653818969
 20
-134.8830674575987
 30
0.0
 10
104.3567653818969
 20
-134.8830674575987
 30
0.0
 10
103.9833170312958
 20
-134.6987548491378
 30
0.0
 10
103.9833170312958
 20
-134.6987548491378
 30
0.0
 10
103.9833170312958
 20
-134.6987548491378
 30
0.0
 10
103.7652424870795
 20
-135.1411051094439
 30
0.0
 10
103.7652424870795
 20
-135.1411051094439
 30
0.0
 10
103.7652424870795
 20
-135.1411051094439
 30
0.0
 10
104.1390353472291
 20
-135.3250732083562
 30
0.0
 10
104.1390353472291
 20
-135.3250732083562
 30
0.0
 10
104.2813177907699
 20
-135.3953531562553
 30
0.0
 10
104.4201551388255
 20
-135.3622802395969
 30
0.0
 10
104.4904350867246
 20
-135.2199977960561
 30
0.0
 10
104.551068767265
 20
-135.0966633776842
 30
0.0
 10
104.5124836978302
 20
-134.9598930869197
 30
0.0
 10
104.3567653818969
 20
-134.8830674575987
 30
0.0
  0
SPLINE
  5
DA
330
AF
100
AcDbEntity
  8
_U+30EC_U+30A4_U+30E4_U+30FC 1
370
     0
100
AcDbSpline
210
0.0
220
0.0
230
1.0
 70
    11
 71
     3
 72
    20
 73
    16
 74
     0
 42
0.0000000001
 43
0.0000000001
 12
1.0
 22
0.0
 32
0.0
 13
1.0
 23
0.0
 33
0.0
 40
0.0
 40
0.0
 40
0.0
 40
0.0
 40
1.0
 40
1.0
 40
1.0
 40
2.0
 40
2.0
 40
2.0
 40
3.0
 40
3.0
 40
3.0
 40
4.0
 40
4.0
 40
4.0
 40
5.0
 40
5.0
 40
5.0
 40
5.0
 10
104.5875867794087
 20
-134.2960231869121
 30
0.0
 10
104.5875867794087
 20
-134.2960231869121
 30
0.0
 10
104.2613362369555
 20
-134.1351372277509
 30
0.0
 10
104.2613362369555
 20
-134.1351372277509
 30
0.0
 10
104.2613362369555
 20
-134.1351372277509
 30
0.0
 10
104.0770236284946
 20
-134.5092745974491
 30
0.0
 10
104.0770236284946
 20
-134.5092745974491
 30
0.0
 10
104.0770236284946
 20
-134.5092745974491
 30
0.0
 10
104.4032741709478
 20
-134.6701605566103
 30
0.0
 10
104.4032741709478
 20
-134.6701605566103
 30
0.0
 10
104.5283311370624
 20
-134.7318277657962
 30
0.0
 10
104.6530435936284
 20
-134.7318277657962
 30
0.0
 10
104.7212564842364
 20
-134.5933349272892
 30
0.0
 10
104.7953260371692
 20
-134.4434732736808
 30
0.0
 10
104.6916286630632
 20
-134.3473551096423
 30
0.0
 10
104.5875867794087
 20
-134.2960231869121
 30
0.0
  0
HATCH
  5
DB
330
AF
100
AcDbEntity
  8
_U+30EC_U+30A4_U+30E4_U+30FC 1
 62
   179
420
  2234388
100
AcDbHatch
 10
0.0
 20
0.0
 30
0.0
210
0.0
220
0.0
230
1.0
  2
SOLID
 70
     1
 71
     0
 91
        3
 92
        1
 93
        1
 72
     4
 94
        3
 73
     0
 74
     1
 95
       26
 96
       22
 40
0.0
 40
0.0
 40
0.0
 40
0.0
 40
1.0
 40
1.0
 40
1.0
 40
2.0
 40
2.0
 40
2.0
 40
3.0
 40
3.0
 40
3.0
 40
4.0
 40
4.0
 40
4.0
 40
5.0
 40
5.0
 40
5.0
 40
6.0
 40
6.0
 40
6.0
 40
7.0
 40
7.0
 40
7.0
 40
7.0
 10
104.0718559852668
 20
-135.5279893324374
 10
104.0718559852668
 20
-135.5279893324374
 10
103.461040555732
 20
-135.2265434774781
 10
103.461040555732
 20
-135.2265434774781
 10
103.461040555732
 20
-135.2265434774781
 10
104.144202990457
 20
-133.8416150924077
 10
104.144202990457
 20
-133.8416150924077
 10
104.144202990457
 20
-133.8416150924077
 10
104.7436496048905
 20
-134.1372042850421
 10
104.7436496048905
 20
-134.1372042850421
 10
104.9355414234189
 20
-134.2319444108865
 10
105.0781683765082
 20
-134.425214267609
 10
104.9596570918156
 20
-134.6663709515765
 10
104.854926189064
 20
-134.8785888334679
 10
104.6764702429281
 20
-134.8710096234003
 10
104.6027451995438
 20
-134.8675645279151
 10
104.6578667273078
 20
-134.9133842978689
 10
104.8366671829922
 20
-135.0677245756081
 10
104.701963949519
 20
-135.3409206475884
 10
104.5999891231556
 20
-135.5476263767034
 10
104.3622775346733
 20
-135.6713053046238
 10
104.0718559852668
 20
-135.5279893324374
 97
        0
 97
        0
 92
        1
 93
        1
 72
     4
 94
        3
 73
     0
 74
     1
 95
       20
 96
       16
 40
0.0
 40
0.0
 40
0.0
 40
0.0
 40
1.0
 40
1.0
 40
1.0
 40
2.0
 40
2.0
 40
2.0
 40
3.0
 40
3.0
 40
3.0
 40
4.0
 40
4.0
 40
4.0
 40
5.0
 40
5.0
 40
5.0
 40
5.0
 10
104.3567653818969
 20
-134.8830674575987
 10
104.3567653818969
 20
-134.8830674575987
 10
103.9833170312958
 20
-134.6987548491378
 10
103.9833170312958
 20
-134.6987548491378
 10
103.9833170312958
 20
-134.6987548491378
 10
103.7652424870795
 20
-135.1411051094439
 10
103.7652424870795
 20
-135.1411051094439
 10
103.7652424870795
 20
-135.1411051094439
 10
104.1390353472291
 20
-135.3250732083562
 10
104.1390353472291
 20
-135.3250732083562
 10
104.2813177907699
 20
-135.3953531562553
 10
104.4201551388255
 20
-135.3622802395969
 10
104.4904350867246
 20
-135.2199977960561
 10
104.551068767265
 20
-135.0966633776842
 10
104.5124836978302
 20
-134.9598930869197
 10
104.3567653818969
 20
-134.8830674575987
 97
        0
 97
        0
 92
        1
 93
        1
 72
     4
 94
        3
 73
     0
 74
     1
 95
       20
 96
       16
 40
0.0
 40
0.0
 40
0.0
 40
0.0
 40
1.0
 40
1.0
 40
1.0
 40
2.0
 40
2.0
 40
2.0
 40
3.0
 40
3.0
 40
3.0
 40
4.0
 40
4.0
 40
4.0
 40
5.0
 40
5.0
 40
5.0
 40
5.0
 10
104.5875867794087
 20
-134.2960231869121
 10
104.5875867794087
 20
-134.2960231869121
 10
104.2613362369555
 20
-134.1351372277509
 10
104.2613362369555
 20
-134.1351372277509
 10
104.2613362369555
 20
-134.1351372277509
 10
104.0770236284946
 20
-134.5092745974491
 10
104.0770236284946
 20
-134.5092745974491
 10
104.0770236284946
 20
-134.5092745974491
 10
104.4032741709478
 20
-134.6701605566103
 10
104.4032741709478
 20
-134.6701605566103
 10
104.5283311370624
 20
-134.7318277657962
 10
104.6530435936284
 20
-134.7318277657962
 10
104.7212564842364
 20
-134.5933349272892
 10
104.7953260371692
 20
-134.4434732736808
 10
104.6916286630632
 20
-134.3473551096423
 10
104.5875867794087
 20
-134.2960231869121
 97
        0
 97
        0
 75
     2
 76
     1
 98
        0
  0
ENDBLK
  5
B2
330
AF
100
AcDbEntity
  8
0
100
AcDbBlockEnd
  0
ENDSEC
  0
SECTION
  2
ENTITIES
  0
INSERT
  5
42
330
1F
100
AcDbEntity
  8
_U+30EC_U+30A4_U+30E4_U+30FC 1
100
AcDbBlockReference
  2
block 2
 10
0.0
 20
0.0
 30
0.0
  0
INSERT
  5
83
330
1F
100
AcDbEntity
  8
_U+30EC_U+30A4_U+30E4_U+30FC 1
100
AcDbBlockReference
  2
block 3
 10
0.0
 20
0.0
 30
0.0
  0
INSERT
  5
B0
330
1F
100
AcDbEntity
  8
_U+30EC_U+30A4_U+30E4_U+30FC 1
100
AcDbBlockReference
  2
block 4
 10
0.0
 20
0.0
 30
0.0
  0
SPLINE
  5
DC
330
1F
100
AcDbEntity
  8
_U+30EC_U+30A4_U+30E4_U+30FC 1
 62
   179
420
  2234388
370
    15
100
AcDbSpline
210
0.0
220
0.0
230
1.0
 70
     8
 71
     3
 72
     8
 73
     4
 74
     0
 42
0.0000000001
 43
0.0000000001
 12
1.0
 22
0.0
 32
0.0
 13
1.0
 23
0.0
 33
0.0
 40
0.0
 40
0.0
 40
0.0
 40
0.0
 40
1.0
 40
1.0
 40
1.0
 40
1.0
 10
75.83723667634202
 20
-137.9436957988477
 30
0.0
 10
75.59399640476981
 20
-139.5208594095645
 30
0.0
 10
76.41427527273164
 20
-140.9237155203248
 30
0.0
 10
77.72237523935924
 20
-141.2089363535866
 30
0.0
  0
SPLINE
  5
DD
330
1F
100
AcDbEntity
  8
_U+30EC_U+30A4_U+30E4_U+30FC 1
 62
   179
420
  2234388
370
    15
100
AcDbSpline
210
0.0
220
0.0
230
1.0
 70
     8
 71
     3
 72
     8
 73
     4
 74
     0
 42
0.0000000001
 43
0.0000000001
 12
1.0
 22
0.0
 32
0.0
 13
1.0
 23
0.0
 33
0.0
 40
0.0
 40
0.0
 40
0.0
 40
0.0
 40
1.0
 40
1.0
 40
1.0
 40
1.0
 10
106.0686360845938
 20
-137.9436957988477
 30
0.0
 10
106.3118383988702
 20
-139.5208594095645
 30
0.0
 10
105.4915948086852
 20
-140.9230099647693
 30
0.0
 10
104.1838123420495
 20
-141.2082660758092
 30
0.0
  0
SPLINE
  5
DE
330
1F
100
AcDbEntity
  8
_U+30EC_U+30A4_U+30E4_U+30FC 1
 62
   179
420
  2234388
370
    15
100
AcDbSpline
210
0.0
220
0.0
230
1.0
 70
     8
 71
     3
 72
     8
 73
     4
 74
     0
 42
0.0000000001
 43
0.0000000001
 12
1.0
 22
0.0
 32
0.0
 13
1.0
 23
0.0
 33
0.0
 40
0.0
 40
0.0
 40
0.0
 40
0.0
 40
1.0
 40
1.0
 40
1.0
 40
1.0
 10
90.95291740181999
 20
-133.1026321889467
 30
0.0
 10
91.22751961703652
 20
-132.217265800279
 30
0.0
 10
91.87416126720599
 20
-131.5454710782247
 30
0.0
 10
92.73437457859345
 20
-131.358040244938
 30
0.0
  0
SPLINE
  5
DF
330
1F
100
AcDbEntity
  8
_U+30EC_U+30A4_U+30E4_U+30FC 1
 62
   179
420
  2234388
370
    15
100
AcDbSpline
210
0.0
220
0.0
230
1.0
 70
     8
 71
     3
 72
     8
 73
     4
 74
     0
 42
0.0000000001
 43
0.0000000001
 12
1.0
 22
0.0
 32
0.0
 13
1.0
 23
0.0
 33
0.0
 40
0.0
 40
0.0
 40
0.0
 40
0.0
 40
1.0
 40
1.0
 40
1.0
 40
1.0
 10
89.1718130028153
 20
-131.3573699671607
 30
0.0
 10
90.03171108860306
 20
-131.5454710782247
 30
0.0
 10
90.67835275510825
 20
-132.217265800279
 30
0.0
 10
90.95291740181999
 20
-133.1026321889467
 30
0.0
  0
POLYLINE
  5
E0
330
1F
100
AcDbEntity
  8
_U+30EC_U+30A4_U+30E4_U+30FC 1
 62
   179
420
  2234388
370
    15
100
AcDb2dPolyline
 66
     1
 10
0.0
 20
0.0
 30
0.0
  0
VERTEX
  5
E1
330
E0
100
AcDbEntity
  8
_U+30EC_U+30A4_U+30E4_U+30FC 1
 62
   179
420
  2234388
370
    15
100
AcDbVertex
100
AcDb2dVertex
 10
88.67192690445735
 20
-130.8846830228341
 30
0.0
  0
VERTEX
  5
E2
330
E0
100
AcDbEntity
  8
_U+30EC_U+30A4_U+30E4_U+30FC 1
 62
   179
420
  2234388
370
    15
100
AcDbVertex
100
AcDb2dVertex
 10
75.51409224014168
 20
-137.3835199656542
 30
0.0
  0
VERTEX
  5
E3
330
E0
100
AcDbEntity
  8
_U+30EC_U+30A4_U+30E4_U+30FC 1
 62
   179
420
  2234388
370
    15
100
AcDbVertex
100
AcDb2dVertex
 10
75.83723667634202
 20
-137.9436957988477
 30
0.0
  0
SEQEND
  5
E4
330
E0
100
AcDbEntity
  8
_U+30EC_U+30A4_U+30E4_U+30FC 1
 62
   179
420
  2234388
370
    15
  0
POLYLINE
  5
E5
330
1F
100
AcDbEntity
  8
_U+30EC_U+30A4_U+30E4_U+30FC 1
 62
   179
420
  2234388
370
    15
100
AcDb2dPolyline
 66
     1
 10
0.0
 20
0.0
 30
0.0
  0
VERTEX
  5
E6
330
E5
100
AcDbEntity
  8
_U+30EC_U+30A4_U+30E4_U+30FC 1
 62
   179
420
  2234388
370
    15
100
AcDbVertex
100
AcDb2dVertex
 10
93.23426067695141
 20
-130.8846830228341
 30
0.0
  0
VERTEX
  5
E7
330
E5
100
AcDbEntity
  8
_U+30EC_U+30A4_U+30E4_U+30FC 1
 62
   179
420
  2234388
370
    15
100
AcDbVertex
100
AcDb2dVertex
 10
106.4055714520344
 20
-137.3903991323193
 30
0.0
  0
VERTEX
  5
E8
330
E5
100
AcDbEntity
  8
_U+30EC_U+30A4_U+30E4_U+30FC 1
 62
   179
420
  2234388
370
    15
100
AcDbVertex
100
AcDb2dVertex
 10
106.0686360845938
 20
-137.9436957988477
 30
0.0
  0
SEQEND
  5
E9
330
E5
100
AcDbEntity
  8
_U+30EC_U+30A4_U+30E4_U+30FC 1
 62
   179
420
  2234388
370
    15
  0
POLYLINE
  5
EA
330
1F
100
AcDbEntity
  8
_U+30EC_U+30A4_U+30E4_U+30FC 1
 62
   179
420
  2234388
370
    15
100
AcDb2dPolyline
 66
     1
 10
0.0
 20
0.0
 30
0.0
  0
VERTEX
  5
EB
330
EA
100
AcDbEntity
  8
_U+30EC_U+30A4_U+30E4_U+30FC 1
 62
   179
420
  2234388
370
    15
100
AcDbVertex
100
AcDb2dVertex
 10
75.83723667634202
 20
-137.9436957988477
 30
0.0
  0
VERTEX
  5
EC
330
EA
100
AcDbEntity
  8
_U+30EC_U+30A4_U+30E4_U+30FC 1
 62
   179
420
  2234388
370
    15
100
AcDbVertex
100
AcDb2dVertex
 10
89.1718130028153
 20
-131.3573699671607
 30
0.0
  0
SEQEND
  5
ED
330
EA
100
AcDbEntity
  8
_U+30EC_U+30A4_U+30E4_U+30FC 1
 62
   179
420
  2234388
370
    15
  0
POLYLINE
  5
EE
330
1F
100
AcDbEntity
  8
_U+30EC_U+30A4_U+30E4_U+30FC 1
 62
   179
420
  2234388
370
    15
100
AcDb2dPolyline
 66
     1
 10
0.0
 20
0.0
 30
0.0
  0
VERTEX
  5
EF
330
EE
100
AcDbEntity
  8
_U+30EC_U+30A4_U+30E4_U+30FC 1
 62
   179
420
  2234388
370
    15
100
AcDbVertex
100
AcDb2dVertex
 10
92.73437457859345
 20
-131.358040244938
 30
0.0
  0
VERTEX
  5
F0
330
EE
100
AcDbEntity
  8
_U+30EC_U+30A4_U+30E4_U+30FC 1
 62
   179
420
  2234388
370
    15
100
AcDbVertex
100
AcDb2dVertex
 10
106.0686360845938
 20
-137.9436957988477
 30
0.0
  0
SEQEND
  5
F1
330
EE
100
AcDbEntity
  8
_U+30EC_U+30A4_U+30E4_U+30FC 1
 62
   179
420
  2234388
370
    15
  0
POLYLINE
  5
F2
330
1F
100
AcDbEntity
  8
_U+30EC_U+30A4_U+30E4_U+30FC 1
 62
   179
420
  2234388
370
    15
100
AcDb2dPolyline
 66
     1
 10
0.0
 20
0.0
 30
0.0
  0
VERTEX
  5
F3
330
F2
100
AcDbEntity
  8
_U+30EC_U+30A4_U+30E4_U+30FC 1
 62
   179
420
  2234388
370
    15
100
AcDbVertex
100
AcDb2dVertex
 10
90.95291740181999
 20
-135.3936416328181
 30
0.0
  0
VERTEX
  5
F4
330
F2
100
AcDbEntity
  8
_U+30EC_U+30A4_U+30E4_U+30FC 1
 62
   179
420
  2234388
370
    15
100
AcDbVertex
100
AcDb2dVertex
 10
78.04587245332836
 20
-141.7684419090027
 30
0.0
  0
VERTEX
  5
F5
330
F2
100
AcDbEntity
  8
_U+30EC_U+30A4_U+30E4_U+30FC 1
 62
   179
420
  2234388
370
    15
100
AcDbVertex
100
AcDb2dVertex
 10
77.72237523935924
 20
-141.2089363535866
 30
0.0
  0
SEQEND
  5
F6
330
F2
100
AcDbEntity
  8
_U+30EC_U+30A4_U+30E4_U+30FC 1
 62
   179
420
  2234388
370
    15
  0
POLYLINE
  5
F7
330
1F
100
AcDbEntity
  8
_U+30EC_U+30A4_U+30E4_U+30FC 1
 62
   179
420
  2234388
370
    15
100
AcDb2dPolyline
 66
     1
 10
0.0
 20
0.0
 30
0.0
  0
VERTEX
  5
F8
330
F7
100
AcDbEntity
  8
_U+30EC_U+30A4_U+30E4_U+30FC 1
 62
   179
420
  2234388
370
    15
100
AcDbVertex
100
AcDb2dVertex
 10
90.95291740181999
 20
-135.3936416328181
 30
0.0
  0
VERTEX
  5
F9
330
F7
100
AcDbEntity
  8
_U+30EC_U+30A4_U+30E4_U+30FC 1
 62
   179
420
  2234388
370
    15
100
AcDbVertex
100
AcDb2dVertex
 10
103.8603151280804
 20
-141.76911218678
 30
0.0
  0
VERTEX
  5
FA
330
F7
100
AcDbEntity
  8
_U+30EC_U+30A4_U+30E4_U+30FC 1
 62
   179
420
  2234388
370
    15
100
AcDbVertex
100
AcDb2dVertex
 10
104.1838123420495
 20
-141.2082660758092
 30
0.0
  0
SEQEND
  5
FB
330
F7
100
AcDbEntity
  8
_U+30EC_U+30A4_U+30E4_U+30FC 1
 62
   179
420
  2234388
370
    15
  0
POLYLINE
  5
FC
330
1F
100
AcDbEntity
  8
_U+30EC_U+30A4_U+30E4_U+30FC 1
 62
   179
420
  2234388
370
    15
100
AcDb2dPolyline
 66
     1
 10
0.0
 20
0.0
 30
0.0
  0
VERTEX
  5
FD
330
FC
100
AcDbEntity
  8
_U+30EC_U+30A4_U+30E4_U+30FC 1
 62
   179
420
  2234388
370
    15
100
AcDbVertex
100
AcDb2dVertex
 10
77.72237523935924
 20
-141.2089363535866
 30
0.0
  0
VERTEX
  5
FE
330
FC
100
AcDbEntity
  8
_U+30EC_U+30A4_U+30E4_U+30FC 1
 62
   179
420
  2234388
370
    15
100
AcDbVertex
100
AcDb2dVertex
 10
90.95291740181999
 20
-134.673622188554
 30
0.0
  0
SEQEND
  5
FF
330
FC
100
AcDbEntity
  8
_U+30EC_U+30A4_U+30E4_U+30FC 1
 62
   179
420
  2234388
370
    15
  0
POLYLINE
  5
100
330
1F
100
AcDbEntity
  8
_U+30EC_U+30A4_U+30E4_U+30FC 1
 62
   179
420
  2234388
370
    15
100
AcDb2dPolyline
 66
     1
 10
0.0
 20
0.0
 30
0.0
  0
VERTEX
  5
101
330
100
100
AcDbEntity
  8
_U+30EC_U+30A4_U+30E4_U+30FC 1
 62
   179
420
  2234388
370
    15
100
AcDbVertex
100
AcDb2dVertex
 10
90.95291740181999
 20
-134.673622188554
 30
0.0
  0
VERTEX
  5
102
330
100
100
AcDbEntity
  8
_U+30EC_U+30A4_U+30E4_U+30FC 1
 62
   179
420
  2234388
370
    15
100
AcDbVertex
100
AcDb2dVertex
 10
104.188292619713
 20
-141.211017742475
 30
0.0
  0
SEQEND
  5
103
330
100
100
AcDbEntity
  8
_U+30EC_U+30A4_U+30E4_U+30FC 1
 62
   179
420
  2234388
370
    15
  0
POLYLINE
  5
104
330
1F
100
AcDbEntity
  8
_U+30EC_U+30A4_U+30E4_U+30FC 1
 62
   179
420
  2234388
370
    15
100
AcDb2dPolyline
 66
     1
 10
0.0
 20
0.0
 30
0.0
  0
VERTEX
  5
105
330
104
100
AcDbEntity
  8
_U+30EC_U+30A4_U+30E4_U+30FC 1
 62
   179
420
  2234388
370
    15
100
AcDbVertex
100
AcDb2dVertex
 10
75.75419278957176
 20
-138.5245444098132
 30
0.0
  0
VERTEX
  5
106
330
104
100
AcDbEntity
  8
_U+30EC_U+30A4_U+30E4_U+30FC 1
 62
   179
420
  2234388
370
    15
100
AcDbVertex
100
AcDb2dVertex
 10
75.27155752410702
 20
-138.7636219097535
 30
0.0
  0
VERTEX
  5
107
330
104
100
AcDbEntity
  8
_U+30EC_U+30A4_U+30E4_U+30FC 1
 62
   179
420
  2234388
370
    15
100
AcDbVertex
100
AcDb2dVertex
 10
75.51409224014168
 20
-137.3835199656542
 30
0.0
  0
SEQEND
  5
108
330
104
100
AcDbEntity
  8
_U+30EC_U+30A4_U+30E4_U+30FC 1
 62
   179
420
  2234388
370
    15
  0
POLYLINE
  5
109
330
1F
100
AcDbEntity
  8
_U+30EC_U+30A4_U+30E4_U+30FC 1
 62
   179
420
  2234388
370
    15
100
AcDb2dPolyline
 66
     1
 10
0.0
 20
0.0
 30
0.0
  0
VERTEX
  5
10A
330
109
100
AcDbEntity
  8
_U+30EC_U+30A4_U+30E4_U+30FC 1
 62
   179
420
  2234388
370
    15
100
AcDbVertex
100
AcDb2dVertex
 10
106.1265242369312
 20
-138.5024957987076
 30
0.0
  0
VERTEX
  5
10B
330
109
100
AcDbEntity
  8
_U+30EC_U+30A4_U+30E4_U+30FC 1
 62
   179
420
  2234388
370
    15
100
AcDbVertex
100
AcDb2dVertex
 10
106.6343125573098
 20
-138.7629516319761
 30
0.0
  0
VERTEX
  5
10C
330
109
100
AcDbEntity
  8
_U+30EC_U+30A4_U+30E4_U+30FC 1
 62
   179
420
  2234388
370
    15
100
AcDbVertex
100
AcDb2dVertex
 10
106.4055714520344
 20
-137.3903991323193
 30
0.0
  0
SEQEND
  5
10D
330
109
100
AcDbEntity
  8
_U+30EC_U+30A4_U+30E4_U+30FC 1
 62
   179
420
  2234388
370
    15
  0
POLYLINE
  5
10E
330
1F
100
AcDbEntity
  8
_U+30EC_U+30A4_U+30E4_U+30FC 1
 62
   179
420
  2234388
370
    15
100
AcDb2dPolyline
 66
     1
 10
0.0
 20
0.0
 30
0.0
  0
VERTEX
  5
10F
330
10E
100
AcDbEntity
  8
_U+30EC_U+30A4_U+30E4_U+30FC 1
 62
   179
420
  2234388
370
    15
100
AcDbVertex
100
AcDb2dVertex
 10
90.95291740181999
 20
-135.3936416328181
 30
0.0
  0
VERTEX
  5
110
330
10E
100
AcDbEntity
  8
_U+30EC_U+30A4_U+30E4_U+30FC 1
 62
   179
420
  2234388
370
    15
100
AcDbVertex
100
AcDb2dVertex
 10
90.95291740181999
 20
-133.1026321889467
 30
0.0
  0
SEQEND
  5
111
330
10E
100
AcDbEntity
  8
_U+30EC_U+30A4_U+30E4_U+30FC 1
 62
   179
420
  2234388
370
    15
  0
POLYLINE
  5
112
330
1F
100
AcDbEntity
  8
_U+30EC_U+30A4_U+30E4_U+30FC 1
 62
   179
420
  2234388
370
    15
100
AcDb2dPolyline
 66
     1
 10
0.0
 20
0.0
 30
0.0
  0
VERTEX
  5
113
330
112
100
AcDbEntity
  8
_U+30EC_U+30A4_U+30E4_U+30FC 1
 62
   179
420
  2234388
370
    15
100
AcDbVertex
100
AcDb2dVertex
 10
88.67192690445735
 20
-130.8846830228341
 30
0.0
  0
VERTEX
  5
114
330
112
100
AcDbEntity
  8
_U+30EC_U+30A4_U+30E4_U+30FC 1
 62
   179
420
  2234388
370
    15
100
AcDbVertex
100
AcDb2dVertex
 10
88.67192690445735
 20
-114.9300963601565
 30
0.0
  0
SEQEND
  5
115
330
112
100
AcDbEntity
  8
_U+30EC_U+30A4_U+30E4_U+30FC 1
 62
   179
420
  2234388
370
    15
  0
POLYLINE
  5
116
330
1F
100
AcDbEntity
  8
_U+30EC_U+30A4_U+30E4_U+30FC 1
 62
   179
420
  2234388
370
    15
100
AcDb2dPolyline
 66
     1
 10
0.0
 20
0.0
 30
0.0
  0
VERTEX
  5
117
330
116
100
AcDbEntity
  8
_U+30EC_U+30A4_U+30E4_U+30FC 1
 62
   179
420
  2234388
370
    15
100
AcDbVertex
100
AcDb2dVertex
 10
89.1718130028153
 20
-131.3573699671607
 30
0.0
  0
VERTEX
  5
118
330
116
100
AcDbEntity
  8
_U+30EC_U+30A4_U+30E4_U+30FC 1
 62
   179
420
  2234388
370
    15
100
AcDbVertex
100
AcDb2dVertex
 10
89.1718130028153
 20
-114.9300963601565
 30
0.0
  0
SEQEND
  5
119
330
116
100
AcDbEntity
  8
_U+30EC_U+30A4_U+30E4_U+30FC 1
 62
   179
420
  2234388
370
    15
  0
POLYLINE
  5
11A
330
1F
100
AcDbEntity
  8
_U+30EC_U+30A4_U+30E4_U+30FC 1
 62
   179
420
  2234388
370
    15
100
AcDb2dPolyline
 66
     1
 10
0.0
 20
0.0
 30
0.0
  0
VERTEX
  5
11B
330
11A
100
AcDbEntity
  8
_U+30EC_U+30A4_U+30E4_U+30FC 1
 62
   179
420
  2234388
370
    15
100
AcDbVertex
100
AcDb2dVertex
 10
92.73437457859345
 20
-131.358040244938
 30
0.0
  0
VERTEX
  5
11C
330
11A
100
AcDbEntity
  8
_U+30EC_U+30A4_U+30E4_U+30FC 1
 62
   179
420
  2234388
370
    15
100
AcDbVertex
100
AcDb2dVertex
 10
92.73437457859345
 20
-114.9300963601565
 30
0.0
  0
SEQEND
  5
11D
330
11A
100
AcDbEntity
  8
_U+30EC_U+30A4_U+30E4_U+30FC 1
 62
   179
420
  2234388
370
    15
  0
POLYLINE
  5
11E
330
1F
100
AcDbEntity
  8
_U+30EC_U+30A4_U+30E4_U+30FC 1
 62
   179
420
  2234388
370
    15
100
AcDb2dPolyline
 66
     1
 10
0.0
 20
0.0
 30
0.0
  0
VERTEX
  5
11F
330
11E
100
AcDbEntity
  8
_U+30EC_U+30A4_U+30E4_U+30FC 1
 62
   179
420
  2234388
370
    15
100
AcDbVertex
100
AcDb2dVertex
 10
93.23426067695141
 20
-130.8846830228341
 30
0.0
  0
VERTEX
  5
120
330
11E
100
AcDbEntity
  8
_U+30EC_U+30A4_U+30E4_U+30FC 1
 62
   179
420
  2234388
370
    15
100
AcDbVertex
100
AcDb2dVertex
 10
93.23426067695141
 20
-114.9300963601565
 30
0.0
  0
SEQEND
  5
121
330
11E
100
AcDbEntity
  8
_U+30EC_U+30A4_U+30E4_U+30FC 1
 62
   179
420
  2234388
370
    15
  0
POLYLINE
  5
122
330
1F
100
AcDbEntity
  8
_U+30EC_U+30A4_U+30E4_U+30FC 1
 62
   179
420
  2234388
370
    15
100
AcDb2dPolyline
 66
     1
 10
0.0
 20
0.0
 30
0.0
  0
VERTEX
  5
123
330
122
100
AcDbEntity
  8
_U+30EC_U+30A4_U+30E4_U+30FC 1
 62
   179
420
  2234388
370
    15
100
AcDbVertex
100
AcDb2dVertex
 10
92.73437457859345
 20
-131.358040244938
 30
0.0
  0
VERTEX
  5
124
330
122
100
AcDbEntity
  8
_U+30EC_U+30A4_U+30E4_U+30FC 1
 62
   179
420
  2234388
370
    15
100
AcDbVertex
100
AcDb2dVertex
 10
93.23426067695141
 20
-130.8846830228341
 30
0.0
  0
SEQEND
  5
125
330
122
100
AcDbEntity
  8
_U+30EC_U+30A4_U+30E4_U+30FC 1
 62
   179
420
  2234388
370
    15
  0
POLYLINE
  5
126
330
1F
100
AcDbEntity
  8
_U+30EC_U+30A4_U+30E4_U+30FC 1
 62
   179
420
  2234388
370
    15
100
AcDb2dPolyline
 66
     1
 10
0.0
 20
0.0
 30
0.0
  0
VERTEX
  5
127
330
126
100
AcDbEntity
  8
_U+30EC_U+30A4_U+30E4_U+30FC 1
 62
   179
420
  2234388
370
    15
100
AcDbVertex
100
AcDb2dVertex
 10
88.67192690445735
 20
-130.8846830228341
 30
0.0
  0
VERTEX
  5
128
330
126
100
AcDbEntity
  8
_U+30EC_U+30A4_U+30E4_U+30FC 1
 62
   179
420
  2234388
370
    15
100
AcDbVertex
100
AcDb2dVertex
 10
89.1718130028153
 20
-131.3573699671607
 30
0.0
  0
SEQEND
  5
129
330
126
100
AcDbEntity
  8
_U+30EC_U+30A4_U+30E4_U+30FC 1
 62
   179
420
  2234388
370
    15
  0
ENDSEC
  0
SECTION
  2
OBJECTS
  0
DICTIONARY
  5
C
330
0
100
AcDbDictionary
281
     1
  3
ACAD_GROUP
350
D
  3
ACAD_LAYOUT
350
1A
  3
ACAD_MATERIAL
350
3B
  3
ACAD_MLEADERSTYLE
350
12B
  3
ACAD_MLINESTYLE
350
17
  3
ACAD_PLOTSETTINGS
350
19
  3
ACAD_PLOTSTYLENAME
350
E
  3
ACAD_TABLESTYLE
350
12A
  3
ACAD_VISUALSTYLE
350
2A
  0
SUN
  5
3F
330
29
100
AcDbSun
 90
        1
290
     0
 63
     7
421
 16777215
 40
1.0
291
     1
 91
  2455826
 92
 54000000
292
     0
 70
     2
 71
   256
280
     1
  0
DICTIONARY
  5
D
102
{ACAD_REACTORS
330
C
102
}
330
C
100
AcDbDictionary
281
     1
  0
DICTIONARY
  5
1A
102
{ACAD_REACTORS
330
C
102
}
330
C
100
AcDbDictionary
281
     1
  3
Layout1
350
1E
  3
Layout2
350
26
  3
Model
350
22
  0
DICTIONARY
  5
3B
102
{ACAD_REACTORS
330
C
102
}
330
C
100
AcDbDictionary
281
     1
  3
ByBlock
350
3D
  3
ByLayer
350
3C
  3
Global
350
3E
  0
DICTIONARY
  5
12B
102
{ACAD_REACTORS
330
C
102
}
330
C
100
AcDbDictionary
281
     1
  0
DICTIONARY
  5
17
102
{ACAD_REACTORS
330
C
102
}
330
C
100
AcDbDictionary
281
     1
  3
Standard
350
18
  0
DICTIONARY
  5
19
102
{ACAD_REACTORS
330
C
102
}
330
C
100
AcDbDictionary
281
     1
  0
ACDBDICTIONARYWDFLT
  5
E
102
{ACAD_REACTORS
330
C
102
}
330
C
100
AcDbDictionary
281
     1
  3
Normal
350
F
100
AcDbDictionaryWithDefault
340
F
  0
DICTIONARY
  5
12A
102
{ACAD_REACTORS
330
C
102
}
330
C
100
AcDbDictionary
281
     1
  0
DICTIONARY
  5
2A
102
{ACAD_REACTORS
330
C
102
}
330
C
100
AcDbDictionary
281
     1
  3
2dWireframe
350
2F
  3
3D Hidden
350
31
  3
3dWireframe
350
30
  3
Basic
350
32
  3
Brighten
350
36
  3
ColorChange
350
3A
  3
Conceptual
350
34
  3
Dim
350
35
  3
Facepattern
350
39
  3
Flat
350
2B
  3
FlatWithEdges
350
2C
  3
Gouraud
350
2D
  3
GouraudWithEdges
350
2E
  3
Linepattern
350
38
  3
Realistic
350
33
  3
Thicken
350
37
  0
LAYOUT
  5
1E
102
{ACAD_REACTORS
330
1A
102
}
330
1A
100
AcDbPlotSettings
  1

  2
none_device
  4

  6

 40
0.0
 41
0.0
 42
0.0
 43
0.0
 44
0.0
 45
0.0
 46
0.0
 47
0.0
 48
0.0
 49
0.0
140
0.0
141
0.0
142
1.0
143
1.0
 70
   688
 72
     0
 73
     0
 74
     5
  7

 75
    16
 76
     0
 77
     2
 78
   300
147
1.0
148
0.0
149
0.0
100
AcDbLayout
  1
Layout1
 70
     1
 71
     1
 10
0.0
 20
0.0
 11
12.0
 21
9.0
 12
0.0
 22
0.0
 32
0.0
 14
1.000000000000000E+20
 24
1.000000000000000E+20
 34
1.000000000000000E+20
 15
-1.000000000000000E+20
 25
-1.000000000000000E+20
 35
-1.000000000000000E+20
146
0.0
 13
0.0
 23
0.0
 33
0.0
 16
1.0
 26
0.0
 36
0.0
 17
0.0
 27
1.0
 37
0.0
 76
     0
330
1B
  0
LAYOUT
  5
26
102
{ACAD_REACTORS
330
1A
102
}
330
1A
100
AcDbPlotSettings
  1

  2
none_device
  4

  6

 40
0.0
 41
0.0
 42
0.0
 43
0.0
 44
0.0
 45
0.0
 46
0.0
 47
0.0
 48
0.0
 49
0.0
140
0.0
141
0.0
142
1.0
143
1.0
 70
   688
 72
     0
 73
     0
 74
     5
  7

 75
    16
 76
     0
 77
     2
 78
   300
147
1.0
148
0.0
149
0.0
100
AcDbLayout
  1
Layout2
 70
     1
 71
     2
 10
0.0
 20
0.0
 11
0.0
 21
0.0
 12
0.0
 22
0.0
 32
0.0
 14
0.0
 24
0.0
 34
0.0
 15
0.0
 25
0.0
 35
0.0
146
0.0
 13
0.0
 23
0.0
 33
0.0
 16
1.0
 26
0.0
 36
0.0
 17
0.0
 27
1.0
 37
0.0
 76
     0
330
23
  0
LAYOUT
  5
22
102
{ACAD_REACTORS
330
1A
102
}
330
1A
100
AcDbPlotSettings
  1

  2
none_device
  4

  6

 40
0.0
 41
0.0
 42
0.0
 43
0.0
 44
0.0
 45
0.0
 46
0.0
 47
0.0
 48
0.0
 49
0.0
140
0.0
141
0.0
142
1.0
143
1.0
 70
  1712
 72
     0
 73
     0
 74
     0
  7

 75
     0
 76
     0
 77
     2
 78
   300
147
1.0
148
0.0
149
0.0
100
AcDbLayout
  1
Model
 70
     1
 71
     0
 10
0.0
 20
0.0
 11
12.0
 21
9.0
 12
0.0
 22
0.0
 32
0.0
 14
1.000000000000000E+20
 24
1.000000000000000E+20
 34
1.000000000000000E+20
 15
-1.000000000000000E+20
 25
-1.000000000000000E+20
 35
-1.000000000000000E+20
146
0.0
 13
0.0
 23
0.0
 33
0.0
 16
1.0
 26
0.0
 36
0.0
 17
0.0
 27
1.0
 37
0.0
 76
     0
330
1F
331
29
  0
MATERIAL
  5
3D
102
{ACAD_REACTORS
330
3B
102
}
330
3B
100
AcDbMaterial
  1
ByBlock
 72
     1
 94
      127
  0
MATERIAL
  5
3C
102
{ACAD_REACTORS
330
3B
102
}
330
3B
100
AcDbMaterial
  1
ByLayer
 72
     1
 94
      127
  0
MATERIAL
  5
3E
102
{ACAD_REACTORS
330
3B
102
}
330
3B
100
AcDbMaterial
  1
Global
 72
     1
 94
      127
  0
MLINESTYLE
  5
18
102
{ACAD_REACTORS
330
17
102
}
330
17
100
AcDbMlineStyle
  2
Standard
 70
     0
  3

 62
   256
 51
90.0
 52
90.0
 71
     2
 49
0.5
 62
   256
  6
BYLAYER
 49
-0.5
 62
   256
  6
BYLAYER
  0
ACDBPLACEHOLDER
  5
F
102
{ACAD_REACTORS
330
E
102
}
330
E
  0
VISUALSTYLE
  5
2F
102
{ACAD_REACTORS
330
2A
102
}
330
2A
100
AcDbVisualStyle
  2
2dWireframe
 70
     4
177
     2
291
     0
 71
     0
176
     1
 72
     2
176
     1
 73
     0
176
     1
 90
        0
176
     1
 40
-0.6
176
     1
 41
-30.0
176
     1
 62
     5
 63
     7
421
 16777215
176
     1
 74
     1
176
     1
 91
        4
176
     1
 64
     7
176
     1
 65
   257
176
     1
 75
     1
176
     1
175
     1
176
     1
 42
1.0
176
     1
 92
        0
176
     1
 66
   257
176
     1
 43
1.0
176
     1
 76
     1
176
     1
 77
     6
176
     1
 78
     2
176
     1
 67
     7
176
     1
 79
     5
176
     1
170
     0
176
     1
171
     0
176
     1
290
     0
176
     1
 93
        1
176
     1
 44
0.0
176
     1
173
     0
176
     1
  0
VISUALSTYLE
  5
31
102
{ACAD_REACTORS
330
2A
102
}
330
2A
100
AcDbVisualStyle
  2
3D Hidden
 70
     6
177
     2
291
     0
 71
     1
176
     1
 72
     2
176
     1
 73
     2
176
     1
 90
        0
176
     1
 40
-0.6
176
     1
 41
-30.0
176
     1
 62
     5
 63
     7
421
 16777215
176
     1
 74
     2
176
     1
 91
        2
176
     1
 64
     7
176
     1
 65
   257
176
     1
 75
     2
176
     1
175
     1
176
     1
 42
40.0
176
     1
 92
        0
176
     1
 66
   257
176
     1
 43
1.0
176
     1
 76
     1
176
     1
 77
     6
176
     1
 78
     2
176
     1
 67
     7
176
     1
 79
     3
176
     1
170
     0
176
     1
171
     0
176
     1
290
     0
176
     1
 93
        1
176
     1
 44
0.0
176
     1
173
     0
176
     1
  0
VISUALSTYLE
  5
30
102
{ACAD_REACTORS
330
2A
102
}
330
2A
100
AcDbVisualStyle
  2
3dWireframe
 70
     5
177
     2
291
     0
 71
     0
176
     1
 72
     2
176
     1
 73
     0
176
     1
 90
        0
176
     1
 40
-0.6
176
     1
 41
-30.0
176
     1
 62
     5
 63
     7
421
 16777215
176
     1
 74
     1
176
     1
 91
        4
176
     1
 64
     7
176
     1
 65
   257
176
     1
 75
     1
176
     1
175
     1
176
     1
 42
1.0
176
     1
 92
        0
176
     1
 66
   257
176
     1
 43
1.0
176
     1
 76
     1
176
     1
 77
     6
176
     1
 78
     2
176
     1
 67
     7
176
     1
 79
     5
176
     1
170
     0
176
     1
171
     0
176
     1
290
     0
176
     1
 93
        1
176
     1
 44
0.0
176
     1
173
     0
176
     1
  0
VISUALSTYLE
  5
32
102
{ACAD_REACTORS
330
2A
102
}
330
2A
100
AcDbVisualStyle
  2
Basic
 70
     7
177
     2
291
     1
 71
     1
176
     1
 72
     0
176
     1
 73
     1
176
     1
 90
        0
176
     1
 40
-0.6
176
     1
 41
-30.0
176
     1
 62
     5
 63
     7
421
 16777215
176
     1
 74
     0
176
     1
 91
        4
176
     1
 64
     7
176
     1
 65
   257
176
     1
 75
     1
176
     1
175
     1
176
     1
 42
1.0
176
     1
 92
        8
176
     1
 66
     7
176
     1
 43
1.0
176
     1
 76
     1
176
     1
 77
     6
176
     1
 78
     2
176
     1
 67
     7
176
     1
 79
     5
176
     1
170
     0
176
     1
171
     0
176
     1
290
     0
176
     1
 93
        1
176
     1
 44
0.0
176
     1
173
     0
176
     1
  0
VISUALSTYLE
  5
36
102
{ACAD_REACTORS
330
2A
102
}
330
2A
100
AcDbVisualStyle
  2
Brighten
 70
    12
177
     2
291
     1
 71
     2
176
     1
 72
     2
176
     1
 73
     0
176
     1
 90
        0
176
     1
 40
-0.6
176
     1
 41
-30.0
176
     1
 62
     5
 63
     7
421
 16777215
176
     1
 74
     1
176
     1
 91
        4
176
     1
 64
     7
176
     1
 65
   257
176
     1
 75
     1
176
     1
175
     1
176
     1
 42
1.0
176
     1
 92
        8
176
     1
 66
     7
176
     1
 43
1.0
176
     1
 76
     1
176
     1
 77
     6
176
     1
 78
     2
176
     1
 67
     7
176
     1
 79
     5
176
     1
170
     0
176
     1
171
     0
176
     1
290
     0
176
     1
 93
        1
176
     1
 44
50.0
176
     1
173
     0
176
     1
  0
VISUALSTYLE
  5
3A
102
{ACAD_REACTORS
330
2A
102
}
330
2A
100
AcDbVisualStyle
  2
ColorChange
 70
    16
177
     2
291
     1
 71
     2
176
     1
 72
     2
176
     1
 73
     3
176
     1
 90
        0
176
     1
 40
-0.6
176
     1
 41
-30.0
176
     1
 62
     5
 63
     8
421
  8421504
176
     1
 74
     1
176
     1
 91
        4
176
     1
 64
     7
176
     1
 65
   257
176
     1
 75
     1
176
     1
175
     1
176
     1
 42
1.0
176
     1
 92
        8
176
     1
 66
     8
424
  8421504
176
     1
 43
1.0
176
     1
 76
     1
176
     1
 77
     6
176
     1
 78
     2
176
     1
 67
     7
176
     1
 79
     5
176
     1
170
     0
176
     1
171
     0
176
     1
290
     0
176
     1
 93
        1
176
     1
 44
0.0
176
     1
173
     0
176
     1
  0
VISUALSTYLE
  5
34
102
{ACAD_REACTORS
330
2A
102
}
330
2A
100
AcDbVisualStyle
  2
Conceptual
 70
     9
177
     2
291
     0
 71
     3
176
     1
 72
     2
176
     1
 73
     0
176
     1
 90
        0
176
     1
 40
-0.6
176
     1
 41
-30.0
176
     1
 62
     5
 63
     7
421
 16777215
176
     1
 74
     2
176
     1
 91
        2
176
     1
 64
     7
176
     1
 65
   257
176
     1
 75
     1
176
     1
175
     1
176
     1
 42
40.0
176
     1
 92
        8
176
     1
 66
     7
176
     1
 43
1.0
176
     1
 76
     1
176
     1
 77
     6
176
     1
 78
     2
176
     1
 67
     7
176
     1
 79
     3
176
     1
170
     0
176
     1
171
     0
176
     1
290
     0
176
     1
 93
        1
176
     1
 44
0.0
176
     1
173
     0
176
     1
  0
VISUALSTYLE
  5
35
102
{ACAD_REACTORS
330
2A
102
}
330
2A
100
AcDbVisualStyle
  2
Dim
 70
    11
177
     2
291
     1
 71
     2
176
     1
 72
     2
176
     1
 73
     0
176
     1
 90
        0
176
     1
 40
-0.6
176
     1
 41
-30.0
176
     1
 62
     5
 63
     7
421
 16777215
176
     1
 74
     1
176
     1
 91
        4
176
     1
 64
     7
176
     1
 65
   257
176
     1
 75
     1
176
     1
175
     1
176
     1
 42
1.0
176
     1
 92
        8
176
     1
 66
     7
176
     1
 43
1.0
176
     1
 76
     1
176
     1
 77
     6
176
     1
 78
     2
176
     1
 67
     7
176
     1
 79
     5
176
     1
170
     0
176
     1
171
     0
176
     1
290
     0
176
     1
 93
        1
176
     1
 44
-50.0
176
     1
173
     0
176
     1
  0
VISUALSTYLE
  5
39
102
{ACAD_REACTORS
330
2A
102
}
330
2A
100
AcDbVisualStyle
  2
Facepattern
 70
    15
177
     2
291
     1
 71
     2
176
     1
 72
     2
176
     1
 73
     0
176
     1
 90
        0
176
     1
 40
-0.6
176
     1
 41
-30.0
176
     1
 62
     5
 63
     7
421
 16777215
176
     1
 74
     1
176
     1
 91
        4
176
     1
 64
     7
176
     1
 65
   257
176
     1
 75
     1
176
     1
175
     1
176
     1
 42
1.0
176
     1
 92
        8
176
     1
 66
     7
176
     1
 43
1.0
176
     1
 76
     1
176
     1
 77
     6
176
     1
 78
     2
176
     1
 67
     7
176
     1
 79
     5
176
     1
170
     0
176
     1
171
     0
176
     1
290
     0
176
     1
 93
        1
176
     1
 44
0.0
176
     1
173
     0
176
     1
  0
VISUALSTYLE
  5
2B
102
{ACAD_REACTORS
330
2A
102
}
330
2A
100
AcDbVisualStyle
  2
Flat
 70
     0
177
     2
291
     1
 71
     2
176
     1
 72
     1
176
     1
 73
     1
176
     1
 90
        2
176
     1
 40
-0.6
176
     1
 41
30.0
176
     1
 62
     5
 63
     7
421
 16777215
176
     1
 74
     0
176
     1
 91
        4
176
     1
 64
     7
176
     1
 65
   257
176
     1
 75
     1
176
     1
175
     1
176
     1
 42
1.0
176
     1
 92
        8
176
     1
 66
     7
176
     1
 43
1.0
176
     1
 76
     1
176
     1
 77
     6
176
     1
 78
     2
176
     1
 67
     7
176
     1
 79
     5
176
     1
170
     0
176
     1
171
     0
176
     1
290
     0
176
     1
 93
       13
176
     1
 44
0.0
176
     1
173
     0
176
     1
  0
VISUALSTYLE
  5
2C
102
{ACAD_REACTORS
330
2A
102
}
330
2A
100
AcDbVisualStyle
  2
FlatWithEdges
 70
     1
177
     2
291
     1
 71
     2
176
     1
 72
     1
176
     1
 73
     1
176
     1
 90
        2
176
     1
 40
-0.6
176
     1
 41
30.0
176
     1
 62
     5
 63
     7
421
 16777215
176
     1
 74
     1
176
     1
 91
        4
176
     1
 64
     7
176
     1
 65
   257
176
     1
 75
     1
176
     1
175
     1
176
     1
 42
1.0
176
     1
 92
        0
176
     1
 66
   257
176
     1
 43
1.0
176
     1
 76
     1
176
     1
 77
     6
176
     1
 78
     2
176
     1
 67
     7
176
     1
 79
     5
176
     1
170
     0
176
     1
171
     0
176
     1
290
     0
176
     1
 93
       13
176
     1
 44
0.0
176
     1
173
     0
176
     1
  0
VISUALSTYLE
  5
2D
102
{ACAD_REACTORS
330
2A
102
}
330
2A
100
AcDbVisualStyle
  2
Gouraud
 70
     2
177
     2
291
     1
 71
     2
176
     1
 72
     2
176
     1
 73
     1
176
     1
 90
        2
176
     1
 40
-0.6
176
     1
 41
30.0
176
     1
 62
     5
 63
     7
421
 16777215
176
     1
 74
     0
176
     1
 91
        4
176
     1
 64
     7
176
     1
 65
   257
176
     1
 75
     1
176
     1
175
     1
176
     1
 42
1.0
176
     1
 92
        0
176
     1
 66
     7
176
     1
 43
1.0
176
     1
 76
     1
176
     1
 77
     6
176
     1
 78
     2
176
     1
 67
     7
176
     1
 79
     5
176
     1
170
     0
176
     1
171
     0
176
     1
290
     0
176
     1
 93
       13
176
     1
 44
0.0
176
     1
173
     0
176
     1
  0
VISUALSTYLE
  5
2E
102
{ACAD_REACTORS
330
2A
102
}
330
2A
100
AcDbVisualStyle
  2
GouraudWithEdges
 70
     3
177
     2
291
     1
 71
     2
176
     1
 72
     2
176
     1
 73
     1
176
     1
 90
        2
176
     1
 40
-0.6
176
     1
 41
30.0
176
     1
 62
     5
 63
     7
421
 16777215
176
     1
 74
     1
176
     1
 91
        4
176
     1
 64
     7
176
     1
 65
   257
176
     1
 75
     1
176
     1
175
     1
176
     1
 42
1.0
176
     1
 92
        0
176
     1
 66
   257
176
     1
 43
1.0
176
     1
 76
     1
176
     1
 77
     6
176
     1
 78
     2
176
     1
 67
     7
176
     1
 79
     5
176
     1
170
     0
176
     1
171
     0
176
     1
290
     0
176
     1
 93
       13
176
     1
 44
0.0
176
     1
173
     0
176
     1
  0
VISUALSTYLE
  5
38
102
{ACAD_REACTORS
330
2A
102
}
330
2A
100
AcDbVisualStyle
  2
Linepattern
 70
    14
177
     2
291
     1
 71
     2
176
     1
 72
     2
176
     1
 73
     0
176
     1
 90
        0
176
     1
 40
-0.6
176
     1
 41
-30.0
176
     1
 62
     5
 63
     7
421
 16777215
176
     1
 74
     1
176
     1
 91
        4
176
     1
 64
     7
176
     1
 65
   257
176
     1
 75
     7
176
     1
175
     7
176
     1
 42
1.0
176
     1
 92
        8
176
     1
 66
     7
176
     1
 43
1.0
176
     1
 76
     1
176
     1
 77
     6
176
     1
 78
     2
176
     1
 67
     7
176
     1
 79
     5
176
     1
170
     0
176
     1
171
     0
176
     1
290
     0
176
     1
 93
        1
176
     1
 44
0.0
176
     1
173
     0
176
     1
  0
VISUALSTYLE
  5
33
102
{ACAD_REACTORS
330
2A
102
}
330
2A
100
AcDbVisualStyle
  2
Realistic
 70
     8
177
     2
291
     0
 71
     2
176
     1
 72
     2
176
     1
 73
     0
176
     1
 90
        0
176
     1
 40
-0.6
176
     1
 41
-30.0
176
     1
 62
     5
 63
     7
421
 16777215
176
     1
 74
     1
176
     1
 91
        0
176
     1
 64
     7
176
     1
 65
   257
176
     1
 75
     1
176
     1
175
     1
176
     1
 42
1.0
176
     1
 92
        8
176
     1
 66
     8
424
  7895160
176
     1
 43
1.0
176
     1
 76
     1
176
     1
 77
     6
176
     1
 78
     2
176
     1
 67
     7
176
     1
 79
     5
176
     1
170
     0
176
     1
171
     0
176
     1
290
     0
176
     1
 93
       13
176
     1
 44
0.0
176
     1
173
     0
176
     1
  0
VISUALSTYLE
  5
37
102
{ACAD_REACTORS
330
2A
102
}
330
2A
100
AcDbVisualStyle
  2
Thicken
 70
    13
177
     2
291
     1
 71
     2
176
     1
 72
     2
176
     1
 73
     0
176
     1
 90
        0
176
     1
 40
-0.6
176
     1
 41
-30.0
176
     1
 62
     5
 63
     7
421
 16777215
176
     1
 74
     1
176
     1
 91
        4
176
     1
 64
     7
176
     1
 65
   257
176
     1
 75
     1
176
     1
175
     1
176
     1
 42
1.0
176
     1
 92
       12
176
     1
 66
     7
176
     1
 43
1.0
176
     1
 76
     1
176
     1
 77
     6
176
     1
 78
     2
176
     1
 67
     7
176
     1
 79
     5
176
     1
170
     0
176
     1
171
     0
176
     1
290
     0
176
     1
 93
        1
176
     1
 44
0.0
176
     1
173
     0
176
     1
  0
ENDSEC
  0
EOF
