  0
SECTION
  2
HEADER
  9
$ACADVER
  1
AC1024
  9
$ACADMAINTVER
 70
     6
  9
$DWGCODEPAGE
  3
UNDEFINED
  9
$INSBASE
 10
0.0
 20
0.0
 30
0.0
  9
$EXTMIN
 10
1.000000000000000E+20
 20
1.000000000000000E+20
 30
1.000000000000000E+20
  9
$EXTMAX
 10
-1.000000000000000E+20
 20
-1.000000000000000E+20
 30
-1.000000000000000E+20
  9
$LIMMIN
 10
0.0
 20
0.0
  9
$LIMMAX
 10
12.0
 20
9.0
  9
$ORTHOMODE
 70
     0
  9
$REGENMODE
 70
     1
  9
$FILLMODE
 70
     1
  9
$QTEXTMODE
 70
     0
  9
$MIRRTEXT
 70
     1
  9
$LTSCALE
 40
1.0
  9
$ATTMODE
 70
     1
  9
$TEXTSIZE
 40
0.2
  9
$TRACEWID
 40
0.05
  9
$TEXTSTYLE
  7
Standard
  9
$CLAYER
  8
0
  9
$CELTYPE
  6
ByLayer
  9
$CECOLOR
 62
   256
  9
$CELTSCALE
 40
1.0
  9
$DISPSILH
 70
     0
  9
$DIMSCALE
 40
1.0
  9
$DIMASZ
 40
0.18
  9
$DIMEXO
 40
0.0625
  9
$DIMDLI
 40
0.38
  9
$DIMRND
 40
0.0
  9
$DIMDLE
 40
0.0
  9
$DIMEXE
 40
0.18
  9
$DIMTP
 40
0.0
  9
$DIMTM
 40
0.0
  9
$DIMTXT
 40
0.18
  9
$DIMCEN
 40
0.09
  9
$DIMTSZ
 40
0.0
  9
$DIMTOL
 70
     0
  9
$DIMLIM
 70
     0
  9
$DIMTIH
 70
     1
  9
$DIMTOH
 70
     1
  9
$DIMSE1
 70
     0
  9
$DIMSE2
 70
     0
  9
$DIMTAD
 70
     0
  9
$DIMZIN
 70
     0
  9
$DIMBLK
  1

  9
$DIMASO
 70
     1
  9
$DIMSHO
 70
     1
  9
$DIMPOST
  1

  9
$DIMAPOST
  1

  9
$DIMALT
 70
     0
  9
$DIMALTD
 70
     2
  9
$DIMALTF
 40
25.4
  9
$DIMLFAC
 40
1.0
  9
$DIMTOFL
 70
     0
  9
$DIMTVP
 40
0.0
  9
$DIMTIX
 70
     0
  9
$DIMSOXD
 70
     0
  9
$DIMSAH
 70
     0
  9
$DIMBLK1
  1

  9
$DIMBLK2
  1

  9
$DIMSTYLE
  2
Standard
  9
$DIMCLRD
 70
     0
  9
$DIMCLRE
 70
     0
  9
$DIMCLRT
 70
     0
  9
$DIMTFAC
 40
1.0
  9
$DIMGAP
 40
0.09
  9
$DIMJUST
 70
     0
  9
$DIMSD1
 70
     0
  9
$DIMSD2
 70
     0
  9
$DIMTOLJ
 70
     1
  9
$DIMTZIN
 70
     0
  9
$DIMALTZ
 70
     0
  9
$DIMALTTZ
 70
     0
  9
$DIMUPT
 70
     0
  9
$DIMDEC
 70
     4
  9
$DIMTDEC
 70
     4
  9
$DIMALTU
 70
     2
  9
$DIMALTTD
 70
     2
  9
$DIMTXSTY
  7
Standard
  9
$DIMAUNIT
 70
     0
  9
$DIMADEC
 70
     0
  9
$DIMALTRND
 40
0.0
  9
$DIMAZIN
 70
     0
  9
$DIMDSEP
 70
    46
  9
$DIMATFIT
 70
     3
  9
$DIMFRAC
 70
     0
  9
$DIMLDRBLK
  1

  9
$DIMLUNIT
 70
     2
  9
$DIMLWD
 70
    -2
  9
$DIMLWE
 70
    -2
  9
$DIMTMOVE
 70
     0
  9
$DIMFXL
 40
1.0
  9
$DIMFXLON
 70
     0
  9
$DIMJOGANG
 40
0.7853981633974483
  9
$DIMTFILL
 70
     0
  9
$DIMTFILLCLR
 70
     0
  9
$DIMARCSYM
 70
     0
  9
$DIMLTYPE
  6

  9
$DIMLTEX1
  6

  9
$DIMLTEX2
  6

  9
$DIMTXTDIRECTION
 70
     0
  9
$LUNITS
 70
     2
  9
$LUPREC
 70
     4
  9
$SKETCHINC
 40
0.1
  9
$FILLETRAD
 40
0.5
  9
$AUNITS
 70
     0
  9
$AUPREC
 70
     0
  9
$MENU
  1
.
  9
$ELEVATION
 40
0.0
  9
$PELEVATION
 40
0.0
  9
$THICKNESS
 40
0.0
  9
$LIMCHECK
 70
     0
  9
$CHAMFERA
 40
0.5
  9
$CHAMFERB
 40
0.5
  9
$CHAMFERC
 40
1.0
  9
$CHAMFERD
 40
0.0
  9
$SKPOLY
 70
     0
  9
$TDCREATE
 40
2457917.611620359
  9
$TDUCREATE
 40
2457917.23662037
  9
$TDUPDATE
 40
2457917.611620359
  9
$TDUUPDATE
 40
2457917.23662037
  9
$TDINDWG
 40
0.0000000116
  9
$TDUSRTIMER
 40
0.0000000116
  9
$USRTIMER
 70
     1
  9
$ANGBASE
 50
0.0
  9
$ANGDIR
 70
     0
  9
$PDMODE
 70
     0
  9
$PDSIZE
 40
0.0
  9
$PLINEWID
 40
0.0
  9
$SPLFRAME
 70
     0
  9
$SPLINETYPE
 70
     6
  9
$SPLINESEGS
 70
     8
  9
$HANDSEED
  5
DB
  9
$SURFTAB1
 70
     6
  9
$SURFTAB2
 70
     6
  9
$SURFTYPE
 70
     6
  9
$SURFU
 70
     6
  9
$SURFV
 70
     6
  9
$UCSBASE
  2

  9
$UCSNAME
  2

  9
$UCSORG
 10
0.0
 20
0.0
 30
0.0
  9
$UCSXDIR
 10
1.0
 20
0.0
 30
0.0
  9
$UCSYDIR
 10
0.0
 20
1.0
 30
0.0
  9
$UCSORTHOREF
  2

  9
$UCSORTHOVIEW
 70
     0
  9
$UCSORGTOP
 10
0.0
 20
0.0
 30
0.0
  9
$UCSORGBOTTOM
 10
0.0
 20
0.0
 30
0.0
  9
$UCSORGLEFT
 10
0.0
 20
0.0
 30
0.0
  9
$UCSORGRIGHT
 10
0.0
 20
0.0
 30
0.0
  9
$UCSORGFRONT
 10
0.0
 20
0.0
 30
0.0
  9
$UCSORGBACK
 10
0.0
 20
0.0
 30
0.0
  9
$PUCSBASE
  2

  9
$PUCSNAME
  2

  9
$PUCSORG
 10
0.0
 20
0.0
 30
0.0
  9
$PUCSXDIR
 10
1.0
 20
0.0
 30
0.0
  9
$PUCSYDIR
 10
0.0
 20
1.0
 30
0.0
  9
$PUCSORTHOREF
  2

  9
$PUCSORTHOVIEW
 70
     0
  9
$PUCSORGTOP
 10
0.0
 20
0.0
 30
0.0
  9
$PUCSORGBOTTOM
 10
0.0
 20
0.0
 30
0.0
  9
$PUCSORGLEFT
 10
0.0
 20
0.0
 30
0.0
  9
$PUCSORGRIGHT
 10
0.0
 20
0.0
 30
0.0
  9
$PUCSORGFRONT
 10
0.0
 20
0.0
 30
0.0
  9
$PUCSORGBACK
 10
0.0
 20
0.0
 30
0.0
  9
$USERI1
 70
     0
  9
$USERI2
 70
     0
  9
$USERI3
 70
     0
  9
$USERI4
 70
     0
  9
$USERI5
 70
     0
  9
$USERR1
 40
0.0
  9
$USERR2
 40
0.0
  9
$USERR3
 40
0.0
  9
$USERR4
 40
0.0
  9
$USERR5
 40
0.0
  9
$WORLDVIEW
 70
     1
  9
$SHADEDGE
 70
     3
  9
$SHADEDIF
 70
    70
  9
$TILEMODE
 70
     1
  9
$MAXACTVP
 70
    64
  9
$PINSBASE
 10
0.0
 20
0.0
 30
0.0
  9
$PLIMCHECK
 70
     0
  9
$PEXTMIN
 10
1.000000000000000E+20
 20
1.000000000000000E+20
 30
1.000000000000000E+20
  9
$PEXTMAX
 10
-1.000000000000000E+20
 20
-1.000000000000000E+20
 30
-1.000000000000000E+20
  9
$PLIMMIN
 10
0.0
 20
0.0
  9
$PLIMMAX
 10
12.0
 20
9.0
  9
$UNITMODE
 70
     0
  9
$VISRETAIN
 70
     1
  9
$PLINEGEN
 70
     0
  9
$PSLTSCALE
 70
     1
  9
$TREEDEPTH
 70
  3020
  9
$CMLSTYLE
  2
Standard
  9
$CMLJUST
 70
     0
  9
$CMLSCALE
 40
1.0
  9
$PROXYGRAPHICS
 70
     1
  9
$MEASUREMENT
 70
     0
  9
$CELWEIGHT
370
    -1
  9
$ENDCAPS
280
     0
  9
$JOINSTYLE
280
     0
  9
$LWDISPLAY
290
     1
  9
$INSUNITS
 70
     1
  9
$HYPERLINKBASE
  1

  9
$STYLESHEET
  1

  9
$XEDIT
290
     1
  9
$CEPSNTYPE
380
     0
  9
$PSTYLEMODE
290
     1
  9
$FINGERPRINTGUID
  2
{896411FB-5693-0196-57CF-479B57CC6DBF}
  9
$VERSIONGUID
  2
{FAEB1C32-E019-11D5-929B-00C0DF256EC4}
  9
$EXTNAMES
290
     1
  9
$PSVPSCALE
 40
0.0
  9
$OLESTARTUP
290
     0
  9
$SORTENTS
280
   127
  9
$INDEXCTL
280
     0
  9
$HIDETEXT
280
     1
  9
$XCLIPFRAME
280
     2
  9
$HALOGAP
280
     0
  9
$OBSCOLOR
 70
   257
  9
$OBSLTYPE
280
     0
  9
$INTERSECTIONDISPLAY
280
     0
  9
$INTERSECTIONCOLOR
 70
   257
  9
$DIMASSOC
280
     2
  9
$PROJECTNAME
  1

  9
$CAMERADISPLAY
290
     0
  9
$LENSLENGTH
 40
50.0
  9
$CAMERAHEIGHT
 40
0.0
  9
$STEPSPERSEC
 40
2.0
  9
$STEPSIZE
 40
6.0
  9
$3DDWFPREC
 40
2.0
  9
$PSOLWIDTH
 40
0.25
  9
$PSOLHEIGHT
 40
4.0
  9
$LOFTANG1
 40
1.570796326794897
  9
$LOFTANG2
 40
1.570796326794897
  9
$LOFTMAG1
 40
0.0
  9
$LOFTMAG2
 40
0.0
  9
$LOFTPARAM
 70
     7
  9
$LOFTNORMALS
280
     1
  9
$LATITUDE
 40
37.795
  9
$LONGITUDE
 40
-122.394
  9
$NORTHDIRECTION
 40
0.0
  9
$TIMEZONE
 70
 -8000
  9
$LIGHTGLYPHDISPLAY
280
     1
  9
$TILEMODELIGHTSYNCH
280
     1
  9
$CMATERIAL
347
3C
  9
$SOLIDHIST
280
     1
  9
$SHOWHIST
280
     1
  9
$DWFFRAME
280
     2
  9
$DGNFRAME
280
     2
  9
$REALWORLDSCALE
290
     1
  9
$INTERFERECOLOR
 62
   256
  9
$CSHADOW
280
     0
  9
$SHADOWPLANELOCATION
 40
0.0
  0
ENDSEC
  0
SECTION
  2
CLASSES
  0
CLASS
  1
ACDBDICTIONARYWDFLT
  2
AcDbDictionaryWithDefault
  3
ObjectDBX Classes
 90
        0
 91
        4
280
     0
281
     0
  0
CLASS
  1
VISUALSTYLE
  2
AcDbVisualStyle
  3
ObjectDBX Classes
 90
     4095
 91
        4
280
     0
281
     0
  0
CLASS
  1
MATERIAL
  2
AcDbMaterial
  3
ObjectDBX Classes
 90
     1153
 91
        4
280
     0
281
     0
  0
CLASS
  1
SUN
  2
AcDbSun
  3
SCENEOE
 90
     1024
 91
        4
280
     0
281
     0
  0
ENDSEC
  0
SECTION
  2
TABLES
  0
TABLE
  2
VPORT
  5
8
330
0
100
AcDbSymbolTable
 70
     1
  0
VPORT
  5
29
330
8
100
AcDbSymbolTableRecord
100
AcDbViewportTableRecord
  2
*Active
 70
     0
 10
0.0
 20
0.0
 11
1.0
 21
1.0
 12
0.0
 22
0.0
 13
0.0
 23
0.0
 14
0.5
 24
0.5
 15
0.5
 25
0.5
 16
0.0
 26
0.0
 36
1.0
 17
91.00082462281999
 27
-128.4993055234307
 37
0.0
 40
256.9986110468615
 41
0.7081814508812795
 42
50.0
 43
0.0
 44
0.0
 50
0.0
 51
0.0
 71
     0
 72
   100
 73
     1
 74
     3
 75
     0
 76
     0
 77
     0
 78
     0
281
     0
 65
     1
110
0.0
120
0.0
130
0.0
111
1.0
121
0.0
131
0.0
112
0.0
122
1.0
132
0.0
 79
     0
146
0.0
 60
     3
 61
     5
292
     1
282
     1
141
0.0
142
0.0
 63
   250
361
3F
  0
ENDTAB
  0
TABLE
  2
LTYPE
  5
5
330
0
100
AcDbSymbolTable
 70
     1
  0
LTYPE
  5
14
330
5
100
AcDbSymbolTableRecord
100
AcDbLinetypeTableRecord
  2
ByBlock
 70
     0
  3

 72
    65
 73
     0
 40
0.0
  0
LTYPE
  5
15
330
5
100
AcDbSymbolTableRecord
100
AcDbLinetypeTableRecord
  2
ByLayer
 70
     0
  3

 72
    65
 73
     0
 40
0.0
  0
LTYPE
  5
16
330
5
100
AcDbSymbolTableRecord
100
AcDbLinetypeTableRecord
  2
Continuous
 70
     0
  3
Solid line
 72
    65
 73
     0
 40
0.0
  0
ENDTAB
  0
TABLE
  2
LAYER
  5
2
330
0
100
AcDbSymbolTable
 70
     2
  0
LAYER
  5
10
330
2
100
AcDbSymbolTableRecord
100
AcDbLayerTableRecord
  2
0
 70
     0
 62
     7
  6
Continuous
370
    -3
390
F
347
3E
  0
LAYER
  5
40
330
2
100
AcDbSymbolTableRecord
100
AcDbLayerTableRecord
  2
_U+30EC_U+30A4_U+30E4_U+30FC 1
 70
     0
 62
     7
  6
Continuous
370
    -3
390
F
347
3E
  0
ENDTAB
  0
TABLE
  2
STYLE
  5
3
330
0
100
AcDbSymbolTable
 70
     1
  0
STYLE
  5
11
330
3
100
AcDbSymbolTableRecord
100
AcDbTextStyleTableRecord
  2
Standard
 70
     0
 40
0.0
 41
1.0
 50
0.0
 71
     0
 42
0.2
  3
txt
  4

  0
ENDTAB
  0
TABLE
  2
VIEW
  5
6
330
0
100
AcDbSymbolTable
 70
     0
  0
ENDTAB
  0
TABLE
  2
UCS
  5
7
330
0
100
AcDbSymbolTable
 70
     0
  0
ENDTAB
  0
TABLE
  2
APPID
  5
9
330
0
100
AcDbSymbolTable
 70
     1
  0
APPID
  5
12
330
9
100
AcDbSymbolTableRecord
100
AcDbRegAppTableRecord
  2
ACAD
 70
     0
  0
ENDTAB
  0
TABLE
  2
DIMSTYLE
  5
A
330
0
100
AcDbSymbolTable
 70
     1
100
AcDbDimStyleTable
  0
DIMSTYLE
105
27
330
A
100
AcDbSymbolTableRecord
100
AcDbDimStyleTableRecord
  2
Standard
 70
     0
178
     0
340
11
  0
ENDTAB
  0
TABLE
  2
BLOCK_RECORD
  5
1
330
0
100
AcDbSymbolTable
 70
     3
  0
BLOCK_RECORD
  5
1F
330
1
100
AcDbSymbolTableRecord
100
AcDbBlockTableRecord
  2
*Model_Space
340
22
 70
     0
280
     1
281
     0
  0
BLOCK_RECORD
  5
1B
330
1
100
AcDbSymbolTableRecord
100
AcDbBlockTableRecord
  2
*Paper_Space
340
1E
 70
     0
280
     1
281
     0
  0
BLOCK_RECORD
  5
23
330
1
100
AcDbSymbolTableRecord
100
AcDbBlockTableRecord
  2
*Paper_Space0
340
26
 70
     0
280
     1
281
     0
  0
BLOCK_RECORD
  5
41
330
1
100
AcDbSymbolTableRecord
100
AcDbBlockTableRecord
  2
block 2
340
0
102
{BLKREFS
331
42
102
}
 70
     0
280
     1
281
     0
  0
BLOCK_RECORD
  5
6E
330
1
100
AcDbSymbolTableRecord
100
AcDbBlockTableRecord
  2
block 3
340
0
102
{BLKREFS
331
6F
102
}
 70
     0
280
     1
281
     0
  0
ENDTAB
  0
ENDSEC
  0
SECTION
  2
BLOCKS
  0
BLOCK
  5
20
330
1F
100
AcDbEntity
  8
0
100
AcDbBlockBegin
  2
*Model_Space
 70
     0
 10
0.0
 20
0.0
 30
0.0
  3
*Model_Space
  1

  0
ENDBLK
  5
21
330
1F
100
AcDbEntity
  8
0
100
AcDbBlockEnd
  0
BLOCK
  5
1C
330
1B
100
AcDbEntity
 67
     1
  8
0
100
AcDbBlockBegin
  2
*Paper_Space
 70
     0
 10
0.0
 20
0.0
 30
0.0
  3
*Paper_Space
  1

  0
ENDBLK
  5
1D
330
1B
100
AcDbEntity
 67
     1
  8
0
100
AcDbBlockEnd
  0
BLOCK
  5
24
330
23
100
AcDbEntity
  8
0
100
AcDbBlockBegin
  2
*Paper_Space0
 70
     0
 10
0.0
 20
0.0
 30
0.0
  3
*Paper_Space0
  1

  0
ENDBLK
  5
25
330
23
100
AcDbEntity
  8
0
100
AcDbBlockEnd
  0
BLOCK
  5
43
330
41
100
AcDbEntity
  8
0
100
AcDbBlockBegin
  2
block 2
 70
     0
 10
0.0
 20
0.0
 30
0.0
  3
block 2
  1

  0
SPLINE
  5
45
330
41
100
AcDbEntity
  8
_U+30EC_U+30A4_U+30E4_U+30FC 1
370
     0
100
AcDbSpline
210
0.0
220
0.0
230
1.0
 70
    11
 71
     3
 72
    38
 73
    34
 74
     0
 42
0.0000000001
 43
0.0000000001
 12
1.0
 22
0.0
 32
0.0
 13
1.0
 23
0.0
 33
0.0
 40
0.0
 40
0.0
 40
0.0
 40
0.0
 40
1.0
 40
1.0
 40
1.0
 40
2.0
 40
2.0
 40
2.0
 40
3.0
 40
3.0
 40
3.0
 40
4.0
 40
4.0
 40
4.0
 40
5.0
 40
5.0
 40
5.0
 40
6.0
 40
6.0
 40
6.0
 40
7.0
 40
7.0
 40
7.0
 40
8.0
 40
8.0
 40
8.0
 40
9.0
 40
9.0
 40
9.0
 40
10.0
 40
10.0
 40
10.0
 40
11.0
 40
11.0
 40
11.0
 40
11.0
 10
77.92289223312345
 20
-128.0032117735548
 30
0.0
 10
77.50534666031116
 20
-128.2092284835727
 30
0.0
 10
77.0977918644061
 20
-128.0045898117489
 30
0.0
 10
76.89005260664554
 20
-127.5834268886771
 30
0.0
 10
76.65819768048823
 20
-127.1128268453919
 30
0.0
 10
76.83906519346385
 20
-126.7050997947126
 30
0.0
 10
77.20527884354591
 20
-126.5245767912855
 30
0.0
 10
77.51464841812134
 20
-126.371959061289
 30
0.0
 10
77.84675562289942
 20
-126.4184678503398
 30
0.0
 10
78.00591903431797
 20
-126.693558724837
 30
0.0
 10
78.00591903431797
 20
-126.693558724837
 30
0.0
 10
77.79886879565446
 20
-126.7957058059747
 30
0.0
 10
77.79886879565446
 20
-126.7957058059747
 30
0.0
 10
77.67312281044283
 20
-126.6263793628747
 30
0.0
 10
77.43920082699437
 20
-126.6496337574001
 30
0.0
 10
77.29519583571093
 20
-126.7207749791705
 30
0.0
 10
77.20217825760918
 20
-126.7665947491243
 30
0.0
 10
77.11191675589563
 20
-126.8468654739306
 30
0.0
 10
77.06230738090804
 20
-126.9562472555873
 30
0.0
 10
76.97411293648564
 20
-127.141076628371
 30
0.0
 10
77.04267033664212
 20
-127.3476101027117
 30
0.0
 10
77.11295028454121
 20
-127.4900648010268
 30
0.0
 10
77.30759817945783
 20
-127.8847004888622
 30
0.0
 10
77.62937009778017
 20
-127.9053710617737
 30
0.0
 10
77.82263995450268
 20
-127.8099419168322
 30
0.0
 10
77.94597437287462
 20
-127.7489637267433
 30
0.0
 10
78.15336912108666
 20
-127.5572441629892
 30
0.0
 10
78.04140351781604
 20
-127.2583821296437
 30
0.0
 10
78.04140351781604
 20
-127.2583821296437
 30
0.0
 10
78.24810924693104
 20
-127.1564073032803
 30
0.0
 10
78.24810924693104
 20
-127.1564073032803
 30
0.0
 10
78.29668509327306
 20
-127.2833590719118
 30
0.0
 10
78.46549477205029
 20
-127.7358723638994
 30
0.0
 10
77.92289223312345
 20
-128.0032117735548
 30
0.0
  0
HATCH
  5
46
330
41
100
AcDbEntity
  8
_U+30EC_U+30A4_U+30E4_U+30FC 1
 62
   179
420
  2234388
100
AcDbHatch
 10
0.0
 20
0.0
 30
0.0
210
0.0
220
0.0
230
1.0
  2
SOLID
 70
     1
 71
     0
 91
        1
 92
        1
 93
        1
 72
     4
 94
        3
 73
     0
 74
     1
 95
       38
 96
       34
 40
0.0
 40
0.0
 40
0.0
 40
0.0
 40
1.0
 40
1.0
 40
1.0
 40
2.0
 40
2.0
 40
2.0
 40
3.0
 40
3.0
 40
3.0
 40
4.0
 40
4.0
 40
4.0
 40
5.0
 40
5.0
 40
5.0
 40
6.0
 40
6.0
 40
6.0
 40
7.0
 40
7.0
 40
7.0
 40
8.0
 40
8.0
 40
8.0
 40
9.0
 40
9.0
 40
9.0
 40
10.0
 40
10.0
 40
10.0
 40
11.0
 40
11.0
 40
11.0
 40
11.0
 10
77.92289223312345
 20
-128.0032117735548
 10
77.50534666031116
 20
-128.2092284835727
 10
77.0977918644061
 20
-128.0045898117489
 10
76.89005260664554
 20
-127.5834268886771
 10
76.65819768048823
 20
-127.1128268453919
 10
76.83906519346385
 20
-126.7050997947126
 10
77.20527884354591
 20
-126.5245767912855
 10
77.51464841812134
 20
-126.371959061289
 10
77.84675562289942
 20
-126.4184678503398
 10
78.00591903431797
 20
-126.693558724837
 10
78.00591903431797
 20
-126.693558724837
 10
77.79886879565446
 20
-126.7957058059747
 10
77.79886879565446
 20
-126.7957058059747
 10
77.67312281044283
 20
-126.6263793628747
 10
77.43920082699437
 20
-126.6496337574001
 10
77.29519583571093
 20
-126.7207749791705
 10
77.20217825760918
 20
-126.7665947491243
 10
77.11191675589563
 20
-126.8468654739306
 10
77.06230738090804
 20
-126.9562472555873
 10
76.97411293648564
 20
-127.141076628371
 10
77.04267033664212
 20
-127.3476101027117
 10
77.11295028454121
 20
-127.4900648010268
 10
77.30759817945783
 20
-127.8847004888622
 10
77.62937009778017
 20
-127.9053710617737
 10
77.82263995450268
 20
-127.8099419168322
 10
77.94597437287462
 20
-127.7489637267433
 10
78.15336912108666
 20
-127.5572441629892
 10
78.04140351781604
 20
-127.2583821296437
 10
78.04140351781604
 20
-127.2583821296437
 10
78.24810924693104
 20
-127.1564073032803
 10
78.24810924693104
 20
-127.1564073032803
 10
78.29668509327306
 20
-127.2833590719118
 10
78.46549477205029
 20
-127.7358723638994
 10
77.92289223312345
 20
-128.0032117735548
 97
        0
 97
        0
 75
     2
 76
     1
 98
        0
  0
SPLINE
  5
47
330
41
100
AcDbEntity
  8
_U+30EC_U+30A4_U+30E4_U+30FC 1
370
     0
100
AcDbSpline
210
0.0
220
0.0
230
1.0
 70
    11
 71
     3
 72
    44
 73
    40
 74
     0
 42
0.0000000001
 43
0.0000000001
 12
1.0
 22
0.0
 32
0.0
 13
1.0
 23
0.0
 33
0.0
 40
0.0
 40
0.0
 40
0.0
 40
0.0
 40
1.0
 40
1.0
 40
1.0
 40
2.0
 40
2.0
 40
2.0
 40
3.0
 40
3.0
 40
3.0
 40
4.0
 40
4.0
 40
4.0
 40
5.0
 40
5.0
 40
5.0
 40
6.0
 40
6.0
 40
6.0
 40
7.0
 40
7.0
 40
7.0
 40
8.0
 40
8.0
 40
8.0
 40
9.0
 40
9.0
 40
9.0
 40
10.0
 40
10.0
 40
10.0
 40
11.0
 40
11.0
 40
11.0
 40
12.0
 40
12.0
 40
12.0
 40
13.0
 40
13.0
 40
13.0
 40
13.0
 10
79.5823947283683
 20
-127.1285020298498
 30
0.0
 10
79.54174260164234
 20
-127.0990464634509
 30
0.0
 10
79.49936792717378
 20
-127.0609781583389
 30
0.0
 10
79.39532604351923
 20
-126.854961448321
 30
0.0
 10
79.28404945934565
 20
-126.6386094518473
 30
0.0
 10
79.19998912950557
 20
-126.6020914397037
 30
0.0
 10
79.0404812085385
 20
-126.6808118715416
 30
0.0
 10
79.0404812085385
 20
-126.6808118715416
 30
0.0
 10
78.67426755845644
 20
-126.8613348749687
 30
0.0
 10
78.67426755845644
 20
-126.8613348749687
 30
0.0
 10
78.67426755845644
 20
-126.8613348749687
 30
0.0
 10
78.9577989168925
 20
-127.4363213114569
 30
0.0
 10
78.9577989168925
 20
-127.4363213114569
 30
0.0
 10
78.9577989168925
 20
-127.4363213114569
 30
0.0
 10
78.74730358274374
 20
-127.5401909403372
 30
0.0
 10
78.74730358274374
 20
-127.5401909403372
 30
0.0
 10
78.74730358274374
 20
-127.5401909403372
 30
0.0
 10
78.06414114801869
 20
-126.1550903004925
 30
0.0
 10
78.06414114801869
 20
-126.1550903004925
 30
0.0
 10
78.06414114801869
 20
-126.1550903004925
 30
0.0
 10
78.66944442477708
 20
-125.8565727766956
 30
0.0
 10
78.66944442477708
 20
-125.8565727766956
 30
0.0
 10
78.94470755404855
 20
-125.721008269351
 30
0.0
 10
79.17036130833242
 20
-125.8007622298345
 30
0.0
 10
79.28370494979713
 20
-126.0305500987007
 30
0.0
 10
79.30609807045126
 20
-126.076025359106
 30
0.0
 10
79.33469236297883
 20
-126.1538845170726
 30
0.0
 10
79.33055824839653
 20
-126.2455240569803
 30
0.0
 10
79.32332354787751
 20
-126.3647243607699
 30
0.0
 10
79.27302515379286
 20
-126.410716385498
 30
0.0
 10
79.2254828360964
 20
-126.4529188051923
 30
0.0
 10
79.3674207700887
 20
-126.4301811749897
 30
0.0
 10
79.44975855218617
 20
-126.4436170473822
 30
0.0
 10
79.59307452437257
 20
-126.72439232943
 30
0.0
 10
79.71640894274451
 20
-126.9655490133975
 30
0.0
 10
79.76257322224686
 20
-126.9779513571444
 30
0.0
 10
79.84766708073253
 20
-126.9975884014103
 30
0.0
 10
79.84766708073253
 20
-126.9975884014103
 30
0.0
 10
79.5823947283683
 20
-127.1285020298498
 30
0.0
 10
79.5823947283683
 20
-127.1285020298498
 30
0.0
  0
SPLINE
  5
48
330
41
100
AcDbEntity
  8
_U+30EC_U+30A4_U+30E4_U+30FC 1
370
     0
100
AcDbSpline
210
0.0
220
0.0
230
1.0
 70
    11
 71
     3
 72
    20
 73
    16
 74
     0
 42
0.0000000001
 43
0.0000000001
 12
1.0
 22
0.0
 32
0.0
 13
1.0
 23
0.0
 33
0.0
 40
0.0
 40
0.0
 40
0.0
 40
0.0
 40
1.0
 40
1.0
 40
1.0
 40
2.0
 40
2.0
 40
2.0
 40
3.0
 40
3.0
 40
3.0
 40
4.0
 40
4.0
 40
4.0
 40
5.0
 40
5.0
 40
5.0
 40
5.0
 10
78.76694062700966
 20
-126.0443304806417
 30
0.0
 10
78.76694062700966
 20
-126.0443304806417
 30
0.0
 10
78.36834307936626
 20
-126.2408731780752
 30
0.0
 10
78.36834307936626
 20
-126.2408731780752
 30
0.0
 10
78.36834307936626
 20
-126.2408731780752
 30
0.0
 10
78.58090547080617
 20
-126.6716823685057
 30
0.0
 10
78.58090547080617
 20
-126.6716823685057
 30
0.0
 10
78.58090547080617
 20
-126.6716823685057
 30
0.0
 10
78.97743596115842
 20
-126.4761731997178
 30
0.0
 10
78.97743596115842
 20
-126.4761731997178
 30
0.0
 10
79.0666639342264
 20
-126.4322482322808
 30
0.0
 10
79.15416935955174
 20
-126.3039184254553
 30
0.0
 10
79.07872176842477
 20
-126.1504394215874
 30
0.0
 10
79.04392630402374
 20
-126.0803317284626
 30
0.0
 10
78.9453965731456
 20
-125.9564805457678
 30
0.0
 10
78.76694062700966
 20
-126.0443304806417
 30
0.0
  0
HATCH
  5
49
330
41
100
AcDbEntity
  8
_U+30EC_U+30A4_U+30E4_U+30FC 1
 62
   179
420
  2234388
100
AcDbHatch
 10
0.0
 20
0.0
 30
0.0
210
0.0
220
0.0
230
1.0
  2
SOLID
 70
     1
 71
     0
 91
        2
 92
        1
 93
        1
 72
     4
 94
        3
 73
     0
 74
     1
 95
       44
 96
       40
 40
0.0
 40
0.0
 40
0.0
 40
0.0
 40
1.0
 40
1.0
 40
1.0
 40
2.0
 40
2.0
 40
2.0
 40
3.0
 40
3.0
 40
3.0
 40
4.0
 40
4.0
 40
4.0
 40
5.0
 40
5.0
 40
5.0
 40
6.0
 40
6.0
 40
6.0
 40
7.0
 40
7.0
 40
7.0
 40
8.0
 40
8.0
 40
8.0
 40
9.0
 40
9.0
 40
9.0
 40
10.0
 40
10.0
 40
10.0
 40
11.0
 40
11.0
 40
11.0
 40
12.0
 40
12.0
 40
12.0
 40
13.0
 40
13.0
 40
13.0
 40
13.0
 10
79.5823947283683
 20
-127.1285020298498
 10
79.54174260164234
 20
-127.0990464634509
 10
79.49936792717378
 20
-127.0609781583389
 10
79.39532604351923
 20
-126.854961448321
 10
79.28404945934565
 20
-126.6386094518473
 10
79.19998912950557
 20
-126.6020914397037
 10
79.0404812085385
 20
-126.6808118715416
 10
79.0404812085385
 20
-126.6808118715416
 10
78.67426755845644
 20
-126.8613348749687
 10
78.67426755845644
 20
-126.8613348749687
 10
78.67426755845644
 20
-126.8613348749687
 10
78.9577989168925
 20
-127.4363213114569
 10
78.9577989168925
 20
-127.4363213114569
 10
78.9577989168925
 20
-127.4363213114569
 10
78.74730358274374
 20
-127.5401909403372
 10
78.74730358274374
 20
-127.5401909403372
 10
78.74730358274374
 20
-127.5401909403372
 10
78.06414114801869
 20
-126.1550903004925
 10
78.06414114801869
 20
-126.1550903004925
 10
78.06414114801869
 20
-126.1550903004925
 10
78.66944442477708
 20
-125.8565727766956
 10
78.66944442477708
 20
-125.8565727766956
 10
78.94470755404855
 20
-125.721008269351
 10
79.17036130833242
 20
-125.8007622298345
 10
79.28370494979713
 20
-126.0305500987007
 10
79.30609807045126
 20
-126.076025359106
 10
79.33469236297883
 20
-126.1538845170726
 10
79.33055824839653
 20
-126.2455240569803
 10
79.32332354787751
 20
-126.3647243607699
 10
79.27302515379286
 20
-126.410716385498
 10
79.2254828360964
 20
-126.4529188051923
 10
79.3674207700887
 20
-126.4301811749897
 10
79.44975855218617
 20
-126.4436170473822
 10
79.59307452437257
 20
-126.72439232943
 10
79.71640894274451
 20
-126.9655490133975
 10
79.76257322224686
 20
-126.9779513571444
 10
79.84766708073253
 20
-126.9975884014103
 10
79.84766708073253
 20
-126.9975884014103
 10
79.5823947283683
 20
-127.1285020298498
 10
79.5823947283683
 20
-127.1285020298498
 97
        0
 97
        0
 92
        1
 93
        1
 72
     4
 94
        3
 73
     0
 74
     1
 95
       20
 96
       16
 40
0.0
 40
0.0
 40
0.0
 40
0.0
 40
1.0
 40
1.0
 40
1.0
 40
2.0
 40
2.0
 40
2.0
 40
3.0
 40
3.0
 40
3.0
 40
4.0
 40
4.0
 40
4.0
 40
5.0
 40
5.0
 40
5.0
 40
5.0
 10
78.76694062700966
 20
-126.0443304806417
 10
78.76694062700966
 20
-126.0443304806417
 10
78.36834307936626
 20
-126.2408731780752
 10
78.36834307936626
 20
-126.2408731780752
 10
78.36834307936626
 20
-126.2408731780752
 10
78.58090547080617
 20
-126.6716823685057
 10
78.58090547080617
 20
-126.6716823685057
 10
78.58090547080617
 20
-126.6716823685057
 10
78.97743596115842
 20
-126.4761731997178
 10
78.97743596115842
 20
-126.4761731997178
 10
79.0666639342264
 20
-126.4322482322808
 10
79.15416935955174
 20
-126.3039184254553
 10
79.07872176842477
 20
-126.1504394215874
 10
79.04392630402374
 20
-126.0803317284626
 10
78.9453965731456
 20
-125.9564805457678
 10
78.76694062700966
 20
-126.0443304806417
 97
        0
 97
        0
 75
     2
 76
     1
 98
        0
  0
SPLINE
  5
4A
330
41
100
AcDbEntity
  8
_U+30EC_U+30A4_U+30E4_U+30FC 1
370
     0
100
AcDbSpline
210
0.0
220
0.0
230
1.0
 70
    11
 71
     3
 72
    26
 73
    22
 74
     0
 42
0.0000000001
 43
0.0000000001
 12
1.0
 22
0.0
 32
0.0
 13
1.0
 23
0.0
 33
0.0
 40
0.0
 40
0.0
 40
0.0
 40
0.0
 40
1.0
 40
1.0
 40
1.0
 40
2.0
 40
2.0
 40
2.0
 40
3.0
 40
3.0
 40
3.0
 40
4.0
 40
4.0
 40
4.0
 40
5.0
 40
5.0
 40
5.0
 40
6.0
 40
6.0
 40
6.0
 40
7.0
 40
7.0
 40
7.0
 40
7.0
 10
80.39130314830496
 20
-126.0267604936669
 30
0.0
 10
80.39130314830496
 20
-126.0267604936669
 30
0.0
 10
79.985126390594
 20
-126.2269205413599
 30
0.0
 10
79.985126390594
 20
-126.2269205413599
 30
0.0
 10
79.985126390594
 20
-126.2269205413599
 30
0.0
 10
80.26417912489924
 20
-126.7922607104894
 30
0.0
 10
80.26417912489924
 20
-126.7922607104894
 30
0.0
 10
80.26417912489924
 20
-126.7922607104894
 30
0.0
 10
80.05368379075047
 20
-126.8959580845955
 30
0.0
 10
80.05368379075047
 20
-126.8959580845955
 30
0.0
 10
80.05368379075047
 20
-126.8959580845955
 30
0.0
 10
79.37052135602544
 20
-125.511029699525
 30
0.0
 10
79.37052135602544
 20
-125.511029699525
 30
0.0
 10
79.37052135602544
 20
-125.511029699525
 30
0.0
 10
79.98719344788515
 20
-125.2068277681775
 30
0.0
 10
79.98719344788515
 20
-125.2068277681775
 30
0.0
 10
80.24488659018184
 20
-125.0797037447717
 30
0.0
 10
80.50120169428442
 20
-125.1348252725357
 30
0.0
 10
80.6331488513695
 20
-125.4025091917397
 30
0.0
 10
80.74270288780043
 20
-125.6243733409897
 30
0.0
 10
80.68930390777906
 20
-125.8796549164468
 30
0.0
 10
80.39130314830496
 20
-126.0267604936669
 30
0.0
  0
SPLINE
  5
4B
330
41
100
AcDbEntity
  8
_U+30EC_U+30A4_U+30E4_U+30FC 1
370
     0
100
AcDbSpline
210
0.0
220
0.0
230
1.0
 70
    11
 71
     3
 72
    20
 73
    16
 74
     0
 42
0.0000000001
 43
0.0000000001
 12
1.0
 22
0.0
 32
0.0
 13
1.0
 23
0.0
 33
0.0
 40
0.0
 40
0.0
 40
0.0
 40
0.0
 40
1.0
 40
1.0
 40
1.0
 40
2.0
 40
2.0
 40
2.0
 40
3.0
 40
3.0
 40
3.0
 40
4.0
 40
4.0
 40
4.0
 40
5.0
 40
5.0
 40
5.0
 40
5.0
 10
80.07297632546788
 20
-125.4002698796742
 30
0.0
 10
80.07297632546788
 20
-125.4002698796742
 30
0.0
 10
79.67472328737298
 20
-125.5968125771077
 30
0.0
 10
79.67472328737298
 20
-125.5968125771077
 30
0.0
 10
79.67472328737298
 20
-125.5968125771077
 30
0.0
 10
79.89176430294373
 20
-126.0370957801227
 30
0.0
 10
79.89176430294373
 20
-126.0370957801227
 30
0.0
 10
79.89176430294373
 20
-126.0370957801227
 30
0.0
 10
80.29036185058713
 20
-125.8405530826892
 30
0.0
 10
80.29036185058713
 20
-125.8405530826892
 30
0.0
 10
80.43987899464697
 20
-125.7666557845306
 30
0.0
 10
80.47295191130537
 20
-125.6326415701543
 30
0.0
 10
80.4112847021194
 20
-125.5072400944913
 30
0.0
 10
80.36064179848623
 20
-125.4049207585793
 30
0.0
 10
80.24213051379364
 20
-125.3170708237055
 30
0.0
 10
80.07297632546788
 20
-125.4002698796742
 30
0.0
  0
HATCH
  5
4C
330
41
100
AcDbEntity
  8
_U+30EC_U+30A4_U+30E4_U+30FC 1
 62
   179
420
  2234388
100
AcDbHatch
 10
0.0
 20
0.0
 30
0.0
210
0.0
220
0.0
230
1.0
  2
SOLID
 70
     1
 71
     0
 91
        2
 92
        1
 93
        1
 72
     4
 94
        3
 73
     0
 74
     1
 95
       26
 96
       22
 40
0.0
 40
0.0
 40
0.0
 40
0.0
 40
1.0
 40
1.0
 40
1.0
 40
2.0
 40
2.0
 40
2.0
 40
3.0
 40
3.0
 40
3.0
 40
4.0
 40
4.0
 40
4.0
 40
5.0
 40
5.0
 40
5.0
 40
6.0
 40
6.0
 40
6.0
 40
7.0
 40
7.0
 40
7.0
 40
7.0
 10
80.39130314830496
 20
-126.0267604936669
 10
80.39130314830496
 20
-126.0267604936669
 10
79.985126390594
 20
-126.2269205413599
 10
79.985126390594
 20
-126.2269205413599
 10
79.985126390594
 20
-126.2269205413599
 10
80.26417912489924
 20
-126.7922607104894
 10
80.26417912489924
 20
-126.7922607104894
 10
80.26417912489924
 20
-126.7922607104894
 10
80.05368379075047
 20
-126.8959580845955
 10
80.05368379075047
 20
-126.8959580845955
 10
80.05368379075047
 20
-126.8959580845955
 10
79.37052135602544
 20
-125.511029699525
 10
79.37052135602544
 20
-125.511029699525
 10
79.37052135602544
 20
-125.511029699525
 10
79.98719344788515
 20
-125.2068277681775
 10
79.98719344788515
 20
-125.2068277681775
 10
80.24488659018184
 20
-125.0797037447717
 10
80.50120169428442
 20
-125.1348252725357
 10
80.6331488513695
 20
-125.4025091917397
 10
80.74270288780043
 20
-125.6243733409897
 10
80.68930390777906
 20
-125.8796549164468
 10
80.39130314830496
 20
-126.0267604936669
 97
        0
 97
        0
 92
        1
 93
        1
 72
     4
 94
        3
 73
     0
 74
     1
 95
       20
 96
       16
 40
0.0
 40
0.0
 40
0.0
 40
0.0
 40
1.0
 40
1.0
 40
1.0
 40
2.0
 40
2.0
 40
2.0
 40
3.0
 40
3.0
 40
3.0
 40
4.0
 40
4.0
 40
4.0
 40
5.0
 40
5.0
 40
5.0
 40
5.0
 10
80.07297632546788
 20
-125.4002698796742
 10
80.07297632546788
 20
-125.4002698796742
 10
79.67472328737298
 20
-125.5968125771077
 10
79.67472328737298
 20
-125.5968125771077
 10
79.67472328737298
 20
-125.5968125771077
 10
79.89176430294373
 20
-126.0370957801227
 10
79.89176430294373
 20
-126.0370957801227
 10
79.89176430294373
 20
-126.0370957801227
 10
80.29036185058713
 20
-125.8405530826892
 10
80.29036185058713
 20
-125.8405530826892
 10
80.43987899464697
 20
-125.7666557845306
 10
80.47295191130537
 20
-125.6326415701543
 10
80.4112847021194
 20
-125.5072400944913
 10
80.36064179848623
 20
-125.4049207585793
 10
80.24213051379364
 20
-125.3170708237055
 10
80.07297632546788
 20
-125.4002698796742
 97
        0
 97
        0
 75
     2
 76
     1
 98
        0
  0
POLYLINE
  5
4D
330
41
100
AcDbEntity
  8
_U+30EC_U+30A4_U+30E4_U+30FC 1
370
     0
100
AcDb2dPolyline
 66
     1
 10
0.0
 20
0.0
 30
0.0
  0
VERTEX
  5
4E
330
4D
100
AcDbEntity
  8
_U+30EC_U+30A4_U+30E4_U+30FC 1
370
     0
100
AcDbVertex
100
AcDb2dVertex
 10
81.03312443720701
 20
-125.9153116547191
 30
0.0
  0
VERTEX
  5
4F
330
4D
100
AcDbEntity
  8
_U+30EC_U+30A4_U+30E4_U+30FC 1
370
     0
100
AcDbVertex
100
AcDb2dVertex
 10
80.93769529226557
 20
-125.7218695432223
 30
0.0
  0
VERTEX
  5
50
330
4D
100
AcDbEntity
  8
_U+30EC_U+30A4_U+30E4_U+30FC 1
370
     0
100
AcDbVertex
100
AcDb2dVertex
 10
81.4634168633147
 20
-125.4627983627315
 30
0.0
  0
VERTEX
  5
51
330
4D
100
AcDbEntity
  8
_U+30EC_U+30A4_U+30E4_U+30FC 1
370
     0
100
AcDbVertex
100
AcDb2dVertex
 10
81.55884600825613
 20
-125.656068219454
 30
0.0
  0
VERTEX
  5
52
330
4D
100
AcDbEntity
  8
_U+30EC_U+30A4_U+30E4_U+30FC 1
370
     0
100
AcDbVertex
100
AcDb2dVertex
 10
81.03312443720701
 20
-125.9153116547191
 30
0.0
  0
SEQEND
  5
53
330
4D
100
AcDbEntity
  8
_U+30EC_U+30A4_U+30E4_U+30FC 1
370
     0
  0
HATCH
  5
54
330
41
100
AcDbEntity
  8
_U+30EC_U+30A4_U+30E4_U+30FC 1
 62
   179
420
  2234388
100
AcDbHatch
 10
0.0
 20
0.0
 30
0.0
210
0.0
220
0.0
230
1.0
  2
SOLID
 70
     1
 71
     0
 91
        1
 92
        1
 93
        4
 72
     1
 10
81.03312443720701
 20
-125.9153116547191
 11
80.93769529226557
 21
-125.7218695432223
 72
     1
 10
80.93769529226557
 20
-125.7218695432223
 11
81.4634168633147
 21
-125.4627983627315
 72
     1
 10
81.4634168633147
 20
-125.4627983627315
 11
81.55884600825613
 21
-125.656068219454
 72
     1
 10
81.55884600825613
 20
-125.656068219454
 11
81.03312443720701
 21
-125.9153116547191
 97
        0
 75
     2
 76
     1
 98
        0
  0
SPLINE
  5
55
330
41
100
AcDbEntity
  8
_U+30EC_U+30A4_U+30E4_U+30FC 1
370
     0
100
AcDbSpline
210
0.0
220
0.0
230
1.0
 70
    11
 71
     3
 72
    62
 73
    58
 74
     0
 42
0.0000000001
 43
0.0000000001
 12
1.0
 22
0.0
 32
0.0
 13
1.0
 23
0.0
 33
0.0
 40
0.0
 40
0.0
 40
0.0
 40
0.0
 40
1.0
 40
1.0
 40
1.0
 40
2.0
 40
2.0
 40
2.0
 40
3.0
 40
3.0
 40
3.0
 40
4.0
 40
4.0
 40
4.0
 40
5.0
 40
5.0
 40
5.0
 40
6.0
 40
6.0
 40
6.0
 40
7.0
 40
7.0
 40
7.0
 40
8.0
 40
8.0
 40
8.0
 40
9.0
 40
9.0
 40
9.0
 40
10.0
 40
10.0
 40
10.0
 40
11.0
 40
11.0
 40
11.0
 40
12.0
 40
12.0
 40
12.0
 40
13.0
 40
13.0
 40
13.0
 40
14.0
 40
14.0
 40
14.0
 40
15.0
 40
15.0
 40
15.0
 40
16.0
 40
16.0
 40
16.0
 40
17.0
 40
17.0
 40
17.0
 40
18.0
 40
18.0
 40
18.0
 40
19.0
 40
19.0
 40
19.0
 40
19.0
 10
82.33468151153438
 20
-125.8276339746195
 30
0.0
 10
82.2492431435002
 20
-125.8696641395395
 30
0.0
 10
82.04460447167635
 20
-125.9471787879577
 30
0.0
 10
81.85030108630826
 20
-125.8355576942356
 30
0.0
 10
81.73454587800387
 20
-125.7675170584019
 30
0.0
 10
81.68665905075889
 20
-125.6805283973993
 30
0.0
 10
81.64566241448442
 20
-125.6062865896922
 30
0.0
 10
81.64566241448442
 20
-125.6062865896922
 30
0.0
 10
81.84272187624072
 20
-125.5089626422339
 30
0.0
 10
81.84272187624072
 20
-125.5089626422339
 30
0.0
 10
81.87751734064173
 20
-125.5745917112279
 30
0.0
 10
81.99086098210645
 20
-125.780091656923
 30
0.0
 10
82.2451090289179
 20
-125.6548624360342
 30
0.0
 10
82.36844344728983
 20
-125.5940565007195
 30
0.0
 10
82.47420787868701
 20
-125.4641764009256
 30
0.0
 10
82.37326658096919
 20
-125.2595377291018
 30
0.0
 10
82.32159014869043
 20
-125.1551513358987
 30
0.0
 10
82.2657796018294
 20
-125.1282795911138
 30
0.0
 10
82.22340492736082
 20
-125.1138101900757
 30
0.0
 10
82.12418617738562
 20
-125.0800482543203
 30
0.0
 10
82.01428763140615
 20
-125.1203558714977
 30
0.0
 10
81.96502276596708
 20
-125.1446437946687
 30
0.0
 10
81.94814179808935
 20
-125.1530842786076
 30
0.0
 10
81.91644691962506
 20
-125.1706542655823
 30
0.0
 10
81.8937092894224
 20
-125.1865017048145
 30
0.0
 10
81.8937092894224
 20
-125.1865017048145
 30
0.0
 10
81.80758190229116
 20
-125.0118353637123
 30
0.0
 10
81.80758190229116
 20
-125.0118353637123
 30
0.0
 10
81.84444442398333
 20
-125.0011555677081
 30
0.0
 10
81.88337400296666
 20
-124.9841023450561
 30
0.0
 10
81.88923066529159
 20
-124.9811740138936
 30
0.0
 10
81.94814179808935
 20
-124.9522352118175
 30
0.0
 10
82.1169514768666
 20
-124.8452649970005
 30
0.0
 10
82.012220574115
 20
-124.6330471151091
 30
0.0
 10
81.93367239705131
 20
-124.473539194142
 30
0.0
 10
81.79173446305902
 20
-124.4821519328552
 30
0.0
 10
81.69286022263235
 20
-124.5307277791972
 30
0.0
 10
81.45583765324716
 20
-124.6476887709214
 30
0.0
 10
81.55126679818858
 20
-124.8604234171356
 30
0.0
 10
81.5791720716191
 20
-124.9263969956781
 30
0.0
 10
81.5791720716191
 20
-124.9263969956781
 30
0.0
 10
81.39692652044938
 20
-125.0163139878431
 30
0.0
 10
81.39692652044938
 20
-125.0163139878431
 30
0.0
 10
81.34938420275293
 20
-124.9009032890873
 30
0.0
 10
81.20744626876065
 20
-124.5508815877859
 30
0.0
 10
81.61741263150537
 20
-124.348826737576
 30
0.0
 10
81.81860620784396
 20
-124.2496079876008
 30
0.0
 10
82.0907687511787
 20
-124.2570149428941
 30
0.0
 10
82.2216823796182
 20
-124.5222872952583
 30
0.0
 10
82.3043646712642
 20
-124.6893744262929
 30
0.0
 10
82.25544431537364
 20
-124.8054741441459
 30
0.0
 10
82.19343259663914
 20
-124.9043483845725
 30
0.0
 10
82.26061195860152
 20
-124.9019368177329
 30
0.0
 10
82.45939396810043
 20
-124.8936685885683
 30
0.0
 10
82.58203936737533
 20
-125.1420599730548
 30
0.0
 10
82.73155651143517
 20
-125.4455728853053
 30
0.0
 10
82.58341740556942
 20
-125.7049885753446
 30
0.0
 10
82.33468151153438
 20
-125.8276339746195
 30
0.0
  0
HATCH
  5
56
330
41
100
AcDbEntity
  8
_U+30EC_U+30A4_U+30E4_U+30FC 1
 62
   179
420
  2234388
100
AcDbHatch
 10
0.0
 20
0.0
 30
0.0
210
0.0
220
0.0
230
1.0
  2
SOLID
 70
     1
 71
     0
 91
        1
 92
        1
 93
        1
 72
     4
 94
        3
 73
     0
 74
     1
 95
       62
 96
       58
 40
0.0
 40
0.0
 40
0.0
 40
0.0
 40
1.0
 40
1.0
 40
1.0
 40
2.0
 40
2.0
 40
2.0
 40
3.0
 40
3.0
 40
3.0
 40
4.0
 40
4.0
 40
4.0
 40
5.0
 40
5.0
 40
5.0
 40
6.0
 40
6.0
 40
6.0
 40
7.0
 40
7.0
 40
7.0
 40
8.0
 40
8.0
 40
8.0
 40
9.0
 40
9.0
 40
9.0
 40
10.0
 40
10.0
 40
10.0
 40
11.0
 40
11.0
 40
11.0
 40
12.0
 40
12.0
 40
12.0
 40
13.0
 40
13.0
 40
13.0
 40
14.0
 40
14.0
 40
14.0
 40
15.0
 40
15.0
 40
15.0
 40
16.0
 40
16.0
 40
16.0
 40
17.0
 40
17.0
 40
17.0
 40
18.0
 40
18.0
 40
18.0
 40
19.0
 40
19.0
 40
19.0
 40
19.0
 10
82.33468151153438
 20
-125.8276339746195
 10
82.2492431435002
 20
-125.8696641395395
 10
82.04460447167635
 20
-125.9471787879577
 10
81.85030108630826
 20
-125.8355576942356
 10
81.73454587800387
 20
-125.7675170584019
 10
81.68665905075889
 20
-125.6805283973993
 10
81.64566241448442
 20
-125.6062865896922
 10
81.64566241448442
 20
-125.6062865896922
 10
81.84272187624072
 20
-125.5089626422339
 10
81.84272187624072
 20
-125.5089626422339
 10
81.87751734064173
 20
-125.5745917112279
 10
81.99086098210645
 20
-125.780091656923
 10
82.2451090289179
 20
-125.6548624360342
 10
82.36844344728983
 20
-125.5940565007195
 10
82.47420787868701
 20
-125.4641764009256
 10
82.37326658096919
 20
-125.2595377291018
 10
82.32159014869043
 20
-125.1551513358987
 10
82.2657796018294
 20
-125.1282795911138
 10
82.22340492736082
 20
-125.1138101900757
 10
82.12418617738562
 20
-125.0800482543203
 10
82.01428763140615
 20
-125.1203558714977
 10
81.96502276596708
 20
-125.1446437946687
 10
81.94814179808935
 20
-125.1530842786076
 10
81.91644691962506
 20
-125.1706542655823
 10
81.8937092894224
 20
-125.1865017048145
 10
81.8937092894224
 20
-125.1865017048145
 10
81.80758190229116
 20
-125.0118353637123
 10
81.80758190229116
 20
-125.0118353637123
 10
81.84444442398333
 20
-125.0011555677081
 10
81.88337400296666
 20
-124.9841023450561
 10
81.88923066529159
 20
-124.9811740138936
 10
81.94814179808935
 20
-124.9522352118175
 10
82.1169514768666
 20
-124.8452649970005
 10
82.012220574115
 20
-124.6330471151091
 10
81.93367239705131
 20
-124.473539194142
 10
81.79173446305902
 20
-124.4821519328552
 10
81.69286022263235
 20
-124.5307277791972
 10
81.45583765324716
 20
-124.6476887709214
 10
81.55126679818858
 20
-124.8604234171356
 10
81.5791720716191
 20
-124.9263969956781
 10
81.5791720716191
 20
-124.9263969956781
 10
81.39692652044938
 20
-125.0163139878431
 10
81.39692652044938
 20
-125.0163139878431
 10
81.34938420275293
 20
-124.9009032890873
 10
81.20744626876065
 20
-124.5508815877859
 10
81.61741263150537
 20
-124.348826737576
 10
81.81860620784396
 20
-124.2496079876008
 10
82.0907687511787
 20
-124.2570149428941
 10
82.2216823796182
 20
-124.5222872952583
 10
82.3043646712642
 20
-124.6893744262929
 10
82.25544431537364
 20
-124.8054741441459
 10
82.19343259663914
 20
-124.9043483845725
 10
82.26061195860152
 20
-124.9019368177329
 10
82.45939396810043
 20
-124.8936685885683
 10
82.58203936737533
 20
-125.1420599730548
 10
82.73155651143517
 20
-125.4455728853053
 10
82.58341740556942
 20
-125.7049885753446
 10
82.33468151153438
 20
-125.8276339746195
 97
        0
 97
        0
 75
     2
 76
     1
 98
        0
  0
SPLINE
  5
57
330
41
100
AcDbEntity
  8
_U+30EC_U+30A4_U+30E4_U+30FC 1
370
     0
100
AcDbSpline
210
0.0
220
0.0
230
1.0
 70
    11
 71
     3
 72
    29
 73
    25
 74
     0
 42
0.0000000001
 43
0.0000000001
 12
1.0
 22
0.0
 32
0.0
 13
1.0
 23
0.0
 33
0.0
 40
0.0
 40
0.0
 40
0.0
 40
0.0
 40
1.0
 40
1.0
 40
1.0
 40
2.0
 40
2.0
 40
2.0
 40
3.0
 40
3.0
 40
3.0
 40
4.0
 40
4.0
 40
4.0
 40
5.0
 40
5.0
 40
5.0
 40
6.0
 40
6.0
 40
6.0
 40
7.0
 40
7.0
 40
7.0
 40
8.0
 40
8.0
 40
8.0
 40
8.0
 10
83.65346406328803
 20
-124.9226073906444
 30
0.0
 10
83.64932994870573
 20
-125.1580796670612
 30
0.0
 10
83.50256888103408
 20
-125.2519585190342
 30
0.0
 10
83.39783797828248
 20
-125.3032904417645
 30
0.0
 10
83.25383298699904
 20
-125.3744316635349
 30
0.0
 10
83.10603839068183
 20
-125.3954467459949
 30
0.0
 10
82.94032929784132
 20
-125.2743516396884
 30
0.0
 10
82.76118433260832
 20
-125.14550506854
 30
0.0
 10
82.63922795243047
 20
-124.9418999253618
 30
0.0
 10
82.56722545678875
 20
-124.7954833672386
 30
0.0
 10
82.50349119031164
 20
-124.6666367960903
 30
0.0
 10
82.40737302627316
 20
-124.4330593221903
 30
0.0
 10
82.41426321724366
 20
-124.2080945870035
 30
0.0
 10
82.42149791776268
 20
-123.9783067181374
 30
0.0
 10
82.55516762259037
 20
-123.8863226686812
 30
0.0
 10
82.67092283089477
 20
-123.8291340836261
 30
0.0
 10
82.81320527443559
 20
-123.7590263905012
 30
0.0
 10
82.96168888984985
 20
-123.7350829768787
 30
0.0
 10
83.1277424922389
 20
-123.8561780831853
 30
0.0
 10
83.30206432379255
 20
-123.9850246543336
 30
0.0
 10
83.42402070397038
 20
-124.179500294476
 30
0.0
 10
83.50084633329146
 20
-124.3352186104093
 30
0.0
 10
83.57629392441844
 20
-124.4888698690514
 30
0.0
 10
83.65966523516147
 20
-124.7048773559766
 30
0.0
 10
83.65346406328803
 20
-124.9226073906444
 30
0.0
  0
SPLINE
  5
58
330
41
100
AcDbEntity
  8
_U+30EC_U+30A4_U+30E4_U+30FC 1
370
     0
100
AcDbSpline
210
0.0
220
0.0
230
1.0
 70
    11
 71
     3
 72
    17
 73
    13
 74
     0
 42
0.0000000001
 43
0.0000000001
 12
1.0
 22
0.0
 32
0.0
 13
1.0
 23
0.0
 33
0.0
 40
0.0
 40
0.0
 40
0.0
 40
0.0
 40
1.0
 40
1.0
 40
1.0
 40
2.0
 40
2.0
 40
2.0
 40
3.0
 40
3.0
 40
3.0
 40
4.0
 40
4.0
 40
4.0
 40
4.0
 10
82.75601668938044
 20
-124.0020778769856
 30
0.0
 10
82.53242999238773
 20
-124.1123209325136
 30
0.0
 10
82.61580130313078
 20
-124.3872395522365
 30
0.0
 10
82.76841903312734
 20
-124.6962646172634
 30
0.0
 10
82.90966794802259
 20
-124.9828965616362
 30
0.0
 10
83.07847762679982
 20
-125.2436902898696
 30
0.0
 10
83.31171059115124
 20
-125.1286241006623
 30
0.0
 10
83.53357474040133
 20
-125.0192423190056
 30
0.0
 10
83.45295950604648
 20
-124.7455294827025
 30
0.0
 10
83.29965275695287
 20
-124.4344373603845
 30
0.0
 10
83.15840384205762
 20
-124.1478054160117
 30
0.0
 10
82.98752710598923
 20
-123.8878729616496
 30
0.0
 10
82.75601668938044
 20
-124.0020778769856
 30
0.0
  0
HATCH
  5
59
330
41
100
AcDbEntity
  8
_U+30EC_U+30A4_U+30E4_U+30FC 1
 62
   179
420
  2234388
100
AcDbHatch
 10
0.0
 20
0.0
 30
0.0
210
0.0
220
0.0
230
1.0
  2
SOLID
 70
     1
 71
     0
 91
        2
 92
        1
 93
        1
 72
     4
 94
        3
 73
     0
 74
     1
 95
       29
 96
       25
 40
0.0
 40
0.0
 40
0.0
 40
0.0
 40
1.0
 40
1.0
 40
1.0
 40
2.0
 40
2.0
 40
2.0
 40
3.0
 40
3.0
 40
3.0
 40
4.0
 40
4.0
 40
4.0
 40
5.0
 40
5.0
 40
5.0
 40
6.0
 40
6.0
 40
6.0
 40
7.0
 40
7.0
 40
7.0
 40
8.0
 40
8.0
 40
8.0
 40
8.0
 10
83.65346406328803
 20
-124.9226073906444
 10
83.64932994870573
 20
-125.1580796670612
 10
83.50256888103408
 20
-125.2519585190342
 10
83.39783797828248
 20
-125.3032904417645
 10
83.25383298699904
 20
-125.3744316635349
 10
83.10603839068183
 20
-125.3954467459949
 10
82.94032929784132
 20
-125.2743516396884
 10
82.76118433260832
 20
-125.14550506854
 10
82.63922795243047
 20
-124.9418999253618
 10
82.56722545678875
 20
-124.7954833672386
 10
82.50349119031164
 20
-124.6666367960903
 10
82.40737302627316
 20
-124.4330593221903
 10
82.41426321724366
 20
-124.2080945870035
 10
82.42149791776268
 20
-123.9783067181374
 10
82.55516762259037
 20
-123.8863226686812
 10
82.67092283089477
 20
-123.8291340836261
 10
82.81320527443559
 20
-123.7590263905012
 10
82.96168888984985
 20
-123.7350829768787
 10
83.1277424922389
 20
-123.8561780831853
 10
83.30206432379255
 20
-123.9850246543336
 10
83.42402070397038
 20
-124.179500294476
 10
83.50084633329146
 20
-124.3352186104093
 10
83.57629392441844
 20
-124.4888698690514
 10
83.65966523516147
 20
-124.7048773559766
 10
83.65346406328803
 20
-124.9226073906444
 97
        0
 97
        0
 92
        1
 93
        1
 72
     4
 94
        3
 73
     0
 74
     1
 95
       17
 96
       13
 40
0.0
 40
0.0
 40
0.0
 40
0.0
 40
1.0
 40
1.0
 40
1.0
 40
2.0
 40
2.0
 40
2.0
 40
3.0
 40
3.0
 40
3.0
 40
4.0
 40
4.0
 40
4.0
 40
4.0
 10
82.75601668938044
 20
-124.0020778769856
 10
82.53242999238773
 20
-124.1123209325136
 10
82.61580130313078
 20
-124.3872395522365
 10
82.76841903312734
 20
-124.6962646172634
 10
82.90966794802259
 20
-124.9828965616362
 10
83.07847762679982
 20
-125.2436902898696
 10
83.31171059115124
 20
-125.1286241006623
 10
83.53357474040133
 20
-125.0192423190056
 10
83.45295950604648
 20
-124.7455294827025
 10
83.29965275695287
 20
-124.4344373603845
 10
83.15840384205762
 20
-124.1478054160117
 10
82.98752710598923
 20
-123.8878729616496
 10
82.75601668938044
 20
-124.0020778769856
 97
        0
 97
        0
 75
     2
 76
     1
 98
        0
  0
POLYLINE
  5
5A
330
41
100
AcDbEntity
  8
_U+30EC_U+30A4_U+30E4_U+30FC 1
370
     0
100
AcDb2dPolyline
 66
     1
 10
0.0
 20
0.0
 30
0.0
  0
VERTEX
  5
5B
330
5A
100
AcDbEntity
  8
_U+30EC_U+30A4_U+30E4_U+30FC 1
370
     0
100
AcDbVertex
100
AcDb2dVertex
 10
84.9601887808433
 20
-124.4764675253045
 30
0.0
  0
VERTEX
  5
5C
330
5A
100
AcDbEntity
  8
_U+30EC_U+30A4_U+30E4_U+30FC 1
370
     0
100
AcDbVertex
100
AcDb2dVertex
 10
84.6487521489767
 20
-123.8446370133097
 30
0.0
  0
VERTEX
  5
5D
330
5A
100
AcDbEntity
  8
_U+30EC_U+30A4_U+30E4_U+30FC 1
370
     0
100
AcDbVertex
100
AcDb2dVertex
 10
83.97730303890151
 20
-124.1757106894422
 30
0.0
  0
VERTEX
  5
5E
330
5A
100
AcDbEntity
  8
_U+30EC_U+30A4_U+30E4_U+30FC 1
370
     0
100
AcDbVertex
100
AcDb2dVertex
 10
84.2887396707681
 20
-124.807541201437
 30
0.0
  0
VERTEX
  5
5F
330
5A
100
AcDbEntity
  8
_U+30EC_U+30A4_U+30E4_U+30FC 1
370
     0
100
AcDbVertex
100
AcDb2dVertex
 10
84.07789982707081
 20
-124.9114108303173
 30
0.0
  0
VERTEX
  5
60
330
5A
100
AcDbEntity
  8
_U+30EC_U+30A4_U+30E4_U+30FC 1
370
     0
100
AcDbVertex
100
AcDb2dVertex
 10
83.39508190189429
 20
-123.5263101904726
 30
0.0
  0
VERTEX
  5
61
330
5A
100
AcDbEntity
  8
_U+30EC_U+30A4_U+30E4_U+30FC 1
370
     0
100
AcDbVertex
100
AcDb2dVertex
 10
83.60592174559157
 20
-123.4222683068181
 30
0.0
  0
VERTEX
  5
62
330
5A
100
AcDbEntity
  8
_U+30EC_U+30A4_U+30E4_U+30FC 1
370
     0
100
AcDbVertex
100
AcDb2dVertex
 10
83.88359644170272
 20
-123.9858859282049
 30
0.0
  0
VERTEX
  5
63
330
5A
100
AcDbEntity
  8
_U+30EC_U+30A4_U+30E4_U+30FC 1
370
     0
100
AcDbVertex
100
AcDb2dVertex
 10
84.55504555177791
 20
-123.6548122520724
 30
0.0
  0
VERTEX
  5
64
330
5A
100
AcDbEntity
  8
_U+30EC_U+30A4_U+30E4_U+30FC 1
370
     0
100
AcDbVertex
100
AcDb2dVertex
 10
84.27702634611825
 20
-123.0911946306855
 30
0.0
  0
VERTEX
  5
65
330
5A
100
AcDbEntity
  8
_U+30EC_U+30A4_U+30E4_U+30FC 1
370
     0
100
AcDbVertex
100
AcDb2dVertex
 10
84.48786618981553
 20
-122.9873250018053
 30
0.0
  0
VERTEX
  5
66
330
5A
100
AcDbEntity
  8
_U+30EC_U+30A4_U+30E4_U+30FC 1
370
     0
100
AcDbVertex
100
AcDb2dVertex
 10
85.17102862454058
 20
-124.37242564165
 30
0.0
  0
VERTEX
  5
67
330
5A
100
AcDbEntity
  8
_U+30EC_U+30A4_U+30E4_U+30FC 1
370
     0
100
AcDbVertex
100
AcDb2dVertex
 10
84.9601887808433
 20
-124.4764675253045
 30
0.0
  0
SEQEND
  5
68
330
5A
100
AcDbEntity
  8
_U+30EC_U+30A4_U+30E4_U+30FC 1
370
     0
  0
HATCH
  5
69
330
41
100
AcDbEntity
  8
_U+30EC_U+30A4_U+30E4_U+30FC 1
 62
   179
420
  2234388
100
AcDbHatch
 10
0.0
 20
0.0
 30
0.0
210
0.0
220
0.0
230
1.0
  2
SOLID
 70
     1
 71
     0
 91
        1
 92
        1
 93
       12
 72
     1
 10
84.9601887808433
 20
-124.4764675253045
 11
84.6487521489767
 21
-123.8446370133097
 72
     1
 10
84.6487521489767
 20
-123.8446370133097
 11
83.97730303890151
 21
-124.1757106894422
 72
     1
 10
83.97730303890151
 20
-124.1757106894422
 11
84.2887396707681
 21
-124.807541201437
 72
     1
 10
84.2887396707681
 20
-124.807541201437
 11
84.07789982707081
 21
-124.9114108303173
 72
     1
 10
84.07789982707081
 20
-124.9114108303173
 11
83.39508190189429
 21
-123.5263101904726
 72
     1
 10
83.39508190189429
 20
-123.5263101904726
 11
83.60592174559157
 21
-123.4222683068181
 72
     1
 10
83.60592174559157
 20
-123.4222683068181
 11
83.88359644170272
 21
-123.9858859282049
 72
     1
 10
83.88359644170272
 20
-123.9858859282049
 11
84.55504555177791
 21
-123.6548122520724
 72
     1
 10
84.55504555177791
 20
-123.6548122520724
 11
84.27702634611825
 21
-123.0911946306855
 72
     1
 10
84.27702634611825
 20
-123.0911946306855
 11
84.48786618981553
 21
-122.9873250018053
 72
     1
 10
84.48786618981553
 20
-122.9873250018053
 11
85.17102862454058
 21
-124.37242564165
 72
     1
 10
85.17102862454058
 20
-124.37242564165
 11
84.9601887808433
 21
-124.4764675253045
 97
        0
 75
     2
 76
     1
 98
        0
  0
SPLINE
  5
6A
330
41
100
AcDbEntity
  8
_U+30EC_U+30A4_U+30E4_U+30FC 1
370
     0
100
AcDbSpline
210
0.0
220
0.0
230
1.0
 70
    11
 71
     3
 72
    26
 73
    22
 74
     0
 42
0.0000000001
 43
0.0000000001
 12
1.0
 22
0.0
 32
0.0
 13
1.0
 23
0.0
 33
0.0
 40
0.0
 40
0.0
 40
0.0
 40
0.0
 40
1.0
 40
1.0
 40
1.0
 40
2.0
 40
2.0
 40
2.0
 40
3.0
 40
3.0
 40
3.0
 40
4.0
 40
4.0
 40
4.0
 40
5.0
 40
5.0
 40
5.0
 40
6.0
 40
6.0
 40
6.0
 40
7.0
 40
7.0
 40
7.0
 40
7.0
 10
86.12979869808561
 20
-123.8995862862994
 30
0.0
 10
86.12979869808561
 20
-123.8995862862994
 30
0.0
 10
85.51898326855081
 20
-124.2008598864845
 30
0.0
 10
85.51898326855081
 20
-124.2008598864845
 30
0.0
 10
85.51898326855081
 20
-124.2008598864845
 30
0.0
 10
84.83582083382576
 20
-122.8157592466398
 30
0.0
 10
84.83582083382576
 20
-122.8157592466398
 30
0.0
 10
84.83582083382576
 20
-122.8157592466398
 30
0.0
 10
85.43526744825924
 20
-122.5201700540054
 30
0.0
 10
85.43526744825924
 20
-122.5201700540054
 30
0.0
 10
85.62681475723913
 20
-122.4256021829353
 30
0.0
 10
85.86728242210957
 20
-122.4299085522918
 30
0.0
 10
85.98648272589922
 20
-122.6708929814851
 30
0.0
 10
86.0912136286508
 20
-122.8831108633764
 30
0.0
 10
85.97683645854052
 20
-123.0198811541409
 30
0.0
 10
85.92894963129554
 20
-123.076380720099
 30
0.0
 10
85.99888506964612
 20
-123.0605332808668
 30
0.0
 10
86.23005097670638
 20
-123.0128187083961
 30
0.0
 10
86.36475421017965
 20
-123.2860147803764
 30
0.0
 10
86.46672903654304
 20
-123.4928927642657
 30
0.0
 10
86.42022024749217
 20
-123.7564425688873
 30
0.0
 10
86.12979869808561
 20
-123.8995862862994
 30
0.0
  0
SPLINE
  5
6B
330
41
100
AcDbEntity
  8
_U+30EC_U+30A4_U+30E4_U+30FC 1
370
     0
100
AcDbSpline
210
0.0
220
0.0
230
1.0
 70
    11
 71
     3
 72
    20
 73
    16
 74
     0
 42
0.0000000001
 43
0.0000000001
 12
1.0
 22
0.0
 32
0.0
 13
1.0
 23
0.0
 33
0.0
 40
0.0
 40
0.0
 40
0.0
 40
0.0
 40
1.0
 40
1.0
 40
1.0
 40
2.0
 40
2.0
 40
2.0
 40
3.0
 40
3.0
 40
3.0
 40
4.0
 40
4.0
 40
4.0
 40
5.0
 40
5.0
 40
5.0
 40
5.0
 10
85.4662733076265
 20
-122.7404839102871
 30
0.0
 10
85.4662733076265
 20
-122.7404839102871
 30
0.0
 10
85.14002276517333
 20
-122.9013698694483
 30
0.0
 10
85.14002276517333
 20
-122.9013698694483
 30
0.0
 10
85.14002276517333
 20
-122.9013698694483
 30
0.0
 10
85.3243353736342
 20
-123.2755072391464
 30
0.0
 10
85.3243353736342
 20
-123.2755072391464
 30
0.0
 10
85.3243353736342
 20
-123.2755072391464
 30
0.0
 10
85.65058591608735
 20
-123.1146212799852
 30
0.0
 10
85.65058591608735
 20
-123.1146212799852
 30
0.0
 10
85.77598739175045
 20
-123.0529540707993
 30
0.0
 10
85.85212400197447
 20
-122.9539075755983
 30
0.0
 10
85.78391111136652
 20
-122.8154147370913
 30
0.0
 10
85.70984155843365
 20
-122.6655530834829
 30
0.0
 10
85.57065970082957
 20
-122.6891519875569
 30
0.0
 10
85.4662733076265
 20
-122.7404839102871
 30
0.0
  0
SPLINE
  5
6C
330
41
100
AcDbEntity
  8
_U+30EC_U+30A4_U+30E4_U+30FC 1
370
     0
100
AcDbSpline
210
0.0
220
0.0
230
1.0
 70
    11
 71
     3
 72
    20
 73
    16
 74
     0
 42
0.0000000001
 43
0.0000000001
 12
1.0
 22
0.0
 32
0.0
 13
1.0
 23
0.0
 33
0.0
 40
0.0
 40
0.0
 40
0.0
 40
0.0
 40
1.0
 40
1.0
 40
1.0
 40
2.0
 40
2.0
 40
2.0
 40
3.0
 40
3.0
 40
3.0
 40
4.0
 40
4.0
 40
4.0
 40
5.0
 40
5.0
 40
5.0
 40
5.0
 10
85.79149032143408
 20
-123.2810193919228
 30
0.0
 10
85.79149032143408
 20
-123.2810193919228
 30
0.0
 10
85.41804197083299
 20
-123.4649874908351
 30
0.0
 10
85.41804197083299
 20
-123.4649874908351
 30
0.0
 10
85.41804197083299
 20
-123.4649874908351
 30
0.0
 10
85.63611651504931
 20
-123.9073377511412
 30
0.0
 10
85.63611651504931
 20
-123.9073377511412
 30
0.0
 10
85.63611651504931
 20
-123.9073377511412
 30
0.0
 10
86.00956486565039
 20
-123.7230251426804
 30
0.0
 10
86.00956486565039
 20
-123.7230251426804
 30
0.0
 10
86.15219181873974
 20
-123.6527451947813
 30
0.0
 10
86.21041393244046
 20
-123.5225205854388
 30
0.0
 10
86.14013398454136
 20
-123.380238141898
 30
0.0
 10
86.07950030400096
 20
-123.2569037235261
 30
0.0
 10
85.94720863736737
 20
-123.2041937626017
 30
0.0
 10
85.79149032143408
 20
-123.2810193919228
 30
0.0
  0
HATCH
  5
6D
330
41
100
AcDbEntity
  8
_U+30EC_U+30A4_U+30E4_U+30FC 1
 62
   179
420
  2234388
100
AcDbHatch
 10
0.0
 20
0.0
 30
0.0
210
0.0
220
0.0
230
1.0
  2
SOLID
 70
     1
 71
     0
 91
        3
 92
        1
 93
        1
 72
     4
 94
        3
 73
     0
 74
     1
 95
       26
 96
       22
 40
0.0
 40
0.0
 40
0.0
 40
0.0
 40
1.0
 40
1.0
 40
1.0
 40
2.0
 40
2.0
 40
2.0
 40
3.0
 40
3.0
 40
3.0
 40
4.0
 40
4.0
 40
4.0
 40
5.0
 40
5.0
 40
5.0
 40
6.0
 40
6.0
 40
6.0
 40
7.0
 40
7.0
 40
7.0
 40
7.0
 10
86.12979869808561
 20
-123.8995862862994
 10
86.12979869808561
 20
-123.8995862862994
 10
85.51898326855081
 20
-124.2008598864845
 10
85.51898326855081
 20
-124.2008598864845
 10
85.51898326855081
 20
-124.2008598864845
 10
84.83582083382576
 20
-122.8157592466398
 10
84.83582083382576
 20
-122.8157592466398
 10
84.83582083382576
 20
-122.8157592466398
 10
85.43526744825924
 20
-122.5201700540054
 10
85.43526744825924
 20
-122.5201700540054
 10
85.62681475723913
 20
-122.4256021829353
 10
85.86728242210957
 20
-122.4299085522918
 10
85.98648272589922
 20
-122.6708929814851
 10
86.0912136286508
 20
-122.8831108633764
 10
85.97683645854052
 20
-123.0198811541409
 10
85.92894963129554
 20
-123.076380720099
 10
85.99888506964612
 20
-123.0605332808668
 10
86.23005097670638
 20
-123.0128187083961
 10
86.36475421017965
 20
-123.2860147803764
 10
86.46672903654304
 20
-123.4928927642657
 10
86.42022024749217
 20
-123.7564425688873
 10
86.12979869808561
 20
-123.8995862862994
 97
        0
 97
        0
 92
        1
 93
        1
 72
     4
 94
        3
 73
     0
 74
     1
 95
       20
 96
       16
 40
0.0
 40
0.0
 40
0.0
 40
0.0
 40
1.0
 40
1.0
 40
1.0
 40
2.0
 40
2.0
 40
2.0
 40
3.0
 40
3.0
 40
3.0
 40
4.0
 40
4.0
 40
4.0
 40
5.0
 40
5.0
 40
5.0
 40
5.0
 10
85.4662733076265
 20
-122.7404839102871
 10
85.4662733076265
 20
-122.7404839102871
 10
85.14002276517333
 20
-122.9013698694483
 10
85.14002276517333
 20
-122.9013698694483
 10
85.14002276517333
 20
-122.9013698694483
 10
85.3243353736342
 20
-123.2755072391464
 10
85.3243353736342
 20
-123.2755072391464
 10
85.3243353736342
 20
-123.2755072391464
 10
85.65058591608735
 20
-123.1146212799852
 10
85.65058591608735
 20
-123.1146212799852
 10
85.77598739175045
 20
-123.0529540707993
 10
85.85212400197447
 20
-122.9539075755983
 10
85.78391111136652
 20
-122.8154147370913
 10
85.70984155843365
 20
-122.6655530834829
 10
85.57065970082957
 20
-122.6891519875569
 10
85.4662733076265
 20
-122.7404839102871
 97
        0
 97
        0
 92
        1
 93
        1
 72
     4
 94
        3
 73
     0
 74
     1
 95
       20
 96
       16
 40
0.0
 40
0.0
 40
0.0
 40
0.0
 40
1.0
 40
1.0
 40
1.0
 40
2.0
 40
2.0
 40
2.0
 40
3.0
 40
3.0
 40
3.0
 40
4.0
 40
4.0
 40
4.0
 40
5.0
 40
5.0
 40
5.0
 40
5.0
 10
85.79149032143408
 20
-123.2810193919228
 10
85.79149032143408
 20
-123.2810193919228
 10
85.41804197083299
 20
-123.4649874908351
 10
85.41804197083299
 20
-123.4649874908351
 10
85.41804197083299
 20
-123.4649874908351
 10
85.63611651504931
 20
-123.9073377511412
 10
85.63611651504931
 20
-123.9073377511412
 10
85.63611651504931
 20
-123.9073377511412
 10
86.00956486565039
 20
-123.7230251426804
 10
86.00956486565039
 20
-123.7230251426804
 10
86.15219181873974
 20
-123.6527451947813
 10
86.21041393244046
 20
-123.5225205854388
 10
86.14013398454136
 20
-123.380238141898
 10
86.07950030400096
 20
-123.2569037235261
 10
85.94720863736737
 20
-123.2041937626017
 10
85.79149032143408
 20
-123.2810193919228
 97
        0
 97
        0
 75
     2
 76
     1
 98
        0
  0
ENDBLK
  5
44
330
41
100
AcDbEntity
  8
0
100
AcDbBlockEnd
  0
BLOCK
  5
70
330
6E
100
AcDbEntity
  8
0
100
AcDbBlockBegin
  2
block 3
 70
     0
 10
0.0
 20
0.0
 30
0.0
  3
block 3
  1

  0
SPLINE
  5
72
330
6E
100
AcDbEntity
  8
_U+30EC_U+30A4_U+30E4_U+30FC 1
370
     0
100
AcDbSpline
210
0.0
220
0.0
230
1.0
 70
    11
 71
     3
 72
    38
 73
    34
 74
     0
 42
0.0000000001
 43
0.0000000001
 12
1.0
 22
0.0
 32
0.0
 13
1.0
 23
0.0
 33
0.0
 40
0.0
 40
0.0
 40
0.0
 40
0.0
 40
1.0
 40
1.0
 40
1.0
 40
2.0
 40
2.0
 40
2.0
 40
3.0
 40
3.0
 40
3.0
 40
4.0
 40
4.0
 40
4.0
 40
5.0
 40
5.0
 40
5.0
 40
6.0
 40
6.0
 40
6.0
 40
7.0
 40
7.0
 40
7.0
 40
8.0
 40
8.0
 40
8.0
 40
9.0
 40
9.0
 40
9.0
 40
10.0
 40
10.0
 40
10.0
 40
11.0
 40
11.0
 40
11.0
 40
11.0
 10
96.37172306618486
 20
-124.0682237103024
 30
0.0
 10
95.95417749337257
 20
-123.862551509833
 30
0.0
 10
95.86839461578985
 20
-123.4146890967505
 30
0.0
 10
96.07613387355042
 20
-122.9933539189044
 30
0.0
 10
96.30833330925626
 20
-122.5227538756193
 30
0.0
 10
96.74172632130069
 20
-122.4183674824162
 30
0.0
 10
97.10793997138275
 20
-122.5988904858433
 30
0.0
 10
97.41730954595818
 20
-122.7511637062914
 30
0.0
 10
97.58267412925017
 20
-123.042963293892
 30
0.0
 10
97.46106225862086
 20
-123.3368299387839
 30
0.0
 10
97.46106225862086
 20
-123.3368299387839
 30
0.0
 10
97.25435652950586
 20
-123.2348551124205
 30
0.0
 10
97.25435652950586
 20
-123.2348551124205
 30
0.0
 10
97.31188962410953
 20
-123.0319389883392
 30
0.0
 10
97.15134817449689
 20
-122.8607177427223
 30
0.0
 10
97.00699867366492
 20
-122.7894042661777
 30
0.0
 10
96.91398109556317
 20
-122.7435844962238
 30
0.0
 10
96.79546981087059
 20
-122.7208468660212
 30
0.0
 10
96.67833656437209
 20
-122.7480631203547
 30
0.0
 10
96.47817651667907
 20
-122.7904377948232
 30
0.0
 10
96.3558756269527
 20
-122.9709607982503
 30
0.0
 10
96.2855956790536
 20
-123.1132432417911
 30
0.0
 10
96.09129229368551
 20
-123.5077066748522
 30
0.0
 10
96.27078176846703
 20
-123.7757351036047
 30
0.0
 10
96.46405162518954
 20
-123.8711642485461
 30
0.0
 10
96.5873860435615
 20
-123.9317979290865
 30
0.0
 10
96.86574975876968
 20
-123.9796847563315
 30
0.0
 10
97.03455943754692
 20
-123.7089002511908
 30
0.0
 10
97.03455943754692
 20
-123.7089002511908
 30
0.0
 10
97.2412651666619
 20
-123.8108750775542
 30
0.0
 10
97.2412651666619
 20
-123.8108750775542
 30
0.0
 10
97.17029619966577
 20
-123.9266302858586
 30
0.0
 10
96.91398109556317
 20
-124.3359076295063
 30
0.0
 10
96.37172306618486
 20
-124.0682237103024
 30
0.0
  0
HATCH
  5
73
330
6E
100
AcDbEntity
  8
_U+30EC_U+30A4_U+30E4_U+30FC 1
 62
   179
420
  2234388
100
AcDbHatch
 10
0.0
 20
0.0
 30
0.0
210
0.0
220
0.0
230
1.0
  2
SOLID
 70
     1
 71
     0
 91
        1
 92
        1
 93
        1
 72
     4
 94
        3
 73
     0
 74
     1
 95
       38
 96
       34
 40
0.0
 40
0.0
 40
0.0
 40
0.0
 40
1.0
 40
1.0
 40
1.0
 40
2.0
 40
2.0
 40
2.0
 40
3.0
 40
3.0
 40
3.0
 40
4.0
 40
4.0
 40
4.0
 40
5.0
 40
5.0
 40
5.0
 40
6.0
 40
6.0
 40
6.0
 40
7.0
 40
7.0
 40
7.0
 40
8.0
 40
8.0
 40
8.0
 40
9.0
 40
9.0
 40
9.0
 40
10.0
 40
10.0
 40
10.0
 40
11.0
 40
11.0
 40
11.0
 40
11.0
 10
96.37172306618486
 20
-124.0682237103024
 10
95.95417749337257
 20
-123.862551509833
 10
95.86839461578985
 20
-123.4146890967505
 10
96.07613387355042
 20
-122.9933539189044
 10
96.30833330925626
 20
-122.5227538756193
 10
96.74172632130069
 20
-122.4183674824162
 10
97.10793997138275
 20
-122.5988904858433
 10
97.41730954595818
 20
-122.7511637062914
 10
97.58267412925017
 20
-123.042963293892
 10
97.46106225862086
 20
-123.3368299387839
 10
97.46106225862086
 20
-123.3368299387839
 10
97.25435652950586
 20
-123.2348551124205
 10
97.25435652950586
 20
-123.2348551124205
 10
97.31188962410953
 20
-123.0319389883392
 10
97.15134817449689
 20
-122.8607177427223
 10
97.00699867366492
 20
-122.7894042661777
 10
96.91398109556317
 20
-122.7435844962238
 10
96.79546981087059
 20
-122.7208468660212
 10
96.67833656437209
 20
-122.7480631203547
 10
96.47817651667907
 20
-122.7904377948232
 10
96.3558756269527
 20
-122.9709607982503
 10
96.2855956790536
 20
-123.1132432417911
 10
96.09129229368551
 20
-123.5077066748522
 10
96.27078176846703
 20
-123.7757351036047
 10
96.46405162518954
 20
-123.8711642485461
 10
96.5873860435615
 20
-123.9317979290865
 10
96.86574975876968
 20
-123.9796847563315
 10
97.03455943754692
 20
-123.7089002511908
 10
97.03455943754692
 20
-123.7089002511908
 10
97.2412651666619
 20
-123.8108750775542
 10
97.2412651666619
 20
-123.8108750775542
 10
97.17029619966577
 20
-123.9266302858586
 10
96.91398109556317
 20
-124.3359076295063
 10
96.37172306618486
 20
-124.0682237103024
 97
        0
 97
        0
 75
     2
 76
     1
 98
        0
  0
SPLINE
  5
74
330
6E
100
AcDbEntity
  8
_U+30EC_U+30A4_U+30E4_U+30FC 1
370
     0
100
AcDbSpline
210
0.0
220
0.0
230
1.0
 70
    11
 71
     3
 72
    44
 73
    40
 74
     0
 42
0.0000000001
 43
0.0000000001
 12
1.0
 22
0.0
 32
0.0
 13
1.0
 23
0.0
 33
0.0
 40
0.0
 40
0.0
 40
0.0
 40
0.0
 40
1.0
 40
1.0
 40
1.0
 40
2.0
 40
2.0
 40
2.0
 40
3.0
 40
3.0
 40
3.0
 40
4.0
 40
4.0
 40
4.0
 40
5.0
 40
5.0
 40
5.0
 40
6.0
 40
6.0
 40
6.0
 40
7.0
 40
7.0
 40
7.0
 40
8.0
 40
8.0
 40
8.0
 40
9.0
 40
9.0
 40
9.0
 40
10.0
 40
10.0
 40
10.0
 40
11.0
 40
11.0
 40
11.0
 40
12.0
 40
12.0
 40
12.0
 40
13.0
 40
13.0
 40
13.0
 40
13.0
 10
98.07601180273795
 20
-124.8519829331967
 30
0.0
 10
98.07463376454385
 20
-124.8020290486606
 30
0.0
 10
98.07876787912615
 20
-124.745184973154
 30
0.0
 10
98.17902015774692
 20
-124.5374457153934
 30
0.0
 10
98.28306204140146
 20
-124.317304113886
 30
0.0
 10
98.26066892074734
 20
-124.2284206503665
 30
0.0
 10
98.10116099978028
 20
-124.1498724733028
 30
0.0
 10
98.10116099978028
 20
-124.1498724733028
 30
0.0
 10
97.73494734969822
 20
-123.9693494698757
 30
0.0
 10
97.73494734969822
 20
-123.9693494698757
 30
0.0
 10
97.73494734969822
 20
-123.9693494698757
 30
0.0
 10
97.45141599126215
 20
-124.5443359063639
 30
0.0
 10
97.45141599126215
 20
-124.5443359063639
 30
0.0
 10
97.45141599126215
 20
-124.5443359063639
 30
0.0
 10
97.24092065711339
 20
-124.4406385322579
 30
0.0
 10
97.24092065711339
 20
-124.4406385322579
 30
0.0
 10
97.24092065711339
 20
-124.4406385322579
 30
0.0
 10
97.92408309183843
 20
-123.0553656376389
 30
0.0
 10
97.92408309183843
 20
-123.0553656376389
 30
0.0
 10
97.92408309183843
 20
-123.0553656376389
 30
0.0
 10
98.5290418590483
 20
-123.3537109066616
 30
0.0
 10
98.5290418590483
 20
-123.3537109066616
 30
0.0
 10
98.80430498831976
 20
-123.4894476687804
 30
0.0
 10
98.87837454125264
 20
-123.7171684803554
 30
0.0
 10
98.76537540933644
 20
-123.9469563492216
 30
0.0
 10
98.74263777913379
 20
-123.9924316096269
 30
0.0
 10
98.6985405569226
 20
-124.062711557526
 30
0.0
 10
98.62309296579562
 20
-124.1150770089018
 30
0.0
 10
98.52421872536895
 20
-124.1819118613156
 30
0.0
 10
98.45703936340658
 20
-124.1698540271173
 30
0.0
 10
98.39468313512356
 20
-124.1577961929189
 30
0.0
 10
98.49906952832663
 20
-124.2566704333456
 30
0.0
 10
98.538688126407
 20
-124.3300509671814
 30
0.0
 10
98.40295136428816
 20
-124.614615854263
 30
0.0
 10
98.28650713688671
 20
-124.8595621432643
 30
0.0
 10
98.30511065250705
 20
-124.9036593654755
 30
0.0
 10
98.34128415510219
 20
-124.9832410711848
 30
0.0
 10
98.34128415510219
 20
-124.9832410711848
 30
0.0
 10
98.07601180273795
 20
-124.8519829331967
 30
0.0
 10
98.07601180273795
 20
-124.8519829331967
 30
0.0
  0
SPLINE
  5
75
330
6E
100
AcDbEntity
  8
_U+30EC_U+30A4_U+30E4_U+30FC 1
370
     0
100
AcDbSpline
210
0.0
220
0.0
230
1.0
 70
    11
 71
     3
 72
    20
 73
    16
 74
     0
 42
0.0000000001
 43
0.0000000001
 12
1.0
 22
0.0
 32
0.0
 13
1.0
 23
0.0
 33
0.0
 40
0.0
 40
0.0
 40
0.0
 40
0.0
 40
1.0
 40
1.0
 40
1.0
 40
2.0
 40
2.0
 40
2.0
 40
3.0
 40
3.0
 40
3.0
 40
4.0
 40
4.0
 40
4.0
 40
5.0
 40
5.0
 40
5.0
 40
5.0
 10
98.4394693764318
 20
-123.5452582156415
 30
0.0
 10
98.4394693764318
 20
-123.5452582156415
 30
0.0
 10
98.0408718287884
 20
-123.3488877729822
 30
0.0
 10
98.0408718287884
 20
-123.3488877729822
 30
0.0
 10
98.0408718287884
 20
-123.3488877729822
 30
0.0
 10
97.828653946897
 20
-123.779869218187
 30
0.0
 10
97.828653946897
 20
-123.779869218187
 30
0.0
 10
97.828653946897
 20
-123.779869218187
 30
0.0
 10
98.22518443724927
 20
-123.9752061322007
 30
0.0
 10
98.22518443724927
 20
-123.9752061322007
 30
0.0
 10
98.31441241031723
 20
-124.0193033544118
 30
0.0
 10
98.46944170715348
 20
-124.0106906156987
 30
0.0
 10
98.54523380782898
 20
-123.8570393570566
 30
0.0
 10
98.57968476268147
 20
-123.787103918706
 30
0.0
 10
98.61792532256774
 20
-123.6334526600639
 30
0.0
 10
98.4394693764318
 20
-123.5452582156415
 30
0.0
  0
HATCH
  5
76
330
6E
100
AcDbEntity
  8
_U+30EC_U+30A4_U+30E4_U+30FC 1
 62
   179
420
  2234388
100
AcDbHatch
 10
0.0
 20
0.0
 30
0.0
210
0.0
220
0.0
230
1.0
  2
SOLID
 70
     1
 71
     0
 91
        2
 92
        1
 93
        1
 72
     4
 94
        3
 73
     0
 74
     1
 95
       44
 96
       40
 40
0.0
 40
0.0
 40
0.0
 40
0.0
 40
1.0
 40
1.0
 40
1.0
 40
2.0
 40
2.0
 40
2.0
 40
3.0
 40
3.0
 40
3.0
 40
4.0
 40
4.0
 40
4.0
 40
5.0
 40
5.0
 40
5.0
 40
6.0
 40
6.0
 40
6.0
 40
7.0
 40
7.0
 40
7.0
 40
8.0
 40
8.0
 40
8.0
 40
9.0
 40
9.0
 40
9.0
 40
10.0
 40
10.0
 40
10.0
 40
11.0
 40
11.0
 40
11.0
 40
12.0
 40
12.0
 40
12.0
 40
13.0
 40
13.0
 40
13.0
 40
13.0
 10
98.07601180273795
 20
-124.8519829331967
 10
98.07463376454385
 20
-124.8020290486606
 10
98.07876787912615
 20
-124.745184973154
 10
98.17902015774692
 20
-124.5374457153934
 10
98.28306204140146
 20
-124.317304113886
 10
98.26066892074734
 20
-124.2284206503665
 10
98.10116099978028
 20
-124.1498724733028
 10
98.10116099978028
 20
-124.1498724733028
 10
97.73494734969822
 20
-123.9693494698757
 10
97.73494734969822
 20
-123.9693494698757
 10
97.73494734969822
 20
-123.9693494698757
 10
97.45141599126215
 20
-124.5443359063639
 10
97.45141599126215
 20
-124.5443359063639
 10
97.45141599126215
 20
-124.5443359063639
 10
97.24092065711339
 20
-124.4406385322579
 10
97.24092065711339
 20
-124.4406385322579
 10
97.24092065711339
 20
-124.4406385322579
 10
97.92408309183843
 20
-123.0553656376389
 10
97.92408309183843
 20
-123.0553656376389
 10
97.92408309183843
 20
-123.0553656376389
 10
98.5290418590483
 20
-123.3537109066616
 10
98.5290418590483
 20
-123.3537109066616
 10
98.80430498831976
 20
-123.4894476687804
 10
98.87837454125264
 20
-123.7171684803554
 10
98.76537540933644
 20
-123.9469563492216
 10
98.74263777913379
 20
-123.9924316096269
 10
98.6985405569226
 20
-124.062711557526
 10
98.62309296579562
 20
-124.1150770089018
 10
98.52421872536895
 20
-124.1819118613156
 10
98.45703936340658
 20
-124.1698540271173
 10
98.39468313512356
 20
-124.1577961929189
 10
98.49906952832663
 20
-124.2566704333456
 10
98.538688126407
 20
-124.3300509671814
 10
98.40295136428816
 20
-124.614615854263
 10
98.28650713688671
 20
-124.8595621432643
 10
98.30511065250705
 20
-124.9036593654755
 10
98.34128415510219
 20
-124.9832410711848
 10
98.34128415510219
 20
-124.9832410711848
 10
98.07601180273795
 20
-124.8519829331967
 10
98.07601180273795
 20
-124.8519829331967
 97
        0
 97
        0
 92
        1
 93
        1
 72
     4
 94
        3
 73
     0
 74
     1
 95
       20
 96
       16
 40
0.0
 40
0.0
 40
0.0
 40
0.0
 40
1.0
 40
1.0
 40
1.0
 40
2.0
 40
2.0
 40
2.0
 40
3.0
 40
3.0
 40
3.0
 40
4.0
 40
4.0
 40
4.0
 40
5.0
 40
5.0
 40
5.0
 40
5.0
 10
98.4394693764318
 20
-123.5452582156415
 10
98.4394693764318
 20
-123.5452582156415
 10
98.0408718287884
 20
-123.3488877729822
 10
98.0408718287884
 20
-123.3488877729822
 10
98.0408718287884
 20
-123.3488877729822
 10
97.828653946897
 20
-123.779869218187
 10
97.828653946897
 20
-123.779869218187
 10
97.828653946897
 20
-123.779869218187
 10
98.22518443724927
 20
-123.9752061322007
 10
98.22518443724927
 20
-123.9752061322007
 10
98.31441241031723
 20
-124.0193033544118
 10
98.46944170715348
 20
-124.0106906156987
 10
98.54523380782898
 20
-123.8570393570566
 10
98.57968476268147
 20
-123.787103918706
 10
98.61792532256774
 20
-123.6334526600639
 10
98.4394693764318
 20
-123.5452582156415
 97
        0
 97
        0
 75
     2
 76
     1
 98
        0
  0
SPLINE
  5
77
330
6E
100
AcDbEntity
  8
_U+30EC_U+30A4_U+30E4_U+30FC 1
370
     0
100
AcDbSpline
210
0.0
220
0.0
230
1.0
 70
    11
 71
     3
 72
    26
 73
    22
 74
     0
 42
0.0000000001
 43
0.0000000001
 12
1.0
 22
0.0
 32
0.0
 13
1.0
 23
0.0
 33
0.0
 40
0.0
 40
0.0
 40
0.0
 40
0.0
 40
1.0
 40
1.0
 40
1.0
 40
2.0
 40
2.0
 40
2.0
 40
3.0
 40
3.0
 40
3.0
 40
4.0
 40
4.0
 40
4.0
 40
5.0
 40
5.0
 40
5.0
 40
6.0
 40
6.0
 40
6.0
 40
7.0
 40
7.0
 40
7.0
 40
7.0
 10
99.44268118173656
 20
-124.8233886406692
 30
0.0
 10
99.44268118173656
 20
-124.8233886406692
 30
0.0
 10
99.0365044240256
 20
-124.6232285929761
 30
0.0
 10
99.0365044240256
 20
-124.6232285929761
 30
0.0
 10
99.0365044240256
 20
-124.6232285929761
 30
0.0
 10
98.7577961992689
 20
-125.1885687621056
 30
0.0
 10
98.7577961992689
 20
-125.1885687621056
 30
0.0
 10
98.7577961992689
 20
-125.1885687621056
 30
0.0
 10
98.54730086512012
 20
-125.0845268784511
 30
0.0
 10
98.54730086512012
 20
-125.0845268784511
 30
0.0
 10
98.54730086512012
 20
-125.0845268784511
 30
0.0
 10
99.23046329984517
 20
-123.6995984933807
 30
0.0
 10
99.23046329984517
 20
-123.6995984933807
 30
0.0
 10
99.23046329984517
 20
-123.6995984933807
 30
0.0
 10
99.84679088215636
 20
-124.0034559151797
 30
0.0
 10
99.84679088215636
 20
-124.0034559151797
 30
0.0
 10
100.1048285340016
 20
-124.1309244481339
 30
0.0
 10
100.2167941372722
 20
-124.3676025079706
 30
0.0
 10
100.0848469801871
 20
-124.6352864271745
 30
0.0
 10
99.9756374533047
 20
-124.8571505764246
 30
0.0
 10
99.74033743166214
 20
-124.9701497083408
 30
0.0
 10
99.44268118173656
 20
-124.8233886406692
 30
0.0
  0
SPLINE
  5
78
330
6E
100
AcDbEntity
  8
_U+30EC_U+30A4_U+30E4_U+30FC 1
370
     0
100
AcDbSpline
210
0.0
220
0.0
230
1.0
 70
    11
 71
     3
 72
    20
 73
    16
 74
     0
 42
0.0000000001
 43
0.0000000001
 12
1.0
 22
0.0
 32
0.0
 13
1.0
 23
0.0
 33
0.0
 40
0.0
 40
0.0
 40
0.0
 40
0.0
 40
1.0
 40
1.0
 40
1.0
 40
2.0
 40
2.0
 40
2.0
 40
3.0
 40
3.0
 40
3.0
 40
4.0
 40
4.0
 40
4.0
 40
5.0
 40
5.0
 40
5.0
 40
5.0
 10
99.74550507489002
 20
-124.1894910713832
 30
0.0
 10
99.74550507489002
 20
-124.1894910713832
 30
0.0
 10
99.34725203679514
 20
-123.9931206287239
 30
0.0
 10
99.34725203679514
 20
-123.9931206287239
 30
0.0
 10
99.34725203679514
 20
-123.9931206287239
 30
0.0
 10
99.12986651167587
 20
-124.4334038317389
 30
0.0
 10
99.12986651167587
 20
-124.4334038317389
 30
0.0
 10
99.12986651167587
 20
-124.4334038317389
 30
0.0
 10
99.52846405931928
 20
-124.6297742743981
 30
0.0
 10
99.52846405931928
 20
-124.6297742743981
 30
0.0
 10
99.67832571292764
 20
-124.703843827331
 30
0.0
 10
99.80510522678485
 20
-124.6483777900185
 30
0.0
 10
99.86642792642229
 20
-124.5229763143554
 30
0.0
 10
99.91707083005547
 20
-124.4206569784434
 30
0.0
 10
99.91465926321578
 20
-124.2728623821262
 30
0.0
 10
99.74550507489002
 20
-124.1894910713832
 30
0.0
  0
HATCH
  5
79
330
6E
100
AcDbEntity
  8
_U+30EC_U+30A4_U+30E4_U+30FC 1
 62
   179
420
  2234388
100
AcDbHatch
 10
0.0
 20
0.0
 30
0.0
210
0.0
220
0.0
230
1.0
  2
SOLID
 70
     1
 71
     0
 91
        2
 92
        1
 93
        1
 72
     4
 94
        3
 73
     0
 74
     1
 95
       26
 96
       22
 40
0.0
 40
0.0
 40
0.0
 40
0.0
 40
1.0
 40
1.0
 40
1.0
 40
2.0
 40
2.0
 40
2.0
 40
3.0
 40
3.0
 40
3.0
 40
4.0
 40
4.0
 40
4.0
 40
5.0
 40
5.0
 40
5.0
 40
6.0
 40
6.0
 40
6.0
 40
7.0
 40
7.0
 40
7.0
 40
7.0
 10
99.44268118173656
 20
-124.8233886406692
 10
99.44268118173656
 20
-124.8233886406692
 10
99.0365044240256
 20
-124.6232285929761
 10
99.0365044240256
 20
-124.6232285929761
 10
99.0365044240256
 20
-124.6232285929761
 10
98.7577961992689
 20
-125.1885687621056
 10
98.7577961992689
 20
-125.1885687621056
 10
98.7577961992689
 20
-125.1885687621056
 10
98.54730086512012
 20
-125.0845268784511
 10
98.54730086512012
 20
-125.0845268784511
 10
98.54730086512012
 20
-125.0845268784511
 10
99.23046329984517
 20
-123.6995984933807
 10
99.23046329984517
 20
-123.6995984933807
 10
99.23046329984517
 20
-123.6995984933807
 10
99.84679088215636
 20
-124.0034559151797
 10
99.84679088215636
 20
-124.0034559151797
 10
100.1048285340016
 20
-124.1309244481339
 10
100.2167941372722
 20
-124.3676025079706
 10
100.0848469801871
 20
-124.6352864271745
 10
99.9756374533047
 20
-124.8571505764246
 10
99.74033743166214
 20
-124.9701497083408
 10
99.44268118173656
 20
-124.8233886406692
 97
        0
 97
        0
 92
        1
 93
        1
 72
     4
 94
        3
 73
     0
 74
     1
 95
       20
 96
       16
 40
0.0
 40
0.0
 40
0.0
 40
0.0
 40
1.0
 40
1.0
 40
1.0
 40
2.0
 40
2.0
 40
2.0
 40
3.0
 40
3.0
 40
3.0
 40
4.0
 40
4.0
 40
4.0
 40
5.0
 40
5.0
 40
5.0
 40
5.0
 10
99.74550507489002
 20
-124.1894910713832
 10
99.74550507489002
 20
-124.1894910713832
 10
99.34725203679514
 20
-123.9931206287239
 10
99.34725203679514
 20
-123.9931206287239
 10
99.34725203679514
 20
-123.9931206287239
 10
99.12986651167587
 20
-124.4334038317389
 10
99.12986651167587
 20
-124.4334038317389
 10
99.12986651167587
 20
-124.4334038317389
 10
99.52846405931928
 20
-124.6297742743981
 10
99.52846405931928
 20
-124.6297742743981
 10
99.67832571292764
 20
-124.703843827331
 10
99.80510522678485
 20
-124.6483777900185
 10
99.86642792642229
 20
-124.5229763143554
 10
99.91707083005547
 20
-124.4206569784434
 10
99.91465926321578
 20
-124.2728623821262
 10
99.74550507489002
 20
-124.1894910713832
 97
        0
 97
        0
 75
     2
 76
     1
 98
        0
  0
POLYLINE
  5
7A
330
6E
100
AcDbEntity
  8
_U+30EC_U+30A4_U+30E4_U+30FC 1
370
     0
100
AcDb2dPolyline
 66
     1
 10
0.0
 20
0.0
 30
0.0
  0
VERTEX
  5
7B
330
7A
100
AcDbEntity
  8
_U+30EC_U+30A4_U+30E4_U+30FC 1
370
     0
100
AcDbVertex
100
AcDb2dVertex
 10
99.92154945418629
 20
-125.2647053723297
 30
0.0
  0
VERTEX
  5
7C
330
7A
100
AcDbEntity
  8
_U+30EC_U+30A4_U+30E4_U+30FC 1
370
     0
100
AcDbVertex
100
AcDb2dVertex
 10
100.0169785991277
 20
-125.0710910060586
 30
0.0
  0
VERTEX
  5
7D
330
7A
100
AcDbEntity
  8
_U+30EC_U+30A4_U+30E4_U+30FC 1
370
     0
100
AcDbVertex
100
AcDb2dVertex
 10
100.5427001701768
 20
-125.3305066960979
 30
0.0
  0
VERTEX
  5
7E
330
7A
100
AcDbEntity
  8
_U+30EC_U+30A4_U+30E4_U+30FC 1
370
     0
100
AcDbVertex
100
AcDb2dVertex
 10
100.4472710252354
 20
-125.5237765528205
 30
0.0
  0
VERTEX
  5
7F
330
7A
100
AcDbEntity
  8
_U+30EC_U+30A4_U+30E4_U+30FC 1
370
     0
100
AcDbVertex
100
AcDb2dVertex
 10
99.92154945418629
 20
-125.2647053723297
 30
0.0
  0
SEQEND
  5
80
330
7A
100
AcDbEntity
  8
_U+30EC_U+30A4_U+30E4_U+30FC 1
370
     0
  0
HATCH
  5
81
330
6E
100
AcDbEntity
  8
_U+30EC_U+30A4_U+30E4_U+30FC 1
 62
   179
420
  2234388
100
AcDbHatch
 10
0.0
 20
0.0
 30
0.0
210
0.0
220
0.0
230
1.0
  2
SOLID
 70
     1
 71
     0
 91
        1
 92
        1
 93
        4
 72
     1
 10
99.92154945418629
 20
-125.2647053723297
 11
100.0169785991277
 21
-125.0710910060586
 72
     1
 10
100.0169785991277
 20
-125.0710910060586
 11
100.5427001701768
 21
-125.3305066960979
 72
     1
 10
100.5427001701768
 20
-125.3305066960979
 11
100.4472710252354
 21
-125.5237765528205
 72
     1
 10
100.4472710252354
 20
-125.5237765528205
 11
99.92154945418629
 21
-125.2647053723297
 97
        0
 75
     2
 76
     1
 98
        0
  0
SPLINE
  5
82
330
6E
100
AcDbEntity
  8
_U+30EC_U+30A4_U+30E4_U+30FC 1
370
     0
100
AcDbSpline
210
0.0
220
0.0
230
1.0
 70
    11
 71
     3
 72
    62
 73
    58
 74
     0
 42
0.0000000001
 43
0.0000000001
 12
1.0
 22
0.0
 32
0.0
 13
1.0
 23
0.0
 33
0.0
 40
0.0
 40
0.0
 40
0.0
 40
0.0
 40
1.0
 40
1.0
 40
1.0
 40
2.0
 40
2.0
 40
2.0
 40
3.0
 40
3.0
 40
3.0
 40
4.0
 40
4.0
 40
4.0
 40
5.0
 40
5.0
 40
5.0
 40
6.0
 40
6.0
 40
6.0
 40
7.0
 40
7.0
 40
7.0
 40
8.0
 40
8.0
 40
8.0
 40
9.0
 40
9.0
 40
9.0
 40
10.0
 40
10.0
 40
10.0
 40
11.0
 40
11.0
 40
11.0
 40
12.0
 40
12.0
 40
12.0
 40
13.0
 40
13.0
 40
13.0
 40
14.0
 40
14.0
 40
14.0
 40
15.0
 40
15.0
 40
15.0
 40
16.0
 40
16.0
 40
16.0
 40
17.0
 40
17.0
 40
17.0
 40
18.0
 40
18.0
 40
18.0
 40
19.0
 40
19.0
 40
19.0
 40
19.0
 10
100.7835123445958
 20
-126.2441460187862
 30
0.0
 10
100.6980739765616
 20
-126.2017713443176
 30
0.0
 10
100.5120388203581
 20
-126.0867051551103
 30
0.0
 10
100.482410999185
 20
-125.8648410058602
 30
0.0
 10
100.4658745408558
 20
-125.7311713010325
 30
0.0
 10
100.5058376484847
 20
-125.6402207802219
 30
0.0
 10
100.5395995842401
 20
-125.5623616222553
 30
0.0
 10
100.5395995842401
 20
-125.5623616222553
 30
0.0
 10
100.7366590459964
 20
-125.6595133149393
 30
0.0
 10
100.7366590459964
 20
-125.6595133149393
 30
0.0
 10
100.7059976961777
 20
-125.7270371864502
 30
0.0
 10
100.6116020798818
 20
-125.9420111447298
 30
0.0
 10
100.8658501266933
 20
-126.0674126203929
 30
0.0
 10
100.9891845450652
 20
-126.1283908104818
 30
0.0
 10
101.1566161856483
 20
-126.1332139441611
 30
0.0
 10
101.2575574833662
 20
-125.9285752723373
 30
0.0
 10
101.3092339156449
 20
-125.8241888791342
 30
0.0
 10
101.2964870623495
 20
-125.7635551985938
 30
0.0
 10
101.2820176613114
 20
-125.7211805241253
 30
0.0
 10
101.248255725556
 20
-125.6219617741501
 30
0.0
 10
101.1493814851293
 20
-125.5592610363185
 30
0.0
 10
101.1004611292388
 20
-125.5348008583732
 30
0.0
 10
101.0832356518125
 20
-125.5265326292086
 30
0.0
 10
101.0501627351541
 20
-125.5120632281706
 30
0.0
 10
101.0236354999177
 20
-125.503794999006
 30
0.0
 10
101.0236354999177
 20
-125.503794999006
 30
0.0
 10
101.1094183775004
 20
-125.3291286579038
 30
0.0
 10
101.1094183775004
 20
-125.3291286579038
 30
0.0
 10
101.1407687464162
 20
-125.352210797655
 30
0.0
 10
101.1779757776569
 20
-125.372536861018
 30
0.0
 10
101.1838324399818
 20
-125.3752929374062
 30
0.0
 10
101.2423990632311
 20
-125.4042317394823
 30
0.0
 10
101.4305012767257
 20
-125.4731336491873
 30
0.0
 10
101.5348876699288
 20
-125.2609157672959
 30
0.0
 10
101.613780356541
 20
-125.1014078463288
 30
0.0
 10
101.5204182688907
 20
-124.993920867189
 30
0.0
 10
101.4215440284641
 20
-124.945345020847
 30
0.0
 10
101.1845214590789
 20
-124.828556283897
 30
0.0
 10
101.0739338940024
 20
-125.0335394652694
 30
0.0
 10
101.0384494105043
 20
-125.0958956935524
 30
0.0
 10
101.0384494105043
 20
-125.0958956935524
 30
0.0
 10
100.8562038593346
 20
-125.0063232109359
 30
0.0
 10
100.8562038593346
 20
-125.0063232109359
 30
0.0
 10
100.9189045971661
 20
-124.8981472126991
 30
0.0
 10
101.1101073965975
 20
-124.572585689343
 30
0.0
 10
101.5200737593422
 20
-124.7744682847786
 30
0.0
 10
101.7212673356808
 20
-124.8736870347538
 30
0.0
 10
101.8811197661964
 20
-125.0945176553583
 30
0.0
 10
101.7502061377569
 20
-125.3597900077226
 30
0.0
 10
101.6678683556594
 20
-125.5268771387572
 30
0.0
 10
101.5462564850301
 20
-125.55891652677
 30
0.0
 10
101.4298122576287
 20
-125.5695963227743
 30
0.0
 10
101.4725314416458
 20
-125.6216172646015
 30
0.0
 10
101.6003444841485
 20
-125.7742349945981
 30
0.0
 10
101.4776990848736
 20
-126.0226263790846
 30
0.0
 10
101.3281819408138
 20
-126.3261392913351
 30
0.0
 10
101.0322482386308
 20
-126.3664469085126
 30
0.0
 10
100.7835123445958
 20
-126.2441460187862
 30
0.0
  0
HATCH
  5
83
330
6E
100
AcDbEntity
  8
_U+30EC_U+30A4_U+30E4_U+30FC 1
 62
   179
420
  2234388
100
AcDbHatch
 10
0.0
 20
0.0
 30
0.0
210
0.0
220
0.0
230
1.0
  2
SOLID
 70
     1
 71
     0
 91
        1
 92
        1
 93
        1
 72
     4
 94
        3
 73
     0
 74
     1
 95
       62
 96
       58
 40
0.0
 40
0.0
 40
0.0
 40
0.0
 40
1.0
 40
1.0
 40
1.0
 40
2.0
 40
2.0
 40
2.0
 40
3.0
 40
3.0
 40
3.0
 40
4.0
 40
4.0
 40
4.0
 40
5.0
 40
5.0
 40
5.0
 40
6.0
 40
6.0
 40
6.0
 40
7.0
 40
7.0
 40
7.0
 40
8.0
 40
8.0
 40
8.0
 40
9.0
 40
9.0
 40
9.0
 40
10.0
 40
10.0
 40
10.0
 40
11.0
 40
11.0
 40
11.0
 40
12.0
 40
12.0
 40
12.0
 40
13.0
 40
13.0
 40
13.0
 40
14.0
 40
14.0
 40
14.0
 40
15.0
 40
15.0
 40
15.0
 40
16.0
 40
16.0
 40
16.0
 40
17.0
 40
17.0
 40
17.0
 40
18.0
 40
18.0
 40
18.0
 40
19.0
 40
19.0
 40
19.0
 40
19.0
 10
100.7835123445958
 20
-126.2441460187862
 10
100.6980739765616
 20
-126.2017713443176
 10
100.5120388203581
 20
-126.0867051551103
 10
100.482410999185
 20
-125.8648410058602
 10
100.4658745408558
 20
-125.7311713010325
 10
100.5058376484847
 20
-125.6402207802219
 10
100.5395995842401
 20
-125.5623616222553
 10
100.5395995842401
 20
-125.5623616222553
 10
100.7366590459964
 20
-125.6595133149393
 10
100.7366590459964
 20
-125.6595133149393
 10
100.7059976961777
 20
-125.7270371864502
 10
100.6116020798818
 20
-125.9420111447298
 10
100.8658501266933
 20
-126.0674126203929
 10
100.9891845450652
 20
-126.1283908104818
 10
101.1566161856483
 20
-126.1332139441611
 10
101.2575574833662
 20
-125.9285752723373
 10
101.3092339156449
 20
-125.8241888791342
 10
101.2964870623495
 20
-125.7635551985938
 10
101.2820176613114
 20
-125.7211805241253
 10
101.248255725556
 20
-125.6219617741501
 10
101.1493814851293
 20
-125.5592610363185
 10
101.1004611292388
 20
-125.5348008583732
 10
101.0832356518125
 20
-125.5265326292086
 10
101.0501627351541
 20
-125.5120632281706
 10
101.0236354999177
 20
-125.503794999006
 10
101.0236354999177
 20
-125.503794999006
 10
101.1094183775004
 20
-125.3291286579038
 10
101.1094183775004
 20
-125.3291286579038
 10
101.1407687464162
 20
-125.352210797655
 10
101.1779757776569
 20
-125.372536861018
 10
101.1838324399818
 20
-125.3752929374062
 10
101.2423990632311
 20
-125.4042317394823
 10
101.4305012767257
 20
-125.4731336491873
 10
101.5348876699288
 20
-125.2609157672959
 10
101.613780356541
 20
-125.1014078463288
 10
101.5204182688907
 20
-124.993920867189
 10
101.4215440284641
 20
-124.945345020847
 10
101.1845214590789
 20
-124.828556283897
 10
101.0739338940024
 20
-125.0335394652694
 10
101.0384494105043
 20
-125.0958956935524
 10
101.0384494105043
 20
-125.0958956935524
 10
100.8562038593346
 20
-125.0063232109359
 10
100.8562038593346
 20
-125.0063232109359
 10
100.9189045971661
 20
-124.8981472126991
 10
101.1101073965975
 20
-124.572585689343
 10
101.5200737593422
 20
-124.7744682847786
 10
101.7212673356808
 20
-124.8736870347538
 10
101.8811197661964
 20
-125.0945176553583
 10
101.7502061377569
 20
-125.3597900077226
 10
101.6678683556594
 20
-125.5268771387572
 10
101.5462564850301
 20
-125.55891652677
 10
101.4298122576287
 20
-125.5695963227743
 10
101.4725314416458
 20
-125.6216172646015
 10
101.6003444841485
 20
-125.7742349945981
 10
101.4776990848736
 20
-126.0226263790846
 10
101.3281819408138
 20
-126.3261392913351
 10
101.0322482386308
 20
-126.3664469085126
 10
100.7835123445958
 20
-126.2441460187862
 97
        0
 97
        0
 75
     2
 76
     1
 98
        0
  0
SPLINE
  5
84
330
6E
100
AcDbEntity
  8
_U+30EC_U+30A4_U+30E4_U+30FC 1
370
     0
100
AcDbSpline
210
0.0
220
0.0
230
1.0
 70
    11
 71
     3
 72
    29
 73
    25
 74
     0
 42
0.0000000001
 43
0.0000000001
 12
1.0
 22
0.0
 32
0.0
 13
1.0
 23
0.0
 33
0.0
 40
0.0
 40
0.0
 40
0.0
 40
0.0
 40
1.0
 40
1.0
 40
1.0
 40
2.0
 40
2.0
 40
2.0
 40
3.0
 40
3.0
 40
3.0
 40
4.0
 40
4.0
 40
4.0
 40
5.0
 40
5.0
 40
5.0
 40
6.0
 40
6.0
 40
6.0
 40
7.0
 40
7.0
 40
7.0
 40
8.0
 40
8.0
 40
8.0
 40
8.0
 10
102.3041774917851
 20
-126.7392062400166
 30
0.0
 10
102.1150417496449
 20
-126.8794216262663
 30
0.0
 10
101.951055204547
 20
-126.8198214743714
 30
0.0
 10
101.8466688113439
 20
-126.7681450420927
 30
0.0
 10
101.7026638200605
 20
-126.6971760750966
 30
0.0
 10
101.5958658600177
 20
-126.5927896818935
 30
0.0
 10
101.5910427263384
 20
-126.3874619909726
 30
0.0
 10
101.5841525353678
 20
-126.1669758799166
 30
0.0
 10
101.6716579606932
 20
-125.9464897688606
 30
0.0
 10
101.7436604563349
 20
-125.8000732107375
 30
0.0
 10
101.807394722812
 20
-125.6712266395892
 30
0.0
 10
101.9341742366692
 20
-125.4528075858243
 30
0.0
 10
102.1167642973875
 20
-125.3212049382878
 30
0.0
 10
102.303488472688
 20
-125.186846214363
 30
0.0
 10
102.4578287504272
 20
-125.2371446084477
 30
0.0
 10
102.5735839587316
 20
-125.2939886839543
 30
0.0
 10
102.7158664022724
 20
-125.3642686318534
 30
0.0
 10
102.8250759291548
 20
-125.4676214964109
 30
0.0
 10
102.8302435723827
 20
-125.6729491873318
 30
0.0
 10
102.8340331774165
 20
-125.889645693354
 30
0.0
 10
102.7541069621587
 20
-126.1046196516336
 30
0.0
 10
102.6772813328376
 20
-126.2603379675669
 30
0.0
 10
102.6014892321621
 20
-126.413989226209
 30
0.0
 10
102.4805663806299
 20
-126.6117377070623
 30
0.0
 10
102.3041774917851
 20
-126.7392062400166
 30
0.0
  0
SPLINE
  5
85
330
6E
100
AcDbEntity
  8
_U+30EC_U+30A4_U+30E4_U+30FC 1
370
     0
100
AcDbSpline
210
0.0
220
0.0
230
1.0
 70
    11
 71
     3
 72
    17
 73
    13
 74
     0
 42
0.0000000001
 43
0.0000000001
 12
1.0
 22
0.0
 32
0.0
 13
1.0
 23
0.0
 33
0.0
 40
0.0
 40
0.0
 40
0.0
 40
0.0
 40
1.0
 40
1.0
 40
1.0
 40
2.0
 40
2.0
 40
2.0
 40
3.0
 40
3.0
 40
3.0
 40
4.0
 40
4.0
 40
4.0
 40
4.0
 10
102.4881455906974
 20
-125.4669324773138
 30
0.0
 10
102.2645588937047
 20
-125.3563449122373
 30
0.0
 10
102.0974717626701
 20
-125.5902668956858
 30
0.0
 10
101.9448540326735
 20
-125.8992919607127
 30
0.0
 10
101.8036051177783
 20
-126.1859239050855
 30
0.0
 10
101.6992187245752
 20
-126.4787570213317
 30
0.0
 10
101.9327961984751
 20
-126.5934787009905
 30
0.0
 10
102.1546603477252
 20
-126.7030327374215
 30
0.0
 10
102.3227810074054
 20
-126.4725558494583
 30
0.0
 10
102.476087756499
 20
-126.1614637271402
 30
0.0
 10
102.6176811809428
 20
-125.8748317827674
 30
0.0
 10
102.7196560073062
 20
-125.5809651378756
 30
0.0
 10
102.4881455906974
 20
-125.4669324773138
 30
0.0
  0
HATCH
  5
86
330
6E
100
AcDbEntity
  8
_U+30EC_U+30A4_U+30E4_U+30FC 1
 62
   179
420
  2234388
100
AcDbHatch
 10
0.0
 20
0.0
 30
0.0
210
0.0
220
0.0
230
1.0
  2
SOLID
 70
     1
 71
     0
 91
        2
 92
        1
 93
        1
 72
     4
 94
        3
 73
     0
 74
     1
 95
       29
 96
       25
 40
0.0
 40
0.0
 40
0.0
 40
0.0
 40
1.0
 40
1.0
 40
1.0
 40
2.0
 40
2.0
 40
2.0
 40
3.0
 40
3.0
 40
3.0
 40
4.0
 40
4.0
 40
4.0
 40
5.0
 40
5.0
 40
5.0
 40
6.0
 40
6.0
 40
6.0
 40
7.0
 40
7.0
 40
7.0
 40
8.0
 40
8.0
 40
8.0
 40
8.0
 10
102.3041774917851
 20
-126.7392062400166
 10
102.1150417496449
 20
-126.8794216262663
 10
101.951055204547
 20
-126.8198214743714
 10
101.8466688113439
 20
-126.7681450420927
 10
101.7026638200605
 20
-126.6971760750966
 10
101.5958658600177
 20
-126.5927896818935
 10
101.5910427263384
 20
-126.3874619909726
 10
101.5841525353678
 20
-126.1669758799166
 10
101.6716579606932
 20
-125.9464897688606
 10
101.7436604563349
 20
-125.8000732107375
 10
101.807394722812
 20
-125.6712266395892
 10
101.9341742366692
 20
-125.4528075858243
 10
102.1167642973875
 20
-125.3212049382878
 10
102.303488472688
 20
-125.186846214363
 10
102.4578287504272
 20
-125.2371446084477
 10
102.5735839587316
 20
-125.2939886839543
 10
102.7158664022724
 20
-125.3642686318534
 10
102.8250759291548
 20
-125.4676214964109
 10
102.8302435723827
 20
-125.6729491873318
 10
102.8340331774165
 20
-125.889645693354
 10
102.7541069621587
 20
-126.1046196516336
 10
102.6772813328376
 20
-126.2603379675669
 10
102.6014892321621
 20
-126.413989226209
 10
102.4805663806299
 20
-126.6117377070623
 10
102.3041774917851
 20
-126.7392062400166
 97
        0
 97
        0
 92
        1
 93
        1
 72
     4
 94
        3
 73
     0
 74
     1
 95
       17
 96
       13
 40
0.0
 40
0.0
 40
0.0
 40
0.0
 40
1.0
 40
1.0
 40
1.0
 40
2.0
 40
2.0
 40
2.0
 40
3.0
 40
3.0
 40
3.0
 40
4.0
 40
4.0
 40
4.0
 40
4.0
 10
102.4881455906974
 20
-125.4669324773138
 10
102.2645588937047
 20
-125.3563449122373
 10
102.0974717626701
 20
-125.5902668956858
 10
101.9448540326735
 20
-125.8992919607127
 10
101.8036051177783
 20
-126.1859239050855
 10
101.6992187245752
 20
-126.4787570213317
 10
101.9327961984751
 20
-126.5934787009905
 10
102.1546603477252
 20
-126.7030327374215
 10
102.3227810074054
 20
-126.4725558494583
 10
102.476087756499
 20
-126.1614637271402
 10
102.6176811809428
 20
-125.8748317827674
 10
102.7196560073062
 20
-125.5809651378756
 10
102.4881455906974
 20
-125.4669324773138
 97
        0
 97
        0
 75
     2
 76
     1
 98
        0
  0
POLYLINE
  5
87
330
6E
100
AcDbEntity
  8
_U+30EC_U+30A4_U+30E4_U+30FC 1
370
     0
100
AcDb2dPolyline
 66
     1
 10
0.0
 20
0.0
 30
0.0
  0
VERTEX
  5
88
330
87
100
AcDbEntity
  8
_U+30EC_U+30A4_U+30E4_U+30FC 1
370
     0
100
AcDbVertex
100
AcDb2dVertex
 10
103.4538058552129
 20
-127.5043619472906
 30
0.0
  0
VERTEX
  5
89
330
87
100
AcDbEntity
  8
_U+30EC_U+30A4_U+30E4_U+30FC 1
370
     0
100
AcDbVertex
100
AcDb2dVertex
 10
103.7655869966281
 20
-126.8725314352958
 30
0.0
  0
VERTEX
  5
8A
330
87
100
AcDbEntity
  8
_U+30EC_U+30A4_U+30E4_U+30FC 1
370
     0
100
AcDbVertex
100
AcDb2dVertex
 10
103.0937933770043
 20
-126.5414577591633
 30
0.0
  0
VERTEX
  5
8B
330
87
100
AcDbEntity
  8
_U+30EC_U+30A4_U+30E4_U+30FC 1
370
     0
100
AcDbVertex
100
AcDb2dVertex
 10
102.7823567451377
 20
-127.1732882711581
 30
0.0
  0
VERTEX
  5
8C
330
87
100
AcDbEntity
  8
_U+30EC_U+30A4_U+30E4_U+30FC 1
370
     0
100
AcDbVertex
100
AcDb2dVertex
 10
102.5715169014405
 20
-127.0692463875035
 30
0.0
  0
VERTEX
  5
8D
330
87
100
AcDbEntity
  8
_U+30EC_U+30A4_U+30E4_U+30FC 1
370
     0
100
AcDbVertex
100
AcDb2dVertex
 10
103.2546793361655
 20
-125.6843180024331
 30
0.0
  0
VERTEX
  5
8E
330
87
100
AcDbEntity
  8
_U+30EC_U+30A4_U+30E4_U+30FC 1
370
     0
100
AcDbVertex
100
AcDb2dVertex
 10
103.4655191798628
 20
-125.7880153765391
 30
0.0
  0
VERTEX
  5
8F
330
87
100
AcDbEntity
  8
_U+30EC_U+30A4_U+30E4_U+30FC 1
370
     0
100
AcDbVertex
100
AcDb2dVertex
 10
103.1874999742031
 20
-126.351632997926
 30
0.0
  0
VERTEX
  5
90
330
87
100
AcDbEntity
  8
_U+30EC_U+30A4_U+30E4_U+30FC 1
370
     0
100
AcDbVertex
100
AcDb2dVertex
 10
103.8589490842783
 20
-126.6827066740585
 30
0.0
  0
VERTEX
  5
91
330
87
100
AcDbEntity
  8
_U+30EC_U+30A4_U+30E4_U+30FC 1
370
     0
100
AcDbVertex
100
AcDb2dVertex
 10
104.136968289938
 20
-126.1190890526716
 30
0.0
  0
VERTEX
  5
92
330
87
100
AcDbEntity
  8
_U+30EC_U+30A4_U+30E4_U+30FC 1
370
     0
100
AcDbVertex
100
AcDb2dVertex
 10
104.3478081336353
 20
-126.2231309363262
 30
0.0
  0
VERTEX
  5
93
330
87
100
AcDbEntity
  8
_U+30EC_U+30A4_U+30E4_U+30FC 1
370
     0
100
AcDbVertex
100
AcDb2dVertex
 10
103.6646456989102
 20
-127.6080593213966
 30
0.0
  0
VERTEX
  5
94
330
87
100
AcDbEntity
  8
_U+30EC_U+30A4_U+30E4_U+30FC 1
370
     0
100
AcDbVertex
100
AcDb2dVertex
 10
103.4538058552129
 20
-127.5043619472906
 30
0.0
  0
SEQEND
  5
95
330
87
100
AcDbEntity
  8
_U+30EC_U+30A4_U+30E4_U+30FC 1
370
     0
  0
HATCH
  5
96
330
6E
100
AcDbEntity
  8
_U+30EC_U+30A4_U+30E4_U+30FC 1
 62
   179
420
  2234388
100
AcDbHatch
 10
0.0
 20
0.0
 30
0.0
210
0.0
220
0.0
230
1.0
  2
SOLID
 70
     1
 71
     0
 91
        1
 92
        1
 93
       12
 72
     1
 10
103.4538058552129
 20
-127.5043619472906
 11
103.7655869966281
 21
-126.8725314352958
 72
     1
 10
103.7655869966281
 20
-126.8725314352958
 11
103.0937933770043
 21
-126.5414577591633
 72
     1
 10
103.0937933770043
 20
-126.5414577591633
 11
102.7823567451377
 21
-127.1732882711581
 72
     1
 10
102.7823567451377
 20
-127.1732882711581
 11
102.5715169014405
 21
-127.0692463875035
 72
     1
 10
102.5715169014405
 20
-127.0692463875035
 11
103.2546793361655
 21
-125.6843180024331
 72
     1
 10
103.2546793361655
 20
-125.6843180024331
 11
103.4655191798628
 21
-125.7880153765391
 72
     1
 10
103.4655191798628
 20
-125.7880153765391
 11
103.1874999742031
 21
-126.351632997926
 72
     1
 10
103.1874999742031
 20
-126.351632997926
 11
103.8589490842783
 21
-126.6827066740585
 72
     1
 10
103.8589490842783
 20
-126.6827066740585
 11
104.136968289938
 21
-126.1190890526716
 72
     1
 10
104.136968289938
 20
-126.1190890526716
 11
104.3478081336353
 21
-126.2231309363262
 72
     1
 10
104.3478081336353
 20
-126.2231309363262
 11
103.6646456989102
 21
-127.6080593213966
 72
     1
 10
103.6646456989102
 20
-127.6080593213966
 11
103.4538058552129
 21
-127.5043619472906
 97
        0
 75
     2
 76
     1
 98
        0
  0
SPLINE
  5
97
330
6E
100
AcDbEntity
  8
_U+30EC_U+30A4_U+30E4_U+30FC 1
370
     0
100
AcDbSpline
210
0.0
220
0.0
230
1.0
 70
    11
 71
     3
 72
    26
 73
    22
 74
     0
 42
0.0000000001
 43
0.0000000001
 12
1.0
 22
0.0
 32
0.0
 13
1.0
 23
0.0
 33
0.0
 40
0.0
 40
0.0
 40
0.0
 40
0.0
 40
1.0
 40
1.0
 40
1.0
 40
2.0
 40
2.0
 40
2.0
 40
3.0
 40
3.0
 40
3.0
 40
4.0
 40
4.0
 40
4.0
 40
5.0
 40
5.0
 40
5.0
 40
6.0
 40
6.0
 40
6.0
 40
7.0
 40
7.0
 40
7.0
 40
7.0
 10
104.6234157724553
 20
-128.0810709315214
 30
0.0
 10
104.6234157724553
 20
-128.0810709315214
 30
0.0
 10
104.0126003429205
 20
-127.779625076562
 30
0.0
 10
104.0126003429205
 20
-127.779625076562
 30
0.0
 10
104.0126003429205
 20
-127.779625076562
 30
0.0
 10
104.6957627776455
 20
-126.3946966914916
 30
0.0
 10
104.6957627776455
 20
-126.3946966914916
 30
0.0
 10
104.6957627776455
 20
-126.3946966914916
 30
0.0
 10
105.295209392079
 20
-126.690285884126
 30
0.0
 10
105.295209392079
 20
-126.690285884126
 30
0.0
 10
105.4867567010589
 20
-126.7850260099704
 30
0.0
 10
105.6297281636967
 20
-126.9782958666929
 30
0.0
 10
105.5108723694556
 20
-127.2194525506604
 30
0.0
 10
105.406141466704
 20
-127.4316704325518
 30
0.0
 10
105.2280300301166
 20
-127.4240912224843
 30
0.0
 10
105.1539604771837
 20
-127.420646126999
 30
0.0
 10
105.2094265144963
 20
-127.4664658969528
 30
0.0
 10
105.3878824606322
 20
-127.620806174692
 30
0.0
 10
105.2531792271589
 20
-127.8940022466723
 30
0.0
 10
105.1512044007955
 20
-128.1007079757873
 30
0.0
 10
104.9138373218618
 20
-128.2243869037078
 30
0.0
 10
104.6234157724553
 20
-128.0810709315214
 30
0.0
  0
SPLINE
  5
98
330
6E
100
AcDbEntity
  8
_U+30EC_U+30A4_U+30E4_U+30FC 1
370
     0
100
AcDbSpline
210
0.0
220
0.0
230
1.0
 70
    11
 71
     3
 72
    20
 73
    16
 74
     0
 42
0.0000000001
 43
0.0000000001
 12
1.0
 22
0.0
 32
0.0
 13
1.0
 23
0.0
 33
0.0
 40
0.0
 40
0.0
 40
0.0
 40
0.0
 40
1.0
 40
1.0
 40
1.0
 40
2.0
 40
2.0
 40
2.0
 40
3.0
 40
3.0
 40
3.0
 40
4.0
 40
4.0
 40
4.0
 40
5.0
 40
5.0
 40
5.0
 40
5.0
 10
104.9083251690854
 20
-127.4361490566826
 30
0.0
 10
104.9083251690854
 20
-127.4361490566826
 30
0.0
 10
104.5345323089358
 20
-127.2518364482218
 30
0.0
 10
104.5345323089358
 20
-127.2518364482218
 30
0.0
 10
104.5345323089358
 20
-127.2518364482218
 30
0.0
 10
104.316802274268
 20
-127.6941867085279
 30
0.0
 10
104.316802274268
 20
-127.6941867085279
 30
0.0
 10
104.316802274268
 20
-127.6941867085279
 30
0.0
 10
104.6902506248691
 20
-127.8781548074402
 30
0.0
 10
104.6902506248691
 20
-127.8781548074402
 30
0.0
 10
104.8328775779585
 20
-127.9484347553393
 30
0.0
 10
104.9713704164655
 20
-127.9153618386809
 30
0.0
 10
105.0416503643646
 20
-127.7730793951401
 30
0.0
 10
105.1026285544535
 20
-127.6497449767681
 30
0.0
 10
105.0640434850187
 20
-127.5129746860037
 30
0.0
 10
104.9083251690854
 20
-127.4361490566826
 30
0.0
  0
SPLINE
  5
99
330
6E
100
AcDbEntity
  8
_U+30EC_U+30A4_U+30E4_U+30FC 1
370
     0
100
AcDbSpline
210
0.0
220
0.0
230
1.0
 70
    11
 71
     3
 72
    20
 73
    16
 74
     0
 42
0.0000000001
 43
0.0000000001
 12
1.0
 22
0.0
 32
0.0
 13
1.0
 23
0.0
 33
0.0
 40
0.0
 40
0.0
 40
0.0
 40
0.0
 40
1.0
 40
1.0
 40
1.0
 40
2.0
 40
2.0
 40
2.0
 40
3.0
 40
3.0
 40
3.0
 40
4.0
 40
4.0
 40
4.0
 40
5.0
 40
5.0
 40
5.0
 40
5.0
 10
105.1388020570486
 20
-126.8491047859961
 30
0.0
 10
105.1388020570486
 20
-126.8491047859961
 30
0.0
 10
104.8125515145955
 20
-126.6882188268349
 30
0.0
 10
104.8125515145955
 20
-126.6882188268349
 30
0.0
 10
104.8125515145955
 20
-126.6882188268349
 30
0.0
 10
104.6282389061346
 20
-127.062356196533
 30
0.0
 10
104.6282389061346
 20
-127.062356196533
 30
0.0
 10
104.6282389061346
 20
-127.062356196533
 30
0.0
 10
104.9544894485878
 20
-127.2232421556942
 30
0.0
 10
104.9544894485878
 20
-127.2232421556942
 30
0.0
 10
105.0798909242509
 20
-127.2849093648802
 30
0.0
 10
105.2046033808169
 20
-127.2849093648802
 30
0.0
 10
105.2728162714249
 20
-127.1464165263731
 30
0.0
 10
105.3468858243577
 20
-126.9965548727648
 30
0.0
 10
105.2431884502517
 20
-126.9004367087263
 30
0.0
 10
105.1388020570486
 20
-126.8491047859961
 30
0.0
  0
HATCH
  5
9A
330
6E
100
AcDbEntity
  8
_U+30EC_U+30A4_U+30E4_U+30FC 1
 62
   179
420
  2234388
100
AcDbHatch
 10
0.0
 20
0.0
 30
0.0
210
0.0
220
0.0
230
1.0
  2
SOLID
 70
     1
 71
     0
 91
        3
 92
        1
 93
        1
 72
     4
 94
        3
 73
     0
 74
     1
 95
       26
 96
       22
 40
0.0
 40
0.0
 40
0.0
 40
0.0
 40
1.0
 40
1.0
 40
1.0
 40
2.0
 40
2.0
 40
2.0
 40
3.0
 40
3.0
 40
3.0
 40
4.0
 40
4.0
 40
4.0
 40
5.0
 40
5.0
 40
5.0
 40
6.0
 40
6.0
 40
6.0
 40
7.0
 40
7.0
 40
7.0
 40
7.0
 10
104.6234157724553
 20
-128.0810709315214
 10
104.6234157724553
 20
-128.0810709315214
 10
104.0126003429205
 20
-127.779625076562
 10
104.0126003429205
 20
-127.779625076562
 10
104.0126003429205
 20
-127.779625076562
 10
104.6957627776455
 20
-126.3946966914916
 10
104.6957627776455
 20
-126.3946966914916
 10
104.6957627776455
 20
-126.3946966914916
 10
105.295209392079
 20
-126.690285884126
 10
105.295209392079
 20
-126.690285884126
 10
105.4867567010589
 20
-126.7850260099704
 10
105.6297281636967
 20
-126.9782958666929
 10
105.5108723694556
 20
-127.2194525506604
 10
105.406141466704
 20
-127.4316704325518
 10
105.2280300301166
 20
-127.4240912224843
 10
105.1539604771837
 20
-127.420646126999
 10
105.2094265144963
 20
-127.4664658969528
 10
105.3878824606322
 20
-127.620806174692
 10
105.2531792271589
 20
-127.8940022466723
 10
105.1512044007955
 20
-128.1007079757873
 10
104.9138373218618
 20
-128.2243869037078
 10
104.6234157724553
 20
-128.0810709315214
 97
        0
 97
        0
 92
        1
 93
        1
 72
     4
 94
        3
 73
     0
 74
     1
 95
       20
 96
       16
 40
0.0
 40
0.0
 40
0.0
 40
0.0
 40
1.0
 40
1.0
 40
1.0
 40
2.0
 40
2.0
 40
2.0
 40
3.0
 40
3.0
 40
3.0
 40
4.0
 40
4.0
 40
4.0
 40
5.0
 40
5.0
 40
5.0
 40
5.0
 10
104.9083251690854
 20
-127.4361490566826
 10
104.9083251690854
 20
-127.4361490566826
 10
104.5345323089358
 20
-127.2518364482218
 10
104.5345323089358
 20
-127.2518364482218
 10
104.5345323089358
 20
-127.2518364482218
 10
104.316802274268
 20
-127.6941867085279
 10
104.316802274268
 20
-127.6941867085279
 10
104.316802274268
 20
-127.6941867085279
 10
104.6902506248691
 20
-127.8781548074402
 10
104.6902506248691
 20
-127.8781548074402
 10
104.8328775779585
 20
-127.9484347553393
 10
104.9713704164655
 20
-127.9153618386809
 10
105.0416503643646
 20
-127.7730793951401
 10
105.1026285544535
 20
-127.6497449767681
 10
105.0640434850187
 20
-127.5129746860037
 10
104.9083251690854
 20
-127.4361490566826
 97
        0
 97
        0
 92
        1
 93
        1
 72
     4
 94
        3
 73
     0
 74
     1
 95
       20
 96
       16
 40
0.0
 40
0.0
 40
0.0
 40
0.0
 40
1.0
 40
1.0
 40
1.0
 40
2.0
 40
2.0
 40
2.0
 40
3.0
 40
3.0
 40
3.0
 40
4.0
 40
4.0
 40
4.0
 40
5.0
 40
5.0
 40
5.0
 40
5.0
 10
105.1388020570486
 20
-126.8491047859961
 10
105.1388020570486
 20
-126.8491047859961
 10
104.8125515145955
 20
-126.6882188268349
 10
104.8125515145955
 20
-126.6882188268349
 10
104.8125515145955
 20
-126.6882188268349
 10
104.6282389061346
 20
-127.062356196533
 10
104.6282389061346
 20
-127.062356196533
 10
104.6282389061346
 20
-127.062356196533
 10
104.9544894485878
 20
-127.2232421556942
 10
104.9544894485878
 20
-127.2232421556942
 10
105.0798909242509
 20
-127.2849093648802
 10
105.2046033808169
 20
-127.2849093648802
 10
105.2728162714249
 20
-127.1464165263731
 10
105.3468858243577
 20
-126.9965548727648
 10
105.2431884502517
 20
-126.9004367087263
 10
105.1388020570486
 20
-126.8491047859961
 97
        0
 97
        0
 75
     2
 76
     1
 98
        0
  0
ENDBLK
  5
71
330
6E
100
AcDbEntity
  8
0
100
AcDbBlockEnd
  0
ENDSEC
  0
SECTION
  2
ENTITIES
  0
INSERT
  5
42
330
1F
100
AcDbEntity
  8
_U+30EC_U+30A4_U+30E4_U+30FC 1
100
AcDbBlockReference
  2
block 2
 10
0.0
 20
0.0
 30
0.0
  0
INSERT
  5
6F
330
1F
100
AcDbEntity
  8
_U+30EC_U+30A4_U+30E4_U+30FC 1
100
AcDbBlockReference
  2
block 3
 10
0.0
 20
0.0
 30
0.0
  0
SPLINE
  5
9B
330
1F
100
AcDbEntity
  8
_U+30EC_U+30A4_U+30E4_U+30FC 1
 62
   179
420
  2234388
370
    15
100
AcDbSpline
210
0.0
220
0.0
230
1.0
 70
     8
 71
     3
 72
     8
 73
     4
 74
     0
 42
0.0000000001
 43
0.0000000001
 12
1.0
 22
0.0
 32
0.0
 13
1.0
 23
0.0
 33
0.0
 40
0.0
 40
0.0
 40
0.0
 40
0.0
 40
1.0
 40
1.0
 40
1.0
 40
1.0
 10
74.35860393628731
 20
-131.5213410782307
 30
0.0
 10
74.08816449874234
 20
-133.2742233000149
 30
0.0
 10
74.99956586437945
 20
-134.8320899662918
 30
0.0
 10
76.45304554952031
 20
-135.1490255217682
 30
0.0
  0
SPLINE
  5
9C
330
1F
100
AcDbEntity
  8
_U+30EC_U+30A4_U+30E4_U+30FC 1
 62
   179
420
  2234388
370
    15
100
AcDbSpline
210
0.0
220
0.0
230
1.0
 70
     8
 71
     3
 72
     8
 73
     4
 74
     0
 42
0.0000000001
 43
0.0000000001
 12
1.0
 22
0.0
 32
0.0
 13
1.0
 23
0.0
 33
0.0
 40
0.0
 40
0.0
 40
0.0
 40
0.0
 40
1.0
 40
1.0
 40
1.0
 40
1.0
 10
107.9489741904367
 20
-131.5213410782307
 30
0.0
 10
108.2194136279816
 20
-133.2735177444594
 30
0.0
 10
107.3078358734601
 20
-134.8313844107363
 30
0.0
 10
105.8546736883112
 20
-135.1483552439908
 30
0.0
  0
POLYLINE
  5
9D
330
1F
100
AcDbEntity
  8
_U+30EC_U+30A4_U+30E4_U+30FC 1
 62
   179
420
  2234388
370
    15
100
AcDb2dPolyline
 66
     1
 10
0.0
 20
0.0
 30
0.0
  0
VERTEX
  5
9E
330
9D
100
AcDbEntity
  8
_U+30EC_U+30A4_U+30E4_U+30FC 1
 62
   179
420
  2234388
370
    15
100
AcDbVertex
100
AcDb2dVertex
 10
91.15378906336198
 20
-122.4259538582824
 30
0.0
  0
VERTEX
  5
9F
330
9D
100
AcDbEntity
  8
_U+30EC_U+30A4_U+30E4_U+30FC 1
 62
   179
420
  2234388
370
    15
100
AcDbVertex
100
AcDb2dVertex
 10
73.99926450101037
 20
-130.8991469117197
 30
0.0
  0
VERTEX
  5
A0
330
9D
100
AcDbEntity
  8
_U+30EC_U+30A4_U+30E4_U+30FC 1
 62
   179
420
  2234388
370
    15
100
AcDbVertex
100
AcDb2dVertex
 10
74.35860393628731
 20
-131.5213410782307
 30
0.0
  0
SEQEND
  5
A1
330
9D
100
AcDbEntity
  8
_U+30EC_U+30A4_U+30E4_U+30FC 1
 62
   179
420
  2234388
370
    15
  0
POLYLINE
  5
A2
330
1F
100
AcDbEntity
  8
_U+30EC_U+30A4_U+30E4_U+30FC 1
 62
   179
420
  2234388
370
    15
100
AcDb2dPolyline
 66
     1
 10
0.0
 20
0.0
 30
0.0
  0
VERTEX
  5
A3
330
A2
100
AcDbEntity
  8
_U+30EC_U+30A4_U+30E4_U+30FC 1
 62
   179
420
  2234388
370
    15
100
AcDbVertex
100
AcDb2dVertex
 10
91.15378906336198
 20
-122.4259538582824
 30
0.0
  0
VERTEX
  5
A4
330
A2
100
AcDbEntity
  8
_U+30EC_U+30A4_U+30E4_U+30FC 1
 62
   179
420
  2234388
370
    15
100
AcDbVertex
100
AcDb2dVertex
 10
108.3230950142254
 20
-130.9060613561623
 30
0.0
  0
VERTEX
  5
A5
330
A2
100
AcDbEntity
  8
_U+30EC_U+30A4_U+30E4_U+30FC 1
 62
   179
420
  2234388
370
    15
100
AcDbVertex
100
AcDb2dVertex
 10
107.9489741904367
 20
-131.5213410782307
 30
0.0
  0
SEQEND
  5
A6
330
A2
100
AcDbEntity
  8
_U+30EC_U+30A4_U+30E4_U+30FC 1
 62
   179
420
  2234388
370
    15
  0
POLYLINE
  5
A7
330
1F
100
AcDbEntity
  8
_U+30EC_U+30A4_U+30E4_U+30FC 1
 62
   179
420
  2234388
370
    15
100
AcDb2dPolyline
 66
     1
 10
0.0
 20
0.0
 30
0.0
  0
VERTEX
  5
A8
330
A7
100
AcDbEntity
  8
_U+30EC_U+30A4_U+30E4_U+30FC 1
 62
   179
420
  2234388
370
    15
100
AcDbVertex
100
AcDb2dVertex
 10
74.35860393628731
 20
-131.5213410782307
 30
0.0
  0
VERTEX
  5
A9
330
A7
100
AcDbEntity
  8
_U+30EC_U+30A4_U+30E4_U+30FC 1
 62
   179
420
  2234388
370
    15
100
AcDbVertex
100
AcDb2dVertex
 10
91.15378906336198
 20
-123.2259127469714
 30
0.0
  0
SEQEND
  5
AA
330
A7
100
AcDbEntity
  8
_U+30EC_U+30A4_U+30E4_U+30FC 1
 62
   179
420
  2234388
370
    15
  0
POLYLINE
  5
AB
330
1F
100
AcDbEntity
  8
_U+30EC_U+30A4_U+30E4_U+30FC 1
 62
   179
420
  2234388
370
    15
100
AcDb2dPolyline
 66
     1
 10
0.0
 20
0.0
 30
0.0
  0
VERTEX
  5
AC
330
AB
100
AcDbEntity
  8
_U+30EC_U+30A4_U+30E4_U+30FC 1
 62
   179
420
  2234388
370
    15
100
AcDbVertex
100
AcDb2dVertex
 10
91.15378906336198
 20
-123.2259127469714
 30
0.0
  0
VERTEX
  5
AD
330
AB
100
AcDbEntity
  8
_U+30EC_U+30A4_U+30E4_U+30FC 1
 62
   179
420
  2234388
370
    15
100
AcDbVertex
100
AcDb2dVertex
 10
107.9489741904367
 20
-131.5213410782307
 30
0.0
  0
SEQEND
  5
AE
330
AB
100
AcDbEntity
  8
_U+30EC_U+30A4_U+30E4_U+30FC 1
 62
   179
420
  2234388
370
    15
  0
POLYLINE
  5
AF
330
1F
100
AcDbEntity
  8
_U+30EC_U+30A4_U+30E4_U+30FC 1
 62
   179
420
  2234388
370
    15
100
AcDb2dPolyline
 66
     1
 10
0.0
 20
0.0
 30
0.0
  0
VERTEX
  5
B0
330
AF
100
AcDbEntity
  8
_U+30EC_U+30A4_U+30E4_U+30FC 1
 62
   179
420
  2234388
370
    15
100
AcDbVertex
100
AcDb2dVertex
 10
91.15378906336198
 20
-128.6877594122725
 30
0.0
  0
VERTEX
  5
B1
330
AF
100
AcDbEntity
  8
_U+30EC_U+30A4_U+30E4_U+30FC 1
 62
   179
420
  2234388
370
    15
100
AcDbVertex
100
AcDb2dVertex
 10
76.81234970702036
 20
-135.7712196882797
 30
0.0
  0
VERTEX
  5
B2
330
AF
100
AcDbEntity
  8
_U+30EC_U+30A4_U+30E4_U+30FC 1
 62
   179
420
  2234388
370
    15
100
AcDbVertex
100
AcDb2dVertex
 10
76.45304554952031
 20
-135.1490255217682
 30
0.0
  0
SEQEND
  5
B3
330
AF
100
AcDbEntity
  8
_U+30EC_U+30A4_U+30E4_U+30FC 1
 62
   179
420
  2234388
370
    15
  0
POLYLINE
  5
B4
330
1F
100
AcDbEntity
  8
_U+30EC_U+30A4_U+30E4_U+30FC 1
 62
   179
420
  2234388
370
    15
100
AcDb2dPolyline
 66
     1
 10
0.0
 20
0.0
 30
0.0
  0
VERTEX
  5
B5
330
B4
100
AcDbEntity
  8
_U+30EC_U+30A4_U+30E4_U+30FC 1
 62
   179
420
  2234388
370
    15
100
AcDbVertex
100
AcDb2dVertex
 10
91.15378906336198
 20
-128.6877594122725
 30
0.0
  0
VERTEX
  5
B6
330
B4
100
AcDbEntity
  8
_U+30EC_U+30A4_U+30E4_U+30FC 1
 62
   179
420
  2234388
370
    15
100
AcDbVertex
100
AcDb2dVertex
 10
105.4950194180704
 20
-135.7718899660571
 30
0.0
  0
VERTEX
  5
B7
330
B4
100
AcDbEntity
  8
_U+30EC_U+30A4_U+30E4_U+30FC 1
 62
   179
420
  2234388
370
    15
100
AcDbVertex
100
AcDb2dVertex
 10
105.8546736883112
 20
-135.1483552439908
 30
0.0
  0
SEQEND
  5
B8
330
B4
100
AcDbEntity
  8
_U+30EC_U+30A4_U+30E4_U+30FC 1
 62
   179
420
  2234388
370
    15
  0
POLYLINE
  5
B9
330
1F
100
AcDbEntity
  8
_U+30EC_U+30A4_U+30E4_U+30FC 1
 62
   179
420
  2234388
370
    15
100
AcDb2dPolyline
 66
     1
 10
0.0
 20
0.0
 30
0.0
  0
VERTEX
  5
BA
330
B9
100
AcDbEntity
  8
_U+30EC_U+30A4_U+30E4_U+30FC 1
 62
   179
420
  2234388
370
    15
100
AcDbVertex
100
AcDb2dVertex
 10
76.45304554952031
 20
-135.1490255217682
 30
0.0
  0
VERTEX
  5
BB
330
B9
100
AcDbEntity
  8
_U+30EC_U+30A4_U+30E4_U+30FC 1
 62
   179
420
  2234388
370
    15
100
AcDbVertex
100
AcDb2dVertex
 10
91.15378906336198
 20
-127.8878005235836
 30
0.0
  0
SEQEND
  5
BC
330
B9
100
AcDbEntity
  8
_U+30EC_U+30A4_U+30E4_U+30FC 1
 62
   179
420
  2234388
370
    15
  0
POLYLINE
  5
BD
330
1F
100
AcDbEntity
  8
_U+30EC_U+30A4_U+30E4_U+30FC 1
 62
   179
420
  2234388
370
    15
100
AcDb2dPolyline
 66
     1
 10
0.0
 20
0.0
 30
0.0
  0
VERTEX
  5
BE
330
BD
100
AcDbEntity
  8
_U+30EC_U+30A4_U+30E4_U+30FC 1
 62
   179
420
  2234388
370
    15
100
AcDbVertex
100
AcDb2dVertex
 10
91.15378906336198
 20
-127.8878005235836
 30
0.0
  0
VERTEX
  5
BF
330
BD
100
AcDbEntity
  8
_U+30EC_U+30A4_U+30E4_U+30FC 1
 62
   179
420
  2234388
370
    15
100
AcDbVertex
100
AcDb2dVertex
 10
105.8598595215122
 20
-135.1511069106566
 30
0.0
  0
SEQEND
  5
C0
330
BD
100
AcDbEntity
  8
_U+30EC_U+30A4_U+30E4_U+30FC 1
 62
   179
420
  2234388
370
    15
  0
POLYLINE
  5
C1
330
1F
100
AcDbEntity
  8
_U+30EC_U+30A4_U+30E4_U+30FC 1
 62
   179
420
  2234388
370
    15
100
AcDb2dPolyline
 66
     1
 10
0.0
 20
0.0
 30
0.0
  0
VERTEX
  5
C2
330
C1
100
AcDbEntity
  8
_U+30EC_U+30A4_U+30E4_U+30FC 1
 62
   179
420
  2234388
370
    15
100
AcDbVertex
100
AcDb2dVertex
 10
74.26628199419818
 20
-132.1669596891807
 30
0.0
  0
VERTEX
  5
C3
330
C1
100
AcDbEntity
  8
_U+30EC_U+30A4_U+30E4_U+30FC 1
 62
   179
420
  2234388
370
    15
100
AcDbVertex
100
AcDb2dVertex
 10
73.72970700788736
 20
-132.4322133002253
 30
0.0
  0
VERTEX
  5
C4
330
C1
100
AcDbEntity
  8
_U+30EC_U+30A4_U+30E4_U+30FC 1
 62
   179
420
  2234388
370
    15
100
AcDbVertex
100
AcDb2dVertex
 10
73.99926450101037
 20
-130.8991469117197
 30
0.0
  0
SEQEND
  5
C5
330
C1
100
AcDbEntity
  8
_U+30EC_U+30A4_U+30E4_U+30FC 1
 62
   179
420
  2234388
370
    15
  0
POLYLINE
  5
C6
330
1F
100
AcDbEntity
  8
_U+30EC_U+30A4_U+30E4_U+30FC 1
 62
   179
420
  2234388
370
    15
100
AcDb2dPolyline
 66
     1
 10
0.0
 20
0.0
 30
0.0
  0
VERTEX
  5
C7
330
C6
100
AcDbEntity
  8
_U+30EC_U+30A4_U+30E4_U+30FC 1
 62
   179
420
  2234388
370
    15
100
AcDbVertex
100
AcDb2dVertex
 10
108.0133914110155
 20
-132.1421594114087
 30
0.0
  0
VERTEX
  5
C8
330
C6
100
AcDbEntity
  8
_U+30EC_U+30A4_U+30E4_U+30FC 1
 62
   179
420
  2234388
370
    15
100
AcDbVertex
100
AcDb2dVertex
 10
108.5776947299522
 20
-132.4315430224479
 30
0.0
  0
VERTEX
  5
C9
330
C6
100
AcDbEntity
  8
_U+30EC_U+30A4_U+30E4_U+30FC 1
 62
   179
420
  2234388
370
    15
100
AcDbVertex
100
AcDb2dVertex
 10
108.3230950142254
 20
-130.9060613561623
 30
0.0
  0
SEQEND
  5
CA
330
C6
100
AcDbEntity
  8
_U+30EC_U+30A4_U+30E4_U+30FC 1
 62
   179
420
  2234388
370
    15
  0
POLYLINE
  5
CB
330
1F
100
AcDbEntity
  8
_U+30EC_U+30A4_U+30E4_U+30FC 1
 62
   179
420
  2234388
370
    15
100
AcDb2dPolyline
 66
     1
 10
0.0
 20
0.0
 30
0.0
  0
VERTEX
  5
CC
330
CB
100
AcDbEntity
  8
_U+30EC_U+30A4_U+30E4_U+30FC 1
 62
   179
420
  2234388
370
    15
100
AcDbVertex
100
AcDb2dVertex
 10
76.81234970702036
 20
-135.7712196882797
 30
0.0
  0
VERTEX
  5
CD
330
CB
100
AcDbEntity
  8
_U+30EC_U+30A4_U+30E4_U+30FC 1
 62
   179
420
  2234388
370
    15
100
AcDbVertex
100
AcDb2dVertex
 10
75.28513946820497
 20
-135.1263066328852
 30
0.0
  0
VERTEX
  5
CE
330
CB
100
AcDbEntity
  8
_U+30EC_U+30A4_U+30E4_U+30FC 1
 62
   179
420
  2234388
370
    15
100
AcDbVertex
100
AcDb2dVertex
 10
75.750947234099
 20
-134.8954841329428
 30
0.0
  0
SEQEND
  5
CF
330
CB
100
AcDbEntity
  8
_U+30EC_U+30A4_U+30E4_U+30FC 1
 62
   179
420
  2234388
370
    15
  0
POLYLINE
  5
D0
330
1F
100
AcDbEntity
  8
_U+30EC_U+30A4_U+30E4_U+30FC 1
 62
   179
420
  2234388
370
    15
100
AcDb2dPolyline
 66
     1
 10
0.0
 20
0.0
 30
0.0
  0
VERTEX
  5
D1
330
D0
100
AcDbEntity
  8
_U+30EC_U+30A4_U+30E4_U+30FC 1
 62
   179
420
  2234388
370
    15
100
AcDbVertex
100
AcDb2dVertex
 10
105.4950194180704
 20
-135.7718899660571
 30
0.0
  0
VERTEX
  5
D2
330
D0
100
AcDbEntity
  8
_U+30EC_U+30A4_U+30E4_U+30FC 1
 62
   179
420
  2234388
370
    15
100
AcDbVertex
100
AcDb2dVertex
 10
107.0225797696265
 20
-135.1263066328852
 30
0.0
  0
VERTEX
  5
D3
330
D0
100
AcDbEntity
  8
_U+30EC_U+30A4_U+30E4_U+30FC 1
 62
   179
420
  2234388
370
    15
100
AcDbVertex
100
AcDb2dVertex
 10
106.5437192262877
 20
-134.8837719107236
 30
0.0
  0
SEQEND
  5
D4
330
D0
100
AcDbEntity
  8
_U+30EC_U+30A4_U+30E4_U+30FC 1
 62
   179
420
  2234388
370
    15
  0
POLYLINE
  5
D5
330
1F
100
AcDbEntity
  8
_U+30EC_U+30A4_U+30E4_U+30FC 1
 62
   179
420
  2234388
370
    15
100
AcDb2dPolyline
 66
     1
 10
0.0
 20
0.0
 30
0.0
  0
VERTEX
  5
D6
330
D5
100
AcDbEntity
  8
_U+30EC_U+30A4_U+30E4_U+30FC 1
 62
   179
420
  2234388
370
    15
100
AcDbVertex
100
AcDb2dVertex
 10
91.15378906336198
 20
-128.6877594122725
 30
0.0
  0
VERTEX
  5
D7
330
D5
100
AcDbEntity
  8
_U+30EC_U+30A4_U+30E4_U+30FC 1
 62
   179
420
  2234388
370
    15
100
AcDbVertex
100
AcDb2dVertex
 10
91.15378906336198
 20
-122.4259538582824
 30
0.0
  0
SEQEND
  5
D8
330
D5
100
AcDbEntity
  8
_U+30EC_U+30A4_U+30E4_U+30FC 1
 62
   179
420
  2234388
370
    15
  0
ENDSEC
  0
SECTION
  2
OBJECTS
  0
DICTIONARY
  5
C
330
0
100
AcDbDictionary
281
     1
  3
ACAD_GROUP
350
D
  3
ACAD_LAYOUT
350
1A
  3
ACAD_MATERIAL
350
3B
  3
ACAD_MLEADERSTYLE
350
DA
  3
ACAD_MLINESTYLE
350
17
  3
ACAD_PLOTSETTINGS
350
19
  3
ACAD_PLOTSTYLENAME
350
E
  3
ACAD_TABLESTYLE
350
D9
  3
ACAD_VISUALSTYLE
350
2A
  0
SUN
  5
3F
330
29
100
AcDbSun
 90
        1
290
     0
 63
     7
421
 16777215
 40
1.0
291
     1
 91
  2455826
 92
 54000000
292
     0
 70
     2
 71
   256
280
     1
  0
DICTIONARY
  5
D
102
{ACAD_REACTORS
330
C
102
}
330
C
100
AcDbDictionary
281
     1
  0
DICTIONARY
  5
1A
102
{ACAD_REACTORS
330
C
102
}
330
C
100
AcDbDictionary
281
     1
  3
Layout1
350
1E
  3
Layout2
350
26
  3
Model
350
22
  0
DICTIONARY
  5
3B
102
{ACAD_REACTORS
330
C
102
}
330
C
100
AcDbDictionary
281
     1
  3
ByBlock
350
3D
  3
ByLayer
350
3C
  3
Global
350
3E
  0
DICTIONARY
  5
DA
102
{ACAD_REACTORS
330
C
102
}
330
C
100
AcDbDictionary
281
     1
  0
DICTIONARY
  5
17
102
{ACAD_REACTORS
330
C
102
}
330
C
100
AcDbDictionary
281
     1
  3
Standard
350
18
  0
DICTIONARY
  5
19
102
{ACAD_REACTORS
330
C
102
}
330
C
100
AcDbDictionary
281
     1
  0
ACDBDICTIONARYWDFLT
  5
E
102
{ACAD_REACTORS
330
C
102
}
330
C
100
AcDbDictionary
281
     1
  3
Normal
350
F
100
AcDbDictionaryWithDefault
340
F
  0
DICTIONARY
  5
D9
102
{ACAD_REACTORS
330
C
102
}
330
C
100
AcDbDictionary
281
     1
  0
DICTIONARY
  5
2A
102
{ACAD_REACTORS
330
C
102
}
330
C
100
AcDbDictionary
281
     1
  3
2dWireframe
350
2F
  3
3D Hidden
350
31
  3
3dWireframe
350
30
  3
Basic
350
32
  3
Brighten
350
36
  3
ColorChange
350
3A
  3
Conceptual
350
34
  3
Dim
350
35
  3
Facepattern
350
39
  3
Flat
350
2B
  3
FlatWithEdges
350
2C
  3
Gouraud
350
2D
  3
GouraudWithEdges
350
2E
  3
Linepattern
350
38
  3
Realistic
350
33
  3
Thicken
350
37
  0
LAYOUT
  5
1E
102
{ACAD_REACTORS
330
1A
102
}
330
1A
100
AcDbPlotSettings
  1

  2
none_device
  4

  6

 40
0.0
 41
0.0
 42
0.0
 43
0.0
 44
0.0
 45
0.0
 46
0.0
 47
0.0
 48
0.0
 49
0.0
140
0.0
141
0.0
142
1.0
143
1.0
 70
   688
 72
     0
 73
     0
 74
     5
  7

 75
    16
 76
     0
 77
     2
 78
   300
147
1.0
148
0.0
149
0.0
100
AcDbLayout
  1
Layout1
 70
     1
 71
     1
 10
0.0
 20
0.0
 11
12.0
 21
9.0
 12
0.0
 22
0.0
 32
0.0
 14
1.000000000000000E+20
 24
1.000000000000000E+20
 34
1.000000000000000E+20
 15
-1.000000000000000E+20
 25
-1.000000000000000E+20
 35
-1.000000000000000E+20
146
0.0
 13
0.0
 23
0.0
 33
0.0
 16
1.0
 26
0.0
 36
0.0
 17
0.0
 27
1.0
 37
0.0
 76
     0
330
1B
  0
LAYOUT
  5
26
102
{ACAD_REACTORS
330
1A
102
}
330
1A
100
AcDbPlotSettings
  1

  2
none_device
  4

  6

 40
0.0
 41
0.0
 42
0.0
 43
0.0
 44
0.0
 45
0.0
 46
0.0
 47
0.0
 48
0.0
 49
0.0
140
0.0
141
0.0
142
1.0
143
1.0
 70
   688
 72
     0
 73
     0
 74
     5
  7

 75
    16
 76
     0
 77
     2
 78
   300
147
1.0
148
0.0
149
0.0
100
AcDbLayout
  1
Layout2
 70
     1
 71
     2
 10
0.0
 20
0.0
 11
0.0
 21
0.0
 12
0.0
 22
0.0
 32
0.0
 14
0.0
 24
0.0
 34
0.0
 15
0.0
 25
0.0
 35
0.0
146
0.0
 13
0.0
 23
0.0
 33
0.0
 16
1.0
 26
0.0
 36
0.0
 17
0.0
 27
1.0
 37
0.0
 76
     0
330
23
  0
LAYOUT
  5
22
102
{ACAD_REACTORS
330
1A
102
}
330
1A
100
AcDbPlotSettings
  1

  2
none_device
  4

  6

 40
0.0
 41
0.0
 42
0.0
 43
0.0
 44
0.0
 45
0.0
 46
0.0
 47
0.0
 48
0.0
 49
0.0
140
0.0
141
0.0
142
1.0
143
1.0
 70
  1712
 72
     0
 73
     0
 74
     0
  7

 75
     0
 76
     0
 77
     2
 78
   300
147
1.0
148
0.0
149
0.0
100
AcDbLayout
  1
Model
 70
     1
 71
     0
 10
0.0
 20
0.0
 11
12.0
 21
9.0
 12
0.0
 22
0.0
 32
0.0
 14
1.000000000000000E+20
 24
1.000000000000000E+20
 34
1.000000000000000E+20
 15
-1.000000000000000E+20
 25
-1.000000000000000E+20
 35
-1.000000000000000E+20
146
0.0
 13
0.0
 23
0.0
 33
0.0
 16
1.0
 26
0.0
 36
0.0
 17
0.0
 27
1.0
 37
0.0
 76
     0
330
1F
331
29
  0
MATERIAL
  5
3D
102
{ACAD_REACTORS
330
3B
102
}
330
3B
100
AcDbMaterial
  1
ByBlock
 72
     1
 94
      127
  0
MATERIAL
  5
3C
102
{ACAD_REACTORS
330
3B
102
}
330
3B
100
AcDbMaterial
  1
ByLayer
 72
     1
 94
      127
  0
MATERIAL
  5
3E
102
{ACAD_REACTORS
330
3B
102
}
330
3B
100
AcDbMaterial
  1
Global
 72
     1
 94
      127
  0
MLINESTYLE
  5
18
102
{ACAD_REACTORS
330
17
102
}
330
17
100
AcDbMlineStyle
  2
Standard
 70
     0
  3

 62
   256
 51
90.0
 52
90.0
 71
     2
 49
0.5
 62
   256
  6
BYLAYER
 49
-0.5
 62
   256
  6
BYLAYER
  0
ACDBPLACEHOLDER
  5
F
102
{ACAD_REACTORS
330
E
102
}
330
E
  0
VISUALSTYLE
  5
2F
102
{ACAD_REACTORS
330
2A
102
}
330
2A
100
AcDbVisualStyle
  2
2dWireframe
 70
     4
177
     2
291
     0
 71
     0
176
     1
 72
     2
176
     1
 73
     0
176
     1
 90
        0
176
     1
 40
-0.6
176
     1
 41
-30.0
176
     1
 62
     5
 63
     7
421
 16777215
176
     1
 74
     1
176
     1
 91
        4
176
     1
 64
     7
176
     1
 65
   257
176
     1
 75
     1
176
     1
175
     1
176
     1
 42
1.0
176
     1
 92
        0
176
     1
 66
   257
176
     1
 43
1.0
176
     1
 76
     1
176
     1
 77
     6
176
     1
 78
     2
176
     1
 67
     7
176
     1
 79
     5
176
     1
170
     0
176
     1
171
     0
176
     1
290
     0
176
     1
 93
        1
176
     1
 44
0.0
176
     1
173
     0
176
     1
  0
VISUALSTYLE
  5
31
102
{ACAD_REACTORS
330
2A
102
}
330
2A
100
AcDbVisualStyle
  2
3D Hidden
 70
     6
177
     2
291
     0
 71
     1
176
     1
 72
     2
176
     1
 73
     2
176
     1
 90
        0
176
     1
 40
-0.6
176
     1
 41
-30.0
176
     1
 62
     5
 63
     7
421
 16777215
176
     1
 74
     2
176
     1
 91
        2
176
     1
 64
     7
176
     1
 65
   257
176
     1
 75
     2
176
     1
175
     1
176
     1
 42
40.0
176
     1
 92
        0
176
     1
 66
   257
176
     1
 43
1.0
176
     1
 76
     1
176
     1
 77
     6
176
     1
 78
     2
176
     1
 67
     7
176
     1
 79
     3
176
     1
170
     0
176
     1
171
     0
176
     1
290
     0
176
     1
 93
        1
176
     1
 44
0.0
176
     1
173
     0
176
     1
  0
VISUALSTYLE
  5
30
102
{ACAD_REACTORS
330
2A
102
}
330
2A
100
AcDbVisualStyle
  2
3dWireframe
 70
     5
177
     2
291
     0
 71
     0
176
     1
 72
     2
176
     1
 73
     0
176
     1
 90
        0
176
     1
 40
-0.6
176
     1
 41
-30.0
176
     1
 62
     5
 63
     7
421
 16777215
176
     1
 74
     1
176
     1
 91
        4
176
     1
 64
     7
176
     1
 65
   257
176
     1
 75
     1
176
     1
175
     1
176
     1
 42
1.0
176
     1
 92
        0
176
     1
 66
   257
176
     1
 43
1.0
176
     1
 76
     1
176
     1
 77
     6
176
     1
 78
     2
176
     1
 67
     7
176
     1
 79
     5
176
     1
170
     0
176
     1
171
     0
176
     1
290
     0
176
     1
 93
        1
176
     1
 44
0.0
176
     1
173
     0
176
     1
  0
VISUALSTYLE
  5
32
102
{ACAD_REACTORS
330
2A
102
}
330
2A
100
AcDbVisualStyle
  2
Basic
 70
     7
177
     2
291
     1
 71
     1
176
     1
 72
     0
176
     1
 73
     1
176
     1
 90
        0
176
     1
 40
-0.6
176
     1
 41
-30.0
176
     1
 62
     5
 63
     7
421
 16777215
176
     1
 74
     0
176
     1
 91
        4
176
     1
 64
     7
176
     1
 65
   257
176
     1
 75
     1
176
     1
175
     1
176
     1
 42
1.0
176
     1
 92
        8
176
     1
 66
     7
176
     1
 43
1.0
176
     1
 76
     1
176
     1
 77
     6
176
     1
 78
     2
176
     1
 67
     7
176
     1
 79
     5
176
     1
170
     0
176
     1
171
     0
176
     1
290
     0
176
     1
 93
        1
176
     1
 44
0.0
176
     1
173
     0
176
     1
  0
VISUALSTYLE
  5
36
102
{ACAD_REACTORS
330
2A
102
}
330
2A
100
AcDbVisualStyle
  2
Brighten
 70
    12
177
     2
291
     1
 71
     2
176
     1
 72
     2
176
     1
 73
     0
176
     1
 90
        0
176
     1
 40
-0.6
176
     1
 41
-30.0
176
     1
 62
     5
 63
     7
421
 16777215
176
     1
 74
     1
176
     1
 91
        4
176
     1
 64
     7
176
     1
 65
   257
176
     1
 75
     1
176
     1
175
     1
176
     1
 42
1.0
176
     1
 92
        8
176
     1
 66
     7
176
     1
 43
1.0
176
     1
 76
     1
176
     1
 77
     6
176
     1
 78
     2
176
     1
 67
     7
176
     1
 79
     5
176
     1
170
     0
176
     1
171
     0
176
     1
290
     0
176
     1
 93
        1
176
     1
 44
50.0
176
     1
173
     0
176
     1
  0
VISUALSTYLE
  5
3A
102
{ACAD_REACTORS
330
2A
102
}
330
2A
100
AcDbVisualStyle
  2
ColorChange
 70
    16
177
     2
291
     1
 71
     2
176
     1
 72
     2
176
     1
 73
     3
176
     1
 90
        0
176
     1
 40
-0.6
176
     1
 41
-30.0
176
     1
 62
     5
 63
     8
421
  8421504
176
     1
 74
     1
176
     1
 91
        4
176
     1
 64
     7
176
     1
 65
   257
176
     1
 75
     1
176
     1
175
     1
176
     1
 42
1.0
176
     1
 92
        8
176
     1
 66
     8
424
  8421504
176
     1
 43
1.0
176
     1
 76
     1
176
     1
 77
     6
176
     1
 78
     2
176
     1
 67
     7
176
     1
 79
     5
176
     1
170
     0
176
     1
171
     0
176
     1
290
     0
176
     1
 93
        1
176
     1
 44
0.0
176
     1
173
     0
176
     1
  0
VISUALSTYLE
  5
34
102
{ACAD_REACTORS
330
2A
102
}
330
2A
100
AcDbVisualStyle
  2
Conceptual
 70
     9
177
     2
291
     0
 71
     3
176
     1
 72
     2
176
     1
 73
     0
176
     1
 90
        0
176
     1
 40
-0.6
176
     1
 41
-30.0
176
     1
 62
     5
 63
     7
421
 16777215
176
     1
 74
     2
176
     1
 91
        2
176
     1
 64
     7
176
     1
 65
   257
176
     1
 75
     1
176
     1
175
     1
176
     1
 42
40.0
176
     1
 92
        8
176
     1
 66
     7
176
     1
 43
1.0
176
     1
 76
     1
176
     1
 77
     6
176
     1
 78
     2
176
     1
 67
     7
176
     1
 79
     3
176
     1
170
     0
176
     1
171
     0
176
     1
290
     0
176
     1
 93
        1
176
     1
 44
0.0
176
     1
173
     0
176
     1
  0
VISUALSTYLE
  5
35
102
{ACAD_REACTORS
330
2A
102
}
330
2A
100
AcDbVisualStyle
  2
Dim
 70
    11
177
     2
291
     1
 71
     2
176
     1
 72
     2
176
     1
 73
     0
176
     1
 90
        0
176
     1
 40
-0.6
176
     1
 41
-30.0
176
     1
 62
     5
 63
     7
421
 16777215
176
     1
 74
     1
176
     1
 91
        4
176
     1
 64
     7
176
     1
 65
   257
176
     1
 75
     1
176
     1
175
     1
176
     1
 42
1.0
176
     1
 92
        8
176
     1
 66
     7
176
     1
 43
1.0
176
     1
 76
     1
176
     1
 77
     6
176
     1
 78
     2
176
     1
 67
     7
176
     1
 79
     5
176
     1
170
     0
176
     1
171
     0
176
     1
290
     0
176
     1
 93
        1
176
     1
 44
-50.0
176
     1
173
     0
176
     1
  0
VISUALSTYLE
  5
39
102
{ACAD_REACTORS
330
2A
102
}
330
2A
100
AcDbVisualStyle
  2
Facepattern
 70
    15
177
     2
291
     1
 71
     2
176
     1
 72
     2
176
     1
 73
     0
176
     1
 90
        0
176
     1
 40
-0.6
176
     1
 41
-30.0
176
     1
 62
     5
 63
     7
421
 16777215
176
     1
 74
     1
176
     1
 91
        4
176
     1
 64
     7
176
     1
 65
   257
176
     1
 75
     1
176
     1
175
     1
176
     1
 42
1.0
176
     1
 92
        8
176
     1
 66
     7
176
     1
 43
1.0
176
     1
 76
     1
176
     1
 77
     6
176
     1
 78
     2
176
     1
 67
     7
176
     1
 79
     5
176
     1
170
     0
176
     1
171
     0
176
     1
290
     0
176
     1
 93
        1
176
     1
 44
0.0
176
     1
173
     0
176
     1
  0
VISUALSTYLE
  5
2B
102
{ACAD_REACTORS
330
2A
102
}
330
2A
100
AcDbVisualStyle
  2
Flat
 70
     0
177
     2
291
     1
 71
     2
176
     1
 72
     1
176
     1
 73
     1
176
     1
 90
        2
176
     1
 40
-0.6
176
     1
 41
30.0
176
     1
 62
     5
 63
     7
421
 16777215
176
     1
 74
     0
176
     1
 91
        4
176
     1
 64
     7
176
     1
 65
   257
176
     1
 75
     1
176
     1
175
     1
176
     1
 42
1.0
176
     1
 92
        8
176
     1
 66
     7
176
     1
 43
1.0
176
     1
 76
     1
176
     1
 77
     6
176
     1
 78
     2
176
     1
 67
     7
176
     1
 79
     5
176
     1
170
     0
176
     1
171
     0
176
     1
290
     0
176
     1
 93
       13
176
     1
 44
0.0
176
     1
173
     0
176
     1
  0
VISUALSTYLE
  5
2C
102
{ACAD_REACTORS
330
2A
102
}
330
2A
100
AcDbVisualStyle
  2
FlatWithEdges
 70
     1
177
     2
291
     1
 71
     2
176
     1
 72
     1
176
     1
 73
     1
176
     1
 90
        2
176
     1
 40
-0.6
176
     1
 41
30.0
176
     1
 62
     5
 63
     7
421
 16777215
176
     1
 74
     1
176
     1
 91
        4
176
     1
 64
     7
176
     1
 65
   257
176
     1
 75
     1
176
     1
175
     1
176
     1
 42
1.0
176
     1
 92
        0
176
     1
 66
   257
176
     1
 43
1.0
176
     1
 76
     1
176
     1
 77
     6
176
     1
 78
     2
176
     1
 67
     7
176
     1
 79
     5
176
     1
170
     0
176
     1
171
     0
176
     1
290
     0
176
     1
 93
       13
176
     1
 44
0.0
176
     1
173
     0
176
     1
  0
VISUALSTYLE
  5
2D
102
{ACAD_REACTORS
330
2A
102
}
330
2A
100
AcDbVisualStyle
  2
Gouraud
 70
     2
177
     2
291
     1
 71
     2
176
     1
 72
     2
176
     1
 73
     1
176
     1
 90
        2
176
     1
 40
-0.6
176
     1
 41
30.0
176
     1
 62
     5
 63
     7
421
 16777215
176
     1
 74
     0
176
     1
 91
        4
176
     1
 64
     7
176
     1
 65
   257
176
     1
 75
     1
176
     1
175
     1
176
     1
 42
1.0
176
     1
 92
        0
176
     1
 66
     7
176
     1
 43
1.0
176
     1
 76
     1
176
     1
 77
     6
176
     1
 78
     2
176
     1
 67
     7
176
     1
 79
     5
176
     1
170
     0
176
     1
171
     0
176
     1
290
     0
176
     1
 93
       13
176
     1
 44
0.0
176
     1
173
     0
176
     1
  0
VISUALSTYLE
  5
2E
102
{ACAD_REACTORS
330
2A
102
}
330
2A
100
AcDbVisualStyle
  2
GouraudWithEdges
 70
     3
177
     2
291
     1
 71
     2
176
     1
 72
     2
176
     1
 73
     1
176
     1
 90
        2
176
     1
 40
-0.6
176
     1
 41
30.0
176
     1
 62
     5
 63
     7
421
 16777215
176
     1
 74
     1
176
     1
 91
        4
176
     1
 64
     7
176
     1
 65
   257
176
     1
 75
     1
176
     1
175
     1
176
     1
 42
1.0
176
     1
 92
        0
176
     1
 66
   257
176
     1
 43
1.0
176
     1
 76
     1
176
     1
 77
     6
176
     1
 78
     2
176
     1
 67
     7
176
     1
 79
     5
176
     1
170
     0
176
     1
171
     0
176
     1
290
     0
176
     1
 93
       13
176
     1
 44
0.0
176
     1
173
     0
176
     1
  0
VISUALSTYLE
  5
38
102
{ACAD_REACTORS
330
2A
102
}
330
2A
100
AcDbVisualStyle
  2
Linepattern
 70
    14
177
     2
291
     1
 71
     2
176
     1
 72
     2
176
     1
 73
     0
176
     1
 90
        0
176
     1
 40
-0.6
176
     1
 41
-30.0
176
     1
 62
     5
 63
     7
421
 16777215
176
     1
 74
     1
176
     1
 91
        4
176
     1
 64
     7
176
     1
 65
   257
176
     1
 75
     7
176
     1
175
     7
176
     1
 42
1.0
176
     1
 92
        8
176
     1
 66
     7
176
     1
 43
1.0
176
     1
 76
     1
176
     1
 77
     6
176
     1
 78
     2
176
     1
 67
     7
176
     1
 79
     5
176
     1
170
     0
176
     1
171
     0
176
     1
290
     0
176
     1
 93
        1
176
     1
 44
0.0
176
     1
173
     0
176
     1
  0
VISUALSTYLE
  5
33
102
{ACAD_REACTORS
330
2A
102
}
330
2A
100
AcDbVisualStyle
  2
Realistic
 70
     8
177
     2
291
     0
 71
     2
176
     1
 72
     2
176
     1
 73
     0
176
     1
 90
        0
176
     1
 40
-0.6
176
     1
 41
-30.0
176
     1
 62
     5
 63
     7
421
 16777215
176
     1
 74
     1
176
     1
 91
        0
176
     1
 64
     7
176
     1
 65
   257
176
     1
 75
     1
176
     1
175
     1
176
     1
 42
1.0
176
     1
 92
        8
176
     1
 66
     8
424
  7895160
176
     1
 43
1.0
176
     1
 76
     1
176
     1
 77
     6
176
     1
 78
     2
176
     1
 67
     7
176
     1
 79
     5
176
     1
170
     0
176
     1
171
     0
176
     1
290
     0
176
     1
 93
       13
176
     1
 44
0.0
176
     1
173
     0
176
     1
  0
VISUALSTYLE
  5
37
102
{ACAD_REACTORS
330
2A
102
}
330
2A
100
AcDbVisualStyle
  2
Thicken
 70
    13
177
     2
291
     1
 71
     2
176
     1
 72
     2
176
     1
 73
     0
176
     1
 90
        0
176
     1
 40
-0.6
176
     1
 41
-30.0
176
     1
 62
     5
 63
     7
421
 16777215
176
     1
 74
     1
176
     1
 91
        4
176
     1
 64
     7
176
     1
 65
   257
176
     1
 75
     1
176
     1
175
     1
176
     1
 42
1.0
176
     1
 92
       12
176
     1
 66
     7
176
     1
 43
1.0
176
     1
 76
     1
176
     1
 77
     6
176
     1
 78
     2
176
     1
 67
     7
176
     1
 79
     5
176
     1
170
     0
176
     1
171
     0
176
     1
290
     0
176
     1
 93
        1
176
     1
 44
0.0
176
     1
173
     0
176
     1
  0
ENDSEC
  0
EOF
