  0
SECTION
  2
HEADER
  9
$ACADVER
  1
AC1024
  9
$ACADMAINTVER
 70
     6
  9
$DWGCODEPAGE
  3
UNDEFINED
  9
$INSBASE
 10
0.0
 20
0.0
 30
0.0
  9
$EXTMIN
 10
1.000000000000000E+20
 20
1.000000000000000E+20
 30
1.000000000000000E+20
  9
$EXTMAX
 10
-1.000000000000000E+20
 20
-1.000000000000000E+20
 30
-1.000000000000000E+20
  9
$LIMMIN
 10
0.0
 20
0.0
  9
$LIMMAX
 10
12.0
 20
9.0
  9
$ORTHOMODE
 70
     0
  9
$REGENMODE
 70
     1
  9
$FILLMODE
 70
     1
  9
$QTEXTMODE
 70
     0
  9
$MIRRTEXT
 70
     1
  9
$LTSCALE
 40
1.0
  9
$ATTMODE
 70
     1
  9
$TEXTSIZE
 40
0.2
  9
$TRACEWID
 40
0.05
  9
$TEXTSTYLE
  7
Standard
  9
$CLAYER
  8
0
  9
$CELTYPE
  6
ByLayer
  9
$CECOLOR
 62
   256
  9
$CELTSCALE
 40
1.0
  9
$DISPSILH
 70
     0
  9
$DIMSCALE
 40
1.0
  9
$DIMASZ
 40
0.18
  9
$DIMEXO
 40
0.0625
  9
$DIMDLI
 40
0.38
  9
$DIMRND
 40
0.0
  9
$DIMDLE
 40
0.0
  9
$DIMEXE
 40
0.18
  9
$DIMTP
 40
0.0
  9
$DIMTM
 40
0.0
  9
$DIMTXT
 40
0.18
  9
$DIMCEN
 40
0.09
  9
$DIMTSZ
 40
0.0
  9
$DIMTOL
 70
     0
  9
$DIMLIM
 70
     0
  9
$DIMTIH
 70
     1
  9
$DIMTOH
 70
     1
  9
$DIMSE1
 70
     0
  9
$DIMSE2
 70
     0
  9
$DIMTAD
 70
     0
  9
$DIMZIN
 70
     0
  9
$DIMBLK
  1

  9
$DIMASO
 70
     1
  9
$DIMSHO
 70
     1
  9
$DIMPOST
  1

  9
$DIMAPOST
  1

  9
$DIMALT
 70
     0
  9
$DIMALTD
 70
     2
  9
$DIMALTF
 40
25.4
  9
$DIMLFAC
 40
1.0
  9
$DIMTOFL
 70
     0
  9
$DIMTVP
 40
0.0
  9
$DIMTIX
 70
     0
  9
$DIMSOXD
 70
     0
  9
$DIMSAH
 70
     0
  9
$DIMBLK1
  1

  9
$DIMBLK2
  1

  9
$DIMSTYLE
  2
Standard
  9
$DIMCLRD
 70
     0
  9
$DIMCLRE
 70
     0
  9
$DIMCLRT
 70
     0
  9
$DIMTFAC
 40
1.0
  9
$DIMGAP
 40
0.09
  9
$DIMJUST
 70
     0
  9
$DIMSD1
 70
     0
  9
$DIMSD2
 70
     0
  9
$DIMTOLJ
 70
     1
  9
$DIMTZIN
 70
     0
  9
$DIMALTZ
 70
     0
  9
$DIMALTTZ
 70
     0
  9
$DIMUPT
 70
     0
  9
$DIMDEC
 70
     4
  9
$DIMTDEC
 70
     4
  9
$DIMALTU
 70
     2
  9
$DIMALTTD
 70
     2
  9
$DIMTXSTY
  7
Standard
  9
$DIMAUNIT
 70
     0
  9
$DIMADEC
 70
     0
  9
$DIMALTRND
 40
0.0
  9
$DIMAZIN
 70
     0
  9
$DIMDSEP
 70
    46
  9
$DIMATFIT
 70
     3
  9
$DIMFRAC
 70
     0
  9
$DIMLDRBLK
  1

  9
$DIMLUNIT
 70
     2
  9
$DIMLWD
 70
    -2
  9
$DIMLWE
 70
    -2
  9
$DIMTMOVE
 70
     0
  9
$DIMFXL
 40
1.0
  9
$DIMFXLON
 70
     0
  9
$DIMJOGANG
 40
0.7853981633974483
  9
$DIMTFILL
 70
     0
  9
$DIMTFILLCLR
 70
     0
  9
$DIMARCSYM
 70
     0
  9
$DIMLTYPE
  6

  9
$DIMLTEX1
  6

  9
$DIMLTEX2
  6

  9
$DIMTXTDIRECTION
 70
     0
  9
$LUNITS
 70
     2
  9
$LUPREC
 70
     4
  9
$SKETCHINC
 40
0.1
  9
$FILLETRAD
 40
0.5
  9
$AUNITS
 70
     0
  9
$AUPREC
 70
     0
  9
$MENU
  1
.
  9
$ELEVATION
 40
0.0
  9
$PELEVATION
 40
0.0
  9
$THICKNESS
 40
0.0
  9
$LIMCHECK
 70
     0
  9
$CHAMFERA
 40
0.5
  9
$CHAMFERB
 40
0.5
  9
$CHAMFERC
 40
1.0
  9
$CHAMFERD
 40
0.0
  9
$SKPOLY
 70
     0
  9
$TDCREATE
 40
2457917.611550914
  9
$TDUCREATE
 40
2457917.236550926
  9
$TDUPDATE
 40
2457917.611550914
  9
$TDUUPDATE
 40
2457917.236550926
  9
$TDINDWG
 40
0.0000000116
  9
$TDUSRTIMER
 40
0.0000000116
  9
$USRTIMER
 70
     1
  9
$ANGBASE
 50
0.0
  9
$ANGDIR
 70
     0
  9
$PDMODE
 70
     0
  9
$PDSIZE
 40
0.0
  9
$PLINEWID
 40
0.0
  9
$SPLFRAME
 70
     0
  9
$SPLINETYPE
 70
     6
  9
$SPLINESEGS
 70
     8
  9
$HANDSEED
  5
103
  9
$SURFTAB1
 70
     6
  9
$SURFTAB2
 70
     6
  9
$SURFTYPE
 70
     6
  9
$SURFU
 70
     6
  9
$SURFV
 70
     6
  9
$UCSBASE
  2

  9
$UCSNAME
  2

  9
$UCSORG
 10
0.0
 20
0.0
 30
0.0
  9
$UCSXDIR
 10
1.0
 20
0.0
 30
0.0
  9
$UCSYDIR
 10
0.0
 20
1.0
 30
0.0
  9
$UCSORTHOREF
  2

  9
$UCSORTHOVIEW
 70
     0
  9
$UCSORGTOP
 10
0.0
 20
0.0
 30
0.0
  9
$UCSORGBOTTOM
 10
0.0
 20
0.0
 30
0.0
  9
$UCSORGLEFT
 10
0.0
 20
0.0
 30
0.0
  9
$UCSORGRIGHT
 10
0.0
 20
0.0
 30
0.0
  9
$UCSORGFRONT
 10
0.0
 20
0.0
 30
0.0
  9
$UCSORGBACK
 10
0.0
 20
0.0
 30
0.0
  9
$PUCSBASE
  2

  9
$PUCSNAME
  2

  9
$PUCSORG
 10
0.0
 20
0.0
 30
0.0
  9
$PUCSXDIR
 10
1.0
 20
0.0
 30
0.0
  9
$PUCSYDIR
 10
0.0
 20
1.0
 30
0.0
  9
$PUCSORTHOREF
  2

  9
$PUCSORTHOVIEW
 70
     0
  9
$PUCSORGTOP
 10
0.0
 20
0.0
 30
0.0
  9
$PUCSORGBOTTOM
 10
0.0
 20
0.0
 30
0.0
  9
$PUCSORGLEFT
 10
0.0
 20
0.0
 30
0.0
  9
$PUCSORGRIGHT
 10
0.0
 20
0.0
 30
0.0
  9
$PUCSORGFRONT
 10
0.0
 20
0.0
 30
0.0
  9
$PUCSORGBACK
 10
0.0
 20
0.0
 30
0.0
  9
$USERI1
 70
     0
  9
$USERI2
 70
     0
  9
$USERI3
 70
     0
  9
$USERI4
 70
     0
  9
$USERI5
 70
     0
  9
$USERR1
 40
0.0
  9
$USERR2
 40
0.0
  9
$USERR3
 40
0.0
  9
$USERR4
 40
0.0
  9
$USERR5
 40
0.0
  9
$WORLDVIEW
 70
     1
  9
$SHADEDGE
 70
     3
  9
$SHADEDIF
 70
    70
  9
$TILEMODE
 70
     1
  9
$MAXACTVP
 70
    64
  9
$PINSBASE
 10
0.0
 20
0.0
 30
0.0
  9
$PLIMCHECK
 70
     0
  9
$PEXTMIN
 10
1.000000000000000E+20
 20
1.000000000000000E+20
 30
1.000000000000000E+20
  9
$PEXTMAX
 10
-1.000000000000000E+20
 20
-1.000000000000000E+20
 30
-1.000000000000000E+20
  9
$PLIMMIN
 10
0.0
 20
0.0
  9
$PLIMMAX
 10
12.0
 20
9.0
  9
$UNITMODE
 70
     0
  9
$VISRETAIN
 70
     1
  9
$PLINEGEN
 70
     0
  9
$PSLTSCALE
 70
     1
  9
$TREEDEPTH
 70
  3020
  9
$CMLSTYLE
  2
Standard
  9
$CMLJUST
 70
     0
  9
$CMLSCALE
 40
1.0
  9
$PROXYGRAPHICS
 70
     1
  9
$MEASUREMENT
 70
     0
  9
$CELWEIGHT
370
    -1
  9
$ENDCAPS
280
     0
  9
$JOINSTYLE
280
     0
  9
$LWDISPLAY
290
     1
  9
$INSUNITS
 70
     1
  9
$HYPERLINKBASE
  1

  9
$STYLESHEET
  1

  9
$XEDIT
290
     1
  9
$CEPSNTYPE
380
     0
  9
$PSTYLEMODE
290
     1
  9
$FINGERPRINTGUID
  2
{2BA6F6BC-DD54-9EE4-A44B-2C554EA4976F}
  9
$VERSIONGUID
  2
{FAEB1C32-E019-11D5-929B-00C0DF256EC4}
  9
$EXTNAMES
290
     1
  9
$PSVPSCALE
 40
0.0
  9
$OLESTARTUP
290
     0
  9
$SORTENTS
280
   127
  9
$INDEXCTL
280
     0
  9
$HIDETEXT
280
     1
  9
$XCLIPFRAME
280
     2
  9
$HALOGAP
280
     0
  9
$OBSCOLOR
 70
   257
  9
$OBSLTYPE
280
     0
  9
$INTERSECTIONDISPLAY
280
     0
  9
$INTERSECTIONCOLOR
 70
   257
  9
$DIMASSOC
280
     2
  9
$PROJECTNAME
  1

  9
$CAMERADISPLAY
290
     0
  9
$LENSLENGTH
 40
50.0
  9
$CAMERAHEIGHT
 40
0.0
  9
$STEPSPERSEC
 40
2.0
  9
$STEPSIZE
 40
6.0
  9
$3DDWFPREC
 40
2.0
  9
$PSOLWIDTH
 40
0.25
  9
$PSOLHEIGHT
 40
4.0
  9
$LOFTANG1
 40
1.570796326794897
  9
$LOFTANG2
 40
1.570796326794897
  9
$LOFTMAG1
 40
0.0
  9
$LOFTMAG2
 40
0.0
  9
$LOFTPARAM
 70
     7
  9
$LOFTNORMALS
280
     1
  9
$LATITUDE
 40
37.795
  9
$LONGITUDE
 40
-122.394
  9
$NORTHDIRECTION
 40
0.0
  9
$TIMEZONE
 70
 -8000
  9
$LIGHTGLYPHDISPLAY
280
     1
  9
$TILEMODELIGHTSYNCH
280
     1
  9
$CMATERIAL
347
3C
  9
$SOLIDHIST
280
     1
  9
$SHOWHIST
280
     1
  9
$DWFFRAME
280
     2
  9
$DGNFRAME
280
     2
  9
$REALWORLDSCALE
290
     1
  9
$INTERFERECOLOR
 62
   256
  9
$CSHADOW
280
     0
  9
$SHADOWPLANELOCATION
 40
0.0
  0
ENDSEC
  0
SECTION
  2
CLASSES
  0
CLASS
  1
ACDBDICTIONARYWDFLT
  2
AcDbDictionaryWithDefault
  3
ObjectDBX Classes
 90
        0
 91
        4
280
     0
281
     0
  0
CLASS
  1
VISUALSTYLE
  2
AcDbVisualStyle
  3
ObjectDBX Classes
 90
     4095
 91
        4
280
     0
281
     0
  0
CLASS
  1
MATERIAL
  2
AcDbMaterial
  3
ObjectDBX Classes
 90
     1153
 91
        4
280
     0
281
     0
  0
CLASS
  1
SUN
  2
AcDbSun
  3
SCENEOE
 90
     1024
 91
        4
280
     0
281
     0
  0
ENDSEC
  0
SECTION
  2
TABLES
  0
TABLE
  2
VPORT
  5
8
330
0
100
AcDbSymbolTable
 70
     1
  0
VPORT
  5
29
330
8
100
AcDbSymbolTableRecord
100
AcDbViewportTableRecord
  2
*Active
 70
     0
 10
0.0
 20
0.0
 11
1.0
 21
1.0
 12
0.0
 22
0.0
 13
0.0
 23
0.0
 14
0.5
 24
0.5
 15
0.5
 25
0.5
 16
0.0
 26
0.0
 36
1.0
 17
91.00082462281999
 27
-128.4993055234307
 37
0.0
 40
256.9986110468615
 41
0.7081814508812795
 42
50.0
 43
0.0
 44
0.0
 50
0.0
 51
0.0
 71
     0
 72
   100
 73
     1
 74
     3
 75
     0
 76
     0
 77
     0
 78
     0
281
     0
 65
     1
110
0.0
120
0.0
130
0.0
111
1.0
121
0.0
131
0.0
112
0.0
122
1.0
132
0.0
 79
     0
146
0.0
 60
     3
 61
     5
292
     1
282
     1
141
0.0
142
0.0
 63
   250
361
3F
  0
ENDTAB
  0
TABLE
  2
LTYPE
  5
5
330
0
100
AcDbSymbolTable
 70
     1
  0
LTYPE
  5
14
330
5
100
AcDbSymbolTableRecord
100
AcDbLinetypeTableRecord
  2
ByBlock
 70
     0
  3

 72
    65
 73
     0
 40
0.0
  0
LTYPE
  5
15
330
5
100
AcDbSymbolTableRecord
100
AcDbLinetypeTableRecord
  2
ByLayer
 70
     0
  3

 72
    65
 73
     0
 40
0.0
  0
LTYPE
  5
16
330
5
100
AcDbSymbolTableRecord
100
AcDbLinetypeTableRecord
  2
Continuous
 70
     0
  3
Solid line
 72
    65
 73
     0
 40
0.0
  0
ENDTAB
  0
TABLE
  2
LAYER
  5
2
330
0
100
AcDbSymbolTable
 70
     2
  0
LAYER
  5
10
330
2
100
AcDbSymbolTableRecord
100
AcDbLayerTableRecord
  2
0
 70
     0
 62
     7
  6
Continuous
370
    -3
390
F
347
3E
  0
LAYER
  5
40
330
2
100
AcDbSymbolTableRecord
100
AcDbLayerTableRecord
  2
_U+30EC_U+30A4_U+30E4_U+30FC 1
 70
     0
 62
     7
  6
Continuous
370
    -3
390
F
347
3E
  0
ENDTAB
  0
TABLE
  2
STYLE
  5
3
330
0
100
AcDbSymbolTable
 70
     1
  0
STYLE
  5
11
330
3
100
AcDbSymbolTableRecord
100
AcDbTextStyleTableRecord
  2
Standard
 70
     0
 40
0.0
 41
1.0
 50
0.0
 71
     0
 42
0.2
  3
txt
  4

  0
ENDTAB
  0
TABLE
  2
VIEW
  5
6
330
0
100
AcDbSymbolTable
 70
     0
  0
ENDTAB
  0
TABLE
  2
UCS
  5
7
330
0
100
AcDbSymbolTable
 70
     0
  0
ENDTAB
  0
TABLE
  2
APPID
  5
9
330
0
100
AcDbSymbolTable
 70
     1
  0
APPID
  5
12
330
9
100
AcDbSymbolTableRecord
100
AcDbRegAppTableRecord
  2
ACAD
 70
     0
  0
ENDTAB
  0
TABLE
  2
DIMSTYLE
  5
A
330
0
100
AcDbSymbolTable
 70
     1
100
AcDbDimStyleTable
  0
DIMSTYLE
105
27
330
A
100
AcDbSymbolTableRecord
100
AcDbDimStyleTableRecord
  2
Standard
 70
     0
178
     0
340
11
  0
ENDTAB
  0
TABLE
  2
BLOCK_RECORD
  5
1
330
0
100
AcDbSymbolTable
 70
     3
  0
BLOCK_RECORD
  5
1F
330
1
100
AcDbSymbolTableRecord
100
AcDbBlockTableRecord
  2
*Model_Space
340
22
 70
     0
280
     1
281
     0
  0
BLOCK_RECORD
  5
1B
330
1
100
AcDbSymbolTableRecord
100
AcDbBlockTableRecord
  2
*Paper_Space
340
1E
 70
     0
280
     1
281
     0
  0
BLOCK_RECORD
  5
23
330
1
100
AcDbSymbolTableRecord
100
AcDbBlockTableRecord
  2
*Paper_Space0
340
26
 70
     0
280
     1
281
     0
  0
BLOCK_RECORD
  5
41
330
1
100
AcDbSymbolTableRecord
100
AcDbBlockTableRecord
  2
block 2
340
0
102
{BLKREFS
331
42
102
}
 70
     0
280
     1
281
     0
  0
BLOCK_RECORD
  5
82
330
1
100
AcDbSymbolTableRecord
100
AcDbBlockTableRecord
  2
block 3
340
0
102
{BLKREFS
331
83
102
}
 70
     0
280
     1
281
     0
  0
ENDTAB
  0
ENDSEC
  0
SECTION
  2
BLOCKS
  0
BLOCK
  5
20
330
1F
100
AcDbEntity
  8
0
100
AcDbBlockBegin
  2
*Model_Space
 70
     0
 10
0.0
 20
0.0
 30
0.0
  3
*Model_Space
  1

  0
ENDBLK
  5
21
330
1F
100
AcDbEntity
  8
0
100
AcDbBlockEnd
  0
BLOCK
  5
1C
330
1B
100
AcDbEntity
 67
     1
  8
0
100
AcDbBlockBegin
  2
*Paper_Space
 70
     0
 10
0.0
 20
0.0
 30
0.0
  3
*Paper_Space
  1

  0
ENDBLK
  5
1D
330
1B
100
AcDbEntity
 67
     1
  8
0
100
AcDbBlockEnd
  0
BLOCK
  5
24
330
23
100
AcDbEntity
  8
0
100
AcDbBlockBegin
  2
*Paper_Space0
 70
     0
 10
0.0
 20
0.0
 30
0.0
  3
*Paper_Space0
  1

  0
ENDBLK
  5
25
330
23
100
AcDbEntity
  8
0
100
AcDbBlockEnd
  0
BLOCK
  5
43
330
41
100
AcDbEntity
  8
0
100
AcDbBlockBegin
  2
block 2
 70
     0
 10
0.0
 20
0.0
 30
0.0
  3
block 2
  1

  0
SPLINE
  5
45
330
41
100
AcDbEntity
  8
_U+30EC_U+30A4_U+30E4_U+30FC 1
370
     0
100
AcDbSpline
210
0.0
220
0.0
230
1.0
 70
    11
 71
     3
 72
    38
 73
    34
 74
     0
 42
0.0000000001
 43
0.0000000001
 12
1.0
 22
0.0
 32
0.0
 13
1.0
 23
0.0
 33
0.0
 40
0.0
 40
0.0
 40
0.0
 40
0.0
 40
1.0
 40
1.0
 40
1.0
 40
2.0
 40
2.0
 40
2.0
 40
3.0
 40
3.0
 40
3.0
 40
4.0
 40
4.0
 40
4.0
 40
5.0
 40
5.0
 40
5.0
 40
6.0
 40
6.0
 40
6.0
 40
7.0
 40
7.0
 40
7.0
 40
8.0
 40
8.0
 40
8.0
 40
9.0
 40
9.0
 40
9.0
 40
10.0
 40
10.0
 40
10.0
 40
11.0
 40
11.0
 40
11.0
 40
11.0
 10
97.91615937222235
 20
-134.3094590593046
 30
0.0
 10
97.49861379941008
 20
-134.515131259774
 30
0.0
 10
97.09105900350502
 20
-134.3108370974987
 30
0.0
 10
96.88331974574446
 20
-133.8895019196526
 30
0.0
 10
96.6511203100386
 20
-133.4189018763675
 30
0.0
 10
96.83233233256276
 20
-133.0110025709139
 30
0.0
 10
97.19854598264482
 20
-132.8304795674868
 30
0.0
 10
97.50791555722024
 20
-132.6782063470388
 30
0.0
 10
97.8396782524498
 20
-132.7243706265411
 30
0.0
 10
97.99918617341687
 20
-132.9996337558126
 30
0.0
 10
97.99918617341687
 20
-132.9996337558126
 30
0.0
 10
97.79213593475336
 20
-133.101608582176
 30
0.0
 10
97.79213593475336
 20
-133.101608582176
 30
0.0
 10
97.66638994954174
 20
-132.9324543938502
 30
0.0
 10
97.43246796609327
 20
-132.9558810431499
 30
0.0
 10
97.2881184652613
 20
-133.0268500101461
 30
0.0
 10
97.19510088715957
 20
-133.0726697800999
 30
0.0
 10
97.10518389499454
 20
-133.1529405049062
 30
0.0
 10
97.05523001045842
 20
-133.2624945413372
 30
0.0
 10
96.96703556603602
 20
-133.4471516593466
 30
0.0
 10
97.03593747574102
 20
-133.6538573884615
 30
0.0
 10
97.10621742364012
 20
-133.7961398320024
 30
0.0
 10
97.30086531855673
 20
-134.1906032650635
 30
0.0
 10
97.62229272733055
 20
-134.211273837975
 30
0.0
 10
97.81590709360158
 20
-134.1161892025821
 30
0.0
 10
97.93924151197352
 20
-134.0552110124931
 30
0.0
 10
98.14663626018557
 20
-133.8633191939647
 30
0.0
 10
98.03467065691495
 20
-133.5642849058451
 30
0.0
 10
98.03467065691495
 20
-133.5642849058451
 30
0.0
 10
98.24137638602994
 20
-133.4623100794817
 30
0.0
 10
98.24137638602994
 20
-133.4623100794817
 30
0.0
 10
98.28995223237196
 20
-133.5894341028874
 30
0.0
 10
98.4587619111492
 20
-134.0417751401007
 30
0.0
 10
97.91615937222235
 20
-134.3094590593046
 30
0.0
  0
HATCH
  5
46
330
41
100
AcDbEntity
  8
_U+30EC_U+30A4_U+30E4_U+30FC 1
 62
   179
420
  2234388
100
AcDbHatch
 10
0.0
 20
0.0
 30
0.0
210
0.0
220
0.0
230
1.0
  2
SOLID
 70
     1
 71
     0
 91
        1
 92
        1
 93
        1
 72
     4
 94
        3
 73
     0
 74
     1
 95
       38
 96
       34
 40
0.0
 40
0.0
 40
0.0
 40
0.0
 40
1.0
 40
1.0
 40
1.0
 40
2.0
 40
2.0
 40
2.0
 40
3.0
 40
3.0
 40
3.0
 40
4.0
 40
4.0
 40
4.0
 40
5.0
 40
5.0
 40
5.0
 40
6.0
 40
6.0
 40
6.0
 40
7.0
 40
7.0
 40
7.0
 40
8.0
 40
8.0
 40
8.0
 40
9.0
 40
9.0
 40
9.0
 40
10.0
 40
10.0
 40
10.0
 40
11.0
 40
11.0
 40
11.0
 40
11.0
 10
97.91615937222235
 20
-134.3094590593046
 10
97.49861379941008
 20
-134.515131259774
 10
97.09105900350502
 20
-134.3108370974987
 10
96.88331974574446
 20
-133.8895019196526
 10
96.6511203100386
 20
-133.4189018763675
 10
96.83233233256276
 20
-133.0110025709139
 10
97.19854598264482
 20
-132.8304795674868
 10
97.50791555722024
 20
-132.6782063470388
 10
97.8396782524498
 20
-132.7243706265411
 10
97.99918617341687
 20
-132.9996337558126
 10
97.99918617341687
 20
-132.9996337558126
 10
97.79213593475336
 20
-133.101608582176
 10
97.79213593475336
 20
-133.101608582176
 10
97.66638994954174
 20
-132.9324543938502
 10
97.43246796609327
 20
-132.9558810431499
 10
97.2881184652613
 20
-133.0268500101461
 10
97.19510088715957
 20
-133.0726697800999
 10
97.10518389499454
 20
-133.1529405049062
 10
97.05523001045842
 20
-133.2624945413372
 10
96.96703556603602
 20
-133.4471516593466
 10
97.03593747574102
 20
-133.6538573884615
 10
97.10621742364012
 20
-133.7961398320024
 10
97.30086531855673
 20
-134.1906032650635
 10
97.62229272733055
 20
-134.211273837975
 10
97.81590709360158
 20
-134.1161892025821
 10
97.93924151197352
 20
-134.0552110124931
 10
98.14663626018557
 20
-133.8633191939647
 10
98.03467065691495
 20
-133.5642849058451
 10
98.03467065691495
 20
-133.5642849058451
 10
98.24137638602994
 20
-133.4623100794817
 10
98.24137638602994
 20
-133.4623100794817
 10
98.28995223237196
 20
-133.5894341028874
 10
98.4587619111492
 20
-134.0417751401007
 10
97.91615937222235
 20
-134.3094590593046
 97
        0
 97
        0
 75
     2
 76
     1
 98
        0
  0
SPLINE
  5
47
330
41
100
AcDbEntity
  8
_U+30EC_U+30A4_U+30E4_U+30FC 1
370
     0
100
AcDbSpline
210
0.0
220
0.0
230
1.0
 70
    11
 71
     3
 72
    44
 73
    40
 74
     0
 42
0.0000000001
 43
0.0000000001
 12
1.0
 22
0.0
 32
0.0
 13
1.0
 23
0.0
 33
0.0
 40
0.0
 40
0.0
 40
0.0
 40
0.0
 40
1.0
 40
1.0
 40
1.0
 40
2.0
 40
2.0
 40
2.0
 40
3.0
 40
3.0
 40
3.0
 40
4.0
 40
4.0
 40
4.0
 40
5.0
 40
5.0
 40
5.0
 40
6.0
 40
6.0
 40
6.0
 40
7.0
 40
7.0
 40
7.0
 40
8.0
 40
8.0
 40
8.0
 40
9.0
 40
9.0
 40
9.0
 40
10.0
 40
10.0
 40
10.0
 40
11.0
 40
11.0
 40
11.0
 40
12.0
 40
12.0
 40
12.0
 40
13.0
 40
13.0
 40
13.0
 40
13.0
 10
99.57531735791868
 20
-133.4347493155996
 30
0.0
 10
99.53466523119273
 20
-133.4051214944265
 30
0.0
 10
99.49263506627268
 20
-133.3672254440887
 30
0.0
 10
99.38859318261814
 20
-133.1612087340708
 30
0.0
 10
99.27731659844457
 20
-132.9448567375971
 30
0.0
 10
99.19325626860447
 20
-132.9083387254535
 30
0.0
 10
99.0337483476374
 20
-132.9868869025172
 30
0.0
 10
99.0337483476374
 20
-132.9868869025172
 30
0.0
 10
98.66753469755534
 20
-133.1674099059443
 30
0.0
 10
98.66753469755534
 20
-133.1674099059443
 30
0.0
 10
98.66753469755534
 20
-133.1674099059443
 30
0.0
 10
98.9510660559914
 20
-133.7423963424325
 30
0.0
 10
98.9510660559914
 20
-133.7423963424325
 30
0.0
 10
98.9510660559914
 20
-133.7423963424325
 30
0.0
 10
98.74057072184264
 20
-133.846438226087
 30
0.0
 10
98.74057072184264
 20
-133.846438226087
 30
0.0
 10
98.74057072184264
 20
-133.846438226087
 30
0.0
 10
98.0574082871176
 20
-132.461165331468
 30
0.0
 10
98.0574082871176
 20
-132.461165331468
 30
0.0
 10
98.0574082871176
 20
-132.461165331468
 30
0.0
 10
98.66271156387599
 20
-132.1628200624454
 30
0.0
 10
98.66271156387599
 20
-132.1628200624454
 30
0.0
 10
98.93763018359893
 20
-132.0270833003266
 30
0.0
 10
99.16362844743132
 20
-132.1070095155844
 30
0.0
 10
99.27662757934752
 20
-132.336452874902
 30
0.0
 10
99.29936520955016
 20
-132.3819281353073
 30
0.0
 10
99.32830401162626
 20
-132.459787293274
 30
0.0
 10
99.32382538749543
 20
-132.5514268331816
 30
0.0
 10
99.31659068697641
 20
-132.6706271369712
 30
0.0
 10
99.26629229289176
 20
-132.7167914164736
 30
0.0
 10
99.21874997519532
 20
-132.7591660909422
 30
0.0
 10
99.3606879091876
 20
-132.736083951191
 30
0.0
 10
99.44268118173656
 20
-132.749864333132
 30
0.0
 10
99.58599715392295
 20
-133.0306396151798
 30
0.0
 10
99.70967608184341
 20
-133.2714517895988
 30
0.0
 10
99.75584036134576
 20
-133.2841986428942
 30
0.0
 10
99.84093421983144
 20
-133.3038356871602
 30
0.0
 10
99.84093421983144
 20
-133.3038356871602
 30
0.0
 10
99.57531735791868
 20
-133.4347493155996
 30
0.0
 10
99.57531735791868
 20
-133.4347493155996
 30
0.0
  0
SPLINE
  5
48
330
41
100
AcDbEntity
  8
_U+30EC_U+30A4_U+30E4_U+30FC 1
370
     0
100
AcDbSpline
210
0.0
220
0.0
230
1.0
 70
    11
 71
     3
 72
    20
 73
    16
 74
     0
 42
0.0000000001
 43
0.0000000001
 12
1.0
 22
0.0
 32
0.0
 13
1.0
 23
0.0
 33
0.0
 40
0.0
 40
0.0
 40
0.0
 40
0.0
 40
1.0
 40
1.0
 40
1.0
 40
2.0
 40
2.0
 40
2.0
 40
3.0
 40
3.0
 40
3.0
 40
4.0
 40
4.0
 40
4.0
 40
5.0
 40
5.0
 40
5.0
 40
5.0
 10
98.76020776610856
 20
-132.3505777663915
 30
0.0
 10
98.76020776610856
 20
-132.3505777663915
 30
0.0
 10
98.36161021846516
 20
-132.5469482090508
 30
0.0
 10
98.36161021846516
 20
-132.5469482090508
 30
0.0
 10
98.36161021846516
 20
-132.5469482090508
 30
0.0
 10
98.57417260990508
 20
-132.9779296542555
 30
0.0
 10
98.57417260990508
 20
-132.9779296542555
 30
0.0
 10
98.57417260990508
 20
-132.9779296542555
 30
0.0
 10
98.97070310025732
 20
-132.7822482306933
 30
0.0
 10
98.97070310025732
 20
-132.7822482306933
 30
0.0
 10
99.0599310733253
 20
-132.7381510084821
 30
0.0
 10
99.14778100819917
 20
-132.6099934564308
 30
0.0
 10
99.07198890752368
 20
-132.4566867073372
 30
0.0
 10
99.03719344312265
 20
-132.3864067594381
 30
0.0
 10
98.93831920269598
 20
-132.2627278315177
 30
0.0
 10
98.76020776610856
 20
-132.3505777663915
 30
0.0
  0
HATCH
  5
49
330
41
100
AcDbEntity
  8
_U+30EC_U+30A4_U+30E4_U+30FC 1
 62
   179
420
  2234388
100
AcDbHatch
 10
0.0
 20
0.0
 30
0.0
210
0.0
220
0.0
230
1.0
  2
SOLID
 70
     1
 71
     0
 91
        2
 92
        1
 93
        1
 72
     4
 94
        3
 73
     0
 74
     1
 95
       44
 96
       40
 40
0.0
 40
0.0
 40
0.0
 40
0.0
 40
1.0
 40
1.0
 40
1.0
 40
2.0
 40
2.0
 40
2.0
 40
3.0
 40
3.0
 40
3.0
 40
4.0
 40
4.0
 40
4.0
 40
5.0
 40
5.0
 40
5.0
 40
6.0
 40
6.0
 40
6.0
 40
7.0
 40
7.0
 40
7.0
 40
8.0
 40
8.0
 40
8.0
 40
9.0
 40
9.0
 40
9.0
 40
10.0
 40
10.0
 40
10.0
 40
11.0
 40
11.0
 40
11.0
 40
12.0
 40
12.0
 40
12.0
 40
13.0
 40
13.0
 40
13.0
 40
13.0
 10
99.57531735791868
 20
-133.4347493155996
 10
99.53466523119273
 20
-133.4051214944265
 10
99.49263506627268
 20
-133.3672254440887
 10
99.38859318261814
 20
-133.1612087340708
 10
99.27731659844457
 20
-132.9448567375971
 10
99.19325626860447
 20
-132.9083387254535
 10
99.0337483476374
 20
-132.9868869025172
 10
99.0337483476374
 20
-132.9868869025172
 10
98.66753469755534
 20
-133.1674099059443
 10
98.66753469755534
 20
-133.1674099059443
 10
98.66753469755534
 20
-133.1674099059443
 10
98.9510660559914
 20
-133.7423963424325
 10
98.9510660559914
 20
-133.7423963424325
 10
98.9510660559914
 20
-133.7423963424325
 10
98.74057072184264
 20
-133.846438226087
 10
98.74057072184264
 20
-133.846438226087
 10
98.74057072184264
 20
-133.846438226087
 10
98.0574082871176
 20
-132.461165331468
 10
98.0574082871176
 20
-132.461165331468
 10
98.0574082871176
 20
-132.461165331468
 10
98.66271156387599
 20
-132.1628200624454
 10
98.66271156387599
 20
-132.1628200624454
 10
98.93763018359893
 20
-132.0270833003266
 10
99.16362844743132
 20
-132.1070095155844
 10
99.27662757934752
 20
-132.336452874902
 10
99.29936520955016
 20
-132.3819281353073
 10
99.32830401162626
 20
-132.459787293274
 10
99.32382538749543
 20
-132.5514268331816
 10
99.31659068697641
 20
-132.6706271369712
 10
99.26629229289176
 20
-132.7167914164736
 10
99.21874997519532
 20
-132.7591660909422
 10
99.3606879091876
 20
-132.736083951191
 10
99.44268118173656
 20
-132.749864333132
 10
99.58599715392295
 20
-133.0306396151798
 10
99.70967608184341
 20
-133.2714517895988
 10
99.75584036134576
 20
-133.2841986428942
 10
99.84093421983144
 20
-133.3038356871602
 10
99.84093421983144
 20
-133.3038356871602
 10
99.57531735791868
 20
-133.4347493155996
 10
99.57531735791868
 20
-133.4347493155996
 97
        0
 97
        0
 92
        1
 93
        1
 72
     4
 94
        3
 73
     0
 74
     1
 95
       20
 96
       16
 40
0.0
 40
0.0
 40
0.0
 40
0.0
 40
1.0
 40
1.0
 40
1.0
 40
2.0
 40
2.0
 40
2.0
 40
3.0
 40
3.0
 40
3.0
 40
4.0
 40
4.0
 40
4.0
 40
5.0
 40
5.0
 40
5.0
 40
5.0
 10
98.76020776610856
 20
-132.3505777663915
 10
98.76020776610856
 20
-132.3505777663915
 10
98.36161021846516
 20
-132.5469482090508
 10
98.36161021846516
 20
-132.5469482090508
 10
98.36161021846516
 20
-132.5469482090508
 10
98.57417260990508
 20
-132.9779296542555
 10
98.57417260990508
 20
-132.9779296542555
 10
98.57417260990508
 20
-132.9779296542555
 10
98.97070310025732
 20
-132.7822482306933
 10
98.97070310025732
 20
-132.7822482306933
 10
99.0599310733253
 20
-132.7381510084821
 10
99.14778100819917
 20
-132.6099934564308
 10
99.07198890752368
 20
-132.4566867073372
 10
99.03719344312265
 20
-132.3864067594381
 10
98.93831920269598
 20
-132.2627278315177
 10
98.76020776610856
 20
-132.3505777663915
 97
        0
 97
        0
 75
     2
 76
     1
 98
        0
  0
SPLINE
  5
4A
330
41
100
AcDbEntity
  8
_U+30EC_U+30A4_U+30E4_U+30FC 1
370
     0
100
AcDbSpline
210
0.0
220
0.0
230
1.0
 70
    11
 71
     3
 72
    26
 73
    22
 74
     0
 42
0.0000000001
 43
0.0000000001
 12
1.0
 22
0.0
 32
0.0
 13
1.0
 23
0.0
 33
0.0
 40
0.0
 40
0.0
 40
0.0
 40
0.0
 40
1.0
 40
1.0
 40
1.0
 40
2.0
 40
2.0
 40
2.0
 40
3.0
 40
3.0
 40
3.0
 40
4.0
 40
4.0
 40
4.0
 40
5.0
 40
5.0
 40
5.0
 40
6.0
 40
6.0
 40
6.0
 40
7.0
 40
7.0
 40
7.0
 40
7.0
 10
100.3845702874039
 20
-132.3326632698682
 30
0.0
 10
100.3845702874039
 20
-132.3326632698682
 30
0.0
 10
99.97873803924143
 20
-132.5328233175613
 30
0.0
 10
99.97873803924143
 20
-132.5328233175613
 30
0.0
 10
99.97873803924143
 20
-132.5328233175613
 30
0.0
 10
100.2574462639981
 20
-133.0985079962393
 30
0.0
 10
100.2574462639981
 20
-133.0985079962393
 30
0.0
 10
100.2574462639981
 20
-133.0985079962393
 30
0.0
 10
100.0466064203008
 20
-133.2022053703453
 30
0.0
 10
100.0466064203008
 20
-133.2022053703453
 30
0.0
 10
100.0466064203008
 20
-133.2022053703453
 30
0.0
 10
99.36344398557581
 20
-131.8169324757263
 30
0.0
 10
99.36344398557581
 20
-131.8169324757263
 30
0.0
 10
99.36344398557581
 20
-131.8169324757263
 30
0.0
 10
99.98011607743553
 20
-131.5130750539273
 30
0.0
 10
99.98011607743553
 20
-131.5130750539273
 30
0.0
 10
100.2384982388293
 20
-131.3856065209731
 30
0.0
 10
100.4944688333833
 20
-131.4410725582856
 30
0.0
 10
100.6264159904684
 20
-131.7087564774895
 30
0.0
 10
100.7359700268994
 20
-131.9306206267396
 30
0.0
 10
100.6822265373294
 20
-132.1859022021966
 30
0.0
 10
100.3845702874039
 20
-132.3326632698682
 30
0.0
  0
SPLINE
  5
4B
330
41
100
AcDbEntity
  8
_U+30EC_U+30A4_U+30E4_U+30FC 1
370
     0
100
AcDbSpline
210
0.0
220
0.0
230
1.0
 70
    11
 71
     3
 72
    20
 73
    16
 74
     0
 42
0.0000000001
 43
0.0000000001
 12
1.0
 22
0.0
 32
0.0
 13
1.0
 23
0.0
 33
0.0
 40
0.0
 40
0.0
 40
0.0
 40
0.0
 40
1.0
 40
1.0
 40
1.0
 40
2.0
 40
2.0
 40
2.0
 40
3.0
 40
3.0
 40
3.0
 40
4.0
 40
4.0
 40
4.0
 40
5.0
 40
5.0
 40
5.0
 40
5.0
 10
100.0662434645668
 20
-131.7063449106498
 30
0.0
 10
100.0662434645668
 20
-131.7063449106498
 30
0.0
 10
99.6679904264719
 20
-131.9030598628576
 30
0.0
 10
99.6679904264719
 20
-131.9030598628576
 30
0.0
 10
99.6679904264719
 20
-131.9030598628576
 30
0.0
 10
99.88503144204263
 20
-132.3433430658725
 30
0.0
 10
99.88503144204263
 20
-132.3433430658725
 30
0.0
 10
99.88503144204263
 20
-132.3433430658725
 30
0.0
 10
100.2832844801375
 20
-132.1466281136647
 30
0.0
 10
100.2832844801375
 20
-132.1466281136647
 30
0.0
 10
100.4334906432944
 20
-132.0729030702804
 30
0.0
 10
100.4662190504043
 20
-131.9388888559042
 30
0.0
 10
100.4045518412183
 20
-131.8134873802411
 30
0.0
 10
100.3539089375851
 20
-131.7108235347806
 30
0.0
 10
100.235053143344
 20
-131.6233181094553
 30
0.0
 10
100.0662434645668
 20
-131.7063449106498
 30
0.0
  0
HATCH
  5
4C
330
41
100
AcDbEntity
  8
_U+30EC_U+30A4_U+30E4_U+30FC 1
 62
   179
420
  2234388
100
AcDbHatch
 10
0.0
 20
0.0
 30
0.0
210
0.0
220
0.0
230
1.0
  2
SOLID
 70
     1
 71
     0
 91
        2
 92
        1
 93
        1
 72
     4
 94
        3
 73
     0
 74
     1
 95
       26
 96
       22
 40
0.0
 40
0.0
 40
0.0
 40
0.0
 40
1.0
 40
1.0
 40
1.0
 40
2.0
 40
2.0
 40
2.0
 40
3.0
 40
3.0
 40
3.0
 40
4.0
 40
4.0
 40
4.0
 40
5.0
 40
5.0
 40
5.0
 40
6.0
 40
6.0
 40
6.0
 40
7.0
 40
7.0
 40
7.0
 40
7.0
 10
100.3845702874039
 20
-132.3326632698682
 10
100.3845702874039
 20
-132.3326632698682
 10
99.97873803924143
 20
-132.5328233175613
 10
99.97873803924143
 20
-132.5328233175613
 10
99.97873803924143
 20
-132.5328233175613
 10
100.2574462639981
 20
-133.0985079962393
 10
100.2574462639981
 20
-133.0985079962393
 10
100.2574462639981
 20
-133.0985079962393
 10
100.0466064203008
 20
-133.2022053703453
 10
100.0466064203008
 20
-133.2022053703453
 10
100.0466064203008
 20
-133.2022053703453
 10
99.36344398557581
 20
-131.8169324757263
 10
99.36344398557581
 20
-131.8169324757263
 10
99.36344398557581
 20
-131.8169324757263
 10
99.98011607743553
 20
-131.5130750539273
 10
99.98011607743553
 20
-131.5130750539273
 10
100.2384982388293
 20
-131.3856065209731
 10
100.4944688333833
 20
-131.4410725582856
 10
100.6264159904684
 20
-131.7087564774895
 10
100.7359700268994
 20
-131.9306206267396
 10
100.6822265373294
 20
-132.1859022021966
 10
100.3845702874039
 20
-132.3326632698682
 97
        0
 97
        0
 92
        1
 93
        1
 72
     4
 94
        3
 73
     0
 74
     1
 95
       20
 96
       16
 40
0.0
 40
0.0
 40
0.0
 40
0.0
 40
1.0
 40
1.0
 40
1.0
 40
2.0
 40
2.0
 40
2.0
 40
3.0
 40
3.0
 40
3.0
 40
4.0
 40
4.0
 40
4.0
 40
5.0
 40
5.0
 40
5.0
 40
5.0
 10
100.0662434645668
 20
-131.7063449106498
 10
100.0662434645668
 20
-131.7063449106498
 10
99.6679904264719
 20
-131.9030598628576
 10
99.6679904264719
 20
-131.9030598628576
 10
99.6679904264719
 20
-131.9030598628576
 10
99.88503144204263
 20
-132.3433430658725
 10
99.88503144204263
 20
-132.3433430658725
 10
99.88503144204263
 20
-132.3433430658725
 10
100.2832844801375
 20
-132.1466281136647
 10
100.2832844801375
 20
-132.1466281136647
 10
100.4334906432944
 20
-132.0729030702804
 10
100.4662190504043
 20
-131.9388888559042
 10
100.4045518412183
 20
-131.8134873802411
 10
100.3539089375851
 20
-131.7108235347806
 10
100.235053143344
 20
-131.6233181094553
 10
100.0662434645668
 20
-131.7063449106498
 97
        0
 97
        0
 75
     2
 76
     1
 98
        0
  0
POLYLINE
  5
4D
330
41
100
AcDbEntity
  8
_U+30EC_U+30A4_U+30E4_U+30FC 1
370
     0
100
AcDb2dPolyline
 66
     1
 10
0.0
 20
0.0
 30
0.0
  0
VERTEX
  5
4E
330
4D
100
AcDbEntity
  8
_U+30EC_U+30A4_U+30E4_U+30FC 1
370
     0
100
AcDbVertex
100
AcDb2dVertex
 10
101.0263915763059
 20
-132.2213866856947
 30
0.0
  0
VERTEX
  5
4F
330
4D
100
AcDbEntity
  8
_U+30EC_U+30A4_U+30E4_U+30FC 1
370
     0
100
AcDbVertex
100
AcDb2dVertex
 10
100.9309624313645
 20
-132.0281168289721
 30
0.0
  0
VERTEX
  5
50
330
4D
100
AcDbEntity
  8
_U+30EC_U+30A4_U+30E4_U+30FC 1
370
     0
100
AcDbVertex
100
AcDb2dVertex
 10
101.4563394928651
 20
-131.7687011389328
 30
0.0
  0
VERTEX
  5
51
330
4D
100
AcDbEntity
  8
_U+30EC_U+30A4_U+30E4_U+30FC 1
370
     0
100
AcDbVertex
100
AcDb2dVertex
 10
101.5517686378065
 20
-131.9623155052039
 30
0.0
  0
VERTEX
  5
52
330
4D
100
AcDbEntity
  8
_U+30EC_U+30A4_U+30E4_U+30FC 1
370
     0
100
AcDbVertex
100
AcDb2dVertex
 10
101.0263915763059
 20
-132.2213866856947
 30
0.0
  0
SEQEND
  5
53
330
4D
100
AcDbEntity
  8
_U+30EC_U+30A4_U+30E4_U+30FC 1
370
     0
  0
HATCH
  5
54
330
41
100
AcDbEntity
  8
_U+30EC_U+30A4_U+30E4_U+30FC 1
 62
   179
420
  2234388
100
AcDbHatch
 10
0.0
 20
0.0
 30
0.0
210
0.0
220
0.0
230
1.0
  2
SOLID
 70
     1
 71
     0
 91
        1
 92
        1
 93
        4
 72
     1
 10
101.0263915763059
 20
-132.2213866856947
 11
100.9309624313645
 21
-132.0281168289721
 72
     1
 10
100.9309624313645
 20
-132.0281168289721
 11
101.4563394928651
 21
-131.7687011389328
 72
     1
 10
101.4563394928651
 20
-131.7687011389328
 11
101.5517686378065
 21
-131.9623155052039
 72
     1
 10
101.5517686378065
 20
-131.9623155052039
 11
101.0263915763059
 21
-132.2213866856947
 97
        0
 75
     2
 76
     1
 98
        0
  0
SPLINE
  5
55
330
41
100
AcDbEntity
  8
_U+30EC_U+30A4_U+30E4_U+30FC 1
370
     0
100
AcDbSpline
210
0.0
220
0.0
230
1.0
 70
    11
 71
     3
 72
    62
 73
    58
 74
     0
 42
0.0000000001
 43
0.0000000001
 12
1.0
 22
0.0
 32
0.0
 13
1.0
 23
0.0
 33
0.0
 40
0.0
 40
0.0
 40
0.0
 40
0.0
 40
1.0
 40
1.0
 40
1.0
 40
2.0
 40
2.0
 40
2.0
 40
3.0
 40
3.0
 40
3.0
 40
4.0
 40
4.0
 40
4.0
 40
5.0
 40
5.0
 40
5.0
 40
6.0
 40
6.0
 40
6.0
 40
7.0
 40
7.0
 40
7.0
 40
8.0
 40
8.0
 40
8.0
 40
9.0
 40
9.0
 40
9.0
 40
10.0
 40
10.0
 40
10.0
 40
11.0
 40
11.0
 40
11.0
 40
12.0
 40
12.0
 40
12.0
 40
13.0
 40
13.0
 40
13.0
 40
14.0
 40
14.0
 40
14.0
 40
15.0
 40
15.0
 40
15.0
 40
16.0
 40
16.0
 40
16.0
 40
17.0
 40
17.0
 40
17.0
 40
18.0
 40
18.0
 40
18.0
 40
19.0
 40
19.0
 40
19.0
 40
19.0
 10
102.3279486506333
 20
-132.1338812603693
 30
0.0
 10
102.2425102825991
 20
-132.1759114252894
 30
0.0
 10
102.0375271012267
 20
-132.2534260737075
 30
0.0
 10
101.8435682254072
 20
-132.1418049799854
 30
0.0
 10
101.7274685075542
 20
-132.073936598926
 30
0.0
 10
101.6799261898578
 20
-131.9867756831491
 30
0.0
 10
101.6385850440348
 20
-131.9123616206678
 30
0.0
 10
101.6385850440348
 20
-131.9123616206678
 30
0.0
 10
101.8359890153396
 20
-131.8152099279837
 30
0.0
 10
101.8359890153396
 20
-131.8152099279837
 30
0.0
 10
101.8704399701921
 20
-131.8806667422035
 30
0.0
 10
101.9837836116568
 20
-132.0863389426729
 30
0.0
 10
102.2380316584683
 20
-131.9609374670098
 30
0.0
 10
102.3613660768402
 20
-131.9003037864694
 30
0.0
 10
102.4671305082374
 20
-131.7704236866755
 30
0.0
 10
102.3661892105196
 20
-131.5654405053031
 30
0.0
 10
102.3145127782408
 20
-131.4613986216486
 30
0.0
 10
102.2587022313798
 20
-131.4345268768636
 30
0.0
 10
102.2163275569112
 20
-131.4200574758256
 30
0.0
 10
102.1174533164845
 20
-131.3862955400701
 30
0.0
 10
102.0072102609565
 20
-131.4266031572475
 30
0.0
 10
101.9579453955175
 20
-131.4507188256443
 30
0.0
 10
101.9410644276397
 20
-131.4593315643574
 30
0.0
 10
101.9093695491754
 20
-131.4769015513322
 30
0.0
 10
101.8866319189728
 20
-131.4927489905643
 30
0.0
 10
101.8866319189728
 20
-131.4927489905643
 30
0.0
 10
101.8005045318415
 20
-131.3180826494622
 30
0.0
 10
101.8005045318415
 20
-131.3180826494622
 30
0.0
 10
101.8377115630822
 20
-131.3074028534579
 30
0.0
 10
101.8766411420656
 20
-131.2905218855801
 30
0.0
 10
101.8824978043905
 20
-131.2874212996434
 30
0.0
 10
101.9410644276397
 20
-131.2584824975673
 30
0.0
 10
102.109874106417
 20
-131.1513400279761
 30
0.0
 10
102.0054877132139
 20
-130.9391221460847
 30
0.0
 10
101.9265950266017
 20
-130.7796142251176
 30
0.0
 10
101.7846570926094
 20
-130.7882269638307
 30
0.0
 10
101.6861273617313
 20
-130.8371473197213
 30
0.0
 10
101.4487602827975
 20
-130.9539360566712
 30
0.0
 10
101.544189427739
 20
-131.1664984481112
 30
0.0
 10
101.5720947011695
 20
-131.232644281428
 30
0.0
 10
101.5720947011695
 20
-131.232644281428
 30
0.0
 10
101.3898491499998
 20
-131.322561273593
 30
0.0
 10
101.3898491499998
 20
-131.322561273593
 30
0.0
 10
101.3423068323033
 20
-131.2071505748371
 30
0.0
 10
101.2007134078596
 20
-130.8571288735357
 30
0.0
 10
101.6103352610558
 20
-130.6549017685516
 30
0.0
 10
101.8115288373943
 20
-130.5556830185764
 30
0.0
 10
102.0840358902776
 20
-130.5632622286439
 30
0.0
 10
102.2149495187171
 20
-130.8285345810081
 30
0.0
 10
102.2972873008146
 20
-130.9956217120428
 30
0.0
 10
102.248366944924
 20
-131.1117214298957
 30
0.0
 10
102.1863552261895
 20
-131.2105956703224
 30
0.0
 10
102.2535345881519
 20
-131.2081841034827
 30
0.0
 10
102.4523165976508
 20
-131.1999158743181
 30
0.0
 10
102.5749619969257
 20
-131.4483072588046
 30
0.0
 10
102.7244791409856
 20
-131.7518201710551
 30
0.0
 10
102.5763400351198
 20
-132.0112358610944
 30
0.0
 10
102.3279486506333
 20
-132.1338812603693
 30
0.0
  0
HATCH
  5
56
330
41
100
AcDbEntity
  8
_U+30EC_U+30A4_U+30E4_U+30FC 1
 62
   179
420
  2234388
100
AcDbHatch
 10
0.0
 20
0.0
 30
0.0
210
0.0
220
0.0
230
1.0
  2
SOLID
 70
     1
 71
     0
 91
        1
 92
        1
 93
        1
 72
     4
 94
        3
 73
     0
 74
     1
 95
       62
 96
       58
 40
0.0
 40
0.0
 40
0.0
 40
0.0
 40
1.0
 40
1.0
 40
1.0
 40
2.0
 40
2.0
 40
2.0
 40
3.0
 40
3.0
 40
3.0
 40
4.0
 40
4.0
 40
4.0
 40
5.0
 40
5.0
 40
5.0
 40
6.0
 40
6.0
 40
6.0
 40
7.0
 40
7.0
 40
7.0
 40
8.0
 40
8.0
 40
8.0
 40
9.0
 40
9.0
 40
9.0
 40
10.0
 40
10.0
 40
10.0
 40
11.0
 40
11.0
 40
11.0
 40
12.0
 40
12.0
 40
12.0
 40
13.0
 40
13.0
 40
13.0
 40
14.0
 40
14.0
 40
14.0
 40
15.0
 40
15.0
 40
15.0
 40
16.0
 40
16.0
 40
16.0
 40
17.0
 40
17.0
 40
17.0
 40
18.0
 40
18.0
 40
18.0
 40
19.0
 40
19.0
 40
19.0
 40
19.0
 10
102.3279486506333
 20
-132.1338812603693
 10
102.2425102825991
 20
-132.1759114252894
 10
102.0375271012267
 20
-132.2534260737075
 10
101.8435682254072
 20
-132.1418049799854
 10
101.7274685075542
 20
-132.073936598926
 10
101.6799261898578
 20
-131.9867756831491
 10
101.6385850440348
 20
-131.9123616206678
 10
101.6385850440348
 20
-131.9123616206678
 10
101.8359890153396
 20
-131.8152099279837
 10
101.8359890153396
 20
-131.8152099279837
 10
101.8704399701921
 20
-131.8806667422035
 10
101.9837836116568
 20
-132.0863389426729
 10
102.2380316584683
 20
-131.9609374670098
 10
102.3613660768402
 20
-131.9003037864694
 10
102.4671305082374
 20
-131.7704236866755
 10
102.3661892105196
 20
-131.5654405053031
 10
102.3145127782408
 20
-131.4613986216486
 10
102.2587022313798
 20
-131.4345268768636
 10
102.2163275569112
 20
-131.4200574758256
 10
102.1174533164845
 20
-131.3862955400701
 10
102.0072102609565
 20
-131.4266031572475
 10
101.9579453955175
 20
-131.4507188256443
 10
101.9410644276397
 20
-131.4593315643574
 10
101.9093695491754
 20
-131.4769015513322
 10
101.8866319189728
 20
-131.4927489905643
 10
101.8866319189728
 20
-131.4927489905643
 10
101.8005045318415
 20
-131.3180826494622
 10
101.8005045318415
 20
-131.3180826494622
 10
101.8377115630822
 20
-131.3074028534579
 10
101.8766411420656
 20
-131.2905218855801
 10
101.8824978043905
 20
-131.2874212996434
 10
101.9410644276397
 20
-131.2584824975673
 10
102.109874106417
 20
-131.1513400279761
 10
102.0054877132139
 20
-130.9391221460847
 10
101.9265950266017
 20
-130.7796142251176
 10
101.7846570926094
 20
-130.7882269638307
 10
101.6861273617313
 20
-130.8371473197213
 10
101.4487602827975
 20
-130.9539360566712
 10
101.544189427739
 20
-131.1664984481112
 10
101.5720947011695
 20
-131.232644281428
 10
101.5720947011695
 20
-131.232644281428
 10
101.3898491499998
 20
-131.322561273593
 10
101.3898491499998
 20
-131.322561273593
 10
101.3423068323033
 20
-131.2071505748371
 10
101.2007134078596
 20
-130.8571288735357
 10
101.6103352610558
 20
-130.6549017685516
 10
101.8115288373943
 20
-130.5556830185764
 10
102.0840358902776
 20
-130.5632622286439
 10
102.2149495187171
 20
-130.8285345810081
 10
102.2972873008146
 20
-130.9956217120428
 10
102.248366944924
 20
-131.1117214298957
 10
102.1863552261895
 20
-131.2105956703224
 10
102.2535345881519
 20
-131.2081841034827
 10
102.4523165976508
 20
-131.1999158743181
 10
102.5749619969257
 20
-131.4483072588046
 10
102.7244791409856
 20
-131.7518201710551
 10
102.5763400351198
 20
-132.0112358610944
 10
102.3279486506333
 20
-132.1338812603693
 97
        0
 97
        0
 75
     2
 76
     1
 98
        0
  0
SPLINE
  5
57
330
41
100
AcDbEntity
  8
_U+30EC_U+30A4_U+30E4_U+30FC 1
370
     0
100
AcDbSpline
210
0.0
220
0.0
230
1.0
 70
    11
 71
     3
 72
    29
 73
    25
 74
     0
 42
0.0000000001
 43
0.0000000001
 12
1.0
 22
0.0
 32
0.0
 13
1.0
 23
0.0
 33
0.0
 40
0.0
 40
0.0
 40
0.0
 40
0.0
 40
1.0
 40
1.0
 40
1.0
 40
2.0
 40
2.0
 40
2.0
 40
3.0
 40
3.0
 40
3.0
 40
4.0
 40
4.0
 40
4.0
 40
5.0
 40
5.0
 40
5.0
 40
6.0
 40
6.0
 40
6.0
 40
7.0
 40
7.0
 40
7.0
 40
8.0
 40
8.0
 40
8.0
 40
8.0
 10
103.6467312023869
 20
-131.2288546763942
 30
0.0
 10
103.6425970878046
 20
-131.4641546980367
 30
0.0
 10
103.4954915105845
 20
-131.5578612952355
 30
0.0
 10
103.3911051173814
 20
-131.6095377275143
 30
0.0
 10
103.2467556165494
 20
-131.6805066945104
 30
0.0
 10
103.0993055297807
 20
-131.7015217769705
 30
0.0
 10
102.9332519273917
 20
-131.5805989254382
 30
0.0
 10
102.7544514717072
 20
-131.4517523542899
 30
0.0
 10
102.6324950915294
 20
-131.247802701563
 30
0.0
 10
102.5604925958877
 20
-131.1017306529885
 30
0.0
 10
102.4967583294105
 20
-130.9728840818401
 30
0.0
 10
102.4006401653721
 20
-130.7393066079402
 30
0.0
 10
102.4075303563426
 20
-130.5139973632049
 30
0.0
 10
102.4144205473131
 20
-130.2845540038872
 30
0.0
 10
102.5484347616893
 20
-130.1922254448825
 30
0.0
 10
102.6641899699937
 20
-130.1353813693759
 30
0.0
 10
102.8064724135345
 20
-130.0651014214768
 30
0.0
 10
102.9549560289488
 20
-130.0413302626285
 30
0.0
 10
103.1210096313378
 20
-130.1622531141608
 30
0.0
 10
103.2949869533429
 20
-130.2910996853092
 30
0.0
 10
103.4169433335208
 20
-130.4857475802258
 30
0.0
 10
103.4937689628418
 20
-130.6414658961591
 30
0.0
 10
103.5695610635173
 20
-130.7951171548012
 30
0.0
 10
103.6525878647119
 20
-131.0111246417264
 30
0.0
 10
103.6467312023869
 20
-131.2288546763942
 30
0.0
  0
SPLINE
  5
58
330
41
100
AcDbEntity
  8
_U+30EC_U+30A4_U+30E4_U+30FC 1
370
     0
100
AcDbSpline
210
0.0
220
0.0
230
1.0
 70
    11
 71
     3
 72
    17
 73
    13
 74
     0
 42
0.0000000001
 43
0.0000000001
 12
1.0
 22
0.0
 32
0.0
 13
1.0
 23
0.0
 33
0.0
 40
0.0
 40
0.0
 40
0.0
 40
0.0
 40
1.0
 40
1.0
 40
1.0
 40
2.0
 40
2.0
 40
2.0
 40
3.0
 40
3.0
 40
3.0
 40
4.0
 40
4.0
 40
4.0
 40
4.0
 10
102.7492838284793
 20
-130.3079806531869
 30
0.0
 10
102.5253526219381
 20
-130.4185682182634
 30
0.0
 10
102.6090684422297
 20
-130.6931423284378
 30
0.0
 10
102.7616861722262
 20
-131.0025119030133
 30
0.0
 10
102.9029350871215
 20
-131.289143847386
 30
0.0
 10
103.0717447658987
 20
-131.5499375756195
 30
0.0
 10
103.3049777302501
 20
-131.4348713864121
 30
0.0
 10
103.5271863890488
 20
-131.3253173499812
 30
0.0
 10
103.4465711546939
 20
-131.0517767684523
 30
0.0
 10
103.2929198960518
 20
-130.7406846461343
 30
0.0
 10
103.1516709811565
 20
-130.4540527017615
 30
0.0
 10
102.9807942450881
 20
-130.1939479926251
 30
0.0
 10
102.7492838284793
 20
-130.3079806531869
 30
0.0
  0
HATCH
  5
59
330
41
100
AcDbEntity
  8
_U+30EC_U+30A4_U+30E4_U+30FC 1
 62
   179
420
  2234388
100
AcDbHatch
 10
0.0
 20
0.0
 30
0.0
210
0.0
220
0.0
230
1.0
  2
SOLID
 70
     1
 71
     0
 91
        2
 92
        1
 93
        1
 72
     4
 94
        3
 73
     0
 74
     1
 95
       29
 96
       25
 40
0.0
 40
0.0
 40
0.0
 40
0.0
 40
1.0
 40
1.0
 40
1.0
 40
2.0
 40
2.0
 40
2.0
 40
3.0
 40
3.0
 40
3.0
 40
4.0
 40
4.0
 40
4.0
 40
5.0
 40
5.0
 40
5.0
 40
6.0
 40
6.0
 40
6.0
 40
7.0
 40
7.0
 40
7.0
 40
8.0
 40
8.0
 40
8.0
 40
8.0
 10
103.6467312023869
 20
-131.2288546763942
 10
103.6425970878046
 20
-131.4641546980367
 10
103.4954915105845
 20
-131.5578612952355
 10
103.3911051173814
 20
-131.6095377275143
 10
103.2467556165494
 20
-131.6805066945104
 10
103.0993055297807
 20
-131.7015217769705
 10
102.9332519273917
 20
-131.5805989254382
 10
102.7544514717072
 20
-131.4517523542899
 10
102.6324950915294
 20
-131.247802701563
 10
102.5604925958877
 20
-131.1017306529885
 10
102.4967583294105
 20
-130.9728840818401
 10
102.4006401653721
 20
-130.7393066079402
 10
102.4075303563426
 20
-130.5139973632049
 10
102.4144205473131
 20
-130.2845540038872
 10
102.5484347616893
 20
-130.1922254448825
 10
102.6641899699937
 20
-130.1353813693759
 10
102.8064724135345
 20
-130.0651014214768
 10
102.9549560289488
 20
-130.0413302626285
 10
103.1210096313378
 20
-130.1622531141608
 10
103.2949869533429
 20
-130.2910996853092
 10
103.4169433335208
 20
-130.4857475802258
 10
103.4937689628418
 20
-130.6414658961591
 10
103.5695610635173
 20
-130.7951171548012
 10
103.6525878647119
 20
-131.0111246417264
 10
103.6467312023869
 20
-131.2288546763942
 97
        0
 97
        0
 92
        1
 93
        1
 72
     4
 94
        3
 73
     0
 74
     1
 95
       17
 96
       13
 40
0.0
 40
0.0
 40
0.0
 40
0.0
 40
1.0
 40
1.0
 40
1.0
 40
2.0
 40
2.0
 40
2.0
 40
3.0
 40
3.0
 40
3.0
 40
4.0
 40
4.0
 40
4.0
 40
4.0
 10
102.7492838284793
 20
-130.3079806531869
 10
102.5253526219381
 20
-130.4185682182634
 10
102.6090684422297
 20
-130.6931423284378
 10
102.7616861722262
 20
-131.0025119030133
 10
102.9029350871215
 20
-131.289143847386
 10
103.0717447658987
 20
-131.5499375756195
 10
103.3049777302501
 20
-131.4348713864121
 10
103.5271863890488
 20
-131.3253173499812
 10
103.4465711546939
 20
-131.0517767684523
 10
103.2929198960518
 20
-130.7406846461343
 10
103.1516709811565
 20
-130.4540527017615
 10
102.9807942450881
 20
-130.1939479926251
 10
102.7492838284793
 20
-130.3079806531869
 97
        0
 97
        0
 75
     2
 76
     1
 98
        0
  0
POLYLINE
  5
5A
330
41
100
AcDbEntity
  8
_U+30EC_U+30A4_U+30E4_U+30FC 1
370
     0
100
AcDb2dPolyline
 66
     1
 10
0.0
 20
0.0
 30
0.0
  0
VERTEX
  5
5B
330
5A
100
AcDbEntity
  8
_U+30EC_U+30A4_U+30E4_U+30FC 1
370
     0
100
AcDbVertex
100
AcDb2dVertex
 10
105.1794541837746
 20
-130.6710937173322
 30
0.0
  0
VERTEX
  5
5C
330
5A
100
AcDbEntity
  8
_U+30EC_U+30A4_U+30E4_U+30FC 1
370
     0
100
AcDbVertex
100
AcDb2dVertex
 10
104.7067870831983
 20
-129.7130126628842
 30
0.0
  0
VERTEX
  5
5D
330
5A
100
AcDbEntity
  8
_U+30EC_U+30A4_U+30E4_U+30FC 1
370
     0
100
AcDbVertex
100
AcDb2dVertex
 10
104.640296740333
 20
-129.5638400283729
 30
0.0
  0
VERTEX
  5
5E
330
5A
100
AcDbEntity
  8
_U+30EC_U+30A4_U+30E4_U+30FC 1
370
     0
100
AcDbVertex
100
AcDb2dVertex
 10
104.6764702429281
 20
-129.7181803061121
 30
0.0
  0
VERTEX
  5
5F
330
5A
100
AcDbEntity
  8
_U+30EC_U+30A4_U+30E4_U+30FC 1
370
     0
100
AcDbVertex
100
AcDb2dVertex
 10
104.8435573739627
 20
-130.8364583006242
 30
0.0
  0
VERTEX
  5
60
330
5A
100
AcDbEntity
  8
_U+30EC_U+30A4_U+30E4_U+30FC 1
370
     0
100
AcDbVertex
100
AcDb2dVertex
 10
104.6006781422526
 20
-130.9563476235109
 30
0.0
  0
VERTEX
  5
61
330
5A
100
AcDbEntity
  8
_U+30EC_U+30A4_U+30E4_U+30FC 1
370
     0
100
AcDbVertex
100
AcDb2dVertex
 10
103.8169189193583
 20
-130.1422715603464
 30
0.0
  0
VERTEX
  5
62
330
5A
100
AcDbEntity
  8
_U+30EC_U+30A4_U+30E4_U+30FC 1
370
     0
100
AcDbVertex
100
AcDb2dVertex
 10
103.716322131189
 20
-130.0196261610715
 30
0.0
  0
VERTEX
  5
63
330
5A
100
AcDbEntity
  8
_U+30EC_U+30A4_U+30E4_U+30FC 1
370
     0
100
AcDbVertex
100
AcDb2dVertex
 10
103.792458741413
 20
-130.1639756619035
 30
0.0
  0
VERTEX
  5
64
330
5A
100
AcDbEntity
  8
_U+30EC_U+30A4_U+30E4_U+30FC 1
370
     0
100
AcDbVertex
100
AcDb2dVertex
 10
104.2647813324407
 20
-131.1220567163514
 30
0.0
  0
VERTEX
  5
65
330
5A
100
AcDbEntity
  8
_U+30EC_U+30A4_U+30E4_U+30FC 1
370
     0
100
AcDbVertex
100
AcDb2dVertex
 10
104.0694444184271
 20
-131.2185193899384
 30
0.0
  0
VERTEX
  5
66
330
5A
100
AcDbEntity
  8
_U+30EC_U+30A4_U+30E4_U+30FC 1
370
     0
100
AcDbVertex
100
AcDb2dVertex
 10
103.386281983702
 20
-129.8332464953195
 30
0.0
  0
VERTEX
  5
67
330
5A
100
AcDbEntity
  8
_U+30EC_U+30A4_U+30E4_U+30FC 1
370
     0
100
AcDbVertex
100
AcDb2dVertex
 10
103.6725694185263
 20
-129.6919975804242
 30
0.0
  0
VERTEX
  5
68
330
5A
100
AcDbEntity
  8
_U+30EC_U+30A4_U+30E4_U+30FC 1
370
     0
100
AcDbVertex
100
AcDb2dVertex
 10
104.5128282073787
 20
-130.5587836045131
 30
0.0
  0
VERTEX
  5
69
330
5A
100
AcDbEntity
  8
_U+30EC_U+30A4_U+30E4_U+30FC 1
370
     0
100
AcDbVertex
100
AcDb2dVertex
 10
104.6096353905143
 20
-130.6690266600411
 30
0.0
  0
VERTEX
  5
6A
330
5A
100
AcDbEntity
  8
_U+30EC_U+30A4_U+30E4_U+30FC 1
370
     0
100
AcDbVertex
100
AcDb2dVertex
 10
104.5813856075352
 20
-130.5250216687576
 30
0.0
  0
VERTEX
  5
6B
330
5A
100
AcDbEntity
  8
_U+30EC_U+30A4_U+30E4_U+30FC 1
370
     0
100
AcDbVertex
100
AcDb2dVertex
 10
104.4070637759816
 20
-129.3299180449245
 30
0.0
  0
VERTEX
  5
6C
330
5A
100
AcDbEntity
  8
_U+30EC_U+30A4_U+30E4_U+30FC 1
370
     0
100
AcDbVertex
100
AcDb2dVertex
 10
104.6916286630632
 20
-129.1897026586748
 30
0.0
  0
VERTEX
  5
6D
330
5A
100
AcDbEntity
  8
_U+30EC_U+30A4_U+30E4_U+30FC 1
370
     0
100
AcDbVertex
100
AcDb2dVertex
 10
105.3747910977882
 20
-130.5746310437452
 30
0.0
  0
VERTEX
  5
6E
330
5A
100
AcDbEntity
  8
_U+30EC_U+30A4_U+30E4_U+30FC 1
370
     0
100
AcDbVertex
100
AcDb2dVertex
 10
105.1794541837746
 20
-130.6710937173322
 30
0.0
  0
SEQEND
  5
6F
330
5A
100
AcDbEntity
  8
_U+30EC_U+30A4_U+30E4_U+30FC 1
370
     0
  0
HATCH
  5
70
330
41
100
AcDbEntity
  8
_U+30EC_U+30A4_U+30E4_U+30FC 1
 62
   179
420
  2234388
100
AcDbHatch
 10
0.0
 20
0.0
 30
0.0
210
0.0
220
0.0
230
1.0
  2
SOLID
 70
     1
 71
     0
 91
        1
 92
        1
 93
       19
 72
     1
 10
105.1794541837746
 20
-130.6710937173322
 11
104.7067870831983
 21
-129.7130126628842
 72
     1
 10
104.7067870831983
 20
-129.7130126628842
 11
104.640296740333
 21
-129.5638400283729
 72
     1
 10
104.640296740333
 20
-129.5638400283729
 11
104.6764702429281
 21
-129.7181803061121
 72
     1
 10
104.6764702429281
 20
-129.7181803061121
 11
104.8435573739627
 21
-130.8364583006242
 72
     1
 10
104.8435573739627
 20
-130.8364583006242
 11
104.6006781422526
 21
-130.9563476235109
 72
     1
 10
104.6006781422526
 20
-130.9563476235109
 11
103.8169189193583
 21
-130.1422715603464
 72
     1
 10
103.8169189193583
 20
-130.1422715603464
 11
103.716322131189
 21
-130.0196261610715
 72
     1
 10
103.716322131189
 20
-130.0196261610715
 11
103.792458741413
 21
-130.1639756619035
 72
     1
 10
103.792458741413
 20
-130.1639756619035
 11
104.2647813324407
 21
-131.1220567163514
 72
     1
 10
104.2647813324407
 20
-131.1220567163514
 11
104.0694444184271
 21
-131.2185193899384
 72
     1
 10
104.0694444184271
 20
-131.2185193899384
 11
103.386281983702
 21
-129.8332464953195
 72
     1
 10
103.386281983702
 20
-129.8332464953195
 11
103.6725694185263
 21
-129.6919975804242
 72
     1
 10
103.6725694185263
 20
-129.6919975804242
 11
104.5128282073787
 21
-130.5587836045131
 72
     1
 10
104.5128282073787
 20
-130.5587836045131
 11
104.6096353905143
 21
-130.6690266600411
 72
     1
 10
104.6096353905143
 20
-130.6690266600411
 11
104.5813856075352
 21
-130.5250216687576
 72
     1
 10
104.5813856075352
 20
-130.5250216687576
 11
104.4070637759816
 21
-129.3299180449245
 72
     1
 10
104.4070637759816
 20
-129.3299180449245
 11
104.6916286630632
 21
-129.1897026586748
 72
     1
 10
104.6916286630632
 20
-129.1897026586748
 11
105.3747910977882
 21
-130.5746310437452
 72
     1
 10
105.3747910977882
 20
-130.5746310437452
 11
105.1794541837746
 21
-130.6710937173322
 97
        0
 75
     2
 76
     1
 98
        0
  0
POLYLINE
  5
71
330
41
100
AcDbEntity
  8
_U+30EC_U+30A4_U+30E4_U+30FC 1
370
     0
100
AcDb2dPolyline
 66
     1
 10
0.0
 20
0.0
 30
0.0
  0
VERTEX
  5
72
330
71
100
AcDbEntity
  8
_U+30EC_U+30A4_U+30E4_U+30FC 1
370
     0
100
AcDbVertex
100
AcDb2dVertex
 10
106.9426540531255
 20
-129.8015516168552
 30
0.0
  0
VERTEX
  5
73
330
71
100
AcDbEntity
  8
_U+30EC_U+30A4_U+30E4_U+30FC 1
370
     0
100
AcDbVertex
100
AcDb2dVertex
 10
106.6997748214153
 20
-129.9210964301933
 30
0.0
  0
VERTEX
  5
74
330
71
100
AcDbEntity
  8
_U+30EC_U+30A4_U+30E4_U+30FC 1
370
     0
100
AcDbVertex
100
AcDb2dVertex
 10
105.8805311150229
 20
-128.9051377715932
 30
0.0
  0
VERTEX
  5
75
330
71
100
AcDbEntity
  8
_U+30EC_U+30A4_U+30E4_U+30FC 1
370
     0
100
AcDbVertex
100
AcDb2dVertex
 10
106.1899006895984
 20
-130.1729329101651
 30
0.0
  0
VERTEX
  5
76
330
71
100
AcDbEntity
  8
_U+30EC_U+30A4_U+30E4_U+30FC 1
370
     0
100
AcDbVertex
100
AcDb2dVertex
 10
105.9470214578883
 20
-130.2924777235033
 30
0.0
  0
VERTEX
  5
77
330
71
100
AcDbEntity
  8
_U+30EC_U+30A4_U+30E4_U+30FC 1
370
     0
100
AcDbVertex
100
AcDb2dVertex
 10
104.9203830032838
 20
-129.0767035267586
 30
0.0
  0
VERTEX
  5
78
330
71
100
AcDbEntity
  8
_U+30EC_U+30A4_U+30E4_U+30FC 1
370
     0
100
AcDbVertex
100
AcDb2dVertex
 10
105.1291557896899
 20
-128.9740396812982
 30
0.0
  0
VERTEX
  5
79
330
71
100
AcDbEntity
  8
_U+30EC_U+30A4_U+30E4_U+30FC 1
370
     0
100
AcDbVertex
100
AcDb2dVertex
 10
105.9384087191751
 20
-129.9686387478898
 30
0.0
  0
VERTEX
  5
7A
330
71
100
AcDbEntity
  8
_U+30EC_U+30A4_U+30E4_U+30FC 1
370
     0
100
AcDbVertex
100
AcDb2dVertex
 10
105.6355848260217
 20
-128.7240980038433
 30
0.0
  0
VERTEX
  5
7B
330
71
100
AcDbEntity
  8
_U+30EC_U+30A4_U+30E4_U+30FC 1
370
     0
100
AcDbVertex
100
AcDb2dVertex
 10
105.8860432677993
 20
-128.6005913306971
 30
0.0
  0
VERTEX
  5
7C
330
71
100
AcDbEntity
  8
_U+30EC_U+30A4_U+30E4_U+30FC 1
370
     0
100
AcDbVertex
100
AcDb2dVertex
 10
106.6894395349596
 20
-129.5982909832254
 30
0.0
  0
VERTEX
  5
7D
330
71
100
AcDbEntity
  8
_U+30EC_U+30A4_U+30E4_U+30FC 1
370
     0
100
AcDbVertex
100
AcDb2dVertex
 10
106.3941948518737
 20
-128.3497883793709
 30
0.0
  0
VERTEX
  5
7E
330
71
100
AcDbEntity
  8
_U+30EC_U+30A4_U+30E4_U+30FC 1
370
     0
100
AcDbVertex
100
AcDb2dVertex
 10
106.6033121478283
 20
-128.2467800243619
 30
0.0
  0
VERTEX
  5
7F
330
71
100
AcDbEntity
  8
_U+30EC_U+30A4_U+30E4_U+30FC 1
370
     0
100
AcDbVertex
100
AcDb2dVertex
 10
106.9426540531255
 20
-129.8015516168552
 30
0.0
  0
SEQEND
  5
80
330
71
100
AcDbEntity
  8
_U+30EC_U+30A4_U+30E4_U+30FC 1
370
     0
  0
HATCH
  5
81
330
41
100
AcDbEntity
  8
_U+30EC_U+30A4_U+30E4_U+30FC 1
 62
   179
420
  2234388
100
AcDbHatch
 10
0.0
 20
0.0
 30
0.0
210
0.0
220
0.0
230
1.0
  2
SOLID
 70
     1
 71
     0
 91
        1
 92
        1
 93
       13
 72
     1
 10
106.9426540531255
 20
-129.8015516168552
 11
106.6997748214153
 21
-129.9210964301933
 72
     1
 10
106.6997748214153
 20
-129.9210964301933
 11
105.8805311150229
 21
-128.9051377715932
 72
     1
 10
105.8805311150229
 20
-128.9051377715932
 11
106.1899006895984
 21
-130.1729329101651
 72
     1
 10
106.1899006895984
 20
-130.1729329101651
 11
105.9470214578883
 21
-130.2924777235033
 72
     1
 10
105.9470214578883
 20
-130.2924777235033
 11
104.9203830032838
 21
-129.0767035267586
 72
     1
 10
104.9203830032838
 20
-129.0767035267586
 11
105.1291557896899
 21
-128.9740396812982
 72
     1
 10
105.1291557896899
 20
-128.9740396812982
 11
105.9384087191751
 21
-129.9686387478898
 72
     1
 10
105.9384087191751
 20
-129.9686387478898
 11
105.6355848260217
 21
-128.7240980038433
 72
     1
 10
105.6355848260217
 20
-128.7240980038433
 11
105.8860432677993
 21
-128.6005913306971
 72
     1
 10
105.8860432677993
 20
-128.6005913306971
 11
106.6894395349596
 21
-129.5982909832254
 72
     1
 10
106.6894395349596
 20
-129.5982909832254
 11
106.3941948518737
 21
-128.3497883793709
 72
     1
 10
106.3941948518737
 20
-128.3497883793709
 11
106.6033121478283
 21
-128.2467800243619
 72
     1
 10
106.6033121478283
 20
-128.2467800243619
 11
106.9426540531255
 21
-129.8015516168552
 97
        0
 75
     2
 76
     1
 98
        0
  0
ENDBLK
  5
44
330
41
100
AcDbEntity
  8
0
100
AcDbBlockEnd
  0
BLOCK
  5
84
330
82
100
AcDbEntity
  8
0
100
AcDbBlockBegin
  2
block 3
 70
     0
 10
0.0
 20
0.0
 30
0.0
  3
block 3
  1

  0
SPLINE
  5
86
330
82
100
AcDbEntity
  8
_U+30EC_U+30A4_U+30E4_U+30FC 1
370
     0
100
AcDbSpline
210
0.0
220
0.0
230
1.0
 70
    11
 71
     3
 72
    38
 73
    34
 74
     0
 42
0.0000000001
 43
0.0000000001
 12
1.0
 22
0.0
 32
0.0
 13
1.0
 23
0.0
 33
0.0
 40
0.0
 40
0.0
 40
0.0
 40
0.0
 40
1.0
 40
1.0
 40
1.0
 40
2.0
 40
2.0
 40
2.0
 40
3.0
 40
3.0
 40
3.0
 40
4.0
 40
4.0
 40
4.0
 40
5.0
 40
5.0
 40
5.0
 40
6.0
 40
6.0
 40
6.0
 40
7.0
 40
7.0
 40
7.0
 40
8.0
 40
8.0
 40
8.0
 40
9.0
 40
9.0
 40
9.0
 40
10.0
 40
10.0
 40
10.0
 40
11.0
 40
11.0
 40
11.0
 40
11.0
 10
75.78021509607231
 20
-130.027205371139
 30
0.0
 10
75.36266952326002
 20
-129.8215331706696
 30
0.0
 10
75.27705890045158
 20
-129.3736707575871
 30
0.0
 10
75.48462590343787
 20
-128.9523355797411
 30
0.0
 10
75.71665308436945
 20
-128.481735536456
 30
0.0
 10
76.1503906059624
 20
-128.3773491432529
 30
0.0
 10
76.51660425604446
 20
-128.55787214668
 30
0.0
 10
76.8259738306199
 20
-128.7104898766765
 30
0.0
 10
76.99099390436336
 20
-129.0019449547287
 30
0.0
 10
76.86972654328257
 20
-129.2958115996205
 30
0.0
 10
76.86972654328257
 20
-129.2958115996205
 30
0.0
 10
76.66284855939332
 20
-129.1938367732571
 30
0.0
 10
76.66284855939332
 20
-129.1938367732571
 30
0.0
 10
76.72055390877125
 20
-128.9909206491759
 30
0.0
 10
76.55984020438434
 20
-128.819699403559
 30
0.0
 10
76.41549070355238
 20
-128.7483859270143
 30
0.0
 10
76.3226453802249
 20
-128.702910666609
 30
0.0
 10
76.2041340955323
 20
-128.6801730364064
 30
0.0
 10
76.08700084903381
 20
-128.7070447811913
 30
0.0
 10
75.88649629179227
 20
-128.7497639652084
 30
0.0
 10
75.76471216638869
 20
-128.929942459087
 30
0.0
 10
75.6944322184896
 20
-129.0722249026278
 30
0.0
 10
75.49995657834724
 20
-129.4670328452374
 30
0.0
 10
75.67910154358023
 20
-129.7347167644413
 30
0.0
 10
75.87271590985127
 20
-129.8301459093827
 30
0.0
 10
75.99605032822322
 20
-129.8911240994717
 30
0.0
 10
76.2744140434314
 20
-129.9386664171681
 30
0.0
 10
76.4433959769829
 20
-129.6678819120275
 30
0.0
 10
76.4433959769829
 20
-129.6678819120275
 30
0.0
 10
76.6501017060979
 20
-129.7698567383909
 30
0.0
 10
76.6501017060979
 20
-129.7698567383909
 30
0.0
 10
76.57896048432748
 20
-129.8856119466953
 30
0.0
 10
76.32281763499915
 20
-130.294889290343
 30
0.0
 10
75.78021509607231
 20
-130.027205371139
 30
0.0
  0
HATCH
  5
87
330
82
100
AcDbEntity
  8
_U+30EC_U+30A4_U+30E4_U+30FC 1
 62
   179
420
  2234388
100
AcDbHatch
 10
0.0
 20
0.0
 30
0.0
210
0.0
220
0.0
230
1.0
  2
SOLID
 70
     1
 71
     0
 91
        1
 92
        1
 93
        1
 72
     4
 94
        3
 73
     0
 74
     1
 95
       38
 96
       34
 40
0.0
 40
0.0
 40
0.0
 40
0.0
 40
1.0
 40
1.0
 40
1.0
 40
2.0
 40
2.0
 40
2.0
 40
3.0
 40
3.0
 40
3.0
 40
4.0
 40
4.0
 40
4.0
 40
5.0
 40
5.0
 40
5.0
 40
6.0
 40
6.0
 40
6.0
 40
7.0
 40
7.0
 40
7.0
 40
8.0
 40
8.0
 40
8.0
 40
9.0
 40
9.0
 40
9.0
 40
10.0
 40
10.0
 40
10.0
 40
11.0
 40
11.0
 40
11.0
 40
11.0
 10
75.78021509607231
 20
-130.027205371139
 10
75.36266952326002
 20
-129.8215331706696
 10
75.27705890045158
 20
-129.3736707575871
 10
75.48462590343787
 20
-128.9523355797411
 10
75.71665308436945
 20
-128.481735536456
 10
76.1503906059624
 20
-128.3773491432529
 10
76.51660425604446
 20
-128.55787214668
 10
76.8259738306199
 20
-128.7104898766765
 10
76.99099390436336
 20
-129.0019449547287
 10
76.86972654328257
 20
-129.2958115996205
 10
76.86972654328257
 20
-129.2958115996205
 10
76.66284855939332
 20
-129.1938367732571
 10
76.66284855939332
 20
-129.1938367732571
 10
76.72055390877125
 20
-128.9909206491759
 10
76.55984020438434
 20
-128.819699403559
 10
76.41549070355238
 20
-128.7483859270143
 10
76.3226453802249
 20
-128.702910666609
 10
76.2041340955323
 20
-128.6801730364064
 10
76.08700084903381
 20
-128.7070447811913
 10
75.88649629179227
 20
-128.7497639652084
 10
75.76471216638869
 20
-128.929942459087
 10
75.6944322184896
 20
-129.0722249026278
 10
75.49995657834724
 20
-129.4670328452374
 10
75.67910154358023
 20
-129.7347167644413
 10
75.87271590985127
 20
-129.8301459093827
 10
75.99605032822322
 20
-129.8911240994717
 10
76.2744140434314
 20
-129.9386664171681
 10
76.4433959769829
 20
-129.6678819120275
 10
76.4433959769829
 20
-129.6678819120275
 10
76.6501017060979
 20
-129.7698567383909
 10
76.6501017060979
 20
-129.7698567383909
 10
76.57896048432748
 20
-129.8856119466953
 10
76.32281763499915
 20
-130.294889290343
 10
75.78021509607231
 20
-130.027205371139
 97
        0
 97
        0
 75
     2
 76
     1
 98
        0
  0
SPLINE
  5
88
330
82
100
AcDbEntity
  8
_U+30EC_U+30A4_U+30E4_U+30FC 1
370
     0
100
AcDbSpline
210
0.0
220
0.0
230
1.0
 70
    11
 71
     3
 72
    44
 73
    40
 74
     0
 42
0.0000000001
 43
0.0000000001
 12
1.0
 22
0.0
 32
0.0
 13
1.0
 23
0.0
 33
0.0
 40
0.0
 40
0.0
 40
0.0
 40
0.0
 40
1.0
 40
1.0
 40
1.0
 40
2.0
 40
2.0
 40
2.0
 40
3.0
 40
3.0
 40
3.0
 40
4.0
 40
4.0
 40
4.0
 40
5.0
 40
5.0
 40
5.0
 40
6.0
 40
6.0
 40
6.0
 40
7.0
 40
7.0
 40
7.0
 40
8.0
 40
8.0
 40
8.0
 40
9.0
 40
9.0
 40
9.0
 40
10.0
 40
10.0
 40
10.0
 40
11.0
 40
11.0
 40
11.0
 40
12.0
 40
12.0
 40
12.0
 40
13.0
 40
13.0
 40
13.0
 40
13.0
 10
77.48433157785114
 20
-130.8113091035819
 30
0.0
 10
77.48295353965705
 20
-130.7610107094972
 30
0.0
 10
77.48743216378787
 20
-130.7045111435392
 30
0.0
 10
77.58768444240864
 20
-130.4964273762301
 30
0.0
 10
77.69138181651466
 20
-130.2766302842711
 30
0.0
 10
77.66933320540906
 20
-130.1877468207517
 30
0.0
 10
77.50982528444199
 20
-130.1088541341394
 30
0.0
 10
77.50982528444199
 20
-130.1088541341394
 30
0.0
 10
77.14361163435993
 20
-129.9283311307124
 30
0.0
 10
77.14361163435993
 20
-129.9283311307124
 30
0.0
 10
77.14361163435993
 20
-129.9283311307124
 30
0.0
 10
76.86008027592388
 20
-130.5033175672006
 30
0.0
 10
76.86008027592388
 20
-130.5033175672006
 30
0.0
 10
76.86008027592388
 20
-130.5033175672006
 30
0.0
 10
76.6495849417751
 20
-130.3996201930945
 30
0.0
 10
76.6495849417751
 20
-130.3996201930945
 30
0.0
 10
76.6495849417751
 20
-130.3996201930945
 30
0.0
 10
77.33257512172588
 20
-129.0143472984756
 30
0.0
 10
77.33257512172588
 20
-129.0143472984756
 30
0.0
 10
77.33257512172588
 20
-129.0143472984756
 30
0.0
 10
77.93787839848429
 20
-129.3130370770467
 30
0.0
 10
77.93787839848429
 20
-129.3130370770467
 30
0.0
 10
78.21296927298148
 20
-129.4484293296171
 30
0.0
 10
78.28703882591435
 20
-129.6764946507406
 30
0.0
 10
78.17369518444964
 20
-129.9059380100582
 30
0.0
 10
78.15130206379551
 20
-129.9514132704635
 30
0.0
 10
78.10720484158432
 20
-130.0216932183626
 30
0.0
 10
78.03175725045735
 20
-130.0740586697384
 30
0.0
 10
77.93288301003066
 20
-130.1408935221523
 30
0.0
 10
77.8657036480683
 20
-130.1291801975024
 30
0.0
 10
77.80334741978528
 20
-130.117122363304
 30
0.0
 10
77.90773381298835
 20
-130.2156520941822
 30
0.0
 10
77.9470079015202
 20
-130.289032628018
 30
0.0
 10
77.81127113940136
 20
-130.5735975150997
 30
0.0
 10
77.6953436763227
 20
-130.8185438041009
 30
0.0
 10
77.71360268239452
 20
-130.8629855358606
 30
0.0
 10
77.74994843976391
 20
-130.9422227320214
 30
0.0
 10
77.74994843976391
 20
-130.9422227320214
 30
0.0
 10
77.48433157785114
 20
-130.8113091035819
 30
0.0
 10
77.48433157785114
 20
-130.8113091035819
 30
0.0
  0
SPLINE
  5
89
330
82
100
AcDbEntity
  8
_U+30EC_U+30A4_U+30E4_U+30FC 1
370
     0
100
AcDbSpline
210
0.0
220
0.0
230
1.0
 70
    11
 71
     3
 72
    20
 73
    16
 74
     0
 42
0.0000000001
 43
0.0000000001
 12
1.0
 22
0.0
 32
0.0
 13
1.0
 23
0.0
 33
0.0
 40
0.0
 40
0.0
 40
0.0
 40
0.0
 40
1.0
 40
1.0
 40
1.0
 40
2.0
 40
2.0
 40
2.0
 40
3.0
 40
3.0
 40
3.0
 40
4.0
 40
4.0
 40
4.0
 40
5.0
 40
5.0
 40
5.0
 40
5.0
 10
77.84813366109353
 20
-129.5042398764781
 30
0.0
 10
77.84813366109353
 20
-129.5042398764781
 30
0.0
 10
77.44953611345012
 20
-129.3078694338189
 30
0.0
 10
77.44953611345012
 20
-129.3078694338189
 30
0.0
 10
77.44953611345012
 20
-129.3078694338189
 30
0.0
 10
77.23731823155873
 20
-129.7388508790236
 30
0.0
 10
77.23731823155873
 20
-129.7388508790236
 30
0.0
 10
77.23731823155873
 20
-129.7388508790236
 30
0.0
 10
77.63384872191098
 20
-129.9341877930373
 30
0.0
 10
77.63384872191098
 20
-129.9341877930373
 30
0.0
 10
77.72307669497896
 20
-129.9782850152485
 30
0.0
 10
77.8781059918152
 20
-129.9696722765354
 30
0.0
 10
77.95389809249069
 20
-129.8163655274417
 30
0.0
 10
77.98834904734319
 20
-129.7460855795427
 30
0.0
 10
78.02624509768094
 20
-129.5924343209005
 30
0.0
 10
77.84813366109353
 20
-129.5042398764781
 30
0.0
  0
HATCH
  5
8A
330
82
100
AcDbEntity
  8
_U+30EC_U+30A4_U+30E4_U+30FC 1
 62
   179
420
  2234388
100
AcDbHatch
 10
0.0
 20
0.0
 30
0.0
210
0.0
220
0.0
230
1.0
  2
SOLID
 70
     1
 71
     0
 91
        2
 92
        1
 93
        1
 72
     4
 94
        3
 73
     0
 74
     1
 95
       44
 96
       40
 40
0.0
 40
0.0
 40
0.0
 40
0.0
 40
1.0
 40
1.0
 40
1.0
 40
2.0
 40
2.0
 40
2.0
 40
3.0
 40
3.0
 40
3.0
 40
4.0
 40
4.0
 40
4.0
 40
5.0
 40
5.0
 40
5.0
 40
6.0
 40
6.0
 40
6.0
 40
7.0
 40
7.0
 40
7.0
 40
8.0
 40
8.0
 40
8.0
 40
9.0
 40
9.0
 40
9.0
 40
10.0
 40
10.0
 40
10.0
 40
11.0
 40
11.0
 40
11.0
 40
12.0
 40
12.0
 40
12.0
 40
13.0
 40
13.0
 40
13.0
 40
13.0
 10
77.48433157785114
 20
-130.8113091035819
 10
77.48295353965705
 20
-130.7610107094972
 10
77.48743216378787
 20
-130.7045111435392
 10
77.58768444240864
 20
-130.4964273762301
 10
77.69138181651466
 20
-130.2766302842711
 10
77.66933320540906
 20
-130.1877468207517
 10
77.50982528444199
 20
-130.1088541341394
 10
77.50982528444199
 20
-130.1088541341394
 10
77.14361163435993
 20
-129.9283311307124
 10
77.14361163435993
 20
-129.9283311307124
 10
77.14361163435993
 20
-129.9283311307124
 10
76.86008027592388
 20
-130.5033175672006
 10
76.86008027592388
 20
-130.5033175672006
 10
76.86008027592388
 20
-130.5033175672006
 10
76.6495849417751
 20
-130.3996201930945
 10
76.6495849417751
 20
-130.3996201930945
 10
76.6495849417751
 20
-130.3996201930945
 10
77.33257512172588
 20
-129.0143472984756
 10
77.33257512172588
 20
-129.0143472984756
 10
77.33257512172588
 20
-129.0143472984756
 10
77.93787839848429
 20
-129.3130370770467
 10
77.93787839848429
 20
-129.3130370770467
 10
78.21296927298148
 20
-129.4484293296171
 10
78.28703882591435
 20
-129.6764946507406
 10
78.17369518444964
 20
-129.9059380100582
 10
78.15130206379551
 20
-129.9514132704635
 10
78.10720484158432
 20
-130.0216932183626
 10
78.03175725045735
 20
-130.0740586697384
 10
77.93288301003066
 20
-130.1408935221523
 10
77.8657036480683
 20
-130.1291801975024
 10
77.80334741978528
 20
-130.117122363304
 10
77.90773381298835
 20
-130.2156520941822
 10
77.9470079015202
 20
-130.289032628018
 10
77.81127113940136
 20
-130.5735975150997
 10
77.6953436763227
 20
-130.8185438041009
 10
77.71360268239452
 20
-130.8629855358606
 10
77.74994843976391
 20
-130.9422227320214
 10
77.74994843976391
 20
-130.9422227320214
 10
77.48433157785114
 20
-130.8113091035819
 10
77.48433157785114
 20
-130.8113091035819
 97
        0
 97
        0
 92
        1
 93
        1
 72
     4
 94
        3
 73
     0
 74
     1
 95
       20
 96
       16
 40
0.0
 40
0.0
 40
0.0
 40
0.0
 40
1.0
 40
1.0
 40
1.0
 40
2.0
 40
2.0
 40
2.0
 40
3.0
 40
3.0
 40
3.0
 40
4.0
 40
4.0
 40
4.0
 40
5.0
 40
5.0
 40
5.0
 40
5.0
 10
77.84813366109353
 20
-129.5042398764781
 10
77.84813366109353
 20
-129.5042398764781
 10
77.44953611345012
 20
-129.3078694338189
 10
77.44953611345012
 20
-129.3078694338189
 10
77.44953611345012
 20
-129.3078694338189
 10
77.23731823155873
 20
-129.7388508790236
 10
77.23731823155873
 20
-129.7388508790236
 10
77.23731823155873
 20
-129.7388508790236
 10
77.63384872191098
 20
-129.9341877930373
 10
77.63384872191098
 20
-129.9341877930373
 10
77.72307669497896
 20
-129.9782850152485
 10
77.8781059918152
 20
-129.9696722765354
 10
77.95389809249069
 20
-129.8163655274417
 10
77.98834904734319
 20
-129.7460855795427
 10
78.02624509768094
 20
-129.5924343209005
 10
77.84813366109353
 20
-129.5042398764781
 97
        0
 97
        0
 75
     2
 76
     1
 98
        0
  0
SPLINE
  5
8B
330
82
100
AcDbEntity
  8
_U+30EC_U+30A4_U+30E4_U+30FC 1
370
     0
100
AcDbSpline
210
0.0
220
0.0
230
1.0
 70
    11
 71
     3
 72
    26
 73
    22
 74
     0
 42
0.0000000001
 43
0.0000000001
 12
1.0
 22
0.0
 32
0.0
 13
1.0
 23
0.0
 33
0.0
 40
0.0
 40
0.0
 40
0.0
 40
0.0
 40
1.0
 40
1.0
 40
1.0
 40
2.0
 40
2.0
 40
2.0
 40
3.0
 40
3.0
 40
3.0
 40
4.0
 40
4.0
 40
4.0
 40
5.0
 40
5.0
 40
5.0
 40
6.0
 40
6.0
 40
6.0
 40
7.0
 40
7.0
 40
7.0
 40
7.0
 10
78.85117321162402
 20
-130.7823703015058
 30
0.0
 10
78.85117321162402
 20
-130.7823703015058
 30
0.0
 10
78.44516870868732
 20
-130.5822102538128
 30
0.0
 10
78.44516870868732
 20
-130.5822102538128
 30
0.0
 10
78.44516870868732
 20
-130.5822102538128
 30
0.0
 10
78.1664604839306
 20
-131.1475504229423
 30
0.0
 10
78.1664604839306
 20
-131.1475504229423
 30
0.0
 10
78.1664604839306
 20
-131.1475504229423
 30
0.0
 10
77.95562064023332
 20
-131.0435085392877
 30
0.0
 10
77.95562064023332
 20
-131.0435085392877
 30
0.0
 10
77.95562064023332
 20
-131.0435085392877
 30
0.0
 10
78.63878307495837
 20
-129.6585801542173
 30
0.0
 10
78.63878307495837
 20
-129.6585801542173
 30
0.0
 10
78.63878307495837
 20
-129.6585801542173
 30
0.0
 10
79.25545516681808
 20
-129.9627820855649
 30
0.0
 10
79.25545516681808
 20
-129.9627820855649
 30
0.0
 10
79.5134928186633
 20
-130.0899061089706
 30
0.0
 10
79.62545842193391
 20
-130.3269286783558
 30
0.0
 10
79.49351126484885
 20
-130.5942680880111
 30
0.0
 10
79.38430173796642
 20
-130.8161322372613
 30
0.0
 10
79.14900171632387
 20
-130.9291313691774
 30
0.0
 10
78.85117321162402
 20
-130.7823703015058
 30
0.0
  0
SPLINE
  5
8C
330
82
100
AcDbEntity
  8
_U+30EC_U+30A4_U+30E4_U+30FC 1
370
     0
100
AcDbSpline
210
0.0
220
0.0
230
1.0
 70
    11
 71
     3
 72
    20
 73
    16
 74
     0
 42
0.0000000001
 43
0.0000000001
 12
1.0
 22
0.0
 32
0.0
 13
1.0
 23
0.0
 33
0.0
 40
0.0
 40
0.0
 40
0.0
 40
0.0
 40
1.0
 40
1.0
 40
1.0
 40
2.0
 40
2.0
 40
2.0
 40
3.0
 40
3.0
 40
3.0
 40
4.0
 40
4.0
 40
4.0
 40
5.0
 40
5.0
 40
5.0
 40
5.0
 10
79.15416935955174
 20
-130.1484727322198
 30
0.0
 10
79.15416935955174
 20
-130.1484727322198
 30
0.0
 10
78.75591632145685
 20
-129.9521022895606
 30
0.0
 10
78.75591632145685
 20
-129.9521022895606
 30
0.0
 10
78.75591632145685
 20
-129.9521022895606
 30
0.0
 10
78.53870305111185
 20
-130.3923854925755
 30
0.0
 10
78.53870305111185
 20
-130.3923854925755
 30
0.0
 10
78.53870305111185
 20
-130.3923854925755
 30
0.0
 10
78.937128343981
 20
-130.5887559352348
 30
0.0
 10
78.937128343981
 20
-130.5887559352348
 30
0.0
 10
79.08698999758937
 20
-130.6628254881676
 30
0.0
 10
79.2135972566723
 20
-130.6073594508551
 30
0.0
 10
79.27526446585827
 20
-130.481957975192
 30
0.0
 10
79.32573511471718
 20
-130.3796386392801
 30
0.0
 10
79.32297903832898
 20
-130.2318440429629
 30
0.0
 10
79.15416935955174
 20
-130.1484727322198
 30
0.0
  0
HATCH
  5
8D
330
82
100
AcDbEntity
  8
_U+30EC_U+30A4_U+30E4_U+30FC 1
 62
   179
420
  2234388
100
AcDbHatch
 10
0.0
 20
0.0
 30
0.0
210
0.0
220
0.0
230
1.0
  2
SOLID
 70
     1
 71
     0
 91
        2
 92
        1
 93
        1
 72
     4
 94
        3
 73
     0
 74
     1
 95
       26
 96
       22
 40
0.0
 40
0.0
 40
0.0
 40
0.0
 40
1.0
 40
1.0
 40
1.0
 40
2.0
 40
2.0
 40
2.0
 40
3.0
 40
3.0
 40
3.0
 40
4.0
 40
4.0
 40
4.0
 40
5.0
 40
5.0
 40
5.0
 40
6.0
 40
6.0
 40
6.0
 40
7.0
 40
7.0
 40
7.0
 40
7.0
 10
78.85117321162402
 20
-130.7823703015058
 10
78.85117321162402
 20
-130.7823703015058
 10
78.44516870868732
 20
-130.5822102538128
 10
78.44516870868732
 20
-130.5822102538128
 10
78.44516870868732
 20
-130.5822102538128
 10
78.1664604839306
 20
-131.1475504229423
 10
78.1664604839306
 20
-131.1475504229423
 10
78.1664604839306
 20
-131.1475504229423
 10
77.95562064023332
 20
-131.0435085392877
 10
77.95562064023332
 20
-131.0435085392877
 10
77.95562064023332
 20
-131.0435085392877
 10
78.63878307495837
 20
-129.6585801542173
 10
78.63878307495837
 20
-129.6585801542173
 10
78.63878307495837
 20
-129.6585801542173
 10
79.25545516681808
 20
-129.9627820855649
 10
79.25545516681808
 20
-129.9627820855649
 10
79.5134928186633
 20
-130.0899061089706
 10
79.62545842193391
 20
-130.3269286783558
 10
79.49351126484885
 20
-130.5942680880111
 10
79.38430173796642
 20
-130.8161322372613
 10
79.14900171632387
 20
-130.9291313691774
 10
78.85117321162402
 20
-130.7823703015058
 97
        0
 97
        0
 92
        1
 93
        1
 72
     4
 94
        3
 73
     0
 74
     1
 95
       20
 96
       16
 40
0.0
 40
0.0
 40
0.0
 40
0.0
 40
1.0
 40
1.0
 40
1.0
 40
2.0
 40
2.0
 40
2.0
 40
3.0
 40
3.0
 40
3.0
 40
4.0
 40
4.0
 40
4.0
 40
5.0
 40
5.0
 40
5.0
 40
5.0
 10
79.15416935955174
 20
-130.1484727322198
 10
79.15416935955174
 20
-130.1484727322198
 10
78.75591632145685
 20
-129.9521022895606
 10
78.75591632145685
 20
-129.9521022895606
 10
78.75591632145685
 20
-129.9521022895606
 10
78.53870305111185
 20
-130.3923854925755
 10
78.53870305111185
 20
-130.3923854925755
 10
78.53870305111185
 20
-130.3923854925755
 10
78.937128343981
 20
-130.5887559352348
 10
78.937128343981
 20
-130.5887559352348
 10
79.08698999758937
 20
-130.6628254881676
 10
79.2135972566723
 20
-130.6073594508551
 10
79.27526446585827
 20
-130.481957975192
 10
79.32573511471718
 20
-130.3796386392801
 10
79.32297903832898
 20
-130.2318440429629
 10
79.15416935955174
 20
-130.1484727322198
 97
        0
 97
        0
 75
     2
 76
     1
 98
        0
  0
POLYLINE
  5
8E
330
82
100
AcDbEntity
  8
_U+30EC_U+30A4_U+30E4_U+30FC 1
370
     0
100
AcDb2dPolyline
 66
     1
 10
0.0
 20
0.0
 30
0.0
  0
VERTEX
  5
8F
330
8E
100
AcDbEntity
  8
_U+30EC_U+30A4_U+30E4_U+30FC 1
370
     0
100
AcDbVertex
100
AcDb2dVertex
 10
79.330213738848
 20
-131.2236870331663
 30
0.0
  0
VERTEX
  5
90
330
8E
100
AcDbEntity
  8
_U+30EC_U+30A4_U+30E4_U+30FC 1
370
     0
100
AcDbVertex
100
AcDb2dVertex
 10
79.42564288378942
 20
-131.0304171764438
 30
0.0
  0
VERTEX
  5
91
330
8E
100
AcDbEntity
  8
_U+30EC_U+30A4_U+30E4_U+30FC 1
370
     0
100
AcDbVertex
100
AcDb2dVertex
 10
79.95101994529003
 20
-131.2894883569346
 30
0.0
  0
VERTEX
  5
92
330
8E
100
AcDbEntity
  8
_U+30EC_U+30A4_U+30E4_U+30FC 1
370
     0
100
AcDbVertex
100
AcDb2dVertex
 10
79.85559080034861
 20
-131.4831027232056
 30
0.0
  0
VERTEX
  5
93
330
8E
100
AcDbEntity
  8
_U+30EC_U+30A4_U+30E4_U+30FC 1
370
     0
100
AcDbVertex
100
AcDb2dVertex
 10
79.330213738848
 20
-131.2236870331663
 30
0.0
  0
SEQEND
  5
94
330
8E
100
AcDbEntity
  8
_U+30EC_U+30A4_U+30E4_U+30FC 1
370
     0
  0
HATCH
  5
95
330
82
100
AcDbEntity
  8
_U+30EC_U+30A4_U+30E4_U+30FC 1
 62
   179
420
  2234388
100
AcDbHatch
 10
0.0
 20
0.0
 30
0.0
210
0.0
220
0.0
230
1.0
  2
SOLID
 70
     1
 71
     0
 91
        1
 92
        1
 93
        4
 72
     1
 10
79.330213738848
 20
-131.2236870331663
 11
79.42564288378942
 21
-131.0304171764438
 72
     1
 10
79.42564288378942
 20
-131.0304171764438
 11
79.95101994529003
 21
-131.2894883569346
 72
     1
 10
79.95101994529003
 20
-131.2894883569346
 11
79.85559080034861
 21
-131.4831027232056
 72
     1
 10
79.85559080034861
 20
-131.4831027232056
 11
79.330213738848
 21
-131.2236870331663
 97
        0
 75
     2
 76
     1
 98
        0
  0
SPLINE
  5
96
330
82
100
AcDbEntity
  8
_U+30EC_U+30A4_U+30E4_U+30FC 1
370
     0
100
AcDbSpline
210
0.0
220
0.0
230
1.0
 70
    11
 71
     3
 72
    62
 73
    58
 74
     0
 42
0.0000000001
 43
0.0000000001
 12
1.0
 22
0.0
 32
0.0
 13
1.0
 23
0.0
 33
0.0
 40
0.0
 40
0.0
 40
0.0
 40
0.0
 40
1.0
 40
1.0
 40
1.0
 40
2.0
 40
2.0
 40
2.0
 40
3.0
 40
3.0
 40
3.0
 40
4.0
 40
4.0
 40
4.0
 40
5.0
 40
5.0
 40
5.0
 40
6.0
 40
6.0
 40
6.0
 40
7.0
 40
7.0
 40
7.0
 40
8.0
 40
8.0
 40
8.0
 40
9.0
 40
9.0
 40
9.0
 40
10.0
 40
10.0
 40
10.0
 40
11.0
 40
11.0
 40
11.0
 40
12.0
 40
12.0
 40
12.0
 40
13.0
 40
13.0
 40
13.0
 40
14.0
 40
14.0
 40
14.0
 40
15.0
 40
15.0
 40
15.0
 40
16.0
 40
16.0
 40
16.0
 40
17.0
 40
17.0
 40
17.0
 40
18.0
 40
18.0
 40
18.0
 40
19.0
 40
19.0
 40
19.0
 40
19.0
 10
80.19200437448325
 20
-132.2031276796228
 30
0.0
 10
80.10656600644906
 20
-132.1610975147028
 30
0.0
 10
79.9203585954713
 20
-132.0456868159469
 30
0.0
 10
79.89090302907242
 20
-131.8234781571483
 30
0.0
 10
79.87419431596895
 20
-131.6901529618691
 30
0.0
 10
79.91415742359786
 20
-131.5995469506071
 30
0.0
 10
79.9479193593533
 20
-131.5213432830919
 30
0.0
 10
79.9479193593533
 20
-131.5213432830919
 30
0.0
 10
80.14532333065812
 20
-131.6188394853245
 30
0.0
 10
80.14532333065812
 20
-131.6188394853245
 30
0.0
 10
80.11431747129087
 20
-131.6860188472868
 30
0.0
 10
80.02009410976929
 20
-131.9013373151149
 30
0.0
 10
80.27416990180646
 20
-132.0263942812295
 30
0.0
 10
80.39767657495267
 20
-132.0873724713184
 30
0.0
 10
80.56493596076155
 20
-132.0921956049978
 30
0.0
 10
80.66604951325363
 20
-131.887556933174
 30
0.0
 10
80.71755369075811
 20
-131.7831705399709
 30
0.0
 10
80.7048068374627
 20
-131.722881368979
 30
0.0
 10
80.69033743642464
 20
-131.6801621849619
 30
0.0
 10
80.65692001021772
 20
-131.5809434349867
 30
0.0
 10
80.55787351501678
 20
-131.5182426971552
 30
0.0
 10
80.50860864957771
 20
-131.4937825192099
 30
0.0
 10
80.49172768169998
 20
-131.4855142900453
 30
0.0
 10
80.45848251026733
 20
-131.4713893985558
 30
0.0
 10
80.4319552750309
 20
-131.4627766598426
 30
0.0
 10
80.4319552750309
 20
-131.4627766598426
 30
0.0
 10
80.51808266216214
 20
-131.2881103187405
 30
0.0
 10
80.51808266216214
 20
-131.2881103187405
 30
0.0
 10
80.54943303107792
 20
-131.3111924584917
 30
0.0
 10
80.58646780754435
 20
-131.3315185218546
 30
0.0
 10
80.59215221509503
 20
-131.3342745982428
 30
0.0
 10
80.65089109311853
 20
-131.3632134003189
 30
0.0
 10
80.8388210518389
 20
-131.4321153100239
 30
0.0
 10
80.9435519545905
 20
-131.2198974281325
 30
0.0
 10
81.0221001316542
 20
-131.0603895071655
 30
0.0
 10
80.92873804400394
 20
-130.9529025280257
 30
0.0
 10
80.83020831312578
 20
-130.9043266816836
 30
0.0
 10
80.59284123419206
 20
-130.7875379447337
 30
0.0
 10
80.48225366911555
 20
-130.9925211261061
 30
0.0
 10
80.44676918561748
 20
-131.0548773543891
 30
0.0
 10
80.44676918561748
 20
-131.0548773543891
 30
0.0
 10
80.26452363444776
 20
-130.964960362224
 30
0.0
 10
80.26452363444776
 20
-130.964960362224
 30
0.0
 10
80.3272243722793
 20
-130.8571288735357
 30
0.0
 10
80.5187716812592
 20
-130.5315673501796
 30
0.0
 10
80.92839353445541
 20
-130.7334499456153
 30
0.0
 10
81.12958711079399
 20
-130.8326686955905
 30
0.0
 10
81.28961179608385
 20
-131.053499316195
 30
0.0
 10
81.15887042241862
 20
-131.3187716685592
 30
0.0
 10
81.07636038554689
 20
-131.4858587995938
 30
0.0
 10
80.9545762601433
 20
-131.5178981876066
 30
0.0
 10
80.83813203274185
 20
-131.5285779836109
 30
0.0
 10
80.88102347153323
 20
-131.5805989254382
 30
0.0
 10
81.00883651403599
 20
-131.7332166554347
 30
0.0
 10
80.88619111476109
 20
-131.9816080399213
 30
0.0
 10
80.73650171592699
 20
-132.2851209521718
 30
0.0
 10
80.44056801374403
 20
-132.3257730788977
 30
0.0
 10
80.19200437448325
 20
-132.2031276796228
 30
0.0
  0
HATCH
  5
97
330
82
100
AcDbEntity
  8
_U+30EC_U+30A4_U+30E4_U+30FC 1
 62
   179
420
  2234388
100
AcDbHatch
 10
0.0
 20
0.0
 30
0.0
210
0.0
220
0.0
230
1.0
  2
SOLID
 70
     1
 71
     0
 91
        1
 92
        1
 93
        1
 72
     4
 94
        3
 73
     0
 74
     1
 95
       62
 96
       58
 40
0.0
 40
0.0
 40
0.0
 40
0.0
 40
1.0
 40
1.0
 40
1.0
 40
2.0
 40
2.0
 40
2.0
 40
3.0
 40
3.0
 40
3.0
 40
4.0
 40
4.0
 40
4.0
 40
5.0
 40
5.0
 40
5.0
 40
6.0
 40
6.0
 40
6.0
 40
7.0
 40
7.0
 40
7.0
 40
8.0
 40
8.0
 40
8.0
 40
9.0
 40
9.0
 40
9.0
 40
10.0
 40
10.0
 40
10.0
 40
11.0
 40
11.0
 40
11.0
 40
12.0
 40
12.0
 40
12.0
 40
13.0
 40
13.0
 40
13.0
 40
14.0
 40
14.0
 40
14.0
 40
15.0
 40
15.0
 40
15.0
 40
16.0
 40
16.0
 40
16.0
 40
17.0
 40
17.0
 40
17.0
 40
18.0
 40
18.0
 40
18.0
 40
19.0
 40
19.0
 40
19.0
 40
19.0
 10
80.19200437448325
 20
-132.2031276796228
 10
80.10656600644906
 20
-132.1610975147028
 10
79.9203585954713
 20
-132.0456868159469
 10
79.89090302907242
 20
-131.8234781571483
 10
79.87419431596895
 20
-131.6901529618691
 10
79.91415742359786
 20
-131.5995469506071
 10
79.9479193593533
 20
-131.5213432830919
 10
79.9479193593533
 20
-131.5213432830919
 10
80.14532333065812
 20
-131.6188394853245
 10
80.14532333065812
 20
-131.6188394853245
 10
80.11431747129087
 20
-131.6860188472868
 10
80.02009410976929
 20
-131.9013373151149
 10
80.27416990180646
 20
-132.0263942812295
 10
80.39767657495267
 20
-132.0873724713184
 10
80.56493596076155
 20
-132.0921956049978
 10
80.66604951325363
 20
-131.887556933174
 10
80.71755369075811
 20
-131.7831705399709
 10
80.7048068374627
 20
-131.722881368979
 10
80.69033743642464
 20
-131.6801621849619
 10
80.65692001021772
 20
-131.5809434349867
 10
80.55787351501678
 20
-131.5182426971552
 10
80.50860864957771
 20
-131.4937825192099
 10
80.49172768169998
 20
-131.4855142900453
 10
80.45848251026733
 20
-131.4713893985558
 10
80.4319552750309
 20
-131.4627766598426
 10
80.4319552750309
 20
-131.4627766598426
 10
80.51808266216214
 20
-131.2881103187405
 10
80.51808266216214
 20
-131.2881103187405
 10
80.54943303107792
 20
-131.3111924584917
 10
80.58646780754435
 20
-131.3315185218546
 10
80.59215221509503
 20
-131.3342745982428
 10
80.65089109311853
 20
-131.3632134003189
 10
80.8388210518389
 20
-131.4321153100239
 10
80.9435519545905
 20
-131.2198974281325
 10
81.0221001316542
 20
-131.0603895071655
 10
80.92873804400394
 20
-130.9529025280257
 10
80.83020831312578
 20
-130.9043266816836
 10
80.59284123419206
 20
-130.7875379447337
 10
80.48225366911555
 20
-130.9925211261061
 10
80.44676918561748
 20
-131.0548773543891
 10
80.44676918561748
 20
-131.0548773543891
 10
80.26452363444776
 20
-130.964960362224
 10
80.26452363444776
 20
-130.964960362224
 10
80.3272243722793
 20
-130.8571288735357
 10
80.5187716812592
 20
-130.5315673501796
 10
80.92839353445541
 20
-130.7334499456153
 10
81.12958711079399
 20
-130.8326686955905
 10
81.28961179608385
 20
-131.053499316195
 10
81.15887042241862
 20
-131.3187716685592
 10
81.07636038554689
 20
-131.4858587995938
 10
80.9545762601433
 20
-131.5178981876066
 10
80.83813203274185
 20
-131.5285779836109
 10
80.88102347153323
 20
-131.5805989254382
 10
81.00883651403599
 20
-131.7332166554347
 10
80.88619111476109
 20
-131.9816080399213
 10
80.73650171592699
 20
-132.2851209521718
 10
80.44056801374403
 20
-132.3257730788977
 10
80.19200437448325
 20
-132.2031276796228
 97
        0
 97
        0
 75
     2
 76
     1
 98
        0
  0
SPLINE
  5
98
330
82
100
AcDbEntity
  8
_U+30EC_U+30A4_U+30E4_U+30FC 1
370
     0
100
AcDbSpline
210
0.0
220
0.0
230
1.0
 70
    11
 71
     3
 72
    29
 73
    25
 74
     0
 42
0.0000000001
 43
0.0000000001
 12
1.0
 22
0.0
 32
0.0
 13
1.0
 23
0.0
 33
0.0
 40
0.0
 40
0.0
 40
0.0
 40
0.0
 40
1.0
 40
1.0
 40
1.0
 40
2.0
 40
2.0
 40
2.0
 40
3.0
 40
3.0
 40
3.0
 40
4.0
 40
4.0
 40
4.0
 40
5.0
 40
5.0
 40
5.0
 40
6.0
 40
6.0
 40
6.0
 40
7.0
 40
7.0
 40
7.0
 40
8.0
 40
8.0
 40
8.0
 40
8.0
 10
81.7128417764468
 20
-132.6985324104018
 30
0.0
 10
81.52353377953231
 20
-132.8384032871029
 30
0.0
 10
81.35954723443442
 20
-132.7788031352081
 30
0.0
 10
81.25516084123136
 20
-132.7274712124779
 30
0.0
 10
81.11098359517365
 20
-132.6561577359332
 30
0.0
 10
81.00453014467942
 20
-132.5517713427301
 30
0.0
 10
80.99936250145156
 20
-132.3464436518092
 30
0.0
 10
80.99281682002957
 20
-132.1263020503018
 30
0.0
 10
81.08014999058067
 20
-131.9054714296973
 30
0.0
 10
81.15232474099665
 20
-131.7593993811226
 30
0.0
 10
81.21605900747376
 20
-131.6302083004258
 30
0.0
 10
81.34249401178243
 20
-131.411789246661
 30
0.0
 10
81.5254285820492
 20
-131.2801865991244
 30
0.0
 10
81.71180824780122
 20
-131.1461723847482
 30
0.0
 10
81.86649303508894
 20
-131.1961262692843
 30
0.0
 10
81.98224824339333
 20
-131.2533148543395
 30
0.0
 10
82.12453068693415
 20
-131.32325029269
 30
0.0
 10
82.23374021381657
 20
-131.4266031572475
 30
0.0
 10
82.23890785704444
 20
-131.6319308481684
 30
0.0
 10
82.24269746207821
 20
-131.8489718637392
 30
0.0
 10
82.1624267372719
 20
-132.0639458220188
 30
0.0
 10
82.08560110795082
 20
-132.219664137952
 30
0.0
 10
82.00998126204959
 20
-132.3733153965942
 30
0.0
 10
81.88923066529159
 20
-132.570719367899
 30
0.0
 10
81.7128417764468
 20
-132.6985324104018
 30
0.0
  0
SPLINE
  5
99
330
82
100
AcDbEntity
  8
_U+30EC_U+30A4_U+30E4_U+30FC 1
370
     0
100
AcDbSpline
210
0.0
220
0.0
230
1.0
 70
    11
 71
     3
 72
    17
 73
    13
 74
     0
 42
0.0000000001
 43
0.0000000001
 12
1.0
 22
0.0
 32
0.0
 13
1.0
 23
0.0
 33
0.0
 40
0.0
 40
0.0
 40
0.0
 40
0.0
 40
1.0
 40
1.0
 40
1.0
 40
2.0
 40
2.0
 40
2.0
 40
3.0
 40
3.0
 40
3.0
 40
4.0
 40
4.0
 40
4.0
 40
4.0
 10
81.8969821301334
 20
-131.4259141381505
 30
0.0
 10
81.67305092359216
 20
-131.3156710826225
 30
0.0
 10
81.50596379255754
 20
-131.5492485565224
 30
0.0
 10
81.35351831733523
 20
-131.8586181310978
 30
0.0
 10
81.21226940243999
 20
-132.1449055659221
 30
0.0
 10
81.10805526401118
 20
-132.4377386821683
 30
0.0
 10
81.3412882283626
 20
-132.5528048713757
 30
0.0
 10
81.56332463238695
 20
-132.6620143982581
 30
0.0
 10
81.73144529206714
 20
-132.4318820198434
 30
0.0
 10
81.88475204116077
 20
-132.1204453879768
 30
0.0
 10
82.02634546560454
 20
-131.833813443604
 30
0.0
 10
82.12849254674218
 20
-131.5402913082608
 30
0.0
 10
81.8969821301334
 20
-131.4259141381505
 30
0.0
  0
HATCH
  5
9A
330
82
100
AcDbEntity
  8
_U+30EC_U+30A4_U+30E4_U+30FC 1
 62
   179
420
  2234388
100
AcDbHatch
 10
0.0
 20
0.0
 30
0.0
210
0.0
220
0.0
230
1.0
  2
SOLID
 70
     1
 71
     0
 91
        2
 92
        1
 93
        1
 72
     4
 94
        3
 73
     0
 74
     1
 95
       29
 96
       25
 40
0.0
 40
0.0
 40
0.0
 40
0.0
 40
1.0
 40
1.0
 40
1.0
 40
2.0
 40
2.0
 40
2.0
 40
3.0
 40
3.0
 40
3.0
 40
4.0
 40
4.0
 40
4.0
 40
5.0
 40
5.0
 40
5.0
 40
6.0
 40
6.0
 40
6.0
 40
7.0
 40
7.0
 40
7.0
 40
8.0
 40
8.0
 40
8.0
 40
8.0
 10
81.7128417764468
 20
-132.6985324104018
 10
81.52353377953231
 20
-132.8384032871029
 10
81.35954723443442
 20
-132.7788031352081
 10
81.25516084123136
 20
-132.7274712124779
 10
81.11098359517365
 20
-132.6561577359332
 10
81.00453014467942
 20
-132.5517713427301
 10
80.99936250145156
 20
-132.3464436518092
 10
80.99281682002957
 20
-132.1263020503018
 10
81.08014999058067
 20
-131.9054714296973
 10
81.15232474099665
 20
-131.7593993811226
 10
81.21605900747376
 20
-131.6302083004258
 10
81.34249401178243
 20
-131.411789246661
 10
81.5254285820492
 20
-131.2801865991244
 10
81.71180824780122
 20
-131.1461723847482
 10
81.86649303508894
 20
-131.1961262692843
 10
81.98224824339333
 20
-131.2533148543395
 10
82.12453068693415
 20
-131.32325029269
 10
82.23374021381657
 20
-131.4266031572475
 10
82.23890785704444
 20
-131.6319308481684
 10
82.24269746207821
 20
-131.8489718637392
 10
82.1624267372719
 20
-132.0639458220188
 10
82.08560110795082
 20
-132.219664137952
 10
82.00998126204959
 20
-132.3733153965942
 10
81.88923066529159
 20
-132.570719367899
 10
81.7128417764468
 20
-132.6985324104018
 97
        0
 97
        0
 92
        1
 93
        1
 72
     4
 94
        3
 73
     0
 74
     1
 95
       17
 96
       13
 40
0.0
 40
0.0
 40
0.0
 40
0.0
 40
1.0
 40
1.0
 40
1.0
 40
2.0
 40
2.0
 40
2.0
 40
3.0
 40
3.0
 40
3.0
 40
4.0
 40
4.0
 40
4.0
 40
4.0
 10
81.8969821301334
 20
-131.4259141381505
 10
81.67305092359216
 20
-131.3156710826225
 10
81.50596379255754
 20
-131.5492485565224
 10
81.35351831733523
 20
-131.8586181310978
 10
81.21226940243999
 20
-132.1449055659221
 10
81.10805526401118
 20
-132.4377386821683
 10
81.3412882283626
 20
-132.5528048713757
 10
81.56332463238695
 20
-132.6620143982581
 10
81.73144529206714
 20
-132.4318820198434
 10
81.88475204116077
 20
-132.1204453879768
 10
82.02634546560454
 20
-131.833813443604
 10
82.12849254674218
 20
-131.5402913082608
 10
81.8969821301334
 20
-131.4259141381505
 97
        0
 97
        0
 75
     2
 76
     1
 98
        0
  0
POLYLINE
  5
9B
330
82
100
AcDbEntity
  8
_U+30EC_U+30A4_U+30E4_U+30FC 1
370
     0
100
AcDb2dPolyline
 66
     1
 10
0.0
 20
0.0
 30
0.0
  0
VERTEX
  5
9C
330
9B
100
AcDbEntity
  8
_U+30EC_U+30A4_U+30E4_U+30FC 1
370
     0
100
AcDbVertex
100
AcDb2dVertex
 10
83.08846840370705
 20
-133.5749647018493
 30
0.0
  0
VERTEX
  5
9D
330
9B
100
AcDbEntity
  8
_U+30EC_U+30A4_U+30E4_U+30FC 1
370
     0
100
AcDbVertex
100
AcDb2dVertex
 10
83.5607909947348
 20
-132.6168836474014
 30
0.0
  0
VERTEX
  5
9E
330
9B
100
AcDbEntity
  8
_U+30EC_U+30A4_U+30E4_U+30FC 1
370
     0
100
AcDbVertex
100
AcDb2dVertex
 10
83.63847789792719
 20
-132.4732231656664
 30
0.0
  0
VERTEX
  5
9F
330
9B
100
AcDbEntity
  8
_U+30EC_U+30A4_U+30E4_U+30FC 1
370
     0
100
AcDbVertex
100
AcDb2dVertex
 10
83.53805336453216
 20
-132.5958685649413
 30
0.0
  0
VERTEX
  5
A0
330
9B
100
AcDbEntity
  8
_U+30EC_U+30A4_U+30E4_U+30FC 1
370
     0
100
AcDbVertex
100
AcDb2dVertex
 10
82.7525715938952
 20
-133.4092556090088
 30
0.0
  0
VERTEX
  5
A1
330
9B
100
AcDbEntity
  8
_U+30EC_U+30A4_U+30E4_U+30FC 1
370
     0
100
AcDbVertex
100
AcDb2dVertex
 10
82.50969236218508
 20
-133.2893662861221
 30
0.0
  0
VERTEX
  5
A2
330
9B
100
AcDbEntity
  8
_U+30EC_U+30A4_U+30E4_U+30FC 1
370
     0
100
AcDbVertex
100
AcDb2dVertex
 10
82.67850204096233
 20
-132.1721218202556
 30
0.0
  0
VERTEX
  5
A3
330
9B
100
AcDbEntity
  8
_U+30EC_U+30A4_U+30E4_U+30FC 1
370
     0
100
AcDbVertex
100
AcDb2dVertex
 10
82.71450328878318
 20
-132.0177815425164
 30
0.0
  0
VERTEX
  5
A4
330
9B
100
AcDbEntity
  8
_U+30EC_U+30A4_U+30E4_U+30FC 1
370
     0
100
AcDbVertex
100
AcDb2dVertex
 10
82.6464626529495
 20
-132.1659206483821
 30
0.0
  0
VERTEX
  5
A5
330
9B
100
AcDbEntity
  8
_U+30EC_U+30A4_U+30E4_U+30FC 1
370
     0
100
AcDbVertex
100
AcDb2dVertex
 10
82.17379555237322
 20
-133.1236571932816
 30
0.0
  0
VERTEX
  5
A6
330
9B
100
AcDbEntity
  8
_U+30EC_U+30A4_U+30E4_U+30FC 1
370
     0
100
AcDbVertex
100
AcDb2dVertex
 10
81.97845863835956
 20
-133.0275390292431
 30
0.0
  0
VERTEX
  5
A7
330
9B
100
AcDbEntity
  8
_U+30EC_U+30A4_U+30E4_U+30FC 1
370
     0
100
AcDbVertex
100
AcDb2dVertex
 10
82.66144881831033
 20
-131.6422661346242
 30
0.0
  0
VERTEX
  5
A8
330
9B
100
AcDbEntity
  8
_U+30EC_U+30A4_U+30E4_U+30FC 1
370
     0
100
AcDbVertex
100
AcDb2dVertex
 10
82.94790850790886
 20
-131.7835150495194
 30
0.0
  0
VERTEX
  5
A9
330
9B
100
AcDbEntity
  8
_U+30EC_U+30A4_U+30E4_U+30FC 1
370
     0
100
AcDbVertex
100
AcDb2dVertex
 10
82.77169187383834
 20
-132.977585144707
 30
0.0
  0
VERTEX
  5
AA
330
9B
100
AcDbEntity
  8
_U+30EC_U+30A4_U+30E4_U+30FC 1
370
     0
100
AcDbVertex
100
AcDb2dVertex
 10
82.74326983608502
 20
-133.1215901359904
 30
0.0
  0
VERTEX
  5
AB
330
9B
100
AcDbEntity
  8
_U+30EC_U+30A4_U+30E4_U+30FC 1
370
     0
100
AcDbVertex
100
AcDb2dVertex
 10
82.84007701922054
 20
-133.0113470804625
 30
0.0
  0
VERTEX
  5
AC
330
9B
100
AcDbEntity
  8
_U+30EC_U+30A4_U+30E4_U+30FC 1
370
     0
100
AcDbVertex
100
AcDb2dVertex
 10
83.68223061058987
 20
-132.1459390945677
 30
0.0
  0
VERTEX
  5
AD
330
9B
100
AcDbEntity
  8
_U+30EC_U+30A4_U+30E4_U+30FC 1
370
     0
100
AcDbVertex
100
AcDb2dVertex
 10
83.9667954976715
 20
-132.2861544808173
 30
0.0
  0
VERTEX
  5
AE
330
9B
100
AcDbEntity
  8
_U+30EC_U+30A4_U+30E4_U+30FC 1
370
     0
100
AcDbVertex
100
AcDb2dVertex
 10
83.28380531772072
 20
-133.6710828658878
 30
0.0
  0
VERTEX
  5
AF
330
9B
100
AcDbEntity
  8
_U+30EC_U+30A4_U+30E4_U+30FC 1
370
     0
100
AcDbVertex
100
AcDb2dVertex
 10
83.08846840370705
 20
-133.5749647018493
 30
0.0
  0
SEQEND
  5
B0
330
9B
100
AcDbEntity
  8
_U+30EC_U+30A4_U+30E4_U+30FC 1
370
     0
  0
HATCH
  5
B1
330
82
100
AcDbEntity
  8
_U+30EC_U+30A4_U+30E4_U+30FC 1
 62
   179
420
  2234388
100
AcDbHatch
 10
0.0
 20
0.0
 30
0.0
210
0.0
220
0.0
230
1.0
  2
SOLID
 70
     1
 71
     0
 91
        1
 92
        1
 93
       19
 72
     1
 10
83.08846840370705
 20
-133.5749647018493
 11
83.5607909947348
 21
-132.6168836474014
 72
     1
 10
83.5607909947348
 20
-132.6168836474014
 11
83.63847789792719
 21
-132.4732231656664
 72
     1
 10
83.63847789792719
 20
-132.4732231656664
 11
83.53805336453216
 21
-132.5958685649413
 72
     1
 10
83.53805336453216
 20
-132.5958685649413
 11
82.7525715938952
 21
-133.4092556090088
 72
     1
 10
82.7525715938952
 20
-133.4092556090088
 11
82.50969236218508
 21
-133.2893662861221
 72
     1
 10
82.50969236218508
 20
-133.2893662861221
 11
82.67850204096233
 21
-132.1721218202556
 72
     1
 10
82.67850204096233
 20
-132.1721218202556
 11
82.71450328878318
 21
-132.0177815425164
 72
     1
 10
82.71450328878318
 20
-132.0177815425164
 11
82.6464626529495
 21
-132.1659206483821
 72
     1
 10
82.6464626529495
 20
-132.1659206483821
 11
82.17379555237322
 21
-133.1236571932816
 72
     1
 10
82.17379555237322
 20
-133.1236571932816
 11
81.97845863835956
 21
-133.0275390292431
 72
     1
 10
81.97845863835956
 20
-133.0275390292431
 11
82.66144881831033
 21
-131.6422661346242
 72
     1
 10
82.66144881831033
 20
-131.6422661346242
 11
82.94790850790886
 21
-131.7835150495194
 72
     1
 10
82.94790850790886
 20
-131.7835150495194
 11
82.77169187383834
 21
-132.977585144707
 72
     1
 10
82.77169187383834
 20
-132.977585144707
 11
82.74326983608502
 21
-133.1215901359904
 72
     1
 10
82.74326983608502
 20
-133.1215901359904
 11
82.84007701922054
 21
-133.0113470804625
 72
     1
 10
82.84007701922054
 20
-133.0113470804625
 11
83.68223061058987
 21
-132.1459390945677
 72
     1
 10
83.68223061058987
 20
-132.1459390945677
 11
83.9667954976715
 21
-132.2861544808173
 72
     1
 10
83.9667954976715
 20
-132.2861544808173
 11
83.28380531772072
 21
-133.6710828658878
 72
     1
 10
83.28380531772072
 20
-133.6710828658878
 11
83.08846840370705
 21
-133.5749647018493
 97
        0
 75
     2
 76
     1
 98
        0
  0
POLYLINE
  5
B2
330
82
100
AcDbEntity
  8
_U+30EC_U+30A4_U+30E4_U+30FC 1
370
     0
100
AcDb2dPolyline
 66
     1
 10
0.0
 20
0.0
 30
0.0
  0
VERTEX
  5
B3
330
B2
100
AcDbEntity
  8
_U+30EC_U+30A4_U+30E4_U+30FC 1
370
     0
100
AcDbVertex
100
AcDb2dVertex
 10
84.85166827305792
 20
-134.4445068023264
 30
0.0
  0
VERTEX
  5
B4
330
B2
100
AcDbEntity
  8
_U+30EC_U+30A4_U+30E4_U+30FC 1
370
     0
100
AcDbVertex
100
AcDb2dVertex
 10
84.6087890413478
 20
-134.3246174794397
 30
0.0
  0
VERTEX
  5
B5
330
B2
100
AcDbEntity
  8
_U+30EC_U+30A4_U+30E4_U+30FC 1
370
     0
100
AcDbVertex
100
AcDb2dVertex
 10
84.91609155863209
 20
-133.0561333217707
 30
0.0
  0
VERTEX
  5
B6
330
B2
100
AcDbEntity
  8
_U+30EC_U+30A4_U+30E4_U+30FC 1
370
     0
100
AcDbVertex
100
AcDb2dVertex
 10
84.09891490953083
 20
-134.0731255090164
 30
0.0
  0
VERTEX
  5
B7
330
B2
100
AcDbEntity
  8
_U+30EC_U+30A4_U+30E4_U+30FC 1
370
     0
100
AcDbVertex
100
AcDb2dVertex
 10
83.85603567782071
 20
-133.9532361861297
 30
0.0
  0
VERTEX
  5
B8
330
B2
100
AcDbEntity
  8
_U+30EC_U+30A4_U+30E4_U+30FC 1
370
     0
100
AcDbVertex
100
AcDb2dVertex
 10
84.19537758311783
 20
-132.398809103185
 30
0.0
  0
VERTEX
  5
B9
330
B2
100
AcDbEntity
  8
_U+30EC_U+30A4_U+30E4_U+30FC 1
370
     0
100
AcDbVertex
100
AcDb2dVertex
 10
84.40432262429823
 20
-132.501817458194
 30
0.0
  0
VERTEX
  5
BA
330
B2
100
AcDbEntity
  8
_U+30EC_U+30A4_U+30E4_U+30FC 1
370
     0
100
AcDbVertex
100
AcDb2dVertex
 10
84.10752764824396
 20
-133.749286533403
 30
0.0
  0
VERTEX
  5
BB
330
B2
100
AcDbEntity
  8
_U+30EC_U+30A4_U+30E4_U+30FC 1
370
     0
100
AcDbVertex
100
AcDb2dVertex
 10
84.91075166062996
 20
-132.7515868808746
 30
0.0
  0
VERTEX
  5
BC
330
B2
100
AcDbEntity
  8
_U+30EC_U+30A4_U+30E4_U+30FC 1
370
     0
100
AcDbVertex
100
AcDb2dVertex
 10
85.16121010240762
 20
-132.8752658087951
 30
0.0
  0
VERTEX
  5
BD
330
B2
100
AcDbEntity
  8
_U+30EC_U+30A4_U+30E4_U+30FC 1
370
     0
100
AcDbVertex
100
AcDb2dVertex
 10
84.85855846402842
 20
-134.1199788076158
 30
0.0
  0
VERTEX
  5
BE
330
B2
100
AcDbEntity
  8
_U+30EC_U+30A4_U+30E4_U+30FC 1
370
     0
100
AcDbVertex
100
AcDb2dVertex
 10
85.66953394125623
 20
-133.1257242505727
 30
0.0
  0
VERTEX
  5
BF
330
B2
100
AcDbEntity
  8
_U+30EC_U+30A4_U+30E4_U+30FC 1
370
     0
100
AcDbVertex
100
AcDb2dVertex
 10
85.87847898243663
 20
-133.2287326055817
 30
0.0
  0
VERTEX
  5
C0
330
B2
100
AcDbEntity
  8
_U+30EC_U+30A4_U+30E4_U+30FC 1
370
     0
100
AcDbVertex
100
AcDb2dVertex
 10
84.85166827305792
 20
-134.4445068023264
 30
0.0
  0
SEQEND
  5
C1
330
B2
100
AcDbEntity
  8
_U+30EC_U+30A4_U+30E4_U+30FC 1
370
     0
  0
HATCH
  5
C2
330
82
100
AcDbEntity
  8
_U+30EC_U+30A4_U+30E4_U+30FC 1
 62
   179
420
  2234388
100
AcDbHatch
 10
0.0
 20
0.0
 30
0.0
210
0.0
220
0.0
230
1.0
  2
SOLID
 70
     1
 71
     0
 91
        1
 92
        1
 93
       13
 72
     1
 10
84.85166827305792
 20
-134.4445068023264
 11
84.6087890413478
 21
-134.3246174794397
 72
     1
 10
84.6087890413478
 20
-134.3246174794397
 11
84.91609155863209
 21
-133.0561333217707
 72
     1
 10
84.91609155863209
 20
-133.0561333217707
 11
84.09891490953083
 21
-134.0731255090164
 72
     1
 10
84.09891490953083
 20
-134.0731255090164
 11
83.85603567782071
 21
-133.9532361861297
 72
     1
 10
83.85603567782071
 20
-133.9532361861297
 11
84.19537758311783
 21
-132.398809103185
 72
     1
 10
84.19537758311783
 20
-132.398809103185
 11
84.40432262429823
 21
-132.501817458194
 72
     1
 10
84.40432262429823
 20
-132.501817458194
 11
84.10752764824396
 21
-133.749286533403
 72
     1
 10
84.10752764824396
 20
-133.749286533403
 11
84.91075166062996
 21
-132.7515868808746
 72
     1
 10
84.91075166062996
 20
-132.7515868808746
 11
85.16121010240762
 21
-132.8752658087951
 72
     1
 10
85.16121010240762
 20
-132.8752658087951
 11
84.85855846402842
 21
-134.1199788076158
 72
     1
 10
84.85855846402842
 20
-134.1199788076158
 11
85.66953394125623
 21
-133.1257242505727
 72
     1
 10
85.66953394125623
 20
-133.1257242505727
 11
85.87847898243663
 21
-133.2287326055817
 72
     1
 10
85.87847898243663
 20
-133.2287326055817
 11
84.85166827305792
 21
-134.4445068023264
 97
        0
 75
     2
 76
     1
 98
        0
  0
ENDBLK
  5
85
330
82
100
AcDbEntity
  8
0
100
AcDbBlockEnd
  0
ENDSEC
  0
SECTION
  2
ENTITIES
  0
INSERT
  5
42
330
1F
100
AcDbEntity
  8
_U+30EC_U+30A4_U+30E4_U+30FC 1
100
AcDbBlockReference
  2
block 2
 10
0.0
 20
0.0
 30
0.0
  0
INSERT
  5
83
330
1F
100
AcDbEntity
  8
_U+30EC_U+30A4_U+30E4_U+30FC 1
100
AcDbBlockReference
  2
block 3
 10
0.0
 20
0.0
 30
0.0
  0
SPLINE
  5
C3
330
1F
100
AcDbEntity
  8
_U+30EC_U+30A4_U+30E4_U+30FC 1
 62
   179
420
  2234388
370
    15
100
AcDbSpline
210
0.0
220
0.0
230
1.0
 70
     8
 71
     3
 72
     8
 73
     4
 74
     0
 42
0.0000000001
 43
0.0000000001
 12
1.0
 22
0.0
 32
0.0
 13
1.0
 23
0.0
 33
0.0
 40
0.0
 40
0.0
 40
0.0
 40
0.0
 40
1.0
 40
1.0
 40
1.0
 40
1.0
 10
74.27058588297727
 20
-125.6908769130217
 30
0.0
 10
74.00014644543232
 20
-123.938700246793
 30
0.0
 10
74.91154781106941
 20
-122.3804808027383
 30
0.0
 10
76.36502749621029
 20
-122.0635099694842
 30
0.0
  0
SPLINE
  5
C4
330
1F
100
AcDbEntity
  8
_U+30EC_U+30A4_U+30E4_U+30FC 1
 62
   179
420
  2234388
370
    15
100
AcDbSpline
210
0.0
220
0.0
230
1.0
 70
     8
 71
     3
 72
     8
 73
     4
 74
     0
 42
0.0000000001
 43
0.0000000001
 12
1.0
 22
0.0
 32
0.0
 13
1.0
 23
0.0
 33
0.0
 40
0.0
 40
0.0
 40
0.0
 40
0.0
 40
1.0
 40
1.0
 40
1.0
 40
1.0
 10
107.8610999730346
 20
-125.6915471907994
 30
0.0
 10
108.1312191857872
 20
-123.938700246793
 30
0.0
 10
107.2196414312657
 20
-122.3808335805158
 30
0.0
 10
105.7664792461168
 20
-122.0638627472619
 30
0.0
  0
POLYLINE
  5
C5
330
1F
100
AcDbEntity
  8
_U+30EC_U+30A4_U+30E4_U+30FC 1
 62
   179
420
  2234388
370
    15
100
AcDb2dPolyline
 66
     1
 10
0.0
 20
0.0
 30
0.0
  0
VERTEX
  5
C6
330
C5
100
AcDbEntity
  8
_U+30EC_U+30A4_U+30E4_U+30FC 1
 62
   179
420
  2234388
370
    15
100
AcDbVertex
100
AcDb2dVertex
 10
91.06577101005196
 20
-134.78626413297
 30
0.0
  0
VERTEX
  5
C7
330
C5
100
AcDbEntity
  8
_U+30EC_U+30A4_U+30E4_U+30FC 1
 62
   179
420
  2234388
370
    15
100
AcDbVertex
100
AcDb2dVertex
 10
73.91124644770035
 20
-126.3133885795329
 30
0.0
  0
VERTEX
  5
C8
330
C5
100
AcDbEntity
  8
_U+30EC_U+30A4_U+30E4_U+30FC 1
 62
   179
420
  2234388
370
    15
100
AcDbVertex
100
AcDb2dVertex
 10
74.27058588297727
 20
-125.6908769130217
 30
0.0
  0
SEQEND
  5
C9
330
C5
100
AcDbEntity
  8
_U+30EC_U+30A4_U+30E4_U+30FC 1
 62
   179
420
  2234388
370
    15
  0
POLYLINE
  5
CA
330
1F
100
AcDbEntity
  8
_U+30EC_U+30A4_U+30E4_U+30FC 1
 62
   179
420
  2234388
370
    15
100
AcDb2dPolyline
 66
     1
 10
0.0
 20
0.0
 30
0.0
  0
VERTEX
  5
CB
330
CA
100
AcDbEntity
  8
_U+30EC_U+30A4_U+30E4_U+30FC 1
 62
   179
420
  2234388
370
    15
100
AcDbVertex
100
AcDb2dVertex
 10
91.06577101005196
 20
-134.78626413297
 30
0.0
  0
VERTEX
  5
CC
330
CA
100
AcDbEntity
  8
_U+30EC_U+30A4_U+30E4_U+30FC 1
 62
   179
420
  2234388
370
    15
100
AcDbVertex
100
AcDb2dVertex
 10
108.2352533497997
 20
-126.3061566350901
 30
0.0
  0
VERTEX
  5
CD
330
CA
100
AcDbEntity
  8
_U+30EC_U+30A4_U+30E4_U+30FC 1
 62
   179
420
  2234388
370
    15
100
AcDbVertex
100
AcDb2dVertex
 10
107.8610999730346
 20
-125.6915471907994
 30
0.0
  0
SEQEND
  5
CE
330
CA
100
AcDbEntity
  8
_U+30EC_U+30A4_U+30E4_U+30FC 1
 62
   179
420
  2234388
370
    15
  0
POLYLINE
  5
CF
330
1F
100
AcDbEntity
  8
_U+30EC_U+30A4_U+30E4_U+30FC 1
 62
   179
420
  2234388
370
    15
100
AcDb2dPolyline
 66
     1
 10
0.0
 20
0.0
 30
0.0
  0
VERTEX
  5
D0
330
CF
100
AcDbEntity
  8
_U+30EC_U+30A4_U+30E4_U+30FC 1
 62
   179
420
  2234388
370
    15
100
AcDbVertex
100
AcDb2dVertex
 10
74.27058588297727
 20
-125.6908769130217
 30
0.0
  0
VERTEX
  5
D1
330
CF
100
AcDbEntity
  8
_U+30EC_U+30A4_U+30E4_U+30FC 1
 62
   179
420
  2234388
370
    15
100
AcDbVertex
100
AcDb2dVertex
 10
91.06577101005196
 20
-133.9863052442813
 30
0.0
  0
SEQEND
  5
D2
330
CF
100
AcDbEntity
  8
_U+30EC_U+30A4_U+30E4_U+30FC 1
 62
   179
420
  2234388
370
    15
  0
POLYLINE
  5
D3
330
1F
100
AcDbEntity
  8
_U+30EC_U+30A4_U+30E4_U+30FC 1
 62
   179
420
  2234388
370
    15
100
AcDb2dPolyline
 66
     1
 10
0.0
 20
0.0
 30
0.0
  0
VERTEX
  5
D4
330
D3
100
AcDbEntity
  8
_U+30EC_U+30A4_U+30E4_U+30FC 1
 62
   179
420
  2234388
370
    15
100
AcDbVertex
100
AcDb2dVertex
 10
91.06577101005196
 20
-133.9863052442813
 30
0.0
  0
VERTEX
  5
D5
330
D3
100
AcDbEntity
  8
_U+30EC_U+30A4_U+30E4_U+30FC 1
 62
   179
420
  2234388
370
    15
100
AcDbVertex
100
AcDb2dVertex
 10
107.8610999730346
 20
-125.6915471907994
 30
0.0
  0
SEQEND
  5
D6
330
D3
100
AcDbEntity
  8
_U+30EC_U+30A4_U+30E4_U+30FC 1
 62
   179
420
  2234388
370
    15
  0
POLYLINE
  5
D7
330
1F
100
AcDbEntity
  8
_U+30EC_U+30A4_U+30E4_U+30FC 1
 62
   179
420
  2234388
370
    15
100
AcDb2dPolyline
 66
     1
 10
0.0
 20
0.0
 30
0.0
  0
VERTEX
  5
D8
330
D7
100
AcDbEntity
  8
_U+30EC_U+30A4_U+30E4_U+30FC 1
 62
   179
420
  2234388
370
    15
100
AcDbVertex
100
AcDb2dVertex
 10
91.06577101005196
 20
-128.5244585789799
 30
0.0
  0
VERTEX
  5
D9
330
D7
100
AcDbEntity
  8
_U+30EC_U+30A4_U+30E4_U+30FC 1
 62
   179
420
  2234388
370
    15
100
AcDbVertex
100
AcDb2dVertex
 10
76.72433165371034
 20
-121.4411746918619
 30
0.0
  0
VERTEX
  5
DA
330
D7
100
AcDbEntity
  8
_U+30EC_U+30A4_U+30E4_U+30FC 1
 62
   179
420
  2234388
370
    15
100
AcDbVertex
100
AcDb2dVertex
 10
76.36502749621029
 20
-122.0635099694842
 30
0.0
  0
SEQEND
  5
DB
330
D7
100
AcDbEntity
  8
_U+30EC_U+30A4_U+30E4_U+30FC 1
 62
   179
420
  2234388
370
    15
  0
POLYLINE
  5
DC
330
1F
100
AcDbEntity
  8
_U+30EC_U+30A4_U+30E4_U+30FC 1
 62
   179
420
  2234388
370
    15
100
AcDb2dPolyline
 66
     1
 10
0.0
 20
0.0
 30
0.0
  0
VERTEX
  5
DD
330
DC
100
AcDbEntity
  8
_U+30EC_U+30A4_U+30E4_U+30FC 1
 62
   179
420
  2234388
370
    15
100
AcDbVertex
100
AcDb2dVertex
 10
91.06577101005196
 20
-128.5244585789799
 30
0.0
  0
VERTEX
  5
DE
330
DC
100
AcDbEntity
  8
_U+30EC_U+30A4_U+30E4_U+30FC 1
 62
   179
420
  2234388
370
    15
100
AcDbVertex
100
AcDb2dVertex
 10
105.406824973648
 20
-121.4406455251955
 30
0.0
  0
VERTEX
  5
DF
330
DC
100
AcDbEntity
  8
_U+30EC_U+30A4_U+30E4_U+30FC 1
 62
   179
420
  2234388
370
    15
100
AcDbVertex
100
AcDb2dVertex
 10
105.7664792461168
 20
-122.0638627472619
 30
0.0
  0
SEQEND
  5
E0
330
DC
100
AcDbEntity
  8
_U+30EC_U+30A4_U+30E4_U+30FC 1
 62
   179
420
  2234388
370
    15
  0
POLYLINE
  5
E1
330
1F
100
AcDbEntity
  8
_U+30EC_U+30A4_U+30E4_U+30FC 1
 62
   179
420
  2234388
370
    15
100
AcDb2dPolyline
 66
     1
 10
0.0
 20
0.0
 30
0.0
  0
VERTEX
  5
E2
330
E1
100
AcDbEntity
  8
_U+30EC_U+30A4_U+30E4_U+30FC 1
 62
   179
420
  2234388
370
    15
100
AcDbVertex
100
AcDb2dVertex
 10
76.36502749621029
 20
-122.0635099694842
 30
0.0
  0
VERTEX
  5
E3
330
E1
100
AcDbEntity
  8
_U+30EC_U+30A4_U+30E4_U+30FC 1
 62
   179
420
  2234388
370
    15
100
AcDbVertex
100
AcDb2dVertex
 10
91.06577101005196
 20
-129.3244174676691
 30
0.0
  0
SEQEND
  5
E4
330
E1
100
AcDbEntity
  8
_U+30EC_U+30A4_U+30E4_U+30FC 1
 62
   179
420
  2234388
370
    15
  0
POLYLINE
  5
E5
330
1F
100
AcDbEntity
  8
_U+30EC_U+30A4_U+30E4_U+30FC 1
 62
   179
420
  2234388
370
    15
100
AcDb2dPolyline
 66
     1
 10
0.0
 20
0.0
 30
0.0
  0
VERTEX
  5
E6
330
E5
100
AcDbEntity
  8
_U+30EC_U+30A4_U+30E4_U+30FC 1
 62
   179
420
  2234388
370
    15
100
AcDbVertex
100
AcDb2dVertex
 10
91.06577101005196
 20
-129.3244174676691
 30
0.0
  0
VERTEX
  5
E7
330
E5
100
AcDbEntity
  8
_U+30EC_U+30A4_U+30E4_U+30FC 1
 62
   179
420
  2234388
370
    15
100
AcDbVertex
100
AcDb2dVertex
 10
105.7720178570866
 20
-122.0611110805958
 30
0.0
  0
SEQEND
  5
E8
330
E5
100
AcDbEntity
  8
_U+30EC_U+30A4_U+30E4_U+30FC 1
 62
   179
420
  2234388
370
    15
  0
POLYLINE
  5
E9
330
1F
100
AcDbEntity
  8
_U+30EC_U+30A4_U+30E4_U+30FC 1
 62
   179
420
  2234388
370
    15
100
AcDb2dPolyline
 66
     1
 10
0.0
 20
0.0
 30
0.0
  0
VERTEX
  5
EA
330
E9
100
AcDbEntity
  8
_U+30EC_U+30A4_U+30E4_U+30FC 1
 62
   179
420
  2234388
370
    15
100
AcDbVertex
100
AcDb2dVertex
 10
74.17823053701109
 20
-125.0456110798497
 30
0.0
  0
VERTEX
  5
EB
330
E9
100
AcDbEntity
  8
_U+30EC_U+30A4_U+30E4_U+30FC 1
 62
   179
420
  2234388
370
    15
100
AcDbVertex
100
AcDb2dVertex
 10
73.641655537145
 20
-124.780322191027
 30
0.0
  0
VERTEX
  5
EC
330
E9
100
AcDbEntity
  8
_U+30EC_U+30A4_U+30E4_U+30FC 1
 62
   179
420
  2234388
370
    15
100
AcDbVertex
100
AcDb2dVertex
 10
73.91124644770035
 20
-126.3133885795329
 30
0.0
  0
SEQEND
  5
ED
330
E9
100
AcDbEntity
  8
_U+30EC_U+30A4_U+30E4_U+30FC 1
 62
   179
420
  2234388
370
    15
  0
POLYLINE
  5
EE
330
1F
100
AcDbEntity
  8
_U+30EC_U+30A4_U+30E4_U+30FC 1
 62
   179
420
  2234388
370
    15
100
AcDb2dPolyline
 66
     1
 10
0.0
 20
0.0
 30
0.0
  0
VERTEX
  5
EF
330
EE
100
AcDbEntity
  8
_U+30EC_U+30A4_U+30E4_U+30FC 1
 62
   179
420
  2234388
370
    15
100
AcDbVertex
100
AcDb2dVertex
 10
107.9251969688211
 20
-125.0704113576214
 30
0.0
  0
VERTEX
  5
F0
330
EE
100
AcDbEntity
  8
_U+30EC_U+30A4_U+30E4_U+30FC 1
 62
   179
420
  2234388
370
    15
100
AcDbVertex
100
AcDb2dVertex
 10
108.4895002877578
 20
-124.7806749688048
 30
0.0
  0
VERTEX
  5
F1
330
EE
100
AcDbEntity
  8
_U+30EC_U+30A4_U+30E4_U+30FC 1
 62
   179
420
  2234388
370
    15
100
AcDbVertex
100
AcDb2dVertex
 10
108.2352533497997
 20
-126.3061566350901
 30
0.0
  0
SEQEND
  5
F2
330
EE
100
AcDbEntity
  8
_U+30EC_U+30A4_U+30E4_U+30FC 1
 62
   179
420
  2234388
370
    15
  0
POLYLINE
  5
F3
330
1F
100
AcDbEntity
  8
_U+30EC_U+30A4_U+30E4_U+30FC 1
 62
   179
420
  2234388
370
    15
100
AcDb2dPolyline
 66
     1
 10
0.0
 20
0.0
 30
0.0
  0
VERTEX
  5
F4
330
F3
100
AcDbEntity
  8
_U+30EC_U+30A4_U+30E4_U+30FC 1
 62
   179
420
  2234388
370
    15
100
AcDbVertex
100
AcDb2dVertex
 10
76.72433165371034
 20
-121.4411746918619
 30
0.0
  0
VERTEX
  5
F5
330
F3
100
AcDbEntity
  8
_U+30EC_U+30A4_U+30E4_U+30FC 1
 62
   179
420
  2234388
370
    15
100
AcDbVertex
100
AcDb2dVertex
 10
75.19712141489494
 20
-122.086264136145
 30
0.0
  0
VERTEX
  5
F6
330
F3
100
AcDbEntity
  8
_U+30EC_U+30A4_U+30E4_U+30FC 1
 62
   179
420
  2234388
370
    15
100
AcDbVertex
100
AcDb2dVertex
 10
75.66289390301209
 20
-122.3167338583095
 30
0.0
  0
SEQEND
  5
F7
330
F3
100
AcDbEntity
  8
_U+30EC_U+30A4_U+30E4_U+30FC 1
 62
   179
420
  2234388
370
    15
  0
POLYLINE
  5
F8
330
1F
100
AcDbEntity
  8
_U+30EC_U+30A4_U+30E4_U+30FC 1
 62
   179
420
  2234388
370
    15
100
AcDb2dPolyline
 66
     1
 10
0.0
 20
0.0
 30
0.0
  0
VERTEX
  5
F9
330
F8
100
AcDbEntity
  8
_U+30EC_U+30A4_U+30E4_U+30FC 1
 62
   179
420
  2234388
370
    15
100
AcDbVertex
100
AcDb2dVertex
 10
105.406824973648
 20
-121.4406455251955
 30
0.0
  0
VERTEX
  5
FA
330
F8
100
AcDbEntity
  8
_U+30EC_U+30A4_U+30E4_U+30FC 1
 62
   179
420
  2234388
370
    15
100
AcDbVertex
100
AcDb2dVertex
 10
106.9343853274321
 20
-122.0864405250339
 30
0.0
  0
VERTEX
  5
FB
330
F8
100
AcDbEntity
  8
_U+30EC_U+30A4_U+30E4_U+30FC 1
 62
   179
420
  2234388
370
    15
100
AcDbVertex
100
AcDb2dVertex
 10
106.4555247840933
 20
-122.3291516360843
 30
0.0
  0
SEQEND
  5
FC
330
F8
100
AcDbEntity
  8
_U+30EC_U+30A4_U+30E4_U+30FC 1
 62
   179
420
  2234388
370
    15
  0
POLYLINE
  5
FD
330
1F
100
AcDbEntity
  8
_U+30EC_U+30A4_U+30E4_U+30FC 1
 62
   179
420
  2234388
370
    15
100
AcDb2dPolyline
 66
     1
 10
0.0
 20
0.0
 30
0.0
  0
VERTEX
  5
FE
330
FD
100
AcDbEntity
  8
_U+30EC_U+30A4_U+30E4_U+30FC 1
 62
   179
420
  2234388
370
    15
100
AcDbVertex
100
AcDb2dVertex
 10
91.06577101005196
 20
-128.5244585789799
 30
0.0
  0
VERTEX
  5
FF
330
FD
100
AcDbEntity
  8
_U+30EC_U+30A4_U+30E4_U+30FC 1
 62
   179
420
  2234388
370
    15
100
AcDbVertex
100
AcDb2dVertex
 10
91.06577101005196
 20
-134.78626413297
 30
0.0
  0
SEQEND
  5
100
330
FD
100
AcDbEntity
  8
_U+30EC_U+30A4_U+30E4_U+30FC 1
 62
   179
420
  2234388
370
    15
  0
ENDSEC
  0
SECTION
  2
OBJECTS
  0
DICTIONARY
  5
C
330
0
100
AcDbDictionary
281
     1
  3
ACAD_GROUP
350
D
  3
ACAD_LAYOUT
350
1A
  3
ACAD_MATERIAL
350
3B
  3
ACAD_MLEADERSTYLE
350
102
  3
ACAD_MLINESTYLE
350
17
  3
ACAD_PLOTSETTINGS
350
19
  3
ACAD_PLOTSTYLENAME
350
E
  3
ACAD_TABLESTYLE
350
101
  3
ACAD_VISUALSTYLE
350
2A
  0
SUN
  5
3F
330
29
100
AcDbSun
 90
        1
290
     0
 63
     7
421
 16777215
 40
1.0
291
     1
 91
  2455826
 92
 54000000
292
     0
 70
     2
 71
   256
280
     1
  0
DICTIONARY
  5
D
102
{ACAD_REACTORS
330
C
102
}
330
C
100
AcDbDictionary
281
     1
  0
DICTIONARY
  5
1A
102
{ACAD_REACTORS
330
C
102
}
330
C
100
AcDbDictionary
281
     1
  3
Layout1
350
1E
  3
Layout2
350
26
  3
Model
350
22
  0
DICTIONARY
  5
3B
102
{ACAD_REACTORS
330
C
102
}
330
C
100
AcDbDictionary
281
     1
  3
ByBlock
350
3D
  3
ByLayer
350
3C
  3
Global
350
3E
  0
DICTIONARY
  5
102
102
{ACAD_REACTORS
330
C
102
}
330
C
100
AcDbDictionary
281
     1
  0
DICTIONARY
  5
17
102
{ACAD_REACTORS
330
C
102
}
330
C
100
AcDbDictionary
281
     1
  3
Standard
350
18
  0
DICTIONARY
  5
19
102
{ACAD_REACTORS
330
C
102
}
330
C
100
AcDbDictionary
281
     1
  0
ACDBDICTIONARYWDFLT
  5
E
102
{ACAD_REACTORS
330
C
102
}
330
C
100
AcDbDictionary
281
     1
  3
Normal
350
F
100
AcDbDictionaryWithDefault
340
F
  0
DICTIONARY
  5
101
102
{ACAD_REACTORS
330
C
102
}
330
C
100
AcDbDictionary
281
     1
  0
DICTIONARY
  5
2A
102
{ACAD_REACTORS
330
C
102
}
330
C
100
AcDbDictionary
281
     1
  3
2dWireframe
350
2F
  3
3D Hidden
350
31
  3
3dWireframe
350
30
  3
Basic
350
32
  3
Brighten
350
36
  3
ColorChange
350
3A
  3
Conceptual
350
34
  3
Dim
350
35
  3
Facepattern
350
39
  3
Flat
350
2B
  3
FlatWithEdges
350
2C
  3
Gouraud
350
2D
  3
GouraudWithEdges
350
2E
  3
Linepattern
350
38
  3
Realistic
350
33
  3
Thicken
350
37
  0
LAYOUT
  5
1E
102
{ACAD_REACTORS
330
1A
102
}
330
1A
100
AcDbPlotSettings
  1

  2
none_device
  4

  6

 40
0.0
 41
0.0
 42
0.0
 43
0.0
 44
0.0
 45
0.0
 46
0.0
 47
0.0
 48
0.0
 49
0.0
140
0.0
141
0.0
142
1.0
143
1.0
 70
   688
 72
     0
 73
     0
 74
     5
  7

 75
    16
 76
     0
 77
     2
 78
   300
147
1.0
148
0.0
149
0.0
100
AcDbLayout
  1
Layout1
 70
     1
 71
     1
 10
0.0
 20
0.0
 11
12.0
 21
9.0
 12
0.0
 22
0.0
 32
0.0
 14
1.000000000000000E+20
 24
1.000000000000000E+20
 34
1.000000000000000E+20
 15
-1.000000000000000E+20
 25
-1.000000000000000E+20
 35
-1.000000000000000E+20
146
0.0
 13
0.0
 23
0.0
 33
0.0
 16
1.0
 26
0.0
 36
0.0
 17
0.0
 27
1.0
 37
0.0
 76
     0
330
1B
  0
LAYOUT
  5
26
102
{ACAD_REACTORS
330
1A
102
}
330
1A
100
AcDbPlotSettings
  1

  2
none_device
  4

  6

 40
0.0
 41
0.0
 42
0.0
 43
0.0
 44
0.0
 45
0.0
 46
0.0
 47
0.0
 48
0.0
 49
0.0
140
0.0
141
0.0
142
1.0
143
1.0
 70
   688
 72
     0
 73
     0
 74
     5
  7

 75
    16
 76
     0
 77
     2
 78
   300
147
1.0
148
0.0
149
0.0
100
AcDbLayout
  1
Layout2
 70
     1
 71
     2
 10
0.0
 20
0.0
 11
0.0
 21
0.0
 12
0.0
 22
0.0
 32
0.0
 14
0.0
 24
0.0
 34
0.0
 15
0.0
 25
0.0
 35
0.0
146
0.0
 13
0.0
 23
0.0
 33
0.0
 16
1.0
 26
0.0
 36
0.0
 17
0.0
 27
1.0
 37
0.0
 76
     0
330
23
  0
LAYOUT
  5
22
102
{ACAD_REACTORS
330
1A
102
}
330
1A
100
AcDbPlotSettings
  1

  2
none_device
  4

  6

 40
0.0
 41
0.0
 42
0.0
 43
0.0
 44
0.0
 45
0.0
 46
0.0
 47
0.0
 48
0.0
 49
0.0
140
0.0
141
0.0
142
1.0
143
1.0
 70
  1712
 72
     0
 73
     0
 74
     0
  7

 75
     0
 76
     0
 77
     2
 78
   300
147
1.0
148
0.0
149
0.0
100
AcDbLayout
  1
Model
 70
     1
 71
     0
 10
0.0
 20
0.0
 11
12.0
 21
9.0
 12
0.0
 22
0.0
 32
0.0
 14
1.000000000000000E+20
 24
1.000000000000000E+20
 34
1.000000000000000E+20
 15
-1.000000000000000E+20
 25
-1.000000000000000E+20
 35
-1.000000000000000E+20
146
0.0
 13
0.0
 23
0.0
 33
0.0
 16
1.0
 26
0.0
 36
0.0
 17
0.0
 27
1.0
 37
0.0
 76
     0
330
1F
331
29
  0
MATERIAL
  5
3D
102
{ACAD_REACTORS
330
3B
102
}
330
3B
100
AcDbMaterial
  1
ByBlock
 72
     1
 94
      127
  0
MATERIAL
  5
3C
102
{ACAD_REACTORS
330
3B
102
}
330
3B
100
AcDbMaterial
  1
ByLayer
 72
     1
 94
      127
  0
MATERIAL
  5
3E
102
{ACAD_REACTORS
330
3B
102
}
330
3B
100
AcDbMaterial
  1
Global
 72
     1
 94
      127
  0
MLINESTYLE
  5
18
102
{ACAD_REACTORS
330
17
102
}
330
17
100
AcDbMlineStyle
  2
Standard
 70
     0
  3

 62
   256
 51
90.0
 52
90.0
 71
     2
 49
0.5
 62
   256
  6
BYLAYER
 49
-0.5
 62
   256
  6
BYLAYER
  0
ACDBPLACEHOLDER
  5
F
102
{ACAD_REACTORS
330
E
102
}
330
E
  0
VISUALSTYLE
  5
2F
102
{ACAD_REACTORS
330
2A
102
}
330
2A
100
AcDbVisualStyle
  2
2dWireframe
 70
     4
177
     2
291
     0
 71
     0
176
     1
 72
     2
176
     1
 73
     0
176
     1
 90
        0
176
     1
 40
-0.6
176
     1
 41
-30.0
176
     1
 62
     5
 63
     7
421
 16777215
176
     1
 74
     1
176
     1
 91
        4
176
     1
 64
     7
176
     1
 65
   257
176
     1
 75
     1
176
     1
175
     1
176
     1
 42
1.0
176
     1
 92
        0
176
     1
 66
   257
176
     1
 43
1.0
176
     1
 76
     1
176
     1
 77
     6
176
     1
 78
     2
176
     1
 67
     7
176
     1
 79
     5
176
     1
170
     0
176
     1
171
     0
176
     1
290
     0
176
     1
 93
        1
176
     1
 44
0.0
176
     1
173
     0
176
     1
  0
VISUALSTYLE
  5
31
102
{ACAD_REACTORS
330
2A
102
}
330
2A
100
AcDbVisualStyle
  2
3D Hidden
 70
     6
177
     2
291
     0
 71
     1
176
     1
 72
     2
176
     1
 73
     2
176
     1
 90
        0
176
     1
 40
-0.6
176
     1
 41
-30.0
176
     1
 62
     5
 63
     7
421
 16777215
176
     1
 74
     2
176
     1
 91
        2
176
     1
 64
     7
176
     1
 65
   257
176
     1
 75
     2
176
     1
175
     1
176
     1
 42
40.0
176
     1
 92
        0
176
     1
 66
   257
176
     1
 43
1.0
176
     1
 76
     1
176
     1
 77
     6
176
     1
 78
     2
176
     1
 67
     7
176
     1
 79
     3
176
     1
170
     0
176
     1
171
     0
176
     1
290
     0
176
     1
 93
        1
176
     1
 44
0.0
176
     1
173
     0
176
     1
  0
VISUALSTYLE
  5
30
102
{ACAD_REACTORS
330
2A
102
}
330
2A
100
AcDbVisualStyle
  2
3dWireframe
 70
     5
177
     2
291
     0
 71
     0
176
     1
 72
     2
176
     1
 73
     0
176
     1
 90
        0
176
     1
 40
-0.6
176
     1
 41
-30.0
176
     1
 62
     5
 63
     7
421
 16777215
176
     1
 74
     1
176
     1
 91
        4
176
     1
 64
     7
176
     1
 65
   257
176
     1
 75
     1
176
     1
175
     1
176
     1
 42
1.0
176
     1
 92
        0
176
     1
 66
   257
176
     1
 43
1.0
176
     1
 76
     1
176
     1
 77
     6
176
     1
 78
     2
176
     1
 67
     7
176
     1
 79
     5
176
     1
170
     0
176
     1
171
     0
176
     1
290
     0
176
     1
 93
        1
176
     1
 44
0.0
176
     1
173
     0
176
     1
  0
VISUALSTYLE
  5
32
102
{ACAD_REACTORS
330
2A
102
}
330
2A
100
AcDbVisualStyle
  2
Basic
 70
     7
177
     2
291
     1
 71
     1
176
     1
 72
     0
176
     1
 73
     1
176
     1
 90
        0
176
     1
 40
-0.6
176
     1
 41
-30.0
176
     1
 62
     5
 63
     7
421
 16777215
176
     1
 74
     0
176
     1
 91
        4
176
     1
 64
     7
176
     1
 65
   257
176
     1
 75
     1
176
     1
175
     1
176
     1
 42
1.0
176
     1
 92
        8
176
     1
 66
     7
176
     1
 43
1.0
176
     1
 76
     1
176
     1
 77
     6
176
     1
 78
     2
176
     1
 67
     7
176
     1
 79
     5
176
     1
170
     0
176
     1
171
     0
176
     1
290
     0
176
     1
 93
        1
176
     1
 44
0.0
176
     1
173
     0
176
     1
  0
VISUALSTYLE
  5
36
102
{ACAD_REACTORS
330
2A
102
}
330
2A
100
AcDbVisualStyle
  2
Brighten
 70
    12
177
     2
291
     1
 71
     2
176
     1
 72
     2
176
     1
 73
     0
176
     1
 90
        0
176
     1
 40
-0.6
176
     1
 41
-30.0
176
     1
 62
     5
 63
     7
421
 16777215
176
     1
 74
     1
176
     1
 91
        4
176
     1
 64
     7
176
     1
 65
   257
176
     1
 75
     1
176
     1
175
     1
176
     1
 42
1.0
176
     1
 92
        8
176
     1
 66
     7
176
     1
 43
1.0
176
     1
 76
     1
176
     1
 77
     6
176
     1
 78
     2
176
     1
 67
     7
176
     1
 79
     5
176
     1
170
     0
176
     1
171
     0
176
     1
290
     0
176
     1
 93
        1
176
     1
 44
50.0
176
     1
173
     0
176
     1
  0
VISUALSTYLE
  5
3A
102
{ACAD_REACTORS
330
2A
102
}
330
2A
100
AcDbVisualStyle
  2
ColorChange
 70
    16
177
     2
291
     1
 71
     2
176
     1
 72
     2
176
     1
 73
     3
176
     1
 90
        0
176
     1
 40
-0.6
176
     1
 41
-30.0
176
     1
 62
     5
 63
     8
421
  8421504
176
     1
 74
     1
176
     1
 91
        4
176
     1
 64
     7
176
     1
 65
   257
176
     1
 75
     1
176
     1
175
     1
176
     1
 42
1.0
176
     1
 92
        8
176
     1
 66
     8
424
  8421504
176
     1
 43
1.0
176
     1
 76
     1
176
     1
 77
     6
176
     1
 78
     2
176
     1
 67
     7
176
     1
 79
     5
176
     1
170
     0
176
     1
171
     0
176
     1
290
     0
176
     1
 93
        1
176
     1
 44
0.0
176
     1
173
     0
176
     1
  0
VISUALSTYLE
  5
34
102
{ACAD_REACTORS
330
2A
102
}
330
2A
100
AcDbVisualStyle
  2
Conceptual
 70
     9
177
     2
291
     0
 71
     3
176
     1
 72
     2
176
     1
 73
     0
176
     1
 90
        0
176
     1
 40
-0.6
176
     1
 41
-30.0
176
     1
 62
     5
 63
     7
421
 16777215
176
     1
 74
     2
176
     1
 91
        2
176
     1
 64
     7
176
     1
 65
   257
176
     1
 75
     1
176
     1
175
     1
176
     1
 42
40.0
176
     1
 92
        8
176
     1
 66
     7
176
     1
 43
1.0
176
     1
 76
     1
176
     1
 77
     6
176
     1
 78
     2
176
     1
 67
     7
176
     1
 79
     3
176
     1
170
     0
176
     1
171
     0
176
     1
290
     0
176
     1
 93
        1
176
     1
 44
0.0
176
     1
173
     0
176
     1
  0
VISUALSTYLE
  5
35
102
{ACAD_REACTORS
330
2A
102
}
330
2A
100
AcDbVisualStyle
  2
Dim
 70
    11
177
     2
291
     1
 71
     2
176
     1
 72
     2
176
     1
 73
     0
176
     1
 90
        0
176
     1
 40
-0.6
176
     1
 41
-30.0
176
     1
 62
     5
 63
     7
421
 16777215
176
     1
 74
     1
176
     1
 91
        4
176
     1
 64
     7
176
     1
 65
   257
176
     1
 75
     1
176
     1
175
     1
176
     1
 42
1.0
176
     1
 92
        8
176
     1
 66
     7
176
     1
 43
1.0
176
     1
 76
     1
176
     1
 77
     6
176
     1
 78
     2
176
     1
 67
     7
176
     1
 79
     5
176
     1
170
     0
176
     1
171
     0
176
     1
290
     0
176
     1
 93
        1
176
     1
 44
-50.0
176
     1
173
     0
176
     1
  0
VISUALSTYLE
  5
39
102
{ACAD_REACTORS
330
2A
102
}
330
2A
100
AcDbVisualStyle
  2
Facepattern
 70
    15
177
     2
291
     1
 71
     2
176
     1
 72
     2
176
     1
 73
     0
176
     1
 90
        0
176
     1
 40
-0.6
176
     1
 41
-30.0
176
     1
 62
     5
 63
     7
421
 16777215
176
     1
 74
     1
176
     1
 91
        4
176
     1
 64
     7
176
     1
 65
   257
176
     1
 75
     1
176
     1
175
     1
176
     1
 42
1.0
176
     1
 92
        8
176
     1
 66
     7
176
     1
 43
1.0
176
     1
 76
     1
176
     1
 77
     6
176
     1
 78
     2
176
     1
 67
     7
176
     1
 79
     5
176
     1
170
     0
176
     1
171
     0
176
     1
290
     0
176
     1
 93
        1
176
     1
 44
0.0
176
     1
173
     0
176
     1
  0
VISUALSTYLE
  5
2B
102
{ACAD_REACTORS
330
2A
102
}
330
2A
100
AcDbVisualStyle
  2
Flat
 70
     0
177
     2
291
     1
 71
     2
176
     1
 72
     1
176
     1
 73
     1
176
     1
 90
        2
176
     1
 40
-0.6
176
     1
 41
30.0
176
     1
 62
     5
 63
     7
421
 16777215
176
     1
 74
     0
176
     1
 91
        4
176
     1
 64
     7
176
     1
 65
   257
176
     1
 75
     1
176
     1
175
     1
176
     1
 42
1.0
176
     1
 92
        8
176
     1
 66
     7
176
     1
 43
1.0
176
     1
 76
     1
176
     1
 77
     6
176
     1
 78
     2
176
     1
 67
     7
176
     1
 79
     5
176
     1
170
     0
176
     1
171
     0
176
     1
290
     0
176
     1
 93
       13
176
     1
 44
0.0
176
     1
173
     0
176
     1
  0
VISUALSTYLE
  5
2C
102
{ACAD_REACTORS
330
2A
102
}
330
2A
100
AcDbVisualStyle
  2
FlatWithEdges
 70
     1
177
     2
291
     1
 71
     2
176
     1
 72
     1
176
     1
 73
     1
176
     1
 90
        2
176
     1
 40
-0.6
176
     1
 41
30.0
176
     1
 62
     5
 63
     7
421
 16777215
176
     1
 74
     1
176
     1
 91
        4
176
     1
 64
     7
176
     1
 65
   257
176
     1
 75
     1
176
     1
175
     1
176
     1
 42
1.0
176
     1
 92
        0
176
     1
 66
   257
176
     1
 43
1.0
176
     1
 76
     1
176
     1
 77
     6
176
     1
 78
     2
176
     1
 67
     7
176
     1
 79
     5
176
     1
170
     0
176
     1
171
     0
176
     1
290
     0
176
     1
 93
       13
176
     1
 44
0.0
176
     1
173
     0
176
     1
  0
VISUALSTYLE
  5
2D
102
{ACAD_REACTORS
330
2A
102
}
330
2A
100
AcDbVisualStyle
  2
Gouraud
 70
     2
177
     2
291
     1
 71
     2
176
     1
 72
     2
176
     1
 73
     1
176
     1
 90
        2
176
     1
 40
-0.6
176
     1
 41
30.0
176
     1
 62
     5
 63
     7
421
 16777215
176
     1
 74
     0
176
     1
 91
        4
176
     1
 64
     7
176
     1
 65
   257
176
     1
 75
     1
176
     1
175
     1
176
     1
 42
1.0
176
     1
 92
        0
176
     1
 66
     7
176
     1
 43
1.0
176
     1
 76
     1
176
     1
 77
     6
176
     1
 78
     2
176
     1
 67
     7
176
     1
 79
     5
176
     1
170
     0
176
     1
171
     0
176
     1
290
     0
176
     1
 93
       13
176
     1
 44
0.0
176
     1
173
     0
176
     1
  0
VISUALSTYLE
  5
2E
102
{ACAD_REACTORS
330
2A
102
}
330
2A
100
AcDbVisualStyle
  2
GouraudWithEdges
 70
     3
177
     2
291
     1
 71
     2
176
     1
 72
     2
176
     1
 73
     1
176
     1
 90
        2
176
     1
 40
-0.6
176
     1
 41
30.0
176
     1
 62
     5
 63
     7
421
 16777215
176
     1
 74
     1
176
     1
 91
        4
176
     1
 64
     7
176
     1
 65
   257
176
     1
 75
     1
176
     1
175
     1
176
     1
 42
1.0
176
     1
 92
        0
176
     1
 66
   257
176
     1
 43
1.0
176
     1
 76
     1
176
     1
 77
     6
176
     1
 78
     2
176
     1
 67
     7
176
     1
 79
     5
176
     1
170
     0
176
     1
171
     0
176
     1
290
     0
176
     1
 93
       13
176
     1
 44
0.0
176
     1
173
     0
176
     1
  0
VISUALSTYLE
  5
38
102
{ACAD_REACTORS
330
2A
102
}
330
2A
100
AcDbVisualStyle
  2
Linepattern
 70
    14
177
     2
291
     1
 71
     2
176
     1
 72
     2
176
     1
 73
     0
176
     1
 90
        0
176
     1
 40
-0.6
176
     1
 41
-30.0
176
     1
 62
     5
 63
     7
421
 16777215
176
     1
 74
     1
176
     1
 91
        4
176
     1
 64
     7
176
     1
 65
   257
176
     1
 75
     7
176
     1
175
     7
176
     1
 42
1.0
176
     1
 92
        8
176
     1
 66
     7
176
     1
 43
1.0
176
     1
 76
     1
176
     1
 77
     6
176
     1
 78
     2
176
     1
 67
     7
176
     1
 79
     5
176
     1
170
     0
176
     1
171
     0
176
     1
290
     0
176
     1
 93
        1
176
     1
 44
0.0
176
     1
173
     0
176
     1
  0
VISUALSTYLE
  5
33
102
{ACAD_REACTORS
330
2A
102
}
330
2A
100
AcDbVisualStyle
  2
Realistic
 70
     8
177
     2
291
     0
 71
     2
176
     1
 72
     2
176
     1
 73
     0
176
     1
 90
        0
176
     1
 40
-0.6
176
     1
 41
-30.0
176
     1
 62
     5
 63
     7
421
 16777215
176
     1
 74
     1
176
     1
 91
        0
176
     1
 64
     7
176
     1
 65
   257
176
     1
 75
     1
176
     1
175
     1
176
     1
 42
1.0
176
     1
 92
        8
176
     1
 66
     8
424
  7895160
176
     1
 43
1.0
176
     1
 76
     1
176
     1
 77
     6
176
     1
 78
     2
176
     1
 67
     7
176
     1
 79
     5
176
     1
170
     0
176
     1
171
     0
176
     1
290
     0
176
     1
 93
       13
176
     1
 44
0.0
176
     1
173
     0
176
     1
  0
VISUALSTYLE
  5
37
102
{ACAD_REACTORS
330
2A
102
}
330
2A
100
AcDbVisualStyle
  2
Thicken
 70
    13
177
     2
291
     1
 71
     2
176
     1
 72
     2
176
     1
 73
     0
176
     1
 90
        0
176
     1
 40
-0.6
176
     1
 41
-30.0
176
     1
 62
     5
 63
     7
421
 16777215
176
     1
 74
     1
176
     1
 91
        4
176
     1
 64
     7
176
     1
 65
   257
176
     1
 75
     1
176
     1
175
     1
176
     1
 42
1.0
176
     1
 92
       12
176
     1
 66
     7
176
     1
 43
1.0
176
     1
 76
     1
176
     1
 77
     6
176
     1
 78
     2
176
     1
 67
     7
176
     1
 79
     5
176
     1
170
     0
176
     1
171
     0
176
     1
290
     0
176
     1
 93
        1
176
     1
 44
0.0
176
     1
173
     0
176
     1
  0
ENDSEC
  0
EOF
