  0
SECTION
  2
HEADER
  9
$ACADVER
  1
AC1024
  9
$ACADMAINTVER
 70
     6
  9
$DWGCODEPAGE
  3
UNDEFINED
  9
$INSBASE
 10
0.0
 20
0.0
 30
0.0
  9
$EXTMIN
 10
1.000000000000000E+20
 20
1.000000000000000E+20
 30
1.000000000000000E+20
  9
$EXTMAX
 10
-1.000000000000000E+20
 20
-1.000000000000000E+20
 30
-1.000000000000000E+20
  9
$LIMMIN
 10
0.0
 20
0.0
  9
$LIMMAX
 10
12.0
 20
9.0
  9
$ORTHOMODE
 70
     0
  9
$REGENMODE
 70
     1
  9
$FILLMODE
 70
     1
  9
$QTEXTMODE
 70
     0
  9
$MIRRTEXT
 70
     1
  9
$LTSCALE
 40
1.0
  9
$ATTMODE
 70
     1
  9
$TEXTSIZE
 40
0.2
  9
$TRACEWID
 40
0.05
  9
$TEXTSTYLE
  7
Standard
  9
$CLAYER
  8
0
  9
$CELTYPE
  6
ByLayer
  9
$CECOLOR
 62
   256
  9
$CELTSCALE
 40
1.0
  9
$DISPSILH
 70
     0
  9
$DIMSCALE
 40
1.0
  9
$DIMASZ
 40
0.18
  9
$DIMEXO
 40
0.0625
  9
$DIMDLI
 40
0.38
  9
$DIMRND
 40
0.0
  9
$DIMDLE
 40
0.0
  9
$DIMEXE
 40
0.18
  9
$DIMTP
 40
0.0
  9
$DIMTM
 40
0.0
  9
$DIMTXT
 40
0.18
  9
$DIMCEN
 40
0.09
  9
$DIMTSZ
 40
0.0
  9
$DIMTOL
 70
     0
  9
$DIMLIM
 70
     0
  9
$DIMTIH
 70
     1
  9
$DIMTOH
 70
     1
  9
$DIMSE1
 70
     0
  9
$DIMSE2
 70
     0
  9
$DIMTAD
 70
     0
  9
$DIMZIN
 70
     0
  9
$DIMBLK
  1

  9
$DIMASO
 70
     1
  9
$DIMSHO
 70
     1
  9
$DIMPOST
  1

  9
$DIMAPOST
  1

  9
$DIMALT
 70
     0
  9
$DIMALTD
 70
     2
  9
$DIMALTF
 40
25.4
  9
$DIMLFAC
 40
1.0
  9
$DIMTOFL
 70
     0
  9
$DIMTVP
 40
0.0
  9
$DIMTIX
 70
     0
  9
$DIMSOXD
 70
     0
  9
$DIMSAH
 70
     0
  9
$DIMBLK1
  1

  9
$DIMBLK2
  1

  9
$DIMSTYLE
  2
Standard
  9
$DIMCLRD
 70
     0
  9
$DIMCLRE
 70
     0
  9
$DIMCLRT
 70
     0
  9
$DIMTFAC
 40
1.0
  9
$DIMGAP
 40
0.09
  9
$DIMJUST
 70
     0
  9
$DIMSD1
 70
     0
  9
$DIMSD2
 70
     0
  9
$DIMTOLJ
 70
     1
  9
$DIMTZIN
 70
     0
  9
$DIMALTZ
 70
     0
  9
$DIMALTTZ
 70
     0
  9
$DIMUPT
 70
     0
  9
$DIMDEC
 70
     4
  9
$DIMTDEC
 70
     4
  9
$DIMALTU
 70
     2
  9
$DIMALTTD
 70
     2
  9
$DIMTXSTY
  7
Standard
  9
$DIMAUNIT
 70
     0
  9
$DIMADEC
 70
     0
  9
$DIMALTRND
 40
0.0
  9
$DIMAZIN
 70
     0
  9
$DIMDSEP
 70
    46
  9
$DIMATFIT
 70
     3
  9
$DIMFRAC
 70
     0
  9
$DIMLDRBLK
  1

  9
$DIMLUNIT
 70
     2
  9
$DIMLWD
 70
    -2
  9
$DIMLWE
 70
    -2
  9
$DIMTMOVE
 70
     0
  9
$DIMFXL
 40
1.0
  9
$DIMFXLON
 70
     0
  9
$DIMJOGANG
 40
0.7853981633974483
  9
$DIMTFILL
 70
     0
  9
$DIMTFILLCLR
 70
     0
  9
$DIMARCSYM
 70
     0
  9
$DIMLTYPE
  6

  9
$DIMLTEX1
  6

  9
$DIMLTEX2
  6

  9
$DIMTXTDIRECTION
 70
     0
  9
$LUNITS
 70
     2
  9
$LUPREC
 70
     4
  9
$SKETCHINC
 40
0.1
  9
$FILLETRAD
 40
0.5
  9
$AUNITS
 70
     0
  9
$AUPREC
 70
     0
  9
$MENU
  1
.
  9
$ELEVATION
 40
0.0
  9
$PELEVATION
 40
0.0
  9
$THICKNESS
 40
0.0
  9
$LIMCHECK
 70
     0
  9
$CHAMFERA
 40
0.5
  9
$CHAMFERB
 40
0.5
  9
$CHAMFERC
 40
1.0
  9
$CHAMFERD
 40
0.0
  9
$SKPOLY
 70
     0
  9
$TDCREATE
 40
2457917.611469896
  9
$TDUCREATE
 40
2457917.236469907
  9
$TDUPDATE
 40
2457917.611469896
  9
$TDUUPDATE
 40
2457917.236469907
  9
$TDINDWG
 40
0.0000000116
  9
$TDUSRTIMER
 40
0.0000000116
  9
$USRTIMER
 70
     1
  9
$ANGBASE
 50
0.0
  9
$ANGDIR
 70
     0
  9
$PDMODE
 70
     0
  9
$PDSIZE
 40
0.0
  9
$PLINEWID
 40
0.0
  9
$SPLFRAME
 70
     0
  9
$SPLINETYPE
 70
     6
  9
$SPLINESEGS
 70
     8
  9
$HANDSEED
  5
1B4
  9
$SURFTAB1
 70
     6
  9
$SURFTAB2
 70
     6
  9
$SURFTYPE
 70
     6
  9
$SURFU
 70
     6
  9
$SURFV
 70
     6
  9
$UCSBASE
  2

  9
$UCSNAME
  2

  9
$UCSORG
 10
0.0
 20
0.0
 30
0.0
  9
$UCSXDIR
 10
1.0
 20
0.0
 30
0.0
  9
$UCSYDIR
 10
0.0
 20
1.0
 30
0.0
  9
$UCSORTHOREF
  2

  9
$UCSORTHOVIEW
 70
     0
  9
$UCSORGTOP
 10
0.0
 20
0.0
 30
0.0
  9
$UCSORGBOTTOM
 10
0.0
 20
0.0
 30
0.0
  9
$UCSORGLEFT
 10
0.0
 20
0.0
 30
0.0
  9
$UCSORGRIGHT
 10
0.0
 20
0.0
 30
0.0
  9
$UCSORGFRONT
 10
0.0
 20
0.0
 30
0.0
  9
$UCSORGBACK
 10
0.0
 20
0.0
 30
0.0
  9
$PUCSBASE
  2

  9
$PUCSNAME
  2

  9
$PUCSORG
 10
0.0
 20
0.0
 30
0.0
  9
$PUCSXDIR
 10
1.0
 20
0.0
 30
0.0
  9
$PUCSYDIR
 10
0.0
 20
1.0
 30
0.0
  9
$PUCSORTHOREF
  2

  9
$PUCSORTHOVIEW
 70
     0
  9
$PUCSORGTOP
 10
0.0
 20
0.0
 30
0.0
  9
$PUCSORGBOTTOM
 10
0.0
 20
0.0
 30
0.0
  9
$PUCSORGLEFT
 10
0.0
 20
0.0
 30
0.0
  9
$PUCSORGRIGHT
 10
0.0
 20
0.0
 30
0.0
  9
$PUCSORGFRONT
 10
0.0
 20
0.0
 30
0.0
  9
$PUCSORGBACK
 10
0.0
 20
0.0
 30
0.0
  9
$USERI1
 70
     0
  9
$USERI2
 70
     0
  9
$USERI3
 70
     0
  9
$USERI4
 70
     0
  9
$USERI5
 70
     0
  9
$USERR1
 40
0.0
  9
$USERR2
 40
0.0
  9
$USERR3
 40
0.0
  9
$USERR4
 40
0.0
  9
$USERR5
 40
0.0
  9
$WORLDVIEW
 70
     1
  9
$SHADEDGE
 70
     3
  9
$SHADEDIF
 70
    70
  9
$TILEMODE
 70
     1
  9
$MAXACTVP
 70
    64
  9
$PINSBASE
 10
0.0
 20
0.0
 30
0.0
  9
$PLIMCHECK
 70
     0
  9
$PEXTMIN
 10
1.000000000000000E+20
 20
1.000000000000000E+20
 30
1.000000000000000E+20
  9
$PEXTMAX
 10
-1.000000000000000E+20
 20
-1.000000000000000E+20
 30
-1.000000000000000E+20
  9
$PLIMMIN
 10
0.0
 20
0.0
  9
$PLIMMAX
 10
12.0
 20
9.0
  9
$UNITMODE
 70
     0
  9
$VISRETAIN
 70
     1
  9
$PLINEGEN
 70
     0
  9
$PSLTSCALE
 70
     1
  9
$TREEDEPTH
 70
  3020
  9
$CMLSTYLE
  2
Standard
  9
$CMLJUST
 70
     0
  9
$CMLSCALE
 40
1.0
  9
$PROXYGRAPHICS
 70
     1
  9
$MEASUREMENT
 70
     0
  9
$CELWEIGHT
370
    -1
  9
$ENDCAPS
280
     0
  9
$JOINSTYLE
280
     0
  9
$LWDISPLAY
290
     1
  9
$INSUNITS
 70
     1
  9
$HYPERLINKBASE
  1

  9
$STYLESHEET
  1

  9
$XEDIT
290
     1
  9
$CEPSNTYPE
380
     0
  9
$PSTYLEMODE
290
     1
  9
$FINGERPRINTGUID
  2
{93F826E8-71A8-BAAB-EEB8-DD9EC3574250}
  9
$VERSIONGUID
  2
{FAEB1C32-E019-11D5-929B-00C0DF256EC4}
  9
$EXTNAMES
290
     1
  9
$PSVPSCALE
 40
0.0
  9
$OLESTARTUP
290
     0
  9
$SORTENTS
280
   127
  9
$INDEXCTL
280
     0
  9
$HIDETEXT
280
     1
  9
$XCLIPFRAME
280
     2
  9
$HALOGAP
280
     0
  9
$OBSCOLOR
 70
   257
  9
$OBSLTYPE
280
     0
  9
$INTERSECTIONDISPLAY
280
     0
  9
$INTERSECTIONCOLOR
 70
   257
  9
$DIMASSOC
280
     2
  9
$PROJECTNAME
  1

  9
$CAMERADISPLAY
290
     0
  9
$LENSLENGTH
 40
50.0
  9
$CAMERAHEIGHT
 40
0.0
  9
$STEPSPERSEC
 40
2.0
  9
$STEPSIZE
 40
6.0
  9
$3DDWFPREC
 40
2.0
  9
$PSOLWIDTH
 40
0.25
  9
$PSOLHEIGHT
 40
4.0
  9
$LOFTANG1
 40
1.570796326794897
  9
$LOFTANG2
 40
1.570796326794897
  9
$LOFTMAG1
 40
0.0
  9
$LOFTMAG2
 40
0.0
  9
$LOFTPARAM
 70
     7
  9
$LOFTNORMALS
280
     1
  9
$LATITUDE
 40
37.795
  9
$LONGITUDE
 40
-122.394
  9
$NORTHDIRECTION
 40
0.0
  9
$TIMEZONE
 70
 -8000
  9
$LIGHTGLYPHDISPLAY
280
     1
  9
$TILEMODELIGHTSYNCH
280
     1
  9
$CMATERIAL
347
3C
  9
$SOLIDHIST
280
     1
  9
$SHOWHIST
280
     1
  9
$DWFFRAME
280
     2
  9
$DGNFRAME
280
     2
  9
$REALWORLDSCALE
290
     1
  9
$INTERFERECOLOR
 62
   256
  9
$CSHADOW
280
     0
  9
$SHADOWPLANELOCATION
 40
0.0
  0
ENDSEC
  0
SECTION
  2
CLASSES
  0
CLASS
  1
ACDBDICTIONARYWDFLT
  2
AcDbDictionaryWithDefault
  3
ObjectDBX Classes
 90
        0
 91
        4
280
     0
281
     0
  0
CLASS
  1
VISUALSTYLE
  2
AcDbVisualStyle
  3
ObjectDBX Classes
 90
     4095
 91
        4
280
     0
281
     0
  0
CLASS
  1
MATERIAL
  2
AcDbMaterial
  3
ObjectDBX Classes
 90
     1153
 91
        4
280
     0
281
     0
  0
CLASS
  1
SUN
  2
AcDbSun
  3
SCENEOE
 90
     1024
 91
        4
280
     0
281
     0
  0
ENDSEC
  0
SECTION
  2
TABLES
  0
TABLE
  2
VPORT
  5
8
330
0
100
AcDbSymbolTable
 70
     1
  0
VPORT
  5
29
330
8
100
AcDbSymbolTableRecord
100
AcDbViewportTableRecord
  2
*Active
 70
     0
 10
0.0
 20
0.0
 11
1.0
 21
1.0
 12
0.0
 22
0.0
 13
0.0
 23
0.0
 14
0.5
 24
0.5
 15
0.5
 25
0.5
 16
0.0
 26
0.0
 36
1.0
 17
91.00082462281999
 27
-128.4993055234307
 37
0.0
 40
256.9986110468615
 41
0.7081814508812795
 42
50.0
 43
0.0
 44
0.0
 50
0.0
 51
0.0
 71
     0
 72
   100
 73
     1
 74
     3
 75
     0
 76
     0
 77
     0
 78
     0
281
     0
 65
     1
110
0.0
120
0.0
130
0.0
111
1.0
121
0.0
131
0.0
112
0.0
122
1.0
132
0.0
 79
     0
146
0.0
 60
     3
 61
     5
292
     1
282
     1
141
0.0
142
0.0
 63
   250
361
3F
  0
ENDTAB
  0
TABLE
  2
LTYPE
  5
5
330
0
100
AcDbSymbolTable
 70
     1
  0
LTYPE
  5
14
330
5
100
AcDbSymbolTableRecord
100
AcDbLinetypeTableRecord
  2
ByBlock
 70
     0
  3

 72
    65
 73
     0
 40
0.0
  0
LTYPE
  5
15
330
5
100
AcDbSymbolTableRecord
100
AcDbLinetypeTableRecord
  2
ByLayer
 70
     0
  3

 72
    65
 73
     0
 40
0.0
  0
LTYPE
  5
16
330
5
100
AcDbSymbolTableRecord
100
AcDbLinetypeTableRecord
  2
Continuous
 70
     0
  3
Solid line
 72
    65
 73
     0
 40
0.0
  0
ENDTAB
  0
TABLE
  2
LAYER
  5
2
330
0
100
AcDbSymbolTable
 70
     2
  0
LAYER
  5
10
330
2
100
AcDbSymbolTableRecord
100
AcDbLayerTableRecord
  2
0
 70
     0
 62
     7
  6
Continuous
370
    -3
390
F
347
3E
  0
LAYER
  5
40
330
2
100
AcDbSymbolTableRecord
100
AcDbLayerTableRecord
  2
_U+30EC_U+30A4_U+30E4_U+30FC 1
 70
     0
 62
     7
  6
Continuous
370
    -3
390
F
347
3E
  0
ENDTAB
  0
TABLE
  2
STYLE
  5
3
330
0
100
AcDbSymbolTable
 70
     1
  0
STYLE
  5
11
330
3
100
AcDbSymbolTableRecord
100
AcDbTextStyleTableRecord
  2
Standard
 70
     0
 40
0.0
 41
1.0
 50
0.0
 71
     0
 42
0.2
  3
txt
  4

  0
ENDTAB
  0
TABLE
  2
VIEW
  5
6
330
0
100
AcDbSymbolTable
 70
     0
  0
ENDTAB
  0
TABLE
  2
UCS
  5
7
330
0
100
AcDbSymbolTable
 70
     0
  0
ENDTAB
  0
TABLE
  2
APPID
  5
9
330
0
100
AcDbSymbolTable
 70
     1
  0
APPID
  5
12
330
9
100
AcDbSymbolTableRecord
100
AcDbRegAppTableRecord
  2
ACAD
 70
     0
  0
ENDTAB
  0
TABLE
  2
DIMSTYLE
  5
A
330
0
100
AcDbSymbolTable
 70
     1
100
AcDbDimStyleTable
  0
DIMSTYLE
105
27
330
A
100
AcDbSymbolTableRecord
100
AcDbDimStyleTableRecord
  2
Standard
 70
     0
178
     0
340
11
  0
ENDTAB
  0
TABLE
  2
BLOCK_RECORD
  5
1
330
0
100
AcDbSymbolTable
 70
    14
  0
BLOCK_RECORD
  5
1F
330
1
100
AcDbSymbolTableRecord
100
AcDbBlockTableRecord
  2
*Model_Space
340
22
 70
     0
280
     1
281
     0
  0
BLOCK_RECORD
  5
1B
330
1
100
AcDbSymbolTableRecord
100
AcDbBlockTableRecord
  2
*Paper_Space
340
1E
 70
     0
280
     1
281
     0
  0
BLOCK_RECORD
  5
23
330
1
100
AcDbSymbolTableRecord
100
AcDbBlockTableRecord
  2
*Paper_Space0
340
26
 70
     0
280
     1
281
     0
  0
BLOCK_RECORD
  5
41
330
1
100
AcDbSymbolTableRecord
100
AcDbBlockTableRecord
  2
block 2
340
0
102
{BLKREFS
331
42
102
}
 70
     0
280
     1
281
     0
  0
BLOCK_RECORD
  5
4C
330
1
100
AcDbSymbolTableRecord
100
AcDbBlockTableRecord
  2
block 3
340
0
102
{BLKREFS
331
4D
102
}
 70
     0
280
     1
281
     0
  0
BLOCK_RECORD
  5
63
330
1
100
AcDbSymbolTableRecord
100
AcDbBlockTableRecord
  2
block 4
340
0
102
{BLKREFS
331
64
102
}
 70
     0
280
     1
281
     0
  0
BLOCK_RECORD
  5
11C
330
1
100
AcDbSymbolTableRecord
100
AcDbBlockTableRecord
  2
block 5
340
0
102
{BLKREFS
331
11D
102
}
 70
     0
280
     1
281
     0
  0
BLOCK_RECORD
  5
12C
330
1
100
AcDbSymbolTableRecord
100
AcDbBlockTableRecord
  2
block 6
340
0
102
{BLKREFS
331
12D
102
}
 70
     0
280
     1
281
     0
  0
BLOCK_RECORD
  5
13C
330
1
100
AcDbSymbolTableRecord
100
AcDbBlockTableRecord
  2
block 7
340
0
102
{BLKREFS
331
13D
102
}
 70
     0
280
     1
281
     0
  0
BLOCK_RECORD
  5
144
330
1
100
AcDbSymbolTableRecord
100
AcDbBlockTableRecord
  2
block 8
340
0
102
{BLKREFS
331
145
102
}
 70
     0
280
     1
281
     0
  0
BLOCK_RECORD
  5
14B
330
1
100
AcDbSymbolTableRecord
100
AcDbBlockTableRecord
  2
block 9
340
0
102
{BLKREFS
331
14C
102
}
 70
     0
280
     1
281
     0
  0
BLOCK_RECORD
  5
157
330
1
100
AcDbSymbolTableRecord
100
AcDbBlockTableRecord
  2
block 10
340
0
102
{BLKREFS
331
158
102
}
 70
     0
280
     1
281
     0
  0
BLOCK_RECORD
  5
18E
330
1
100
AcDbSymbolTableRecord
100
AcDbBlockTableRecord
  2
block 11
340
0
102
{BLKREFS
331
18F
102
}
 70
     0
280
     1
281
     0
  0
BLOCK_RECORD
  5
198
330
1
100
AcDbSymbolTableRecord
100
AcDbBlockTableRecord
  2
block 12
340
0
102
{BLKREFS
331
199
102
}
 70
     0
280
     1
281
     0
  0
BLOCK_RECORD
  5
1A1
330
1
100
AcDbSymbolTableRecord
100
AcDbBlockTableRecord
  2
block 13
340
0
102
{BLKREFS
331
1A2
102
}
 70
     0
280
     1
281
     0
  0
BLOCK_RECORD
  5
1A9
330
1
100
AcDbSymbolTableRecord
100
AcDbBlockTableRecord
  2
block 14
340
0
102
{BLKREFS
331
1AA
102
}
 70
     0
280
     1
281
     0
  0
ENDTAB
  0
ENDSEC
  0
SECTION
  2
BLOCKS
  0
BLOCK
  5
20
330
1F
100
AcDbEntity
  8
0
100
AcDbBlockBegin
  2
*Model_Space
 70
     0
 10
0.0
 20
0.0
 30
0.0
  3
*Model_Space
  1

  0
ENDBLK
  5
21
330
1F
100
AcDbEntity
  8
0
100
AcDbBlockEnd
  0
BLOCK
  5
1C
330
1B
100
AcDbEntity
 67
     1
  8
0
100
AcDbBlockBegin
  2
*Paper_Space
 70
     0
 10
0.0
 20
0.0
 30
0.0
  3
*Paper_Space
  1

  0
ENDBLK
  5
1D
330
1B
100
AcDbEntity
 67
     1
  8
0
100
AcDbBlockEnd
  0
BLOCK
  5
24
330
23
100
AcDbEntity
  8
0
100
AcDbBlockBegin
  2
*Paper_Space0
 70
     0
 10
0.0
 20
0.0
 30
0.0
  3
*Paper_Space0
  1

  0
ENDBLK
  5
25
330
23
100
AcDbEntity
  8
0
100
AcDbBlockEnd
  0
BLOCK
  5
43
330
41
100
AcDbEntity
  8
0
100
AcDbBlockBegin
  2
block 2
 70
     0
 10
0.0
 20
0.0
 30
0.0
  3
block 2
  1

  0
POLYLINE
  5
45
330
41
100
AcDbEntity
  8
_U+30EC_U+30A4_U+30E4_U+30FC 1
 62
   179
420
  2234388
370
    18
100
AcDb2dPolyline
 66
     1
 10
0.0
 20
0.0
 30
0.0
  0
VERTEX
  5
46
330
45
100
AcDbEntity
  8
_U+30EC_U+30A4_U+30E4_U+30FC 1
 62
   179
420
  2234388
370
    18
100
AcDbVertex
100
AcDb2dVertex
 10
84.22534164561026
 20
-142.1243241311358
 30
0.0
  0
VERTEX
  5
47
330
45
100
AcDbEntity
  8
_U+30EC_U+30A4_U+30E4_U+30FC 1
 62
   179
420
  2234388
370
    18
100
AcDbVertex
100
AcDb2dVertex
 10
73.22534063186592
 20
-142.1243241311358
 30
0.0
  0
VERTEX
  5
48
330
45
100
AcDbEntity
  8
_U+30EC_U+30A4_U+30E4_U+30FC 1
 62
   179
420
  2234388
370
    18
100
AcDbVertex
100
AcDb2dVertex
 10
73.22534063186592
 20
-138.1245649654689
 30
0.0
  0
VERTEX
  5
49
330
45
100
AcDbEntity
  8
_U+30EC_U+30A4_U+30E4_U+30FC 1
 62
   179
420
  2234388
370
    18
100
AcDbVertex
100
AcDb2dVertex
 10
84.22534164561026
 20
-138.1245649654689
 30
0.0
  0
VERTEX
  5
4A
330
45
100
AcDbEntity
  8
_U+30EC_U+30A4_U+30E4_U+30FC 1
 62
   179
420
  2234388
370
    18
100
AcDbVertex
100
AcDb2dVertex
 10
84.22534164561026
 20
-142.1243241311358
 30
0.0
  0
SEQEND
  5
4B
330
45
100
AcDbEntity
  8
_U+30EC_U+30A4_U+30E4_U+30FC 1
 62
   179
420
  2234388
370
    18
  0
INSERT
  5
4D
330
41
100
AcDbEntity
  8
_U+30EC_U+30A4_U+30E4_U+30FC 1
100
AcDbBlockReference
  2
block 3
 10
0.0
 20
0.0
 30
0.0
  0
ENDBLK
  5
44
330
41
100
AcDbEntity
  8
0
100
AcDbBlockEnd
  0
BLOCK
  5
4E
330
4C
100
AcDbEntity
  8
0
100
AcDbBlockBegin
  2
block 3
 70
     0
 10
0.0
 20
0.0
 30
0.0
  3
block 3
  1

  0
SPLINE
  5
50
330
4C
100
AcDbEntity
  8
_U+30EC_U+30A4_U+30E4_U+30FC 1
370
     0
100
AcDbSpline
210
0.0
220
0.0
230
1.0
 70
    11
 71
     3
 72
    41
 73
    37
 74
     0
 42
0.0000000001
 43
0.0000000001
 12
1.0
 22
0.0
 32
0.0
 13
1.0
 23
0.0
 33
0.0
 40
0.0
 40
0.0
 40
0.0
 40
0.0
 40
1.0
 40
1.0
 40
1.0
 40
2.0
 40
2.0
 40
2.0
 40
3.0
 40
3.0
 40
3.0
 40
4.0
 40
4.0
 40
4.0
 40
5.0
 40
5.0
 40
5.0
 40
6.0
 40
6.0
 40
6.0
 40
7.0
 40
7.0
 40
7.0
 40
8.0
 40
8.0
 40
8.0
 40
9.0
 40
9.0
 40
9.0
 40
10.0
 40
10.0
 40
10.0
 40
11.0
 40
11.0
 40
11.0
 40
12.0
 40
12.0
 40
12.0
 40
12.0
 10
74.50242918059314
 20
-141.147629087977
 30
0.0
 10
74.5596177656483
 20
-140.7349066488441
 30
0.0
 10
74.70258922828616
 20
-140.4868597739061
 30
0.0
 10
75.22658825159266
 20
-140.1027316273007
 30
0.0
 10
75.56644692121256
 20
-139.8550292619113
 30
0.0
 10
75.66807723802742
 20
-139.7279052385055
 30
0.0
 10
75.66807723802742
 20
-139.5246446048758
 30
0.0
 10
75.66807723802742
 20
-139.3055365320139
 30
0.0
 10
75.51563176280513
 20
-139.1405164582704
 30
0.0
 10
75.30599770252768
 20
-139.1405164582704
 30
0.0
 10
74.98525931285091
 20
-139.1405164582704
 30
0.0
 10
74.97578530026648
 20
-139.4740017012426
 30
0.0
 10
74.97251245955549
 20
-139.6455674564081
 30
0.0
 10
74.97251245955549
 20
-139.6455674564081
 30
0.0
 10
74.56926403300699
 20
-139.6455674564081
 30
0.0
 10
74.56926403300699
 20
-139.6455674564081
 30
0.0
 10
74.57546520488044
 20
-139.4388617272931
 30
0.0
 10
74.6009589114713
 20
-138.7877386805808
 30
0.0
 10
75.3187445558231
 20
-138.7877386805808
 30
0.0
 10
75.79502900665888
 20
-138.7877386805808
 30
0.0
 10
76.10319279781449
 20
-139.1181233376163
 30
0.0
 10
76.10319279781449
 20
-139.5246446048758
 30
0.0
 10
76.10319279781449
 20
-139.8963704077343
 30
0.0
 10
75.83964299319287
 20
-140.1058322132374
 30
0.0
 10
75.53785262868499
 20
-140.3156385282892
 30
0.0
 10
75.22658825159266
 20
-140.5316460152143
 30
0.0
 10
75.14717880065766
 20
-140.6205294787338
 30
0.0
 10
75.04882132455377
 20
-140.8141438450048
 30
0.0
 10
75.04882132455377
 20
-140.8141438450048
 30
0.0
 10
76.12231307775762
 20
-140.8141438450048
 30
0.0
 10
76.12231307775762
 20
-140.8141438450048
 30
0.0
 10
76.12231307775762
 20
-140.8141438450048
 30
0.0
 10
76.12231307775762
 20
-141.147629087977
 30
0.0
 10
76.12231307775762
 20
-141.147629087977
 30
0.0
 10
76.12231307775762
 20
-141.147629087977
 30
0.0
 10
74.50242918059314
 20
-141.147629087977
 30
0.0
 10
74.50242918059314
 20
-141.147629087977
 30
0.0
  0
HATCH
  5
51
330
4C
100
AcDbEntity
  8
_U+30EC_U+30A4_U+30E4_U+30FC 1
 62
   179
420
  2234388
100
AcDbHatch
 10
0.0
 20
0.0
 30
0.0
210
0.0
220
0.0
230
1.0
  2
SOLID
 70
     1
 71
     0
 91
        1
 92
        1
 93
        1
 72
     4
 94
        3
 73
     0
 74
     1
 95
       41
 96
       37
 40
0.0
 40
0.0
 40
0.0
 40
0.0
 40
1.0
 40
1.0
 40
1.0
 40
2.0
 40
2.0
 40
2.0
 40
3.0
 40
3.0
 40
3.0
 40
4.0
 40
4.0
 40
4.0
 40
5.0
 40
5.0
 40
5.0
 40
6.0
 40
6.0
 40
6.0
 40
7.0
 40
7.0
 40
7.0
 40
8.0
 40
8.0
 40
8.0
 40
9.0
 40
9.0
 40
9.0
 40
10.0
 40
10.0
 40
10.0
 40
11.0
 40
11.0
 40
11.0
 40
12.0
 40
12.0
 40
12.0
 40
12.0
 10
74.50242918059314
 20
-141.147629087977
 10
74.5596177656483
 20
-140.7349066488441
 10
74.70258922828616
 20
-140.4868597739061
 10
75.22658825159266
 20
-140.1027316273007
 10
75.56644692121256
 20
-139.8550292619113
 10
75.66807723802742
 20
-139.7279052385055
 10
75.66807723802742
 20
-139.5246446048758
 10
75.66807723802742
 20
-139.3055365320139
 10
75.51563176280513
 20
-139.1405164582704
 10
75.30599770252768
 20
-139.1405164582704
 10
74.98525931285091
 20
-139.1405164582704
 10
74.97578530026648
 20
-139.4740017012426
 10
74.97251245955549
 20
-139.6455674564081
 10
74.97251245955549
 20
-139.6455674564081
 10
74.56926403300699
 20
-139.6455674564081
 10
74.56926403300699
 20
-139.6455674564081
 10
74.57546520488044
 20
-139.4388617272931
 10
74.6009589114713
 20
-138.7877386805808
 10
75.3187445558231
 20
-138.7877386805808
 10
75.79502900665888
 20
-138.7877386805808
 10
76.10319279781449
 20
-139.1181233376163
 10
76.10319279781449
 20
-139.5246446048758
 10
76.10319279781449
 20
-139.8963704077343
 10
75.83964299319287
 20
-140.1058322132374
 10
75.53785262868499
 20
-140.3156385282892
 10
75.22658825159266
 20
-140.5316460152143
 10
75.14717880065766
 20
-140.6205294787338
 10
75.04882132455377
 20
-140.8141438450048
 10
75.04882132455377
 20
-140.8141438450048
 10
76.12231307775762
 20
-140.8141438450048
 10
76.12231307775762
 20
-140.8141438450048
 10
76.12231307775762
 20
-140.8141438450048
 10
76.12231307775762
 20
-141.147629087977
 10
76.12231307775762
 20
-141.147629087977
 10
76.12231307775762
 20
-141.147629087977
 10
74.50242918059314
 20
-141.147629087977
 10
74.50242918059314
 20
-141.147629087977
 97
        0
 97
        0
 75
     2
 76
     1
 98
        0
  0
SPLINE
  5
52
330
4C
100
AcDbEntity
  8
_U+30EC_U+30A4_U+30E4_U+30FC 1
370
     0
100
AcDbSpline
210
0.0
220
0.0
230
1.0
 70
    11
 71
     3
 72
    29
 73
    25
 74
     0
 42
0.0000000001
 43
0.0000000001
 12
1.0
 22
0.0
 32
0.0
 13
1.0
 23
0.0
 33
0.0
 40
0.0
 40
0.0
 40
0.0
 40
0.0
 40
1.0
 40
1.0
 40
1.0
 40
2.0
 40
2.0
 40
2.0
 40
3.0
 40
3.0
 40
3.0
 40
4.0
 40
4.0
 40
4.0
 40
5.0
 40
5.0
 40
5.0
 40
6.0
 40
6.0
 40
6.0
 40
7.0
 40
7.0
 40
7.0
 40
8.0
 40
8.0
 40
8.0
 40
8.0
 10
77.23645695768742
 20
-141.1920708197367
 30
0.0
 10
76.71555852031764
 20
-141.1951714056734
 30
0.0
 10
76.42978784981617
 20
-140.8682318441232
 30
0.0
 10
76.42978784981617
 20
-140.4775580160959
 30
0.0
 10
76.42978784981617
 20
-140.1216796524696
 30
0.0
 10
76.66784394784693
 20
-139.9663058460848
 30
0.0
 10
76.79806855718938
 20
-139.8836235544388
 30
0.0
 10
76.51867131333562
 20
-139.7596001169698
 30
0.0
 10
76.49645044745576
 20
-139.5153428470656
 30
0.0
 10
76.49645044745576
 20
-139.4071668488288
 30
0.0
 10
76.49645044745576
 20
-139.086428459152
 30
0.0
 10
76.75689966614064
 20
-138.7877386805808
 30
0.0
 10
77.23645695768742
 20
-138.7877386805808
 30
0.0
 10
77.7127414085232
 20
-138.7877386805808
 30
0.0
 10
77.9731906272081
 20
-139.086428459152
 30
0.0
 10
77.9731906272081
 20
-139.4071668488288
 30
0.0
 10
77.9731906272081
 20
-139.5215440189391
 30
0.0
 10
77.95096976132824
 20
-139.7596001169698
 30
0.0
 10
77.67157251747447
 20
-139.8836235544388
 30
0.0
 10
77.80489771275364
 20
-139.9663058460848
 30
0.0
 10
78.04312606555867
 20
-140.1216796524696
 30
0.0
 10
78.04312606555867
 20
-140.4775580160959
 30
0.0
 10
78.04312606555867
 20
-140.8682318441232
 30
0.0
 10
77.75408255434621
 20
-141.1920708197367
 30
0.0
 10
77.23645695768742
 20
-141.1920708197367
 30
0.0
  0
SPLINE
  5
53
330
4C
100
AcDbEntity
  8
_U+30EC_U+30A4_U+30E4_U+30FC 1
370
     0
100
AcDbSpline
210
0.0
220
0.0
230
1.0
 70
    11
 71
     3
 72
    17
 73
    13
 74
     0
 42
0.0000000001
 43
0.0000000001
 12
1.0
 22
0.0
 32
0.0
 13
1.0
 23
0.0
 33
0.0
 40
0.0
 40
0.0
 40
0.0
 40
0.0
 40
1.0
 40
1.0
 40
1.0
 40
2.0
 40
2.0
 40
2.0
 40
3.0
 40
3.0
 40
3.0
 40
4.0
 40
4.0
 40
4.0
 40
4.0
 10
77.23645695768742
 20
-140.0803385066466
 30
0.0
 10
76.94741344647495
 20
-140.0803385066466
 30
0.0
 10
76.85852998295552
 20
-140.3121934328039
 30
0.0
 10
76.85852998295552
 20
-140.4648111628005
 30
0.0
 10
76.85852998295552
 20
-140.6456786757761
 30
0.0
 10
76.97600773900253
 20
-140.8489393094058
 30
0.0
 10
77.23645695768742
 20
-140.8489393094058
 30
0.0
 10
77.49363333566131
 20
-140.8489393094058
 30
0.0
 10
77.61438393241933
 20
-140.6456786757761
 30
0.0
 10
77.61438393241933
 20
-140.4648111628005
 30
0.0
 10
77.61438393241933
 20
-140.3121934328039
 30
0.0
 10
77.52222762818889
 20
-140.0803385066466
 30
0.0
 10
77.23645695768742
 20
-140.0803385066466
 30
0.0
  0
SPLINE
  5
54
330
4C
100
AcDbEntity
  8
_U+30EC_U+30A4_U+30E4_U+30FC 1
370
     0
100
AcDbSpline
210
0.0
220
0.0
230
1.0
 70
    11
 71
     3
 72
    17
 73
    13
 74
     0
 42
0.0000000001
 43
0.0000000001
 12
1.0
 22
0.0
 32
0.0
 13
1.0
 23
0.0
 33
0.0
 40
0.0
 40
0.0
 40
0.0
 40
0.0
 40
1.0
 40
1.0
 40
1.0
 40
2.0
 40
2.0
 40
2.0
 40
3.0
 40
3.0
 40
3.0
 40
4.0
 40
4.0
 40
4.0
 40
4.0
 10
77.23645695768742
 20
-139.1467176301439
 30
0.0
 10
77.02355005669898
 20
-139.1467176301439
 30
0.0
 10
76.91571856801066
 20
-139.3024359460772
 30
0.0
 10
76.91571856801066
 20
-139.4612548479472
 30
0.0
 10
76.91571856801066
 20
-139.6104274824585
 30
0.0
 10
77.0046020315301
 20
-139.7723469702653
 30
0.0
 10
77.23645695768742
 20
-139.7723469702653
 30
0.0
 10
77.46503904313374
 20
-139.7723469702653
 30
0.0
 10
77.5539225066532
 20
-139.6104274824585
 30
0.0
 10
77.5539225066532
 20
-139.4612548479472
 30
0.0
 10
77.5539225066532
 20
-139.3024359460772
 30
0.0
 10
77.4491916039016
 20
-139.1467176301439
 30
0.0
 10
77.23645695768742
 20
-139.1467176301439
 30
0.0
  0
HATCH
  5
55
330
4C
100
AcDbEntity
  8
_U+30EC_U+30A4_U+30E4_U+30FC 1
 62
   179
420
  2234388
100
AcDbHatch
 10
0.0
 20
0.0
 30
0.0
210
0.0
220
0.0
230
1.0
  2
SOLID
 70
     1
 71
     0
 91
        3
 92
        1
 93
        1
 72
     4
 94
        3
 73
     0
 74
     1
 95
       29
 96
       25
 40
0.0
 40
0.0
 40
0.0
 40
0.0
 40
1.0
 40
1.0
 40
1.0
 40
2.0
 40
2.0
 40
2.0
 40
3.0
 40
3.0
 40
3.0
 40
4.0
 40
4.0
 40
4.0
 40
5.0
 40
5.0
 40
5.0
 40
6.0
 40
6.0
 40
6.0
 40
7.0
 40
7.0
 40
7.0
 40
8.0
 40
8.0
 40
8.0
 40
8.0
 10
77.23645695768742
 20
-141.1920708197367
 10
76.71555852031764
 20
-141.1951714056734
 10
76.42978784981617
 20
-140.8682318441232
 10
76.42978784981617
 20
-140.4775580160959
 10
76.42978784981617
 20
-140.1216796524696
 10
76.66784394784693
 20
-139.9663058460848
 10
76.79806855718938
 20
-139.8836235544388
 10
76.51867131333562
 20
-139.7596001169698
 10
76.49645044745576
 20
-139.5153428470656
 10
76.49645044745576
 20
-139.4071668488288
 10
76.49645044745576
 20
-139.086428459152
 10
76.75689966614064
 20
-138.7877386805808
 10
77.23645695768742
 20
-138.7877386805808
 10
77.7127414085232
 20
-138.7877386805808
 10
77.9731906272081
 20
-139.086428459152
 10
77.9731906272081
 20
-139.4071668488288
 10
77.9731906272081
 20
-139.5215440189391
 10
77.95096976132824
 20
-139.7596001169698
 10
77.67157251747447
 20
-139.8836235544388
 10
77.80489771275364
 20
-139.9663058460848
 10
78.04312606555867
 20
-140.1216796524696
 10
78.04312606555867
 20
-140.4775580160959
 10
78.04312606555867
 20
-140.8682318441232
 10
77.75408255434621
 20
-141.1920708197367
 10
77.23645695768742
 20
-141.1920708197367
 97
        0
 97
        0
 92
        1
 93
        1
 72
     4
 94
        3
 73
     0
 74
     1
 95
       17
 96
       13
 40
0.0
 40
0.0
 40
0.0
 40
0.0
 40
1.0
 40
1.0
 40
1.0
 40
2.0
 40
2.0
 40
2.0
 40
3.0
 40
3.0
 40
3.0
 40
4.0
 40
4.0
 40
4.0
 40
4.0
 10
77.23645695768742
 20
-140.0803385066466
 10
76.94741344647495
 20
-140.0803385066466
 10
76.85852998295552
 20
-140.3121934328039
 10
76.85852998295552
 20
-140.4648111628005
 10
76.85852998295552
 20
-140.6456786757761
 10
76.97600773900253
 20
-140.8489393094058
 10
77.23645695768742
 20
-140.8489393094058
 10
77.49363333566131
 20
-140.8489393094058
 10
77.61438393241933
 20
-140.6456786757761
 10
77.61438393241933
 20
-140.4648111628005
 10
77.61438393241933
 20
-140.3121934328039
 10
77.52222762818889
 20
-140.0803385066466
 10
77.23645695768742
 20
-140.0803385066466
 97
        0
 97
        0
 92
        1
 93
        1
 72
     4
 94
        3
 73
     0
 74
     1
 95
       17
 96
       13
 40
0.0
 40
0.0
 40
0.0
 40
0.0
 40
1.0
 40
1.0
 40
1.0
 40
2.0
 40
2.0
 40
2.0
 40
3.0
 40
3.0
 40
3.0
 40
4.0
 40
4.0
 40
4.0
 40
4.0
 10
77.23645695768742
 20
-139.1467176301439
 10
77.02355005669898
 20
-139.1467176301439
 10
76.91571856801066
 20
-139.3024359460772
 10
76.91571856801066
 20
-139.4612548479472
 10
76.91571856801066
 20
-139.6104274824585
 10
77.0046020315301
 20
-139.7723469702653
 10
77.23645695768742
 20
-139.7723469702653
 10
77.46503904313374
 20
-139.7723469702653
 10
77.5539225066532
 20
-139.6104274824585
 10
77.5539225066532
 20
-139.4612548479472
 10
77.5539225066532
 20
-139.3024359460772
 10
77.4491916039016
 20
-139.1467176301439
 10
77.23645695768742
 20
-139.1467176301439
 97
        0
 97
        0
 75
     2
 76
     1
 98
        0
  0
POLYLINE
  5
56
330
4C
100
AcDbEntity
  8
_U+30EC_U+30A4_U+30E4_U+30FC 1
370
     0
100
AcDb2dPolyline
 66
     1
 10
0.0
 20
0.0
 30
0.0
  0
VERTEX
  5
57
330
56
100
AcDbEntity
  8
_U+30EC_U+30A4_U+30E4_U+30FC 1
370
     0
100
AcDbVertex
100
AcDb2dVertex
 10
78.3791951301448
 20
-140.4806586020326
 30
0.0
  0
VERTEX
  5
58
330
56
100
AcDbEntity
  8
_U+30EC_U+30A4_U+30E4_U+30FC 1
370
     0
100
AcDbVertex
100
AcDb2dVertex
 10
78.3791951301448
 20
-140.1058322132374
 30
0.0
  0
VERTEX
  5
59
330
56
100
AcDbEntity
  8
_U+30EC_U+30A4_U+30E4_U+30FC 1
370
     0
100
AcDbVertex
100
AcDb2dVertex
 10
79.17311738472061
 20
-140.1058322132374
 30
0.0
  0
VERTEX
  5
5A
330
56
100
AcDbEntity
  8
_U+30EC_U+30A4_U+30E4_U+30FC 1
370
     0
100
AcDbVertex
100
AcDb2dVertex
 10
79.17311738472061
 20
-140.4806586020326
 30
0.0
  0
VERTEX
  5
5B
330
56
100
AcDbEntity
  8
_U+30EC_U+30A4_U+30E4_U+30FC 1
370
     0
100
AcDbVertex
100
AcDb2dVertex
 10
78.3791951301448
 20
-140.4806586020326
 30
0.0
  0
SEQEND
  5
5C
330
56
100
AcDbEntity
  8
_U+30EC_U+30A4_U+30E4_U+30FC 1
370
     0
  0
HATCH
  5
5D
330
4C
100
AcDbEntity
  8
_U+30EC_U+30A4_U+30E4_U+30FC 1
 62
   179
420
  2234388
100
AcDbHatch
 10
0.0
 20
0.0
 30
0.0
210
0.0
220
0.0
230
1.0
  2
SOLID
 70
     1
 71
     0
 91
        1
 92
        1
 93
        4
 72
     1
 10
78.3791951301448
 20
-140.4806586020326
 11
78.3791951301448
 21
-140.1058322132374
 72
     1
 10
78.3791951301448
 20
-140.1058322132374
 11
79.17311738472061
 21
-140.1058322132374
 72
     1
 10
79.17311738472061
 20
-140.1058322132374
 11
79.17311738472061
 21
-140.4806586020326
 72
     1
 10
79.17311738472061
 20
-140.4806586020326
 11
78.3791951301448
 21
-140.4806586020326
 97
        0
 75
     2
 76
     1
 98
        0
  0
SPLINE
  5
5E
330
4C
100
AcDbEntity
  8
_U+30EC_U+30A4_U+30E4_U+30FC 1
370
     0
100
AcDbSpline
210
0.0
220
0.0
230
1.0
 70
    11
 71
     3
 72
    62
 73
    58
 74
     0
 42
0.0000000001
 43
0.0000000001
 12
1.0
 22
0.0
 32
0.0
 13
1.0
 23
0.0
 33
0.0
 40
0.0
 40
0.0
 40
0.0
 40
0.0
 40
1.0
 40
1.0
 40
1.0
 40
2.0
 40
2.0
 40
2.0
 40
3.0
 40
3.0
 40
3.0
 40
4.0
 40
4.0
 40
4.0
 40
5.0
 40
5.0
 40
5.0
 40
6.0
 40
6.0
 40
6.0
 40
7.0
 40
7.0
 40
7.0
 40
8.0
 40
8.0
 40
8.0
 40
9.0
 40
9.0
 40
9.0
 40
10.0
 40
10.0
 40
10.0
 40
11.0
 40
11.0
 40
11.0
 40
12.0
 40
12.0
 40
12.0
 40
13.0
 40
13.0
 40
13.0
 40
14.0
 40
14.0
 40
14.0
 40
15.0
 40
15.0
 40
15.0
 40
16.0
 40
16.0
 40
16.0
 40
17.0
 40
17.0
 40
17.0
 40
18.0
 40
18.0
 40
18.0
 40
19.0
 40
19.0
 40
19.0
 40
19.0
 10
80.3065537993678
 20
-141.1920708197367
 30
0.0
 10
80.06522486062606
 20
-141.1920708197367
 30
0.0
 10
79.8588636410596
 20
-141.1031873562173
 30
0.0
 10
79.71899276435845
 20
-140.9633164795161
 30
0.0
 10
79.60151500831142
 20
-140.8427381375324
 30
0.0
 10
79.54432642325628
 20
-140.7283609674221
 30
0.0
 10
79.51573213072871
 20
-140.4045219918086
 30
0.0
 10
79.51573213072871
 20
-140.4045219918086
 30
0.0
 10
79.93810083722033
 20
-140.4045219918086
 30
0.0
 10
79.93810083722033
 20
-140.4045219918086
 30
0.0
 10
79.95084769051576
 20
-140.7314615533588
 30
0.0
 10
80.11604001903349
 20
-140.8396375515956
 30
0.0
 10
80.3065537993678
 20
-140.8396375515956
 30
0.0
 10
80.52893471294068
 20
-140.8396375515956
 30
0.0
 10
80.6877536148107
 20
-140.6870198215991
 30
0.0
 10
80.6877536148107
 20
-140.4458631376316
 30
0.0
 10
80.6877536148107
 20
-140.18231333301
 30
0.0
 10
80.52256128629297
 20
-140.0803385066466
 30
0.0
 10
80.27485892090351
 20
-140.0803385066466
 30
0.0
 10
80.27485892090351
 20
-140.0803385066466
 30
0.0
 10
80.09691973909035
 20
-140.0803385066466
 30
0.0
 10
80.09691973909035
 20
-140.0803385066466
 30
0.0
 10
80.09691973909035
 20
-140.0803385066466
 30
0.0
 10
80.09691973909035
 20
-139.7978406768561
 30
0.0
 10
80.09691973909035
 20
-139.7978406768561
 30
0.0
 10
80.09691973909035
 20
-139.7978406768561
 30
0.0
 10
80.27485892090351
 20
-139.7978406768561
 30
0.0
 10
80.27485892090351
 20
-139.7978406768561
 30
0.0
 10
80.49706757970212
 20
-139.7978406768561
 30
0.0
 10
80.63693845640327
 20
-139.6486680423448
 30
0.0
 10
80.63693845640327
 20
-139.4612548479472
 30
0.0
 10
80.63693845640327
 20
-139.3468776778369
 30
0.0
 10
80.57974987134813
 20
-139.1405164582704
 30
0.0
 10
80.30345321343108
 20
-139.1405164582704
 30
0.0
 10
79.96049395787446
 20
-139.1405164582704
 30
0.0
 10
79.94774710457904
 20
-139.4357611413564
 30
0.0
 10
79.94447426386805
 20
-139.5373914581712
 30
0.0
 10
79.94447426386805
 20
-139.5373914581712
 30
0.0
 10
79.56017386248843
 20
-139.5373914581712
 30
0.0
 10
79.56017386248843
 20
-139.5373914581712
 30
0.0
 10
79.56344670319942
 20
-139.4230142880609
 30
0.0
 10
79.57292071578385
 20
-139.286588506845
 30
0.0
 10
79.67782387330972
 20
-139.121223923553
 30
0.0
 10
79.81424965452561
 20
-138.9086615321131
 30
0.0
 10
80.05885143397835
 20
-138.7877386805808
 30
0.0
 10
80.33204750595866
 20
-138.7877386805808
 30
0.0
 10
80.69085420074742
 20
-138.7877386805808
 30
0.0
 10
81.05293373624718
 20
-139.0071912629913
 30
0.0
 10
81.05293373624718
 20
-139.3944199955334
 30
0.0
 10
81.05293373624718
 20
-139.7186034806954
 30
0.0
 10
80.84967310261744
 20
-139.8326361412571
 30
0.0
 10
80.77663707833015
 20
-139.8739772870801
 30
0.0
 10
80.89738767508815
 20
-139.9535589927894
 30
0.0
 10
81.11959633388678
 20
-140.0965304554273
 30
0.0
 10
81.11959633388678
 20
-140.4424180421464
 30
0.0
 10
81.11959633388678
 20
-140.9095729899462
 30
0.0
 10
80.74166935915487
 20
-141.1920708197367
 30
0.0
 10
80.3065537993678
 20
-141.1920708197367
 30
0.0
  0
HATCH
  5
5F
330
4C
100
AcDbEntity
  8
_U+30EC_U+30A4_U+30E4_U+30FC 1
 62
   179
420
  2234388
100
AcDbHatch
 10
0.0
 20
0.0
 30
0.0
210
0.0
220
0.0
230
1.0
  2
SOLID
 70
     1
 71
     0
 91
        1
 92
        1
 93
        1
 72
     4
 94
        3
 73
     0
 74
     1
 95
       62
 96
       58
 40
0.0
 40
0.0
 40
0.0
 40
0.0
 40
1.0
 40
1.0
 40
1.0
 40
2.0
 40
2.0
 40
2.0
 40
3.0
 40
3.0
 40
3.0
 40
4.0
 40
4.0
 40
4.0
 40
5.0
 40
5.0
 40
5.0
 40
6.0
 40
6.0
 40
6.0
 40
7.0
 40
7.0
 40
7.0
 40
8.0
 40
8.0
 40
8.0
 40
9.0
 40
9.0
 40
9.0
 40
10.0
 40
10.0
 40
10.0
 40
11.0
 40
11.0
 40
11.0
 40
12.0
 40
12.0
 40
12.0
 40
13.0
 40
13.0
 40
13.0
 40
14.0
 40
14.0
 40
14.0
 40
15.0
 40
15.0
 40
15.0
 40
16.0
 40
16.0
 40
16.0
 40
17.0
 40
17.0
 40
17.0
 40
18.0
 40
18.0
 40
18.0
 40
19.0
 40
19.0
 40
19.0
 40
19.0
 10
80.3065537993678
 20
-141.1920708197367
 10
80.06522486062606
 20
-141.1920708197367
 10
79.8588636410596
 20
-141.1031873562173
 10
79.71899276435845
 20
-140.9633164795161
 10
79.60151500831142
 20
-140.8427381375324
 10
79.54432642325628
 20
-140.7283609674221
 10
79.51573213072871
 20
-140.4045219918086
 10
79.51573213072871
 20
-140.4045219918086
 10
79.93810083722033
 20
-140.4045219918086
 10
79.93810083722033
 20
-140.4045219918086
 10
79.95084769051576
 20
-140.7314615533588
 10
80.11604001903349
 20
-140.8396375515956
 10
80.3065537993678
 20
-140.8396375515956
 10
80.52893471294068
 20
-140.8396375515956
 10
80.6877536148107
 20
-140.6870198215991
 10
80.6877536148107
 20
-140.4458631376316
 10
80.6877536148107
 20
-140.18231333301
 10
80.52256128629297
 20
-140.0803385066466
 10
80.27485892090351
 20
-140.0803385066466
 10
80.27485892090351
 20
-140.0803385066466
 10
80.09691973909035
 20
-140.0803385066466
 10
80.09691973909035
 20
-140.0803385066466
 10
80.09691973909035
 20
-140.0803385066466
 10
80.09691973909035
 20
-139.7978406768561
 10
80.09691973909035
 20
-139.7978406768561
 10
80.09691973909035
 20
-139.7978406768561
 10
80.27485892090351
 20
-139.7978406768561
 10
80.27485892090351
 20
-139.7978406768561
 10
80.49706757970212
 20
-139.7978406768561
 10
80.63693845640327
 20
-139.6486680423448
 10
80.63693845640327
 20
-139.4612548479472
 10
80.63693845640327
 20
-139.3468776778369
 10
80.57974987134813
 20
-139.1405164582704
 10
80.30345321343108
 20
-139.1405164582704
 10
79.96049395787446
 20
-139.1405164582704
 10
79.94774710457904
 20
-139.4357611413564
 10
79.94447426386805
 20
-139.5373914581712
 10
79.94447426386805
 20
-139.5373914581712
 10
79.56017386248843
 20
-139.5373914581712
 10
79.56017386248843
 20
-139.5373914581712
 10
79.56344670319942
 20
-139.4230142880609
 10
79.57292071578385
 20
-139.286588506845
 10
79.67782387330972
 20
-139.121223923553
 10
79.81424965452561
 20
-138.9086615321131
 10
80.05885143397835
 20
-138.7877386805808
 10
80.33204750595866
 20
-138.7877386805808
 10
80.69085420074742
 20
-138.7877386805808
 10
81.05293373624718
 20
-139.0071912629913
 10
81.05293373624718
 20
-139.3944199955334
 10
81.05293373624718
 20
-139.7186034806954
 10
80.84967310261744
 20
-139.8326361412571
 10
80.77663707833015
 20
-139.8739772870801
 10
80.89738767508815
 20
-139.9535589927894
 10
81.11959633388678
 20
-140.0965304554273
 10
81.11959633388678
 20
-140.4424180421464
 10
81.11959633388678
 20
-140.9095729899462
 10
80.74166935915487
 20
-141.1920708197367
 10
80.3065537993678
 20
-141.1920708197367
 97
        0
 97
        0
 75
     2
 76
     1
 98
        0
  0
SPLINE
  5
60
330
4C
100
AcDbEntity
  8
_U+30EC_U+30A4_U+30E4_U+30FC 1
370
     0
100
AcDbSpline
210
0.0
220
0.0
230
1.0
 70
    11
 71
     3
 72
    35
 73
    31
 74
     0
 42
0.0000000001
 43
0.0000000001
 12
1.0
 22
0.0
 32
0.0
 13
1.0
 23
0.0
 33
0.0
 40
0.0
 40
0.0
 40
0.0
 40
0.0
 40
1.0
 40
1.0
 40
1.0
 40
2.0
 40
2.0
 40
2.0
 40
3.0
 40
3.0
 40
3.0
 40
4.0
 40
4.0
 40
4.0
 40
5.0
 40
5.0
 40
5.0
 40
6.0
 40
6.0
 40
6.0
 40
7.0
 40
7.0
 40
7.0
 40
8.0
 40
8.0
 40
8.0
 40
9.0
 40
9.0
 40
9.0
 40
10.0
 40
10.0
 40
10.0
 40
10.0
 10
82.26233450634415
 20
-141.1920708197367
 30
0.0
 10
81.62395831292734
 20
-141.1920708197367
 30
0.0
 10
81.44929197182518
 20
-140.5726426514888
 30
0.0
 10
81.44929197182518
 20
-140.0965304554273
 30
0.0
 10
81.44929197182518
 20
-139.8519286759745
 30
0.0
 10
81.47151283770505
 20
-138.7877386805808
 30
0.0
 10
82.30057506623042
 20
-138.7877386805808
 30
0.0
 10
82.49108884656474
 20
-138.7877386805808
 30
0.0
 10
82.66265460173017
 20
-138.8545735329947
 30
0.0
 10
82.79597979700934
 20
-138.9816975564004
 30
0.0
 10
82.9229315656408
 20
-139.1022758983842
 30
0.0
 10
82.96117212552707
 20
-139.203906215199
 30
0.0
 10
83.00234101657581
 20
-139.4137125302507
 30
0.0
 10
83.00234101657581
 20
-139.4137125302507
 30
0.0
 10
82.58324515079516
 20
-139.4137125302507
 30
0.0
 10
82.58324515079516
 20
-139.4137125302507
 30
0.0
 10
82.57049829749974
 20
-139.2707410676129
 30
0.0
 10
82.46886798068488
 20
-139.1405164582704
 30
0.0
 10
82.29092879887172
 20
-139.1405164582704
 30
0.0
 10
81.95124238402609
 20
-139.1405164582704
 30
0.0
 10
81.90025497084439
 20
-139.5470377255299
 30
0.0
 10
81.86218666573238
 20
-139.858129847848
 30
0.0
 10
81.98293726249038
 20
-139.6486680423448
 30
0.0
 10
82.20841876199998
 20
-139.6104274824585
 30
0.0
 10
82.33537053063144
 20
-139.6104274824585
 30
0.0
 10
82.72294377272205
 20
-139.6104274824585
 30
0.0
 10
83.0373087357511
 20
-139.9311658721353
 30
0.0
 10
83.0373087357511
 20
-140.3600802600489
 30
0.0
 10
83.0373087357511
 20
-140.7411078207175
 30
0.0
 10
82.77048609041849
 20
-141.1920708197367
 30
0.0
 10
82.26233450634415
 20
-141.1920708197367
 30
0.0
  0
SPLINE
  5
61
330
4C
100
AcDbEntity
  8
_U+30EC_U+30A4_U+30E4_U+30FC 1
370
     0
100
AcDbSpline
210
0.0
220
0.0
230
1.0
 70
    11
 71
     3
 72
    17
 73
    13
 74
     0
 42
0.0000000001
 43
0.0000000001
 12
1.0
 22
0.0
 32
0.0
 13
1.0
 23
0.0
 33
0.0
 40
0.0
 40
0.0
 40
0.0
 40
0.0
 40
1.0
 40
1.0
 40
1.0
 40
2.0
 40
2.0
 40
2.0
 40
3.0
 40
3.0
 40
3.0
 40
4.0
 40
4.0
 40
4.0
 40
4.0
 10
82.26233450634415
 20
-139.9597601646628
 30
0.0
 10
82.01153155501795
 20
-139.9597601646628
 30
0.0
 10
81.8813069456755
 20
-140.18231333301
 30
0.0
 10
81.8813069456755
 20
-140.3979763103866
 30
0.0
 10
81.8813069456755
 20
-140.6394775039026
 30
0.0
 10
82.03047958018684
 20
-140.8141438450048
 30
0.0
 10
82.246487067112
 20
-140.8141438450048
 30
0.0
 10
82.44027368815729
 20
-140.8141438450048
 30
0.0
 10
82.60546601667502
 20
-140.6649712104935
 30
0.0
 10
82.60546601667502
 20
-140.3948757244499
 30
0.0
 10
82.60546601667502
 20
-140.1471733590604
 30
0.0
 10
82.4719685666216
 20
-139.9597601646628
 30
0.0
 10
82.26233450634415
 20
-139.9597601646628
 30
0.0
  0
HATCH
  5
62
330
4C
100
AcDbEntity
  8
_U+30EC_U+30A4_U+30E4_U+30FC 1
 62
   179
420
  2234388
100
AcDbHatch
 10
0.0
 20
0.0
 30
0.0
210
0.0
220
0.0
230
1.0
  2
SOLID
 70
     1
 71
     0
 91
        2
 92
        1
 93
        1
 72
     4
 94
        3
 73
     0
 74
     1
 95
       35
 96
       31
 40
0.0
 40
0.0
 40
0.0
 40
0.0
 40
1.0
 40
1.0
 40
1.0
 40
2.0
 40
2.0
 40
2.0
 40
3.0
 40
3.0
 40
3.0
 40
4.0
 40
4.0
 40
4.0
 40
5.0
 40
5.0
 40
5.0
 40
6.0
 40
6.0
 40
6.0
 40
7.0
 40
7.0
 40
7.0
 40
8.0
 40
8.0
 40
8.0
 40
9.0
 40
9.0
 40
9.0
 40
10.0
 40
10.0
 40
10.0
 40
10.0
 10
82.26233450634415
 20
-141.1920708197367
 10
81.62395831292734
 20
-141.1920708197367
 10
81.44929197182518
 20
-140.5726426514888
 10
81.44929197182518
 20
-140.0965304554273
 10
81.44929197182518
 20
-139.8519286759745
 10
81.47151283770505
 20
-138.7877386805808
 10
82.30057506623042
 20
-138.7877386805808
 10
82.49108884656474
 20
-138.7877386805808
 10
82.66265460173017
 20
-138.8545735329947
 10
82.79597979700934
 20
-138.9816975564004
 10
82.9229315656408
 20
-139.1022758983842
 10
82.96117212552707
 20
-139.203906215199
 10
83.00234101657581
 20
-139.4137125302507
 10
83.00234101657581
 20
-139.4137125302507
 10
82.58324515079516
 20
-139.4137125302507
 10
82.58324515079516
 20
-139.4137125302507
 10
82.57049829749974
 20
-139.2707410676129
 10
82.46886798068488
 20
-139.1405164582704
 10
82.29092879887172
 20
-139.1405164582704
 10
81.95124238402609
 20
-139.1405164582704
 10
81.90025497084439
 20
-139.5470377255299
 10
81.86218666573238
 20
-139.858129847848
 10
81.98293726249038
 20
-139.6486680423448
 10
82.20841876199998
 20
-139.6104274824585
 10
82.33537053063144
 20
-139.6104274824585
 10
82.72294377272205
 20
-139.6104274824585
 10
83.0373087357511
 20
-139.9311658721353
 10
83.0373087357511
 20
-140.3600802600489
 10
83.0373087357511
 20
-140.7411078207175
 10
82.77048609041849
 20
-141.1920708197367
 10
82.26233450634415
 20
-141.1920708197367
 97
        0
 97
        0
 92
        1
 93
        1
 72
     4
 94
        3
 73
     0
 74
     1
 95
       17
 96
       13
 40
0.0
 40
0.0
 40
0.0
 40
0.0
 40
1.0
 40
1.0
 40
1.0
 40
2.0
 40
2.0
 40
2.0
 40
3.0
 40
3.0
 40
3.0
 40
4.0
 40
4.0
 40
4.0
 40
4.0
 10
82.26233450634415
 20
-139.9597601646628
 10
82.01153155501795
 20
-139.9597601646628
 10
81.8813069456755
 20
-140.18231333301
 10
81.8813069456755
 20
-140.3979763103866
 10
81.8813069456755
 20
-140.6394775039026
 10
82.03047958018684
 20
-140.8141438450048
 10
82.246487067112
 20
-140.8141438450048
 10
82.44027368815729
 20
-140.8141438450048
 10
82.60546601667502
 20
-140.6649712104935
 10
82.60546601667502
 20
-140.3948757244499
 10
82.60546601667502
 20
-140.1471733590604
 10
82.4719685666216
 20
-139.9597601646628
 10
82.26233450634415
 20
-139.9597601646628
 97
        0
 97
        0
 75
     2
 76
     1
 98
        0
  0
ENDBLK
  5
4F
330
4C
100
AcDbEntity
  8
0
100
AcDbBlockEnd
  0
BLOCK
  5
65
330
63
100
AcDbEntity
  8
0
100
AcDbBlockBegin
  2
block 4
 70
     0
 10
0.0
 20
0.0
 30
0.0
  3
block 4
  1

  0
SPLINE
  5
67
330
63
100
AcDbEntity
  8
_U+30EC_U+30A4_U+30E4_U+30FC 1
 62
   179
420
  2234388
370
    25
100
AcDbSpline
210
0.0
220
0.0
230
1.0
 70
    11
 71
     3
 72
    29
 73
    25
 74
     0
 42
0.0000000001
 43
0.0000000001
 12
1.0
 22
0.0
 32
0.0
 13
1.0
 23
0.0
 33
0.0
 40
0.0
 40
0.0
 40
0.0
 40
0.0
 40
1.0
 40
1.0
 40
1.0
 40
2.0
 40
2.0
 40
2.0
 40
3.0
 40
3.0
 40
3.0
 40
4.0
 40
4.0
 40
4.0
 40
5.0
 40
5.0
 40
5.0
 40
6.0
 40
6.0
 40
6.0
 40
7.0
 40
7.0
 40
7.0
 40
8.0
 40
8.0
 40
8.0
 40
8.0
 10
96.83679442023511
 20
-146.049294407932
 30
0.0
 10
96.83679442023511
 20
-146.049294407932
 30
0.0
 10
97.12483502213902
 20
-145.189081074814
 30
0.0
 10
97.12483502213902
 20
-145.189081074814
 30
0.0
 10
97.12067224446744
 20
-145.1873524637034
 30
0.0
 10
97.11725275349835
 20
-145.1838952414821
 30
0.0
 10
97.11241724467806
 20
-145.1818491303712
 30
0.0
 10
97.11241724467806
 20
-145.1818491303712
 30
0.0
 10
96.96703752616477
 20
-145.1070602415012
 30
0.0
 10
96.77410336442027
 20
-145.0199241304114
 30
0.0
 10
88.81095662313263
 20
-141.431503853531
 30
0.0
 10
77.87414023548739
 20
-132.964837188981
 30
0.0
 10
76.9363863705226
 20
-117.2848174706788
 30
0.0
 10
76.93603359275382
 20
-117.2786438595693
 30
0.0
 10
76.9363863705226
 20
-117.2696833040158
 30
0.0
 10
76.93709192606015
 20
-117.2634744151287
 30
0.0
 10
76.93709192606015
 20
-117.2634744151287
 30
0.0
 10
75.97587833947163
 20
-117.2634744151287
 30
0.0
 10
75.97587833947163
 20
-117.2634744151287
 30
0.0
 10
75.97587833947163
 20
-117.2634744151287
 30
0.0
 10
75.97587833947163
 20
-118.0517210815981
 30
0.0
 10
75.97587833947163
 20
-118.0517210815981
 30
0.0
 10
76.78134054114481
 20
-130.6666310784443
 30
0.0
 10
85.73790947931036
 20
-141.3367477424437
 30
0.0
 10
96.83679442023511
 20
-146.049294407932
 30
0.0
  0
HATCH
  5
68
330
63
100
AcDbEntity
  8
_U+30EC_U+30A4_U+30E4_U+30FC 1
 62
   253
420
 11711154
100
AcDbHatch
 10
0.0
 20
0.0
 30
0.0
210
0.0
220
0.0
230
1.0
  2
SOLID
 70
     1
 71
     0
 91
        1
 92
        1
 93
        1
 72
     4
 94
        3
 73
     0
 74
     1
 95
       29
 96
       25
 40
0.0
 40
0.0
 40
0.0
 40
0.0
 40
1.0
 40
1.0
 40
1.0
 40
2.0
 40
2.0
 40
2.0
 40
3.0
 40
3.0
 40
3.0
 40
4.0
 40
4.0
 40
4.0
 40
5.0
 40
5.0
 40
5.0
 40
6.0
 40
6.0
 40
6.0
 40
7.0
 40
7.0
 40
7.0
 40
8.0
 40
8.0
 40
8.0
 40
8.0
 10
96.83679442023511
 20
-146.049294407932
 10
96.83679442023511
 20
-146.049294407932
 10
97.12483502213902
 20
-145.189081074814
 10
97.12483502213902
 20
-145.189081074814
 10
97.12067224446744
 20
-145.1873524637034
 10
97.11725275349835
 20
-145.1838952414821
 10
97.11241724467806
 20
-145.1818491303712
 10
97.11241724467806
 20
-145.1818491303712
 10
96.96703752616477
 20
-145.1070602415012
 10
96.77410336442027
 20
-145.0199241304114
 10
88.81095662313263
 20
-141.431503853531
 10
77.87414023548739
 20
-132.964837188981
 10
76.9363863705226
 20
-117.2848174706788
 10
76.93603359275382
 20
-117.2786438595693
 10
76.9363863705226
 20
-117.2696833040158
 10
76.93709192606015
 20
-117.2634744151287
 10
76.93709192606015
 20
-117.2634744151287
 10
75.97587833947163
 20
-117.2634744151287
 10
75.97587833947163
 20
-117.2634744151287
 10
75.97587833947163
 20
-117.2634744151287
 10
75.97587833947163
 20
-118.0517210815981
 10
75.97587833947163
 20
-118.0517210815981
 10
76.78134054114481
 20
-130.6666310784443
 10
85.73790947931036
 20
-141.3367477424437
 10
96.83679442023511
 20
-146.049294407932
 97
        0
 97
        0
 75
     2
 76
     1
 98
        0
  0
SPLINE
  5
69
330
63
100
AcDbEntity
  8
_U+30EC_U+30A4_U+30E4_U+30FC 1
 62
   179
420
  2234388
370
    25
100
AcDbSpline
210
0.0
220
0.0
230
1.0
 70
     8
 71
     3
 72
   137
 73
   133
 74
     0
 42
0.0000000001
 43
0.0000000001
 12
1.0
 22
0.0
 32
0.0
 13
1.0
 23
0.0
 33
0.0
 40
0.0
 40
0.0
 40
0.0
 40
0.0
 40
1.0
 40
1.0
 40
1.0
 40
2.0
 40
2.0
 40
2.0
 40
3.0
 40
3.0
 40
3.0
 40
4.0
 40
4.0
 40
4.0
 40
5.0
 40
5.0
 40
5.0
 40
6.0
 40
6.0
 40
6.0
 40
7.0
 40
7.0
 40
7.0
 40
8.0
 40
8.0
 40
8.0
 40
9.0
 40
9.0
 40
9.0
 40
10.0
 40
10.0
 40
10.0
 40
11.0
 40
11.0
 40
11.0
 40
12.0
 40
12.0
 40
12.0
 40
13.0
 40
13.0
 40
13.0
 40
14.0
 40
14.0
 40
14.0
 40
15.0
 40
15.0
 40
15.0
 40
16.0
 40
16.0
 40
16.0
 40
17.0
 40
17.0
 40
17.0
 40
18.0
 40
18.0
 40
18.0
 40
19.0
 40
19.0
 40
19.0
 40
20.0
 40
20.0
 40
20.0
 40
21.0
 40
21.0
 40
21.0
 40
22.0
 40
22.0
 40
22.0
 40
23.0
 40
23.0
 40
23.0
 40
24.0
 40
24.0
 40
24.0
 40
25.0
 40
25.0
 40
25.0
 40
26.0
 40
26.0
 40
26.0
 40
27.0
 40
27.0
 40
27.0
 40
28.0
 40
28.0
 40
28.0
 40
29.0
 40
29.0
 40
29.0
 40
30.0
 40
30.0
 40
30.0
 40
31.0
 40
31.0
 40
31.0
 40
32.0
 40
32.0
 40
32.0
 40
33.0
 40
33.0
 40
33.0
 40
34.0
 40
34.0
 40
34.0
 40
35.0
 40
35.0
 40
35.0
 40
36.0
 40
36.0
 40
36.0
 40
37.0
 40
37.0
 40
37.0
 40
38.0
 40
38.0
 40
38.0
 40
39.0
 40
39.0
 40
39.0
 40
40.0
 40
40.0
 40
40.0
 40
41.0
 40
41.0
 40
41.0
 40
42.0
 40
42.0
 40
42.0
 40
43.0
 40
43.0
 40
43.0
 40
44.0
 40
44.0
 40
44.0
 40
44.0
 10
75.05191808526605
 20
-119.0632055257899
 30
0.0
 10
75.05191808526605
 20
-119.0632055257899
 30
0.0
 10
75.95178361786412
 20
-119.0632055257899
 30
0.0
 10
75.95178361786412
 20
-119.0632055257899
 30
0.0
 10
75.95178361786412
 20
-119.0632055257899
 30
0.0
 10
75.95178361786412
 20
-117.2634744151287
 30
0.0
 10
75.95178361786412
 20
-117.2634744151287
 30
0.0
 10
75.95178361786412
 20
-117.2634744151287
 30
0.0
 10
77.47451357901605
 20
-117.2634744151287
 30
0.0
 10
77.47451357901605
 20
-117.2634744151287
 30
0.0
 10
77.93545301170094
 20
-129.456356356525
 30
0.0
 10
86.39799196247026
 20
-139.8533171872591
 30
0.0
 10
96.95394947094313
 20
-144.5631121860816
 30
0.0
 10
96.95394947094313
 20
-144.5631121860816
 30
0.0
 10
96.92981947155873
 20
-144.5631121860816
 30
0.0
 10
96.92981947155873
 20
-144.5631121860816
 30
0.0
 10
96.95119780434666
 20
-144.5672396860802
 30
0.0
 10
96.97324641489526
 20
-144.5748244083008
 30
0.0
 10
96.99458946990632
 20
-144.5817035749658
 30
0.0
 10
97.05798608684663
 20
-144.6099610749585
 30
0.0
 10
97.12000196670677
 20
-144.6381832971736
 30
0.0
 10
97.18269057621856
 20
-144.665770519389
 30
0.0
 10
97.48516223516853
 20
-144.8524957971201
 30
0.0
 10
97.62366278719065
 20
-145.2307441303591
 30
0.0
 10
97.48932501284011
 20
-145.572868019162
 30
0.0
 10
97.33840668335702
 20
-145.9587010746216
 30
0.0
 10
96.90364336111543
 20
-146.148883574574
 30
0.0
 10
96.5178103154033
 20
-145.9979652412786
 30
0.0
 10
96.5178103154033
 20
-145.9979652412786
 30
0.0
 10
96.6245961460123
 20
-146.0637935745952
 30
0.0
 10
96.6245961460123
 20
-146.0637935745952
 30
0.0
 10
95.59106311682436
 20
-145.6138607969297
 30
0.0
 10
94.58441175361729
 20
-145.113621908166
 30
0.0
 10
93.60876955628578
 20
-144.5631121860816
 30
0.0
 10
93.60876955628578
 20
-144.5631121860816
 30
0.0
 10
92.65171874736885
 20
-144.5631121860816
 30
0.0
 10
92.65171874736885
 20
-144.5631121860816
 30
0.0
 10
92.65171874736885
 20
-144.5631121860816
 30
0.0
 10
92.65171874736885
 20
-147.5630991297759
 30
0.0
 10
92.65171874736885
 20
-147.5630991297759
 30
0.0
 10
92.65171874736885
 20
-147.5630991297759
 30
0.0
 10
94.65193341856134
 20
-147.5630991297759
 30
0.0
 10
94.65193341856134
 20
-147.5630991297759
 30
0.0
 10
94.65193341856134
 20
-147.5630991297759
 30
0.0
 10
94.65193341856134
 20
-147.0635305187895
 30
0.0
 10
94.65193341856134
 20
-147.0635305187895
 30
0.0
 10
94.65193341856134
 20
-147.0635305187895
 30
0.0
 10
95.65170561527724
 20
-147.0635305187895
 30
0.0
 10
95.65170561527724
 20
-147.0635305187895
 30
0.0
 10
95.65170561527724
 20
-147.0635305187895
 30
0.0
 10
95.65170561527724
 20
-147.5630991297759
 30
0.0
 10
95.65170561527724
 20
-147.5630991297759
 30
0.0
 10
95.65170561527724
 20
-147.5630991297759
 30
0.0
 10
96.65147781199315
 20
-147.5630991297759
 30
0.0
 10
96.65147781199315
 20
-147.5630991297759
 30
0.0
 10
96.65147781199315
 20
-147.5630991297759
 30
0.0
 10
96.65147781199315
 20
-147.0635305187895
 30
0.0
 10
96.65147781199315
 20
-147.0635305187895
 30
0.0
 10
96.65147781199315
 20
-147.0635305187895
 30
0.0
 10
97.65121473093218
 20
-147.0635305187895
 30
0.0
 10
97.65121473093218
 20
-147.0635305187895
 30
0.0
 10
97.65121473093218
 20
-147.0635305187895
 30
0.0
 10
97.65121473093218
 20
-147.5630991297759
 30
0.0
 10
97.65121473093218
 20
-147.5630991297759
 30
0.0
 10
97.65121473093218
 20
-147.5630991297759
 30
0.0
 10
98.65098692764809
 20
-147.5630991297759
 30
0.0
 10
98.65098692764809
 20
-147.5630991297759
 30
0.0
 10
98.65098692764809
 20
-147.5630991297759
 30
0.0
 10
98.65098692764809
 20
-147.0635305187895
 30
0.0
 10
98.65098692764809
 20
-147.0635305187895
 30
0.0
 10
98.65098692764809
 20
-147.0635305187895
 30
0.0
 10
99.65213495766223
 20
-147.0635305187895
 30
0.0
 10
99.65213495766223
 20
-147.0635305187895
 30
0.0
 10
99.65213495766223
 20
-147.0635305187895
 30
0.0
 10
99.65213495766223
 20
-147.5630991297759
 30
0.0
 10
99.65213495766223
 20
-147.5630991297759
 30
0.0
 10
99.65213495766223
 20
-147.5630991297759
 30
0.0
 10
100.6519071543781
 20
-147.5630991297759
 30
0.0
 10
100.6519071543781
 20
-147.5630991297759
 30
0.0
 10
100.6519071543781
 20
-147.5630991297759
 30
0.0
 10
100.6519071543781
 20
-147.0635305187895
 30
0.0
 10
100.6519071543781
 20
-147.0635305187895
 30
0.0
 10
100.6519071543781
 20
-147.0635305187895
 30
0.0
 10
101.651679351094
 20
-147.0635305187895
 30
0.0
 10
101.651679351094
 20
-147.0635305187895
 30
0.0
 10
101.651679351094
 20
-147.0635305187895
 30
0.0
 10
101.651679351094
 20
-147.5630991297759
 30
0.0
 10
101.651679351094
 20
-147.5630991297759
 30
0.0
 10
101.651679351094
 20
-147.5630991297759
 30
0.0
 10
102.6521218255706
 20
-147.5630991297759
 30
0.0
 10
102.6521218255706
 20
-147.5630991297759
 30
0.0
 10
102.6521218255706
 20
-147.5630991297759
 30
0.0
 10
102.6521218255706
 20
-147.0635305187895
 30
0.0
 10
102.6521218255706
 20
-147.0635305187895
 30
0.0
 10
102.6521218255706
 20
-147.0635305187895
 30
0.0
 10
103.6518940222865
 20
-147.0635305187895
 30
0.0
 10
103.6518940222865
 20
-147.0635305187895
 30
0.0
 10
103.6518940222865
 20
-147.0635305187895
 30
0.0
 10
103.6518940222865
 20
-147.5630991297759
 30
0.0
 10
103.6518940222865
 20
-147.5630991297759
 30
0.0
 10
103.6518940222865
 20
-147.5630991297759
 30
0.0
 10
104.6516662190025
 20
-147.5630991297759
 30
0.0
 10
104.6516662190025
 20
-147.5630991297759
 30
0.0
 10
104.6516662190025
 20
-147.5630991297759
 30
0.0
 10
104.6516662190025
 20
-147.0635305187895
 30
0.0
 10
104.6516662190025
 20
-147.0635305187895
 30
0.0
 10
104.6516662190025
 20
-147.0635305187895
 30
0.0
 10
105.652108693479
 20
-147.0635305187895
 30
0.0
 10
105.652108693479
 20
-147.0635305187895
 30
0.0
 10
105.652108693479
 20
-147.0635305187895
 30
0.0
 10
105.652108693479
 20
-147.5630991297759
 30
0.0
 10
105.652108693479
 20
-147.5630991297759
 30
0.0
 10
105.652108693479
 20
-147.5630991297759
 30
0.0
 10
106.6518808901949
 20
-147.5630991297759
 30
0.0
 10
106.6518808901949
 20
-147.5630991297759
 30
0.0
 10
106.6518808901949
 20
-147.5630991297759
 30
0.0
 10
106.6518808901949
 20
-148.0633027407621
 30
0.0
 10
106.6518808901949
 20
-148.0633027407621
 30
0.0
 10
106.6518808901949
 20
-148.0633027407621
 30
0.0
 10
110.6516399548193
 20
-148.0633027407621
 30
0.0
 10
110.6516399548193
 20
-148.0633027407621
 30
0.0
 10
110.6516399548193
 20
-146.9588260743712
 30
0.0
 10
109.7566074776534
 20
-146.0637935745952
 30
0.0
 10
108.6520955613874
 20
-146.0637935745952
 30
0.0
 10
92.48633886576705
 20
-146.0637935745952
 30
0.0
 10
79.3128032543396
 20
-133.2748935777922
 30
0.0
 10
78.68168382599634
 20
-117.2634744151287
 30
0.0
 10
78.66580882640135
 20
-116.864870804117
 30
0.0
 10
78.65134493788146
 20
-116.4655969153282
 30
0.0
 10
78.65134493788146
 20
-116.0631833043174
 30
0.0
 10
78.65134493788146
 20
-116.0631833043174
 30
0.0
 10
75.63999862581842
 20
-116.0631833043174
 30
0.0
 10
75.63999862581842
 20
-116.0631833043174
 30
0.0
  0
POLYLINE
  5
6A
330
63
100
AcDbEntity
  8
_U+30EC_U+30A4_U+30E4_U+30FC 1
 62
   179
420
  2234388
370
    25
100
AcDb2dPolyline
 66
     1
 10
0.0
 20
0.0
 30
0.0
  0
VERTEX
  5
6B
330
6A
100
AcDbEntity
  8
_U+30EC_U+30A4_U+30E4_U+30FC 1
 62
   179
420
  2234388
370
    25
100
AcDbVertex
100
AcDb2dVertex
 10
75.63999862581842
 20
-116.0631833043174
 30
0.0
  0
VERTEX
  5
6C
330
6A
100
AcDbEntity
  8
_U+30EC_U+30A4_U+30E4_U+30FC 1
 62
   179
420
  2234388
370
    25
100
AcDbVertex
100
AcDb2dVertex
 10
74.65158587325716
 20
-116.0631833043174
 30
0.0
  0
VERTEX
  5
6D
330
6A
100
AcDbEntity
  8
_U+30EC_U+30A4_U+30E4_U+30FC 1
 62
   179
420
  2234388
370
    25
100
AcDbVertex
100
AcDb2dVertex
 10
74.65158587325716
 20
-113.5716902493847
 30
0.0
  0
VERTEX
  5
6E
330
6A
100
AcDbEntity
  8
_U+30EC_U+30A4_U+30E4_U+30FC 1
 62
   179
420
  2234388
370
    25
100
AcDbVertex
100
AcDb2dVertex
 10
74.14309199734103
 20
-113.0631963606231
 30
0.0
  0
VERTEX
  5
6F
330
6A
100
AcDbEntity
  8
_U+30EC_U+30A4_U+30E4_U+30FC 1
 62
   179
420
  2234388
370
    25
100
AcDbVertex
100
AcDb2dVertex
 10
74.65158587325716
 20
-112.5554080274166
 30
0.0
  0
VERTEX
  5
70
330
6A
100
AcDbEntity
  8
_U+30EC_U+30A4_U+30E4_U+30FC 1
 62
   179
420
  2234388
370
    25
100
AcDbVertex
100
AcDb2dVertex
 10
74.65158587325716
 20
-110.0632094169287
 30
0.0
  0
VERTEX
  5
71
330
6A
100
AcDbEntity
  8
_U+30EC_U+30A4_U+30E4_U+30FC 1
 62
   179
420
  2234388
370
    25
100
AcDbVertex
100
AcDb2dVertex
 10
72.65137120206467
 20
-110.0632094169287
 30
0.0
  0
VERTEX
  5
72
330
6A
100
AcDbEntity
  8
_U+30EC_U+30A4_U+30E4_U+30FC 1
 62
   179
420
  2234388
370
    25
100
AcDbVertex
100
AcDb2dVertex
 10
72.65137120206467
 20
-110.4635416390508
 30
0.0
  0
VERTEX
  5
73
330
6A
100
AcDbEntity
  8
_U+30EC_U+30A4_U+30E4_U+30FC 1
 62
   179
420
  2234388
370
    25
100
AcDbVertex
100
AcDb2dVertex
 10
72.95109119441817
 20
-110.7632616389757
 30
0.0
  0
VERTEX
  5
74
330
6A
100
AcDbEntity
  8
_U+30EC_U+30A4_U+30E4_U+30FC 1
 62
   179
420
  2234388
370
    25
100
AcDbVertex
100
AcDb2dVertex
 10
72.65137120206467
 20
-111.0633344166787
 30
0.0
  0
VERTEX
  5
75
330
6A
100
AcDbEntity
  8
_U+30EC_U+30A4_U+30E4_U+30FC 1
 62
   179
420
  2234388
370
    25
100
AcDbVertex
100
AcDb2dVertex
 10
72.95109119441817
 20
-111.3634071943814
 30
0.0
  0
VERTEX
  5
76
330
6A
100
AcDbEntity
  8
_U+30EC_U+30A4_U+30E4_U+30FC 1
 62
   179
420
  2234388
370
    25
100
AcDbVertex
100
AcDb2dVertex
 10
72.65137120206467
 20
-111.6631271943066
 30
0.0
  0
VERTEX
  5
77
330
6A
100
AcDbEntity
  8
_U+30EC_U+30A4_U+30E4_U+30FC 1
 62
   179
420
  2234388
370
    25
100
AcDbVertex
100
AcDb2dVertex
 10
72.95109119441817
 20
-111.963552749787
 30
0.0
  0
VERTEX
  5
78
330
6A
100
AcDbEntity
  8
_U+30EC_U+30A4_U+30E4_U+30FC 1
 62
   179
420
  2234388
370
    25
100
AcDbVertex
100
AcDb2dVertex
 10
72.65137120206467
 20
-112.2635902497119
 30
0.0
  0
VERTEX
  5
79
330
6A
100
AcDbEntity
  8
_U+30EC_U+30A4_U+30E4_U+30FC 1
 62
   179
420
  2234388
370
    25
100
AcDbVertex
100
AcDb2dVertex
 10
72.95109119441817
 20
-112.5636630274145
 30
0.0
  0
VERTEX
  5
7A
330
6A
100
AcDbEntity
  8
_U+30EC_U+30A4_U+30E4_U+30FC 1
 62
   179
420
  2234388
370
    25
100
AcDbVertex
100
AcDb2dVertex
 10
72.65137120206467
 20
-112.8633830273398
 30
0.0
  0
VERTEX
  5
7B
330
6A
100
AcDbEntity
  8
_U+30EC_U+30A4_U+30E4_U+30FC 1
 62
   179
420
  2234388
370
    25
100
AcDbVertex
100
AcDb2dVertex
 10
72.95109119441817
 20
-113.1631030272647
 30
0.0
  0
VERTEX
  5
7C
330
6A
100
AcDbEntity
  8
_U+30EC_U+30A4_U+30E4_U+30FC 1
 62
   179
420
  2234388
370
    25
100
AcDbVertex
100
AcDb2dVertex
 10
72.65137120206467
 20
-113.4635285827451
 30
0.0
  0
VERTEX
  5
7D
330
6A
100
AcDbEntity
  8
_U+30EC_U+30A4_U+30E4_U+30FC 1
 62
   179
420
  2234388
370
    25
100
AcDbVertex
100
AcDb2dVertex
 10
72.95109119441817
 20
-113.7632485826704
 30
0.0
  0
VERTEX
  5
7E
330
6A
100
AcDbEntity
  8
_U+30EC_U+30A4_U+30E4_U+30FC 1
 62
   179
420
  2234388
370
    25
100
AcDbVertex
100
AcDb2dVertex
 10
72.65137120206467
 20
-114.0636741381508
 30
0.0
  0
VERTEX
  5
7F
330
6A
100
AcDbEntity
  8
_U+30EC_U+30A4_U+30E4_U+30FC 1
 62
   179
420
  2234388
370
    25
100
AcDbVertex
100
AcDb2dVertex
 10
72.95109119441817
 20
-114.3633941380757
 30
0.0
  0
VERTEX
  5
80
330
6A
100
AcDbEntity
  8
_U+30EC_U+30A4_U+30E4_U+30FC 1
 62
   179
420
  2234388
370
    25
100
AcDbVertex
100
AcDb2dVertex
 10
72.65137120206467
 20
-114.6634669157787
 30
0.0
  0
VERTEX
  5
81
330
6A
100
AcDbEntity
  8
_U+30EC_U+30A4_U+30E4_U+30FC 1
 62
   179
420
  2234388
370
    25
100
AcDbVertex
100
AcDb2dVertex
 10
72.95109119441817
 20
-114.9635396934814
 30
0.0
  0
VERTEX
  5
82
330
6A
100
AcDbEntity
  8
_U+30EC_U+30A4_U+30E4_U+30FC 1
 62
   179
420
  2234388
370
    25
100
AcDbVertex
100
AcDb2dVertex
 10
72.65137120206467
 20
-115.2632596934063
 30
0.0
  0
VERTEX
  5
83
330
6A
100
AcDbEntity
  8
_U+30EC_U+30A4_U+30E4_U+30FC 1
 62
   179
420
  2234388
370
    25
100
AcDbVertex
100
AcDb2dVertex
 10
72.95109119441817
 20
-115.5636499711092
 30
0.0
  0
VERTEX
  5
84
330
6A
100
AcDbEntity
  8
_U+30EC_U+30A4_U+30E4_U+30FC 1
 62
   179
420
  2234388
370
    25
100
AcDbVertex
100
AcDb2dVertex
 10
72.65137120206467
 20
-115.8633699710341
 30
0.0
  0
VERTEX
  5
85
330
6A
100
AcDbEntity
  8
_U+30EC_U+30A4_U+30E4_U+30FC 1
 62
   179
420
  2234388
370
    25
100
AcDbVertex
100
AcDb2dVertex
 10
72.95109119441817
 20
-116.1631252487369
 30
0.0
  0
VERTEX
  5
86
330
6A
100
AcDbEntity
  8
_U+30EC_U+30A4_U+30E4_U+30FC 1
 62
   179
420
  2234388
370
    25
100
AcDbVertex
100
AcDb2dVertex
 10
72.65137120206467
 20
-116.4635155264398
 30
0.0
  0
VERTEX
  5
87
330
6A
100
AcDbEntity
  8
_U+30EC_U+30A4_U+30E4_U+30FC 1
 62
   179
420
  2234388
370
    25
100
AcDbVertex
100
AcDb2dVertex
 10
72.95109119441817
 20
-116.7632355263647
 30
0.0
  0
VERTEX
  5
88
330
6A
100
AcDbEntity
  8
_U+30EC_U+30A4_U+30E4_U+30FC 1
 62
   179
420
  2234388
370
    25
100
AcDbVertex
100
AcDb2dVertex
 10
72.65137120206467
 20
-117.0636610818451
 30
0.0
  0
VERTEX
  5
89
330
6A
100
AcDbEntity
  8
_U+30EC_U+30A4_U+30E4_U+30FC 1
 62
   179
420
  2234388
370
    25
100
AcDbVertex
100
AcDb2dVertex
 10
72.95109119441817
 20
-117.3637338595478
 30
0.0
  0
VERTEX
  5
8A
330
6A
100
AcDbEntity
  8
_U+30EC_U+30A4_U+30E4_U+30FC 1
 62
   179
420
  2234388
370
    25
100
AcDbVertex
100
AcDb2dVertex
 10
72.65137120206467
 20
-117.6634538594731
 30
0.0
  0
VERTEX
  5
8B
330
6A
100
AcDbEntity
  8
_U+30EC_U+30A4_U+30E4_U+30FC 1
 62
   179
420
  2234388
370
    25
100
AcDbVertex
100
AcDb2dVertex
 10
72.95109119441817
 20
-117.9635266371757
 30
0.0
  0
VERTEX
  5
8C
330
6A
100
AcDbEntity
  8
_U+30EC_U+30A4_U+30E4_U+30FC 1
 62
   179
420
  2234388
370
    25
100
AcDbVertex
100
AcDb2dVertex
 10
72.65137120206467
 20
-118.263246637101
 30
0.0
  0
VERTEX
  5
8D
330
6A
100
AcDbEntity
  8
_U+30EC_U+30A4_U+30E4_U+30FC 1
 62
   179
420
  2234388
370
    25
100
AcDbVertex
100
AcDb2dVertex
 10
72.95109119441817
 20
-118.5636369148036
 30
0.0
  0
VERTEX
  5
8E
330
6A
100
AcDbEntity
  8
_U+30EC_U+30A4_U+30E4_U+30FC 1
 62
   179
420
  2234388
370
    25
100
AcDbVertex
100
AcDb2dVertex
 10
72.65137120206467
 20
-118.8633569147285
 30
0.0
  0
VERTEX
  5
8F
330
6A
100
AcDbEntity
  8
_U+30EC_U+30A4_U+30E4_U+30FC 1
 62
   179
420
  2234388
370
    25
100
AcDbVertex
100
AcDb2dVertex
 10
72.95109119441817
 20
-119.1631121924315
 30
0.0
  0
VERTEX
  5
90
330
6A
100
AcDbEntity
  8
_U+30EC_U+30A4_U+30E4_U+30FC 1
 62
   179
420
  2234388
370
    25
100
AcDbVertex
100
AcDb2dVertex
 10
72.65137120206467
 20
-119.4635024701341
 30
0.0
  0
VERTEX
  5
91
330
6A
100
AcDbEntity
  8
_U+30EC_U+30A4_U+30E4_U+30FC 1
 62
   179
420
  2234388
370
    25
100
AcDbVertex
100
AcDb2dVertex
 10
72.95109119441817
 20
-119.7632224700594
 30
0.0
  0
VERTEX
  5
92
330
6A
100
AcDbEntity
  8
_U+30EC_U+30A4_U+30E4_U+30FC 1
 62
   179
420
  2234388
370
    25
100
AcDbVertex
100
AcDb2dVertex
 10
72.65137120206467
 20
-120.0636480255398
 30
0.0
  0
VERTEX
  5
93
330
6A
100
AcDbEntity
  8
_U+30EC_U+30A4_U+30E4_U+30FC 1
 62
   179
420
  2234388
370
    25
100
AcDbVertex
100
AcDb2dVertex
 10
72.95109119441817
 20
-120.3633680254647
 30
0.0
  0
VERTEX
  5
94
330
6A
100
AcDbEntity
  8
_U+30EC_U+30A4_U+30E4_U+30FC 1
 62
   179
420
  2234388
370
    25
100
AcDbVertex
100
AcDb2dVertex
 10
72.65137120206467
 20
-120.6637935809452
 30
0.0
  0
VERTEX
  5
95
330
6A
100
AcDbEntity
  8
_U+30EC_U+30A4_U+30E4_U+30FC 1
 62
   179
420
  2234388
370
    25
100
AcDbVertex
100
AcDb2dVertex
 10
72.95109119441817
 20
-120.9635135808704
 30
0.0
  0
VERTEX
  5
96
330
6A
100
AcDbEntity
  8
_U+30EC_U+30A4_U+30E4_U+30FC 1
 62
   179
420
  2234388
370
    25
100
AcDbVertex
100
AcDb2dVertex
 10
72.65137120206467
 20
-121.2632335807953
 30
0.0
  0
VERTEX
  5
97
330
6A
100
AcDbEntity
  8
_U+30EC_U+30A4_U+30E4_U+30FC 1
 62
   179
420
  2234388
370
    25
100
AcDbVertex
100
AcDb2dVertex
 10
72.95109119441817
 20
-121.5636238584979
 30
0.0
  0
VERTEX
  5
98
330
6A
100
AcDbEntity
  8
_U+30EC_U+30A4_U+30E4_U+30FC 1
 62
   179
420
  2234388
370
    25
100
AcDbVertex
100
AcDb2dVertex
 10
72.65137120206467
 20
-121.8630263584232
 30
0.0
  0
VERTEX
  5
99
330
6A
100
AcDbEntity
  8
_U+30EC_U+30A4_U+30E4_U+30FC 1
 62
   179
420
  2234388
370
    25
100
AcDbVertex
100
AcDb2dVertex
 10
72.95109119441817
 20
-122.1630991361259
 30
0.0
  0
VERTEX
  5
9A
330
6A
100
AcDbEntity
  8
_U+30EC_U+30A4_U+30E4_U+30FC 1
 62
   179
420
  2234388
370
    25
100
AcDbVertex
100
AcDb2dVertex
 10
72.65137120206467
 20
-122.4634894138285
 30
0.0
  0
VERTEX
  5
9B
330
6A
100
AcDbEntity
  8
_U+30EC_U+30A4_U+30E4_U+30FC 1
 62
   179
420
  2234388
370
    25
100
AcDbVertex
100
AcDb2dVertex
 10
72.95109119441817
 20
-122.7632094137537
 30
0.0
  0
VERTEX
  5
9C
330
6A
100
AcDbEntity
  8
_U+30EC_U+30A4_U+30E4_U+30FC 1
 62
   179
420
  2234388
370
    25
100
AcDbVertex
100
AcDb2dVertex
 10
72.65137120206467
 20
-123.0636349692341
 30
0.0
  0
VERTEX
  5
9D
330
6A
100
AcDbEntity
  8
_U+30EC_U+30A4_U+30E4_U+30FC 1
 62
   179
420
  2234388
370
    25
100
AcDbVertex
100
AcDb2dVertex
 10
72.95109119441817
 20
-123.3633549691591
 30
0.0
  0
VERTEX
  5
9E
330
6A
100
AcDbEntity
  8
_U+30EC_U+30A4_U+30E4_U+30FC 1
 62
   179
420
  2234388
370
    25
100
AcDbVertex
100
AcDb2dVertex
 10
72.65137120206467
 20
-123.6637805246395
 30
0.0
  0
VERTEX
  5
9F
330
6A
100
AcDbEntity
  8
_U+30EC_U+30A4_U+30E4_U+30FC 1
 62
   179
420
  2234388
370
    25
100
AcDbVertex
100
AcDb2dVertex
 10
72.95109119441817
 20
-123.9638533023425
 30
0.0
  0
VERTEX
  5
A0
330
6A
100
AcDbEntity
  8
_U+30EC_U+30A4_U+30E4_U+30FC 1
 62
   179
420
  2234388
370
    25
100
AcDbVertex
100
AcDb2dVertex
 10
72.65137120206467
 20
-124.2632205244896
 30
0.0
  0
VERTEX
  5
A1
330
6A
100
AcDbEntity
  8
_U+30EC_U+30A4_U+30E4_U+30FC 1
 62
   179
420
  2234388
370
    25
100
AcDbVertex
100
AcDb2dVertex
 10
72.95109119441817
 20
-124.5636460799701
 30
0.0
  0
VERTEX
  5
A2
330
6A
100
AcDbEntity
  8
_U+30EC_U+30A4_U+30E4_U+30FC 1
 62
   179
420
  2234388
370
    25
100
AcDbVertex
100
AcDb2dVertex
 10
72.65137120206467
 20
-124.8633660798953
 30
0.0
  0
VERTEX
  5
A3
330
6A
100
AcDbEntity
  8
_U+30EC_U+30A4_U+30E4_U+30FC 1
 62
   179
420
  2234388
370
    25
100
AcDbVertex
100
AcDb2dVertex
 10
72.95109119441817
 20
-125.1630860798202
 30
0.0
  0
VERTEX
  5
A4
330
6A
100
AcDbEntity
  8
_U+30EC_U+30A4_U+30E4_U+30FC 1
 62
   179
420
  2234388
370
    25
100
AcDbVertex
100
AcDb2dVertex
 10
72.65137120206467
 20
-125.4634763575231
 30
0.0
  0
VERTEX
  5
A5
330
6A
100
AcDbEntity
  8
_U+30EC_U+30A4_U+30E4_U+30FC 1
 62
   179
420
  2234388
370
    25
100
AcDbVertex
100
AcDb2dVertex
 10
72.95109119441817
 20
-125.7631963574481
 30
0.0
  0
VERTEX
  5
A6
330
6A
100
AcDbEntity
  8
_U+30EC_U+30A4_U+30E4_U+30FC 1
 62
   179
420
  2234388
370
    25
100
AcDbVertex
100
AcDb2dVertex
 10
72.65137120206467
 20
-126.0636219129285
 30
0.0
  0
VERTEX
  5
A7
330
6A
100
AcDbEntity
  8
_U+30EC_U+30A4_U+30E4_U+30FC 1
 62
   179
420
  2234388
370
    25
100
AcDbVertex
100
AcDb2dVertex
 10
72.95109119441817
 20
-126.3633419128537
 30
0.0
  0
VERTEX
  5
A8
330
6A
100
AcDbEntity
  8
_U+30EC_U+30A4_U+30E4_U+30FC 1
 62
   179
420
  2234388
370
    25
100
AcDbVertex
100
AcDb2dVertex
 10
72.65137120206467
 20
-126.6637674683342
 30
0.0
  0
VERTEX
  5
A9
330
6A
100
AcDbEntity
  8
_U+30EC_U+30A4_U+30E4_U+30FC 1
 62
   179
420
  2234388
370
    25
100
AcDbVertex
100
AcDb2dVertex
 10
72.95109119441817
 20
-126.9634874682591
 30
0.0
  0
VERTEX
  5
AA
330
6A
100
AcDbEntity
  8
_U+30EC_U+30A4_U+30E4_U+30FC 1
 62
   179
420
  2234388
370
    25
100
AcDbVertex
100
AcDb2dVertex
 10
72.65137120206467
 20
-127.2632074681843
 30
0.0
  0
VERTEX
  5
AB
330
6A
100
AcDbEntity
  8
_U+30EC_U+30A4_U+30E4_U+30FC 1
 62
   179
420
  2234388
370
    25
100
AcDbVertex
100
AcDb2dVertex
 10
72.95109119441817
 20
-127.5636330236647
 30
0.0
  0
VERTEX
  5
AC
330
6A
100
AcDbEntity
  8
_U+30EC_U+30A4_U+30E4_U+30FC 1
 62
   179
420
  2234388
370
    25
100
AcDbVertex
100
AcDb2dVertex
 10
72.65137120206467
 20
-127.8633530235897
 30
0.0
  0
VERTEX
  5
AD
330
6A
100
AcDbEntity
  8
_U+30EC_U+30A4_U+30E4_U+30FC 1
 62
   179
420
  2234388
370
    25
100
AcDbVertex
100
AcDb2dVertex
 10
72.95109119441817
 20
-128.1630730235149
 30
0.0
  0
VERTEX
  5
AE
330
6A
100
AcDbEntity
  8
_U+30EC_U+30A4_U+30E4_U+30FC 1
 62
   179
420
  2234388
370
    25
100
AcDbVertex
100
AcDb2dVertex
 10
72.65137120206467
 20
-128.4631458012176
 30
0.0
  0
VERTEX
  5
AF
330
6A
100
AcDbEntity
  8
_U+30EC_U+30A4_U+30E4_U+30FC 1
 62
   179
420
  2234388
370
    25
100
AcDbVertex
100
AcDb2dVertex
 10
72.95109119441817
 20
-128.7631833011424
 30
0.0
  0
VERTEX
  5
B0
330
6A
100
AcDbEntity
  8
_U+30EC_U+30A4_U+30E4_U+30FC 1
 62
   179
420
  2234388
370
    25
100
AcDbVertex
100
AcDb2dVertex
 10
72.65137120206467
 20
-129.0636088566228
 30
0.0
  0
VERTEX
  5
B1
330
6A
100
AcDbEntity
  8
_U+30EC_U+30A4_U+30E4_U+30FC 1
 62
   179
420
  2234388
370
    25
100
AcDbVertex
100
AcDb2dVertex
 10
72.95109119441817
 20
-129.3633288565478
 30
0.0
  0
VERTEX
  5
B2
330
6A
100
AcDbEntity
  8
_U+30EC_U+30A4_U+30E4_U+30FC 1
 62
   179
420
  2234388
370
    25
100
AcDbVertex
100
AcDb2dVertex
 10
72.65137120206467
 20
-129.6637544120288
 30
0.0
  0
VERTEX
  5
B3
330
6A
100
AcDbEntity
  8
_U+30EC_U+30A4_U+30E4_U+30FC 1
 62
   179
420
  2234388
370
    25
100
AcDbVertex
100
AcDb2dVertex
 10
72.95109119441817
 20
-129.9634744119537
 30
0.0
  0
VERTEX
  5
B4
330
6A
100
AcDbEntity
  8
_U+30EC_U+30A4_U+30E4_U+30FC 1
 62
   179
420
  2234388
370
    25
100
AcDbVertex
100
AcDb2dVertex
 10
72.65137120206467
 20
-130.2631944118787
 30
0.0
  0
VERTEX
  5
B5
330
6A
100
AcDbEntity
  8
_U+30EC_U+30A4_U+30E4_U+30FC 1
 62
   179
420
  2234388
370
    25
100
AcDbVertex
100
AcDb2dVertex
 10
72.95109119441817
 20
-130.5636199673591
 30
0.0
  0
VERTEX
  5
B6
330
6A
100
AcDbEntity
  8
_U+30EC_U+30A4_U+30E4_U+30FC 1
 62
   179
420
  2234388
370
    25
100
AcDbVertex
100
AcDb2dVertex
 10
72.65137120206467
 20
-130.863339967284
 30
0.0
  0
VERTEX
  5
B7
330
6A
100
AcDbEntity
  8
_U+30EC_U+30A4_U+30E4_U+30FC 1
 62
   179
420
  2234388
370
    25
100
AcDbVertex
100
AcDb2dVertex
 10
72.95109119441817
 20
-131.1630599672096
 30
0.0
  0
VERTEX
  5
B8
330
6A
100
AcDbEntity
  8
_U+30EC_U+30A4_U+30E4_U+30FC 1
 62
   179
420
  2234388
370
    25
100
AcDbVertex
100
AcDb2dVertex
 10
72.65137120206467
 20
-131.4631327449122
 30
0.0
  0
VERTEX
  5
B9
330
6A
100
AcDbEntity
  8
_U+30EC_U+30A4_U+30E4_U+30FC 1
 62
   179
420
  2234388
370
    25
100
AcDbVertex
100
AcDb2dVertex
 10
72.95109119441817
 20
-131.7632055226149
 30
0.0
  0
VERTEX
  5
BA
330
6A
100
AcDbEntity
  8
_U+30EC_U+30A4_U+30E4_U+30FC 1
 62
   179
420
  2234388
370
    25
100
AcDbVertex
100
AcDb2dVertex
 10
72.65137120206467
 20
-132.0635958003172
 30
0.0
  0
VERTEX
  5
BB
330
6A
100
AcDbEntity
  8
_U+30EC_U+30A4_U+30E4_U+30FC 1
 62
   179
420
  2234388
370
    25
100
AcDbVertex
100
AcDb2dVertex
 10
72.95109119441817
 20
-132.3633158002427
 30
0.0
  0
VERTEX
  5
BC
330
6A
100
AcDbEntity
  8
_U+30EC_U+30A4_U+30E4_U+30FC 1
 62
   179
420
  2234388
370
    25
100
AcDbVertex
100
AcDb2dVertex
 10
72.65137120206467
 20
-132.6637413557232
 30
0.0
  0
VERTEX
  5
BD
330
6A
100
AcDbEntity
  8
_U+30EC_U+30A4_U+30E4_U+30FC 1
 62
   179
420
  2234388
370
    25
100
AcDbVertex
100
AcDb2dVertex
 10
72.95109119441817
 20
-132.9634613556481
 30
0.0
  0
VERTEX
  5
BE
330
6A
100
AcDbEntity
  8
_U+30EC_U+30A4_U+30E4_U+30FC 1
 62
   179
420
  2234388
370
    25
100
AcDbVertex
100
AcDb2dVertex
 10
72.65137120206467
 20
-133.263181355573
 30
0.0
  0
VERTEX
  5
BF
330
6A
100
AcDbEntity
  8
_U+30EC_U+30A4_U+30E4_U+30FC 1
 62
   179
420
  2234388
370
    25
100
AcDbVertex
100
AcDb2dVertex
 10
72.95109119441817
 20
-133.5632541332757
 30
0.0
  0
VERTEX
  5
C0
330
6A
100
AcDbEntity
  8
_U+30EC_U+30A4_U+30E4_U+30FC 1
 62
   179
420
  2234388
370
    25
100
AcDbVertex
100
AcDb2dVertex
 10
72.65137120206467
 20
-133.8633269109783
 30
0.0
  0
VERTEX
  5
C1
330
6A
100
AcDbEntity
  8
_U+30EC_U+30A4_U+30E4_U+30FC 1
 62
   179
420
  2234388
370
    25
100
AcDbVertex
100
AcDb2dVertex
 10
72.95109119441817
 20
-134.1630469109039
 30
0.0
  0
VERTEX
  5
C2
330
6A
100
AcDbEntity
  8
_U+30EC_U+30A4_U+30E4_U+30FC 1
 62
   179
420
  2234388
370
    25
100
AcDbVertex
100
AcDb2dVertex
 10
72.65137120206467
 20
-134.4631196886066
 30
0.0
  0
VERTEX
  5
C3
330
6A
100
AcDbEntity
  8
_U+30EC_U+30A4_U+30E4_U+30FC 1
 62
   179
420
  2234388
370
    25
100
AcDbVertex
100
AcDb2dVertex
 10
72.95109119441817
 20
-134.7631924663092
 30
0.0
  0
VERTEX
  5
C4
330
6A
100
AcDbEntity
  8
_U+30EC_U+30A4_U+30E4_U+30FC 1
 62
   179
420
  2234388
370
    25
100
AcDbVertex
100
AcDb2dVertex
 10
72.65137120206467
 20
-135.0632299662344
 30
0.0
  0
VERTEX
  5
C5
330
6A
100
AcDbEntity
  8
_U+30EC_U+30A4_U+30E4_U+30FC 1
 62
   179
420
  2234388
370
    25
100
AcDbVertex
100
AcDb2dVertex
 10
72.95109119441817
 20
-135.3633027439371
 30
0.0
  0
VERTEX
  5
C6
330
6A
100
AcDbEntity
  8
_U+30EC_U+30A4_U+30E4_U+30FC 1
 62
   179
420
  2234388
370
    25
100
AcDbVertex
100
AcDb2dVertex
 10
72.65137120206467
 20
-135.663022743862
 30
0.0
  0
VERTEX
  5
C7
330
6A
100
AcDbEntity
  8
_U+30EC_U+30A4_U+30E4_U+30FC 1
 62
   179
420
  2234388
370
    25
100
AcDbVertex
100
AcDb2dVertex
 10
72.65137120206467
 20
-136.0633549659841
 30
0.0
  0
VERTEX
  5
C8
330
6A
100
AcDbEntity
  8
_U+30EC_U+30A4_U+30E4_U+30FC 1
 62
   179
420
  2234388
370
    25
100
AcDbVertex
100
AcDb2dVertex
 10
73.85095672701624
 20
-136.0633549659841
 30
0.0
  0
VERTEX
  5
C9
330
6A
100
AcDbEntity
  8
_U+30EC_U+30A4_U+30E4_U+30FC 1
 62
   179
420
  2234388
370
    25
100
AcDbVertex
100
AcDb2dVertex
 10
73.85095672701624
 20
-119.0632055257899
 30
0.0
  0
VERTEX
  5
CA
330
6A
100
AcDbEntity
  8
_U+30EC_U+30A4_U+30E4_U+30FC 1
 62
   179
420
  2234388
370
    25
100
AcDbVertex
100
AcDb2dVertex
 10
75.05191808526605
 20
-119.0632055257899
 30
0.0
  0
SEQEND
  5
CB
330
6A
100
AcDbEntity
  8
_U+30EC_U+30A4_U+30E4_U+30FC 1
 62
   179
420
  2234388
370
    25
  0
POLYLINE
  5
CC
330
63
100
AcDbEntity
  8
_U+30EC_U+30A4_U+30E4_U+30FC 1
 62
   179
420
  2234388
370
     9
100
AcDb2dPolyline
 66
     1
 10
0.0
 20
0.0
 30
0.0
  0
VERTEX
  5
CD
330
CC
100
AcDbEntity
  8
_U+30EC_U+30A4_U+30E4_U+30FC 1
 62
   179
420
  2234388
370
     9
100
AcDbVertex
100
AcDb2dVertex
 10
110.6516399548193
 20
-153.0635396839564
 30
0.0
  0
VERTEX
  5
CE
330
CC
100
AcDbEntity
  8
_U+30EC_U+30A4_U+30E4_U+30FC 1
 62
   179
420
  2234388
370
     9
100
AcDbVertex
100
AcDb2dVertex
 10
110.6516399548193
 20
-148.5635416295258
 30
0.0
  0
SEQEND
  5
CF
330
CC
100
AcDbEntity
  8
_U+30EC_U+30A4_U+30E4_U+30FC 1
 62
   179
420
  2234388
370
     9
  0
POLYLINE
  5
D0
330
63
100
AcDbEntity
  8
_U+30EC_U+30A4_U+30E4_U+30FC 1
 62
   179
420
  2234388
370
     9
100
AcDb2dPolyline
 66
     1
 10
0.0
 20
0.0
 30
0.0
  0
VERTEX
  5
D1
330
D0
100
AcDbEntity
  8
_U+30EC_U+30A4_U+30E4_U+30FC 1
 62
   179
420
  2234388
370
     9
100
AcDbVertex
100
AcDb2dVertex
 10
92.65171874736885
 20
-148.5635416295258
 30
0.0
  0
VERTEX
  5
D2
330
D0
100
AcDbEntity
  8
_U+30EC_U+30A4_U+30E4_U+30FC 1
 62
   179
420
  2234388
370
     9
100
AcDbVertex
100
AcDb2dVertex
 10
92.65171874736885
 20
-153.0635396839564
 30
0.0
  0
SEQEND
  5
D3
330
D0
100
AcDbEntity
  8
_U+30EC_U+30A4_U+30E4_U+30FC 1
 62
   179
420
  2234388
370
     9
  0
POLYLINE
  5
D4
330
63
100
AcDbEntity
  8
_U+30EC_U+30A4_U+30E4_U+30FC 1
 62
   179
420
  2234388
370
     9
100
AcDb2dPolyline
 66
     1
 10
0.0
 20
0.0
 30
0.0
  0
VERTEX
  5
D5
330
D4
100
AcDbEntity
  8
_U+30EC_U+30A4_U+30E4_U+30FC 1
 62
   179
420
  2234388
370
     9
100
AcDbVertex
100
AcDb2dVertex
 10
110.6516399548193
 20
-151.5635285732201
 30
0.0
  0
VERTEX
  5
D6
330
D4
100
AcDbEntity
  8
_U+30EC_U+30A4_U+30E4_U+30FC 1
 62
   179
420
  2234388
370
     9
100
AcDbVertex
100
AcDb2dVertex
 10
92.65171874736885
 20
-151.5635285732201
 30
0.0
  0
SEQEND
  5
D7
330
D4
100
AcDbEntity
  8
_U+30EC_U+30A4_U+30E4_U+30FC 1
 62
   179
420
  2234388
370
     9
  0
POLYLINE
  5
D8
330
63
100
AcDbEntity
  8
_U+30EC_U+30A4_U+30E4_U+30FC 1
 62
   179
420
  2234388
370
     9
100
AcDb2dPolyline
 66
     1
 10
0.0
 20
0.0
 30
0.0
  0
VERTEX
  5
D9
330
D8
100
AcDbEntity
  8
_U+30EC_U+30A4_U+30E4_U+30FC 1
 62
   179
420
  2234388
370
     9
100
AcDbVertex
100
AcDb2dVertex
 10
67.15163634237459
 20
-136.0633549659841
 30
0.0
  0
VERTEX
  5
DA
330
D8
100
AcDbEntity
  8
_U+30EC_U+30A4_U+30E4_U+30FC 1
 62
   179
420
  2234388
370
     9
100
AcDbVertex
100
AcDb2dVertex
 10
71.65159900534876
 20
-136.0633549659841
 30
0.0
  0
SEQEND
  5
DB
330
D8
100
AcDbEntity
  8
_U+30EC_U+30A4_U+30E4_U+30FC 1
 62
   179
420
  2234388
370
     9
  0
POLYLINE
  5
DC
330
63
100
AcDbEntity
  8
_U+30EC_U+30A4_U+30E4_U+30FC 1
 62
   179
420
  2234388
370
     9
100
AcDb2dPolyline
 66
     1
 10
0.0
 20
0.0
 30
0.0
  0
VERTEX
  5
DD
330
DC
100
AcDbEntity
  8
_U+30EC_U+30A4_U+30E4_U+30FC 1
 62
   179
420
  2234388
370
     9
100
AcDbVertex
100
AcDb2dVertex
 10
71.65159900534876
 20
-110.0632094169287
 30
0.0
  0
VERTEX
  5
DE
330
DC
100
AcDbEntity
  8
_U+30EC_U+30A4_U+30E4_U+30FC 1
 62
   179
420
  2234388
370
     9
100
AcDbVertex
100
AcDb2dVertex
 10
67.15163634237459
 20
-110.0632094169287
 30
0.0
  0
SEQEND
  5
DF
330
DC
100
AcDbEntity
  8
_U+30EC_U+30A4_U+30E4_U+30FC 1
 62
   179
420
  2234388
370
     9
  0
POLYLINE
  5
E0
330
63
100
AcDbEntity
  8
_U+30EC_U+30A4_U+30E4_U+30FC 1
 62
   179
420
  2234388
370
     9
100
AcDb2dPolyline
 66
     1
 10
0.0
 20
0.0
 30
0.0
  0
VERTEX
  5
E1
330
E0
100
AcDbEntity
  8
_U+30EC_U+30A4_U+30E4_U+30FC 1
 62
   179
420
  2234388
370
     9
100
AcDbVertex
100
AcDb2dVertex
 10
68.65161387172601
 20
-136.0633549659841
 30
0.0
  0
VERTEX
  5
E2
330
E0
100
AcDbEntity
  8
_U+30EC_U+30A4_U+30E4_U+30FC 1
 62
   179
420
  2234388
370
     9
100
AcDbVertex
100
AcDb2dVertex
 10
68.65161387172601
 20
-110.0632094169287
 30
0.0
  0
SEQEND
  5
E3
330
E0
100
AcDbEntity
  8
_U+30EC_U+30A4_U+30E4_U+30FC 1
 62
   179
420
  2234388
370
     9
  0
SPLINE
  5
E4
330
63
100
AcDbEntity
  8
_U+30EC_U+30A4_U+30E4_U+30FC 1
370
     0
100
AcDbSpline
210
0.0
220
0.0
230
1.0
 70
    11
 71
     3
 72
    17
 73
    13
 74
     0
 42
0.0000000001
 43
0.0000000001
 12
1.0
 22
0.0
 32
0.0
 13
1.0
 23
0.0
 33
0.0
 40
0.0
 40
0.0
 40
0.0
 40
0.0
 40
1.0
 40
1.0
 40
1.0
 40
2.0
 40
2.0
 40
2.0
 40
3.0
 40
3.0
 40
3.0
 40
4.0
 40
4.0
 40
4.0
 40
4.0
 10
68.6605726927673
 20
-109.9261199725185
 30
0.0
 10
68.74326380176879
 20
-109.9261199725185
 30
0.0
 10
68.81060907782845
 20
-109.9929360836129
 30
0.0
 10
68.81060907782845
 20
-110.0762974724808
 30
0.0
 10
68.81060907782845
 20
-110.1589885835714
 30
0.0
 10
68.74326380176879
 20
-110.2258399724437
 30
0.0
 10
68.6605726927673
 20
-110.2258399724437
 30
0.0
 10
68.57788331618895
 20
-110.2258399724437
 30
0.0
 10
68.51053630770616
 20
-110.1589885835714
 30
0.0
 10
68.51053630770616
 20
-110.0762974724808
 30
0.0
 10
68.51053630770616
 20
-109.9929360836129
 30
0.0
 10
68.57788331618895
 20
-109.9261199725185
 30
0.0
 10
68.6605726927673
 20
-109.9261199725185
 30
0.0
  0
HATCH
  5
E5
330
63
100
AcDbEntity
  8
_U+30EC_U+30A4_U+30E4_U+30FC 1
 62
   179
420
  2234388
100
AcDbHatch
 10
0.0
 20
0.0
 30
0.0
210
0.0
220
0.0
230
1.0
  2
SOLID
 70
     1
 71
     0
 91
        1
 92
        1
 93
        2
 72
     4
 94
        3
 73
     0
 74
     0
 95
       17
 96
       13
 40
0.0
 40
0.0
 40
0.0
 40
0.0
 40
0.3527777776895833
 40
0.3527777776895833
 40
0.3527777776895833
 40
0.7055555553791667
 40
0.7055555553791667
 40
0.7055555553791667
 40
1.05833333306875
 40
1.05833333306875
 40
1.05833333306875
 40
1.411111110758333
 40
1.411111110758333
 40
1.411111110758333
 40
1.411111110758333
 10
68.6605726927673
 20
-109.9261199725185
 10
68.74326380176879
 20
-109.9261199725185
 10
68.81060907782845
 20
-109.9929360836129
 10
68.81060907782845
 20
-110.0762974724808
 10
68.81060907782845
 20
-110.1589885835714
 10
68.74326380176879
 20
-110.2258399724437
 10
68.6605726927673
 20
-110.2258399724437
 10
68.57788331618895
 20
-110.2258399724437
 10
68.51053630770616
 20
-110.1589885835714
 10
68.51053630770616
 20
-110.0762974724808
 10
68.51053630770616
 20
-109.9929360836129
 10
68.57788331618895
 20
-109.9261199725185
 10
68.6605726927673
 20
-109.9261199725185
 97
        0
 72
     1
 10
68.6605726927673
 20
-109.9261199725185
 11
68.6605726927673
 21
-109.9261199725185
 97
        0
 75
     2
 76
     1
 98
        0
  0
SPLINE
  5
E6
330
63
100
AcDbEntity
  8
_U+30EC_U+30A4_U+30E4_U+30FC 1
370
     0
100
AcDbSpline
210
0.0
220
0.0
230
1.0
 70
    11
 71
     3
 72
    17
 73
    13
 74
     0
 42
0.0000000001
 43
0.0000000001
 12
1.0
 22
0.0
 32
0.0
 13
1.0
 23
0.0
 33
0.0
 40
0.0
 40
0.0
 40
0.0
 40
0.0
 40
1.0
 40
1.0
 40
1.0
 40
2.0
 40
2.0
 40
2.0
 40
3.0
 40
3.0
 40
3.0
 40
4.0
 40
4.0
 40
4.0
 40
4.0
 10
68.6605726927673
 20
-135.9262302437963
 30
0.0
 10
68.74326380176879
 20
-135.9262302437963
 30
0.0
 10
68.81060907782845
 20
-135.9930816326686
 30
0.0
 10
68.81060907782845
 20
-136.0764430215362
 30
0.0
 10
68.81060907782845
 20
-136.1591341326271
 30
0.0
 10
68.74326380176879
 20
-136.2259502437212
 30
0.0
 10
68.6605726927673
 20
-136.2259502437212
 30
0.0
 10
68.57788331618895
 20
-136.2259502437212
 30
0.0
 10
68.51053630770616
 20
-136.1591341326271
 30
0.0
 10
68.51053630770616
 20
-136.0764430215362
 30
0.0
 10
68.51053630770616
 20
-135.9930816326686
 30
0.0
 10
68.57788331618895
 20
-135.9262302437963
 30
0.0
 10
68.6605726927673
 20
-135.9262302437963
 30
0.0
  0
HATCH
  5
E7
330
63
100
AcDbEntity
  8
_U+30EC_U+30A4_U+30E4_U+30FC 1
 62
   179
420
  2234388
100
AcDbHatch
 10
0.0
 20
0.0
 30
0.0
210
0.0
220
0.0
230
1.0
  2
SOLID
 70
     1
 71
     0
 91
        1
 92
        1
 93
        2
 72
     4
 94
        3
 73
     0
 74
     0
 95
       17
 96
       13
 40
0.0
 40
0.0
 40
0.0
 40
0.0
 40
0.3527777776895833
 40
0.3527777776895833
 40
0.3527777776895833
 40
0.7055555553791667
 40
0.7055555553791667
 40
0.7055555553791667
 40
1.05833333306875
 40
1.05833333306875
 40
1.05833333306875
 40
1.411111110758333
 40
1.411111110758333
 40
1.411111110758333
 40
1.411111110758333
 10
68.6605726927673
 20
-135.9262302437963
 10
68.74326380176879
 20
-135.9262302437963
 10
68.81060907782845
 20
-135.9930816326686
 10
68.81060907782845
 20
-136.0764430215362
 10
68.81060907782845
 20
-136.1591341326271
 10
68.74326380176879
 20
-136.2259502437212
 10
68.6605726927673
 20
-136.2259502437212
 10
68.57788331618895
 20
-136.2259502437212
 10
68.51053630770616
 20
-136.1591341326271
 10
68.51053630770616
 20
-136.0764430215362
 10
68.51053630770616
 20
-135.9930816326686
 10
68.57788331618895
 20
-135.9262302437963
 10
68.6605726927673
 20
-135.9262302437963
 97
        0
 72
     1
 10
68.6605726927673
 20
-135.9262302437963
 11
68.6605726927673
 21
-135.9262302437963
 97
        0
 75
     2
 76
     1
 98
        0
  0
SPLINE
  5
E8
330
63
100
AcDbEntity
  8
_U+30EC_U+30A4_U+30E4_U+30FC 1
370
     0
100
AcDbSpline
210
0.0
220
0.0
230
1.0
 70
    11
 71
     3
 72
    17
 73
    13
 74
     0
 42
0.0000000001
 43
0.0000000001
 12
1.0
 22
0.0
 32
0.0
 13
1.0
 23
0.0
 33
0.0
 40
0.0
 40
0.0
 40
0.0
 40
0.0
 40
1.0
 40
1.0
 40
1.0
 40
2.0
 40
2.0
 40
2.0
 40
3.0
 40
3.0
 40
3.0
 40
4.0
 40
4.0
 40
4.0
 40
4.0
 10
82.40976873088498
 20
-109.9133494169663
 30
0.0
 10
82.49298900653963
 20
-109.9133494169663
 30
0.0
 10
82.5599815048305
 20
-109.980553583616
 30
0.0
 10
82.5599815048305
 20
-110.0632094169287
 30
0.0
 10
82.5599815048305
 20
-110.1459005280189
 30
0.0
 10
82.49298900653963
 20
-110.2130694168912
 30
0.0
 10
82.40976873088498
 20
-110.2130694168912
 30
0.0
 10
82.32693651077598
 20
-110.2130694168912
 30
0.0
 10
82.25990873470822
 20
-110.1459005280189
 30
0.0
 10
82.25990873470822
 20
-110.0632094169287
 30
0.0
 10
82.25990873470822
 20
-109.980553583616
 30
0.0
 10
82.32693651077598
 20
-109.9133494169663
 30
0.0
 10
82.40976873088498
 20
-109.9133494169663
 30
0.0
  0
HATCH
  5
E9
330
63
100
AcDbEntity
  8
_U+30EC_U+30A4_U+30E4_U+30FC 1
 62
   179
420
  2234388
100
AcDbHatch
 10
0.0
 20
0.0
 30
0.0
210
0.0
220
0.0
230
1.0
  2
SOLID
 70
     1
 71
     0
 91
        1
 92
        1
 93
        2
 72
     4
 94
        3
 73
     0
 74
     0
 95
       17
 96
       13
 40
0.0
 40
0.0
 40
0.0
 40
0.0
 40
0.3527777776895833
 40
0.3527777776895833
 40
0.3527777776895833
 40
0.7055555553791667
 40
0.7055555553791667
 40
0.7055555553791667
 40
1.05833333306875
 40
1.05833333306875
 40
1.05833333306875
 40
1.411111110758333
 40
1.411111110758333
 40
1.411111110758333
 40
1.411111110758333
 10
82.40976873088498
 20
-109.9133494169663
 10
82.49298900653963
 20
-109.9133494169663
 10
82.5599815048305
 20
-109.980553583616
 10
82.5599815048305
 20
-110.0632094169287
 10
82.5599815048305
 20
-110.1459005280189
 10
82.49298900653963
 20
-110.2130694168912
 10
82.40976873088498
 20
-110.2130694168912
 10
82.32693651077598
 20
-110.2130694168912
 10
82.25990873470822
 20
-110.1459005280189
 10
82.25990873470822
 20
-110.0632094169287
 10
82.25990873470822
 20
-109.980553583616
 10
82.32693651077598
 20
-109.9133494169663
 10
82.40976873088498
 20
-109.9133494169663
 97
        0
 72
     1
 10
82.40976873088498
 20
-109.9133494169663
 11
82.40976873088498
 21
-109.9133494169663
 97
        0
 75
     2
 76
     1
 98
        0
  0
SPLINE
  5
EA
330
63
100
AcDbEntity
  8
_U+30EC_U+30A4_U+30E4_U+30FC 1
370
     0
100
AcDbSpline
210
0.0
220
0.0
230
1.0
 70
    11
 71
     3
 72
    17
 73
    13
 74
     0
 42
0.0000000001
 43
0.0000000001
 12
1.0
 22
0.0
 32
0.0
 13
1.0
 23
0.0
 33
0.0
 40
0.0
 40
0.0
 40
0.0
 40
0.0
 40
1.0
 40
1.0
 40
1.0
 40
2.0
 40
2.0
 40
2.0
 40
3.0
 40
3.0
 40
3.0
 40
4.0
 40
4.0
 40
4.0
 40
4.0
 10
82.40976873088498
 20
-115.9133233043549
 30
0.0
 10
82.49298900653963
 20
-115.9133233043549
 30
0.0
 10
82.5599815048305
 20
-115.980527471005
 30
0.0
 10
82.5599815048305
 20
-116.0631833043174
 30
0.0
 10
82.5599815048305
 20
-116.1462271931857
 30
0.0
 10
82.49298900653963
 20
-116.2130785820577
 30
0.0
 10
82.40976873088498
 20
-116.2130785820577
 30
0.0
 10
82.32693651077598
 20
-116.2130785820577
 30
0.0
 10
82.25990873470822
 20
-116.1462271931857
 30
0.0
 10
82.25990873470822
 20
-116.0631833043174
 30
0.0
 10
82.25990873470822
 20
-115.980527471005
 30
0.0
 10
82.32693651077598
 20
-115.9133233043549
 30
0.0
 10
82.40976873088498
 20
-115.9133233043549
 30
0.0
  0
HATCH
  5
EB
330
63
100
AcDbEntity
  8
_U+30EC_U+30A4_U+30E4_U+30FC 1
 62
   179
420
  2234388
100
AcDbHatch
 10
0.0
 20
0.0
 30
0.0
210
0.0
220
0.0
230
1.0
  2
SOLID
 70
     1
 71
     0
 91
        1
 92
        1
 93
        2
 72
     4
 94
        3
 73
     0
 74
     0
 95
       17
 96
       13
 40
0.0
 40
0.0
 40
0.0
 40
0.0
 40
0.3527777776895833
 40
0.3527777776895833
 40
0.3527777776895833
 40
0.7055555553791667
 40
0.7055555553791667
 40
0.7055555553791667
 40
1.05833333306875
 40
1.05833333306875
 40
1.05833333306875
 40
1.411111110758333
 40
1.411111110758333
 40
1.411111110758333
 40
1.411111110758333
 10
82.40976873088498
 20
-115.9133233043549
 10
82.49298900653963
 20
-115.9133233043549
 10
82.5599815048305
 20
-115.980527471005
 10
82.5599815048305
 20
-116.0631833043174
 10
82.5599815048305
 20
-116.1462271931857
 10
82.49298900653963
 20
-116.2130785820577
 10
82.40976873088498
 20
-116.2130785820577
 10
82.32693651077598
 20
-116.2130785820577
 10
82.25990873470822
 20
-116.1462271931857
 10
82.25990873470822
 20
-116.0631833043174
 10
82.25990873470822
 20
-115.980527471005
 10
82.32693651077598
 20
-115.9133233043549
 10
82.40976873088498
 20
-115.9133233043549
 97
        0
 72
     1
 10
82.40976873088498
 20
-115.9133233043549
 11
82.40976873088498
 21
-115.9133233043549
 97
        0
 75
     2
 76
     1
 98
        0
  0
SPLINE
  5
EC
330
63
100
AcDbEntity
  8
_U+30EC_U+30A4_U+30E4_U+30FC 1
370
     0
100
AcDbSpline
210
0.0
220
0.0
230
1.0
 70
    11
 71
     3
 72
    17
 73
    13
 74
     0
 42
0.0000000001
 43
0.0000000001
 12
1.0
 22
0.0
 32
0.0
 13
1.0
 23
0.0
 33
0.0
 40
0.0
 40
0.0
 40
0.0
 40
0.0
 40
1.0
 40
1.0
 40
1.0
 40
2.0
 40
2.0
 40
2.0
 40
3.0
 40
3.0
 40
3.0
 40
4.0
 40
4.0
 40
4.0
 40
4.0
 10
110.6516399548193
 20
-151.413668573258
 30
0.0
 10
110.7343310638207
 20
-151.413668573258
 30
0.0
 10
110.8018555278554
 20
-151.4808374621299
 30
0.0
 10
110.8018555278554
 20
-151.5635285732201
 30
0.0
 10
110.8018555278554
 20
-151.646219684311
 30
0.0
 10
110.7343310638207
 20
-151.7133885731829
 30
0.0
 10
110.6516399548193
 20
-151.7133885731829
 30
0.0
 10
110.5682785680571
 20
-151.7133885731829
 30
0.0
 10
110.5021327364113
 20
-151.646219684311
 30
0.0
 10
110.5021327364113
 20
-151.5635285732201
 30
0.0
 10
110.5021327364113
 20
-151.4808374621299
 30
0.0
 10
110.5682785680571
 20
-151.413668573258
 30
0.0
 10
110.6516399548193
 20
-151.413668573258
 30
0.0
  0
HATCH
  5
ED
330
63
100
AcDbEntity
  8
_U+30EC_U+30A4_U+30E4_U+30FC 1
 62
   179
420
  2234388
100
AcDbHatch
 10
0.0
 20
0.0
 30
0.0
210
0.0
220
0.0
230
1.0
  2
SOLID
 70
     1
 71
     0
 91
        1
 92
        1
 93
        2
 72
     4
 94
        3
 73
     0
 74
     0
 95
       17
 96
       13
 40
0.0
 40
0.0
 40
0.0
 40
0.0
 40
0.3527777776895833
 40
0.3527777776895833
 40
0.3527777776895833
 40
0.7055555553791667
 40
0.7055555553791667
 40
0.7055555553791667
 40
1.05833333306875
 40
1.05833333306875
 40
1.05833333306875
 40
1.411111110758333
 40
1.411111110758333
 40
1.411111110758333
 40
1.411111110758333
 10
110.6516399548193
 20
-151.413668573258
 10
110.7343310638207
 20
-151.413668573258
 10
110.8018555278554
 20
-151.4808374621299
 10
110.8018555278554
 20
-151.5635285732201
 10
110.8018555278554
 20
-151.646219684311
 10
110.7343310638207
 20
-151.7133885731829
 10
110.6516399548193
 20
-151.7133885731829
 10
110.5682785680571
 20
-151.7133885731829
 10
110.5021327364113
 20
-151.646219684311
 10
110.5021327364113
 20
-151.5635285732201
 10
110.5021327364113
 20
-151.4808374621299
 10
110.5682785680571
 20
-151.413668573258
 10
110.6516399548193
 20
-151.413668573258
 97
        0
 72
     1
 10
110.6516399548193
 20
-151.413668573258
 11
110.6516399548193
 21
-151.413668573258
 97
        0
 75
     2
 76
     1
 98
        0
  0
SPLINE
  5
EE
330
63
100
AcDbEntity
  8
_U+30EC_U+30A4_U+30E4_U+30FC 1
370
     0
100
AcDbSpline
210
0.0
220
0.0
230
1.0
 70
    11
 71
     3
 72
    17
 73
    13
 74
     0
 42
0.0000000001
 43
0.0000000001
 12
1.0
 22
0.0
 32
0.0
 13
1.0
 23
0.0
 33
0.0
 40
0.0
 40
0.0
 40
0.0
 40
0.0
 40
1.0
 40
1.0
 40
1.0
 40
2.0
 40
2.0
 40
2.0
 40
3.0
 40
3.0
 40
3.0
 40
4.0
 40
4.0
 40
4.0
 40
4.0
 10
92.65171874736885
 20
-151.413668573258
 30
0.0
 10
92.73437457859345
 20
-151.413668573258
 30
0.0
 10
92.8018962435375
 20
-151.4808374621299
 30
0.0
 10
92.8018962435375
 20
-151.5635285732201
 30
0.0
 10
92.8018962435375
 20
-151.646219684311
 30
0.0
 10
92.73437457859345
 20
-151.7133885731829
 30
0.0
 10
92.65171874736885
 20
-151.7133885731829
 30
0.0
 10
92.56902763836736
 20
-151.7133885731829
 30
0.0
 10
92.50217625118398
 20
-151.646219684311
 30
0.0
 10
92.50217625118398
 20
-151.5635285732201
 30
0.0
 10
92.50217625118398
 20
-151.4808374621299
 30
0.0
 10
92.56902763836736
 20
-151.413668573258
 30
0.0
 10
92.65171874736885
 20
-151.413668573258
 30
0.0
  0
HATCH
  5
EF
330
63
100
AcDbEntity
  8
_U+30EC_U+30A4_U+30E4_U+30FC 1
 62
   179
420
  2234388
100
AcDbHatch
 10
0.0
 20
0.0
 30
0.0
210
0.0
220
0.0
230
1.0
  2
SOLID
 70
     1
 71
     0
 91
        1
 92
        1
 93
        2
 72
     4
 94
        3
 73
     0
 74
     0
 95
       17
 96
       13
 40
0.0
 40
0.0
 40
0.0
 40
0.0
 40
0.3527777776895833
 40
0.3527777776895833
 40
0.3527777776895833
 40
0.7055555553791667
 40
0.7055555553791667
 40
0.7055555553791667
 40
1.05833333306875
 40
1.05833333306875
 40
1.05833333306875
 40
1.411111110758333
 40
1.411111110758333
 40
1.411111110758333
 40
1.411111110758333
 10
92.65171874736885
 20
-151.413668573258
 10
92.73437457859345
 20
-151.413668573258
 10
92.8018962435375
 20
-151.4808374621299
 10
92.8018962435375
 20
-151.5635285732201
 10
92.8018962435375
 20
-151.646219684311
 10
92.73437457859345
 20
-151.7133885731829
 10
92.65171874736885
 20
-151.7133885731829
 10
92.56902763836736
 20
-151.7133885731829
 10
92.50217625118398
 20
-151.646219684311
 10
92.50217625118398
 20
-151.5635285732201
 10
92.50217625118398
 20
-151.4808374621299
 10
92.56902763836736
 20
-151.413668573258
 10
92.65171874736885
 20
-151.413668573258
 97
        0
 72
     1
 10
92.65171874736885
 20
-151.413668573258
 11
92.65171874736885
 21
-151.413668573258
 97
        0
 75
     2
 76
     1
 98
        0
  0
POLYLINE
  5
F0
330
63
100
AcDbEntity
  8
_U+30EC_U+30A4_U+30E4_U+30FC 1
 62
   179
420
  2234388
370
     9
100
AcDb2dPolyline
 66
     1
 10
0.0
 20
0.0
 30
0.0
  0
VERTEX
  5
F1
330
F0
100
AcDbEntity
  8
_U+30EC_U+30A4_U+30E4_U+30FC 1
 62
   179
420
  2234388
370
     9
100
AcDbVertex
100
AcDb2dVertex
 10
75.65135806997306
 20
-110.0632094169287
 30
0.0
  0
VERTEX
  5
F2
330
F0
100
AcDbEntity
  8
_U+30EC_U+30A4_U+30E4_U+30FC 1
 62
   179
420
  2234388
370
     9
100
AcDbVertex
100
AcDb2dVertex
 10
83.91031109013346
 20
-110.0632094169287
 30
0.0
  0
SEQEND
  5
F3
330
F0
100
AcDbEntity
  8
_U+30EC_U+30A4_U+30E4_U+30FC 1
 62
   179
420
  2234388
370
     9
  0
POLYLINE
  5
F4
330
63
100
AcDbEntity
  8
_U+30EC_U+30A4_U+30E4_U+30FC 1
 62
   179
420
  2234388
370
     9
100
AcDb2dPolyline
 66
     1
 10
0.0
 20
0.0
 30
0.0
  0
VERTEX
  5
F5
330
F4
100
AcDbEntity
  8
_U+30EC_U+30A4_U+30E4_U+30FC 1
 62
   179
420
  2234388
370
     9
100
AcDbVertex
100
AcDb2dVertex
 10
79.65146991236615
 20
-116.0631833043174
 30
0.0
  0
VERTEX
  5
F6
330
F4
100
AcDbEntity
  8
_U+30EC_U+30A4_U+30E4_U+30FC 1
 62
   179
420
  2234388
370
     9
100
AcDbVertex
100
AcDb2dVertex
 10
116.1520833042953
 20
-116.0631833043174
 30
0.0
  0
SEQEND
  5
F7
330
F4
100
AcDbEntity
  8
_U+30EC_U+30A4_U+30E4_U+30FC 1
 62
   179
420
  2234388
370
     9
  0
POLYLINE
  5
F8
330
63
100
AcDbEntity
  8
_U+30EC_U+30A4_U+30E4_U+30FC 1
 62
   179
420
  2234388
370
     9
100
AcDb2dPolyline
 66
     1
 10
0.0
 20
0.0
 30
0.0
  0
VERTEX
  5
F9
330
F8
100
AcDbEntity
  8
_U+30EC_U+30A4_U+30E4_U+30FC 1
 62
   179
420
  2234388
370
     9
100
AcDbVertex
100
AcDb2dVertex
 10
82.40962761977747
 20
-110.0632094169287
 30
0.0
  0
VERTEX
  5
FA
330
F8
100
AcDbEntity
  8
_U+30EC_U+30A4_U+30E4_U+30FC 1
 62
   179
420
  2234388
370
     9
100
AcDbVertex
100
AcDb2dVertex
 10
82.40962761977747
 20
-116.0631833043174
 30
0.0
  0
SEQEND
  5
FB
330
F8
100
AcDbEntity
  8
_U+30EC_U+30A4_U+30E4_U+30FC 1
 62
   179
420
  2234388
370
     9
  0
SPLINE
  5
FC
330
63
100
AcDbEntity
  8
_U+30EC_U+30A4_U+30E4_U+30FC 1
370
     0
100
AcDbSpline
210
0.0
220
0.0
230
1.0
 70
    11
 71
     3
 72
    17
 73
    13
 74
     0
 42
0.0000000001
 43
0.0000000001
 12
1.0
 22
0.0
 32
0.0
 13
1.0
 23
0.0
 33
0.0
 40
0.0
 40
0.0
 40
0.0
 40
0.0
 40
1.0
 40
1.0
 40
1.0
 40
2.0
 40
2.0
 40
2.0
 40
3.0
 40
3.0
 40
3.0
 40
4.0
 40
4.0
 40
4.0
 40
4.0
 10
72.65137120206467
 20
-105.9135902512994
 30
0.0
 10
72.73406231106614
 20
-105.9135902512994
 30
0.0
 10
72.80140758712581
 20
-105.9807944179491
 30
0.0
 10
72.80140758712581
 20
-106.0634502512618
 30
0.0
 10
72.80140758712581
 20
-106.1464941401301
 30
0.0
 10
72.73406231106614
 20
-106.213663029002
 30
0.0
 10
72.65137120206467
 20
-106.213663029002
 30
0.0
 10
72.56836259307127
 20
-106.213663029002
 30
0.0
 10
72.50133481700352
 20
-106.1464941401301
 30
0.0
 10
72.50133481700352
 20
-106.0634502512618
 30
0.0
 10
72.50133481700352
 20
-105.9807944179491
 30
0.0
 10
72.56836259307127
 20
-105.9135902512994
 30
0.0
 10
72.65137120206467
 20
-105.9135902512994
 30
0.0
  0
HATCH
  5
FD
330
63
100
AcDbEntity
  8
_U+30EC_U+30A4_U+30E4_U+30FC 1
 62
   179
420
  2234388
100
AcDbHatch
 10
0.0
 20
0.0
 30
0.0
210
0.0
220
0.0
230
1.0
  2
SOLID
 70
     1
 71
     0
 91
        1
 92
        1
 93
        2
 72
     4
 94
        3
 73
     0
 74
     0
 95
       17
 96
       13
 40
0.0
 40
0.0
 40
0.0
 40
0.0
 40
0.3527777776895833
 40
0.3527777776895833
 40
0.3527777776895833
 40
0.7055555553791667
 40
0.7055555553791667
 40
0.7055555553791667
 40
1.05833333306875
 40
1.05833333306875
 40
1.05833333306875
 40
1.411111110758333
 40
1.411111110758333
 40
1.411111110758333
 40
1.411111110758333
 10
72.65137120206467
 20
-105.9135902512994
 10
72.73406231106614
 20
-105.9135902512994
 10
72.80140758712581
 20
-105.9807944179491
 10
72.80140758712581
 20
-106.0634502512618
 10
72.80140758712581
 20
-106.1464941401301
 10
72.73406231106614
 20
-106.213663029002
 10
72.65137120206467
 20
-106.213663029002
 10
72.56836259307127
 20
-106.213663029002
 10
72.50133481700352
 20
-106.1464941401301
 10
72.50133481700352
 20
-106.0634502512618
 10
72.50133481700352
 20
-105.9807944179491
 10
72.56836259307127
 20
-105.9135902512994
 10
72.65137120206467
 20
-105.9135902512994
 97
        0
 72
     1
 10
72.65137120206467
 20
-105.9135902512994
 11
72.65137120206467
 21
-105.9135902512994
 97
        0
 75
     2
 76
     1
 98
        0
  0
POLYLINE
  5
FE
330
63
100
AcDbEntity
  8
_U+30EC_U+30A4_U+30E4_U+30FC 1
 62
   179
420
  2234388
370
     9
100
AcDb2dPolyline
 66
     1
 10
0.0
 20
0.0
 30
0.0
  0
VERTEX
  5
FF
330
FE
100
AcDbEntity
  8
_U+30EC_U+30A4_U+30E4_U+30FC 1
 62
   179
420
  2234388
370
     9
100
AcDbVertex
100
AcDb2dVertex
 10
72.65137120206467
 20
-104.5638271960812
 30
0.0
  0
VERTEX
  5
100
330
FE
100
AcDbEntity
  8
_U+30EC_U+30A4_U+30E4_U+30FC 1
 62
   179
420
  2234388
370
     9
100
AcDbVertex
100
AcDb2dVertex
 10
72.65137120206467
 20
-109.063472472734
 30
0.0
  0
SEQEND
  5
101
330
FE
100
AcDbEntity
  8
_U+30EC_U+30A4_U+30E4_U+30FC 1
 62
   179
420
  2234388
370
     9
  0
POLYLINE
  5
102
330
63
100
AcDbEntity
  8
_U+30EC_U+30A4_U+30E4_U+30FC 1
 62
   179
420
  2234388
370
     9
100
AcDb2dPolyline
 66
     1
 10
0.0
 20
0.0
 30
0.0
  0
VERTEX
  5
103
330
102
100
AcDbEntity
  8
_U+30EC_U+30A4_U+30E4_U+30FC 1
 62
   179
420
  2234388
370
     9
100
AcDbVertex
100
AcDb2dVertex
 10
72.65172397983343
 20
-106.0641558068174
 30
0.0
  0
VERTEX
  5
104
330
102
100
AcDbEntity
  8
_U+30EC_U+30A4_U+30E4_U+30FC 1
 62
   179
420
  2234388
370
     9
100
AcDbVertex
100
AcDb2dVertex
 10
110.6516399548193
 20
-106.0641558068174
 30
0.0
  0
SEQEND
  5
105
330
102
100
AcDbEntity
  8
_U+30EC_U+30A4_U+30E4_U+30FC 1
 62
   179
420
  2234388
370
     9
  0
POLYLINE
  5
106
330
63
100
AcDbEntity
  8
_U+30EC_U+30A4_U+30E4_U+30FC 1
 62
   179
420
  2234388
370
     9
100
AcDb2dPolyline
 66
     1
 10
0.0
 20
0.0
 30
0.0
  0
VERTEX
  5
107
330
106
100
AcDbEntity
  8
_U+30EC_U+30A4_U+30E4_U+30FC 1
 62
   179
420
  2234388
370
     9
100
AcDbVertex
100
AcDb2dVertex
 10
78.65134493788146
 20
-104.5638271960812
 30
0.0
  0
VERTEX
  5
108
330
106
100
AcDbEntity
  8
_U+30EC_U+30A4_U+30E4_U+30FC 1
 62
   179
420
  2234388
370
     9
100
AcDbVertex
100
AcDb2dVertex
 10
78.65134493788146
 20
-115.063446360123
 30
0.0
  0
SEQEND
  5
109
330
106
100
AcDbEntity
  8
_U+30EC_U+30A4_U+30E4_U+30FC 1
 62
   179
420
  2234388
370
     9
  0
SPLINE
  5
10A
330
63
100
AcDbEntity
  8
_U+30EC_U+30A4_U+30E4_U+30FC 1
370
     0
100
AcDbSpline
210
0.0
220
0.0
230
1.0
 70
    11
 71
     3
 72
    17
 73
    13
 74
     0
 42
0.0000000001
 43
0.0000000001
 12
1.0
 22
0.0
 32
0.0
 13
1.0
 23
0.0
 33
0.0
 40
0.0
 40
0.0
 40
0.0
 40
0.0
 40
1.0
 40
1.0
 40
1.0
 40
2.0
 40
2.0
 40
2.0
 40
3.0
 40
3.0
 40
3.0
 40
4.0
 40
4.0
 40
4.0
 40
4.0
 10
110.6516399548193
 20
-105.8136835846577
 30
0.0
 10
110.7901405068414
 20
-105.8136835846577
 30
0.0
 10
110.9017593928826
 20
-105.9253024735186
 30
0.0
 10
110.9017593928826
 20
-106.0634502512618
 30
0.0
 10
110.9017593928826
 20
-106.201598029005
 30
0.0
 10
110.7901405068414
 20
-106.313569695644
 30
0.0
 10
110.6516399548193
 20
-106.313569695644
 30
0.0
 10
110.5138449583347
 20
-106.313569695644
 30
0.0
 10
110.4015205167559
 20
-106.201598029005
 30
0.0
 10
110.4015205167559
 20
-106.0634502512618
 30
0.0
 10
110.4015205167559
 20
-105.9253024735186
 30
0.0
 10
110.5138449583347
 20
-105.8136835846577
 30
0.0
 10
110.6516399548193
 20
-105.8136835846577
 30
0.0
  0
HATCH
  5
10B
330
63
100
AcDbEntity
  8
_U+30EC_U+30A4_U+30E4_U+30FC 1
 62
   179
420
  2234388
100
AcDbHatch
 10
0.0
 20
0.0
 30
0.0
210
0.0
220
0.0
230
1.0
  2
SOLID
 70
     1
 71
     0
 91
        1
 92
        1
 93
        2
 72
     4
 94
        3
 73
     0
 74
     0
 95
       17
 96
       13
 40
0.0
 40
0.0
 40
0.0
 40
0.0
 40
0.3527777776895833
 40
0.3527777776895833
 40
0.3527777776895833
 40
0.7055555553791667
 40
0.7055555553791667
 40
0.7055555553791667
 40
1.05833333306875
 40
1.05833333306875
 40
1.05833333306875
 40
1.411111110758333
 40
1.411111110758333
 40
1.411111110758333
 40
1.411111110758333
 10
110.6516399548193
 20
-105.8136835846577
 10
110.7901405068414
 20
-105.8136835846577
 10
110.9017593928826
 20
-105.9253024735186
 10
110.9017593928826
 20
-106.0634502512618
 10
110.9017593928826
 20
-106.201598029005
 10
110.7901405068414
 20
-106.313569695644
 10
110.6516399548193
 20
-106.313569695644
 10
110.5138449583347
 20
-106.313569695644
 10
110.4015205167559
 20
-106.201598029005
 10
110.4015205167559
 20
-106.0634502512618
 10
110.4015205167559
 20
-105.9253024735186
 10
110.5138449583347
 20
-105.8136835846577
 10
110.6516399548193
 20
-105.8136835846577
 97
        0
 72
     1
 10
110.6516399548193
 20
-105.8136835846577
 11
110.6516399548193
 21
-105.8136835846577
 97
        0
 75
     2
 76
     1
 98
        0
  0
POLYLINE
  5
10C
330
63
100
AcDbEntity
  8
_U+30EC_U+30A4_U+30E4_U+30FC 1
 62
   179
420
  2234388
370
     9
100
AcDb2dPolyline
 66
     1
 10
0.0
 20
0.0
 30
0.0
  0
VERTEX
  5
10D
330
10C
100
AcDbEntity
  8
_U+30EC_U+30A4_U+30E4_U+30FC 1
 62
   179
420
  2234388
370
     9
100
AcDbVertex
100
AcDb2dVertex
 10
110.6516399548193
 20
-104.5638271960812
 30
0.0
  0
VERTEX
  5
10E
330
10C
100
AcDbEntity
  8
_U+30EC_U+30A4_U+30E4_U+30FC 1
 62
   179
420
  2234388
370
     9
100
AcDbVertex
100
AcDb2dVertex
 10
110.6516399548193
 20
-145.5635546858314
 30
0.0
  0
SEQEND
  5
10F
330
10C
100
AcDbEntity
  8
_U+30EC_U+30A4_U+30E4_U+30FC 1
 62
   179
420
  2234388
370
     9
  0
SPLINE
  5
110
330
63
100
AcDbEntity
  8
_U+30EC_U+30A4_U+30E4_U+30FC 1
370
     0
100
AcDbSpline
210
0.0
220
0.0
230
1.0
 70
    11
 71
     3
 72
    17
 73
    13
 74
     0
 42
0.0000000001
 43
0.0000000001
 12
1.0
 22
0.0
 32
0.0
 13
1.0
 23
0.0
 33
0.0
 40
0.0
 40
0.0
 40
0.0
 40
0.0
 40
1.0
 40
1.0
 40
1.0
 40
2.0
 40
2.0
 40
2.0
 40
3.0
 40
3.0
 40
3.0
 40
4.0
 40
4.0
 40
4.0
 40
4.0
 10
114.6513990194436
 20
-115.9140288599105
 30
0.0
 10
114.7347604062057
 20
-115.9140288599105
 30
0.0
 10
114.8016117933891
 20
-115.9811977487824
 30
0.0
 10
114.8016117933891
 20
-116.0638888598729
 30
0.0
 10
114.8016117933891
 20
-116.1465799709635
 30
0.0
 10
114.7347604062057
 20
-116.2137488598354
 30
0.0
 10
114.6513990194436
 20
-116.2137488598354
 30
0.0
 10
114.5687079104421
 20
-116.2137488598354
 30
0.0
 10
114.5018918010356
 20
-116.1465799709635
 30
0.0
 10
114.5018918010356
 20
-116.0638888598729
 30
0.0
 10
114.5018918010356
 20
-115.9811977487824
 30
0.0
 10
114.5687079104421
 20
-115.9140288599105
 30
0.0
 10
114.6513990194436
 20
-115.9140288599105
 30
0.0
  0
HATCH
  5
111
330
63
100
AcDbEntity
  8
_U+30EC_U+30A4_U+30E4_U+30FC 1
 62
   179
420
  2234388
100
AcDbHatch
 10
0.0
 20
0.0
 30
0.0
210
0.0
220
0.0
230
1.0
  2
SOLID
 70
     1
 71
     0
 91
        1
 92
        1
 93
        2
 72
     4
 94
        3
 73
     0
 74
     0
 95
       17
 96
       13
 40
0.0
 40
0.0
 40
0.0
 40
0.0
 40
0.3527777776895833
 40
0.3527777776895833
 40
0.3527777776895833
 40
0.7055555553791667
 40
0.7055555553791667
 40
0.7055555553791667
 40
1.05833333306875
 40
1.05833333306875
 40
1.05833333306875
 40
1.411111110758333
 40
1.411111110758333
 40
1.411111110758333
 40
1.411111110758333
 10
114.6513990194436
 20
-115.9140288599105
 10
114.7347604062057
 20
-115.9140288599105
 10
114.8016117933891
 20
-115.9811977487824
 10
114.8016117933891
 20
-116.0638888598729
 10
114.8016117933891
 20
-116.1465799709635
 10
114.7347604062057
 20
-116.2137488598354
 10
114.6513990194436
 20
-116.2137488598354
 10
114.5687079104421
 20
-116.2137488598354
 10
114.5018918010356
 20
-116.1465799709635
 10
114.5018918010356
 20
-116.0638888598729
 10
114.5018918010356
 20
-115.9811977487824
 10
114.5687079104421
 20
-115.9140288599105
 10
114.6513990194436
 20
-115.9140288599105
 97
        0
 72
     1
 10
114.6513990194436
 20
-115.9140288599105
 11
114.6513990194436
 21
-115.9140288599105
 97
        0
 75
     2
 76
     1
 98
        0
  0
SPLINE
  5
112
330
63
100
AcDbEntity
  8
_U+30EC_U+30A4_U+30E4_U+30FC 1
370
     0
100
AcDbSpline
210
0.0
220
0.0
230
1.0
 70
    11
 71
     3
 72
    17
 73
    13
 74
     0
 42
0.0000000001
 43
0.0000000001
 12
1.0
 22
0.0
 32
0.0
 13
1.0
 23
0.0
 33
0.0
 40
0.0
 40
0.0
 40
0.0
 40
0.0
 40
1.0
 40
1.0
 40
1.0
 40
2.0
 40
2.0
 40
2.0
 40
3.0
 40
3.0
 40
3.0
 40
4.0
 40
4.0
 40
4.0
 40
4.0
 10
114.6513990194436
 20
-147.9137955185771
 30
0.0
 10
114.7347604062057
 20
-147.9137955185771
 30
0.0
 10
114.8016117933891
 20
-147.980964407449
 30
0.0
 10
114.8016117933891
 20
-148.0640082963176
 30
0.0
 10
114.8016117933891
 20
-148.1466994074078
 30
0.0
 10
114.7347604062057
 20
-148.213515518502
 30
0.0
 10
114.6513990194436
 20
-148.213515518502
 30
0.0
 10
114.5687079104421
 20
-148.213515518502
 30
0.0
 10
114.5018918010356
 20
-148.1466994074078
 30
0.0
 10
114.5018918010356
 20
-148.0640082963176
 30
0.0
 10
114.5018918010356
 20
-147.980964407449
 30
0.0
 10
114.5687079104421
 20
-147.9137955185771
 30
0.0
 10
114.6513990194436
 20
-147.9137955185771
 30
0.0
  0
HATCH
  5
113
330
63
100
AcDbEntity
  8
_U+30EC_U+30A4_U+30E4_U+30FC 1
 62
   179
420
  2234388
100
AcDbHatch
 10
0.0
 20
0.0
 30
0.0
210
0.0
220
0.0
230
1.0
  2
SOLID
 70
     1
 71
     0
 91
        1
 92
        1
 93
        2
 72
     4
 94
        3
 73
     0
 74
     0
 95
       17
 96
       13
 40
0.0
 40
0.0
 40
0.0
 40
0.0
 40
0.3527777776895833
 40
0.3527777776895833
 40
0.3527777776895833
 40
0.7055555553791667
 40
0.7055555553791667
 40
0.7055555553791667
 40
1.05833333306875
 40
1.05833333306875
 40
1.05833333306875
 40
1.411111110758333
 40
1.411111110758333
 40
1.411111110758333
 40
1.411111110758333
 10
114.6513990194436
 20
-147.9137955185771
 10
114.7347604062057
 20
-147.9137955185771
 10
114.8016117933891
 20
-147.980964407449
 10
114.8016117933891
 20
-148.0640082963176
 10
114.8016117933891
 20
-148.1466994074078
 10
114.7347604062057
 20
-148.213515518502
 10
114.6513990194436
 20
-148.213515518502
 10
114.5687079104421
 20
-148.213515518502
 10
114.5018918010356
 20
-148.1466994074078
 10
114.5018918010356
 20
-148.0640082963176
 10
114.5018918010356
 20
-147.980964407449
 10
114.5687079104421
 20
-147.9137955185771
 10
114.6513990194436
 20
-147.9137955185771
 97
        0
 72
     1
 10
114.6513990194436
 20
-147.9137955185771
 11
114.6513990194436
 21
-147.9137955185771
 97
        0
 75
     2
 76
     1
 98
        0
  0
POLYLINE
  5
114
330
63
100
AcDbEntity
  8
_U+30EC_U+30A4_U+30E4_U+30FC 1
 62
   179
420
  2234388
370
     9
100
AcDb2dPolyline
 66
     1
 10
0.0
 20
0.0
 30
0.0
  0
VERTEX
  5
115
330
114
100
AcDbEntity
  8
_U+30EC_U+30A4_U+30E4_U+30FC 1
 62
   179
420
  2234388
370
     9
100
AcDbVertex
100
AcDb2dVertex
 10
111.6520824292958
 20
-148.0640082963176
 30
0.0
  0
VERTEX
  5
116
330
114
100
AcDbEntity
  8
_U+30EC_U+30A4_U+30E4_U+30FC 1
 62
   179
420
  2234388
370
     9
100
AcDbVertex
100
AcDb2dVertex
 10
116.1520833042953
 20
-148.0640082963176
 30
0.0
  0
SEQEND
  5
117
330
114
100
AcDbEntity
  8
_U+30EC_U+30A4_U+30E4_U+30FC 1
 62
   179
420
  2234388
370
     9
  0
POLYLINE
  5
118
330
63
100
AcDbEntity
  8
_U+30EC_U+30A4_U+30E4_U+30FC 1
 62
   179
420
  2234388
370
     9
100
AcDb2dPolyline
 66
     1
 10
0.0
 20
0.0
 30
0.0
  0
VERTEX
  5
119
330
118
100
AcDbEntity
  8
_U+30EC_U+30A4_U+30E4_U+30FC 1
 62
   179
420
  2234388
370
     9
100
AcDbVertex
100
AcDb2dVertex
 10
114.6513990194436
 20
-116.0638888598729
 30
0.0
  0
VERTEX
  5
11A
330
118
100
AcDbEntity
  8
_U+30EC_U+30A4_U+30E4_U+30FC 1
 62
   179
420
  2234388
370
     9
100
AcDbVertex
100
AcDb2dVertex
 10
114.6513990194436
 20
-148.0633027407621
 30
0.0
  0
SEQEND
  5
11B
330
118
100
AcDbEntity
  8
_U+30EC_U+30A4_U+30E4_U+30FC 1
 62
   179
420
  2234388
370
     9
  0
INSERT
  5
11D
330
63
100
AcDbEntity
  8
_U+30EC_U+30A4_U+30E4_U+30FC 1
100
AcDbBlockReference
  2
block 5
 10
0.0
 20
0.0
 30
0.0
  0
INSERT
  5
12D
330
63
100
AcDbEntity
  8
_U+30EC_U+30A4_U+30E4_U+30FC 1
100
AcDbBlockReference
  2
block 6
 10
0.0
 20
0.0
 30
0.0
  0
INSERT
  5
13D
330
63
100
AcDbEntity
  8
_U+30EC_U+30A4_U+30E4_U+30FC 1
100
AcDbBlockReference
  2
block 7
 10
0.0
 20
0.0
 30
0.0
  0
INSERT
  5
145
330
63
100
AcDbEntity
  8
_U+30EC_U+30A4_U+30E4_U+30FC 1
100
AcDbBlockReference
  2
block 8
 10
0.0
 20
0.0
 30
0.0
  0
INSERT
  5
14C
330
63
100
AcDbEntity
  8
_U+30EC_U+30A4_U+30E4_U+30FC 1
100
AcDbBlockReference
  2
block 9
 10
0.0
 20
0.0
 30
0.0
  0
INSERT
  5
158
330
63
100
AcDbEntity
  8
_U+30EC_U+30A4_U+30E4_U+30FC 1
100
AcDbBlockReference
  2
block 10
 10
0.0
 20
0.0
 30
0.0
  0
INSERT
  5
18F
330
63
100
AcDbEntity
  8
_U+30EC_U+30A4_U+30E4_U+30FC 1
100
AcDbBlockReference
  2
block 11
 10
0.0
 20
0.0
 30
0.0
  0
INSERT
  5
199
330
63
100
AcDbEntity
  8
_U+30EC_U+30A4_U+30E4_U+30FC 1
100
AcDbBlockReference
  2
block 12
 10
0.0
 20
0.0
 30
0.0
  0
INSERT
  5
1A2
330
63
100
AcDbEntity
  8
_U+30EC_U+30A4_U+30E4_U+30FC 1
100
AcDbBlockReference
  2
block 13
 10
0.0
 20
0.0
 30
0.0
  0
INSERT
  5
1AA
330
63
100
AcDbEntity
  8
_U+30EC_U+30A4_U+30E4_U+30FC 1
100
AcDbBlockReference
  2
block 14
 10
0.0
 20
0.0
 30
0.0
  0
SPLINE
  5
1B0
330
63
100
AcDbEntity
  8
_U+30EC_U+30A4_U+30E4_U+30FC 1
370
     0
100
AcDbSpline
210
0.0
220
0.0
230
1.0
 70
    11
 71
     3
 72
    17
 73
    13
 74
     0
 42
0.0000000001
 43
0.0000000001
 12
1.0
 22
0.0
 32
0.0
 13
1.0
 23
0.0
 33
0.0
 40
0.0
 40
0.0
 40
0.0
 40
0.0
 40
1.0
 40
1.0
 40
1.0
 40
2.0
 40
2.0
 40
2.0
 40
3.0
 40
3.0
 40
3.0
 40
4.0
 40
4.0
 40
4.0
 40
4.0
 10
78.65134493788146
 20
-105.9135902512994
 30
0.0
 10
78.73438882465173
 20
-105.9135902512994
 30
0.0
 10
78.80138331363293
 20
-105.9807944179491
 30
0.0
 10
78.80138331363293
 20
-106.0634502512618
 30
0.0
 10
78.80138331363293
 20
-106.1464941401301
 30
0.0
 10
78.73438882465173
 20
-106.213663029002
 30
0.0
 10
78.65134493788146
 20
-106.213663029002
 30
0.0
 10
78.56868910665686
 20
-106.213663029002
 30
0.0
 10
78.50130855282032
 20
-106.1464941401301
 30
0.0
 10
78.50130855282032
 20
-106.0634502512618
 30
0.0
 10
78.50130855282032
 20
-105.9807944179491
 30
0.0
 10
78.56868910665686
 20
-105.9135902512994
 30
0.0
 10
78.65134493788146
 20
-105.9135902512994
 30
0.0
  0
HATCH
  5
1B1
330
63
100
AcDbEntity
  8
_U+30EC_U+30A4_U+30E4_U+30FC 1
 62
   179
420
  2234388
100
AcDbHatch
 10
0.0
 20
0.0
 30
0.0
210
0.0
220
0.0
230
1.0
  2
SOLID
 70
     1
 71
     0
 91
        1
 92
        1
 93
        2
 72
     4
 94
        3
 73
     0
 74
     0
 95
       17
 96
       13
 40
0.0
 40
0.0
 40
0.0
 40
0.0
 40
0.3527777776895833
 40
0.3527777776895833
 40
0.3527777776895833
 40
0.7055555553791667
 40
0.7055555553791667
 40
0.7055555553791667
 40
1.05833333306875
 40
1.05833333306875
 40
1.05833333306875
 40
1.411111110758333
 40
1.411111110758333
 40
1.411111110758333
 40
1.411111110758333
 10
78.65134493788146
 20
-105.9135902512994
 10
78.73438882465173
 20
-105.9135902512994
 10
78.80138331363293
 20
-105.9807944179491
 10
78.80138331363293
 20
-106.0634502512618
 10
78.80138331363293
 20
-106.1464941401301
 10
78.73438882465173
 20
-106.213663029002
 10
78.65134493788146
 20
-106.213663029002
 10
78.56868910665686
 20
-106.213663029002
 10
78.50130855282032
 20
-106.1464941401301
 10
78.50130855282032
 20
-106.0634502512618
 10
78.50130855282032
 20
-105.9807944179491
 10
78.56868910665686
 20
-105.9135902512994
 10
78.65134493788146
 20
-105.9135902512994
 97
        0
 72
     1
 10
78.65134493788146
 20
-105.9135902512994
 11
78.65134493788146
 21
-105.9135902512994
 97
        0
 75
     2
 76
     1
 98
        0
  0
ENDBLK
  5
66
330
63
100
AcDbEntity
  8
0
100
AcDbBlockEnd
  0
BLOCK
  5
11E
330
11C
100
AcDbEntity
  8
0
100
AcDbBlockBegin
  2
block 5
 70
     0
 10
0.0
 20
0.0
 30
0.0
  3
block 5
  1

  0
POLYLINE
  5
120
330
11C
100
AcDbEntity
  8
_U+30EC_U+30A4_U+30E4_U+30FC 1
 62
   179
420
  2234388
370
     9
100
AcDb2dPolyline
 66
     1
 10
0.0
 20
0.0
 30
0.0
  0
VERTEX
  5
121
330
120
100
AcDbEntity
  8
_U+30EC_U+30A4_U+30E4_U+30FC 1
 62
   179
420
  2234388
370
     9
100
AcDbVertex
100
AcDb2dVertex
 10
78.78709382330712
 20
-137.6811585766907
 30
0.0
  0
VERTEX
  5
122
330
120
100
AcDbEntity
  8
_U+30EC_U+30A4_U+30E4_U+30FC 1
 62
   179
420
  2234388
370
     9
100
AcDbVertex
100
AcDb2dVertex
 10
81.82602735688857
 20
-134.6467405218942
 30
0.0
  0
SEQEND
  5
123
330
120
100
AcDbEntity
  8
_U+30EC_U+30A4_U+30E4_U+30FC 1
 62
   179
420
  2234388
370
     9
  0
POLYLINE
  5
124
330
11C
100
AcDbEntity
  8
_U+30EC_U+30A4_U+30E4_U+30FC 1
 62
   179
420
  2234388
370
     9
100
AcDb2dPolyline
 66
     1
 10
0.0
 20
0.0
 30
0.0
  0
VERTEX
  5
125
330
124
100
AcDbEntity
  8
_U+30EC_U+30A4_U+30E4_U+30FC 1
 62
   179
420
  2234388
370
     9
100
AcDbVertex
100
AcDb2dVertex
 10
80.78695571673083
 20
-135.2468860772995
 30
0.0
  0
VERTEX
  5
126
330
124
100
AcDbEntity
  8
_U+30EC_U+30A4_U+30E4_U+30FC 1
 62
   179
420
  2234388
370
     9
100
AcDbVertex
100
AcDb2dVertex
 10
81.82602735688857
 20
-134.6467405218942
 30
0.0
  0
SEQEND
  5
127
330
124
100
AcDbEntity
  8
_U+30EC_U+30A4_U+30E4_U+30FC 1
 62
   179
420
  2234388
370
     9
  0
POLYLINE
  5
128
330
11C
100
AcDbEntity
  8
_U+30EC_U+30A4_U+30E4_U+30FC 1
 62
   179
420
  2234388
370
     9
100
AcDb2dPolyline
 66
     1
 10
0.0
 20
0.0
 30
0.0
  0
VERTEX
  5
129
330
128
100
AcDbEntity
  8
_U+30EC_U+30A4_U+30E4_U+30FC 1
 62
   179
420
  2234388
370
     9
100
AcDbVertex
100
AcDb2dVertex
 10
81.225881816644
 20
-135.6857769105231
 30
0.0
  0
VERTEX
  5
12A
330
128
100
AcDbEntity
  8
_U+30EC_U+30A4_U+30E4_U+30FC 1
 62
   179
420
  2234388
370
     9
100
AcDbVertex
100
AcDb2dVertex
 10
81.82602735688857
 20
-134.6467405218942
 30
0.0
  0
SEQEND
  5
12B
330
128
100
AcDbEntity
  8
_U+30EC_U+30A4_U+30E4_U+30FC 1
 62
   179
420
  2234388
370
     9
  0
ENDBLK
  5
11F
330
11C
100
AcDbEntity
  8
0
100
AcDbBlockEnd
  0
BLOCK
  5
12E
330
12C
100
AcDbEntity
  8
0
100
AcDbBlockBegin
  2
block 6
 70
     0
 10
0.0
 20
0.0
 30
0.0
  3
block 6
  1

  0
POLYLINE
  5
130
330
12C
100
AcDbEntity
  8
_U+30EC_U+30A4_U+30E4_U+30FC 1
 62
   179
420
  2234388
370
     9
100
AcDb2dPolyline
 66
     1
 10
0.0
 20
0.0
 30
0.0
  0
VERTEX
  5
131
330
130
100
AcDbEntity
  8
_U+30EC_U+30A4_U+30E4_U+30FC 1
 62
   179
420
  2234388
370
     9
100
AcDbVertex
100
AcDb2dVertex
 10
100.1578771669819
 20
-116.6195844152896
 30
0.0
  0
VERTEX
  5
132
330
130
100
AcDbEntity
  8
_U+30EC_U+30A4_U+30E4_U+30FC 1
 62
   179
420
  2234388
370
     9
100
AcDbVertex
100
AcDb2dVertex
 10
83.81452980615765
 20
-132.9007727445526
 30
0.0
  0
SEQEND
  5
133
330
130
100
AcDbEntity
  8
_U+30EC_U+30A4_U+30E4_U+30FC 1
 62
   179
420
  2234388
370
     9
  0
POLYLINE
  5
134
330
12C
100
AcDbEntity
  8
_U+30EC_U+30A4_U+30E4_U+30FC 1
 62
   179
420
  2234388
370
     9
100
AcDb2dPolyline
 66
     1
 10
0.0
 20
0.0
 30
0.0
  0
VERTEX
  5
135
330
134
100
AcDbEntity
  8
_U+30EC_U+30A4_U+30E4_U+30FC 1
 62
   179
420
  2234388
370
     9
100
AcDbVertex
100
AcDb2dVertex
 10
84.8535661685385
 20
-132.3006271891472
 30
0.0
  0
VERTEX
  5
136
330
134
100
AcDbEntity
  8
_U+30EC_U+30A4_U+30E4_U+30FC 1
 62
   179
420
  2234388
370
     9
100
AcDbVertex
100
AcDb2dVertex
 10
83.81452980615765
 20
-132.9007727445526
 30
0.0
  0
SEQEND
  5
137
330
134
100
AcDbEntity
  8
_U+30EC_U+30A4_U+30E4_U+30FC 1
 62
   179
420
  2234388
370
     9
  0
POLYLINE
  5
138
330
12C
100
AcDbEntity
  8
_U+30EC_U+30A4_U+30E4_U+30FC 1
 62
   179
420
  2234388
370
     9
100
AcDb2dPolyline
 66
     1
 10
0.0
 20
0.0
 30
0.0
  0
VERTEX
  5
139
330
138
100
AcDbEntity
  8
_U+30EC_U+30A4_U+30E4_U+30FC 1
 62
   179
420
  2234388
370
     9
100
AcDbVertex
100
AcDb2dVertex
 10
84.41464006862533
 20
-131.8617363559237
 30
0.0
  0
VERTEX
  5
13A
330
138
100
AcDbEntity
  8
_U+30EC_U+30A4_U+30E4_U+30FC 1
 62
   179
420
  2234388
370
     9
100
AcDbVertex
100
AcDb2dVertex
 10
83.81452980615765
 20
-132.9007727445526
 30
0.0
  0
SEQEND
  5
13B
330
138
100
AcDbEntity
  8
_U+30EC_U+30A4_U+30E4_U+30FC 1
 62
   179
420
  2234388
370
     9
  0
ENDBLK
  5
12F
330
12C
100
AcDbEntity
  8
0
100
AcDbBlockEnd
  0
BLOCK
  5
13E
330
13C
100
AcDbEntity
  8
0
100
AcDbBlockBegin
  2
block 7
 70
     0
 10
0.0
 20
0.0
 30
0.0
  3
block 7
  1

  0
SPLINE
  5
140
330
13C
100
AcDbEntity
  8
_U+30EC_U+30A4_U+30E4_U+30FC 1
370
     0
100
AcDbSpline
210
0.0
220
0.0
230
1.0
 70
    11
 71
     3
 72
    62
 73
    58
 74
     0
 42
0.0000000001
 43
0.0000000001
 12
1.0
 22
0.0
 32
0.0
 13
1.0
 23
0.0
 33
0.0
 40
0.0
 40
0.0
 40
0.0
 40
0.0
 40
1.0
 40
1.0
 40
1.0
 40
2.0
 40
2.0
 40
2.0
 40
3.0
 40
3.0
 40
3.0
 40
4.0
 40
4.0
 40
4.0
 40
5.0
 40
5.0
 40
5.0
 40
6.0
 40
6.0
 40
6.0
 40
7.0
 40
7.0
 40
7.0
 40
8.0
 40
8.0
 40
8.0
 40
9.0
 40
9.0
 40
9.0
 40
10.0
 40
10.0
 40
10.0
 40
11.0
 40
11.0
 40
11.0
 40
12.0
 40
12.0
 40
12.0
 40
13.0
 40
13.0
 40
13.0
 40
14.0
 40
14.0
 40
14.0
 40
15.0
 40
15.0
 40
15.0
 40
16.0
 40
16.0
 40
16.0
 40
17.0
 40
17.0
 40
17.0
 40
18.0
 40
18.0
 40
18.0
 40
19.0
 40
19.0
 40
19.0
 40
19.0
 10
94.05455184280581
 20
-105.6998358568216
 30
0.0
 10
93.95912269786439
 20
-105.6998358568216
 30
0.0
 10
93.7413926631966
 20
-105.6788207743616
 30
0.0
 10
93.61668020663056
 20
-105.4927856181581
 30
0.0
 10
93.54261065369768
 20
-105.3804755053389
 30
0.0
 10
93.53813202956687
 20
-105.2812567553637
 30
0.0
 10
93.53399791498455
 20
-105.1965074064266
 30
0.0
 10
93.53399791498455
 20
-105.1965074064266
 30
0.0
 10
93.75413951649203
 20
-105.1965074064266
 30
0.0
 10
93.75413951649203
 20
-105.1965074064266
 30
0.0
 10
93.75620657378317
 20
-105.2705769593594
 30
0.0
 10
93.76688636978744
 20
-105.505187961905
 30
0.0
 10
94.05007321867498
 20
-105.505187961905
 30
0.0
 10
94.18787703808498
 20
-105.505187961905
 30
0.0
 10
94.34015025853303
 20
-105.4355970331029
 30
0.0
 10
94.34015025853303
 20
-105.2071872024308
 30
0.0
 10
94.34015025853303
 20
-105.0907429750294
 30
0.0
 10
94.30190969864675
 20
-105.0421671286874
 30
0.0
 10
94.27021482018245
 20
-105.0104722502231
 30
0.0
 10
94.19614526724958
 20
-104.9364026972902
 30
0.0
 10
94.07970103984813
 20
-104.9236558439948
 30
0.0
 10
94.02492402163266
 20
-104.9236558439948
 30
0.0
 10
94.00597599646379
 20
-104.9236558439948
 30
0.0
 10
93.96980249386867
 20
-104.9257229012859
 30
0.0
 10
93.94224172998666
 20
-104.9298570158682
 30
0.0
 10
93.94224172998666
 20
-104.9298570158682
 30
0.0
 10
93.94224172998666
 20
-104.7352091209516
 30
0.0
 10
93.94224172998666
 20
-104.7352091209516
 30
0.0
 10
93.98048228987294
 20
-104.7417548023736
 30
0.0
 10
94.02285696434151
 20
-104.7438218596647
 30
0.0
 10
94.02905813621496
 20
-104.7438218596647
 30
0.0
 10
94.09451495043471
 20
-104.7438218596647
 30
0.0
 10
94.29364146948215
 20
-104.7224622676562
 30
0.0
 10
94.29364146948215
 20
-104.4857842078195
 30
0.0
 10
94.29364146948215
 20
-104.3080172807806
 30
0.0
 10
94.16238333149413
 20
-104.2528957530166
 30
0.0
 10
94.05248478551466
 20
-104.2528957530166
 30
0.0
 10
93.78790145224747
 20
-104.2528957530166
 30
0.0
 10
93.77928871353434
 20
-104.4857842078195
 30
0.0
 10
93.77515459895204
 20
-104.5574421939127
 30
0.0
 10
93.77515459895204
 20
-104.5574421939127
 30
0.0
 10
93.57223847487083
 20
-104.5574421939127
 30
0.0
 10
93.57223847487083
 20
-104.5574421939127
 30
0.0
 10
93.58050670403543
 20
-104.4327297373467
 30
0.0
 10
93.60806746791744
 20
-104.0561808008089
 30
0.0
 10
94.06488712926156
 20
-104.0561808008089
 30
0.0
 10
94.28916284535133
 20
-104.0561808008089
 30
0.0
 10
94.53031952931882
 20
-104.1833048242146
 30
0.0
 10
94.53031952931882
 20
-104.4792385263976
 30
0.0
 10
94.53031952931882
 20
-104.6656181921496
 30
0.0
 10
94.43523489392592
 20
-104.747955974247
 30
0.0
 10
94.3356716344022
 20
-104.8092786738845
 30
0.0
 10
94.39733884358817
 20
-104.8368394377665
 30
0.0
 10
94.57923988520936
 20
-104.9171101625728
 30
0.0
 10
94.57923988520936
 20
-105.1944403491354
 30
0.0
 10
94.57923988520936
 20
-105.532748725787
 30
0.0
 10
94.3315375198199
 20
-105.6998358568216
 30
0.0
 10
94.05455184280581
 20
-105.6998358568216
 30
0.0
  0
HATCH
  5
141
330
13C
100
AcDbEntity
  8
_U+30EC_U+30A4_U+30E4_U+30FC 1
 62
   179
420
  2234388
100
AcDbHatch
 10
0.0
 20
0.0
 30
0.0
210
0.0
220
0.0
230
1.0
  2
SOLID
 70
     1
 71
     0
 91
        1
 92
        1
 93
        1
 72
     4
 94
        3
 73
     0
 74
     1
 95
       62
 96
       58
 40
0.0
 40
0.0
 40
0.0
 40
0.0
 40
1.0
 40
1.0
 40
1.0
 40
2.0
 40
2.0
 40
2.0
 40
3.0
 40
3.0
 40
3.0
 40
4.0
 40
4.0
 40
4.0
 40
5.0
 40
5.0
 40
5.0
 40
6.0
 40
6.0
 40
6.0
 40
7.0
 40
7.0
 40
7.0
 40
8.0
 40
8.0
 40
8.0
 40
9.0
 40
9.0
 40
9.0
 40
10.0
 40
10.0
 40
10.0
 40
11.0
 40
11.0
 40
11.0
 40
12.0
 40
12.0
 40
12.0
 40
13.0
 40
13.0
 40
13.0
 40
14.0
 40
14.0
 40
14.0
 40
15.0
 40
15.0
 40
15.0
 40
16.0
 40
16.0
 40
16.0
 40
17.0
 40
17.0
 40
17.0
 40
18.0
 40
18.0
 40
18.0
 40
19.0
 40
19.0
 40
19.0
 40
19.0
 10
94.05455184280581
 20
-105.6998358568216
 10
93.95912269786439
 20
-105.6998358568216
 10
93.7413926631966
 20
-105.6788207743616
 10
93.61668020663056
 20
-105.4927856181581
 10
93.54261065369768
 20
-105.3804755053389
 10
93.53813202956687
 20
-105.2812567553637
 10
93.53399791498455
 20
-105.1965074064266
 10
93.53399791498455
 20
-105.1965074064266
 10
93.75413951649203
 20
-105.1965074064266
 10
93.75413951649203
 20
-105.1965074064266
 10
93.75620657378317
 20
-105.2705769593594
 10
93.76688636978744
 20
-105.505187961905
 10
94.05007321867498
 20
-105.505187961905
 10
94.18787703808498
 20
-105.505187961905
 10
94.34015025853303
 20
-105.4355970331029
 10
94.34015025853303
 20
-105.2071872024308
 10
94.34015025853303
 20
-105.0907429750294
 10
94.30190969864675
 20
-105.0421671286874
 10
94.27021482018245
 20
-105.0104722502231
 10
94.19614526724958
 20
-104.9364026972902
 10
94.07970103984813
 20
-104.9236558439948
 10
94.02492402163266
 20
-104.9236558439948
 10
94.00597599646379
 20
-104.9236558439948
 10
93.96980249386867
 20
-104.9257229012859
 10
93.94224172998666
 20
-104.9298570158682
 10
93.94224172998666
 20
-104.9298570158682
 10
93.94224172998666
 20
-104.7352091209516
 10
93.94224172998666
 20
-104.7352091209516
 10
93.98048228987294
 20
-104.7417548023736
 10
94.02285696434151
 20
-104.7438218596647
 10
94.02905813621496
 20
-104.7438218596647
 10
94.09451495043471
 20
-104.7438218596647
 10
94.29364146948215
 20
-104.7224622676562
 10
94.29364146948215
 20
-104.4857842078195
 10
94.29364146948215
 20
-104.3080172807806
 10
94.16238333149413
 20
-104.2528957530166
 10
94.05248478551466
 20
-104.2528957530166
 10
93.78790145224747
 20
-104.2528957530166
 10
93.77928871353434
 20
-104.4857842078195
 10
93.77515459895204
 20
-104.5574421939127
 10
93.77515459895204
 20
-104.5574421939127
 10
93.57223847487083
 20
-104.5574421939127
 10
93.57223847487083
 20
-104.5574421939127
 10
93.58050670403543
 20
-104.4327297373467
 10
93.60806746791744
 20
-104.0561808008089
 10
94.06488712926156
 20
-104.0561808008089
 10
94.28916284535133
 20
-104.0561808008089
 10
94.53031952931882
 20
-104.1833048242146
 10
94.53031952931882
 20
-104.4792385263976
 10
94.53031952931882
 20
-104.6656181921496
 10
94.43523489392592
 20
-104.747955974247
 10
94.3356716344022
 20
-104.8092786738845
 10
94.39733884358817
 20
-104.8368394377665
 10
94.57923988520936
 20
-104.9171101625728
 10
94.57923988520936
 20
-105.1944403491354
 10
94.57923988520936
 20
-105.532748725787
 10
94.3315375198199
 20
-105.6998358568216
 10
94.05455184280581
 20
-105.6998358568216
 97
        0
 97
        0
 75
     2
 76
     1
 98
        0
  0
SPLINE
  5
142
330
13C
100
AcDbEntity
  8
_U+30EC_U+30A4_U+30E4_U+30FC 1
370
     0
100
AcDbSpline
210
0.0
220
0.0
230
1.0
 70
    11
 71
     3
 72
    44
 73
    40
 74
     0
 42
0.0000000001
 43
0.0000000001
 12
1.0
 22
0.0
 32
0.0
 13
1.0
 23
0.0
 33
0.0
 40
0.0
 40
0.0
 40
0.0
 40
0.0
 40
1.0
 40
1.0
 40
1.0
 40
2.0
 40
2.0
 40
2.0
 40
3.0
 40
3.0
 40
3.0
 40
4.0
 40
4.0
 40
4.0
 40
5.0
 40
5.0
 40
5.0
 40
6.0
 40
6.0
 40
6.0
 40
7.0
 40
7.0
 40
7.0
 40
8.0
 40
8.0
 40
8.0
 40
9.0
 40
9.0
 40
9.0
 40
10.0
 40
10.0
 40
10.0
 40
11.0
 40
11.0
 40
11.0
 40
12.0
 40
12.0
 40
12.0
 40
13.0
 40
13.0
 40
13.0
 40
13.0
 10
95.33302677738203
 20
-105.0673163257297
 30
0.0
 10
95.11495223316571
 20
-105.2261352275997
 30
0.0
 10
95.02193465506396
 20
-105.3002047805326
 30
0.0
 10
94.97335880872194
 20
-105.4438652622675
 30
0.0
 10
94.97335880872194
 20
-105.4438652622675
 30
0.0
 10
95.75160587883988
 20
-105.4438652622675
 30
0.0
 10
95.75160587883988
 20
-105.4438652622675
 30
0.0
 10
95.75160587883988
 20
-105.4438652622675
 30
0.0
 10
95.75160587883988
 20
-105.6491929531884
 30
0.0
 10
95.75160587883988
 20
-105.6491929531884
 30
0.0
 10
95.75160587883988
 20
-105.6491929531884
 30
0.0
 10
94.72358938604133
 20
-105.6491929531884
 30
0.0
 10
94.72358938604133
 20
-105.6491929531884
 30
0.0
 10
94.75528426450563
 20
-105.2915920418195
 30
0.0
 10
94.82074107872538
 20
-105.2133883743043
 30
0.0
 10
95.2059027539763
 20
-104.9150431052817
 30
0.0
 10
95.46187334853037
 20
-104.7162610957827
 30
0.0
 10
95.52733016275012
 20
-104.6483927147233
 30
0.0
 10
95.52733016275012
 20
-104.5109334048619
 30
0.0
 10
95.52733016275012
 20
-104.3924221201693
 30
0.0
 10
95.45567217665692
 20
-104.2615084917298
 30
0.0
 10
95.25895722444915
 20
-104.2615084917298
 30
0.0
 10
94.99850800576426
 20
-104.2615084917298
 30
0.0
 10
94.99023977659967
 20
-104.491985379693
 30
0.0
 10
94.98576115246884
 20
-104.6084296070944
 30
0.0
 10
94.98576115246884
 20
-104.6084296070944
 30
0.0
 10
94.7618299459276
 20
-104.6084296070944
 30
0.0
 10
94.7618299459276
 20
-104.6084296070944
 30
0.0
 10
94.7700981750922
 20
-104.4813055836887
 30
0.0
 10
94.78077797109647
 20
-104.3693399804181
 30
0.0
 10
94.8610486959028
 20
-104.2508286957255
 30
0.0
 10
94.97094724188227
 20
-104.0899427365643
 30
0.0
 10
95.15732690763429
 20
-104.0561808008089
 30
0.0
 10
95.27377113503573
 20
-104.0561808008089
 30
0.0
 10
95.55075681204981
 20
-104.0561808008089
 30
0.0
 10
95.75815156026185
 20
-104.2401488997212
 30
0.0
 10
95.75815156026185
 20
-104.513000462153
 30
0.0
 10
95.75815156026185
 20
-104.7417548023736
 30
0.0
 10
95.6417073328604
 20
-104.8409735523488
 30
0.0
 10
95.33302677738203
 20
-105.0673163257297
 30
0.0
  0
HATCH
  5
143
330
13C
100
AcDbEntity
  8
_U+30EC_U+30A4_U+30E4_U+30FC 1
 62
   179
420
  2234388
100
AcDbHatch
 10
0.0
 20
0.0
 30
0.0
210
0.0
220
0.0
230
1.0
  2
SOLID
 70
     1
 71
     0
 91
        1
 92
        1
 93
        1
 72
     4
 94
        3
 73
     0
 74
     1
 95
       44
 96
       40
 40
0.0
 40
0.0
 40
0.0
 40
0.0
 40
1.0
 40
1.0
 40
1.0
 40
2.0
 40
2.0
 40
2.0
 40
3.0
 40
3.0
 40
3.0
 40
4.0
 40
4.0
 40
4.0
 40
5.0
 40
5.0
 40
5.0
 40
6.0
 40
6.0
 40
6.0
 40
7.0
 40
7.0
 40
7.0
 40
8.0
 40
8.0
 40
8.0
 40
9.0
 40
9.0
 40
9.0
 40
10.0
 40
10.0
 40
10.0
 40
11.0
 40
11.0
 40
11.0
 40
12.0
 40
12.0
 40
12.0
 40
13.0
 40
13.0
 40
13.0
 40
13.0
 10
95.33302677738203
 20
-105.0673163257297
 10
95.11495223316571
 20
-105.2261352275997
 10
95.02193465506396
 20
-105.3002047805326
 10
94.97335880872194
 20
-105.4438652622675
 10
94.97335880872194
 20
-105.4438652622675
 10
95.75160587883988
 20
-105.4438652622675
 10
95.75160587883988
 20
-105.4438652622675
 10
95.75160587883988
 20
-105.4438652622675
 10
95.75160587883988
 20
-105.6491929531884
 10
95.75160587883988
 20
-105.6491929531884
 10
95.75160587883988
 20
-105.6491929531884
 10
94.72358938604133
 20
-105.6491929531884
 10
94.72358938604133
 20
-105.6491929531884
 10
94.75528426450563
 20
-105.2915920418195
 10
94.82074107872538
 20
-105.2133883743043
 10
95.2059027539763
 20
-104.9150431052817
 10
95.46187334853037
 20
-104.7162610957827
 10
95.52733016275012
 20
-104.6483927147233
 10
95.52733016275012
 20
-104.5109334048619
 10
95.52733016275012
 20
-104.3924221201693
 10
95.45567217665692
 20
-104.2615084917298
 10
95.25895722444915
 20
-104.2615084917298
 10
94.99850800576426
 20
-104.2615084917298
 10
94.99023977659967
 20
-104.491985379693
 10
94.98576115246884
 20
-104.6084296070944
 10
94.98576115246884
 20
-104.6084296070944
 10
94.7618299459276
 20
-104.6084296070944
 10
94.7618299459276
 20
-104.6084296070944
 10
94.7700981750922
 20
-104.4813055836887
 10
94.78077797109647
 20
-104.3693399804181
 10
94.8610486959028
 20
-104.2508286957255
 10
94.97094724188227
 20
-104.0899427365643
 10
95.15732690763429
 20
-104.0561808008089
 10
95.27377113503573
 20
-104.0561808008089
 10
95.55075681204981
 20
-104.0561808008089
 10
95.75815156026185
 20
-104.2401488997212
 10
95.75815156026185
 20
-104.513000462153
 10
95.75815156026185
 20
-104.7417548023736
 10
95.6417073328604
 20
-104.8409735523488
 10
95.33302677738203
 20
-105.0673163257297
 97
        0
 97
        0
 75
     2
 76
     1
 98
        0
  0
ENDBLK
  5
13F
330
13C
100
AcDbEntity
  8
0
100
AcDbBlockEnd
  0
BLOCK
  5
146
330
144
100
AcDbEntity
  8
0
100
AcDbBlockBegin
  2
block 8
 70
     0
 10
0.0
 20
0.0
 30
0.0
  3
block 8
  1

  0
SPLINE
  5
148
330
144
100
AcDbEntity
  8
_U+30EC_U+30A4_U+30E4_U+30FC 1
370
     0
100
AcDbSpline
210
0.0
220
0.0
230
1.0
 70
    11
 71
     3
 72
    32
 73
    28
 74
     0
 42
0.0000000001
 43
0.0000000001
 12
1.0
 22
0.0
 32
0.0
 13
1.0
 23
0.0
 33
0.0
 40
0.0
 40
0.0
 40
0.0
 40
0.0
 40
1.0
 40
1.0
 40
1.0
 40
2.0
 40
2.0
 40
2.0
 40
3.0
 40
3.0
 40
3.0
 40
4.0
 40
4.0
 40
4.0
 40
5.0
 40
5.0
 40
5.0
 40
6.0
 40
6.0
 40
6.0
 40
7.0
 40
7.0
 40
7.0
 40
8.0
 40
8.0
 40
8.0
 40
9.0
 40
9.0
 40
9.0
 40
9.0
 10
75.65533038473201
 20
-105.6998358568216
 30
0.0
 10
75.13908282626731
 20
-105.6998358568216
 30
0.0
 10
75.13064234232846
 20
-105.1458645027934
 30
0.0
 10
75.13064234232846
 20
-104.9319240731594
 30
0.0
 10
75.13064234232846
 20
-104.7014471851962
 30
0.0
 10
75.1497626222716
 20
-104.0541137435177
 30
0.0
 10
75.69339868984402
 20
-104.0541137435177
 30
0.0
 10
75.86685924752635
 20
-104.0541137435177
 30
0.0
 10
76.1123223008504
 20
-104.1240491818683
 30
0.0
 10
76.1503906059624
 20
-104.4561563866464
 30
0.0
 10
76.1503906059624
 20
-104.4561563866464
 30
0.0
 10
75.93662243110265
 20
-104.4561563866464
 30
0.0
 10
75.93662243110265
 20
-104.4561563866464
 30
0.0
 10
75.92611488987264
 20
-104.3989678015912
 30
0.0
 10
75.89442001140834
 20
-104.2508286957255
 30
0.0
 10
75.69133163255286
 20
-104.2508286957255
 30
0.0
 10
75.39935979017794
 20
-104.2508286957255
 30
0.0
 10
75.35905217300052
 20
-104.5788017859213
 30
0.0
 10
75.34647757447935
 20
-104.7837849672936
 30
0.0
 10
75.4394951525811
 20
-104.7055812997785
 30
0.0
 10
75.50719127886626
 20
-104.6463256574322
 30
0.0
 10
75.68909232048745
 20
-104.6463256574322
 30
0.0
 10
75.86892630481749
 20
-104.6463256574322
 30
0.0
 10
76.17140568842242
 20
-104.754501655669
 30
0.0
 10
76.17140568842242
 20
-105.16067841338
 30
0.0
 10
76.17140568842242
 20
-105.4800387648626
 30
0.0
 10
75.97262367892351
 20
-105.6998358568216
 30
0.0
 10
75.65533038473201
 20
-105.6998358568216
 30
0.0
  0
SPLINE
  5
149
330
144
100
AcDbEntity
  8
_U+30EC_U+30A4_U+30E4_U+30FC 1
370
     0
100
AcDbSpline
210
0.0
220
0.0
230
1.0
 70
    11
 71
     3
 72
    17
 73
    13
 74
     0
 42
0.0000000001
 43
0.0000000001
 12
1.0
 22
0.0
 32
0.0
 13
1.0
 23
0.0
 33
0.0
 40
0.0
 40
0.0
 40
0.0
 40
0.0
 40
1.0
 40
1.0
 40
1.0
 40
2.0
 40
2.0
 40
2.0
 40
3.0
 40
3.0
 40
3.0
 40
4.0
 40
4.0
 40
4.0
 40
4.0
 10
75.67221135260972
 20
-104.8409735523488
 30
0.0
 10
75.40986733140795
 20
-104.8409735523488
 30
0.0
 10
75.37179902629595
 20
-105.0525024151431
 30
0.0
 10
75.37179902629595
 20
-105.1689466425446
 30
0.0
 10
75.37179902629595
 20
-105.3446465122923
 30
0.0
 10
75.4670559164631
 20
-105.5075995287446
 30
0.0
 10
75.65102401537544
 20
-105.5075995287446
 30
0.0
 10
75.77160235735919
 20
-105.5075995287446
 30
0.0
 10
75.94730222710693
 20
-105.4483438863983
 30
0.0
 10
75.94730222710693
 20
-105.1627454706711
 30
0.0
 10
75.94730222710693
 20
-104.9384697545814
 30
0.0
 10
75.80760360518005
 20
-104.8409735523488
 30
0.0
 10
75.67221135260972
 20
-104.8409735523488
 30
0.0
  0
HATCH
  5
14A
330
144
100
AcDbEntity
  8
_U+30EC_U+30A4_U+30E4_U+30FC 1
 62
   179
420
  2234388
100
AcDbHatch
 10
0.0
 20
0.0
 30
0.0
210
0.0
220
0.0
230
1.0
  2
SOLID
 70
     1
 71
     0
 91
        2
 92
        1
 93
        1
 72
     4
 94
        3
 73
     0
 74
     1
 95
       32
 96
       28
 40
0.0
 40
0.0
 40
0.0
 40
0.0
 40
1.0
 40
1.0
 40
1.0
 40
2.0
 40
2.0
 40
2.0
 40
3.0
 40
3.0
 40
3.0
 40
4.0
 40
4.0
 40
4.0
 40
5.0
 40
5.0
 40
5.0
 40
6.0
 40
6.0
 40
6.0
 40
7.0
 40
7.0
 40
7.0
 40
8.0
 40
8.0
 40
8.0
 40
9.0
 40
9.0
 40
9.0
 40
9.0
 10
75.65533038473201
 20
-105.6998358568216
 10
75.13908282626731
 20
-105.6998358568216
 10
75.13064234232846
 20
-105.1458645027934
 10
75.13064234232846
 20
-104.9319240731594
 10
75.13064234232846
 20
-104.7014471851962
 10
75.1497626222716
 20
-104.0541137435177
 10
75.69339868984402
 20
-104.0541137435177
 10
75.86685924752635
 20
-104.0541137435177
 10
76.1123223008504
 20
-104.1240491818683
 10
76.1503906059624
 20
-104.4561563866464
 10
76.1503906059624
 20
-104.4561563866464
 10
75.93662243110265
 20
-104.4561563866464
 10
75.93662243110265
 20
-104.4561563866464
 10
75.92611488987264
 20
-104.3989678015912
 10
75.89442001140834
 20
-104.2508286957255
 10
75.69133163255286
 20
-104.2508286957255
 10
75.39935979017794
 20
-104.2508286957255
 10
75.35905217300052
 20
-104.5788017859213
 10
75.34647757447935
 20
-104.7837849672936
 10
75.4394951525811
 20
-104.7055812997785
 10
75.50719127886626
 20
-104.6463256574322
 10
75.68909232048745
 20
-104.6463256574322
 10
75.86892630481749
 20
-104.6463256574322
 10
76.17140568842242
 20
-104.754501655669
 10
76.17140568842242
 20
-105.16067841338
 10
76.17140568842242
 20
-105.4800387648626
 10
75.97262367892351
 20
-105.6998358568216
 10
75.65533038473201
 20
-105.6998358568216
 97
        0
 97
        0
 92
        1
 93
        1
 72
     4
 94
        3
 73
     0
 74
     1
 95
       17
 96
       13
 40
0.0
 40
0.0
 40
0.0
 40
0.0
 40
1.0
 40
1.0
 40
1.0
 40
2.0
 40
2.0
 40
2.0
 40
3.0
 40
3.0
 40
3.0
 40
4.0
 40
4.0
 40
4.0
 40
4.0
 10
75.67221135260972
 20
-104.8409735523488
 10
75.40986733140795
 20
-104.8409735523488
 10
75.37179902629595
 20
-105.0525024151431
 10
75.37179902629595
 20
-105.1689466425446
 10
75.37179902629595
 20
-105.3446465122923
 10
75.4670559164631
 20
-105.5075995287446
 10
75.65102401537544
 20
-105.5075995287446
 10
75.77160235735919
 20
-105.5075995287446
 10
75.94730222710693
 20
-105.4483438863983
 10
75.94730222710693
 20
-105.1627454706711
 10
75.94730222710693
 20
-104.9384697545814
 10
75.80760360518005
 20
-104.8409735523488
 10
75.67221135260972
 20
-104.8409735523488
 97
        0
 97
        0
 75
     2
 76
     1
 98
        0
  0
ENDBLK
  5
147
330
144
100
AcDbEntity
  8
0
100
AcDbBlockEnd
  0
BLOCK
  5
14D
330
14B
100
AcDbEntity
  8
0
100
AcDbBlockBegin
  2
block 9
 70
     0
 10
0.0
 20
0.0
 30
0.0
  3
block 9
  1

  0
SPLINE
  5
14F
330
14B
100
AcDbEntity
  8
_U+30EC_U+30A4_U+30E4_U+30FC 1
370
     0
100
AcDbSpline
210
0.0
220
0.0
230
1.0
 70
    11
 71
     3
 72
    62
 73
    58
 74
     0
 42
0.0000000001
 43
0.0000000001
 12
1.0
 22
0.0
 32
0.0
 13
1.0
 23
0.0
 33
0.0
 40
0.0
 40
0.0
 40
0.0
 40
0.0
 40
1.0
 40
1.0
 40
1.0
 40
2.0
 40
2.0
 40
2.0
 40
3.0
 40
3.0
 40
3.0
 40
4.0
 40
4.0
 40
4.0
 40
5.0
 40
5.0
 40
5.0
 40
6.0
 40
6.0
 40
6.0
 40
7.0
 40
7.0
 40
7.0
 40
8.0
 40
8.0
 40
8.0
 40
9.0
 40
9.0
 40
9.0
 40
10.0
 40
10.0
 40
10.0
 40
11.0
 40
11.0
 40
11.0
 40
12.0
 40
12.0
 40
12.0
 40
13.0
 40
13.0
 40
13.0
 40
14.0
 40
14.0
 40
14.0
 40
15.0
 40
15.0
 40
15.0
 40
16.0
 40
16.0
 40
16.0
 40
17.0
 40
17.0
 40
17.0
 40
18.0
 40
18.0
 40
18.0
 40
19.0
 40
19.0
 40
19.0
 40
19.0
 10
86.47224118931945
 20
-126.7634941631876
 30
0.0
 10
86.37698429915228
 20
-126.7634941631876
 30
0.0
 10
86.15908200971023
 20
-126.7424790807276
 30
0.0
 10
86.03436955314419
 20
-126.5564439245241
 30
0.0
 10
85.96030000021132
 20
-126.4441338117049
 30
0.0
 10
85.95599363085475
 20
-126.3449150617298
 30
0.0
 10
85.95185951627245
 20
-126.2601657127926
 30
0.0
 10
85.95185951627245
 20
-126.2601657127926
 30
0.0
 10
86.17182886300566
 20
-126.2601657127926
 30
0.0
 10
86.17182886300566
 20
-126.2601657127926
 30
0.0
 10
86.17389592029681
 20
-126.3342352657255
 30
0.0
 10
86.18457571630108
 20
-126.568846268271
 30
0.0
 10
86.46793481996288
 20
-126.568846268271
 30
0.0
 10
86.60556638459862
 20
-126.568846268271
 30
0.0
 10
86.75783960504666
 20
-126.4992553394689
 30
0.0
 10
86.75783960504666
 20
-126.2708455087969
 30
0.0
 10
86.75783960504666
 20
-126.1544012813954
 30
0.0
 10
86.71977129993465
 20
-126.1058254350534
 30
0.0
 10
86.68807642147034
 20
-126.0741305565891
 30
0.0
 10
86.61400686853747
 20
-126.0000610036562
 30
0.0
 10
86.49756264113603
 20
-125.9873141503608
 30
0.0
 10
86.4426133681463
 20
-125.9873141503608
 30
0.0
 10
86.42366534297742
 20
-125.9873141503608
 30
0.0
 10
86.38766409515657
 20
-125.989381207652
 30
0.0
 10
86.36010333127456
 20
-125.9935153222343
 30
0.0
 10
86.36010333127456
 20
-125.9935153222343
 30
0.0
 10
86.36010333127456
 20
-125.7988674273176
 30
0.0
 10
86.36010333127456
 20
-125.7988674273176
 30
0.0
 10
86.39817163638658
 20
-125.8054131087396
 30
0.0
 10
86.44054631085514
 20
-125.8074801660308
 30
0.0
 10
86.44691973750285
 20
-125.8074801660308
 30
0.0
 10
86.51237655172261
 20
-125.8074801660308
 30
0.0
 10
86.71133081599578
 20
-125.7861205740222
 30
0.0
 10
86.71133081599578
 20
-125.5494425141856
 30
0.0
 10
86.71133081599578
 20
-125.3716755871467
 30
0.0
 10
86.58007267800777
 20
-125.3165540593827
 30
0.0
 10
86.47017413202829
 20
-125.3165540593827
 30
0.0
 10
86.20576305353536
 20
-125.3165540593827
 30
0.0
 10
86.19715031482224
 20
-125.5494425141856
 30
0.0
 10
86.19301620023994
 20
-125.6211005002788
 30
0.0
 10
86.19301620023994
 20
-125.6211005002788
 30
0.0
 10
85.98992782138447
 20
-125.6211005002788
 30
0.0
 10
85.98992782138447
 20
-125.6211005002788
 30
0.0
 10
85.99836830532332
 20
-125.4963880437127
 30
0.0
 10
86.02592906920533
 20
-125.1198391071749
 30
0.0
 10
86.48274873054946
 20
-125.1198391071749
 30
0.0
 10
86.70702444663922
 20
-125.1198391071749
 30
0.0
 10
86.94818113060671
 20
-125.2469631305806
 30
0.0
 10
86.94818113060671
 20
-125.5428968327636
 30
0.0
 10
86.94818113060671
 20
-125.7292764985156
 30
0.0
 10
86.85309649521382
 20
-125.8116142806131
 30
0.0
 10
86.7535332356901
 20
-125.8729369802505
 30
0.0
 10
86.8150281901018
 20
-125.9004977441325
 30
0.0
 10
86.99692923172299
 20
-125.9807684689388
 30
0.0
 10
86.99692923172299
 20
-126.2580986555015
 30
0.0
 10
86.99692923172299
 20
-126.596407032153
 30
0.0
 10
86.7493991211078
 20
-126.7634941631876
 30
0.0
 10
86.47224118931945
 20
-126.7634941631876
 30
0.0
  0
HATCH
  5
150
330
14B
100
AcDbEntity
  8
_U+30EC_U+30A4_U+30E4_U+30FC 1
 62
   179
420
  2234388
100
AcDbHatch
 10
0.0
 20
0.0
 30
0.0
210
0.0
220
0.0
230
1.0
  2
SOLID
 70
     1
 71
     0
 91
        1
 92
        1
 93
        1
 72
     4
 94
        3
 73
     0
 74
     1
 95
       62
 96
       58
 40
0.0
 40
0.0
 40
0.0
 40
0.0
 40
1.0
 40
1.0
 40
1.0
 40
2.0
 40
2.0
 40
2.0
 40
3.0
 40
3.0
 40
3.0
 40
4.0
 40
4.0
 40
4.0
 40
5.0
 40
5.0
 40
5.0
 40
6.0
 40
6.0
 40
6.0
 40
7.0
 40
7.0
 40
7.0
 40
8.0
 40
8.0
 40
8.0
 40
9.0
 40
9.0
 40
9.0
 40
10.0
 40
10.0
 40
10.0
 40
11.0
 40
11.0
 40
11.0
 40
12.0
 40
12.0
 40
12.0
 40
13.0
 40
13.0
 40
13.0
 40
14.0
 40
14.0
 40
14.0
 40
15.0
 40
15.0
 40
15.0
 40
16.0
 40
16.0
 40
16.0
 40
17.0
 40
17.0
 40
17.0
 40
18.0
 40
18.0
 40
18.0
 40
19.0
 40
19.0
 40
19.0
 40
19.0
 10
86.47224118931945
 20
-126.7634941631876
 10
86.37698429915228
 20
-126.7634941631876
 10
86.15908200971023
 20
-126.7424790807276
 10
86.03436955314419
 20
-126.5564439245241
 10
85.96030000021132
 20
-126.4441338117049
 10
85.95599363085475
 20
-126.3449150617298
 10
85.95185951627245
 20
-126.2601657127926
 10
85.95185951627245
 20
-126.2601657127926
 10
86.17182886300566
 20
-126.2601657127926
 10
86.17182886300566
 20
-126.2601657127926
 10
86.17389592029681
 20
-126.3342352657255
 10
86.18457571630108
 20
-126.568846268271
 10
86.46793481996288
 20
-126.568846268271
 10
86.60556638459862
 20
-126.568846268271
 10
86.75783960504666
 20
-126.4992553394689
 10
86.75783960504666
 20
-126.2708455087969
 10
86.75783960504666
 20
-126.1544012813954
 10
86.71977129993465
 20
-126.1058254350534
 10
86.68807642147034
 20
-126.0741305565891
 10
86.61400686853747
 20
-126.0000610036562
 10
86.49756264113603
 20
-125.9873141503608
 10
86.4426133681463
 20
-125.9873141503608
 10
86.42366534297742
 20
-125.9873141503608
 10
86.38766409515657
 20
-125.989381207652
 10
86.36010333127456
 20
-125.9935153222343
 10
86.36010333127456
 20
-125.9935153222343
 10
86.36010333127456
 20
-125.7988674273176
 10
86.36010333127456
 20
-125.7988674273176
 10
86.39817163638658
 20
-125.8054131087396
 10
86.44054631085514
 20
-125.8074801660308
 10
86.44691973750285
 20
-125.8074801660308
 10
86.51237655172261
 20
-125.8074801660308
 10
86.71133081599578
 20
-125.7861205740222
 10
86.71133081599578
 20
-125.5494425141856
 10
86.71133081599578
 20
-125.3716755871467
 10
86.58007267800777
 20
-125.3165540593827
 10
86.47017413202829
 20
-125.3165540593827
 10
86.20576305353536
 20
-125.3165540593827
 10
86.19715031482224
 20
-125.5494425141856
 10
86.19301620023994
 20
-125.6211005002788
 10
86.19301620023994
 20
-125.6211005002788
 10
85.98992782138447
 20
-125.6211005002788
 10
85.98992782138447
 20
-125.6211005002788
 10
85.99836830532332
 20
-125.4963880437127
 10
86.02592906920533
 20
-125.1198391071749
 10
86.48274873054946
 20
-125.1198391071749
 10
86.70702444663922
 20
-125.1198391071749
 10
86.94818113060671
 20
-125.2469631305806
 10
86.94818113060671
 20
-125.5428968327636
 10
86.94818113060671
 20
-125.7292764985156
 10
86.85309649521382
 20
-125.8116142806131
 10
86.7535332356901
 20
-125.8729369802505
 10
86.8150281901018
 20
-125.9004977441325
 10
86.99692923172299
 20
-125.9807684689388
 10
86.99692923172299
 20
-126.2580986555015
 10
86.99692923172299
 20
-126.596407032153
 10
86.7493991211078
 20
-126.7634941631876
 10
86.47224118931945
 20
-126.7634941631876
 97
        0
 97
        0
 75
     2
 76
     1
 98
        0
  0
SPLINE
  5
151
330
14B
100
AcDbEntity
  8
_U+30EC_U+30A4_U+30E4_U+30FC 1
370
     0
100
AcDbSpline
210
0.0
220
0.0
230
1.0
 70
    11
 71
     3
 72
    29
 73
    25
 74
     0
 42
0.0000000001
 43
0.0000000001
 12
1.0
 22
0.0
 32
0.0
 13
1.0
 23
0.0
 33
0.0
 40
0.0
 40
0.0
 40
0.0
 40
0.0
 40
1.0
 40
1.0
 40
1.0
 40
2.0
 40
2.0
 40
2.0
 40
3.0
 40
3.0
 40
3.0
 40
4.0
 40
4.0
 40
4.0
 40
5.0
 40
5.0
 40
5.0
 40
6.0
 40
6.0
 40
6.0
 40
7.0
 40
7.0
 40
7.0
 40
8.0
 40
8.0
 40
8.0
 40
8.0
 10
88.05526256479175
 20
-126.5350843325155
 30
0.0
 10
87.94743107610343
 20
-126.7445461380187
 30
0.0
 10
87.7739705184211
 20
-126.7634941631876
 30
0.0
 10
87.65752629101965
 20
-126.7634941631876
 30
0.0
 10
87.49681258663274
 20
-126.7634941631876
 30
0.0
 10
87.35504690741472
 20
-126.7169853741367
 30
0.0
 10
87.25979001724755
 20
-126.5350843325155
 30
0.0
 10
87.1562648979158
 20
-126.3404364375989
 30
0.0
 10
87.13714461797267
 20
-126.1037583777623
 30
0.0
 10
87.13714461797267
 20
-125.9408053613099
 30
0.0
 10
87.13714461797267
 20
-125.7968003700265
 30
0.0
 10
87.15402558585039
 20
-125.5449638900547
 30
0.0
 10
87.25979001724755
 20
-125.3461818805558
 30
0.0
 10
87.36779376071014
 20
-125.1432657564746
 30
0.0
 10
87.52850746509705
 20
-125.1198391071749
 30
0.0
 10
87.65752629101965
 20
-125.1198391071749
 30
0.0
 10
87.8161729381154
 20
-125.1198391071749
 30
0.0
 10
87.96000567462458
 20
-125.1642808389346
 30
0.0
 10
88.05526256479175
 20
-125.3461818805558
 30
0.0
 10
88.1546535695412
 20
-125.5387627181813
 30
0.0
 10
88.17790796406663
 20
-125.7671725488534
 30
0.0
 10
88.17790796406663
 20
-125.9408053613099
 30
0.0
 10
88.17790796406663
 20
-126.1120266069269
 30
0.0
 10
88.15689288160661
 20
-126.3425034948901
 30
0.0
 10
88.05526256479175
 20
-126.5350843325155
 30
0.0
  0
SPLINE
  5
152
330
14B
100
AcDbEntity
  8
_U+30EC_U+30A4_U+30E4_U+30FC 1
370
     0
100
AcDbSpline
210
0.0
220
0.0
230
1.0
 70
    11
 71
     3
 72
    17
 73
    13
 74
     0
 42
0.0000000001
 43
0.0000000001
 12
1.0
 22
0.0
 32
0.0
 13
1.0
 23
0.0
 33
0.0
 40
0.0
 40
0.0
 40
0.0
 40
0.0
 40
1.0
 40
1.0
 40
1.0
 40
2.0
 40
2.0
 40
2.0
 40
3.0
 40
3.0
 40
3.0
 40
4.0
 40
4.0
 40
4.0
 40
4.0
 10
87.65752629101965
 20
-125.3124199448004
 30
0.0
 10
87.4079291231133
 20
-125.3124199448004
 30
0.0
 10
87.36142033406243
 20
-125.5959513032364
 30
0.0
 10
87.36142033406243
 20
-125.9408053613099
 30
0.0
 10
87.36142033406243
 20
-126.2601657127926
 30
0.0
 10
87.3974215818833
 20
-126.568846268271
 30
0.0
 10
87.65752629101965
 20
-126.568846268271
 30
0.0
 10
87.90505640163485
 20
-126.568846268271
 30
0.0
 10
87.95380450275114
 20
-126.2877264766746
 30
0.0
 10
87.95380450275114
 20
-125.9408053613099
 30
0.0
 10
87.95380450275114
 20
-125.6211005002788
 30
0.0
 10
87.91556394286486
 20
-125.3124199448004
 30
0.0
 10
87.65752629101965
 20
-125.3124199448004
 30
0.0
  0
HATCH
  5
153
330
14B
100
AcDbEntity
  8
_U+30EC_U+30A4_U+30E4_U+30FC 1
 62
   179
420
  2234388
100
AcDbHatch
 10
0.0
 20
0.0
 30
0.0
210
0.0
220
0.0
230
1.0
  2
SOLID
 70
     1
 71
     0
 91
        2
 92
        1
 93
        1
 72
     4
 94
        3
 73
     0
 74
     1
 95
       29
 96
       25
 40
0.0
 40
0.0
 40
0.0
 40
0.0
 40
1.0
 40
1.0
 40
1.0
 40
2.0
 40
2.0
 40
2.0
 40
3.0
 40
3.0
 40
3.0
 40
4.0
 40
4.0
 40
4.0
 40
5.0
 40
5.0
 40
5.0
 40
6.0
 40
6.0
 40
6.0
 40
7.0
 40
7.0
 40
7.0
 40
8.0
 40
8.0
 40
8.0
 40
8.0
 10
88.05526256479175
 20
-126.5350843325155
 10
87.94743107610343
 20
-126.7445461380187
 10
87.7739705184211
 20
-126.7634941631876
 10
87.65752629101965
 20
-126.7634941631876
 10
87.49681258663274
 20
-126.7634941631876
 10
87.35504690741472
 20
-126.7169853741367
 10
87.25979001724755
 20
-126.5350843325155
 10
87.1562648979158
 20
-126.3404364375989
 10
87.13714461797267
 20
-126.1037583777623
 10
87.13714461797267
 20
-125.9408053613099
 10
87.13714461797267
 20
-125.7968003700265
 10
87.15402558585039
 20
-125.5449638900547
 10
87.25979001724755
 20
-125.3461818805558
 10
87.36779376071014
 20
-125.1432657564746
 10
87.52850746509705
 20
-125.1198391071749
 10
87.65752629101965
 20
-125.1198391071749
 10
87.8161729381154
 20
-125.1198391071749
 10
87.96000567462458
 20
-125.1642808389346
 10
88.05526256479175
 20
-125.3461818805558
 10
88.1546535695412
 20
-125.5387627181813
 10
88.17790796406663
 20
-125.7671725488534
 10
88.17790796406663
 20
-125.9408053613099
 10
88.17790796406663
 20
-126.1120266069269
 10
88.15689288160661
 20
-126.3425034948901
 10
88.05526256479175
 20
-126.5350843325155
 97
        0
 97
        0
 92
        1
 93
        1
 72
     4
 94
        3
 73
     0
 74
     1
 95
       17
 96
       13
 40
0.0
 40
0.0
 40
0.0
 40
0.0
 40
1.0
 40
1.0
 40
1.0
 40
2.0
 40
2.0
 40
2.0
 40
3.0
 40
3.0
 40
3.0
 40
4.0
 40
4.0
 40
4.0
 40
4.0
 10
87.65752629101965
 20
-125.3124199448004
 10
87.4079291231133
 20
-125.3124199448004
 10
87.36142033406243
 20
-125.5959513032364
 10
87.36142033406243
 20
-125.9408053613099
 10
87.36142033406243
 20
-126.2601657127926
 10
87.3974215818833
 20
-126.568846268271
 10
87.65752629101965
 20
-126.568846268271
 10
87.90505640163485
 20
-126.568846268271
 10
87.95380450275114
 20
-126.2877264766746
 10
87.95380450275114
 20
-125.9408053613099
 10
87.95380450275114
 20
-125.6211005002788
 10
87.91556394286486
 20
-125.3124199448004
 10
87.65752629101965
 20
-125.3124199448004
 97
        0
 97
        0
 75
     2
 76
     1
 98
        0
  0
SPLINE
  5
154
330
14B
100
AcDbEntity
  8
_U+30EC_U+30A4_U+30E4_U+30FC 1
370
     0
100
AcDbSpline
210
0.0
220
0.0
230
1.0
 70
    11
 71
     3
 72
    44
 73
    40
 74
     0
 42
0.0000000001
 43
0.0000000001
 12
1.0
 22
0.0
 32
0.0
 13
1.0
 23
0.0
 33
0.0
 40
0.0
 40
0.0
 40
0.0
 40
0.0
 40
1.0
 40
1.0
 40
1.0
 40
2.0
 40
2.0
 40
2.0
 40
3.0
 40
3.0
 40
3.0
 40
4.0
 40
4.0
 40
4.0
 40
5.0
 40
5.0
 40
5.0
 40
6.0
 40
6.0
 40
6.0
 40
7.0
 40
7.0
 40
7.0
 40
8.0
 40
8.0
 40
8.0
 40
9.0
 40
9.0
 40
9.0
 40
10.0
 40
10.0
 40
10.0
 40
11.0
 40
11.0
 40
11.0
 40
12.0
 40
12.0
 40
12.0
 40
13.0
 40
13.0
 40
13.0
 40
13.0
 10
89.34837915518027
 20
-126.7128512595544
 30
0.0
 10
89.3252970154291
 20
-126.6684095277947
 30
0.0
 10
89.30393742342055
 20
-126.6156995668704
 30
0.0
 10
89.30187036612939
 20
-126.3848781693586
 30
0.0
 10
89.2977362515471
 20
-126.1416544281
 30
0.0
 10
89.2384806092008
 20
-126.0717189897494
 30
0.0
 10
89.0607136821619
 20
-126.0717189897494
 30
0.0
 10
89.0607136821619
 20
-126.0717189897494
 30
0.0
 10
88.65246986715981
 20
-126.0717189897494
 30
0.0
 10
88.65246986715981
 20
-126.0717189897494
 30
0.0
 10
88.65246986715981
 20
-126.0717189897494
 30
0.0
 10
88.65246986715981
 20
-126.7128512595544
 30
0.0
 10
88.65246986715981
 20
-126.7128512595544
 30
0.0
 10
88.65246986715981
 20
-126.7128512595544
 30
0.0
 10
88.41751435506576
 20
-126.7128512595544
 30
0.0
 10
88.41751435506576
 20
-126.7128512595544
 30
0.0
 10
88.41751435506576
 20
-126.7128512595544
 30
0.0
 10
88.41751435506576
 20
-125.1684149535169
 30
0.0
 10
88.41751435506576
 20
-125.1684149535169
 30
0.0
 10
88.41751435506576
 20
-125.1684149535169
 30
0.0
 10
89.09240856062621
 20
-125.1684149535169
 30
0.0
 10
89.09240856062621
 20
-125.1684149535169
 30
0.0
 10
89.39936656836197
 20
-125.1684149535169
 30
0.0
 10
89.56645369939659
 20
-125.3399807086824
 30
0.0
 10
89.56645369939659
 20
-125.5959513032364
 30
0.0
 10
89.56645369939659
 20
-125.6465942068696
 30
0.0
 10
89.55784096068346
 20
-125.7292764985156
 30
0.0
 10
89.51339922892373
 20
-125.8095472233219
 30
0.0
 10
89.45414358657744
 20
-125.9132445974279
 30
0.0
 10
89.38868677235769
 20
-125.9321926225968
 30
0.0
 10
89.32736407272024
 20
-125.9490735904745
 30
0.0
 10
89.46482338258171
 20
-125.9914482649431
 30
0.0
 10
89.53269176364114
 20
-126.0400241112851
 30
0.0
 10
89.53682587822344
 20
-126.3552503481855
 30
0.0
 10
89.54095999280574
 20
-126.6260348533261
 30
0.0
 10
89.57678898585233
 20
-126.6577297317904
 30
0.0
 10
89.64465736691176
 20
-126.7128512595544
 30
0.0
 10
89.64465736691176
 20
-126.7128512595544
 30
0.0
 10
89.34837915518027
 20
-126.7128512595544
 30
0.0
 10
89.34837915518027
 20
-126.7128512595544
 30
0.0
  0
SPLINE
  5
155
330
14B
100
AcDbEntity
  8
_U+30EC_U+30A4_U+30E4_U+30FC 1
370
     0
100
AcDbSpline
210
0.0
220
0.0
230
1.0
 70
    11
 71
     3
 72
    20
 73
    16
 74
     0
 42
0.0000000001
 43
0.0000000001
 12
1.0
 22
0.0
 32
0.0
 13
1.0
 23
0.0
 33
0.0
 40
0.0
 40
0.0
 40
0.0
 40
0.0
 40
1.0
 40
1.0
 40
1.0
 40
2.0
 40
2.0
 40
2.0
 40
3.0
 40
3.0
 40
3.0
 40
4.0
 40
4.0
 40
4.0
 40
5.0
 40
5.0
 40
5.0
 40
5.0
 10
89.09688718475704
 20
-125.3799438163113
 30
0.0
 10
89.09688718475704
 20
-125.3799438163113
 30
0.0
 10
88.65246986715981
 20
-125.3799438163113
 30
0.0
 10
88.65246986715981
 20
-125.3799438163113
 30
0.0
 10
88.65246986715981
 20
-125.3799438163113
 30
0.0
 10
88.65246986715981
 20
-125.8601901269551
 30
0.0
 10
88.65246986715981
 20
-125.8601901269551
 30
0.0
 10
88.65246986715981
 20
-125.8601901269551
 30
0.0
 10
89.09447561791735
 20
-125.8601901269551
 30
0.0
 10
89.09447561791735
 20
-125.8601901269551
 30
0.0
 10
89.19403887744107
 20
-125.8601901269551
 30
0.0
 10
89.3294311300114
 20
-125.7840535167311
 30
0.0
 10
89.3294311300114
 20
-125.6128322711142
 30
0.0
 10
89.3294311300114
 20
-125.534628603599
 30
0.0
 10
89.29566919425595
 20
-125.3799438163113
 30
0.0
 10
89.09688718475704
 20
-125.3799438163113
 30
0.0
  0
HATCH
  5
156
330
14B
100
AcDbEntity
  8
_U+30EC_U+30A4_U+30E4_U+30FC 1
 62
   179
420
  2234388
100
AcDbHatch
 10
0.0
 20
0.0
 30
0.0
210
0.0
220
0.0
230
1.0
  2
SOLID
 70
     1
 71
     0
 91
        2
 92
        1
 93
        1
 72
     4
 94
        3
 73
     0
 74
     1
 95
       44
 96
       40
 40
0.0
 40
0.0
 40
0.0
 40
0.0
 40
1.0
 40
1.0
 40
1.0
 40
2.0
 40
2.0
 40
2.0
 40
3.0
 40
3.0
 40
3.0
 40
4.0
 40
4.0
 40
4.0
 40
5.0
 40
5.0
 40
5.0
 40
6.0
 40
6.0
 40
6.0
 40
7.0
 40
7.0
 40
7.0
 40
8.0
 40
8.0
 40
8.0
 40
9.0
 40
9.0
 40
9.0
 40
10.0
 40
10.0
 40
10.0
 40
11.0
 40
11.0
 40
11.0
 40
12.0
 40
12.0
 40
12.0
 40
13.0
 40
13.0
 40
13.0
 40
13.0
 10
89.34837915518027
 20
-126.7128512595544
 10
89.3252970154291
 20
-126.6684095277947
 10
89.30393742342055
 20
-126.6156995668704
 10
89.30187036612939
 20
-126.3848781693586
 10
89.2977362515471
 20
-126.1416544281
 10
89.2384806092008
 20
-126.0717189897494
 10
89.0607136821619
 20
-126.0717189897494
 10
89.0607136821619
 20
-126.0717189897494
 10
88.65246986715981
 20
-126.0717189897494
 10
88.65246986715981
 20
-126.0717189897494
 10
88.65246986715981
 20
-126.0717189897494
 10
88.65246986715981
 20
-126.7128512595544
 10
88.65246986715981
 20
-126.7128512595544
 10
88.65246986715981
 20
-126.7128512595544
 10
88.41751435506576
 20
-126.7128512595544
 10
88.41751435506576
 20
-126.7128512595544
 10
88.41751435506576
 20
-126.7128512595544
 10
88.41751435506576
 20
-125.1684149535169
 10
88.41751435506576
 20
-125.1684149535169
 10
88.41751435506576
 20
-125.1684149535169
 10
89.09240856062621
 20
-125.1684149535169
 10
89.09240856062621
 20
-125.1684149535169
 10
89.39936656836197
 20
-125.1684149535169
 10
89.56645369939659
 20
-125.3399807086824
 10
89.56645369939659
 20
-125.5959513032364
 10
89.56645369939659
 20
-125.6465942068696
 10
89.55784096068346
 20
-125.7292764985156
 10
89.51339922892373
 20
-125.8095472233219
 10
89.45414358657744
 20
-125.9132445974279
 10
89.38868677235769
 20
-125.9321926225968
 10
89.32736407272024
 20
-125.9490735904745
 10
89.46482338258171
 20
-125.9914482649431
 10
89.53269176364114
 20
-126.0400241112851
 10
89.53682587822344
 20
-126.3552503481855
 10
89.54095999280574
 20
-126.6260348533261
 10
89.57678898585233
 20
-126.6577297317904
 10
89.64465736691176
 20
-126.7128512595544
 10
89.64465736691176
 20
-126.7128512595544
 10
89.34837915518027
 20
-126.7128512595544
 10
89.34837915518027
 20
-126.7128512595544
 97
        0
 97
        0
 92
        1
 93
        1
 72
     4
 94
        3
 73
     0
 74
     1
 95
       20
 96
       16
 40
0.0
 40
0.0
 40
0.0
 40
0.0
 40
1.0
 40
1.0
 40
1.0
 40
2.0
 40
2.0
 40
2.0
 40
3.0
 40
3.0
 40
3.0
 40
4.0
 40
4.0
 40
4.0
 40
5.0
 40
5.0
 40
5.0
 40
5.0
 10
89.09688718475704
 20
-125.3799438163113
 10
89.09688718475704
 20
-125.3799438163113
 10
88.65246986715981
 20
-125.3799438163113
 10
88.65246986715981
 20
-125.3799438163113
 10
88.65246986715981
 20
-125.3799438163113
 10
88.65246986715981
 20
-125.8601901269551
 10
88.65246986715981
 20
-125.8601901269551
 10
88.65246986715981
 20
-125.8601901269551
 10
89.09447561791735
 20
-125.8601901269551
 10
89.09447561791735
 20
-125.8601901269551
 10
89.19403887744107
 20
-125.8601901269551
 10
89.3294311300114
 20
-125.7840535167311
 10
89.3294311300114
 20
-125.6128322711142
 10
89.3294311300114
 20
-125.534628603599
 10
89.29566919425595
 20
-125.3799438163113
 10
89.09688718475704
 20
-125.3799438163113
 97
        0
 97
        0
 75
     2
 76
     1
 98
        0
  0
ENDBLK
  5
14E
330
14B
100
AcDbEntity
  8
0
100
AcDbBlockEnd
  0
BLOCK
  5
159
330
157
100
AcDbEntity
  8
0
100
AcDbBlockBegin
  2
block 10
 70
     0
 10
0.0
 20
0.0
 30
0.0
  3
block 10
  1

  0
SPLINE
  5
15B
330
157
100
AcDbEntity
  8
_U+30EC_U+30A4_U+30E4_U+30FC 1
370
     0
100
AcDbSpline
210
0.0
220
0.0
230
1.0
 70
    11
 71
     3
 72
   182
 73
   178
 74
     0
 42
0.0000000001
 43
0.0000000001
 12
1.0
 22
0.0
 32
0.0
 13
1.0
 23
0.0
 33
0.0
 40
0.0
 40
0.0
 40
0.0
 40
0.0
 40
1.0
 40
1.0
 40
1.0
 40
2.0
 40
2.0
 40
2.0
 40
3.0
 40
3.0
 40
3.0
 40
4.0
 40
4.0
 40
4.0
 40
5.0
 40
5.0
 40
5.0
 40
6.0
 40
6.0
 40
6.0
 40
7.0
 40
7.0
 40
7.0
 40
8.0
 40
8.0
 40
8.0
 40
9.0
 40
9.0
 40
9.0
 40
10.0
 40
10.0
 40
10.0
 40
11.0
 40
11.0
 40
11.0
 40
12.0
 40
12.0
 40
12.0
 40
13.0
 40
13.0
 40
13.0
 40
14.0
 40
14.0
 40
14.0
 40
15.0
 40
15.0
 40
15.0
 40
16.0
 40
16.0
 40
16.0
 40
17.0
 40
17.0
 40
17.0
 40
18.0
 40
18.0
 40
18.0
 40
19.0
 40
19.0
 40
19.0
 40
20.0
 40
20.0
 40
20.0
 40
21.0
 40
21.0
 40
21.0
 40
22.0
 40
22.0
 40
22.0
 40
23.0
 40
23.0
 40
23.0
 40
24.0
 40
24.0
 40
24.0
 40
25.0
 40
25.0
 40
25.0
 40
26.0
 40
26.0
 40
26.0
 40
27.0
 40
27.0
 40
27.0
 40
28.0
 40
28.0
 40
28.0
 40
29.0
 40
29.0
 40
29.0
 40
30.0
 40
30.0
 40
30.0
 40
31.0
 40
31.0
 40
31.0
 40
32.0
 40
32.0
 40
32.0
 40
33.0
 40
33.0
 40
33.0
 40
34.0
 40
34.0
 40
34.0
 40
35.0
 40
35.0
 40
35.0
 40
36.0
 40
36.0
 40
36.0
 40
37.0
 40
37.0
 40
37.0
 40
38.0
 40
38.0
 40
38.0
 40
39.0
 40
39.0
 40
39.0
 40
40.0
 40
40.0
 40
40.0
 40
41.0
 40
41.0
 40
41.0
 40
42.0
 40
42.0
 40
42.0
 40
43.0
 40
43.0
 40
43.0
 40
44.0
 40
44.0
 40
44.0
 40
45.0
 40
45.0
 40
45.0
 40
46.0
 40
46.0
 40
46.0
 40
47.0
 40
47.0
 40
47.0
 40
48.0
 40
48.0
 40
48.0
 40
49.0
 40
49.0
 40
49.0
 40
50.0
 40
50.0
 40
50.0
 40
51.0
 40
51.0
 40
51.0
 40
52.0
 40
52.0
 40
52.0
 40
53.0
 40
53.0
 40
53.0
 40
54.0
 40
54.0
 40
54.0
 40
55.0
 40
55.0
 40
55.0
 40
56.0
 40
56.0
 40
56.0
 40
57.0
 40
57.0
 40
57.0
 40
58.0
 40
58.0
 40
58.0
 40
59.0
 40
59.0
 40
59.0
 40
59.0
 10
74.22819957996725
 20
-144.533813440429
 30
0.0
 10
74.22819957996725
 20
-144.533813440429
 30
0.0
 10
74.35928546318101
 20
-144.6416449291174
 30
0.0
 10
74.35928546318101
 20
-144.6416449291174
 30
0.0
 10
74.37840574312415
 20
-144.656458839704
 30
0.0
 10
74.3846069149976
 20
-144.6626600115774
 30
0.0
 10
74.3846069149976
 20
-144.6733398075817
 30
0.0
 10
74.3846069149976
 20
-144.6988335141725
 30
0.0
 10
74.35928546318101
 20
-144.7009005714637
 30
0.0
 10
74.34447155259444
 20
-144.7009005714637
 30
0.0
 10
74.32552352742557
 20
-144.7009005714637
 30
0.0
 10
74.30433619019128
 20
-144.6988335141725
 30
0.0
 10
74.28745522231355
 20
-144.6967664568814
 30
0.0
 10
74.22819957996725
 20
-144.76015621381
 30
0.0
 10
74.15826414161668
 20
-144.8128661747343
 30
0.0
 10
74.1329426898001
 20
-144.8321587094517
 30
0.0
 10
74.30640324748244
 20
-144.9272433448446
 30
0.0
 10
74.4121676788796
 20
-144.9461913700135
 30
0.0
 10
74.60888263108737
 20
-144.9716850766043
 30
0.0
 10
74.60888263108737
 20
-144.9716850766043
 30
0.0
 10
74.51999916756792
 20
-145.1453178890609
 30
0.0
 10
74.51999916756792
 20
-145.1453178890609
 30
0.0
 10
74.37203231647644
 20
-145.1218912397612
 30
0.0
 10
74.17945147885098
 20
-145.0901963612969
 30
0.0
 10
73.94260116424005
 20
-144.9165635488403
 30
0.0
 10
73.76914060655771
 20
-144.787716977692
 30
0.0
 10
73.69507105362484
 20
-144.6733398075817
 30
0.0
 10
73.63150904192199
 20
-144.5527614655979
 30
0.0
 10
73.55967880105453
 20
-144.6185627893662
 30
0.0
 10
73.47923582147395
 20
-144.6692056929994
 30
0.0
 10
73.38828530066336
 20
-144.7219156539237
 30
0.0
 10
73.38828530066336
 20
-144.7219156539237
 30
0.0
 10
73.38828530066336
 20
-144.912429434258
 30
0.0
 10
73.38828530066336
 20
-144.912429434258
 30
0.0
 10
73.5405585211114
 20
-144.8893472945068
 30
0.0
 10
73.62944198463084
 20
-144.8679877024983
 30
0.0
 10
73.81358233831745
 20
-144.8256130280297
 30
0.0
 10
73.81358233831745
 20
-144.8256130280297
 30
0.0
 10
73.79652911566545
 20
-144.9906331017732
 30
0.0
 10
73.79652911566545
 20
-144.9906331017732
 30
0.0
 10
73.51317001200366
 20
-145.0540228587018
 30
0.0
 10
73.14919567398701
 20
-145.1112114437569
 30
0.0
 10
72.99898951083011
 20
-145.1305039784743
 30
0.0
 10
72.98004148566125
 20
-145.1704670861032
 30
0.0
 10
72.96316051778352
 20
-145.1938937354029
 30
0.0
 10
72.93559975390151
 20
-145.1938937354029
 30
0.0
 10
72.91234535937609
 20
-145.1938937354029
 30
0.0
 10
72.90597193272838
 20
-145.1642659142298
 30
0.0
 10
72.90390487543722
 20
-145.1453178890609
 30
0.0
 10
72.90390487543722
 20
-145.1453178890609
 30
0.0
 10
72.87841116884637
 20
-144.9758191911866
 30
0.0
 10
72.87841116884637
 20
-144.9758191911866
 30
0.0
 10
72.9926160841824
 20
-144.9696180193131
 30
0.0
 10
73.1069932542927
 20
-144.9630723378912
 30
0.0
 10
73.2020778896856
 20
-144.9461913700135
 30
0.0
 10
73.2020778896856
 20
-144.9461913700135
 30
0.0
 10
73.2020778896856
 20
-144.8173447988651
 30
0.0
 10
73.2020778896856
 20
-144.8173447988651
 30
0.0
 10
73.10061982764499
 20
-144.8597194733337
 30
0.0
 10
72.95678709113581
 20
-144.91897511568
 30
0.0
 10
72.81071504256121
 20
-144.9527370514354
 30
0.0
 10
72.81071504256121
 20
-144.9527370514354
 30
0.0
 10
72.68600258599517
 20
-144.7749701243965
 30
0.0
 10
72.68600258599517
 20
-144.7749701243965
 30
0.0
 10
72.77695310680576
 20
-144.7687689525231
 30
0.0
 10
72.96092120571811
 20
-144.7560220992277
 30
0.0
 10
73.20001083239444
 20
-144.6354437572439
 30
0.0
 10
73.29733477985275
 20
-144.5865234013534
 30
0.0
 10
73.34591062619478
 20
-144.5465602937245
 30
0.0
 10
73.36503090613792
 20
-144.5317463831379
 30
0.0
 10
73.36503090613792
 20
-144.5317463831379
 30
0.0
 10
73.32058917437818
 20
-144.5317463831379
 30
0.0
 10
73.32058917437818
 20
-144.5317463831379
 30
0.0
 10
73.1808905524513
 20
-144.5317463831379
 30
0.0
 10
72.89322507943295
 20
-144.5358804977202
 30
0.0
 10
72.68376327392976
 20
-144.5444932364333
 30
0.0
 10
72.68376327392976
 20
-144.5444932364333
 30
0.0
 10
72.68376327392976
 20
-144.3836072772721
 30
0.0
 10
72.68376327392976
 20
-144.3836072772721
 30
0.0
 10
72.8952921367241
 20
-144.3898084491456
 30
0.0
 10
73.10906031158385
 20
-144.3963541305676
 30
0.0
 10
73.32058917437818
 20
-144.3963541305676
 30
0.0
 10
73.32058917437818
 20
-144.3963541305676
 30
0.0
 10
73.55761174376337
 20
-144.3963541305676
 30
0.0
 10
73.55761174376337
 20
-144.3963541305676
 30
0.0
 10
73.55761174376337
 20
-144.3963541305676
 30
0.0
 10
73.55761174376337
 20
-144.3116047816305
 30
0.0
 10
73.55761174376337
 20
-144.3116047816305
 30
0.0
 10
73.55761174376337
 20
-144.3116047816305
 30
0.0
 10
73.3862182433722
 20
-144.3116047816305
 30
0.0
 10
73.3862182433722
 20
-144.3116047816305
 30
0.0
 10
73.21913111233758
 20
-144.3116047816305
 30
0.0
 10
73.0518717265287
 20
-144.3181504630524
 30
0.0
 10
72.88478459549408
 20
-144.3243516349259
 30
0.0
 10
72.88478459549408
 20
-144.3243516349259
 30
0.0
 10
72.88478459549408
 20
-144.1762125290601
 30
0.0
 10
72.88478459549408
 20
-144.1762125290601
 30
0.0
 10
73.01604273348211
 20
-144.1803466436424
 30
0.0
 10
73.12387422217043
 20
-144.1803466436424
 30
0.0
 10
73.3862182433722
 20
-144.1803466436424
 30
0.0
 10
73.3862182433722
 20
-144.1803466436424
 30
0.0
 10
73.55761174376337
 20
-144.1803466436424
 30
0.0
 10
73.55761174376337
 20
-144.1803466436424
 30
0.0
 10
73.55761174376337
 20
-144.1803466436424
 30
0.0
 10
73.55761174376337
 20
-144.0959418042538
 30
0.0
 10
73.55761174376337
 20
-144.0959418042538
 30
0.0
 10
73.55761174376337
 20
-144.0959418042538
 30
0.0
 10
73.43686114700537
 20
-144.0959418042538
 30
0.0
 10
73.43686114700537
 20
-144.0959418042538
 30
0.0
 10
73.3310967156082
 20
-144.0959418042538
 30
0.0
 10
73.05617809588526
 20
-144.0959418042538
 30
0.0
 10
72.96522757507466
 20
-144.1066216002581
 30
0.0
 10
72.97573511630468
 20
-144.0642469257895
 30
0.0
 10
72.98210854295239
 20
-143.9391899596749
 30
0.0
 10
72.98210854295239
 20
-143.9309217305103
 30
0.0
 10
72.98210854295239
 20
-143.9309217305103
 30
0.0
 10
72.98210854295239
 20
-143.788983796518
 30
0.0
 10
72.98210854295239
 20
-143.788983796518
 30
0.0
 10
72.98210854295239
 20
-143.7383408928849
 30
0.0
 10
72.98004148566125
 20
-143.6218966654834
 30
0.0
 10
72.97366805901353
 20
-143.5733208191414
 30
0.0
 10
73.08580591705841
 20
-143.588134729728
 30
0.0
 10
73.12387422217043
 20
-143.588134729728
 30
0.0
 10
73.45167505759194
 20
-143.588134729728
 30
0.0
 10
73.45167505759194
 20
-143.588134729728
 30
0.0
 10
73.92778725365348
 20
-143.588134729728
 30
0.0
 10
73.92778725365348
 20
-143.588134729728
 30
0.0
 10
74.04405922628065
 20
-143.588134729728
 30
0.0
 10
74.2197590960284
 20
-143.5860676724368
 30
0.0
 10
74.32965764200787
 20
-143.5733208191414
 30
0.0
 10
74.321217158069
 20
-143.6284423469054
 30
0.0
 10
74.31915010077786
 20
-143.691832103834
 30
0.0
 10
74.31915010077786
 20
-143.7066460144206
 30
0.0
 10
74.31915010077786
 20
-143.7066460144206
 30
0.0
 10
74.31915010077786
 20
-143.9119737053415
 30
0.0
 10
74.31915010077786
 20
-143.9119737053415
 30
0.0
 10
74.31915010077786
 20
-143.9436685838058
 30
0.0
 10
74.32328421536016
 20
-144.0790608363761
 30
0.0
 10
74.32552352742557
 20
-144.1066216002581
 30
0.0
 10
74.25145397449269
 20
-144.1021429761273
 30
0.0
 10
74.2197590960284
 20
-144.0959418042538
 30
0.0
 10
73.92141382700576
 20
-144.0959418042538
 30
0.0
 10
73.92141382700576
 20
-144.0959418042538
 30
0.0
 10
73.73727347331916
 20
-144.0959418042538
 30
0.0
 10
73.73727347331916
 20
-144.0959418042538
 30
0.0
 10
73.73727347331916
 20
-144.0959418042538
 30
0.0
 10
73.73727347331916
 20
-144.1803466436424
 30
0.0
 10
73.73727347331916
 20
-144.1803466436424
 30
0.0
 10
73.73727347331916
 20
-144.1803466436424
 30
0.0
 10
73.90453285912804
 20
-144.1803466436424
 30
0.0
 10
73.90453285912804
 20
-144.1803466436424
 30
0.0
 10
74.14345023103012
 20
-144.1803466436424
 30
0.0
 10
74.25558808907499
 20
-144.1803466436424
 30
0.0
 10
74.40579425223189
 20
-144.1762125290601
 30
0.0
 10
74.40579425223189
 20
-144.1762125290601
 30
0.0
 10
74.40579425223189
 20
-144.3243516349259
 30
0.0
 10
74.40579425223189
 20
-144.3243516349259
 30
0.0
 10
74.19857175879412
 20
-144.3157388962127
 30
0.0
 10
74.01236434781636
 20
-144.3116047816305
 30
0.0
 10
73.90453285912804
 20
-144.3116047816305
 30
0.0
 10
73.90453285912804
 20
-144.3116047816305
 30
0.0
 10
73.73727347331916
 20
-144.3116047816305
 30
0.0
 10
73.73727347331916
 20
-144.3116047816305
 30
0.0
 10
73.73727347331916
 20
-144.3116047816305
 30
0.0
 10
73.73727347331916
 20
-144.3963541305676
 30
0.0
 10
73.73727347331916
 20
-144.3963541305676
 30
0.0
 10
73.73727347331916
 20
-144.3963541305676
 30
0.0
 10
73.96998967334778
 20
-144.3963541305676
 30
0.0
 10
73.96998967334778
 20
-144.3963541305676
 30
0.0
 10
74.18582490549869
 20
-144.3963541305676
 30
0.0
 10
74.39942082558417
 20
-144.3898084491456
 30
0.0
 10
74.61525605773508
 20
-144.3836072772721
 30
0.0
 10
74.61525605773508
 20
-144.3836072772721
 30
0.0
 10
74.61525605773508
 20
-144.5444932364333
 30
0.0
 10
74.61525605773508
 20
-144.5444932364333
 30
0.0
 10
74.48830428910362
 20
-144.5400146123025
 30
0.0
 10
74.46298283728703
 20
-144.5400146123025
 30
0.0
 10
74.22819957996725
 20
-144.533813440429
 30
0.0
  0
SPLINE
  5
15C
330
157
100
AcDbEntity
  8
_U+30EC_U+30A4_U+30E4_U+30FC 1
370
     0
100
AcDbSpline
210
0.0
220
0.0
230
1.0
 70
    11
 71
     3
 72
    47
 73
    43
 74
     0
 42
0.0000000001
 43
0.0000000001
 12
1.0
 22
0.0
 32
0.0
 13
1.0
 23
0.0
 33
0.0
 40
0.0
 40
0.0
 40
0.0
 40
0.0
 40
1.0
 40
1.0
 40
1.0
 40
2.0
 40
2.0
 40
2.0
 40
3.0
 40
3.0
 40
3.0
 40
4.0
 40
4.0
 40
4.0
 40
5.0
 40
5.0
 40
5.0
 40
6.0
 40
6.0
 40
6.0
 40
7.0
 40
7.0
 40
7.0
 40
8.0
 40
8.0
 40
8.0
 40
9.0
 40
9.0
 40
9.0
 40
10.0
 40
10.0
 40
10.0
 40
11.0
 40
11.0
 40
11.0
 40
12.0
 40
12.0
 40
12.0
 40
13.0
 40
13.0
 40
13.0
 40
14.0
 40
14.0
 40
14.0
 40
14.0
 10
73.96378850147434
 20
-143.5140651767951
 30
0.0
 10
73.96378850147434
 20
-143.5140651767951
 30
0.0
 10
73.33333602767361
 20
-143.5140651767951
 30
0.0
 10
73.33333602767361
 20
-143.5140651767951
 30
0.0
 10
73.12800833675273
 20
-143.5140651767951
 30
0.0
 10
72.92078584331495
 20
-143.5181992913774
 30
0.0
 10
72.71563040716832
 20
-143.5247449727994
 30
0.0
 10
72.71563040716832
 20
-143.5247449727994
 30
0.0
 10
72.71563040716832
 20
-143.3531792176339
 30
0.0
 10
72.71563040716832
 20
-143.3531792176339
 30
0.0
 10
72.90597193272838
 20
-143.3638590136382
 30
0.0
 10
73.13231470610928
 20
-143.3638590136382
 30
0.0
 10
73.33333602767361
 20
-143.3638590136382
 30
0.0
 10
73.33333602767361
 20
-143.3638590136382
 30
0.0
 10
73.5469319477591
 20
-143.3638590136382
 30
0.0
 10
73.5469319477591
 20
-143.3638590136382
 30
0.0
 10
73.53849146382024
 20
-143.2560275249499
 30
0.0
 10
73.5364244065291
 20
-143.2432806716545
 30
0.0
 10
73.53005097988138
 20
-143.2053846213167
 30
0.0
 10
73.53005097988138
 20
-143.2053846213167
 30
0.0
 10
73.7839545171443
 20
-143.2263997037767
 30
0.0
 10
73.7839545171443
 20
-143.2263997037767
 30
0.0
 10
73.80083548502202
 20
-143.2284667610679
 30
0.0
 10
73.8220228222563
 20
-143.230533818359
 30
0.0
 10
73.8220228222563
 20
-143.2539604676587
 30
0.0
 10
73.8220228222563
 20
-143.2729084928276
 30
0.0
 10
73.81564939560859
 20
-143.2770426074099
 30
0.0
 10
73.75639375326229
 20
-143.3087374858742
 30
0.0
 10
73.75432669597114
 20
-143.3173502245873
 30
0.0
 10
73.75432669597114
 20
-143.3576578417648
 30
0.0
 10
73.75432669597114
 20
-143.3638590136382
 30
0.0
 10
73.75432669597114
 20
-143.3638590136382
 30
0.0
 10
73.96378850147434
 20
-143.3638590136382
 30
0.0
 10
73.96378850147434
 20
-143.3638590136382
 30
0.0
 10
74.16257051097325
 20
-143.3638590136382
 30
0.0
 10
74.39528671100187
 20
-143.3638590136382
 30
0.0
 10
74.58786754862734
 20
-143.3531792176339
 30
0.0
 10
74.58786754862734
 20
-143.3531792176339
 30
0.0
 10
74.58786754862734
 20
-143.5247449727994
 30
0.0
 10
74.58786754862734
 20
-143.5247449727994
 30
0.0
 10
74.32965764200787
 20
-143.5161322340863
 30
0.0
 10
74.09056801533153
 20
-143.5140651767951
 30
0.0
 10
73.96378850147434
 20
-143.5140651767951
 30
0.0
  0
POLYLINE
  5
15D
330
157
100
AcDbEntity
  8
_U+30EC_U+30A4_U+30E4_U+30FC 1
370
     0
100
AcDb2dPolyline
 66
     1
 10
0.0
 20
0.0
 30
0.0
  0
VERTEX
  5
15E
330
15D
100
AcDbEntity
  8
_U+30EC_U+30A4_U+30E4_U+30FC 1
370
     0
100
AcDbVertex
100
AcDb2dVertex
 10
73.55761174376337
 20
-143.7066460144206
 30
0.0
  0
VERTEX
  5
15F
330
15D
100
AcDbEntity
  8
_U+30EC_U+30A4_U+30E4_U+30FC 1
370
     0
100
AcDbVertex
100
AcDb2dVertex
 10
73.16400958457359
 20
-143.7066460144206
 30
0.0
  0
VERTEX
  5
160
330
15D
100
AcDbEntity
  8
_U+30EC_U+30A4_U+30E4_U+30FC 1
370
     0
100
AcDbVertex
100
AcDb2dVertex
 10
73.16400958457359
 20
-143.788983796518
 30
0.0
  0
VERTEX
  5
161
330
15D
100
AcDbEntity
  8
_U+30EC_U+30A4_U+30E4_U+30FC 1
370
     0
100
AcDbVertex
100
AcDb2dVertex
 10
73.55761174376337
 20
-143.788983796518
 30
0.0
  0
VERTEX
  5
162
330
15D
100
AcDbEntity
  8
_U+30EC_U+30A4_U+30E4_U+30FC 1
370
     0
100
AcDbVertex
100
AcDb2dVertex
 10
73.55761174376337
 20
-143.7066460144206
 30
0.0
  0
SEQEND
  5
163
330
15D
100
AcDbEntity
  8
_U+30EC_U+30A4_U+30E4_U+30FC 1
370
     0
  0
POLYLINE
  5
164
330
157
100
AcDbEntity
  8
_U+30EC_U+30A4_U+30E4_U+30FC 1
370
     0
100
AcDb2dPolyline
 66
     1
 10
0.0
 20
0.0
 30
0.0
  0
VERTEX
  5
165
330
164
100
AcDbEntity
  8
_U+30EC_U+30A4_U+30E4_U+30FC 1
370
     0
100
AcDbVertex
100
AcDb2dVertex
 10
73.55761174376337
 20
-143.899226852046
 30
0.0
  0
VERTEX
  5
166
330
164
100
AcDbEntity
  8
_U+30EC_U+30A4_U+30E4_U+30FC 1
370
     0
100
AcDbVertex
100
AcDb2dVertex
 10
73.16400958457359
 20
-143.899226852046
 30
0.0
  0
VERTEX
  5
167
330
164
100
AcDbEntity
  8
_U+30EC_U+30A4_U+30E4_U+30FC 1
370
     0
100
AcDbVertex
100
AcDb2dVertex
 10
73.16400958457359
 20
-143.9794975768524
 30
0.0
  0
VERTEX
  5
168
330
164
100
AcDbEntity
  8
_U+30EC_U+30A4_U+30E4_U+30FC 1
370
     0
100
AcDbVertex
100
AcDb2dVertex
 10
73.55761174376337
 20
-143.9794975768524
 30
0.0
  0
VERTEX
  5
169
330
164
100
AcDbEntity
  8
_U+30EC_U+30A4_U+30E4_U+30FC 1
370
     0
100
AcDbVertex
100
AcDb2dVertex
 10
73.55761174376337
 20
-143.899226852046
 30
0.0
  0
SEQEND
  5
16A
330
164
100
AcDbEntity
  8
_U+30EC_U+30A4_U+30E4_U+30FC 1
370
     0
  0
POLYLINE
  5
16B
330
157
100
AcDbEntity
  8
_U+30EC_U+30A4_U+30E4_U+30FC 1
370
     0
100
AcDb2dPolyline
 66
     1
 10
0.0
 20
0.0
 30
0.0
  0
VERTEX
  5
16C
330
16B
100
AcDbEntity
  8
_U+30EC_U+30A4_U+30E4_U+30FC 1
370
     0
100
AcDbVertex
100
AcDb2dVertex
 10
74.1329426898001
 20
-143.7066460144206
 30
0.0
  0
VERTEX
  5
16D
330
16B
100
AcDbEntity
  8
_U+30EC_U+30A4_U+30E4_U+30FC 1
370
     0
100
AcDbVertex
100
AcDb2dVertex
 10
73.73727347331916
 20
-143.7066460144206
 30
0.0
  0
VERTEX
  5
16E
330
16B
100
AcDbEntity
  8
_U+30EC_U+30A4_U+30E4_U+30FC 1
370
     0
100
AcDbVertex
100
AcDb2dVertex
 10
73.73727347331916
 20
-143.788983796518
 30
0.0
  0
VERTEX
  5
16F
330
16B
100
AcDbEntity
  8
_U+30EC_U+30A4_U+30E4_U+30FC 1
370
     0
100
AcDbVertex
100
AcDb2dVertex
 10
74.1329426898001
 20
-143.788983796518
 30
0.0
  0
VERTEX
  5
170
330
16B
100
AcDbEntity
  8
_U+30EC_U+30A4_U+30E4_U+30FC 1
370
     0
100
AcDbVertex
100
AcDb2dVertex
 10
74.1329426898001
 20
-143.7066460144206
 30
0.0
  0
SEQEND
  5
171
330
16B
100
AcDbEntity
  8
_U+30EC_U+30A4_U+30E4_U+30FC 1
370
     0
  0
POLYLINE
  5
172
330
157
100
AcDbEntity
  8
_U+30EC_U+30A4_U+30E4_U+30FC 1
370
     0
100
AcDb2dPolyline
 66
     1
 10
0.0
 20
0.0
 30
0.0
  0
VERTEX
  5
173
330
172
100
AcDbEntity
  8
_U+30EC_U+30A4_U+30E4_U+30FC 1
370
     0
100
AcDbVertex
100
AcDb2dVertex
 10
74.1329426898001
 20
-143.899226852046
 30
0.0
  0
VERTEX
  5
174
330
172
100
AcDbEntity
  8
_U+30EC_U+30A4_U+30E4_U+30FC 1
370
     0
100
AcDbVertex
100
AcDb2dVertex
 10
73.73727347331916
 20
-143.899226852046
 30
0.0
  0
VERTEX
  5
175
330
172
100
AcDbEntity
  8
_U+30EC_U+30A4_U+30E4_U+30FC 1
370
     0
100
AcDbVertex
100
AcDb2dVertex
 10
73.73727347331916
 20
-143.9794975768524
 30
0.0
  0
VERTEX
  5
176
330
172
100
AcDbEntity
  8
_U+30EC_U+30A4_U+30E4_U+30FC 1
370
     0
100
AcDbVertex
100
AcDb2dVertex
 10
74.1329426898001
 20
-143.9794975768524
 30
0.0
  0
VERTEX
  5
177
330
172
100
AcDbEntity
  8
_U+30EC_U+30A4_U+30E4_U+30FC 1
370
     0
100
AcDbVertex
100
AcDb2dVertex
 10
74.1329426898001
 20
-143.899226852046
 30
0.0
  0
SEQEND
  5
178
330
172
100
AcDbEntity
  8
_U+30EC_U+30A4_U+30E4_U+30FC 1
370
     0
  0
SPLINE
  5
179
330
157
100
AcDbEntity
  8
_U+30EC_U+30A4_U+30E4_U+30FC 1
370
     0
100
AcDbSpline
210
0.0
220
0.0
230
1.0
 70
    11
 71
     3
 72
    17
 73
    13
 74
     0
 42
0.0000000001
 43
0.0000000001
 12
1.0
 22
0.0
 32
0.0
 13
1.0
 23
0.0
 33
0.0
 40
0.0
 40
0.0
 40
0.0
 40
0.0
 40
1.0
 40
1.0
 40
1.0
 40
2.0
 40
2.0
 40
2.0
 40
3.0
 40
3.0
 40
3.0
 40
4.0
 40
4.0
 40
4.0
 40
4.0
 10
73.96998967334778
 20
-144.5317463831379
 30
0.0
 10
73.96998967334778
 20
-144.5317463831379
 30
0.0
 10
73.81564939560859
 20
-144.5317463831379
 30
0.0
 10
73.81564939560859
 20
-144.5317463831379
 30
0.0
 10
73.87490503795489
 20
-144.6161512225265
 30
0.0
 10
73.91504040035805
 20
-144.6712727502905
 30
0.0
 10
73.99324406787322
 20
-144.7346625072191
 30
0.0
 10
74.06094019415838
 20
-144.6733398075817
 30
0.0
 10
74.11175535256581
 20
-144.6185627893662
 30
0.0
 10
74.17738442155982
 20
-144.533813440429
 30
0.0
 10
74.08212753139267
 20
-144.533813440429
 30
0.0
 10
74.07161999016266
 20
-144.5317463831379
 30
0.0
 10
73.96998967334778
 20
-144.5317463831379
 30
0.0
  0
HATCH
  5
17A
330
157
100
AcDbEntity
  8
_U+30EC_U+30A4_U+30E4_U+30FC 1
 62
   179
420
  2234388
100
AcDbHatch
 10
0.0
 20
0.0
 30
0.0
210
0.0
220
0.0
230
1.0
  2
SOLID
 70
     1
 71
     0
 91
        7
 92
        1
 93
        1
 72
     4
 94
        3
 73
     0
 74
     1
 95
      182
 96
      178
 40
0.0
 40
0.0
 40
0.0
 40
0.0
 40
1.0
 40
1.0
 40
1.0
 40
2.0
 40
2.0
 40
2.0
 40
3.0
 40
3.0
 40
3.0
 40
4.0
 40
4.0
 40
4.0
 40
5.0
 40
5.0
 40
5.0
 40
6.0
 40
6.0
 40
6.0
 40
7.0
 40
7.0
 40
7.0
 40
8.0
 40
8.0
 40
8.0
 40
9.0
 40
9.0
 40
9.0
 40
10.0
 40
10.0
 40
10.0
 40
11.0
 40
11.0
 40
11.0
 40
12.0
 40
12.0
 40
12.0
 40
13.0
 40
13.0
 40
13.0
 40
14.0
 40
14.0
 40
14.0
 40
15.0
 40
15.0
 40
15.0
 40
16.0
 40
16.0
 40
16.0
 40
17.0
 40
17.0
 40
17.0
 40
18.0
 40
18.0
 40
18.0
 40
19.0
 40
19.0
 40
19.0
 40
20.0
 40
20.0
 40
20.0
 40
21.0
 40
21.0
 40
21.0
 40
22.0
 40
22.0
 40
22.0
 40
23.0
 40
23.0
 40
23.0
 40
24.0
 40
24.0
 40
24.0
 40
25.0
 40
25.0
 40
25.0
 40
26.0
 40
26.0
 40
26.0
 40
27.0
 40
27.0
 40
27.0
 40
28.0
 40
28.0
 40
28.0
 40
29.0
 40
29.0
 40
29.0
 40
30.0
 40
30.0
 40
30.0
 40
31.0
 40
31.0
 40
31.0
 40
32.0
 40
32.0
 40
32.0
 40
33.0
 40
33.0
 40
33.0
 40
34.0
 40
34.0
 40
34.0
 40
35.0
 40
35.0
 40
35.0
 40
36.0
 40
36.0
 40
36.0
 40
37.0
 40
37.0
 40
37.0
 40
38.0
 40
38.0
 40
38.0
 40
39.0
 40
39.0
 40
39.0
 40
40.0
 40
40.0
 40
40.0
 40
41.0
 40
41.0
 40
41.0
 40
42.0
 40
42.0
 40
42.0
 40
43.0
 40
43.0
 40
43.0
 40
44.0
 40
44.0
 40
44.0
 40
45.0
 40
45.0
 40
45.0
 40
46.0
 40
46.0
 40
46.0
 40
47.0
 40
47.0
 40
47.0
 40
48.0
 40
48.0
 40
48.0
 40
49.0
 40
49.0
 40
49.0
 40
50.0
 40
50.0
 40
50.0
 40
51.0
 40
51.0
 40
51.0
 40
52.0
 40
52.0
 40
52.0
 40
53.0
 40
53.0
 40
53.0
 40
54.0
 40
54.0
 40
54.0
 40
55.0
 40
55.0
 40
55.0
 40
56.0
 40
56.0
 40
56.0
 40
57.0
 40
57.0
 40
57.0
 40
58.0
 40
58.0
 40
58.0
 40
59.0
 40
59.0
 40
59.0
 40
59.0
 10
74.22819957996725
 20
-144.533813440429
 10
74.22819957996725
 20
-144.533813440429
 10
74.35928546318101
 20
-144.6416449291174
 10
74.35928546318101
 20
-144.6416449291174
 10
74.37840574312415
 20
-144.656458839704
 10
74.3846069149976
 20
-144.6626600115774
 10
74.3846069149976
 20
-144.6733398075817
 10
74.3846069149976
 20
-144.6988335141725
 10
74.35928546318101
 20
-144.7009005714637
 10
74.34447155259444
 20
-144.7009005714637
 10
74.32552352742557
 20
-144.7009005714637
 10
74.30433619019128
 20
-144.6988335141725
 10
74.28745522231355
 20
-144.6967664568814
 10
74.22819957996725
 20
-144.76015621381
 10
74.15826414161668
 20
-144.8128661747343
 10
74.1329426898001
 20
-144.8321587094517
 10
74.30640324748244
 20
-144.9272433448446
 10
74.4121676788796
 20
-144.9461913700135
 10
74.60888263108737
 20
-144.9716850766043
 10
74.60888263108737
 20
-144.9716850766043
 10
74.51999916756792
 20
-145.1453178890609
 10
74.51999916756792
 20
-145.1453178890609
 10
74.37203231647644
 20
-145.1218912397612
 10
74.17945147885098
 20
-145.0901963612969
 10
73.94260116424005
 20
-144.9165635488403
 10
73.76914060655771
 20
-144.787716977692
 10
73.69507105362484
 20
-144.6733398075817
 10
73.63150904192199
 20
-144.5527614655979
 10
73.55967880105453
 20
-144.6185627893662
 10
73.47923582147395
 20
-144.6692056929994
 10
73.38828530066336
 20
-144.7219156539237
 10
73.38828530066336
 20
-144.7219156539237
 10
73.38828530066336
 20
-144.912429434258
 10
73.38828530066336
 20
-144.912429434258
 10
73.5405585211114
 20
-144.8893472945068
 10
73.62944198463084
 20
-144.8679877024983
 10
73.81358233831745
 20
-144.8256130280297
 10
73.81358233831745
 20
-144.8256130280297
 10
73.79652911566545
 20
-144.9906331017732
 10
73.79652911566545
 20
-144.9906331017732
 10
73.51317001200366
 20
-145.0540228587018
 10
73.14919567398701
 20
-145.1112114437569
 10
72.99898951083011
 20
-145.1305039784743
 10
72.98004148566125
 20
-145.1704670861032
 10
72.96316051778352
 20
-145.1938937354029
 10
72.93559975390151
 20
-145.1938937354029
 10
72.91234535937609
 20
-145.1938937354029
 10
72.90597193272838
 20
-145.1642659142298
 10
72.90390487543722
 20
-145.1453178890609
 10
72.90390487543722
 20
-145.1453178890609
 10
72.87841116884637
 20
-144.9758191911866
 10
72.87841116884637
 20
-144.9758191911866
 10
72.9926160841824
 20
-144.9696180193131
 10
73.1069932542927
 20
-144.9630723378912
 10
73.2020778896856
 20
-144.9461913700135
 10
73.2020778896856
 20
-144.9461913700135
 10
73.2020778896856
 20
-144.8173447988651
 10
73.2020778896856
 20
-144.8173447988651
 10
73.10061982764499
 20
-144.8597194733337
 10
72.95678709113581
 20
-144.91897511568
 10
72.81071504256121
 20
-144.9527370514354
 10
72.81071504256121
 20
-144.9527370514354
 10
72.68600258599517
 20
-144.7749701243965
 10
72.68600258599517
 20
-144.7749701243965
 10
72.77695310680576
 20
-144.7687689525231
 10
72.96092120571811
 20
-144.7560220992277
 10
73.20001083239444
 20
-144.6354437572439
 10
73.29733477985275
 20
-144.5865234013534
 10
73.34591062619478
 20
-144.5465602937245
 10
73.36503090613792
 20
-144.5317463831379
 10
73.36503090613792
 20
-144.5317463831379
 10
73.32058917437818
 20
-144.5317463831379
 10
73.32058917437818
 20
-144.5317463831379
 10
73.1808905524513
 20
-144.5317463831379
 10
72.89322507943295
 20
-144.5358804977202
 10
72.68376327392976
 20
-144.5444932364333
 10
72.68376327392976
 20
-144.5444932364333
 10
72.68376327392976
 20
-144.3836072772721
 10
72.68376327392976
 20
-144.3836072772721
 10
72.8952921367241
 20
-144.3898084491456
 10
73.10906031158385
 20
-144.3963541305676
 10
73.32058917437818
 20
-144.3963541305676
 10
73.32058917437818
 20
-144.3963541305676
 10
73.55761174376337
 20
-144.3963541305676
 10
73.55761174376337
 20
-144.3963541305676
 10
73.55761174376337
 20
-144.3963541305676
 10
73.55761174376337
 20
-144.3116047816305
 10
73.55761174376337
 20
-144.3116047816305
 10
73.55761174376337
 20
-144.3116047816305
 10
73.3862182433722
 20
-144.3116047816305
 10
73.3862182433722
 20
-144.3116047816305
 10
73.21913111233758
 20
-144.3116047816305
 10
73.0518717265287
 20
-144.3181504630524
 10
72.88478459549408
 20
-144.3243516349259
 10
72.88478459549408
 20
-144.3243516349259
 10
72.88478459549408
 20
-144.1762125290601
 10
72.88478459549408
 20
-144.1762125290601
 10
73.01604273348211
 20
-144.1803466436424
 10
73.12387422217043
 20
-144.1803466436424
 10
73.3862182433722
 20
-144.1803466436424
 10
73.3862182433722
 20
-144.1803466436424
 10
73.55761174376337
 20
-144.1803466436424
 10
73.55761174376337
 20
-144.1803466436424
 10
73.55761174376337
 20
-144.1803466436424
 10
73.55761174376337
 20
-144.0959418042538
 10
73.55761174376337
 20
-144.0959418042538
 10
73.55761174376337
 20
-144.0959418042538
 10
73.43686114700537
 20
-144.0959418042538
 10
73.43686114700537
 20
-144.0959418042538
 10
73.3310967156082
 20
-144.0959418042538
 10
73.05617809588526
 20
-144.0959418042538
 10
72.96522757507466
 20
-144.1066216002581
 10
72.97573511630468
 20
-144.0642469257895
 10
72.98210854295239
 20
-143.9391899596749
 10
72.98210854295239
 20
-143.9309217305103
 10
72.98210854295239
 20
-143.9309217305103
 10
72.98210854295239
 20
-143.788983796518
 10
72.98210854295239
 20
-143.788983796518
 10
72.98210854295239
 20
-143.7383408928849
 10
72.98004148566125
 20
-143.6218966654834
 10
72.97366805901353
 20
-143.5733208191414
 10
73.08580591705841
 20
-143.588134729728
 10
73.12387422217043
 20
-143.588134729728
 10
73.45167505759194
 20
-143.588134729728
 10
73.45167505759194
 20
-143.588134729728
 10
73.92778725365348
 20
-143.588134729728
 10
73.92778725365348
 20
-143.588134729728
 10
74.04405922628065
 20
-143.588134729728
 10
74.2197590960284
 20
-143.5860676724368
 10
74.32965764200787
 20
-143.5733208191414
 10
74.321217158069
 20
-143.6284423469054
 10
74.31915010077786
 20
-143.691832103834
 10
74.31915010077786
 20
-143.7066460144206
 10
74.31915010077786
 20
-143.7066460144206
 10
74.31915010077786
 20
-143.9119737053415
 10
74.31915010077786
 20
-143.9119737053415
 10
74.31915010077786
 20
-143.9436685838058
 10
74.32328421536016
 20
-144.0790608363761
 10
74.32552352742557
 20
-144.1066216002581
 10
74.25145397449269
 20
-144.1021429761273
 10
74.2197590960284
 20
-144.0959418042538
 10
73.92141382700576
 20
-144.0959418042538
 10
73.92141382700576
 20
-144.0959418042538
 10
73.73727347331916
 20
-144.0959418042538
 10
73.73727347331916
 20
-144.0959418042538
 10
73.73727347331916
 20
-144.0959418042538
 10
73.73727347331916
 20
-144.1803466436424
 10
73.73727347331916
 20
-144.1803466436424
 10
73.73727347331916
 20
-144.1803466436424
 10
73.90453285912804
 20
-144.1803466436424
 10
73.90453285912804
 20
-144.1803466436424
 10
74.14345023103012
 20
-144.1803466436424
 10
74.25558808907499
 20
-144.1803466436424
 10
74.40579425223189
 20
-144.1762125290601
 10
74.40579425223189
 20
-144.1762125290601
 10
74.40579425223189
 20
-144.3243516349259
 10
74.40579425223189
 20
-144.3243516349259
 10
74.19857175879412
 20
-144.3157388962127
 10
74.01236434781636
 20
-144.3116047816305
 10
73.90453285912804
 20
-144.3116047816305
 10
73.90453285912804
 20
-144.3116047816305
 10
73.73727347331916
 20
-144.3116047816305
 10
73.73727347331916
 20
-144.3116047816305
 10
73.73727347331916
 20
-144.3116047816305
 10
73.73727347331916
 20
-144.3963541305676
 10
73.73727347331916
 20
-144.3963541305676
 10
73.73727347331916
 20
-144.3963541305676
 10
73.96998967334778
 20
-144.3963541305676
 10
73.96998967334778
 20
-144.3963541305676
 10
74.18582490549869
 20
-144.3963541305676
 10
74.39942082558417
 20
-144.3898084491456
 10
74.61525605773508
 20
-144.3836072772721
 10
74.61525605773508
 20
-144.3836072772721
 10
74.61525605773508
 20
-144.5444932364333
 10
74.61525605773508
 20
-144.5444932364333
 10
74.48830428910362
 20
-144.5400146123025
 10
74.46298283728703
 20
-144.5400146123025
 10
74.22819957996725
 20
-144.533813440429
 97
        0
 97
        0
 92
        1
 93
        1
 72
     4
 94
        3
 73
     0
 74
     1
 95
       47
 96
       43
 40
0.0
 40
0.0
 40
0.0
 40
0.0
 40
1.0
 40
1.0
 40
1.0
 40
2.0
 40
2.0
 40
2.0
 40
3.0
 40
3.0
 40
3.0
 40
4.0
 40
4.0
 40
4.0
 40
5.0
 40
5.0
 40
5.0
 40
6.0
 40
6.0
 40
6.0
 40
7.0
 40
7.0
 40
7.0
 40
8.0
 40
8.0
 40
8.0
 40
9.0
 40
9.0
 40
9.0
 40
10.0
 40
10.0
 40
10.0
 40
11.0
 40
11.0
 40
11.0
 40
12.0
 40
12.0
 40
12.0
 40
13.0
 40
13.0
 40
13.0
 40
14.0
 40
14.0
 40
14.0
 40
14.0
 10
73.96378850147434
 20
-143.5140651767951
 10
73.96378850147434
 20
-143.5140651767951
 10
73.33333602767361
 20
-143.5140651767951
 10
73.33333602767361
 20
-143.5140651767951
 10
73.12800833675273
 20
-143.5140651767951
 10
72.92078584331495
 20
-143.5181992913774
 10
72.71563040716832
 20
-143.5247449727994
 10
72.71563040716832
 20
-143.5247449727994
 10
72.71563040716832
 20
-143.3531792176339
 10
72.71563040716832
 20
-143.3531792176339
 10
72.90597193272838
 20
-143.3638590136382
 10
73.13231470610928
 20
-143.3638590136382
 10
73.33333602767361
 20
-143.3638590136382
 10
73.33333602767361
 20
-143.3638590136382
 10
73.5469319477591
 20
-143.3638590136382
 10
73.5469319477591
 20
-143.3638590136382
 10
73.53849146382024
 20
-143.2560275249499
 10
73.5364244065291
 20
-143.2432806716545
 10
73.53005097988138
 20
-143.2053846213167
 10
73.53005097988138
 20
-143.2053846213167
 10
73.7839545171443
 20
-143.2263997037767
 10
73.7839545171443
 20
-143.2263997037767
 10
73.80083548502202
 20
-143.2284667610679
 10
73.8220228222563
 20
-143.230533818359
 10
73.8220228222563
 20
-143.2539604676587
 10
73.8220228222563
 20
-143.2729084928276
 10
73.81564939560859
 20
-143.2770426074099
 10
73.75639375326229
 20
-143.3087374858742
 10
73.75432669597114
 20
-143.3173502245873
 10
73.75432669597114
 20
-143.3576578417648
 10
73.75432669597114
 20
-143.3638590136382
 10
73.75432669597114
 20
-143.3638590136382
 10
73.96378850147434
 20
-143.3638590136382
 10
73.96378850147434
 20
-143.3638590136382
 10
74.16257051097325
 20
-143.3638590136382
 10
74.39528671100187
 20
-143.3638590136382
 10
74.58786754862734
 20
-143.3531792176339
 10
74.58786754862734
 20
-143.3531792176339
 10
74.58786754862734
 20
-143.5247449727994
 10
74.58786754862734
 20
-143.5247449727994
 10
74.32965764200787
 20
-143.5161322340863
 10
74.09056801533153
 20
-143.5140651767951
 10
73.96378850147434
 20
-143.5140651767951
 97
        0
 97
        0
 92
        1
 93
        4
 72
     1
 10
73.55761174376337
 20
-143.7066460144206
 11
73.16400958457359
 21
-143.7066460144206
 72
     1
 10
73.16400958457359
 20
-143.7066460144206
 11
73.16400958457359
 21
-143.788983796518
 72
     1
 10
73.16400958457359
 20
-143.788983796518
 11
73.55761174376337
 21
-143.788983796518
 72
     1
 10
73.55761174376337
 20
-143.788983796518
 11
73.55761174376337
 21
-143.7066460144206
 97
        0
 92
        1
 93
        4
 72
     1
 10
73.55761174376337
 20
-143.899226852046
 11
73.16400958457359
 21
-143.899226852046
 72
     1
 10
73.16400958457359
 20
-143.899226852046
 11
73.16400958457359
 21
-143.9794975768524
 72
     1
 10
73.16400958457359
 20
-143.9794975768524
 11
73.55761174376337
 21
-143.9794975768524
 72
     1
 10
73.55761174376337
 20
-143.9794975768524
 11
73.55761174376337
 21
-143.899226852046
 97
        0
 92
        1
 93
        4
 72
     1
 10
74.1329426898001
 20
-143.7066460144206
 11
73.73727347331916
 21
-143.7066460144206
 72
     1
 10
73.73727347331916
 20
-143.7066460144206
 11
73.73727347331916
 21
-143.788983796518
 72
     1
 10
73.73727347331916
 20
-143.788983796518
 11
74.1329426898001
 21
-143.788983796518
 72
     1
 10
74.1329426898001
 20
-143.788983796518
 11
74.1329426898001
 21
-143.7066460144206
 97
        0
 92
        1
 93
        4
 72
     1
 10
74.1329426898001
 20
-143.899226852046
 11
73.73727347331916
 21
-143.899226852046
 72
     1
 10
73.73727347331916
 20
-143.899226852046
 11
73.73727347331916
 21
-143.9794975768524
 72
     1
 10
73.73727347331916
 20
-143.9794975768524
 11
74.1329426898001
 21
-143.9794975768524
 72
     1
 10
74.1329426898001
 20
-143.9794975768524
 11
74.1329426898001
 21
-143.899226852046
 97
        0
 92
        1
 93
        1
 72
     4
 94
        3
 73
     0
 74
     1
 95
       17
 96
       13
 40
0.0
 40
0.0
 40
0.0
 40
0.0
 40
1.0
 40
1.0
 40
1.0
 40
2.0
 40
2.0
 40
2.0
 40
3.0
 40
3.0
 40
3.0
 40
4.0
 40
4.0
 40
4.0
 40
4.0
 10
73.96998967334778
 20
-144.5317463831379
 10
73.96998967334778
 20
-144.5317463831379
 10
73.81564939560859
 20
-144.5317463831379
 10
73.81564939560859
 20
-144.5317463831379
 10
73.87490503795489
 20
-144.6161512225265
 10
73.91504040035805
 20
-144.6712727502905
 10
73.99324406787322
 20
-144.7346625072191
 10
74.06094019415838
 20
-144.6733398075817
 10
74.11175535256581
 20
-144.6185627893662
 10
74.17738442155982
 20
-144.533813440429
 10
74.08212753139267
 20
-144.533813440429
 10
74.07161999016266
 20
-144.5317463831379
 10
73.96998967334778
 20
-144.5317463831379
 97
        0
 97
        0
 75
     2
 76
     1
 98
        0
  0
SPLINE
  5
17B
330
157
100
AcDbEntity
  8
_U+30EC_U+30A4_U+30E4_U+30FC 1
370
     0
100
AcDbSpline
210
0.0
220
0.0
230
1.0
 70
    11
 71
     3
 72
    86
 73
    82
 74
     0
 42
0.0000000001
 43
0.0000000001
 12
1.0
 22
0.0
 32
0.0
 13
1.0
 23
0.0
 33
0.0
 40
0.0
 40
0.0
 40
0.0
 40
0.0
 40
1.0
 40
1.0
 40
1.0
 40
2.0
 40
2.0
 40
2.0
 40
3.0
 40
3.0
 40
3.0
 40
4.0
 40
4.0
 40
4.0
 40
5.0
 40
5.0
 40
5.0
 40
6.0
 40
6.0
 40
6.0
 40
7.0
 40
7.0
 40
7.0
 40
8.0
 40
8.0
 40
8.0
 40
9.0
 40
9.0
 40
9.0
 40
10.0
 40
10.0
 40
10.0
 40
11.0
 40
11.0
 40
11.0
 40
12.0
 40
12.0
 40
12.0
 40
13.0
 40
13.0
 40
13.0
 40
14.0
 40
14.0
 40
14.0
 40
15.0
 40
15.0
 40
15.0
 40
16.0
 40
16.0
 40
16.0
 40
17.0
 40
17.0
 40
17.0
 40
18.0
 40
18.0
 40
18.0
 40
19.0
 40
19.0
 40
19.0
 40
20.0
 40
20.0
 40
20.0
 40
21.0
 40
21.0
 40
21.0
 40
22.0
 40
22.0
 40
22.0
 40
23.0
 40
23.0
 40
23.0
 40
24.0
 40
24.0
 40
24.0
 40
25.0
 40
25.0
 40
25.0
 40
26.0
 40
26.0
 40
26.0
 40
27.0
 40
27.0
 40
27.0
 40
27.0
 10
75.33579777847508
 20
-143.7975965352312
 30
0.0
 10
75.33579777847508
 20
-143.7975965352312
 30
0.0
 10
75.30393064523652
 20
-143.7975965352312
 30
0.0
 10
75.30393064523652
 20
-143.7975965352312
 30
0.0
 10
75.30393064523652
 20
-143.8503064961555
 30
0.0
 10
75.34423826241394
 20
-143.9667507235569
 30
0.0
 10
75.3843736248171
 20
-144.0473659579118
 30
0.0
 10
75.45637612045883
 20
-144.195160554229
 30
0.0
 10
75.54302027191287
 20
-144.2885226418793
 30
0.0
 10
75.59176837302914
 20
-144.3391655455124
 30
0.0
 10
75.59176837302914
 20
-144.3391655455124
 30
0.0
 10
75.46688366168884
 20
-144.5000515046736
 30
0.0
 10
75.46688366168884
 20
-144.5000515046736
 30
0.0
 10
75.41193438869911
 20
-144.4428629196184
 30
0.0
 10
75.37162677152168
 20
-144.3984211878587
 30
0.0
 10
75.30393064523652
 20
-144.271297164453
 30
0.0
 10
75.30393064523652
 20
-144.271297164453
 30
0.0
 10
75.30393064523652
 20
-144.4683566262093
 30
0.0
 10
75.30393064523652
 20
-144.4683566262093
 30
0.0
 10
75.30393064523652
 20
-144.6354437572439
 30
0.0
 10
75.30393064523652
 20
-144.7367295645103
 30
0.0
 10
75.3251179824708
 20
-145.1408392649301
 30
0.0
 10
75.3251179824708
 20
-145.1408392649301
 30
0.0
 10
75.0987752090899
 20
-145.1408392649301
 30
0.0
 10
75.0987752090899
 20
-145.1408392649301
 30
0.0
 10
75.11358911967646
 20
-144.9992458404863
 30
0.0
 10
75.12633597297189
 20
-144.5593071470199
 30
0.0
 10
75.12633597297189
 20
-144.4807589699562
 30
0.0
 10
75.12633597297189
 20
-144.4807589699562
 30
0.0
 10
75.12633597297189
 20
-144.2630289352884
 30
0.0
 10
75.12633597297189
 20
-144.2630289352884
 30
0.0
 10
75.05863984668673
 20
-144.4659450593696
 30
0.0
 10
74.97612980981499
 20
-144.5782551721888
 30
0.0
 10
74.90843368352984
 20
-144.6692056929994
 30
0.0
 10
74.90843368352984
 20
-144.6692056929994
 30
0.0
 10
74.71791990319552
 20
-144.5675753761845
 30
0.0
 10
74.71791990319552
 20
-144.5675753761845
 30
0.0
 10
74.92962102076413
 20
-144.3667263093944
 30
0.0
 10
75.03745250945245
 20
-144.0852620082495
 30
0.0
 10
75.08602835579447
 20
-143.7975965352312
 30
0.0
 10
74.99731714704929
 20
-143.7975965352312
 30
0.0
 10
74.90843368352984
 20
-143.8017306498135
 30
0.0
 10
74.82161727730154
 20
-143.8144775031089
 30
0.0
 10
74.82161727730154
 20
-143.8144775031089
 30
0.0
 10
74.82161727730154
 20
-143.6070827548969
 30
0.0
 10
74.82161727730154
 20
-143.6070827548969
 30
0.0
 10
74.91050074082099
 20
-143.6218966654834
 30
0.0
 10
75.04158662403475
 20
-143.6239637227746
 30
0.0
 10
75.07982718392103
 20
-143.6239637227746
 30
0.0
 10
75.07982718392103
 20
-143.6239637227746
 30
0.0
 10
75.12633597297189
 20
-143.6239637227746
 30
0.0
 10
75.12633597297189
 20
-143.6239637227746
 30
0.0
 10
75.12409666090647
 20
-143.5753878764326
 30
0.0
 10
75.12409666090647
 20
-143.3555907844736
 30
0.0
 10
75.12202960361533
 20
-143.3111490527139
 30
0.0
 10
75.12202960361533
 20
-143.2687743782453
 30
0.0
 10
75.12202960361533
 20
-143.2560275249499
 30
0.0
 10
75.11789548903303
 20
-143.2177869650636
 30
0.0
 10
75.11789548903303
 20
-143.2177869650636
 30
0.0
 10
75.3251179824708
 20
-143.230533818359
 30
0.0
 10
75.3251179824708
 20
-143.230533818359
 30
0.0
 10
75.33579777847508
 20
-143.230533818359
 30
0.0
 10
75.35905217300052
 20
-143.2326008756502
 30
0.0
 10
75.35905217300052
 20
-143.2518934103676
 30
0.0
 10
75.35905217300052
 20
-143.2749755501188
 30
0.0
 10
75.33355846640967
 20
-143.285655346123
 30
0.0
 10
75.31237112917539
 20
-143.2963351421273
 30
0.0
 10
75.31030407188423
 20
-143.3300970778828
 30
0.0
 10
75.30616995730193
 20
-143.5774549337237
 30
0.0
 10
75.30616995730193
 20
-143.6239637227746
 30
0.0
 10
75.30616995730193
 20
-143.6239637227746
 30
0.0
 10
75.33579777847508
 20
-143.6239637227746
 30
0.0
 10
75.33579777847508
 20
-143.6239637227746
 30
0.0
 10
75.42244192992912
 20
-143.6239637227746
 30
0.0
 10
75.51132539344856
 20
-143.6198296081923
 30
0.0
 10
75.59590248761144
 20
-143.6070827548969
 30
0.0
 10
75.59590248761144
 20
-143.6070827548969
 30
0.0
 10
75.59590248761144
 20
-143.8144775031089
 30
0.0
 10
75.59590248761144
 20
-143.8144775031089
 30
0.0
 10
75.48376462956656
 20
-143.7975965352312
 30
0.0
 10
75.3463053197051
 20
-143.7975965352312
 30
0.0
 10
75.33579777847508
 20
-143.7975965352312
 30
0.0
  0
SPLINE
  5
17C
330
157
100
AcDbEntity
  8
_U+30EC_U+30A4_U+30E4_U+30FC 1
370
     0
100
AcDbSpline
210
0.0
220
0.0
230
1.0
 70
    11
 71
     3
 72
    80
 73
    76
 74
     0
 42
0.0000000001
 43
0.0000000001
 12
1.0
 22
0.0
 32
0.0
 13
1.0
 23
0.0
 33
0.0
 40
0.0
 40
0.0
 40
0.0
 40
0.0
 40
1.0
 40
1.0
 40
1.0
 40
2.0
 40
2.0
 40
2.0
 40
3.0
 40
3.0
 40
3.0
 40
4.0
 40
4.0
 40
4.0
 40
5.0
 40
5.0
 40
5.0
 40
6.0
 40
6.0
 40
6.0
 40
7.0
 40
7.0
 40
7.0
 40
8.0
 40
8.0
 40
8.0
 40
9.0
 40
9.0
 40
9.0
 40
10.0
 40
10.0
 40
10.0
 40
11.0
 40
11.0
 40
11.0
 40
12.0
 40
12.0
 40
12.0
 40
13.0
 40
13.0
 40
13.0
 40
14.0
 40
14.0
 40
14.0
 40
15.0
 40
15.0
 40
15.0
 40
16.0
 40
16.0
 40
16.0
 40
17.0
 40
17.0
 40
17.0
 40
18.0
 40
18.0
 40
18.0
 40
19.0
 40
19.0
 40
19.0
 40
20.0
 40
20.0
 40
20.0
 40
21.0
 40
21.0
 40
21.0
 40
22.0
 40
22.0
 40
22.0
 40
23.0
 40
23.0
 40
23.0
 40
24.0
 40
24.0
 40
24.0
 40
25.0
 40
25.0
 40
25.0
 40
25.0
 10
76.57327607677682
 20
-145.0943304758792
 30
0.0
 10
76.39137503515563
 20
-144.9737521338955
 30
0.0
 10
76.3129991128662
 20
-144.8976155236714
 30
0.0
 10
76.23479544535103
 20
-144.808732060152
 30
0.0
 10
76.08252222490299
 20
-144.9696180193131
 30
0.0
 10
75.96831730956696
 20
-145.043687572246
 30
0.0
 10
75.84980602487435
 20
-145.1029432145923
 30
0.0
 10
75.84980602487435
 20
-145.1029432145923
 30
0.0
 10
75.66359861389661
 20
-144.9527370514354
 30
0.0
 10
75.66359861389661
 20
-144.9527370514354
 30
0.0
 10
75.8413655409355
 20
-144.8893472945068
 30
0.0
 10
75.98726533473582
 20
-144.8173447988651
 30
0.0
 10
76.1247246445973
 20
-144.6626600115774
 30
0.0
 10
75.9979451307401
 20
-144.457676830205
 30
0.0
 10
75.92594263509838
 20
-144.2271999422418
 30
0.0
 10
75.9006211832818
 20
-143.9881103155655
 30
0.0
 10
75.9006211832818
 20
-143.9881103155655
 30
0.0
 10
75.83705917157893
 20
-143.9881103155655
 30
0.0
 10
75.83705917157893
 20
-143.9881103155655
 30
0.0
 10
75.83705917157893
 20
-143.9881103155655
 30
0.0
 10
75.83705917157893
 20
-144.0769937790849
 30
0.0
 10
75.83705917157893
 20
-144.0769937790849
 30
0.0
 10
75.83705917157893
 20
-144.3136718389216
 30
0.0
 10
75.81811114641006
 20
-144.7959852068566
 30
0.0
 10
75.54508732920401
 20
-145.1112114437569
 30
0.0
 10
75.54508732920401
 20
-145.1112114437569
 30
0.0
 10
75.35681286093511
 20
-144.9992458404863
 30
0.0
 10
75.35681286093511
 20
-144.9992458404863
 30
0.0
 10
75.61915688213688
 20
-144.7729030671054
 30
0.0
 10
75.65085176060118
 20
-144.4215033276099
 30
0.0
 10
75.65085176060118
 20
-143.9774305195612
 30
0.0
 10
75.65085176060118
 20
-143.6453233147831
 30
0.0
 10
75.64671764601889
 20
-143.4317273946976
 30
0.0
 10
75.63827716208002
 20
-143.2815212315408
 30
0.0
 10
75.74404159347719
 20
-143.2918565179965
 30
0.0
 10
75.83068574493122
 20
-143.2963351421273
 30
0.0
 10
75.98313122015352
 20
-143.2963351421273
 30
0.0
 10
75.98313122015352
 20
-143.2963351421273
 30
0.0
 10
76.35123967275247
 20
-143.2963351421273
 30
0.0
 10
76.35123967275247
 20
-143.2963351421273
 30
0.0
 10
76.44632430814536
 20
-143.2963351421273
 30
0.0
 10
76.62822534976655
 20
-143.2877224034142
 30
0.0
 10
76.70229490269944
 20
-143.2794541742496
 30
0.0
 10
76.70229490269944
 20
-143.2794541742496
 30
0.0
 10
76.70229490269944
 20
-143.484437355622
 30
0.0
 10
76.70229490269944
 20
-143.484437355622
 30
0.0
 10
76.60290389794997
 20
-143.4737575596177
 30
0.0
 10
76.48869898261394
 20
-143.4716905023265
 30
0.0
 10
76.2559827825853
 20
-143.4716905023265
 30
0.0
 10
76.2559827825853
 20
-143.4716905023265
 30
0.0
 10
76.21360810811674
 20
-143.4716905023265
 30
0.0
 10
76.21360810811674
 20
-143.4716905023265
 30
0.0
 10
76.21360810811674
 20
-143.4716905023265
 30
0.0
 10
75.83705917157893
 20
-143.4716905023265
 30
0.0
 10
75.83705917157893
 20
-143.4716905023265
 30
0.0
 10
75.83705917157893
 20
-143.4716905023265
 30
0.0
 10
75.83705917157893
 20
-143.8144775031089
 30
0.0
 10
75.83705917157893
 20
-143.8144775031089
 30
0.0
 10
75.83705917157893
 20
-143.8144775031089
 30
0.0
 10
76.1903537135913
 20
-143.8144775031089
 30
0.0
 10
76.1903537135913
 20
-143.8144775031089
 30
0.0
 10
76.2432359292899
 20
-143.8144775031089
 30
0.0
 10
76.48232555596623
 20
-143.8082763312354
 30
0.0
 10
76.53090140230825
 20
-143.8062092739443
 30
0.0
 10
76.53090140230825
 20
-143.8062092739443
 30
0.0
 10
76.60721026730653
 20
-143.8971597947549
 30
0.0
 10
76.60721026730653
 20
-143.8971597947549
 30
0.0
 10
76.5247002304348
 20
-144.3095377243393
 30
0.0
 10
76.46751164537966
 20
-144.4766248553739
 30
0.0
 10
76.35123967275247
 20
-144.656458839704
 30
0.0
 10
76.43995088149765
 20
-144.7539550419365
 30
0.0
 10
76.53727482895596
 20
-144.8424939959074
 30
0.0
 10
76.73829615052028
 20
-144.93999019814
 30
0.0
 10
76.73829615052028
 20
-144.93999019814
 30
0.0
 10
76.57327607677682
 20
-145.0943304758792
 30
0.0
 10
76.57327607677682
 20
-145.0943304758792
 30
0.0
  0
SPLINE
  5
17D
330
157
100
AcDbEntity
  8
_U+30EC_U+30A4_U+30E4_U+30FC 1
370
     0
100
AcDbSpline
210
0.0
220
0.0
230
1.0
 70
    11
 71
     3
 72
    14
 73
    10
 74
     0
 42
0.0000000001
 43
0.0000000001
 12
1.0
 22
0.0
 32
0.0
 13
1.0
 23
0.0
 33
0.0
 40
0.0
 40
0.0
 40
0.0
 40
0.0
 40
1.0
 40
1.0
 40
1.0
 40
2.0
 40
2.0
 40
2.0
 40
3.0
 40
3.0
 40
3.0
 40
3.0
 10
76.08665633948529
 20
-143.9881103155655
 30
0.0
 10
76.10370956213727
 20
-144.1655327330558
 30
0.0
 10
76.15021835118814
 20
-144.3391655455124
 30
0.0
 10
76.23479544535103
 20
-144.4955728805428
 30
0.0
 10
76.2813042344019
 20
-144.4046223597322
 30
0.0
 10
76.35968015669134
 20
-144.2247883754021
 30
0.0
 10
76.38500160850792
 20
-143.9881103155655
 30
0.0
 10
76.38500160850792
 20
-143.9881103155655
 30
0.0
 10
76.08665633948529
 20
-143.9881103155655
 30
0.0
 10
76.08665633948529
 20
-143.9881103155655
 30
0.0
  0
HATCH
  5
17E
330
157
100
AcDbEntity
  8
_U+30EC_U+30A4_U+30E4_U+30FC 1
 62
   179
420
  2234388
100
AcDbHatch
 10
0.0
 20
0.0
 30
0.0
210
0.0
220
0.0
230
1.0
  2
SOLID
 70
     1
 71
     0
 91
        3
 92
        1
 93
        1
 72
     4
 94
        3
 73
     0
 74
     1
 95
       86
 96
       82
 40
0.0
 40
0.0
 40
0.0
 40
0.0
 40
1.0
 40
1.0
 40
1.0
 40
2.0
 40
2.0
 40
2.0
 40
3.0
 40
3.0
 40
3.0
 40
4.0
 40
4.0
 40
4.0
 40
5.0
 40
5.0
 40
5.0
 40
6.0
 40
6.0
 40
6.0
 40
7.0
 40
7.0
 40
7.0
 40
8.0
 40
8.0
 40
8.0
 40
9.0
 40
9.0
 40
9.0
 40
10.0
 40
10.0
 40
10.0
 40
11.0
 40
11.0
 40
11.0
 40
12.0
 40
12.0
 40
12.0
 40
13.0
 40
13.0
 40
13.0
 40
14.0
 40
14.0
 40
14.0
 40
15.0
 40
15.0
 40
15.0
 40
16.0
 40
16.0
 40
16.0
 40
17.0
 40
17.0
 40
17.0
 40
18.0
 40
18.0
 40
18.0
 40
19.0
 40
19.0
 40
19.0
 40
20.0
 40
20.0
 40
20.0
 40
21.0
 40
21.0
 40
21.0
 40
22.0
 40
22.0
 40
22.0
 40
23.0
 40
23.0
 40
23.0
 40
24.0
 40
24.0
 40
24.0
 40
25.0
 40
25.0
 40
25.0
 40
26.0
 40
26.0
 40
26.0
 40
27.0
 40
27.0
 40
27.0
 40
27.0
 10
75.33579777847508
 20
-143.7975965352312
 10
75.33579777847508
 20
-143.7975965352312
 10
75.30393064523652
 20
-143.7975965352312
 10
75.30393064523652
 20
-143.7975965352312
 10
75.30393064523652
 20
-143.8503064961555
 10
75.34423826241394
 20
-143.9667507235569
 10
75.3843736248171
 20
-144.0473659579118
 10
75.45637612045883
 20
-144.195160554229
 10
75.54302027191287
 20
-144.2885226418793
 10
75.59176837302914
 20
-144.3391655455124
 10
75.59176837302914
 20
-144.3391655455124
 10
75.46688366168884
 20
-144.5000515046736
 10
75.46688366168884
 20
-144.5000515046736
 10
75.41193438869911
 20
-144.4428629196184
 10
75.37162677152168
 20
-144.3984211878587
 10
75.30393064523652
 20
-144.271297164453
 10
75.30393064523652
 20
-144.271297164453
 10
75.30393064523652
 20
-144.4683566262093
 10
75.30393064523652
 20
-144.4683566262093
 10
75.30393064523652
 20
-144.6354437572439
 10
75.30393064523652
 20
-144.7367295645103
 10
75.3251179824708
 20
-145.1408392649301
 10
75.3251179824708
 20
-145.1408392649301
 10
75.0987752090899
 20
-145.1408392649301
 10
75.0987752090899
 20
-145.1408392649301
 10
75.11358911967646
 20
-144.9992458404863
 10
75.12633597297189
 20
-144.5593071470199
 10
75.12633597297189
 20
-144.4807589699562
 10
75.12633597297189
 20
-144.4807589699562
 10
75.12633597297189
 20
-144.2630289352884
 10
75.12633597297189
 20
-144.2630289352884
 10
75.05863984668673
 20
-144.4659450593696
 10
74.97612980981499
 20
-144.5782551721888
 10
74.90843368352984
 20
-144.6692056929994
 10
74.90843368352984
 20
-144.6692056929994
 10
74.71791990319552
 20
-144.5675753761845
 10
74.71791990319552
 20
-144.5675753761845
 10
74.92962102076413
 20
-144.3667263093944
 10
75.03745250945245
 20
-144.0852620082495
 10
75.08602835579447
 20
-143.7975965352312
 10
74.99731714704929
 20
-143.7975965352312
 10
74.90843368352984
 20
-143.8017306498135
 10
74.82161727730154
 20
-143.8144775031089
 10
74.82161727730154
 20
-143.8144775031089
 10
74.82161727730154
 20
-143.6070827548969
 10
74.82161727730154
 20
-143.6070827548969
 10
74.91050074082099
 20
-143.6218966654834
 10
75.04158662403475
 20
-143.6239637227746
 10
75.07982718392103
 20
-143.6239637227746
 10
75.07982718392103
 20
-143.6239637227746
 10
75.12633597297189
 20
-143.6239637227746
 10
75.12633597297189
 20
-143.6239637227746
 10
75.12409666090647
 20
-143.5753878764326
 10
75.12409666090647
 20
-143.3555907844736
 10
75.12202960361533
 20
-143.3111490527139
 10
75.12202960361533
 20
-143.2687743782453
 10
75.12202960361533
 20
-143.2560275249499
 10
75.11789548903303
 20
-143.2177869650636
 10
75.11789548903303
 20
-143.2177869650636
 10
75.3251179824708
 20
-143.230533818359
 10
75.3251179824708
 20
-143.230533818359
 10
75.33579777847508
 20
-143.230533818359
 10
75.35905217300052
 20
-143.2326008756502
 10
75.35905217300052
 20
-143.2518934103676
 10
75.35905217300052
 20
-143.2749755501188
 10
75.33355846640967
 20
-143.285655346123
 10
75.31237112917539
 20
-143.2963351421273
 10
75.31030407188423
 20
-143.3300970778828
 10
75.30616995730193
 20
-143.5774549337237
 10
75.30616995730193
 20
-143.6239637227746
 10
75.30616995730193
 20
-143.6239637227746
 10
75.33579777847508
 20
-143.6239637227746
 10
75.33579777847508
 20
-143.6239637227746
 10
75.42244192992912
 20
-143.6239637227746
 10
75.51132539344856
 20
-143.6198296081923
 10
75.59590248761144
 20
-143.6070827548969
 10
75.59590248761144
 20
-143.6070827548969
 10
75.59590248761144
 20
-143.8144775031089
 10
75.59590248761144
 20
-143.8144775031089
 10
75.48376462956656
 20
-143.7975965352312
 10
75.3463053197051
 20
-143.7975965352312
 10
75.33579777847508
 20
-143.7975965352312
 97
        0
 97
        0
 92
        1
 93
        1
 72
     4
 94
        3
 73
     0
 74
     1
 95
       80
 96
       76
 40
0.0
 40
0.0
 40
0.0
 40
0.0
 40
1.0
 40
1.0
 40
1.0
 40
2.0
 40
2.0
 40
2.0
 40
3.0
 40
3.0
 40
3.0
 40
4.0
 40
4.0
 40
4.0
 40
5.0
 40
5.0
 40
5.0
 40
6.0
 40
6.0
 40
6.0
 40
7.0
 40
7.0
 40
7.0
 40
8.0
 40
8.0
 40
8.0
 40
9.0
 40
9.0
 40
9.0
 40
10.0
 40
10.0
 40
10.0
 40
11.0
 40
11.0
 40
11.0
 40
12.0
 40
12.0
 40
12.0
 40
13.0
 40
13.0
 40
13.0
 40
14.0
 40
14.0
 40
14.0
 40
15.0
 40
15.0
 40
15.0
 40
16.0
 40
16.0
 40
16.0
 40
17.0
 40
17.0
 40
17.0
 40
18.0
 40
18.0
 40
18.0
 40
19.0
 40
19.0
 40
19.0
 40
20.0
 40
20.0
 40
20.0
 40
21.0
 40
21.0
 40
21.0
 40
22.0
 40
22.0
 40
22.0
 40
23.0
 40
23.0
 40
23.0
 40
24.0
 40
24.0
 40
24.0
 40
25.0
 40
25.0
 40
25.0
 40
25.0
 10
76.57327607677682
 20
-145.0943304758792
 10
76.39137503515563
 20
-144.9737521338955
 10
76.3129991128662
 20
-144.8976155236714
 10
76.23479544535103
 20
-144.808732060152
 10
76.08252222490299
 20
-144.9696180193131
 10
75.96831730956696
 20
-145.043687572246
 10
75.84980602487435
 20
-145.1029432145923
 10
75.84980602487435
 20
-145.1029432145923
 10
75.66359861389661
 20
-144.9527370514354
 10
75.66359861389661
 20
-144.9527370514354
 10
75.8413655409355
 20
-144.8893472945068
 10
75.98726533473582
 20
-144.8173447988651
 10
76.1247246445973
 20
-144.6626600115774
 10
75.9979451307401
 20
-144.457676830205
 10
75.92594263509838
 20
-144.2271999422418
 10
75.9006211832818
 20
-143.9881103155655
 10
75.9006211832818
 20
-143.9881103155655
 10
75.83705917157893
 20
-143.9881103155655
 10
75.83705917157893
 20
-143.9881103155655
 10
75.83705917157893
 20
-143.9881103155655
 10
75.83705917157893
 20
-144.0769937790849
 10
75.83705917157893
 20
-144.0769937790849
 10
75.83705917157893
 20
-144.3136718389216
 10
75.81811114641006
 20
-144.7959852068566
 10
75.54508732920401
 20
-145.1112114437569
 10
75.54508732920401
 20
-145.1112114437569
 10
75.35681286093511
 20
-144.9992458404863
 10
75.35681286093511
 20
-144.9992458404863
 10
75.61915688213688
 20
-144.7729030671054
 10
75.65085176060118
 20
-144.4215033276099
 10
75.65085176060118
 20
-143.9774305195612
 10
75.65085176060118
 20
-143.6453233147831
 10
75.64671764601889
 20
-143.4317273946976
 10
75.63827716208002
 20
-143.2815212315408
 10
75.74404159347719
 20
-143.2918565179965
 10
75.83068574493122
 20
-143.2963351421273
 10
75.98313122015352
 20
-143.2963351421273
 10
75.98313122015352
 20
-143.2963351421273
 10
76.35123967275247
 20
-143.2963351421273
 10
76.35123967275247
 20
-143.2963351421273
 10
76.44632430814536
 20
-143.2963351421273
 10
76.62822534976655
 20
-143.2877224034142
 10
76.70229490269944
 20
-143.2794541742496
 10
76.70229490269944
 20
-143.2794541742496
 10
76.70229490269944
 20
-143.484437355622
 10
76.70229490269944
 20
-143.484437355622
 10
76.60290389794997
 20
-143.4737575596177
 10
76.48869898261394
 20
-143.4716905023265
 10
76.2559827825853
 20
-143.4716905023265
 10
76.2559827825853
 20
-143.4716905023265
 10
76.21360810811674
 20
-143.4716905023265
 10
76.21360810811674
 20
-143.4716905023265
 10
76.21360810811674
 20
-143.4716905023265
 10
75.83705917157893
 20
-143.4716905023265
 10
75.83705917157893
 20
-143.4716905023265
 10
75.83705917157893
 20
-143.4716905023265
 10
75.83705917157893
 20
-143.8144775031089
 10
75.83705917157893
 20
-143.8144775031089
 10
75.83705917157893
 20
-143.8144775031089
 10
76.1903537135913
 20
-143.8144775031089
 10
76.1903537135913
 20
-143.8144775031089
 10
76.2432359292899
 20
-143.8144775031089
 10
76.48232555596623
 20
-143.8082763312354
 10
76.53090140230825
 20
-143.8062092739443
 10
76.53090140230825
 20
-143.8062092739443
 10
76.60721026730653
 20
-143.8971597947549
 10
76.60721026730653
 20
-143.8971597947549
 10
76.5247002304348
 20
-144.3095377243393
 10
76.46751164537966
 20
-144.4766248553739
 10
76.35123967275247
 20
-144.656458839704
 10
76.43995088149765
 20
-144.7539550419365
 10
76.53727482895596
 20
-144.8424939959074
 10
76.73829615052028
 20
-144.93999019814
 10
76.73829615052028
 20
-144.93999019814
 10
76.57327607677682
 20
-145.0943304758792
 10
76.57327607677682
 20
-145.0943304758792
 97
        0
 97
        0
 92
        1
 93
        1
 72
     4
 94
        3
 73
     0
 74
     1
 95
       14
 96
       10
 40
0.0
 40
0.0
 40
0.0
 40
0.0
 40
1.0
 40
1.0
 40
1.0
 40
2.0
 40
2.0
 40
2.0
 40
3.0
 40
3.0
 40
3.0
 40
3.0
 10
76.08665633948529
 20
-143.9881103155655
 10
76.10370956213727
 20
-144.1655327330558
 10
76.15021835118814
 20
-144.3391655455124
 10
76.23479544535103
 20
-144.4955728805428
 10
76.2813042344019
 20
-144.4046223597322
 10
76.35968015669134
 20
-144.2247883754021
 10
76.38500160850792
 20
-143.9881103155655
 10
76.38500160850792
 20
-143.9881103155655
 10
76.08665633948529
 20
-143.9881103155655
 10
76.08665633948529
 20
-143.9881103155655
 97
        0
 97
        0
 75
     2
 76
     1
 98
        0
  0
SPLINE
  5
17F
330
157
100
AcDbEntity
  8
_U+30EC_U+30A4_U+30E4_U+30FC 1
370
     0
100
AcDbSpline
210
0.0
220
0.0
230
1.0
 70
    11
 71
     3
 72
    20
 73
    16
 74
     0
 42
0.0000000001
 43
0.0000000001
 12
1.0
 22
0.0
 32
0.0
 13
1.0
 23
0.0
 33
0.0
 40
0.0
 40
0.0
 40
0.0
 40
0.0
 40
1.0
 40
1.0
 40
1.0
 40
2.0
 40
2.0
 40
2.0
 40
3.0
 40
3.0
 40
3.0
 40
4.0
 40
4.0
 40
4.0
 40
5.0
 40
5.0
 40
5.0
 40
5.0
 10
77.40578340078744
 20
-144.1551974466001
 30
0.0
 10
77.34222138908459
 20
-144.1107557148404
 30
0.0
 10
77.31052651062029
 20
-144.0893961228318
 30
0.0
 10
77.17306720075882
 20
-144.0301404804855
 30
0.0
 10
77.02079398031077
 20
-143.9646836662658
 30
0.0
 10
76.97841930584221
 20
-143.9498697556792
 30
0.0
 10
76.92984345950018
 20
-143.9329887878015
 30
0.0
 10
76.92984345950018
 20
-143.9329887878015
 30
0.0
 10
77.02079398031077
 20
-143.7531548034714
 30
0.0
 10
77.02079398031077
 20
-143.7531548034714
 30
0.0
 10
77.07781031059166
 20
-143.7765814527711
 30
0.0
 10
77.34446070115
 20
-143.8844129414595
 30
0.0
 10
77.4988009788892
 20
-143.9922444301478
 30
0.0
 10
77.4988009788892
 20
-143.9922444301478
 30
0.0
 10
77.40578340078744
 20
-144.1551974466001
 30
0.0
 10
77.40578340078744
 20
-144.1551974466001
 30
0.0
  0
SPLINE
  5
180
330
157
100
AcDbEntity
  8
_U+30EC_U+30A4_U+30E4_U+30FC 1
370
     0
100
AcDbSpline
210
0.0
220
0.0
230
1.0
 70
    11
 71
     3
 72
    26
 73
    22
 74
     0
 42
0.0000000001
 43
0.0000000001
 12
1.0
 22
0.0
 32
0.0
 13
1.0
 23
0.0
 33
0.0
 40
0.0
 40
0.0
 40
0.0
 40
0.0
 40
1.0
 40
1.0
 40
1.0
 40
2.0
 40
2.0
 40
2.0
 40
3.0
 40
3.0
 40
3.0
 40
4.0
 40
4.0
 40
4.0
 40
5.0
 40
5.0
 40
5.0
 40
6.0
 40
6.0
 40
6.0
 40
7.0
 40
7.0
 40
7.0
 40
7.0
 10
77.27883163215598
 20
-145.0099256364906
 30
0.0
 10
77.27676457486484
 20
-145.0350748335329
 30
0.0
 10
77.27245820550827
 20
-145.0860622467146
 30
0.0
 10
77.23438990039627
 20
-145.0860622467146
 30
0.0
 10
77.22801647374855
 20
-145.0860622467146
 30
0.0
 10
77.21113550587083
 20
-145.0795165652926
 30
0.0
 10
77.1983886525754
 20
-145.0647026547061
 30
0.0
 10
77.1983886525754
 20
-145.0647026547061
 30
0.0
 10
77.03974200547965
 20
-144.857307906494
 30
0.0
 10
77.03974200547965
 20
-144.857307906494
 30
0.0
 10
77.15394692081568
 20
-144.8256130280297
 30
0.0
 10
77.382529006262
 20
-144.7622232711011
 30
0.0
 10
77.76545136944753
 20
-144.4556097729139
 30
0.0
 10
78.07637123699132
 20
-144.2079074075244
 30
0.0
 10
78.23295082679593
 20
-144.0091253980255
 30
0.0
 10
78.37885062059627
 20
-143.788983796518
 30
0.0
 10
78.37885062059627
 20
-143.788983796518
 30
0.0
 10
78.50786944651887
 20
-143.9646836662658
 30
0.0
 10
78.50786944651887
 20
-143.9646836662658
 30
0.0
 10
78.20332300562278
 20
-144.451131148783
 30
0.0
 10
77.56236299059205
 20
-144.8934814090891
 30
0.0
 10
77.27883163215598
 20
-145.0099256364906
 30
0.0
  0
SPLINE
  5
181
330
157
100
AcDbEntity
  8
_U+30EC_U+30A4_U+30E4_U+30FC 1
370
     0
100
AcDbSpline
210
0.0
220
0.0
230
1.0
 70
    11
 71
     3
 72
    17
 73
    13
 74
     0
 42
0.0000000001
 43
0.0000000001
 12
1.0
 22
0.0
 32
0.0
 13
1.0
 23
0.0
 33
0.0
 40
0.0
 40
0.0
 40
0.0
 40
0.0
 40
1.0
 40
1.0
 40
1.0
 40
2.0
 40
2.0
 40
2.0
 40
3.0
 40
3.0
 40
3.0
 40
4.0
 40
4.0
 40
4.0
 40
4.0
 10
77.64487302746379
 20
-143.6535915439477
 30
0.0
 10
77.50310734824575
 20
-143.539558883386
 30
0.0
 10
77.289339173386
 20
-143.4548095344488
 30
0.0
 10
77.1603203474634
 20
-143.4169134841111
 30
0.0
 10
77.1603203474634
 20
-143.4169134841111
 30
0.0
 10
77.24713675369169
 20
-143.2412136143633
 30
0.0
 10
77.24713675369169
 20
-143.2412136143633
 30
0.0
 10
77.43334416466945
 20
-143.3152831672962
 30
0.0
 10
77.60043129570406
 20
-143.4020995735245
 30
0.0
 10
77.73582354827438
 20
-143.484437355622
 30
0.0
 10
77.73582354827438
 20
-143.484437355622
 30
0.0
 10
77.64487302746379
 20
-143.6535915439477
 30
0.0
 10
77.64487302746379
 20
-143.6535915439477
 30
0.0
  0
SPLINE
  5
182
330
157
100
AcDbEntity
  8
_U+30EC_U+30A4_U+30E4_U+30FC 1
370
     0
100
AcDbSpline
210
0.0
220
0.0
230
1.0
 70
    11
 71
     3
 72
    17
 73
    13
 74
     0
 42
0.0000000001
 43
0.0000000001
 12
1.0
 22
0.0
 32
0.0
 13
1.0
 23
0.0
 33
0.0
 40
0.0
 40
0.0
 40
0.0
 40
0.0
 40
1.0
 40
1.0
 40
1.0
 40
2.0
 40
2.0
 40
2.0
 40
3.0
 40
3.0
 40
3.0
 40
4.0
 40
4.0
 40
4.0
 40
4.0
 10
78.3006469530811
 20
-143.5795219910148
 30
0.0
 10
78.24569768009135
 20
-143.5226779155082
 30
0.0
 10
78.18420272567965
 20
-143.4634222731619
 30
0.0
 10
78.06999781034362
 20
-143.3914197775202
 30
0.0
 10
78.06999781034362
 20
-143.3914197775202
 30
0.0
 10
78.16525470051077
 20
-143.2877224034142
 30
0.0
 10
78.16525470051077
 20
-143.2877224034142
 30
0.0
 10
78.24345836802594
 20
-143.3300970778828
 30
0.0
 10
78.34715574213196
 20
-143.3893527202291
 30
0.0
 10
78.40641138447826
 20
-143.4716905023265
 30
0.0
 10
78.40641138447826
 20
-143.4716905023265
 30
0.0
 10
78.3006469530811
 20
-143.5795219910148
 30
0.0
 10
78.3006469530811
 20
-143.5795219910148
 30
0.0
  0
SPLINE
  5
183
330
157
100
AcDbEntity
  8
_U+30EC_U+30A4_U+30E4_U+30FC 1
370
     0
100
AcDbSpline
210
0.0
220
0.0
230
1.0
 70
    11
 71
     3
 72
    17
 73
    13
 74
     0
 42
0.0000000001
 43
0.0000000001
 12
1.0
 22
0.0
 32
0.0
 13
1.0
 23
0.0
 33
0.0
 40
0.0
 40
0.0
 40
0.0
 40
0.0
 40
1.0
 40
1.0
 40
1.0
 40
2.0
 40
2.0
 40
2.0
 40
3.0
 40
3.0
 40
3.0
 40
4.0
 40
4.0
 40
4.0
 40
4.0
 10
78.526989726462
 20
-143.4251817132757
 30
0.0
 10
78.50786944651887
 20
-143.4083007453979
 30
0.0
 10
78.30271401037224
 20
-143.2518934103676
 30
0.0
 10
78.27515324649025
 20
-143.2326008756502
 30
0.0
 10
78.27515324649025
 20
-143.2326008756502
 30
0.0
 10
78.38315698995282
 20
-143.1227023296707
 30
0.0
 10
78.38315698995282
 20
-143.1227023296707
 30
0.0
 10
78.4930555359323
 20
-143.1988389398947
 30
0.0
 10
78.50580238922772
 20
-143.209518735899
 30
0.0
 10
78.63275415785918
 20
-143.3152831672962
 30
0.0
 10
78.63275415785918
 20
-143.3152831672962
 30
0.0
 10
78.526989726462
 20
-143.4251817132757
 30
0.0
 10
78.526989726462
 20
-143.4251817132757
 30
0.0
  0
HATCH
  5
184
330
157
100
AcDbEntity
  8
_U+30EC_U+30A4_U+30E4_U+30FC 1
 62
   179
420
  2234388
100
AcDbHatch
 10
0.0
 20
0.0
 30
0.0
210
0.0
220
0.0
230
1.0
  2
SOLID
 70
     1
 71
     0
 91
        5
 92
        1
 93
        1
 72
     4
 94
        3
 73
     0
 74
     1
 95
       20
 96
       16
 40
0.0
 40
0.0
 40
0.0
 40
0.0
 40
1.0
 40
1.0
 40
1.0
 40
2.0
 40
2.0
 40
2.0
 40
3.0
 40
3.0
 40
3.0
 40
4.0
 40
4.0
 40
4.0
 40
5.0
 40
5.0
 40
5.0
 40
5.0
 10
77.40578340078744
 20
-144.1551974466001
 10
77.34222138908459
 20
-144.1107557148404
 10
77.31052651062029
 20
-144.0893961228318
 10
77.17306720075882
 20
-144.0301404804855
 10
77.02079398031077
 20
-143.9646836662658
 10
76.97841930584221
 20
-143.9498697556792
 10
76.92984345950018
 20
-143.9329887878015
 10
76.92984345950018
 20
-143.9329887878015
 10
77.02079398031077
 20
-143.7531548034714
 10
77.02079398031077
 20
-143.7531548034714
 10
77.07781031059166
 20
-143.7765814527711
 10
77.34446070115
 20
-143.8844129414595
 10
77.4988009788892
 20
-143.9922444301478
 10
77.4988009788892
 20
-143.9922444301478
 10
77.40578340078744
 20
-144.1551974466001
 10
77.40578340078744
 20
-144.1551974466001
 97
        0
 97
        0
 92
        1
 93
        1
 72
     4
 94
        3
 73
     0
 74
     1
 95
       26
 96
       22
 40
0.0
 40
0.0
 40
0.0
 40
0.0
 40
1.0
 40
1.0
 40
1.0
 40
2.0
 40
2.0
 40
2.0
 40
3.0
 40
3.0
 40
3.0
 40
4.0
 40
4.0
 40
4.0
 40
5.0
 40
5.0
 40
5.0
 40
6.0
 40
6.0
 40
6.0
 40
7.0
 40
7.0
 40
7.0
 40
7.0
 10
77.27883163215598
 20
-145.0099256364906
 10
77.27676457486484
 20
-145.0350748335329
 10
77.27245820550827
 20
-145.0860622467146
 10
77.23438990039627
 20
-145.0860622467146
 10
77.22801647374855
 20
-145.0860622467146
 10
77.21113550587083
 20
-145.0795165652926
 10
77.1983886525754
 20
-145.0647026547061
 10
77.1983886525754
 20
-145.0647026547061
 10
77.03974200547965
 20
-144.857307906494
 10
77.03974200547965
 20
-144.857307906494
 10
77.15394692081568
 20
-144.8256130280297
 10
77.382529006262
 20
-144.7622232711011
 10
77.76545136944753
 20
-144.4556097729139
 10
78.07637123699132
 20
-144.2079074075244
 10
78.23295082679593
 20
-144.0091253980255
 10
78.37885062059627
 20
-143.788983796518
 10
78.37885062059627
 20
-143.788983796518
 10
78.50786944651887
 20
-143.9646836662658
 10
78.50786944651887
 20
-143.9646836662658
 10
78.20332300562278
 20
-144.451131148783
 10
77.56236299059205
 20
-144.8934814090891
 10
77.27883163215598
 20
-145.0099256364906
 97
        0
 97
        0
 92
        1
 93
        1
 72
     4
 94
        3
 73
     0
 74
     1
 95
       17
 96
       13
 40
0.0
 40
0.0
 40
0.0
 40
0.0
 40
1.0
 40
1.0
 40
1.0
 40
2.0
 40
2.0
 40
2.0
 40
3.0
 40
3.0
 40
3.0
 40
4.0
 40
4.0
 40
4.0
 40
4.0
 10
77.64487302746379
 20
-143.6535915439477
 10
77.50310734824575
 20
-143.539558883386
 10
77.289339173386
 20
-143.4548095344488
 10
77.1603203474634
 20
-143.4169134841111
 10
77.1603203474634
 20
-143.4169134841111
 10
77.24713675369169
 20
-143.2412136143633
 10
77.24713675369169
 20
-143.2412136143633
 10
77.43334416466945
 20
-143.3152831672962
 10
77.60043129570406
 20
-143.4020995735245
 10
77.73582354827438
 20
-143.484437355622
 10
77.73582354827438
 20
-143.484437355622
 10
77.64487302746379
 20
-143.6535915439477
 10
77.64487302746379
 20
-143.6535915439477
 97
        0
 97
        0
 92
        1
 93
        1
 72
     4
 94
        3
 73
     0
 74
     1
 95
       17
 96
       13
 40
0.0
 40
0.0
 40
0.0
 40
0.0
 40
1.0
 40
1.0
 40
1.0
 40
2.0
 40
2.0
 40
2.0
 40
3.0
 40
3.0
 40
3.0
 40
4.0
 40
4.0
 40
4.0
 40
4.0
 10
78.3006469530811
 20
-143.5795219910148
 10
78.24569768009135
 20
-143.5226779155082
 10
78.18420272567965
 20
-143.4634222731619
 10
78.06999781034362
 20
-143.3914197775202
 10
78.06999781034362
 20
-143.3914197775202
 10
78.16525470051077
 20
-143.2877224034142
 10
78.16525470051077
 20
-143.2877224034142
 10
78.24345836802594
 20
-143.3300970778828
 10
78.34715574213196
 20
-143.3893527202291
 10
78.40641138447826
 20
-143.4716905023265
 10
78.40641138447826
 20
-143.4716905023265
 10
78.3006469530811
 20
-143.5795219910148
 10
78.3006469530811
 20
-143.5795219910148
 97
        0
 97
        0
 92
        1
 93
        1
 72
     4
 94
        3
 73
     0
 74
     1
 95
       17
 96
       13
 40
0.0
 40
0.0
 40
0.0
 40
0.0
 40
1.0
 40
1.0
 40
1.0
 40
2.0
 40
2.0
 40
2.0
 40
3.0
 40
3.0
 40
3.0
 40
4.0
 40
4.0
 40
4.0
 40
4.0
 10
78.526989726462
 20
-143.4251817132757
 10
78.50786944651887
 20
-143.4083007453979
 10
78.30271401037224
 20
-143.2518934103676
 10
78.27515324649025
 20
-143.2326008756502
 10
78.27515324649025
 20
-143.2326008756502
 10
78.38315698995282
 20
-143.1227023296707
 10
78.38315698995282
 20
-143.1227023296707
 10
78.4930555359323
 20
-143.1988389398947
 10
78.50580238922772
 20
-143.209518735899
 10
78.63275415785918
 20
-143.3152831672962
 10
78.63275415785918
 20
-143.3152831672962
 10
78.526989726462
 20
-143.4251817132757
 10
78.526989726462
 20
-143.4251817132757
 97
        0
 97
        0
 75
     2
 76
     1
 98
        0
  0
SPLINE
  5
185
330
157
100
AcDbEntity
  8
_U+30EC_U+30A4_U+30E4_U+30FC 1
370
     0
100
AcDbSpline
210
0.0
220
0.0
230
1.0
 70
    11
 71
     3
 72
    68
 73
    64
 74
     0
 42
0.0000000001
 43
0.0000000001
 12
1.0
 22
0.0
 32
0.0
 13
1.0
 23
0.0
 33
0.0
 40
0.0
 40
0.0
 40
0.0
 40
0.0
 40
1.0
 40
1.0
 40
1.0
 40
2.0
 40
2.0
 40
2.0
 40
3.0
 40
3.0
 40
3.0
 40
4.0
 40
4.0
 40
4.0
 40
5.0
 40
5.0
 40
5.0
 40
6.0
 40
6.0
 40
6.0
 40
7.0
 40
7.0
 40
7.0
 40
8.0
 40
8.0
 40
8.0
 40
9.0
 40
9.0
 40
9.0
 40
10.0
 40
10.0
 40
10.0
 40
11.0
 40
11.0
 40
11.0
 40
12.0
 40
12.0
 40
12.0
 40
13.0
 40
13.0
 40
13.0
 40
14.0
 40
14.0
 40
14.0
 40
15.0
 40
15.0
 40
15.0
 40
16.0
 40
16.0
 40
16.0
 40
17.0
 40
17.0
 40
17.0
 40
18.0
 40
18.0
 40
18.0
 40
19.0
 40
19.0
 40
19.0
 40
20.0
 40
20.0
 40
20.0
 40
21.0
 40
21.0
 40
21.0
 40
21.0
 10
79.7486205855316
 20
-145.0033799550686
 30
0.0
 10
79.75068764282275
 20
-144.9630723378912
 30
0.0
 10
79.75068764282275
 20
-144.9441243127223
 30
0.0
 10
79.7527547001139
 20
-144.91897511568
 30
0.0
 10
79.7527547001139
 20
-144.91897511568
 30
0.0
 10
79.12023516902202
 20
-144.91897511568
 30
0.0
 10
79.12023516902202
 20
-144.91897511568
 30
0.0
 10
79.04409855879801
 20
-144.91897511568
 30
0.0
 10
78.8875189689934
 20
-144.9231092302623
 30
0.0
 10
78.7690076843008
 20
-144.9313774594269
 30
0.0
 10
78.7690076843008
 20
-144.9313774594269
 30
0.0
 10
78.7690076843008
 20
-144.7663573856834
 30
0.0
 10
78.7690076843008
 20
-144.7663573856834
 30
0.0
 10
78.8599582051114
 20
-144.7749701243965
 30
0.0
 10
79.04823267338031
 20
-144.78117129627
 30
0.0
 10
79.12023516902202
 20
-144.78117129627
 30
0.0
 10
79.12023516902202
 20
-144.78117129627
 30
0.0
 10
79.7527547001139
 20
-144.78117129627
 30
0.0
 10
79.7527547001139
 20
-144.78117129627
 30
0.0
 10
79.7527547001139
 20
-144.78117129627
 30
0.0
 10
79.7527547001139
 20
-144.4387288050362
 30
0.0
 10
79.7527547001139
 20
-144.4387288050362
 30
0.0
 10
79.7527547001139
 20
-144.4387288050362
 30
0.0
 10
79.16467690078176
 20
-144.4387288050362
 30
0.0
 10
79.16467690078176
 20
-144.4387288050362
 30
0.0
 10
79.0652858960323
 20
-144.4387288050362
 30
0.0
 10
78.94246824198314
 20
-144.4449299769096
 30
0.0
 10
78.81344941606054
 20
-144.4535427156227
 30
0.0
 10
78.81344941606054
 20
-144.4535427156227
 30
0.0
 10
78.81344941606054
 20
-144.2861110750396
 30
0.0
 10
78.81344941606054
 20
-144.2861110750396
 30
0.0
 10
78.9192138474577
 20
-144.2947238137527
 30
0.0
 10
79.1074883157266
 20
-144.3009249856262
 30
0.0
 10
79.16467690078176
 20
-144.3009249856262
 30
0.0
 10
79.16467690078176
 20
-144.3009249856262
 30
0.0
 10
79.7527547001139
 20
-144.3009249856262
 30
0.0
 10
79.7527547001139
 20
-144.3009249856262
 30
0.0
 10
79.7527547001139
 20
-144.3009249856262
 30
0.0
 10
79.7527547001139
 20
-143.9646836662658
 30
0.0
 10
79.7527547001139
 20
-143.9646836662658
 30
0.0
 10
79.7527547001139
 20
-143.9646836662658
 30
0.0
 10
79.14779593290403
 20
-143.9646836662658
 30
0.0
 10
79.14779593290403
 20
-143.9646836662658
 30
0.0
 10
79.04203150150686
 20
-143.9646836662658
 30
0.0
 10
78.94246824198314
 20
-143.9688177808481
 30
0.0
 10
78.79656844818281
 20
-143.9794975768524
 30
0.0
 10
78.79656844818281
 20
-143.9794975768524
 30
0.0
 10
78.79656844818281
 20
-143.8124104458177
 30
0.0
 10
78.79656844818281
 20
-143.8124104458177
 30
0.0
 10
78.89389239564112
 20
-143.8210231845309
 30
0.0
 10
79.07165932268
 20
-143.8272243564043
 30
0.0
 10
79.14779593290403
 20
-143.8272243564043
 30
0.0
 10
79.14779593290403
 20
-143.8272243564043
 30
0.0
 10
79.9134684045008
 20
-143.8272243564043
 30
0.0
 10
79.9134684045008
 20
-143.8272243564043
 30
0.0
 10
79.9134684045008
 20
-143.8272243564043
 30
0.0
 10
79.9134684045008
 20
-144.6354437572439
 30
0.0
 10
79.9134684045008
 20
-144.6354437572439
 30
0.0
 10
79.9134684045008
 20
-144.6988335141725
 30
0.0
 10
79.91777477385736
 20
-144.8597194733337
 30
0.0
 10
79.92621525779623
 20
-145.0033799550686
 30
0.0
 10
79.92621525779623
 20
-145.0033799550686
 30
0.0
 10
79.7486205855316
 20
-145.0033799550686
 30
0.0
 10
79.7486205855316
 20
-145.0033799550686
 30
0.0
  0
HATCH
  5
186
330
157
100
AcDbEntity
  8
_U+30EC_U+30A4_U+30E4_U+30FC 1
 62
   179
420
  2234388
100
AcDbHatch
 10
0.0
 20
0.0
 30
0.0
210
0.0
220
0.0
230
1.0
  2
SOLID
 70
     1
 71
     0
 91
        1
 92
        1
 93
        1
 72
     4
 94
        3
 73
     0
 74
     1
 95
       68
 96
       64
 40
0.0
 40
0.0
 40
0.0
 40
0.0
 40
1.0
 40
1.0
 40
1.0
 40
2.0
 40
2.0
 40
2.0
 40
3.0
 40
3.0
 40
3.0
 40
4.0
 40
4.0
 40
4.0
 40
5.0
 40
5.0
 40
5.0
 40
6.0
 40
6.0
 40
6.0
 40
7.0
 40
7.0
 40
7.0
 40
8.0
 40
8.0
 40
8.0
 40
9.0
 40
9.0
 40
9.0
 40
10.0
 40
10.0
 40
10.0
 40
11.0
 40
11.0
 40
11.0
 40
12.0
 40
12.0
 40
12.0
 40
13.0
 40
13.0
 40
13.0
 40
14.0
 40
14.0
 40
14.0
 40
15.0
 40
15.0
 40
15.0
 40
16.0
 40
16.0
 40
16.0
 40
17.0
 40
17.0
 40
17.0
 40
18.0
 40
18.0
 40
18.0
 40
19.0
 40
19.0
 40
19.0
 40
20.0
 40
20.0
 40
20.0
 40
21.0
 40
21.0
 40
21.0
 40
21.0
 10
79.7486205855316
 20
-145.0033799550686
 10
79.75068764282275
 20
-144.9630723378912
 10
79.75068764282275
 20
-144.9441243127223
 10
79.7527547001139
 20
-144.91897511568
 10
79.7527547001139
 20
-144.91897511568
 10
79.12023516902202
 20
-144.91897511568
 10
79.12023516902202
 20
-144.91897511568
 10
79.04409855879801
 20
-144.91897511568
 10
78.8875189689934
 20
-144.9231092302623
 10
78.7690076843008
 20
-144.9313774594269
 10
78.7690076843008
 20
-144.9313774594269
 10
78.7690076843008
 20
-144.7663573856834
 10
78.7690076843008
 20
-144.7663573856834
 10
78.8599582051114
 20
-144.7749701243965
 10
79.04823267338031
 20
-144.78117129627
 10
79.12023516902202
 20
-144.78117129627
 10
79.12023516902202
 20
-144.78117129627
 10
79.7527547001139
 20
-144.78117129627
 10
79.7527547001139
 20
-144.78117129627
 10
79.7527547001139
 20
-144.78117129627
 10
79.7527547001139
 20
-144.4387288050362
 10
79.7527547001139
 20
-144.4387288050362
 10
79.7527547001139
 20
-144.4387288050362
 10
79.16467690078176
 20
-144.4387288050362
 10
79.16467690078176
 20
-144.4387288050362
 10
79.0652858960323
 20
-144.4387288050362
 10
78.94246824198314
 20
-144.4449299769096
 10
78.81344941606054
 20
-144.4535427156227
 10
78.81344941606054
 20
-144.4535427156227
 10
78.81344941606054
 20
-144.2861110750396
 10
78.81344941606054
 20
-144.2861110750396
 10
78.9192138474577
 20
-144.2947238137527
 10
79.1074883157266
 20
-144.3009249856262
 10
79.16467690078176
 20
-144.3009249856262
 10
79.16467690078176
 20
-144.3009249856262
 10
79.7527547001139
 20
-144.3009249856262
 10
79.7527547001139
 20
-144.3009249856262
 10
79.7527547001139
 20
-144.3009249856262
 10
79.7527547001139
 20
-143.9646836662658
 10
79.7527547001139
 20
-143.9646836662658
 10
79.7527547001139
 20
-143.9646836662658
 10
79.14779593290403
 20
-143.9646836662658
 10
79.14779593290403
 20
-143.9646836662658
 10
79.04203150150686
 20
-143.9646836662658
 10
78.94246824198314
 20
-143.9688177808481
 10
78.79656844818281
 20
-143.9794975768524
 10
78.79656844818281
 20
-143.9794975768524
 10
78.79656844818281
 20
-143.8124104458177
 10
78.79656844818281
 20
-143.8124104458177
 10
78.89389239564112
 20
-143.8210231845309
 10
79.07165932268
 20
-143.8272243564043
 10
79.14779593290403
 20
-143.8272243564043
 10
79.14779593290403
 20
-143.8272243564043
 10
79.9134684045008
 20
-143.8272243564043
 10
79.9134684045008
 20
-143.8272243564043
 10
79.9134684045008
 20
-143.8272243564043
 10
79.9134684045008
 20
-144.6354437572439
 10
79.9134684045008
 20
-144.6354437572439
 10
79.9134684045008
 20
-144.6988335141725
 10
79.91777477385736
 20
-144.8597194733337
 10
79.92621525779623
 20
-145.0033799550686
 10
79.92621525779623
 20
-145.0033799550686
 10
79.7486205855316
 20
-145.0033799550686
 10
79.7486205855316
 20
-145.0033799550686
 97
        0
 97
        0
 75
     2
 76
     1
 98
        0
  0
SPLINE
  5
187
330
157
100
AcDbEntity
  8
_U+30EC_U+30A4_U+30E4_U+30FC 1
370
     0
100
AcDbSpline
210
0.0
220
0.0
230
1.0
 70
    11
 71
     3
 72
    50
 73
    46
 74
     0
 42
0.0000000001
 43
0.0000000001
 12
1.0
 22
0.0
 32
0.0
 13
1.0
 23
0.0
 33
0.0
 40
0.0
 40
0.0
 40
0.0
 40
0.0
 40
1.0
 40
1.0
 40
1.0
 40
2.0
 40
2.0
 40
2.0
 40
3.0
 40
3.0
 40
3.0
 40
4.0
 40
4.0
 40
4.0
 40
5.0
 40
5.0
 40
5.0
 40
6.0
 40
6.0
 40
6.0
 40
7.0
 40
7.0
 40
7.0
 40
8.0
 40
8.0
 40
8.0
 40
9.0
 40
9.0
 40
9.0
 40
10.0
 40
10.0
 40
10.0
 40
11.0
 40
11.0
 40
11.0
 40
12.0
 40
12.0
 40
12.0
 40
13.0
 40
13.0
 40
13.0
 40
14.0
 40
14.0
 40
14.0
 40
15.0
 40
15.0
 40
15.0
 40
15.0
 10
81.56039630122449
 20
-143.5013183234997
 30
0.0
 10
81.3509344957213
 20
-143.7149142435852
 30
0.0
 10
81.27893200007958
 20
-143.7869167392269
 30
0.0
 10
81.13716632086154
 20
-143.9054280239195
 30
0.0
 10
81.13716632086154
 20
-143.9054280239195
 30
0.0
 10
81.13716632086154
 20
-144.4724907407916
 30
0.0
 10
81.13716632086154
 20
-144.4724907407916
 30
0.0
 10
81.13716632086154
 20
-144.6226969039485
 30
0.0
 10
81.14353974750925
 20
-144.6416449291174
 30
0.0
 10
81.14784611686582
 20
-144.8194118561563
 30
0.0
 10
81.14991317415696
 20
-144.9506699941443
 30
0.0
 10
81.15628660080468
 20
-144.9992458404863
 30
0.0
 10
81.16266002745239
 20
-145.0585014828326
 30
0.0
 10
81.16266002745239
 20
-145.0585014828326
 30
0.0
 10
80.93631725407148
 20
-145.0585014828326
 30
0.0
 10
80.93631725407148
 20
-145.0585014828326
 30
0.0
 10
80.94045136865378
 20
-145.0140597510729
 30
0.0
 10
80.94475773801034
 20
-144.967550962022
 30
0.0
 10
80.94475773801034
 20
-144.9589382233089
 30
0.0
 10
80.94475773801034
 20
-144.8786674985026
 30
0.0
 10
80.94889185259264
 20
-144.5272677590071
 30
0.0
 10
80.94889185259264
 20
-144.4556097729139
 30
0.0
 10
80.94889185259264
 20
-144.4556097729139
 30
0.0
 10
80.94889185259264
 20
-144.0494330152029
 30
0.0
 10
80.94889185259264
 20
-144.0494330152029
 30
0.0
 10
80.76699081097145
 20
-144.174145471769
 30
0.0
 10
80.57234291605484
 20
-144.2840440177484
 30
0.0
 10
80.36925453719935
 20
-144.3708604239767
 30
0.0
 10
80.36925453719935
 20
-144.3708604239767
 30
0.0
 10
80.16616615834388
 20
-144.2079074075244
 30
0.0
 10
80.16616615834388
 20
-144.2079074075244
 30
0.0
 10
80.28881155761877
 20
-144.1720784144778
 30
0.0
 10
80.5449544069471
 20
-144.0980088615449
 30
0.0
 10
80.88963621024635
 20
-143.8420382669909
 30
0.0
 10
81.10547144239725
 20
-143.6832193651209
 30
0.0
 10
81.29788002524845
 20
-143.4951171516262
 30
0.0
 10
81.4501532456965
 20
-143.2749755501188
 30
0.0
 10
81.4501532456965
 20
-143.2749755501188
 30
0.0
 10
81.64273408332195
 20
-143.4189805414022
 30
0.0
 10
81.64273408332195
 20
-143.4189805414022
 30
0.0
 10
81.65548093661738
 20
-143.4293158278579
 30
0.0
 10
81.6640936753305
 20
-143.4441297384445
 30
0.0
 10
81.6640936753305
 20
-143.45687659174
 30
0.0
 10
81.6640936753305
 20
-143.4971842089174
 30
0.0
 10
81.62585311544423
 20
-143.4971842089174
 30
0.0
 10
81.56039630122449
 20
-143.5013183234997
 30
0.0
  0
HATCH
  5
188
330
157
100
AcDbEntity
  8
_U+30EC_U+30A4_U+30E4_U+30FC 1
 62
   179
420
  2234388
100
AcDbHatch
 10
0.0
 20
0.0
 30
0.0
210
0.0
220
0.0
230
1.0
  2
SOLID
 70
     1
 71
     0
 91
        1
 92
        1
 93
        1
 72
     4
 94
        3
 73
     0
 74
     1
 95
       50
 96
       46
 40
0.0
 40
0.0
 40
0.0
 40
0.0
 40
1.0
 40
1.0
 40
1.0
 40
2.0
 40
2.0
 40
2.0
 40
3.0
 40
3.0
 40
3.0
 40
4.0
 40
4.0
 40
4.0
 40
5.0
 40
5.0
 40
5.0
 40
6.0
 40
6.0
 40
6.0
 40
7.0
 40
7.0
 40
7.0
 40
8.0
 40
8.0
 40
8.0
 40
9.0
 40
9.0
 40
9.0
 40
10.0
 40
10.0
 40
10.0
 40
11.0
 40
11.0
 40
11.0
 40
12.0
 40
12.0
 40
12.0
 40
13.0
 40
13.0
 40
13.0
 40
14.0
 40
14.0
 40
14.0
 40
15.0
 40
15.0
 40
15.0
 40
15.0
 10
81.56039630122449
 20
-143.5013183234997
 10
81.3509344957213
 20
-143.7149142435852
 10
81.27893200007958
 20
-143.7869167392269
 10
81.13716632086154
 20
-143.9054280239195
 10
81.13716632086154
 20
-143.9054280239195
 10
81.13716632086154
 20
-144.4724907407916
 10
81.13716632086154
 20
-144.4724907407916
 10
81.13716632086154
 20
-144.6226969039485
 10
81.14353974750925
 20
-144.6416449291174
 10
81.14784611686582
 20
-144.8194118561563
 10
81.14991317415696
 20
-144.9506699941443
 10
81.15628660080468
 20
-144.9992458404863
 10
81.16266002745239
 20
-145.0585014828326
 10
81.16266002745239
 20
-145.0585014828326
 10
80.93631725407148
 20
-145.0585014828326
 10
80.93631725407148
 20
-145.0585014828326
 10
80.94045136865378
 20
-145.0140597510729
 10
80.94475773801034
 20
-144.967550962022
 10
80.94475773801034
 20
-144.9589382233089
 10
80.94475773801034
 20
-144.8786674985026
 10
80.94889185259264
 20
-144.5272677590071
 10
80.94889185259264
 20
-144.4556097729139
 10
80.94889185259264
 20
-144.4556097729139
 10
80.94889185259264
 20
-144.0494330152029
 10
80.94889185259264
 20
-144.0494330152029
 10
80.76699081097145
 20
-144.174145471769
 10
80.57234291605484
 20
-144.2840440177484
 10
80.36925453719935
 20
-144.3708604239767
 10
80.36925453719935
 20
-144.3708604239767
 10
80.16616615834388
 20
-144.2079074075244
 10
80.16616615834388
 20
-144.2079074075244
 10
80.28881155761877
 20
-144.1720784144778
 10
80.5449544069471
 20
-144.0980088615449
 10
80.88963621024635
 20
-143.8420382669909
 10
81.10547144239725
 20
-143.6832193651209
 10
81.29788002524845
 20
-143.4951171516262
 10
81.4501532456965
 20
-143.2749755501188
 10
81.4501532456965
 20
-143.2749755501188
 10
81.64273408332195
 20
-143.4189805414022
 10
81.64273408332195
 20
-143.4189805414022
 10
81.65548093661738
 20
-143.4293158278579
 10
81.6640936753305
 20
-143.4441297384445
 10
81.6640936753305
 20
-143.45687659174
 10
81.6640936753305
 20
-143.4971842089174
 10
81.62585311544423
 20
-143.4971842089174
 10
81.56039630122449
 20
-143.5013183234997
 97
        0
 97
        0
 75
     2
 76
     1
 98
        0
  0
SPLINE
  5
189
330
157
100
AcDbEntity
  8
_U+30EC_U+30A4_U+30E4_U+30FC 1
370
     0
100
AcDbSpline
210
0.0
220
0.0
230
1.0
 70
    11
 71
     3
 72
    26
 73
    22
 74
     0
 42
0.0000000001
 43
0.0000000001
 12
1.0
 22
0.0
 32
0.0
 13
1.0
 23
0.0
 33
0.0
 40
0.0
 40
0.0
 40
0.0
 40
0.0
 40
1.0
 40
1.0
 40
1.0
 40
2.0
 40
2.0
 40
2.0
 40
3.0
 40
3.0
 40
3.0
 40
4.0
 40
4.0
 40
4.0
 40
5.0
 40
5.0
 40
5.0
 40
6.0
 40
6.0
 40
6.0
 40
7.0
 40
7.0
 40
7.0
 40
7.0
 10
82.12194686532021
 20
-144.9293104021357
 30
0.0
 10
82.11746824118939
 20
-144.9379231408489
 30
0.0
 10
82.10713295473364
 20
-144.9716850766043
 30
0.0
 10
82.10265433060282
 20
-144.9778862484777
 30
0.0
 10
82.09852021602052
 20
-144.9864989871909
 30
0.0
 10
82.09025198685592
 20
-144.9906331017732
 30
0.0
 10
82.07957219085164
 20
-144.9906331017732
 30
0.0
 10
82.06475828026507
 20
-144.9906331017732
 30
0.0
 10
82.05855710839161
 20
-144.9823648726086
 30
0.0
 10
82.03513045909192
 20
-144.93999019814
 30
0.0
 10
82.03513045909192
 20
-144.93999019814
 30
0.0
 10
81.92075328898162
 20
-144.7198485966325
 30
0.0
 10
81.92075328898162
 20
-144.7198485966325
 30
0.0
 10
82.24665932188626
 20
-144.6754068648728
 30
0.0
 10
83.008369933675
 20
-144.3432996600947
 30
0.0
 10
83.41006806725512
 20
-143.8251572991132
 30
0.0
 10
83.41006806725512
 20
-143.8251572991132
 30
0.0
 10
83.49481741619228
 20
-144.0301404804855
 30
0.0
 10
83.49481741619228
 20
-144.0301404804855
 30
0.0
 10
83.08002791976818
 20
-144.5189995298425
 30
0.0
 10
82.41374645292088
 20
-144.8045979455697
 30
0.0
 10
82.12194686532021
 20
-144.9293104021357
 30
0.0
  0
SPLINE
  5
18A
330
157
100
AcDbEntity
  8
_U+30EC_U+30A4_U+30E4_U+30FC 1
370
     0
100
AcDbSpline
210
0.0
220
0.0
230
1.0
 70
    11
 71
     3
 72
    17
 73
    13
 74
     0
 42
0.0000000001
 43
0.0000000001
 12
1.0
 22
0.0
 32
0.0
 13
1.0
 23
0.0
 33
0.0
 40
0.0
 40
0.0
 40
0.0
 40
0.0
 40
1.0
 40
1.0
 40
1.0
 40
2.0
 40
2.0
 40
2.0
 40
3.0
 40
3.0
 40
3.0
 40
4.0
 40
4.0
 40
4.0
 40
4.0
 10
82.41581351021202
 20
-143.8379041524086
 30
0.0
 10
82.2762871430594
 20
-143.7045789571294
 30
0.0
 10
82.05855710839161
 20
-143.5902017870191
 30
0.0
 10
81.95485973428559
 20
-143.5457600552594
 30
0.0
 10
81.95485973428559
 20
-143.5457600552594
 30
0.0
 10
82.07095945213851
 20
-143.3555907844736
 30
0.0
 10
82.07095945213851
 20
-143.3555907844736
 30
0.0
 10
82.38618568903887
 20
-143.5057969476305
 30
0.0
 10
82.48161483398029
 20
-143.5967474684411
 30
0.0
 10
82.53639185219576
 20
-143.6494574293654
 30
0.0
 10
82.53639185219576
 20
-143.6494574293654
 30
0.0
 10
82.41581351021202
 20
-143.8379041524086
 30
0.0
 10
82.41581351021202
 20
-143.8379041524086
 30
0.0
  0
HATCH
  5
18B
330
157
100
AcDbEntity
  8
_U+30EC_U+30A4_U+30E4_U+30FC 1
 62
   179
420
  2234388
100
AcDbHatch
 10
0.0
 20
0.0
 30
0.0
210
0.0
220
0.0
230
1.0
  2
SOLID
 70
     1
 71
     0
 91
        2
 92
        1
 93
        1
 72
     4
 94
        3
 73
     0
 74
     1
 95
       26
 96
       22
 40
0.0
 40
0.0
 40
0.0
 40
0.0
 40
1.0
 40
1.0
 40
1.0
 40
2.0
 40
2.0
 40
2.0
 40
3.0
 40
3.0
 40
3.0
 40
4.0
 40
4.0
 40
4.0
 40
5.0
 40
5.0
 40
5.0
 40
6.0
 40
6.0
 40
6.0
 40
7.0
 40
7.0
 40
7.0
 40
7.0
 10
82.12194686532021
 20
-144.9293104021357
 10
82.11746824118939
 20
-144.9379231408489
 10
82.10713295473364
 20
-144.9716850766043
 10
82.10265433060282
 20
-144.9778862484777
 10
82.09852021602052
 20
-144.9864989871909
 10
82.09025198685592
 20
-144.9906331017732
 10
82.07957219085164
 20
-144.9906331017732
 10
82.06475828026507
 20
-144.9906331017732
 10
82.05855710839161
 20
-144.9823648726086
 10
82.03513045909192
 20
-144.93999019814
 10
82.03513045909192
 20
-144.93999019814
 10
81.92075328898162
 20
-144.7198485966325
 10
81.92075328898162
 20
-144.7198485966325
 10
82.24665932188626
 20
-144.6754068648728
 10
83.008369933675
 20
-144.3432996600947
 10
83.41006806725512
 20
-143.8251572991132
 10
83.41006806725512
 20
-143.8251572991132
 10
83.49481741619228
 20
-144.0301404804855
 10
83.49481741619228
 20
-144.0301404804855
 10
83.08002791976818
 20
-144.5189995298425
 10
82.41374645292088
 20
-144.8045979455697
 10
82.12194686532021
 20
-144.9293104021357
 97
        0
 97
        0
 92
        1
 93
        1
 72
     4
 94
        3
 73
     0
 74
     1
 95
       17
 96
       13
 40
0.0
 40
0.0
 40
0.0
 40
0.0
 40
1.0
 40
1.0
 40
1.0
 40
2.0
 40
2.0
 40
2.0
 40
3.0
 40
3.0
 40
3.0
 40
4.0
 40
4.0
 40
4.0
 40
4.0
 10
82.41581351021202
 20
-143.8379041524086
 10
82.2762871430594
 20
-143.7045789571294
 10
82.05855710839161
 20
-143.5902017870191
 10
81.95485973428559
 20
-143.5457600552594
 10
81.95485973428559
 20
-143.5457600552594
 10
82.07095945213851
 20
-143.3555907844736
 10
82.07095945213851
 20
-143.3555907844736
 10
82.38618568903887
 20
-143.5057969476305
 10
82.48161483398029
 20
-143.5967474684411
 10
82.53639185219576
 20
-143.6494574293654
 10
82.53639185219576
 20
-143.6494574293654
 10
82.41581351021202
 20
-143.8379041524086
 10
82.41581351021202
 20
-143.8379041524086
 97
        0
 97
        0
 75
     2
 76
     1
 98
        0
  0
SPLINE
  5
18C
330
157
100
AcDbEntity
  8
_U+30EC_U+30A4_U+30E4_U+30FC 1
370
     0
100
AcDbSpline
210
0.0
220
0.0
230
1.0
 70
    11
 71
     3
 72
    56
 73
    52
 74
     0
 42
0.0000000001
 43
0.0000000001
 12
1.0
 22
0.0
 32
0.0
 13
1.0
 23
0.0
 33
0.0
 40
0.0
 40
0.0
 40
0.0
 40
0.0
 40
1.0
 40
1.0
 40
1.0
 40
2.0
 40
2.0
 40
2.0
 40
3.0
 40
3.0
 40
3.0
 40
4.0
 40
4.0
 40
4.0
 40
5.0
 40
5.0
 40
5.0
 40
6.0
 40
6.0
 40
6.0
 40
7.0
 40
7.0
 40
7.0
 40
8.0
 40
8.0
 40
8.0
 40
9.0
 40
9.0
 40
9.0
 40
10.0
 40
10.0
 40
10.0
 40
11.0
 40
11.0
 40
11.0
 40
12.0
 40
12.0
 40
12.0
 40
13.0
 40
13.0
 40
13.0
 40
14.0
 40
14.0
 40
14.0
 40
15.0
 40
15.0
 40
15.0
 40
16.0
 40
16.0
 40
16.0
 40
17.0
 40
17.0
 40
17.0
 40
17.0
 10
84.61895207302929
 20
-144.5252007017159
 30
0.0
 10
84.50491941246753
 20
-144.4111680411542
 30
0.0
 10
84.3144056321332
 20
-144.2206542608199
 30
0.0
 10
83.9929782233594
 20
-144.0873290655407
 30
0.0
 10
83.9929782233594
 20
-144.0873290655407
 30
0.0
 10
83.9929782233594
 20
-144.4387288050362
 30
0.0
 10
83.9929782233594
 20
-144.4387288050362
 30
0.0
 10
83.9929782233594
 20
-144.5634412616022
 30
0.0
 10
84.001246452524
 20
-144.933444516718
 30
0.0
 10
84.01606036311057
 20
-145.0416205149549
 30
0.0
 10
84.01606036311057
 20
-145.0416205149549
 30
0.0
 10
83.76008976855651
 20
-145.0416205149549
 30
0.0
 10
83.76008976855651
 20
-145.0416205149549
 30
0.0
 10
83.77490367914308
 20
-144.9358560835577
 30
0.0
 10
83.77697073643424
 20
-144.7749701243965
 30
0.0
 10
83.77697073643424
 20
-144.7305283926368
 30
0.0
 10
83.77903779372538
 20
-144.6819525462948
 30
0.0
 10
83.78558347514736
 20
-144.4683566262093
 30
0.0
 10
83.78558347514736
 20
-144.4239148944496
 30
0.0
 10
83.78558347514736
 20
-144.4239148944496
 30
0.0
 10
83.78558347514736
 20
-143.871666088164
 30
0.0
 10
83.78558347514736
 20
-143.871666088164
 30
0.0
 10
83.78558347514736
 20
-143.788983796518
 30
0.0
 10
83.77903779372538
 20
-143.5626410231371
 30
0.0
 10
83.77283662185194
 20
-143.484437355622
 30
0.0
 10
83.76870250726964
 20
-143.4293158278579
 30
0.0
 10
83.76215682584765
 20
-143.3914197775202
 30
0.0
 10
83.75182153939191
 20
-143.3449109884693
 30
0.0
 10
83.75182153939191
 20
-143.3449109884693
 30
0.0
 10
84.0329413309883
 20
-143.3638590136382
 30
0.0
 10
84.0329413309883
 20
-143.3638590136382
 30
0.0
 10
84.04568818428372
 20
-143.3638590136382
 30
0.0
 10
84.07324894816571
 20
-143.3679931282205
 30
0.0
 10
84.07324894816571
 20
-143.3955538921025
 30
0.0
 10
84.07324894816571
 20
-143.4169134841111
 30
0.0
 10
84.04982229886602
 20
-143.4317273946976
 30
0.0
 10
84.00331350981514
 20
-143.4589436490311
 30
0.0
 10
83.99504528065054
 20
-143.5902017870191
 30
0.0
 10
83.9929782233594
 20
-143.7214599250071
 30
0.0
 10
83.9929782233594
 20
-143.8503064961555
 30
0.0
 10
83.9929782233594
 20
-143.8503064961555
 30
0.0
 10
83.9929782233594
 20
-144.0852620082495
 30
0.0
 10
83.9929782233594
 20
-144.0852620082495
 30
0.0
 10
83.9929782233594
 20
-144.0852620082495
 30
0.0
 10
84.0921969733346
 20
-143.8971597947549
 30
0.0
 10
84.0921969733346
 20
-143.8971597947549
 30
0.0
 10
84.38434107048379
 20
-144.0301404804855
 30
0.0
 10
84.66787242891984
 20
-144.2440809101195
 30
0.0
 10
84.75882294973044
 20
-144.3581135706813
 30
0.0
 10
84.75882294973044
 20
-144.3581135706813
 30
0.0
 10
84.61895207302929
 20
-144.5252007017159
 30
0.0
 10
84.61895207302929
 20
-144.5252007017159
 30
0.0
  0
HATCH
  5
18D
330
157
100
AcDbEntity
  8
_U+30EC_U+30A4_U+30E4_U+30FC 1
 62
   179
420
  2234388
100
AcDbHatch
 10
0.0
 20
0.0
 30
0.0
210
0.0
220
0.0
230
1.0
  2
SOLID
 70
     1
 71
     0
 91
        1
 92
        1
 93
        1
 72
     4
 94
        3
 73
     0
 74
     1
 95
       56
 96
       52
 40
0.0
 40
0.0
 40
0.0
 40
0.0
 40
1.0
 40
1.0
 40
1.0
 40
2.0
 40
2.0
 40
2.0
 40
3.0
 40
3.0
 40
3.0
 40
4.0
 40
4.0
 40
4.0
 40
5.0
 40
5.0
 40
5.0
 40
6.0
 40
6.0
 40
6.0
 40
7.0
 40
7.0
 40
7.0
 40
8.0
 40
8.0
 40
8.0
 40
9.0
 40
9.0
 40
9.0
 40
10.0
 40
10.0
 40
10.0
 40
11.0
 40
11.0
 40
11.0
 40
12.0
 40
12.0
 40
12.0
 40
13.0
 40
13.0
 40
13.0
 40
14.0
 40
14.0
 40
14.0
 40
15.0
 40
15.0
 40
15.0
 40
16.0
 40
16.0
 40
16.0
 40
17.0
 40
17.0
 40
17.0
 40
17.0
 10
84.61895207302929
 20
-144.5252007017159
 10
84.50491941246753
 20
-144.4111680411542
 10
84.3144056321332
 20
-144.2206542608199
 10
83.9929782233594
 20
-144.0873290655407
 10
83.9929782233594
 20
-144.0873290655407
 10
83.9929782233594
 20
-144.4387288050362
 10
83.9929782233594
 20
-144.4387288050362
 10
83.9929782233594
 20
-144.5634412616022
 10
84.001246452524
 20
-144.933444516718
 10
84.01606036311057
 20
-145.0416205149549
 10
84.01606036311057
 20
-145.0416205149549
 10
83.76008976855651
 20
-145.0416205149549
 10
83.76008976855651
 20
-145.0416205149549
 10
83.77490367914308
 20
-144.9358560835577
 10
83.77697073643424
 20
-144.7749701243965
 10
83.77697073643424
 20
-144.7305283926368
 10
83.77903779372538
 20
-144.6819525462948
 10
83.78558347514736
 20
-144.4683566262093
 10
83.78558347514736
 20
-144.4239148944496
 10
83.78558347514736
 20
-144.4239148944496
 10
83.78558347514736
 20
-143.871666088164
 10
83.78558347514736
 20
-143.871666088164
 10
83.78558347514736
 20
-143.788983796518
 10
83.77903779372538
 20
-143.5626410231371
 10
83.77283662185194
 20
-143.484437355622
 10
83.76870250726964
 20
-143.4293158278579
 10
83.76215682584765
 20
-143.3914197775202
 10
83.75182153939191
 20
-143.3449109884693
 10
83.75182153939191
 20
-143.3449109884693
 10
84.0329413309883
 20
-143.3638590136382
 10
84.0329413309883
 20
-143.3638590136382
 10
84.04568818428372
 20
-143.3638590136382
 10
84.07324894816571
 20
-143.3679931282205
 10
84.07324894816571
 20
-143.3955538921025
 10
84.07324894816571
 20
-143.4169134841111
 10
84.04982229886602
 20
-143.4317273946976
 10
84.00331350981514
 20
-143.4589436490311
 10
83.99504528065054
 20
-143.5902017870191
 10
83.9929782233594
 20
-143.7214599250071
 10
83.9929782233594
 20
-143.8503064961555
 10
83.9929782233594
 20
-143.8503064961555
 10
83.9929782233594
 20
-144.0852620082495
 10
83.9929782233594
 20
-144.0852620082495
 10
83.9929782233594
 20
-144.0852620082495
 10
84.0921969733346
 20
-143.8971597947549
 10
84.0921969733346
 20
-143.8971597947549
 10
84.38434107048379
 20
-144.0301404804855
 10
84.66787242891984
 20
-144.2440809101195
 10
84.75882294973044
 20
-144.3581135706813
 10
84.75882294973044
 20
-144.3581135706813
 10
84.61895207302929
 20
-144.5252007017159
 10
84.61895207302929
 20
-144.5252007017159
 97
        0
 97
        0
 75
     2
 76
     1
 98
        0
  0
ENDBLK
  5
15A
330
157
100
AcDbEntity
  8
0
100
AcDbBlockEnd
  0
BLOCK
  5
190
330
18E
100
AcDbEntity
  8
0
100
AcDbBlockBegin
  2
block 11
 70
     0
 10
0.0
 20
0.0
 30
0.0
  3
block 11
  1

  0
SPLINE
  5
192
330
18E
100
AcDbEntity
  8
_U+30EC_U+30A4_U+30E4_U+30FC 1
370
     0
100
AcDbSpline
210
0.0
220
0.0
230
1.0
 70
    11
 71
     3
 72
    26
 73
    22
 74
     0
 42
0.0000000001
 43
0.0000000001
 12
1.0
 22
0.0
 32
0.0
 13
1.0
 23
0.0
 33
0.0
 40
0.0
 40
0.0
 40
0.0
 40
0.0
 40
1.0
 40
1.0
 40
1.0
 40
2.0
 40
2.0
 40
2.0
 40
3.0
 40
3.0
 40
3.0
 40
4.0
 40
4.0
 40
4.0
 40
5.0
 40
5.0
 40
5.0
 40
6.0
 40
6.0
 40
6.0
 40
7.0
 40
7.0
 40
7.0
 40
7.0
 10
101.0146782516561
 20
-151.0102484431502
 30
0.0
 10
101.0146782516561
 20
-151.0102484431502
 30
0.0
 10
101.0146782516561
 20
-149.9064398496762
 30
0.0
 10
101.0146782516561
 20
-149.9064398496762
 30
0.0
 10
101.0146782516561
 20
-149.9064398496762
 30
0.0
 10
100.6846381041691
 20
-149.9064398496762
 30
0.0
 10
100.6846381041691
 20
-149.9064398496762
 30
0.0
 10
100.6846381041691
 20
-149.9064398496762
 30
0.0
 10
100.6846381041691
 20
-149.7583007438104
 30
0.0
 10
100.6846381041691
 20
-149.7583007438104
 30
0.0
 10
101.0167453089472
 20
-149.7431423236753
 30
0.0
 10
101.0632540979981
 20
-149.5805338167715
 30
0.0
 10
101.0928819191712
 20
-149.4661566466612
 30
0.0
 10
101.0928819191712
 20
-149.4661566466612
 30
0.0
 10
101.2389539677458
 20
-149.4661566466612
 30
0.0
 10
101.2389539677458
 20
-149.4661566466612
 30
0.0
 10
101.2389539677458
 20
-149.4661566466612
 30
0.0
 10
101.2389539677458
 20
-151.0102484431502
 30
0.0
 10
101.2389539677458
 20
-151.0102484431502
 30
0.0
 10
101.2389539677458
 20
-151.0102484431502
 30
0.0
 10
101.0146782516561
 20
-151.0102484431502
 30
0.0
 10
101.0146782516561
 20
-151.0102484431502
 30
0.0
  0
HATCH
  5
193
330
18E
100
AcDbEntity
  8
_U+30EC_U+30A4_U+30E4_U+30FC 1
 62
   179
420
  2234388
100
AcDbHatch
 10
0.0
 20
0.0
 30
0.0
210
0.0
220
0.0
230
1.0
  2
SOLID
 70
     1
 71
     0
 91
        1
 92
        1
 93
        1
 72
     4
 94
        3
 73
     0
 74
     1
 95
       26
 96
       22
 40
0.0
 40
0.0
 40
0.0
 40
0.0
 40
1.0
 40
1.0
 40
1.0
 40
2.0
 40
2.0
 40
2.0
 40
3.0
 40
3.0
 40
3.0
 40
4.0
 40
4.0
 40
4.0
 40
5.0
 40
5.0
 40
5.0
 40
6.0
 40
6.0
 40
6.0
 40
7.0
 40
7.0
 40
7.0
 40
7.0
 10
101.0146782516561
 20
-151.0102484431502
 10
101.0146782516561
 20
-151.0102484431502
 10
101.0146782516561
 20
-149.9064398496762
 10
101.0146782516561
 20
-149.9064398496762
 10
101.0146782516561
 20
-149.9064398496762
 10
100.6846381041691
 20
-149.9064398496762
 10
100.6846381041691
 20
-149.9064398496762
 10
100.6846381041691
 20
-149.9064398496762
 10
100.6846381041691
 20
-149.7583007438104
 10
100.6846381041691
 20
-149.7583007438104
 10
101.0167453089472
 20
-149.7431423236753
 10
101.0632540979981
 20
-149.5805338167715
 10
101.0928819191712
 20
-149.4661566466612
 10
101.0928819191712
 20
-149.4661566466612
 10
101.2389539677458
 20
-149.4661566466612
 10
101.2389539677458
 20
-149.4661566466612
 10
101.2389539677458
 20
-149.4661566466612
 10
101.2389539677458
 20
-151.0102484431502
 10
101.2389539677458
 20
-151.0102484431502
 10
101.2389539677458
 20
-151.0102484431502
 10
101.0146782516561
 20
-151.0102484431502
 10
101.0146782516561
 20
-151.0102484431502
 97
        0
 97
        0
 75
     2
 76
     1
 98
        0
  0
SPLINE
  5
194
330
18E
100
AcDbEntity
  8
_U+30EC_U+30A4_U+30E4_U+30FC 1
370
     0
100
AcDbSpline
210
0.0
220
0.0
230
1.0
 70
    11
 71
     3
 72
    29
 73
    25
 74
     0
 42
0.0000000001
 43
0.0000000001
 12
1.0
 22
0.0
 32
0.0
 13
1.0
 23
0.0
 33
0.0
 40
0.0
 40
0.0
 40
0.0
 40
0.0
 40
1.0
 40
1.0
 40
1.0
 40
2.0
 40
2.0
 40
2.0
 40
3.0
 40
3.0
 40
3.0
 40
4.0
 40
4.0
 40
4.0
 40
5.0
 40
5.0
 40
5.0
 40
6.0
 40
6.0
 40
6.0
 40
7.0
 40
7.0
 40
7.0
 40
8.0
 40
8.0
 40
8.0
 40
8.0
 10
102.2400987157594
 20
-151.0612358563319
 30
0.0
 10
101.9734483252011
 20
-151.0612358563319
 30
0.0
 10
101.7195447879382
 20
-150.9234320369219
 30
0.0
 10
101.7195447879382
 20
-150.5747883738146
 30
0.0
 10
101.7195447879382
 20
-150.3184732697121
 30
0.0
 10
101.8614827219305
 20
-150.2233886343192
 30
0.0
 10
101.9672471533276
 20
-150.1620659346817
 30
0.0
 10
101.8421901872131
 20
-150.1028102923354
 30
0.0
 10
101.7660535769891
 20
-149.9884331222251
 30
0.0
 10
101.7660535769891
 20
-149.8278916726125
 30
0.0
 10
101.7660535769891
 20
-149.5529730528895
 30
0.0
 10
101.9651800960365
 20
-149.4172362907707
 30
0.0
 10
102.2400987157594
 20
-149.4172362907707
 30
0.0
 10
102.5236300741955
 20
-149.4172362907707
 30
0.0
 10
102.7137993449813
 20
-149.5612412820541
 30
0.0
 10
102.7137993449813
 20
-149.8278916726125
 30
0.0
 10
102.7137993449813
 20
-149.9884331222251
 30
0.0
 10
102.6355956774661
 20
-150.1028102923354
 30
0.0
 10
102.5108832209001
 20
-150.1620659346817
 30
0.0
 10
102.5997666844195
 20
-150.2130533478634
 30
0.0
 10
102.758241076741
 20
-150.3081379832563
 30
0.0
 10
102.758241076741
 20
-150.5706542592324
 30
0.0
 10
102.758241076741
 20
-150.9447916289305
 30
0.0
 10
102.4791883424358
 20
-151.0612358563319
 30
0.0
 10
102.2400987157594
 20
-151.0612358563319
 30
0.0
  0
SPLINE
  5
195
330
18E
100
AcDbEntity
  8
_U+30EC_U+30A4_U+30E4_U+30FC 1
370
     0
100
AcDbSpline
210
0.0
220
0.0
230
1.0
 70
    11
 71
     3
 72
    17
 73
    13
 74
     0
 42
0.0000000001
 43
0.0000000001
 12
1.0
 22
0.0
 32
0.0
 13
1.0
 23
0.0
 33
0.0
 40
0.0
 40
0.0
 40
0.0
 40
0.0
 40
1.0
 40
1.0
 40
1.0
 40
2.0
 40
2.0
 40
2.0
 40
3.0
 40
3.0
 40
3.0
 40
4.0
 40
4.0
 40
4.0
 40
4.0
 10
102.2400987157594
 20
-150.2702419329186
 30
0.0
 10
102.096093724476
 20
-150.2702419329186
 30
0.0
 10
101.9438205040279
 20
-150.3570583391468
 30
0.0
 10
101.9438205040279
 20
-150.5596299536795
 30
0.0
 10
101.9438205040279
 20
-150.7649576446004
 30
0.0
 10
102.0709445274337
 20
-150.8662434518668
 30
0.0
 10
102.2400987157594
 20
-150.8662434518668
 30
0.0
 10
102.4261338719629
 20
-150.8662434518668
 30
0.0
 10
102.5363769274909
 20
-150.7435980525919
 30
0.0
 10
102.5363769274909
 20
-150.565831125553
 30
0.0
 10
102.5363769274909
 20
-150.3439669763029
 30
0.0
 10
102.3734239110386
 20
-150.2702419329186
 30
0.0
 10
102.2400987157594
 20
-150.2702419329186
 30
0.0
  0
SPLINE
  5
196
330
18E
100
AcDbEntity
  8
_U+30EC_U+30A4_U+30E4_U+30FC 1
370
     0
100
AcDbSpline
210
0.0
220
0.0
230
1.0
 70
    11
 71
     3
 72
    17
 73
    13
 74
     0
 42
0.0000000001
 43
0.0000000001
 12
1.0
 22
0.0
 32
0.0
 13
1.0
 23
0.0
 33
0.0
 40
0.0
 40
0.0
 40
0.0
 40
0.0
 40
1.0
 40
1.0
 40
1.0
 40
2.0
 40
2.0
 40
2.0
 40
3.0
 40
3.0
 40
3.0
 40
4.0
 40
4.0
 40
4.0
 40
4.0
 10
102.2400987157594
 20
-149.6101616379447
 30
0.0
 10
102.075078642016
 20
-149.6101616379447
 30
0.0
 10
101.9903292930788
 20
-149.7052462733376
 30
0.0
 10
101.9903292930788
 20
-149.8402940163594
 30
0.0
 10
101.9903292930788
 20
-149.9629394156343
 30
0.0
 10
102.0623317887205
 20
-150.0814507003269
 30
0.0
 10
102.2400987157594
 20
-150.0814507003269
 30
0.0
 10
102.4178656427983
 20
-150.0814507003269
 30
0.0
 10
102.4895236288915
 20
-149.9629394156343
 30
0.0
 10
102.4895236288915
 20
-149.8402940163594
 30
0.0
 10
102.4895236288915
 20
-149.7052462733376
 30
0.0
 10
102.4030517322117
 20
-149.6101616379447
 30
0.0
 10
102.2400987157594
 20
-149.6101616379447
 30
0.0
  0
HATCH
  5
197
330
18E
100
AcDbEntity
  8
_U+30EC_U+30A4_U+30E4_U+30FC 1
 62
   179
420
  2234388
100
AcDbHatch
 10
0.0
 20
0.0
 30
0.0
210
0.0
220
0.0
230
1.0
  2
SOLID
 70
     1
 71
     0
 91
        3
 92
        1
 93
        1
 72
     4
 94
        3
 73
     0
 74
     1
 95
       29
 96
       25
 40
0.0
 40
0.0
 40
0.0
 40
0.0
 40
1.0
 40
1.0
 40
1.0
 40
2.0
 40
2.0
 40
2.0
 40
3.0
 40
3.0
 40
3.0
 40
4.0
 40
4.0
 40
4.0
 40
5.0
 40
5.0
 40
5.0
 40
6.0
 40
6.0
 40
6.0
 40
7.0
 40
7.0
 40
7.0
 40
8.0
 40
8.0
 40
8.0
 40
8.0
 10
102.2400987157594
 20
-151.0612358563319
 10
101.9734483252011
 20
-151.0612358563319
 10
101.7195447879382
 20
-150.9234320369219
 10
101.7195447879382
 20
-150.5747883738146
 10
101.7195447879382
 20
-150.3184732697121
 10
101.8614827219305
 20
-150.2233886343192
 10
101.9672471533276
 20
-150.1620659346817
 10
101.8421901872131
 20
-150.1028102923354
 10
101.7660535769891
 20
-149.9884331222251
 10
101.7660535769891
 20
-149.8278916726125
 10
101.7660535769891
 20
-149.5529730528895
 10
101.9651800960365
 20
-149.4172362907707
 10
102.2400987157594
 20
-149.4172362907707
 10
102.5236300741955
 20
-149.4172362907707
 10
102.7137993449813
 20
-149.5612412820541
 10
102.7137993449813
 20
-149.8278916726125
 10
102.7137993449813
 20
-149.9884331222251
 10
102.6355956774661
 20
-150.1028102923354
 10
102.5108832209001
 20
-150.1620659346817
 10
102.5997666844195
 20
-150.2130533478634
 10
102.758241076741
 20
-150.3081379832563
 10
102.758241076741
 20
-150.5706542592324
 10
102.758241076741
 20
-150.9447916289305
 10
102.4791883424358
 20
-151.0612358563319
 10
102.2400987157594
 20
-151.0612358563319
 97
        0
 97
        0
 92
        1
 93
        1
 72
     4
 94
        3
 73
     0
 74
     1
 95
       17
 96
       13
 40
0.0
 40
0.0
 40
0.0
 40
0.0
 40
1.0
 40
1.0
 40
1.0
 40
2.0
 40
2.0
 40
2.0
 40
3.0
 40
3.0
 40
3.0
 40
4.0
 40
4.0
 40
4.0
 40
4.0
 10
102.2400987157594
 20
-150.2702419329186
 10
102.096093724476
 20
-150.2702419329186
 10
101.9438205040279
 20
-150.3570583391468
 10
101.9438205040279
 20
-150.5596299536795
 10
101.9438205040279
 20
-150.7649576446004
 10
102.0709445274337
 20
-150.8662434518668
 10
102.2400987157594
 20
-150.8662434518668
 10
102.4261338719629
 20
-150.8662434518668
 10
102.5363769274909
 20
-150.7435980525919
 10
102.5363769274909
 20
-150.565831125553
 10
102.5363769274909
 20
-150.3439669763029
 10
102.3734239110386
 20
-150.2702419329186
 10
102.2400987157594
 20
-150.2702419329186
 97
        0
 97
        0
 92
        1
 93
        1
 72
     4
 94
        3
 73
     0
 74
     1
 95
       17
 96
       13
 40
0.0
 40
0.0
 40
0.0
 40
0.0
 40
1.0
 40
1.0
 40
1.0
 40
2.0
 40
2.0
 40
2.0
 40
3.0
 40
3.0
 40
3.0
 40
4.0
 40
4.0
 40
4.0
 40
4.0
 10
102.2400987157594
 20
-149.6101616379447
 10
102.075078642016
 20
-149.6101616379447
 10
101.9903292930788
 20
-149.7052462733376
 10
101.9903292930788
 20
-149.8402940163594
 10
101.9903292930788
 20
-149.9629394156343
 10
102.0623317887205
 20
-150.0814507003269
 10
102.2400987157594
 20
-150.0814507003269
 10
102.4178656427983
 20
-150.0814507003269
 10
102.4895236288915
 20
-149.9629394156343
 10
102.4895236288915
 20
-149.8402940163594
 10
102.4895236288915
 20
-149.7052462733376
 10
102.4030517322117
 20
-149.6101616379447
 10
102.2400987157594
 20
-149.6101616379447
 97
        0
 97
        0
 75
     2
 76
     1
 98
        0
  0
ENDBLK
  5
191
330
18E
100
AcDbEntity
  8
0
100
AcDbBlockEnd
  0
BLOCK
  5
19A
330
198
100
AcDbEntity
  8
0
100
AcDbBlockBegin
  2
block 12
 70
     0
 10
0.0
 20
0.0
 30
0.0
  3
block 12
  1

  0
SPLINE
  5
19C
330
198
100
AcDbEntity
  8
_U+30EC_U+30A4_U+30E4_U+30FC 1
370
     0
100
AcDbSpline
210
0.0
220
0.0
230
1.0
 70
    11
 71
     3
 72
    44
 73
    40
 74
     0
 42
0.0000000001
 43
0.0000000001
 12
1.0
 22
0.0
 32
0.0
 13
1.0
 23
0.0
 33
0.0
 40
0.0
 40
0.0
 40
0.0
 40
0.0
 40
1.0
 40
1.0
 40
1.0
 40
2.0
 40
2.0
 40
2.0
 40
3.0
 40
3.0
 40
3.0
 40
4.0
 40
4.0
 40
4.0
 40
5.0
 40
5.0
 40
5.0
 40
6.0
 40
6.0
 40
6.0
 40
7.0
 40
7.0
 40
7.0
 40
8.0
 40
8.0
 40
8.0
 40
9.0
 40
9.0
 40
9.0
 40
10.0
 40
10.0
 40
10.0
 40
11.0
 40
11.0
 40
11.0
 40
12.0
 40
12.0
 40
12.0
 40
13.0
 40
13.0
 40
13.0
 40
13.0
 10
67.37538789548255
 20
-123.5581773237111
 30
0.0
 10
67.5340345425783
 20
-123.7760796131532
 30
0.0
 10
67.60810409551117
 20
-123.8692694460292
 30
0.0
 10
67.75193683202035
 20
-123.9178452923712
 30
0.0
 10
67.75193683202035
 20
-123.9178452923712
 30
0.0
 10
67.75193683202035
 20
-123.139425967479
 30
0.0
 10
67.75193683202035
 20
-123.139425967479
 30
0.0
 10
67.75193683202035
 20
-123.139425967479
 30
0.0
 10
67.95709226816697
 20
-123.139425967479
 30
0.0
 10
67.95709226816697
 20
-123.139425967479
 30
0.0
 10
67.95709226816697
 20
-123.139425967479
 30
0.0
 10
67.95709226816697
 20
-124.1674424602776
 30
0.0
 10
67.95709226816697
 20
-124.1674424602776
 30
0.0
 10
67.59949135679804
 20
-124.1357475818133
 30
0.0
 10
67.52128768928287
 20
-124.0701185128193
 30
0.0
 10
67.22294242026024
 20
-123.6851290923426
 30
0.0
 10
67.02416041076133
 20
-123.4291584977885
 30
0.0
 10
66.95646428447617
 20
-123.3637016835688
 30
0.0
 10
66.8190049746147
 20
-123.3637016835688
 30
0.0
 10
66.7004936899221
 20
-123.3637016835688
 30
0.0
 10
66.56923555193409
 20
-123.4355319244363
 30
0.0
 10
66.56923555193409
 20
-123.632246876644
 30
0.0
 10
66.56923555193409
 20
-123.8925238405547
 30
0.0
 10
66.79988469467156
 20
-123.9009643244935
 30
0.0
 10
66.916328922073
 20
-123.9052706938501
 30
0.0
 10
66.916328922073
 20
-123.9052706938501
 30
0.0
 10
66.916328922073
 20
-124.1293741551656
 30
0.0
 10
66.916328922073
 20
-124.1293741551656
 30
0.0
 10
66.78937715344155
 20
-124.1209336712267
 30
0.0
 10
66.67723929539666
 20
-124.1104261299967
 30
0.0
 10
66.55872801070407
 20
-124.0299831504161
 30
0.0
 10
66.39801430631717
 20
-123.9200846044367
 30
0.0
 10
66.36408011578746
 20
-123.7338771934589
 30
0.0
 10
66.36408011578746
 20
-123.6174329660575
 30
0.0
 10
66.36408011578746
 20
-123.3402750342691
 30
0.0
 10
66.54822046947406
 20
-123.1330525408313
 30
0.0
 10
66.82107203190584
 20
-123.1330525408313
 30
0.0
 10
67.0494818625779
 20
-123.1330525408313
 30
0.0
 10
67.14904512210163
 20
-123.2493245134585
 30
0.0
 10
67.37538789548255
 20
-123.5581773237111
 30
0.0
  0
HATCH
  5
19D
330
198
100
AcDbEntity
  8
_U+30EC_U+30A4_U+30E4_U+30FC 1
 62
   179
420
  2234388
100
AcDbHatch
 10
0.0
 20
0.0
 30
0.0
210
0.0
220
0.0
230
1.0
  2
SOLID
 70
     1
 71
     0
 91
        1
 92
        1
 93
        1
 72
     4
 94
        3
 73
     0
 74
     1
 95
       44
 96
       40
 40
0.0
 40
0.0
 40
0.0
 40
0.0
 40
1.0
 40
1.0
 40
1.0
 40
2.0
 40
2.0
 40
2.0
 40
3.0
 40
3.0
 40
3.0
 40
4.0
 40
4.0
 40
4.0
 40
5.0
 40
5.0
 40
5.0
 40
6.0
 40
6.0
 40
6.0
 40
7.0
 40
7.0
 40
7.0
 40
8.0
 40
8.0
 40
8.0
 40
9.0
 40
9.0
 40
9.0
 40
10.0
 40
10.0
 40
10.0
 40
11.0
 40
11.0
 40
11.0
 40
12.0
 40
12.0
 40
12.0
 40
13.0
 40
13.0
 40
13.0
 40
13.0
 10
67.37538789548255
 20
-123.5581773237111
 10
67.5340345425783
 20
-123.7760796131532
 10
67.60810409551117
 20
-123.8692694460292
 10
67.75193683202035
 20
-123.9178452923712
 10
67.75193683202035
 20
-123.9178452923712
 10
67.75193683202035
 20
-123.139425967479
 10
67.75193683202035
 20
-123.139425967479
 10
67.75193683202035
 20
-123.139425967479
 10
67.95709226816697
 20
-123.139425967479
 10
67.95709226816697
 20
-123.139425967479
 10
67.95709226816697
 20
-123.139425967479
 10
67.95709226816697
 20
-124.1674424602776
 10
67.95709226816697
 20
-124.1674424602776
 10
67.59949135679804
 20
-124.1357475818133
 10
67.52128768928287
 20
-124.0701185128193
 10
67.22294242026024
 20
-123.6851290923426
 10
67.02416041076133
 20
-123.4291584977885
 10
66.95646428447617
 20
-123.3637016835688
 10
66.8190049746147
 20
-123.3637016835688
 10
66.7004936899221
 20
-123.3637016835688
 10
66.56923555193409
 20
-123.4355319244363
 10
66.56923555193409
 20
-123.632246876644
 10
66.56923555193409
 20
-123.8925238405547
 10
66.79988469467156
 20
-123.9009643244935
 10
66.916328922073
 20
-123.9052706938501
 10
66.916328922073
 20
-123.9052706938501
 10
66.916328922073
 20
-124.1293741551656
 10
66.916328922073
 20
-124.1293741551656
 10
66.78937715344155
 20
-124.1209336712267
 10
66.67723929539666
 20
-124.1104261299967
 10
66.55872801070407
 20
-124.0299831504161
 10
66.39801430631717
 20
-123.9200846044367
 10
66.36408011578746
 20
-123.7338771934589
 10
66.36408011578746
 20
-123.6174329660575
 10
66.36408011578746
 20
-123.3402750342691
 10
66.54822046947406
 20
-123.1330525408313
 10
66.82107203190584
 20
-123.1330525408313
 10
67.0494818625779
 20
-123.1330525408313
 10
67.14904512210163
 20
-123.2493245134585
 10
67.37538789548255
 20
-123.5581773237111
 97
        0
 97
        0
 75
     2
 76
     1
 98
        0
  0
SPLINE
  5
19E
330
198
100
AcDbEntity
  8
_U+30EC_U+30A4_U+30E4_U+30FC 1
370
     0
100
AcDbSpline
210
0.0
220
0.0
230
1.0
 70
    11
 71
     3
 72
    32
 73
    28
 74
     0
 42
0.0000000001
 43
0.0000000001
 12
1.0
 22
0.0
 32
0.0
 13
1.0
 23
0.0
 33
0.0
 40
0.0
 40
0.0
 40
0.0
 40
0.0
 40
1.0
 40
1.0
 40
1.0
 40
2.0
 40
2.0
 40
2.0
 40
3.0
 40
3.0
 40
3.0
 40
4.0
 40
4.0
 40
4.0
 40
5.0
 40
5.0
 40
5.0
 40
6.0
 40
6.0
 40
6.0
 40
7.0
 40
7.0
 40
7.0
 40
8.0
 40
8.0
 40
8.0
 40
9.0
 40
9.0
 40
9.0
 40
9.0
 10
68.00790742657442
 20
-122.4702161694693
 30
0.0
 10
68.00790742657442
 20
-122.986463727934
 30
0.0
 10
67.45359156299772
 20
-122.9949042118728
 30
0.0
 10
67.23999564291222
 20
-122.9949042118728
 30
0.0
 10
67.00934650017474
 20
-122.9949042118728
 30
0.0
 10
66.3620130584963
 20
-122.9757839319297
 30
0.0
 10
66.3620130584963
 20
-122.4321478643572
 30
0.0
 10
66.3620130584963
 20
-122.2586873066749
 30
0.0
 10
66.43177624207262
 20
-122.0133965081251
 30
0.0
 10
66.7638834468507
 20
-121.9751559482389
 30
0.0
 10
66.7638834468507
 20
-121.9751559482389
 30
0.0
 10
66.7638834468507
 20
-122.1889241230986
 30
0.0
 10
66.7638834468507
 20
-122.1889241230986
 30
0.0
 10
66.70686711656981
 20
-122.1994316643286
 30
0.0
 10
66.55872801070407
 20
-122.2311265427929
 30
0.0
 10
66.55872801070407
 20
-122.4342149216484
 30
0.0
 10
66.55872801070407
 20
-122.7261867640233
 30
0.0
 10
66.88670110089986
 20
-122.7664943812007
 30
0.0
 10
67.09185653704648
 20
-122.7790689797219
 30
0.0
 10
67.01365286953131
 20
-122.6860514016202
 30
0.0
 10
66.95439722718501
 20
-122.618355275335
 30
0.0
 10
66.95439722718501
 20
-122.4364542337138
 30
0.0
 10
66.95439722718501
 20
-122.2566202493838
 30
0.0
 10
67.06222871587333
 20
-121.9541408657788
 30
0.0
 10
67.46840547358428
 20
-121.9541408657788
 30
0.0
 10
67.78776582506696
 20
-121.9541408657788
 30
0.0
 10
68.00790742657442
 20
-122.1529228752778
 30
0.0
 10
68.00790742657442
 20
-122.4702161694693
 30
0.0
  0
SPLINE
  5
19F
330
198
100
AcDbEntity
  8
_U+30EC_U+30A4_U+30E4_U+30FC 1
370
     0
100
AcDbSpline
210
0.0
220
0.0
230
1.0
 70
    11
 71
     3
 72
    17
 73
    13
 74
     0
 42
0.0000000001
 43
0.0000000001
 12
1.0
 22
0.0
 32
0.0
 13
1.0
 23
0.0
 33
0.0
 40
0.0
 40
0.0
 40
0.0
 40
0.0
 40
1.0
 40
1.0
 40
1.0
 40
2.0
 40
2.0
 40
2.0
 40
3.0
 40
3.0
 40
3.0
 40
4.0
 40
4.0
 40
4.0
 40
4.0
 10
67.14904512210163
 20
-122.4533352015915
 30
0.0
 10
67.14904512210163
 20
-122.7156792227933
 30
0.0
 10
67.36057398489596
 20
-122.7537475279053
 30
0.0
 10
67.47684595752315
 20
-122.7537475279053
 30
0.0
 10
67.65237357249663
 20
-122.7537475279053
 30
0.0
 10
67.81532658894895
 20
-122.6584906377382
 30
0.0
 10
67.81532658894895
 20
-122.4745225388258
 30
0.0
 10
67.81532658894895
 20
-122.3539441968421
 30
0.0
 10
67.75607094660265
 20
-122.1782443270943
 30
0.0
 10
67.47047253087544
 20
-122.1782443270943
 30
0.0
 10
67.24619681478568
 20
-122.1782443270943
 30
0.0
 10
67.14904512210163
 20
-122.3179429490212
 30
0.0
 10
67.14904512210163
 20
-122.4533352015915
 30
0.0
  0
HATCH
  5
1A0
330
198
100
AcDbEntity
  8
_U+30EC_U+30A4_U+30E4_U+30FC 1
 62
   179
420
  2234388
100
AcDbHatch
 10
0.0
 20
0.0
 30
0.0
210
0.0
220
0.0
230
1.0
  2
SOLID
 70
     1
 71
     0
 91
        2
 92
        1
 93
        1
 72
     4
 94
        3
 73
     0
 74
     1
 95
       32
 96
       28
 40
0.0
 40
0.0
 40
0.0
 40
0.0
 40
1.0
 40
1.0
 40
1.0
 40
2.0
 40
2.0
 40
2.0
 40
3.0
 40
3.0
 40
3.0
 40
4.0
 40
4.0
 40
4.0
 40
5.0
 40
5.0
 40
5.0
 40
6.0
 40
6.0
 40
6.0
 40
7.0
 40
7.0
 40
7.0
 40
8.0
 40
8.0
 40
8.0
 40
9.0
 40
9.0
 40
9.0
 40
9.0
 10
68.00790742657442
 20
-122.4702161694693
 10
68.00790742657442
 20
-122.986463727934
 10
67.45359156299772
 20
-122.9949042118728
 10
67.23999564291222
 20
-122.9949042118728
 10
67.00934650017474
 20
-122.9949042118728
 10
66.3620130584963
 20
-122.9757839319297
 10
66.3620130584963
 20
-122.4321478643572
 10
66.3620130584963
 20
-122.2586873066749
 10
66.43177624207262
 20
-122.0133965081251
 10
66.7638834468507
 20
-121.9751559482389
 10
66.7638834468507
 20
-121.9751559482389
 10
66.7638834468507
 20
-122.1889241230986
 10
66.7638834468507
 20
-122.1889241230986
 10
66.70686711656981
 20
-122.1994316643286
 10
66.55872801070407
 20
-122.2311265427929
 10
66.55872801070407
 20
-122.4342149216484
 10
66.55872801070407
 20
-122.7261867640233
 10
66.88670110089986
 20
-122.7664943812007
 10
67.09185653704648
 20
-122.7790689797219
 10
67.01365286953131
 20
-122.6860514016202
 10
66.95439722718501
 20
-122.618355275335
 10
66.95439722718501
 20
-122.4364542337138
 10
66.95439722718501
 20
-122.2566202493838
 10
67.06222871587333
 20
-121.9541408657788
 10
67.46840547358428
 20
-121.9541408657788
 10
67.78776582506696
 20
-121.9541408657788
 10
68.00790742657442
 20
-122.1529228752778
 10
68.00790742657442
 20
-122.4702161694693
 97
        0
 97
        0
 92
        1
 93
        1
 72
     4
 94
        3
 73
     0
 74
     1
 95
       17
 96
       13
 40
0.0
 40
0.0
 40
0.0
 40
0.0
 40
1.0
 40
1.0
 40
1.0
 40
2.0
 40
2.0
 40
2.0
 40
3.0
 40
3.0
 40
3.0
 40
4.0
 40
4.0
 40
4.0
 40
4.0
 10
67.14904512210163
 20
-122.4533352015915
 10
67.14904512210163
 20
-122.7156792227933
 10
67.36057398489596
 20
-122.7537475279053
 10
67.47684595752315
 20
-122.7537475279053
 10
67.65237357249663
 20
-122.7537475279053
 10
67.81532658894895
 20
-122.6584906377382
 10
67.81532658894895
 20
-122.4745225388258
 10
67.81532658894895
 20
-122.3539441968421
 10
67.75607094660265
 20
-122.1782443270943
 10
67.47047253087544
 20
-122.1782443270943
 10
67.24619681478568
 20
-122.1782443270943
 10
67.14904512210163
 20
-122.3179429490212
 10
67.14904512210163
 20
-122.4533352015915
 97
        0
 97
        0
 75
     2
 76
     1
 98
        0
  0
ENDBLK
  5
19B
330
198
100
AcDbEntity
  8
0
100
AcDbBlockEnd
  0
BLOCK
  5
1A3
330
1A1
100
AcDbEntity
  8
0
100
AcDbBlockBegin
  2
block 13
 70
     0
 10
0.0
 20
0.0
 30
0.0
  3
block 13
  1

  0
SPLINE
  5
1A5
330
1A1
100
AcDbEntity
  8
_U+30EC_U+30A4_U+30E4_U+30FC 1
370
     0
100
AcDbSpline
210
0.0
220
0.0
230
1.0
 70
    11
 71
     3
 72
    62
 73
    58
 74
     0
 42
0.0000000001
 43
0.0000000001
 12
1.0
 22
0.0
 32
0.0
 13
1.0
 23
0.0
 33
0.0
 40
0.0
 40
0.0
 40
0.0
 40
0.0
 40
1.0
 40
1.0
 40
1.0
 40
2.0
 40
2.0
 40
2.0
 40
3.0
 40
3.0
 40
3.0
 40
4.0
 40
4.0
 40
4.0
 40
5.0
 40
5.0
 40
5.0
 40
6.0
 40
6.0
 40
6.0
 40
7.0
 40
7.0
 40
7.0
 40
8.0
 40
8.0
 40
8.0
 40
9.0
 40
9.0
 40
9.0
 40
10.0
 40
10.0
 40
10.0
 40
11.0
 40
11.0
 40
11.0
 40
12.0
 40
12.0
 40
12.0
 40
13.0
 40
13.0
 40
13.0
 40
14.0
 40
14.0
 40
14.0
 40
15.0
 40
15.0
 40
15.0
 40
16.0
 40
16.0
 40
16.0
 40
17.0
 40
17.0
 40
17.0
 40
18.0
 40
18.0
 40
18.0
 40
19.0
 40
19.0
 40
19.0
 40
19.0
 10
114.0423068291283
 20
-132.659947340967
 30
0.0
 10
114.0423068291283
 20
-132.7553764859084
 30
0.0
 10
114.0212917466683
 20
-132.9731065205762
 30
0.0
 10
113.8349120809163
 20
-133.0978189771422
 30
0.0
 10
113.7229464776457
 20
-133.1718885300751
 30
0.0
 10
113.6233832181219
 20
-133.1763671542059
 30
0.0
 10
113.5389783787333
 20
-133.1805012687882
 30
0.0
 10
113.5389783787333
 20
-133.1805012687882
 30
0.0
 10
113.5389783787333
 20
-132.9603596672808
 30
0.0
 10
113.5389783787333
 20
-132.9603596672808
 30
0.0
 10
113.6130479316662
 20
-132.9582926099896
 30
0.0
 10
113.8476589342117
 20
-132.9476128139853
 30
0.0
 10
113.8476589342117
 20
-132.6640814555493
 30
0.0
 10
113.8476589342117
 20
-132.5266221456878
 30
0.0
 10
113.7780680054097
 20
-132.3743489252398
 30
0.0
 10
113.5493136651891
 20
-132.3743489252398
 30
0.0
 10
113.4332139473361
 20
-132.3743489252398
 30
0.0
 10
113.3842935914456
 20
-132.412589485126
 30
0.0
 10
113.3525987129813
 20
-132.4442843635903
 30
0.0
 10
113.2785291600484
 20
-132.5183539165232
 30
0.0
 10
113.2661268163015
 20
-132.6347981439246
 30
0.0
 10
113.2661268163015
 20
-132.6895751621401
 30
0.0
 10
113.2661268163015
 20
-132.708523187309
 30
0.0
 10
113.2681938735927
 20
-132.7446966899041
 30
0.0
 10
113.272327988175
 20
-132.7722574537861
 30
0.0
 10
113.272327988175
 20
-132.7722574537861
 30
0.0
 10
113.0776800932584
 20
-132.7722574537861
 30
0.0
 10
113.0776800932584
 20
-132.7722574537861
 30
0.0
 10
113.0838812651318
 20
-132.7340168938998
 30
0.0
 10
113.0862928319715
 20
-132.6916422194313
 30
0.0
 10
113.0862928319715
 20
-132.6854410475578
 30
0.0
 10
113.0862928319715
 20
-132.6199842333381
 30
0.0
 10
113.0649332399629
 20
-132.4208577142906
 30
0.0
 10
112.8279106705778
 20
-132.4208577142906
 30
0.0
 10
112.6504882530874
 20
-132.4208577142906
 30
0.0
 10
112.5953667253234
 20
-132.5521158522786
 30
0.0
 10
112.5953667253234
 20
-132.6620143982581
 30
0.0
 10
112.5953667253234
 20
-132.9265977315253
 30
0.0
 10
112.8279106705778
 20
-132.9348659606899
 30
0.0
 10
112.8999131662195
 20
-132.9393445848207
 30
0.0
 10
112.8999131662195
 20
-132.9393445848207
 30
0.0
 10
112.8999131662195
 20
-133.1422607089019
 30
0.0
 10
112.8999131662195
 20
-133.1422607089019
 30
0.0
 10
112.7752007096534
 20
-133.1339924797373
 30
0.0
 10
112.3986517731156
 20
-133.1064317158553
 30
0.0
 10
112.3986517731156
 20
-132.6496120545112
 30
0.0
 10
112.3986517731156
 20
-132.4253363384215
 30
0.0
 10
112.5254312869728
 20
-132.184179654454
 30
0.0
 10
112.8217094987043
 20
-132.184179654454
 30
0.0
 10
113.0077446549078
 20
-132.184179654454
 30
0.0
 10
113.0904269465538
 20
-132.2792642898469
 30
0.0
 10
113.1517496461912
 20
-132.3788275493706
 30
0.0
 10
113.1793104100732
 20
-132.3171603401846
 30
0.0
 10
113.2595811348796
 20
-132.1352592985634
 30
0.0
 10
113.5369113214422
 20
-132.1352592985634
 30
0.0
 10
113.8752196980937
 20
-132.1352592985634
 30
0.0
 10
114.0423068291283
 20
-132.3829616639529
 30
0.0
 10
114.0423068291283
 20
-132.659947340967
 30
0.0
  0
HATCH
  5
1A6
330
1A1
100
AcDbEntity
  8
_U+30EC_U+30A4_U+30E4_U+30FC 1
 62
   179
420
  2234388
100
AcDbHatch
 10
0.0
 20
0.0
 30
0.0
210
0.0
220
0.0
230
1.0
  2
SOLID
 70
     1
 71
     0
 91
        1
 92
        1
 93
        1
 72
     4
 94
        3
 73
     0
 74
     1
 95
       62
 96
       58
 40
0.0
 40
0.0
 40
0.0
 40
0.0
 40
1.0
 40
1.0
 40
1.0
 40
2.0
 40
2.0
 40
2.0
 40
3.0
 40
3.0
 40
3.0
 40
4.0
 40
4.0
 40
4.0
 40
5.0
 40
5.0
 40
5.0
 40
6.0
 40
6.0
 40
6.0
 40
7.0
 40
7.0
 40
7.0
 40
8.0
 40
8.0
 40
8.0
 40
9.0
 40
9.0
 40
9.0
 40
10.0
 40
10.0
 40
10.0
 40
11.0
 40
11.0
 40
11.0
 40
12.0
 40
12.0
 40
12.0
 40
13.0
 40
13.0
 40
13.0
 40
14.0
 40
14.0
 40
14.0
 40
15.0
 40
15.0
 40
15.0
 40
16.0
 40
16.0
 40
16.0
 40
17.0
 40
17.0
 40
17.0
 40
18.0
 40
18.0
 40
18.0
 40
19.0
 40
19.0
 40
19.0
 40
19.0
 10
114.0423068291283
 20
-132.659947340967
 10
114.0423068291283
 20
-132.7553764859084
 10
114.0212917466683
 20
-132.9731065205762
 10
113.8349120809163
 20
-133.0978189771422
 10
113.7229464776457
 20
-133.1718885300751
 10
113.6233832181219
 20
-133.1763671542059
 10
113.5389783787333
 20
-133.1805012687882
 10
113.5389783787333
 20
-133.1805012687882
 10
113.5389783787333
 20
-132.9603596672808
 10
113.5389783787333
 20
-132.9603596672808
 10
113.6130479316662
 20
-132.9582926099896
 10
113.8476589342117
 20
-132.9476128139853
 10
113.8476589342117
 20
-132.6640814555493
 10
113.8476589342117
 20
-132.5266221456878
 10
113.7780680054097
 20
-132.3743489252398
 10
113.5493136651891
 20
-132.3743489252398
 10
113.4332139473361
 20
-132.3743489252398
 10
113.3842935914456
 20
-132.412589485126
 10
113.3525987129813
 20
-132.4442843635903
 10
113.2785291600484
 20
-132.5183539165232
 10
113.2661268163015
 20
-132.6347981439246
 10
113.2661268163015
 20
-132.6895751621401
 10
113.2661268163015
 20
-132.708523187309
 10
113.2681938735927
 20
-132.7446966899041
 10
113.272327988175
 20
-132.7722574537861
 10
113.272327988175
 20
-132.7722574537861
 10
113.0776800932584
 20
-132.7722574537861
 10
113.0776800932584
 20
-132.7722574537861
 10
113.0838812651318
 20
-132.7340168938998
 10
113.0862928319715
 20
-132.6916422194313
 10
113.0862928319715
 20
-132.6854410475578
 10
113.0862928319715
 20
-132.6199842333381
 10
113.0649332399629
 20
-132.4208577142906
 10
112.8279106705778
 20
-132.4208577142906
 10
112.6504882530874
 20
-132.4208577142906
 10
112.5953667253234
 20
-132.5521158522786
 10
112.5953667253234
 20
-132.6620143982581
 10
112.5953667253234
 20
-132.9265977315253
 10
112.8279106705778
 20
-132.9348659606899
 10
112.8999131662195
 20
-132.9393445848207
 10
112.8999131662195
 20
-132.9393445848207
 10
112.8999131662195
 20
-133.1422607089019
 10
112.8999131662195
 20
-133.1422607089019
 10
112.7752007096534
 20
-133.1339924797373
 10
112.3986517731156
 20
-133.1064317158553
 10
112.3986517731156
 20
-132.6496120545112
 10
112.3986517731156
 20
-132.4253363384215
 10
112.5254312869728
 20
-132.184179654454
 10
112.8217094987043
 20
-132.184179654454
 10
113.0077446549078
 20
-132.184179654454
 10
113.0904269465538
 20
-132.2792642898469
 10
113.1517496461912
 20
-132.3788275493706
 10
113.1793104100732
 20
-132.3171603401846
 10
113.2595811348796
 20
-132.1352592985634
 10
113.5369113214422
 20
-132.1352592985634
 10
113.8752196980937
 20
-132.1352592985634
 10
114.0423068291283
 20
-132.3829616639529
 10
114.0423068291283
 20
-132.659947340967
 97
        0
 97
        0
 75
     2
 76
     1
 98
        0
  0
SPLINE
  5
1A7
330
1A1
100
AcDbEntity
  8
_U+30EC_U+30A4_U+30E4_U+30FC 1
370
     0
100
AcDbSpline
210
0.0
220
0.0
230
1.0
 70
    11
 71
     3
 72
    44
 73
    40
 74
     0
 42
0.0000000001
 43
0.0000000001
 12
1.0
 22
0.0
 32
0.0
 13
1.0
 23
0.0
 33
0.0
 40
0.0
 40
0.0
 40
0.0
 40
0.0
 40
1.0
 40
1.0
 40
1.0
 40
2.0
 40
2.0
 40
2.0
 40
3.0
 40
3.0
 40
3.0
 40
4.0
 40
4.0
 40
4.0
 40
5.0
 40
5.0
 40
5.0
 40
6.0
 40
6.0
 40
6.0
 40
7.0
 40
7.0
 40
7.0
 40
8.0
 40
8.0
 40
8.0
 40
9.0
 40
9.0
 40
9.0
 40
10.0
 40
10.0
 40
10.0
 40
11.0
 40
11.0
 40
11.0
 40
12.0
 40
12.0
 40
12.0
 40
13.0
 40
13.0
 40
13.0
 40
13.0
 10
113.4097872980364
 20
-131.3814724063907
 30
0.0
 10
113.5686061999065
 20
-131.5995469506071
 30
0.0
 10
113.6426757528393
 20
-131.6925645287088
 30
0.0
 10
113.7863362345743
 20
-131.7411403750508
 30
0.0
 10
113.7863362345743
 20
-131.7411403750508
 30
0.0
 10
113.7863362345743
 20
-130.9628933049329
 30
0.0
 10
113.7863362345743
 20
-130.9628933049329
 30
0.0
 10
113.7863362345743
 20
-130.9628933049329
 30
0.0
 10
113.9916639254951
 20
-130.9628933049329
 30
0.0
 10
113.9916639254951
 20
-130.9628933049329
 30
0.0
 10
113.9916639254951
 20
-130.9628933049329
 30
0.0
 10
113.9916639254951
 20
-131.9909097977314
 30
0.0
 10
113.9916639254951
 20
-131.9909097977314
 30
0.0
 10
113.6340630141262
 20
-131.9592149192671
 30
0.0
 10
113.555859346611
 20
-131.8934135954989
 30
0.0
 10
113.2575140775884
 20
-131.5085964297965
 30
0.0
 10
113.0587320680895
 20
-131.2526258352424
 30
0.0
 10
112.9908636870301
 20
-131.1871690210227
 30
0.0
 10
112.8534043771686
 20
-131.1871690210227
 30
0.0
 10
112.734893092476
 20
-131.1871690210227
 30
0.0
 10
112.603634954488
 20
-131.2588270071159
 30
0.0
 10
112.603634954488
 20
-131.4555419593236
 30
0.0
 10
112.603634954488
 20
-131.7159911780085
 30
0.0
 10
112.8344563519997
 20
-131.7242594071731
 30
0.0
 10
112.9509005794012
 20
-131.7287380313039
 30
0.0
 10
112.9509005794012
 20
-131.7287380313039
 30
0.0
 10
112.9509005794012
 20
-131.9526692378452
 30
0.0
 10
112.9509005794012
 20
-131.9526692378452
 30
0.0
 10
112.8237765559955
 20
-131.9444010086806
 30
0.0
 10
112.7118109527248
 20
-131.9337212126763
 30
0.0
 10
112.5932996680322
 20
-131.85345048787
 30
0.0
 10
112.4324137088711
 20
-131.7435519418905
 30
0.0
 10
112.3986517731156
 20
-131.5571722761385
 30
0.0
 10
112.3986517731156
 20
-131.440728048737
 30
0.0
 10
112.3986517731156
 20
-131.1637423717229
 30
0.0
 10
112.582619872028
 20
-130.9563476235109
 30
0.0
 10
112.8554714344597
 20
-130.9563476235109
 30
0.0
 10
113.0838812651318
 20
-130.9563476235109
 30
0.0
 10
113.1834445246555
 20
-131.0727918509124
 30
0.0
 10
113.4097872980364
 20
-131.3814724063907
 30
0.0
  0
HATCH
  5
1A8
330
1A1
100
AcDbEntity
  8
_U+30EC_U+30A4_U+30E4_U+30FC 1
 62
   179
420
  2234388
100
AcDbHatch
 10
0.0
 20
0.0
 30
0.0
210
0.0
220
0.0
230
1.0
  2
SOLID
 70
     1
 71
     0
 91
        1
 92
        1
 93
        1
 72
     4
 94
        3
 73
     0
 74
     1
 95
       44
 96
       40
 40
0.0
 40
0.0
 40
0.0
 40
0.0
 40
1.0
 40
1.0
 40
1.0
 40
2.0
 40
2.0
 40
2.0
 40
3.0
 40
3.0
 40
3.0
 40
4.0
 40
4.0
 40
4.0
 40
5.0
 40
5.0
 40
5.0
 40
6.0
 40
6.0
 40
6.0
 40
7.0
 40
7.0
 40
7.0
 40
8.0
 40
8.0
 40
8.0
 40
9.0
 40
9.0
 40
9.0
 40
10.0
 40
10.0
 40
10.0
 40
11.0
 40
11.0
 40
11.0
 40
12.0
 40
12.0
 40
12.0
 40
13.0
 40
13.0
 40
13.0
 40
13.0
 10
113.4097872980364
 20
-131.3814724063907
 10
113.5686061999065
 20
-131.5995469506071
 10
113.6426757528393
 20
-131.6925645287088
 10
113.7863362345743
 20
-131.7411403750508
 10
113.7863362345743
 20
-131.7411403750508
 10
113.7863362345743
 20
-130.9628933049329
 10
113.7863362345743
 20
-130.9628933049329
 10
113.7863362345743
 20
-130.9628933049329
 10
113.9916639254951
 20
-130.9628933049329
 10
113.9916639254951
 20
-130.9628933049329
 10
113.9916639254951
 20
-130.9628933049329
 10
113.9916639254951
 20
-131.9909097977314
 10
113.9916639254951
 20
-131.9909097977314
 10
113.6340630141262
 20
-131.9592149192671
 10
113.555859346611
 20
-131.8934135954989
 10
113.2575140775884
 20
-131.5085964297965
 10
113.0587320680895
 20
-131.2526258352424
 10
112.9908636870301
 20
-131.1871690210227
 10
112.8534043771686
 20
-131.1871690210227
 10
112.734893092476
 20
-131.1871690210227
 10
112.603634954488
 20
-131.2588270071159
 10
112.603634954488
 20
-131.4555419593236
 10
112.603634954488
 20
-131.7159911780085
 10
112.8344563519997
 20
-131.7242594071731
 10
112.9509005794012
 20
-131.7287380313039
 10
112.9509005794012
 20
-131.7287380313039
 10
112.9509005794012
 20
-131.9526692378452
 10
112.9509005794012
 20
-131.9526692378452
 10
112.8237765559955
 20
-131.9444010086806
 10
112.7118109527248
 20
-131.9337212126763
 10
112.5932996680322
 20
-131.85345048787
 10
112.4324137088711
 20
-131.7435519418905
 10
112.3986517731156
 20
-131.5571722761385
 10
112.3986517731156
 20
-131.440728048737
 10
112.3986517731156
 20
-131.1637423717229
 10
112.582619872028
 20
-130.9563476235109
 10
112.8554714344597
 20
-130.9563476235109
 10
113.0838812651318
 20
-130.9563476235109
 10
113.1834445246555
 20
-131.0727918509124
 10
113.4097872980364
 20
-131.3814724063907
 97
        0
 97
        0
 75
     2
 76
     1
 98
        0
  0
ENDBLK
  5
1A4
330
1A1
100
AcDbEntity
  8
0
100
AcDbBlockEnd
  0
BLOCK
  5
1AB
330
1A9
100
AcDbEntity
  8
0
100
AcDbBlockBegin
  2
block 14
 70
     0
 10
0.0
 20
0.0
 30
0.0
  3
block 14
  1

  0
SPLINE
  5
1AD
330
1A9
100
AcDbEntity
  8
_U+30EC_U+30A4_U+30E4_U+30FC 1
370
     0
100
AcDbSpline
210
0.0
220
0.0
230
1.0
 70
    11
 71
     3
 72
    32
 73
    28
 74
     0
 42
0.0000000001
 43
0.0000000001
 12
1.0
 22
0.0
 32
0.0
 13
1.0
 23
0.0
 33
0.0
 40
0.0
 40
0.0
 40
0.0
 40
0.0
 40
1.0
 40
1.0
 40
1.0
 40
2.0
 40
2.0
 40
2.0
 40
3.0
 40
3.0
 40
3.0
 40
4.0
 40
4.0
 40
4.0
 40
5.0
 40
5.0
 40
5.0
 40
6.0
 40
6.0
 40
6.0
 40
7.0
 40
7.0
 40
7.0
 40
8.0
 40
8.0
 40
8.0
 40
9.0
 40
9.0
 40
9.0
 40
9.0
 10
81.77795408111801
 20
-113.0585598133152
 30
0.0
 10
81.77795408111801
 20
-113.5748073717799
 30
0.0
 10
81.22363821754132
 20
-113.5832478557188
 30
0.0
 10
81.01004229745583
 20
-113.5832478557188
 30
0.0
 10
80.77939315471835
 20
-113.5832478557188
 30
0.0
 10
80.13205971303991
 20
-113.5641275757756
 30
0.0
 10
80.13205971303991
 20
-113.0204915082032
 30
0.0
 10
80.13205971303991
 20
-112.8470309505209
 30
0.0
 10
80.20182289661622
 20
-112.6017401519711
 30
0.0
 10
80.5339301013943
 20
-112.5634995920848
 30
0.0
 10
80.5339301013943
 20
-112.5634995920848
 30
0.0
 10
80.5339301013943
 20
-112.7772677669446
 30
0.0
 10
80.5339301013943
 20
-112.7772677669446
 30
0.0
 10
80.47691377111342
 20
-112.7877753081746
 30
0.0
 10
80.32877466524766
 20
-112.8194701866389
 30
0.0
 10
80.32877466524766
 20
-113.0225585654944
 30
0.0
 10
80.32877466524766
 20
-113.3145304078693
 30
0.0
 10
80.65674775544346
 20
-113.3548380250467
 30
0.0
 10
80.86190319159009
 20
-113.3674126235679
 30
0.0
 10
80.78369952407492
 20
-113.2743950454661
 30
0.0
 10
80.72444388172862
 20
-113.206698919181
 30
0.0
 10
80.72444388172862
 20
-113.0247978775598
 30
0.0
 10
80.72444388172862
 20
-112.8449638932297
 30
0.0
 10
80.83227537041694
 20
-112.5424845096248
 30
0.0
 10
81.23845212812789
 20
-112.5424845096248
 30
0.0
 10
81.55781247961055
 20
-112.5424845096248
 30
0.0
 10
81.77795408111801
 20
-112.7412665191237
 30
0.0
 10
81.77795408111801
 20
-113.0585598133152
 30
0.0
  0
SPLINE
  5
1AE
330
1A9
100
AcDbEntity
  8
_U+30EC_U+30A4_U+30E4_U+30FC 1
370
     0
100
AcDbSpline
210
0.0
220
0.0
230
1.0
 70
    11
 71
     3
 72
    17
 73
    13
 74
     0
 42
0.0000000001
 43
0.0000000001
 12
1.0
 22
0.0
 32
0.0
 13
1.0
 23
0.0
 33
0.0
 40
0.0
 40
0.0
 40
0.0
 40
0.0
 40
1.0
 40
1.0
 40
1.0
 40
2.0
 40
2.0
 40
2.0
 40
3.0
 40
3.0
 40
3.0
 40
4.0
 40
4.0
 40
4.0
 40
4.0
 10
80.91909177664523
 20
-113.0416788454375
 30
0.0
 10
80.91909177664523
 20
-113.3040228666393
 30
0.0
 10
81.13062063943957
 20
-113.3420911717513
 30
0.0
 10
81.24689261206676
 20
-113.3420911717513
 30
0.0
 10
81.42242022704023
 20
-113.3420911717513
 30
0.0
 10
81.58537324349255
 20
-113.2468342815841
 30
0.0
 10
81.58537324349255
 20
-113.0628661826718
 30
0.0
 10
81.58537324349255
 20
-112.942287840688
 30
0.0
 10
81.52611760114625
 20
-112.7665879709403
 30
0.0
 10
81.24051918541905
 20
-112.7665879709403
 30
0.0
 10
81.01624346932928
 20
-112.7665879709403
 30
0.0
 10
80.91909177664523
 20
-112.9062865928672
 30
0.0
 10
80.91909177664523
 20
-113.0416788454375
 30
0.0
  0
HATCH
  5
1AF
330
1A9
100
AcDbEntity
  8
_U+30EC_U+30A4_U+30E4_U+30FC 1
 62
   179
420
  2234388
100
AcDbHatch
 10
0.0
 20
0.0
 30
0.0
210
0.0
220
0.0
230
1.0
  2
SOLID
 70
     1
 71
     0
 91
        2
 92
        1
 93
        1
 72
     4
 94
        3
 73
     0
 74
     1
 95
       32
 96
       28
 40
0.0
 40
0.0
 40
0.0
 40
0.0
 40
1.0
 40
1.0
 40
1.0
 40
2.0
 40
2.0
 40
2.0
 40
3.0
 40
3.0
 40
3.0
 40
4.0
 40
4.0
 40
4.0
 40
5.0
 40
5.0
 40
5.0
 40
6.0
 40
6.0
 40
6.0
 40
7.0
 40
7.0
 40
7.0
 40
8.0
 40
8.0
 40
8.0
 40
9.0
 40
9.0
 40
9.0
 40
9.0
 10
81.77795408111801
 20
-113.0585598133152
 10
81.77795408111801
 20
-113.5748073717799
 10
81.22363821754132
 20
-113.5832478557188
 10
81.01004229745583
 20
-113.5832478557188
 10
80.77939315471835
 20
-113.5832478557188
 10
80.13205971303991
 20
-113.5641275757756
 10
80.13205971303991
 20
-113.0204915082032
 10
80.13205971303991
 20
-112.8470309505209
 10
80.20182289661622
 20
-112.6017401519711
 10
80.5339301013943
 20
-112.5634995920848
 10
80.5339301013943
 20
-112.5634995920848
 10
80.5339301013943
 20
-112.7772677669446
 10
80.5339301013943
 20
-112.7772677669446
 10
80.47691377111342
 20
-112.7877753081746
 10
80.32877466524766
 20
-112.8194701866389
 10
80.32877466524766
 20
-113.0225585654944
 10
80.32877466524766
 20
-113.3145304078693
 10
80.65674775544346
 20
-113.3548380250467
 10
80.86190319159009
 20
-113.3674126235679
 10
80.78369952407492
 20
-113.2743950454661
 10
80.72444388172862
 20
-113.206698919181
 10
80.72444388172862
 20
-113.0247978775598
 10
80.72444388172862
 20
-112.8449638932297
 10
80.83227537041694
 20
-112.5424845096248
 10
81.23845212812789
 20
-112.5424845096248
 10
81.55781247961055
 20
-112.5424845096248
 10
81.77795408111801
 20
-112.7412665191237
 10
81.77795408111801
 20
-113.0585598133152
 97
        0
 97
        0
 92
        1
 93
        1
 72
     4
 94
        3
 73
     0
 74
     1
 95
       17
 96
       13
 40
0.0
 40
0.0
 40
0.0
 40
0.0
 40
1.0
 40
1.0
 40
1.0
 40
2.0
 40
2.0
 40
2.0
 40
3.0
 40
3.0
 40
3.0
 40
4.0
 40
4.0
 40
4.0
 40
4.0
 10
80.91909177664523
 20
-113.0416788454375
 10
80.91909177664523
 20
-113.3040228666393
 10
81.13062063943957
 20
-113.3420911717513
 10
81.24689261206676
 20
-113.3420911717513
 10
81.42242022704023
 20
-113.3420911717513
 10
81.58537324349255
 20
-113.2468342815841
 10
81.58537324349255
 20
-113.0628661826718
 10
81.58537324349255
 20
-112.942287840688
 10
81.52611760114625
 20
-112.7665879709403
 10
81.24051918541905
 20
-112.7665879709403
 10
81.01624346932928
 20
-112.7665879709403
 10
80.91909177664523
 20
-112.9062865928672
 10
80.91909177664523
 20
-113.0416788454375
 97
        0
 97
        0
 75
     2
 76
     1
 98
        0
  0
ENDBLK
  5
1AC
330
1A9
100
AcDbEntity
  8
0
100
AcDbBlockEnd
  0
ENDSEC
  0
SECTION
  2
ENTITIES
  0
INSERT
  5
42
330
1F
100
AcDbEntity
  8
_U+30EC_U+30A4_U+30E4_U+30FC 1
100
AcDbBlockReference
  2
block 2
 10
0.0
 20
0.0
 30
0.0
  0
INSERT
  5
64
330
1F
100
AcDbEntity
  8
_U+30EC_U+30A4_U+30E4_U+30FC 1
100
AcDbBlockReference
  2
block 4
 10
0.0
 20
0.0
 30
0.0
  0
ENDSEC
  0
SECTION
  2
OBJECTS
  0
DICTIONARY
  5
C
330
0
100
AcDbDictionary
281
     1
  3
ACAD_GROUP
350
D
  3
ACAD_LAYOUT
350
1A
  3
ACAD_MATERIAL
350
3B
  3
ACAD_MLEADERSTYLE
350
1B3
  3
ACAD_MLINESTYLE
350
17
  3
ACAD_PLOTSETTINGS
350
19
  3
ACAD_PLOTSTYLENAME
350
E
  3
ACAD_TABLESTYLE
350
1B2
  3
ACAD_VISUALSTYLE
350
2A
  0
SUN
  5
3F
330
29
100
AcDbSun
 90
        1
290
     0
 63
     7
421
 16777215
 40
1.0
291
     1
 91
  2455826
 92
 54000000
292
     0
 70
     2
 71
   256
280
     1
  0
DICTIONARY
  5
D
102
{ACAD_REACTORS
330
C
102
}
330
C
100
AcDbDictionary
281
     1
  0
DICTIONARY
  5
1A
102
{ACAD_REACTORS
330
C
102
}
330
C
100
AcDbDictionary
281
     1
  3
Layout1
350
1E
  3
Layout2
350
26
  3
Model
350
22
  0
DICTIONARY
  5
3B
102
{ACAD_REACTORS
330
C
102
}
330
C
100
AcDbDictionary
281
     1
  3
ByBlock
350
3D
  3
ByLayer
350
3C
  3
Global
350
3E
  0
DICTIONARY
  5
1B3
102
{ACAD_REACTORS
330
C
102
}
330
C
100
AcDbDictionary
281
     1
  0
DICTIONARY
  5
17
102
{ACAD_REACTORS
330
C
102
}
330
C
100
AcDbDictionary
281
     1
  3
Standard
350
18
  0
DICTIONARY
  5
19
102
{ACAD_REACTORS
330
C
102
}
330
C
100
AcDbDictionary
281
     1
  0
ACDBDICTIONARYWDFLT
  5
E
102
{ACAD_REACTORS
330
C
102
}
330
C
100
AcDbDictionary
281
     1
  3
Normal
350
F
100
AcDbDictionaryWithDefault
340
F
  0
DICTIONARY
  5
1B2
102
{ACAD_REACTORS
330
C
102
}
330
C
100
AcDbDictionary
281
     1
  0
DICTIONARY
  5
2A
102
{ACAD_REACTORS
330
C
102
}
330
C
100
AcDbDictionary
281
     1
  3
2dWireframe
350
2F
  3
3D Hidden
350
31
  3
3dWireframe
350
30
  3
Basic
350
32
  3
Brighten
350
36
  3
ColorChange
350
3A
  3
Conceptual
350
34
  3
Dim
350
35
  3
Facepattern
350
39
  3
Flat
350
2B
  3
FlatWithEdges
350
2C
  3
Gouraud
350
2D
  3
GouraudWithEdges
350
2E
  3
Linepattern
350
38
  3
Realistic
350
33
  3
Thicken
350
37
  0
LAYOUT
  5
1E
102
{ACAD_REACTORS
330
1A
102
}
330
1A
100
AcDbPlotSettings
  1

  2
none_device
  4

  6

 40
0.0
 41
0.0
 42
0.0
 43
0.0
 44
0.0
 45
0.0
 46
0.0
 47
0.0
 48
0.0
 49
0.0
140
0.0
141
0.0
142
1.0
143
1.0
 70
   688
 72
     0
 73
     0
 74
     5
  7

 75
    16
 76
     0
 77
     2
 78
   300
147
1.0
148
0.0
149
0.0
100
AcDbLayout
  1
Layout1
 70
     1
 71
     1
 10
0.0
 20
0.0
 11
12.0
 21
9.0
 12
0.0
 22
0.0
 32
0.0
 14
1.000000000000000E+20
 24
1.000000000000000E+20
 34
1.000000000000000E+20
 15
-1.000000000000000E+20
 25
-1.000000000000000E+20
 35
-1.000000000000000E+20
146
0.0
 13
0.0
 23
0.0
 33
0.0
 16
1.0
 26
0.0
 36
0.0
 17
0.0
 27
1.0
 37
0.0
 76
     0
330
1B
  0
LAYOUT
  5
26
102
{ACAD_REACTORS
330
1A
102
}
330
1A
100
AcDbPlotSettings
  1

  2
none_device
  4

  6

 40
0.0
 41
0.0
 42
0.0
 43
0.0
 44
0.0
 45
0.0
 46
0.0
 47
0.0
 48
0.0
 49
0.0
140
0.0
141
0.0
142
1.0
143
1.0
 70
   688
 72
     0
 73
     0
 74
     5
  7

 75
    16
 76
     0
 77
     2
 78
   300
147
1.0
148
0.0
149
0.0
100
AcDbLayout
  1
Layout2
 70
     1
 71
     2
 10
0.0
 20
0.0
 11
0.0
 21
0.0
 12
0.0
 22
0.0
 32
0.0
 14
0.0
 24
0.0
 34
0.0
 15
0.0
 25
0.0
 35
0.0
146
0.0
 13
0.0
 23
0.0
 33
0.0
 16
1.0
 26
0.0
 36
0.0
 17
0.0
 27
1.0
 37
0.0
 76
     0
330
23
  0
LAYOUT
  5
22
102
{ACAD_REACTORS
330
1A
102
}
330
1A
100
AcDbPlotSettings
  1

  2
none_device
  4

  6

 40
0.0
 41
0.0
 42
0.0
 43
0.0
 44
0.0
 45
0.0
 46
0.0
 47
0.0
 48
0.0
 49
0.0
140
0.0
141
0.0
142
1.0
143
1.0
 70
  1712
 72
     0
 73
     0
 74
     0
  7

 75
     0
 76
     0
 77
     2
 78
   300
147
1.0
148
0.0
149
0.0
100
AcDbLayout
  1
Model
 70
     1
 71
     0
 10
0.0
 20
0.0
 11
12.0
 21
9.0
 12
0.0
 22
0.0
 32
0.0
 14
1.000000000000000E+20
 24
1.000000000000000E+20
 34
1.000000000000000E+20
 15
-1.000000000000000E+20
 25
-1.000000000000000E+20
 35
-1.000000000000000E+20
146
0.0
 13
0.0
 23
0.0
 33
0.0
 16
1.0
 26
0.0
 36
0.0
 17
0.0
 27
1.0
 37
0.0
 76
     0
330
1F
331
29
  0
MATERIAL
  5
3D
102
{ACAD_REACTORS
330
3B
102
}
330
3B
100
AcDbMaterial
  1
ByBlock
 72
     1
 94
      127
  0
MATERIAL
  5
3C
102
{ACAD_REACTORS
330
3B
102
}
330
3B
100
AcDbMaterial
  1
ByLayer
 72
     1
 94
      127
  0
MATERIAL
  5
3E
102
{ACAD_REACTORS
330
3B
102
}
330
3B
100
AcDbMaterial
  1
Global
 72
     1
 94
      127
  0
MLINESTYLE
  5
18
102
{ACAD_REACTORS
330
17
102
}
330
17
100
AcDbMlineStyle
  2
Standard
 70
     0
  3

 62
   256
 51
90.0
 52
90.0
 71
     2
 49
0.5
 62
   256
  6
BYLAYER
 49
-0.5
 62
   256
  6
BYLAYER
  0
ACDBPLACEHOLDER
  5
F
102
{ACAD_REACTORS
330
E
102
}
330
E
  0
VISUALSTYLE
  5
2F
102
{ACAD_REACTORS
330
2A
102
}
330
2A
100
AcDbVisualStyle
  2
2dWireframe
 70
     4
177
     2
291
     0
 71
     0
176
     1
 72
     2
176
     1
 73
     0
176
     1
 90
        0
176
     1
 40
-0.6
176
     1
 41
-30.0
176
     1
 62
     5
 63
     7
421
 16777215
176
     1
 74
     1
176
     1
 91
        4
176
     1
 64
     7
176
     1
 65
   257
176
     1
 75
     1
176
     1
175
     1
176
     1
 42
1.0
176
     1
 92
        0
176
     1
 66
   257
176
     1
 43
1.0
176
     1
 76
     1
176
     1
 77
     6
176
     1
 78
     2
176
     1
 67
     7
176
     1
 79
     5
176
     1
170
     0
176
     1
171
     0
176
     1
290
     0
176
     1
 93
        1
176
     1
 44
0.0
176
     1
173
     0
176
     1
  0
VISUALSTYLE
  5
31
102
{ACAD_REACTORS
330
2A
102
}
330
2A
100
AcDbVisualStyle
  2
3D Hidden
 70
     6
177
     2
291
     0
 71
     1
176
     1
 72
     2
176
     1
 73
     2
176
     1
 90
        0
176
     1
 40
-0.6
176
     1
 41
-30.0
176
     1
 62
     5
 63
     7
421
 16777215
176
     1
 74
     2
176
     1
 91
        2
176
     1
 64
     7
176
     1
 65
   257
176
     1
 75
     2
176
     1
175
     1
176
     1
 42
40.0
176
     1
 92
        0
176
     1
 66
   257
176
     1
 43
1.0
176
     1
 76
     1
176
     1
 77
     6
176
     1
 78
     2
176
     1
 67
     7
176
     1
 79
     3
176
     1
170
     0
176
     1
171
     0
176
     1
290
     0
176
     1
 93
        1
176
     1
 44
0.0
176
     1
173
     0
176
     1
  0
VISUALSTYLE
  5
30
102
{ACAD_REACTORS
330
2A
102
}
330
2A
100
AcDbVisualStyle
  2
3dWireframe
 70
     5
177
     2
291
     0
 71
     0
176
     1
 72
     2
176
     1
 73
     0
176
     1
 90
        0
176
     1
 40
-0.6
176
     1
 41
-30.0
176
     1
 62
     5
 63
     7
421
 16777215
176
     1
 74
     1
176
     1
 91
        4
176
     1
 64
     7
176
     1
 65
   257
176
     1
 75
     1
176
     1
175
     1
176
     1
 42
1.0
176
     1
 92
        0
176
     1
 66
   257
176
     1
 43
1.0
176
     1
 76
     1
176
     1
 77
     6
176
     1
 78
     2
176
     1
 67
     7
176
     1
 79
     5
176
     1
170
     0
176
     1
171
     0
176
     1
290
     0
176
     1
 93
        1
176
     1
 44
0.0
176
     1
173
     0
176
     1
  0
VISUALSTYLE
  5
32
102
{ACAD_REACTORS
330
2A
102
}
330
2A
100
AcDbVisualStyle
  2
Basic
 70
     7
177
     2
291
     1
 71
     1
176
     1
 72
     0
176
     1
 73
     1
176
     1
 90
        0
176
     1
 40
-0.6
176
     1
 41
-30.0
176
     1
 62
     5
 63
     7
421
 16777215
176
     1
 74
     0
176
     1
 91
        4
176
     1
 64
     7
176
     1
 65
   257
176
     1
 75
     1
176
     1
175
     1
176
     1
 42
1.0
176
     1
 92
        8
176
     1
 66
     7
176
     1
 43
1.0
176
     1
 76
     1
176
     1
 77
     6
176
     1
 78
     2
176
     1
 67
     7
176
     1
 79
     5
176
     1
170
     0
176
     1
171
     0
176
     1
290
     0
176
     1
 93
        1
176
     1
 44
0.0
176
     1
173
     0
176
     1
  0
VISUALSTYLE
  5
36
102
{ACAD_REACTORS
330
2A
102
}
330
2A
100
AcDbVisualStyle
  2
Brighten
 70
    12
177
     2
291
     1
 71
     2
176
     1
 72
     2
176
     1
 73
     0
176
     1
 90
        0
176
     1
 40
-0.6
176
     1
 41
-30.0
176
     1
 62
     5
 63
     7
421
 16777215
176
     1
 74
     1
176
     1
 91
        4
176
     1
 64
     7
176
     1
 65
   257
176
     1
 75
     1
176
     1
175
     1
176
     1
 42
1.0
176
     1
 92
        8
176
     1
 66
     7
176
     1
 43
1.0
176
     1
 76
     1
176
     1
 77
     6
176
     1
 78
     2
176
     1
 67
     7
176
     1
 79
     5
176
     1
170
     0
176
     1
171
     0
176
     1
290
     0
176
     1
 93
        1
176
     1
 44
50.0
176
     1
173
     0
176
     1
  0
VISUALSTYLE
  5
3A
102
{ACAD_REACTORS
330
2A
102
}
330
2A
100
AcDbVisualStyle
  2
ColorChange
 70
    16
177
     2
291
     1
 71
     2
176
     1
 72
     2
176
     1
 73
     3
176
     1
 90
        0
176
     1
 40
-0.6
176
     1
 41
-30.0
176
     1
 62
     5
 63
     8
421
  8421504
176
     1
 74
     1
176
     1
 91
        4
176
     1
 64
     7
176
     1
 65
   257
176
     1
 75
     1
176
     1
175
     1
176
     1
 42
1.0
176
     1
 92
        8
176
     1
 66
     8
424
  8421504
176
     1
 43
1.0
176
     1
 76
     1
176
     1
 77
     6
176
     1
 78
     2
176
     1
 67
     7
176
     1
 79
     5
176
     1
170
     0
176
     1
171
     0
176
     1
290
     0
176
     1
 93
        1
176
     1
 44
0.0
176
     1
173
     0
176
     1
  0
VISUALSTYLE
  5
34
102
{ACAD_REACTORS
330
2A
102
}
330
2A
100
AcDbVisualStyle
  2
Conceptual
 70
     9
177
     2
291
     0
 71
     3
176
     1
 72
     2
176
     1
 73
     0
176
     1
 90
        0
176
     1
 40
-0.6
176
     1
 41
-30.0
176
     1
 62
     5
 63
     7
421
 16777215
176
     1
 74
     2
176
     1
 91
        2
176
     1
 64
     7
176
     1
 65
   257
176
     1
 75
     1
176
     1
175
     1
176
     1
 42
40.0
176
     1
 92
        8
176
     1
 66
     7
176
     1
 43
1.0
176
     1
 76
     1
176
     1
 77
     6
176
     1
 78
     2
176
     1
 67
     7
176
     1
 79
     3
176
     1
170
     0
176
     1
171
     0
176
     1
290
     0
176
     1
 93
        1
176
     1
 44
0.0
176
     1
173
     0
176
     1
  0
VISUALSTYLE
  5
35
102
{ACAD_REACTORS
330
2A
102
}
330
2A
100
AcDbVisualStyle
  2
Dim
 70
    11
177
     2
291
     1
 71
     2
176
     1
 72
     2
176
     1
 73
     0
176
     1
 90
        0
176
     1
 40
-0.6
176
     1
 41
-30.0
176
     1
 62
     5
 63
     7
421
 16777215
176
     1
 74
     1
176
     1
 91
        4
176
     1
 64
     7
176
     1
 65
   257
176
     1
 75
     1
176
     1
175
     1
176
     1
 42
1.0
176
     1
 92
        8
176
     1
 66
     7
176
     1
 43
1.0
176
     1
 76
     1
176
     1
 77
     6
176
     1
 78
     2
176
     1
 67
     7
176
     1
 79
     5
176
     1
170
     0
176
     1
171
     0
176
     1
290
     0
176
     1
 93
        1
176
     1
 44
-50.0
176
     1
173
     0
176
     1
  0
VISUALSTYLE
  5
39
102
{ACAD_REACTORS
330
2A
102
}
330
2A
100
AcDbVisualStyle
  2
Facepattern
 70
    15
177
     2
291
     1
 71
     2
176
     1
 72
     2
176
     1
 73
     0
176
     1
 90
        0
176
     1
 40
-0.6
176
     1
 41
-30.0
176
     1
 62
     5
 63
     7
421
 16777215
176
     1
 74
     1
176
     1
 91
        4
176
     1
 64
     7
176
     1
 65
   257
176
     1
 75
     1
176
     1
175
     1
176
     1
 42
1.0
176
     1
 92
        8
176
     1
 66
     7
176
     1
 43
1.0
176
     1
 76
     1
176
     1
 77
     6
176
     1
 78
     2
176
     1
 67
     7
176
     1
 79
     5
176
     1
170
     0
176
     1
171
     0
176
     1
290
     0
176
     1
 93
        1
176
     1
 44
0.0
176
     1
173
     0
176
     1
  0
VISUALSTYLE
  5
2B
102
{ACAD_REACTORS
330
2A
102
}
330
2A
100
AcDbVisualStyle
  2
Flat
 70
     0
177
     2
291
     1
 71
     2
176
     1
 72
     1
176
     1
 73
     1
176
     1
 90
        2
176
     1
 40
-0.6
176
     1
 41
30.0
176
     1
 62
     5
 63
     7
421
 16777215
176
     1
 74
     0
176
     1
 91
        4
176
     1
 64
     7
176
     1
 65
   257
176
     1
 75
     1
176
     1
175
     1
176
     1
 42
1.0
176
     1
 92
        8
176
     1
 66
     7
176
     1
 43
1.0
176
     1
 76
     1
176
     1
 77
     6
176
     1
 78
     2
176
     1
 67
     7
176
     1
 79
     5
176
     1
170
     0
176
     1
171
     0
176
     1
290
     0
176
     1
 93
       13
176
     1
 44
0.0
176
     1
173
     0
176
     1
  0
VISUALSTYLE
  5
2C
102
{ACAD_REACTORS
330
2A
102
}
330
2A
100
AcDbVisualStyle
  2
FlatWithEdges
 70
     1
177
     2
291
     1
 71
     2
176
     1
 72
     1
176
     1
 73
     1
176
     1
 90
        2
176
     1
 40
-0.6
176
     1
 41
30.0
176
     1
 62
     5
 63
     7
421
 16777215
176
     1
 74
     1
176
     1
 91
        4
176
     1
 64
     7
176
     1
 65
   257
176
     1
 75
     1
176
     1
175
     1
176
     1
 42
1.0
176
     1
 92
        0
176
     1
 66
   257
176
     1
 43
1.0
176
     1
 76
     1
176
     1
 77
     6
176
     1
 78
     2
176
     1
 67
     7
176
     1
 79
     5
176
     1
170
     0
176
     1
171
     0
176
     1
290
     0
176
     1
 93
       13
176
     1
 44
0.0
176
     1
173
     0
176
     1
  0
VISUALSTYLE
  5
2D
102
{ACAD_REACTORS
330
2A
102
}
330
2A
100
AcDbVisualStyle
  2
Gouraud
 70
     2
177
     2
291
     1
 71
     2
176
     1
 72
     2
176
     1
 73
     1
176
     1
 90
        2
176
     1
 40
-0.6
176
     1
 41
30.0
176
     1
 62
     5
 63
     7
421
 16777215
176
     1
 74
     0
176
     1
 91
        4
176
     1
 64
     7
176
     1
 65
   257
176
     1
 75
     1
176
     1
175
     1
176
     1
 42
1.0
176
     1
 92
        0
176
     1
 66
     7
176
     1
 43
1.0
176
     1
 76
     1
176
     1
 77
     6
176
     1
 78
     2
176
     1
 67
     7
176
     1
 79
     5
176
     1
170
     0
176
     1
171
     0
176
     1
290
     0
176
     1
 93
       13
176
     1
 44
0.0
176
     1
173
     0
176
     1
  0
VISUALSTYLE
  5
2E
102
{ACAD_REACTORS
330
2A
102
}
330
2A
100
AcDbVisualStyle
  2
GouraudWithEdges
 70
     3
177
     2
291
     1
 71
     2
176
     1
 72
     2
176
     1
 73
     1
176
     1
 90
        2
176
     1
 40
-0.6
176
     1
 41
30.0
176
     1
 62
     5
 63
     7
421
 16777215
176
     1
 74
     1
176
     1
 91
        4
176
     1
 64
     7
176
     1
 65
   257
176
     1
 75
     1
176
     1
175
     1
176
     1
 42
1.0
176
     1
 92
        0
176
     1
 66
   257
176
     1
 43
1.0
176
     1
 76
     1
176
     1
 77
     6
176
     1
 78
     2
176
     1
 67
     7
176
     1
 79
     5
176
     1
170
     0
176
     1
171
     0
176
     1
290
     0
176
     1
 93
       13
176
     1
 44
0.0
176
     1
173
     0
176
     1
  0
VISUALSTYLE
  5
38
102
{ACAD_REACTORS
330
2A
102
}
330
2A
100
AcDbVisualStyle
  2
Linepattern
 70
    14
177
     2
291
     1
 71
     2
176
     1
 72
     2
176
     1
 73
     0
176
     1
 90
        0
176
     1
 40
-0.6
176
     1
 41
-30.0
176
     1
 62
     5
 63
     7
421
 16777215
176
     1
 74
     1
176
     1
 91
        4
176
     1
 64
     7
176
     1
 65
   257
176
     1
 75
     7
176
     1
175
     7
176
     1
 42
1.0
176
     1
 92
        8
176
     1
 66
     7
176
     1
 43
1.0
176
     1
 76
     1
176
     1
 77
     6
176
     1
 78
     2
176
     1
 67
     7
176
     1
 79
     5
176
     1
170
     0
176
     1
171
     0
176
     1
290
     0
176
     1
 93
        1
176
     1
 44
0.0
176
     1
173
     0
176
     1
  0
VISUALSTYLE
  5
33
102
{ACAD_REACTORS
330
2A
102
}
330
2A
100
AcDbVisualStyle
  2
Realistic
 70
     8
177
     2
291
     0
 71
     2
176
     1
 72
     2
176
     1
 73
     0
176
     1
 90
        0
176
     1
 40
-0.6
176
     1
 41
-30.0
176
     1
 62
     5
 63
     7
421
 16777215
176
     1
 74
     1
176
     1
 91
        0
176
     1
 64
     7
176
     1
 65
   257
176
     1
 75
     1
176
     1
175
     1
176
     1
 42
1.0
176
     1
 92
        8
176
     1
 66
     8
424
  7895160
176
     1
 43
1.0
176
     1
 76
     1
176
     1
 77
     6
176
     1
 78
     2
176
     1
 67
     7
176
     1
 79
     5
176
     1
170
     0
176
     1
171
     0
176
     1
290
     0
176
     1
 93
       13
176
     1
 44
0.0
176
     1
173
     0
176
     1
  0
VISUALSTYLE
  5
37
102
{ACAD_REACTORS
330
2A
102
}
330
2A
100
AcDbVisualStyle
  2
Thicken
 70
    13
177
     2
291
     1
 71
     2
176
     1
 72
     2
176
     1
 73
     0
176
     1
 90
        0
176
     1
 40
-0.6
176
     1
 41
-30.0
176
     1
 62
     5
 63
     7
421
 16777215
176
     1
 74
     1
176
     1
 91
        4
176
     1
 64
     7
176
     1
 65
   257
176
     1
 75
     1
176
     1
175
     1
176
     1
 42
1.0
176
     1
 92
       12
176
     1
 66
     7
176
     1
 43
1.0
176
     1
 76
     1
176
     1
 77
     6
176
     1
 78
     2
176
     1
 67
     7
176
     1
 79
     5
176
     1
170
     0
176
     1
171
     0
176
     1
290
     0
176
     1
 93
        1
176
     1
 44
0.0
176
     1
173
     0
176
     1
  0
ENDSEC
  0
EOF
