  0
SECTION
  2
HEADER
  9
$ACADVER
  1
AC1024
  9
$ACADMAINTVER
 70
     6
  9
$DWGCODEPAGE
  3
UNDEFINED
  9
$INSBASE
 10
0.0
 20
0.0
 30
0.0
  9
$EXTMIN
 10
1.000000000000000E+20
 20
1.000000000000000E+20
 30
1.000000000000000E+20
  9
$EXTMAX
 10
-1.000000000000000E+20
 20
-1.000000000000000E+20
 30
-1.000000000000000E+20
  9
$LIMMIN
 10
0.0
 20
0.0
  9
$LIMMAX
 10
12.0
 20
9.0
  9
$ORTHOMODE
 70
     0
  9
$REGENMODE
 70
     1
  9
$FILLMODE
 70
     1
  9
$QTEXTMODE
 70
     0
  9
$MIRRTEXT
 70
     1
  9
$LTSCALE
 40
1.0
  9
$ATTMODE
 70
     1
  9
$TEXTSIZE
 40
0.2
  9
$TRACEWID
 40
0.05
  9
$TEXTSTYLE
  7
Standard
  9
$CLAYER
  8
0
  9
$CELTYPE
  6
ByLayer
  9
$CECOLOR
 62
   256
  9
$CELTSCALE
 40
1.0
  9
$DISPSILH
 70
     0
  9
$DIMSCALE
 40
1.0
  9
$DIMASZ
 40
0.18
  9
$DIMEXO
 40
0.0625
  9
$DIMDLI
 40
0.38
  9
$DIMRND
 40
0.0
  9
$DIMDLE
 40
0.0
  9
$DIMEXE
 40
0.18
  9
$DIMTP
 40
0.0
  9
$DIMTM
 40
0.0
  9
$DIMTXT
 40
0.18
  9
$DIMCEN
 40
0.09
  9
$DIMTSZ
 40
0.0
  9
$DIMTOL
 70
     0
  9
$DIMLIM
 70
     0
  9
$DIMTIH
 70
     1
  9
$DIMTOH
 70
     1
  9
$DIMSE1
 70
     0
  9
$DIMSE2
 70
     0
  9
$DIMTAD
 70
     0
  9
$DIMZIN
 70
     0
  9
$DIMBLK
  1

  9
$DIMASO
 70
     1
  9
$DIMSHO
 70
     1
  9
$DIMPOST
  1

  9
$DIMAPOST
  1

  9
$DIMALT
 70
     0
  9
$DIMALTD
 70
     2
  9
$DIMALTF
 40
25.4
  9
$DIMLFAC
 40
1.0
  9
$DIMTOFL
 70
     0
  9
$DIMTVP
 40
0.0
  9
$DIMTIX
 70
     0
  9
$DIMSOXD
 70
     0
  9
$DIMSAH
 70
     0
  9
$DIMBLK1
  1

  9
$DIMBLK2
  1

  9
$DIMSTYLE
  2
Standard
  9
$DIMCLRD
 70
     0
  9
$DIMCLRE
 70
     0
  9
$DIMCLRT
 70
     0
  9
$DIMTFAC
 40
1.0
  9
$DIMGAP
 40
0.09
  9
$DIMJUST
 70
     0
  9
$DIMSD1
 70
     0
  9
$DIMSD2
 70
     0
  9
$DIMTOLJ
 70
     1
  9
$DIMTZIN
 70
     0
  9
$DIMALTZ
 70
     0
  9
$DIMALTTZ
 70
     0
  9
$DIMUPT
 70
     0
  9
$DIMDEC
 70
     4
  9
$DIMTDEC
 70
     4
  9
$DIMALTU
 70
     2
  9
$DIMALTTD
 70
     2
  9
$DIMTXSTY
  7
Standard
  9
$DIMAUNIT
 70
     0
  9
$DIMADEC
 70
     0
  9
$DIMALTRND
 40
0.0
  9
$DIMAZIN
 70
     0
  9
$DIMDSEP
 70
    46
  9
$DIMATFIT
 70
     3
  9
$DIMFRAC
 70
     0
  9
$DIMLDRBLK
  1

  9
$DIMLUNIT
 70
     2
  9
$DIMLWD
 70
    -2
  9
$DIMLWE
 70
    -2
  9
$DIMTMOVE
 70
     0
  9
$DIMFXL
 40
1.0
  9
$DIMFXLON
 70
     0
  9
$DIMJOGANG
 40
0.7853981633974483
  9
$DIMTFILL
 70
     0
  9
$DIMTFILLCLR
 70
     0
  9
$DIMARCSYM
 70
     0
  9
$DIMLTYPE
  6

  9
$DIMLTEX1
  6

  9
$DIMLTEX2
  6

  9
$DIMTXTDIRECTION
 70
     0
  9
$LUNITS
 70
     2
  9
$LUPREC
 70
     4
  9
$SKETCHINC
 40
0.1
  9
$FILLETRAD
 40
0.5
  9
$AUNITS
 70
     0
  9
$AUPREC
 70
     0
  9
$MENU
  1
.
  9
$ELEVATION
 40
0.0
  9
$PELEVATION
 40
0.0
  9
$THICKNESS
 40
0.0
  9
$LIMCHECK
 70
     0
  9
$CHAMFERA
 40
0.5
  9
$CHAMFERB
 40
0.5
  9
$CHAMFERC
 40
1.0
  9
$CHAMFERD
 40
0.0
  9
$SKPOLY
 70
     0
  9
$TDCREATE
 40
2457917.611412037
  9
$TDUCREATE
 40
2457917.236412037
  9
$TDUPDATE
 40
2457917.611412037
  9
$TDUUPDATE
 40
2457917.236412037
  9
$TDINDWG
 40
0.0000000116
  9
$TDUSRTIMER
 40
0.0000000116
  9
$USRTIMER
 70
     1
  9
$ANGBASE
 50
0.0
  9
$ANGDIR
 70
     0
  9
$PDMODE
 70
     0
  9
$PDSIZE
 40
0.0
  9
$PLINEWID
 40
0.0
  9
$SPLFRAME
 70
     0
  9
$SPLINETYPE
 70
     6
  9
$SPLINESEGS
 70
     8
  9
$HANDSEED
  5
123
  9
$SURFTAB1
 70
     6
  9
$SURFTAB2
 70
     6
  9
$SURFTYPE
 70
     6
  9
$SURFU
 70
     6
  9
$SURFV
 70
     6
  9
$UCSBASE
  2

  9
$UCSNAME
  2

  9
$UCSORG
 10
0.0
 20
0.0
 30
0.0
  9
$UCSXDIR
 10
1.0
 20
0.0
 30
0.0
  9
$UCSYDIR
 10
0.0
 20
1.0
 30
0.0
  9
$UCSORTHOREF
  2

  9
$UCSORTHOVIEW
 70
     0
  9
$UCSORGTOP
 10
0.0
 20
0.0
 30
0.0
  9
$UCSORGBOTTOM
 10
0.0
 20
0.0
 30
0.0
  9
$UCSORGLEFT
 10
0.0
 20
0.0
 30
0.0
  9
$UCSORGRIGHT
 10
0.0
 20
0.0
 30
0.0
  9
$UCSORGFRONT
 10
0.0
 20
0.0
 30
0.0
  9
$UCSORGBACK
 10
0.0
 20
0.0
 30
0.0
  9
$PUCSBASE
  2

  9
$PUCSNAME
  2

  9
$PUCSORG
 10
0.0
 20
0.0
 30
0.0
  9
$PUCSXDIR
 10
1.0
 20
0.0
 30
0.0
  9
$PUCSYDIR
 10
0.0
 20
1.0
 30
0.0
  9
$PUCSORTHOREF
  2

  9
$PUCSORTHOVIEW
 70
     0
  9
$PUCSORGTOP
 10
0.0
 20
0.0
 30
0.0
  9
$PUCSORGBOTTOM
 10
0.0
 20
0.0
 30
0.0
  9
$PUCSORGLEFT
 10
0.0
 20
0.0
 30
0.0
  9
$PUCSORGRIGHT
 10
0.0
 20
0.0
 30
0.0
  9
$PUCSORGFRONT
 10
0.0
 20
0.0
 30
0.0
  9
$PUCSORGBACK
 10
0.0
 20
0.0
 30
0.0
  9
$USERI1
 70
     0
  9
$USERI2
 70
     0
  9
$USERI3
 70
     0
  9
$USERI4
 70
     0
  9
$USERI5
 70
     0
  9
$USERR1
 40
0.0
  9
$USERR2
 40
0.0
  9
$USERR3
 40
0.0
  9
$USERR4
 40
0.0
  9
$USERR5
 40
0.0
  9
$WORLDVIEW
 70
     1
  9
$SHADEDGE
 70
     3
  9
$SHADEDIF
 70
    70
  9
$TILEMODE
 70
     1
  9
$MAXACTVP
 70
    64
  9
$PINSBASE
 10
0.0
 20
0.0
 30
0.0
  9
$PLIMCHECK
 70
     0
  9
$PEXTMIN
 10
1.000000000000000E+20
 20
1.000000000000000E+20
 30
1.000000000000000E+20
  9
$PEXTMAX
 10
-1.000000000000000E+20
 20
-1.000000000000000E+20
 30
-1.000000000000000E+20
  9
$PLIMMIN
 10
0.0
 20
0.0
  9
$PLIMMAX
 10
12.0
 20
9.0
  9
$UNITMODE
 70
     0
  9
$VISRETAIN
 70
     1
  9
$PLINEGEN
 70
     0
  9
$PSLTSCALE
 70
     1
  9
$TREEDEPTH
 70
  3020
  9
$CMLSTYLE
  2
Standard
  9
$CMLJUST
 70
     0
  9
$CMLSCALE
 40
1.0
  9
$PROXYGRAPHICS
 70
     1
  9
$MEASUREMENT
 70
     0
  9
$CELWEIGHT
370
    -1
  9
$ENDCAPS
280
     0
  9
$JOINSTYLE
280
     0
  9
$LWDISPLAY
290
     1
  9
$INSUNITS
 70
     1
  9
$HYPERLINKBASE
  1

  9
$STYLESHEET
  1

  9
$XEDIT
290
     1
  9
$CEPSNTYPE
380
     0
  9
$PSTYLEMODE
290
     1
  9
$FINGERPRINTGUID
  2
{3D8FE064-F6FA-3155-5481-90D7D9DD0410}
  9
$VERSIONGUID
  2
{FAEB1C32-E019-11D5-929B-00C0DF256EC4}
  9
$EXTNAMES
290
     1
  9
$PSVPSCALE
 40
0.0
  9
$OLESTARTUP
290
     0
  9
$SORTENTS
280
   127
  9
$INDEXCTL
280
     0
  9
$HIDETEXT
280
     1
  9
$XCLIPFRAME
280
     2
  9
$HALOGAP
280
     0
  9
$OBSCOLOR
 70
   257
  9
$OBSLTYPE
280
     0
  9
$INTERSECTIONDISPLAY
280
     0
  9
$INTERSECTIONCOLOR
 70
   257
  9
$DIMASSOC
280
     2
  9
$PROJECTNAME
  1

  9
$CAMERADISPLAY
290
     0
  9
$LENSLENGTH
 40
50.0
  9
$CAMERAHEIGHT
 40
0.0
  9
$STEPSPERSEC
 40
2.0
  9
$STEPSIZE
 40
6.0
  9
$3DDWFPREC
 40
2.0
  9
$PSOLWIDTH
 40
0.25
  9
$PSOLHEIGHT
 40
4.0
  9
$LOFTANG1
 40
1.570796326794897
  9
$LOFTANG2
 40
1.570796326794897
  9
$LOFTMAG1
 40
0.0
  9
$LOFTMAG2
 40
0.0
  9
$LOFTPARAM
 70
     7
  9
$LOFTNORMALS
280
     1
  9
$LATITUDE
 40
37.795
  9
$LONGITUDE
 40
-122.394
  9
$NORTHDIRECTION
 40
0.0
  9
$TIMEZONE
 70
 -8000
  9
$LIGHTGLYPHDISPLAY
280
     1
  9
$TILEMODELIGHTSYNCH
280
     1
  9
$CMATERIAL
347
3C
  9
$SOLIDHIST
280
     1
  9
$SHOWHIST
280
     1
  9
$DWFFRAME
280
     2
  9
$DGNFRAME
280
     2
  9
$REALWORLDSCALE
290
     1
  9
$INTERFERECOLOR
 62
   256
  9
$CSHADOW
280
     0
  9
$SHADOWPLANELOCATION
 40
0.0
  0
ENDSEC
  0
SECTION
  2
CLASSES
  0
CLASS
  1
ACDBDICTIONARYWDFLT
  2
AcDbDictionaryWithDefault
  3
ObjectDBX Classes
 90
        0
 91
        4
280
     0
281
     0
  0
CLASS
  1
VISUALSTYLE
  2
AcDbVisualStyle
  3
ObjectDBX Classes
 90
     4095
 91
        4
280
     0
281
     0
  0
CLASS
  1
MATERIAL
  2
AcDbMaterial
  3
ObjectDBX Classes
 90
     1153
 91
        4
280
     0
281
     0
  0
CLASS
  1
SUN
  2
AcDbSun
  3
SCENEOE
 90
     1024
 91
        4
280
     0
281
     0
  0
ENDSEC
  0
SECTION
  2
TABLES
  0
TABLE
  2
VPORT
  5
8
330
0
100
AcDbSymbolTable
 70
     1
  0
VPORT
  5
29
330
8
100
AcDbSymbolTableRecord
100
AcDbViewportTableRecord
  2
*Active
 70
     0
 10
0.0
 20
0.0
 11
1.0
 21
1.0
 12
0.0
 22
0.0
 13
0.0
 23
0.0
 14
0.5
 24
0.5
 15
0.5
 25
0.5
 16
0.0
 26
0.0
 36
1.0
 17
91.00082462281999
 27
-128.4993055234307
 37
0.0
 40
256.9986110468615
 41
0.7081814508812795
 42
50.0
 43
0.0
 44
0.0
 50
0.0
 51
0.0
 71
     0
 72
   100
 73
     1
 74
     3
 75
     0
 76
     0
 77
     0
 78
     0
281
     0
 65
     1
110
0.0
120
0.0
130
0.0
111
1.0
121
0.0
131
0.0
112
0.0
122
1.0
132
0.0
 79
     0
146
0.0
 60
     3
 61
     5
292
     1
282
     1
141
0.0
142
0.0
 63
   250
361
3F
  0
ENDTAB
  0
TABLE
  2
LTYPE
  5
5
330
0
100
AcDbSymbolTable
 70
     1
  0
LTYPE
  5
14
330
5
100
AcDbSymbolTableRecord
100
AcDbLinetypeTableRecord
  2
ByBlock
 70
     0
  3

 72
    65
 73
     0
 40
0.0
  0
LTYPE
  5
15
330
5
100
AcDbSymbolTableRecord
100
AcDbLinetypeTableRecord
  2
ByLayer
 70
     0
  3

 72
    65
 73
     0
 40
0.0
  0
LTYPE
  5
16
330
5
100
AcDbSymbolTableRecord
100
AcDbLinetypeTableRecord
  2
Continuous
 70
     0
  3
Solid line
 72
    65
 73
     0
 40
0.0
  0
ENDTAB
  0
TABLE
  2
LAYER
  5
2
330
0
100
AcDbSymbolTable
 70
     2
  0
LAYER
  5
10
330
2
100
AcDbSymbolTableRecord
100
AcDbLayerTableRecord
  2
0
 70
     0
 62
     7
  6
Continuous
370
    -3
390
F
347
3E
  0
LAYER
  5
40
330
2
100
AcDbSymbolTableRecord
100
AcDbLayerTableRecord
  2
_U+30EC_U+30A4_U+30E4_U+30FC 1
 70
     0
 62
     7
  6
Continuous
370
    -3
390
F
347
3E
  0
ENDTAB
  0
TABLE
  2
STYLE
  5
3
330
0
100
AcDbSymbolTable
 70
     1
  0
STYLE
  5
11
330
3
100
AcDbSymbolTableRecord
100
AcDbTextStyleTableRecord
  2
Standard
 70
     0
 40
0.0
 41
1.0
 50
0.0
 71
     0
 42
0.2
  3
txt
  4

  0
ENDTAB
  0
TABLE
  2
VIEW
  5
6
330
0
100
AcDbSymbolTable
 70
     0
  0
ENDTAB
  0
TABLE
  2
UCS
  5
7
330
0
100
AcDbSymbolTable
 70
     0
  0
ENDTAB
  0
TABLE
  2
APPID
  5
9
330
0
100
AcDbSymbolTable
 70
     1
  0
APPID
  5
12
330
9
100
AcDbSymbolTableRecord
100
AcDbRegAppTableRecord
  2
ACAD
 70
     0
  0
ENDTAB
  0
TABLE
  2
DIMSTYLE
  5
A
330
0
100
AcDbSymbolTable
 70
     1
100
AcDbDimStyleTable
  0
DIMSTYLE
105
27
330
A
100
AcDbSymbolTableRecord
100
AcDbDimStyleTableRecord
  2
Standard
 70
     0
178
     0
340
11
  0
ENDTAB
  0
TABLE
  2
BLOCK_RECORD
  5
1
330
0
100
AcDbSymbolTable
 70
     4
  0
BLOCK_RECORD
  5
1F
330
1
100
AcDbSymbolTableRecord
100
AcDbBlockTableRecord
  2
*Model_Space
340
22
 70
     0
280
     1
281
     0
  0
BLOCK_RECORD
  5
1B
330
1
100
AcDbSymbolTableRecord
100
AcDbBlockTableRecord
  2
*Paper_Space
340
1E
 70
     0
280
     1
281
     0
  0
BLOCK_RECORD
  5
23
330
1
100
AcDbSymbolTableRecord
100
AcDbBlockTableRecord
  2
*Paper_Space0
340
26
 70
     0
280
     1
281
     0
  0
BLOCK_RECORD
  5
8A
330
1
100
AcDbSymbolTableRecord
100
AcDbBlockTableRecord
  2
block 2
340
0
102
{BLKREFS
331
8B
102
}
 70
     0
280
     1
281
     0
  0
BLOCK_RECORD
  5
FF
330
1
100
AcDbSymbolTableRecord
100
AcDbBlockTableRecord
  2
block 3
340
0
102
{BLKREFS
331
100
102
}
 70
     0
280
     1
281
     0
  0
BLOCK_RECORD
  5
118
330
1
100
AcDbSymbolTableRecord
100
AcDbBlockTableRecord
  2
block 4
340
0
102
{BLKREFS
331
119
102
}
 70
     0
280
     1
281
     0
  0
ENDTAB
  0
ENDSEC
  0
SECTION
  2
BLOCKS
  0
BLOCK
  5
20
330
1F
100
AcDbEntity
  8
0
100
AcDbBlockBegin
  2
*Model_Space
 70
     0
 10
0.0
 20
0.0
 30
0.0
  3
*Model_Space
  1

  0
ENDBLK
  5
21
330
1F
100
AcDbEntity
  8
0
100
AcDbBlockEnd
  0
BLOCK
  5
1C
330
1B
100
AcDbEntity
 67
     1
  8
0
100
AcDbBlockBegin
  2
*Paper_Space
 70
     0
 10
0.0
 20
0.0
 30
0.0
  3
*Paper_Space
  1

  0
ENDBLK
  5
1D
330
1B
100
AcDbEntity
 67
     1
  8
0
100
AcDbBlockEnd
  0
BLOCK
  5
24
330
23
100
AcDbEntity
  8
0
100
AcDbBlockBegin
  2
*Paper_Space0
 70
     0
 10
0.0
 20
0.0
 30
0.0
  3
*Paper_Space0
  1

  0
ENDBLK
  5
25
330
23
100
AcDbEntity
  8
0
100
AcDbBlockEnd
  0
BLOCK
  5
8C
330
8A
100
AcDbEntity
  8
0
100
AcDbBlockBegin
  2
block 2
 70
     0
 10
0.0
 20
0.0
 30
0.0
  3
block 2
  1

  0
SPLINE
  5
8E
330
8A
100
AcDbEntity
  8
_U+30EC_U+30A4_U+30E4_U+30FC 1
370
     0
100
AcDbSpline
210
0.0
220
0.0
230
1.0
 70
    11
 71
     3
 72
    89
 73
    85
 74
     0
 42
0.0000000001
 43
0.0000000001
 12
1.0
 22
0.0
 32
0.0
 13
1.0
 23
0.0
 33
0.0
 40
0.0
 40
0.0
 40
0.0
 40
0.0
 40
1.0
 40
1.0
 40
1.0
 40
2.0
 40
2.0
 40
2.0
 40
3.0
 40
3.0
 40
3.0
 40
4.0
 40
4.0
 40
4.0
 40
5.0
 40
5.0
 40
5.0
 40
6.0
 40
6.0
 40
6.0
 40
7.0
 40
7.0
 40
7.0
 40
8.0
 40
8.0
 40
8.0
 40
9.0
 40
9.0
 40
9.0
 40
10.0
 40
10.0
 40
10.0
 40
11.0
 40
11.0
 40
11.0
 40
12.0
 40
12.0
 40
12.0
 40
13.0
 40
13.0
 40
13.0
 40
14.0
 40
14.0
 40
14.0
 40
15.0
 40
15.0
 40
15.0
 40
16.0
 40
16.0
 40
16.0
 40
17.0
 40
17.0
 40
17.0
 40
18.0
 40
18.0
 40
18.0
 40
19.0
 40
19.0
 40
19.0
 40
20.0
 40
20.0
 40
20.0
 40
21.0
 40
21.0
 40
21.0
 40
22.0
 40
22.0
 40
22.0
 40
23.0
 40
23.0
 40
23.0
 40
24.0
 40
24.0
 40
24.0
 40
25.0
 40
25.0
 40
25.0
 40
26.0
 40
26.0
 40
26.0
 40
27.0
 40
27.0
 40
27.0
 40
28.0
 40
28.0
 40
28.0
 40
28.0
 10
96.61150171195824
 20
-112.3126966407586
 30
0.0
 10
96.61150171195824
 20
-112.3126966407586
 30
0.0
 10
96.61150171195824
 20
-112.8583997656222
 30
0.0
 10
96.61150171195824
 20
-112.8583997656222
 30
0.0
 10
96.61150171195824
 20
-112.9896579036102
 30
0.0
 10
96.50539277101255
 20
-113.0234198393657
 30
0.0
 10
96.38068031444651
 20
-113.017046412718
 30
0.0
 10
96.38068031444651
 20
-113.017046412718
 30
0.0
 10
96.32659231532809
 20
-112.8098239192802
 30
0.0
 10
96.32659231532809
 20
-112.8098239192802
 30
0.0
 10
96.3448513213999
 20
-112.8139580338625
 30
0.0
 10
96.387570505417
 20
-112.818264403219
 30
0.0
 10
96.401350887358
 20
-112.818264403219
 30
0.0
 10
96.4371798804046
 20
-112.818264403219
 30
0.0
 10
96.43959144724427
 20
-112.8055175499236
 30
0.0
 10
96.43959144724427
 20
-112.7441948502862
 30
0.0
 10
96.43959144724427
 20
-112.7441948502862
 30
0.0
 10
96.43959144724427
 20
-112.1835055600618
 30
0.0
 10
96.43959144724427
 20
-112.1835055600618
 30
0.0
 10
96.43959144724427
 20
-112.1835055600618
 30
0.0
 10
96.31074487609592
 20
-112.1835055600618
 30
0.0
 10
96.31074487609592
 20
-112.1835055600618
 30
0.0
 10
96.31074487609592
 20
-112.1835055600618
 30
0.0
 10
96.31074487609592
 20
-113.0044718141968
 30
0.0
 10
96.31074487609592
 20
-113.0044718141968
 30
0.0
 10
96.31074487609592
 20
-113.0361666926611
 30
0.0
 10
96.32211369119726
 20
-113.4635307876063
 30
0.0
 10
96.33313799675005
 20
-113.5798027602335
 30
0.0
 10
96.33313799675005
 20
-113.5798027602335
 30
0.0
 10
96.10300561833536
 20
-113.5798027602335
 30
0.0
 10
96.10300561833536
 20
-113.5798027602335
 30
0.0
 10
96.11885305756752
 20
-113.3894612346735
 30
0.0
 10
96.12987736312031
 20
-113.2011867664046
 30
0.0
 10
96.12987736312031
 20
-113.0106729860702
 30
0.0
 10
96.12987736312031
 20
-113.0106729860702
 30
0.0
 10
96.12987736312031
 20
-112.1835055600618
 30
0.0
 10
96.12987736312031
 20
-112.1835055600618
 30
0.0
 10
96.12987736312031
 20
-112.1835055600618
 30
0.0
 10
96.00792098294247
 20
-112.1835055600618
 30
0.0
 10
96.00792098294247
 20
-112.1835055600618
 30
0.0
 10
96.00792098294247
 20
-112.1835055600618
 30
0.0
 10
96.00792098294247
 20
-112.6532443294756
 30
0.0
 10
96.00792098294247
 20
-112.6532443294756
 30
0.0
 10
96.00792098294247
 20
-112.6997531185265
 30
0.0
 10
96.01481117391297
 20
-112.8838934722131
 30
0.0
 10
96.02583547946577
 20
-113.0509806032477
 30
0.0
 10
96.02583547946577
 20
-113.0509806032477
 30
0.0
 10
95.81120603073471
 20
-113.0509806032477
 30
0.0
 10
95.81120603073471
 20
-113.0509806032477
 30
0.0
 10
95.83359915138882
 20
-112.7547023915162
 30
0.0
 10
95.83601071822851
 20
-112.7209404557607
 30
0.0
 10
95.83601071822851
 20
-112.6341240495324
 30
0.0
 10
95.83601071822851
 20
-112.6341240495324
 30
0.0
 10
95.83601071822851
 20
-112.3400851498664
 30
0.0
 10
95.83601071822851
 20
-112.3400851498664
 30
0.0
 10
95.83601071822851
 20
-112.2808295075201
 30
0.0
 10
95.83359915138882
 20
-112.128556287072
 30
0.0
 10
95.82257484583603
 20
-112.0122843144449
 30
0.0
 10
95.92661672949058
 20
-112.0164184290272
 30
0.0
 10
96.10059405149569
 20
-112.0227918556749
 30
0.0
 10
96.12781030582916
 20
-112.0227918556749
 30
0.0
 10
96.12539873898949
 20
-111.8388237567625
 30
0.0
 10
96.12092011485866
 20
-111.7456339238865
 30
0.0
 10
96.11609698117931
 20
-111.6419365497805
 30
0.0
 10
96.11609698117931
 20
-111.6419365497805
 30
0.0
 10
96.34691837869106
 20
-111.6653631990802
 30
0.0
 10
96.34691837869106
 20
-111.6653631990802
 30
0.0
 10
96.38068031444651
 20
-111.6694973136625
 30
0.0
 10
96.40341794464915
 20
-111.6715643709536
 30
0.0
 10
96.40341794464915
 20
-111.7011921921268
 30
0.0
 10
96.40341794464915
 20
-111.7371934399476
 30
0.0
 10
96.36483287521435
 20
-111.7478732359519
 30
0.0
 10
96.32659231532809
 20
-111.7563137198908
 30
0.0
 10
96.3200466339061
 20
-111.8365844446971
 30
0.0
 10
96.31763506706643
 20
-111.9402818188031
 30
0.0
 10
96.31522350022675
 20
-112.0227918556749
 30
0.0
 10
96.31522350022675
 20
-112.0227918556749
 30
0.0
 10
96.3558756269527
 20
-112.0227918556749
 30
0.0
 10
96.3558756269527
 20
-112.0227918556749
 30
0.0
 10
96.43511282311344
 20
-112.0227918556749
 30
0.0
 10
96.55500214600015
 20
-112.0186577410926
 30
0.0
 10
96.62528209389924
 20
-112.014351371736
 30
0.0
 10
96.61598033608907
 20
-112.118048745842
 30
0.0
 10
96.61150171195824
 20
-112.3083902714021
 30
0.0
 10
96.61150171195824
 20
-112.3126966407586
 30
0.0
  0
SPLINE
  5
8F
330
8A
100
AcDbEntity
  8
_U+30EC_U+30A4_U+30E4_U+30FC 1
370
     0
100
AcDbSpline
210
0.0
220
0.0
230
1.0
 70
    11
 71
     3
 72
    29
 73
    25
 74
     0
 42
0.0000000001
 43
0.0000000001
 12
1.0
 22
0.0
 32
0.0
 13
1.0
 23
0.0
 33
0.0
 40
0.0
 40
0.0
 40
0.0
 40
0.0
 40
1.0
 40
1.0
 40
1.0
 40
2.0
 40
2.0
 40
2.0
 40
3.0
 40
3.0
 40
3.0
 40
4.0
 40
4.0
 40
4.0
 40
5.0
 40
5.0
 40
5.0
 40
6.0
 40
6.0
 40
6.0
 40
7.0
 40
7.0
 40
7.0
 40
8.0
 40
8.0
 40
8.0
 40
8.0
 10
97.42764483241393
 20
-111.8980793991088
 30
0.0
 10
97.42764483241393
 20
-111.8980793991088
 30
0.0
 10
97.01595592192658
 20
-111.8980793991088
 30
0.0
 10
97.01595592192658
 20
-111.8980793991088
 30
0.0
 10
96.85541447231392
 20
-111.8980793991088
 30
0.0
 10
96.70176321367178
 20
-111.9065198830477
 30
0.0
 10
96.63630639945204
 20
-111.91065399763
 30
0.0
 10
96.63630639945204
 20
-111.91065399763
 30
0.0
 10
96.63630639945204
 20
-111.7330593253653
 30
0.0
 10
96.63630639945204
 20
-111.7330593253653
 30
0.0
 10
96.71761065290393
 20
-111.7371934399476
 30
0.0
 10
96.84645722405227
 20
-111.7435668665954
 30
0.0
 10
97.01595592192658
 20
-111.7435668665954
 30
0.0
 10
97.01595592192658
 20
-111.7435668665954
 30
0.0
 10
97.42764483241393
 20
-111.7435668665954
 30
0.0
 10
97.42764483241393
 20
-111.7435668665954
 30
0.0
 10
97.55649140356228
 20
-111.7435668665954
 30
0.0
 10
97.6808593505798
 20
-111.7392604972388
 30
0.0
 10
97.80763886443698
 20
-111.7330593253653
 30
0.0
 10
97.80763886443698
 20
-111.7330593253653
 30
0.0
 10
97.80763886443698
 20
-111.91065399763
 30
0.0
 10
97.80763886443698
 20
-111.91065399763
 30
0.0
 10
97.64020722385384
 20
-111.9022135136911
 30
0.0
 10
97.50653751902615
 20
-111.8980793991088
 30
0.0
 10
97.42764483241393
 20
-111.8980793991088
 30
0.0
  0
SPLINE
  5
90
330
8A
100
AcDbEntity
  8
_U+30EC_U+30A4_U+30E4_U+30FC 1
370
     0
100
AcDbSpline
210
0.0
220
0.0
230
1.0
 70
    11
 71
     3
 72
    47
 73
    43
 74
     0
 42
0.0000000001
 43
0.0000000001
 12
1.0
 22
0.0
 32
0.0
 13
1.0
 23
0.0
 33
0.0
 40
0.0
 40
0.0
 40
0.0
 40
0.0
 40
1.0
 40
1.0
 40
1.0
 40
2.0
 40
2.0
 40
2.0
 40
3.0
 40
3.0
 40
3.0
 40
4.0
 40
4.0
 40
4.0
 40
5.0
 40
5.0
 40
5.0
 40
6.0
 40
6.0
 40
6.0
 40
7.0
 40
7.0
 40
7.0
 40
8.0
 40
8.0
 40
8.0
 40
9.0
 40
9.0
 40
9.0
 40
10.0
 40
10.0
 40
10.0
 40
11.0
 40
11.0
 40
11.0
 40
12.0
 40
12.0
 40
12.0
 40
13.0
 40
13.0
 40
13.0
 40
14.0
 40
14.0
 40
14.0
 40
14.0
 10
97.5499457221403
 20
-113.5692952190035
 30
0.0
 10
97.55649140356228
 20
-113.5312269138915
 30
0.0
 10
97.55890297040195
 20
-113.5057332073007
 30
0.0
 10
97.56303708498424
 20
-113.4528509916021
 30
0.0
 10
97.56303708498424
 20
-113.4528509916021
 30
0.0
 10
96.85541447231392
 20
-113.4528509916021
 30
0.0
 10
96.85541447231392
 20
-113.4528509916021
 30
0.0
 10
96.85817054870213
 20
-113.4909192967141
 30
0.0
 10
96.86023760599328
 20
-113.5184800605961
 30
0.0
 10
96.86712779696377
 20
-113.5692952190035
 30
0.0
 10
96.86712779696377
 20
-113.5692952190035
 30
0.0
 10
96.64319659042253
 20
-113.5692952190035
 30
0.0
 10
96.64319659042253
 20
-113.5692952190035
 30
0.0
 10
96.65422089597534
 20
-113.4168497437812
 30
0.0
 10
96.6635226537855
 20
-113.2645765233332
 30
0.0
 10
96.6635226537855
 20
-113.2308145875777
 30
0.0
 10
96.6635226537855
 20
-113.2308145875777
 30
0.0
 10
96.6635226537855
 20
-112.9472832291417
 30
0.0
 10
96.6635226537855
 20
-112.9472832291417
 30
0.0
 10
96.6635226537855
 20
-112.9240288346162
 30
0.0
 10
96.65663246281501
 20
-112.6913126345876
 30
0.0
 10
96.65008678139304
 20
-112.600362113777
 30
0.0
 10
96.70417478051147
 20
-112.6044962283593
 30
0.0
 10
96.88504229348707
 20
-112.6131089670724
 30
0.0
 10
97.02525767973674
 20
-112.6131089670724
 30
0.0
 10
97.02525767973674
 20
-112.6131089670724
 30
0.0
 10
97.366666642325
 20
-112.6131089670724
 30
0.0
 10
97.366666642325
 20
-112.6131089670724
 30
0.0
 10
97.41834307460375
 20
-112.6131089670724
 30
0.0
 10
97.63331703288334
 20
-112.610869655007
 30
0.0
 10
97.77112085229334
 20
-112.6024291710682
 30
0.0
 10
97.76216360403168
 20
-112.6849392079399
 30
0.0
 10
97.76009654674054
 20
-112.8647731922699
 30
0.0
 10
97.76009654674054
 20
-112.9493502864328
 30
0.0
 10
97.76009654674054
 20
-112.9493502864328
 30
0.0
 10
97.76009654674054
 20
-113.2371880142254
 30
0.0
 10
97.76009654674054
 20
-113.2371880142254
 30
0.0
 10
97.76009654674054
 20
-113.3343397069095
 30
0.0
 10
97.76457517087137
 20
-113.4740383288364
 30
0.0
 10
97.78007810055499
 20
-113.5692952190035
 30
0.0
 10
97.78007810055499
 20
-113.5692952190035
 30
0.0
 10
97.5499457221403
 20
-113.5692952190035
 30
0.0
 10
97.5499457221403
 20
-113.5692952190035
 30
0.0
  0
SPLINE
  5
91
330
8A
100
AcDbEntity
  8
_U+30EC_U+30A4_U+30E4_U+30FC 1
370
     0
100
AcDbSpline
210
0.0
220
0.0
230
1.0
 70
    11
 71
     3
 72
    41
 73
    37
 74
     0
 42
0.0000000001
 43
0.0000000001
 12
1.0
 22
0.0
 32
0.0
 13
1.0
 23
0.0
 33
0.0
 40
0.0
 40
0.0
 40
0.0
 40
0.0
 40
1.0
 40
1.0
 40
1.0
 40
2.0
 40
2.0
 40
2.0
 40
3.0
 40
3.0
 40
3.0
 40
4.0
 40
4.0
 40
4.0
 40
5.0
 40
5.0
 40
5.0
 40
6.0
 40
6.0
 40
6.0
 40
7.0
 40
7.0
 40
7.0
 40
8.0
 40
8.0
 40
8.0
 40
9.0
 40
9.0
 40
9.0
 40
10.0
 40
10.0
 40
10.0
 40
11.0
 40
11.0
 40
11.0
 40
12.0
 40
12.0
 40
12.0
 40
12.0
 10
97.38010251471748
 20
-112.4902913130233
 30
0.0
 10
97.38010251471748
 20
-112.4902913130233
 30
0.0
 10
97.03421492799839
 20
-112.4902913130233
 30
0.0
 10
97.03421492799839
 20
-112.4902913130233
 30
0.0
 10
96.98701711985048
 20
-112.4902913130233
 30
0.0
 10
96.81269528829684
 20
-112.4945976823798
 30
0.0
 10
96.75619572233873
 20
-112.5009711090275
 30
0.0
 10
96.76067434646956
 20
-112.4542900652024
 30
0.0
 10
96.76308591330924
 20
-112.3528320031618
 30
0.0
 10
96.76308591330924
 20
-112.3211371246975
 30
0.0
 10
96.76308591330924
 20
-112.3211371246975
 30
0.0
 10
96.76308591330924
 20
-112.1921182987749
 30
0.0
 10
96.76308591330924
 20
-112.1921182987749
 30
0.0
 10
96.76308591330924
 20
-112.118048745842
 30
0.0
 10
96.76308591330924
 20
-112.118048745842
 30
0.0
 10
96.75412866504759
 20
-112.0164184290272
 30
0.0
 10
96.8647162301241
 20
-112.0227918556749
 30
0.0
 10
96.9529106745465
 20
-112.0270982250314
 30
0.0
 10
97.05454099136136
 20
-112.0270982250314
 30
0.0
 10
97.05454099136136
 20
-112.0270982250314
 30
0.0
 10
97.366666642325
 20
-112.0270982250314
 30
0.0
 10
97.366666642325
 20
-112.0270982250314
 30
0.0
 10
97.4727755832707
 20
-112.0270982250314
 30
0.0
 10
97.57888452421639
 20
-112.024858912966
 30
0.0
 10
97.68533797471062
 20
-112.0164184290272
 30
0.0
 10
97.68292640787094
 20
-112.0503526195569
 30
0.0
 10
97.67879229328864
 20
-112.1497436243063
 30
0.0
 10
97.67879229328864
 20
-112.2069322093615
 30
0.0
 10
97.67879229328864
 20
-112.2069322093615
 30
0.0
 10
97.67879229328864
 20
-112.3337117232187
 30
0.0
 10
97.67879229328864
 20
-112.3337117232187
 30
0.0
 10
97.67879229328864
 20
-112.3803927670438
 30
0.0
 10
97.68292640787094
 20
-112.469103975789
 30
0.0
 10
97.68533797471062
 20
-112.4987317969621
 30
0.0
 10
97.63814016656269
 20
-112.4987317969621
 30
0.0
 10
97.4231662082831
 20
-112.4902913130233
 30
0.0
 10
97.38010251471748
 20
-112.4902913130233
 30
0.0
  0
POLYLINE
  5
92
330
8A
100
AcDbEntity
  8
_U+30EC_U+30A4_U+30E4_U+30FC 1
370
     0
100
AcDb2dPolyline
 66
     1
 10
0.0
 20
0.0
 30
0.0
  0
VERTEX
  5
93
330
92
100
AcDbEntity
  8
_U+30EC_U+30A4_U+30E4_U+30FC 1
370
     0
100
AcDbVertex
100
AcDb2dVertex
 10
97.11345212415914
 20
-112.7653821875205
 30
0.0
  0
VERTEX
  5
94
330
92
100
AcDbEntity
  8
_U+30EC_U+30A4_U+30E4_U+30FC 1
370
     0
100
AcDbVertex
100
AcDb2dVertex
 10
96.85128035773162
 20
-112.7653821875205
 30
0.0
  0
VERTEX
  5
95
330
92
100
AcDbEntity
  8
_U+30EC_U+30A4_U+30E4_U+30FC 1
370
     0
100
AcDbVertex
100
AcDb2dVertex
 10
96.85128035773162
 20
-112.9600300824371
 30
0.0
  0
VERTEX
  5
96
330
92
100
AcDbEntity
  8
_U+30EC_U+30A4_U+30E4_U+30FC 1
370
     0
100
AcDbVertex
100
AcDb2dVertex
 10
97.11345212415914
 20
-112.9600300824371
 30
0.0
  0
VERTEX
  5
97
330
92
100
AcDbEntity
  8
_U+30EC_U+30A4_U+30E4_U+30FC 1
370
     0
100
AcDbVertex
100
AcDb2dVertex
 10
97.11345212415914
 20
-112.7653821875205
 30
0.0
  0
SEQEND
  5
98
330
92
100
AcDbEntity
  8
_U+30EC_U+30A4_U+30E4_U+30FC 1
370
     0
  0
POLYLINE
  5
99
330
8A
100
AcDbEntity
  8
_U+30EC_U+30A4_U+30E4_U+30FC 1
370
     0
100
AcDb2dPolyline
 66
     1
 10
0.0
 20
0.0
 30
0.0
  0
VERTEX
  5
9A
330
99
100
AcDbEntity
  8
_U+30EC_U+30A4_U+30E4_U+30FC 1
370
     0
100
AcDbVertex
100
AcDb2dVertex
 10
97.11345212415914
 20
-113.1038628189463
 30
0.0
  0
VERTEX
  5
9B
330
99
100
AcDbEntity
  8
_U+30EC_U+30A4_U+30E4_U+30FC 1
370
     0
100
AcDbVertex
100
AcDb2dVertex
 10
96.85128035773162
 20
-113.1038628189463
 30
0.0
  0
VERTEX
  5
9C
330
99
100
AcDbEntity
  8
_U+30EC_U+30A4_U+30E4_U+30FC 1
370
     0
100
AcDbVertex
100
AcDb2dVertex
 10
96.85128035773162
 20
-113.2985107138629
 30
0.0
  0
VERTEX
  5
9D
330
99
100
AcDbEntity
  8
_U+30EC_U+30A4_U+30E4_U+30FC 1
370
     0
100
AcDbVertex
100
AcDb2dVertex
 10
97.11345212415914
 20
-113.2985107138629
 30
0.0
  0
VERTEX
  5
9E
330
99
100
AcDbEntity
  8
_U+30EC_U+30A4_U+30E4_U+30FC 1
370
     0
100
AcDbVertex
100
AcDb2dVertex
 10
97.11345212415914
 20
-113.1038628189463
 30
0.0
  0
SEQEND
  5
9F
330
99
100
AcDbEntity
  8
_U+30EC_U+30A4_U+30E4_U+30FC 1
370
     0
  0
POLYLINE
  5
A0
330
8A
100
AcDbEntity
  8
_U+30EC_U+30A4_U+30E4_U+30FC 1
370
     0
100
AcDb2dPolyline
 66
     1
 10
0.0
 20
0.0
 30
0.0
  0
VERTEX
  5
A1
330
A0
100
AcDbEntity
  8
_U+30EC_U+30A4_U+30E4_U+30FC 1
370
     0
100
AcDbVertex
100
AcDb2dVertex
 10
97.48414439837202
 20
-112.1709309615406
 30
0.0
  0
VERTEX
  5
A2
330
A0
100
AcDbEntity
  8
_U+30EC_U+30A4_U+30E4_U+30FC 1
370
     0
100
AcDbVertex
100
AcDb2dVertex
 10
96.95532224138617
 20
-112.1709309615406
 30
0.0
  0
VERTEX
  5
A3
330
A0
100
AcDbEntity
  8
_U+30EC_U+30A4_U+30E4_U+30FC 1
370
     0
100
AcDbVertex
100
AcDb2dVertex
 10
96.95532224138617
 20
-112.3464585765141
 30
0.0
  0
VERTEX
  5
A4
330
A0
100
AcDbEntity
  8
_U+30EC_U+30A4_U+30E4_U+30FC 1
370
     0
100
AcDbVertex
100
AcDb2dVertex
 10
97.48414439837202
 20
-112.3464585765141
 30
0.0
  0
VERTEX
  5
A5
330
A0
100
AcDbEntity
  8
_U+30EC_U+30A4_U+30E4_U+30FC 1
370
     0
100
AcDbVertex
100
AcDb2dVertex
 10
97.48414439837202
 20
-112.1709309615406
 30
0.0
  0
SEQEND
  5
A6
330
A0
100
AcDbEntity
  8
_U+30EC_U+30A4_U+30E4_U+30FC 1
370
     0
  0
POLYLINE
  5
A7
330
8A
100
AcDbEntity
  8
_U+30EC_U+30A4_U+30E4_U+30FC 1
370
     0
100
AcDb2dPolyline
 66
     1
 10
0.0
 20
0.0
 30
0.0
  0
VERTEX
  5
A8
330
A7
100
AcDbEntity
  8
_U+30EC_U+30A4_U+30E4_U+30FC 1
370
     0
100
AcDbVertex
100
AcDb2dVertex
 10
97.56579316137244
 20
-112.7653821875205
 30
0.0
  0
VERTEX
  5
A9
330
A7
100
AcDbEntity
  8
_U+30EC_U+30A4_U+30E4_U+30FC 1
370
     0
100
AcDbVertex
100
AcDb2dVertex
 10
97.30120982810526
 20
-112.7653821875205
 30
0.0
  0
VERTEX
  5
AA
330
A7
100
AcDbEntity
  8
_U+30EC_U+30A4_U+30E4_U+30FC 1
370
     0
100
AcDbVertex
100
AcDb2dVertex
 10
97.30120982810526
 20
-112.9600300824371
 30
0.0
  0
VERTEX
  5
AB
330
A7
100
AcDbEntity
  8
_U+30EC_U+30A4_U+30E4_U+30FC 1
370
     0
100
AcDbVertex
100
AcDb2dVertex
 10
97.56579316137244
 20
-112.9600300824371
 30
0.0
  0
VERTEX
  5
AC
330
A7
100
AcDbEntity
  8
_U+30EC_U+30A4_U+30E4_U+30FC 1
370
     0
100
AcDbVertex
100
AcDb2dVertex
 10
97.56579316137244
 20
-112.7653821875205
 30
0.0
  0
SEQEND
  5
AD
330
A7
100
AcDbEntity
  8
_U+30EC_U+30A4_U+30E4_U+30FC 1
370
     0
  0
POLYLINE
  5
AE
330
8A
100
AcDbEntity
  8
_U+30EC_U+30A4_U+30E4_U+30FC 1
370
     0
100
AcDb2dPolyline
 66
     1
 10
0.0
 20
0.0
 30
0.0
  0
VERTEX
  5
AF
330
AE
100
AcDbEntity
  8
_U+30EC_U+30A4_U+30E4_U+30FC 1
370
     0
100
AcDbVertex
100
AcDb2dVertex
 10
97.56579316137244
 20
-113.1038628189463
 30
0.0
  0
VERTEX
  5
B0
330
AE
100
AcDbEntity
  8
_U+30EC_U+30A4_U+30E4_U+30FC 1
370
     0
100
AcDbVertex
100
AcDb2dVertex
 10
97.30120982810526
 20
-113.1038628189463
 30
0.0
  0
VERTEX
  5
B1
330
AE
100
AcDbEntity
  8
_U+30EC_U+30A4_U+30E4_U+30FC 1
370
     0
100
AcDbVertex
100
AcDb2dVertex
 10
97.30120982810526
 20
-113.2985107138629
 30
0.0
  0
VERTEX
  5
B2
330
AE
100
AcDbEntity
  8
_U+30EC_U+30A4_U+30E4_U+30FC 1
370
     0
100
AcDbVertex
100
AcDb2dVertex
 10
97.56579316137244
 20
-113.2985107138629
 30
0.0
  0
VERTEX
  5
B3
330
AE
100
AcDbEntity
  8
_U+30EC_U+30A4_U+30E4_U+30FC 1
370
     0
100
AcDbVertex
100
AcDb2dVertex
 10
97.56579316137244
 20
-113.1038628189463
 30
0.0
  0
SEQEND
  5
B4
330
AE
100
AcDbEntity
  8
_U+30EC_U+30A4_U+30E4_U+30FC 1
370
     0
  0
HATCH
  5
B5
330
8A
100
AcDbEntity
  8
_U+30EC_U+30A4_U+30E4_U+30FC 1
 62
   179
420
  2234388
100
AcDbHatch
 10
0.0
 20
0.0
 30
0.0
210
0.0
220
0.0
230
1.0
  2
SOLID
 70
     1
 71
     0
 91
        9
 92
        1
 93
        1
 72
     4
 94
        3
 73
     0
 74
     1
 95
       89
 96
       85
 40
0.0
 40
0.0
 40
0.0
 40
0.0
 40
1.0
 40
1.0
 40
1.0
 40
2.0
 40
2.0
 40
2.0
 40
3.0
 40
3.0
 40
3.0
 40
4.0
 40
4.0
 40
4.0
 40
5.0
 40
5.0
 40
5.0
 40
6.0
 40
6.0
 40
6.0
 40
7.0
 40
7.0
 40
7.0
 40
8.0
 40
8.0
 40
8.0
 40
9.0
 40
9.0
 40
9.0
 40
10.0
 40
10.0
 40
10.0
 40
11.0
 40
11.0
 40
11.0
 40
12.0
 40
12.0
 40
12.0
 40
13.0
 40
13.0
 40
13.0
 40
14.0
 40
14.0
 40
14.0
 40
15.0
 40
15.0
 40
15.0
 40
16.0
 40
16.0
 40
16.0
 40
17.0
 40
17.0
 40
17.0
 40
18.0
 40
18.0
 40
18.0
 40
19.0
 40
19.0
 40
19.0
 40
20.0
 40
20.0
 40
20.0
 40
21.0
 40
21.0
 40
21.0
 40
22.0
 40
22.0
 40
22.0
 40
23.0
 40
23.0
 40
23.0
 40
24.0
 40
24.0
 40
24.0
 40
25.0
 40
25.0
 40
25.0
 40
26.0
 40
26.0
 40
26.0
 40
27.0
 40
27.0
 40
27.0
 40
28.0
 40
28.0
 40
28.0
 40
28.0
 10
96.61150171195824
 20
-112.3126966407586
 10
96.61150171195824
 20
-112.3126966407586
 10
96.61150171195824
 20
-112.8583997656222
 10
96.61150171195824
 20
-112.8583997656222
 10
96.61150171195824
 20
-112.9896579036102
 10
96.50539277101255
 20
-113.0234198393657
 10
96.38068031444651
 20
-113.017046412718
 10
96.38068031444651
 20
-113.017046412718
 10
96.32659231532809
 20
-112.8098239192802
 10
96.32659231532809
 20
-112.8098239192802
 10
96.3448513213999
 20
-112.8139580338625
 10
96.387570505417
 20
-112.818264403219
 10
96.401350887358
 20
-112.818264403219
 10
96.4371798804046
 20
-112.818264403219
 10
96.43959144724427
 20
-112.8055175499236
 10
96.43959144724427
 20
-112.7441948502862
 10
96.43959144724427
 20
-112.7441948502862
 10
96.43959144724427
 20
-112.1835055600618
 10
96.43959144724427
 20
-112.1835055600618
 10
96.43959144724427
 20
-112.1835055600618
 10
96.31074487609592
 20
-112.1835055600618
 10
96.31074487609592
 20
-112.1835055600618
 10
96.31074487609592
 20
-112.1835055600618
 10
96.31074487609592
 20
-113.0044718141968
 10
96.31074487609592
 20
-113.0044718141968
 10
96.31074487609592
 20
-113.0361666926611
 10
96.32211369119726
 20
-113.4635307876063
 10
96.33313799675005
 20
-113.5798027602335
 10
96.33313799675005
 20
-113.5798027602335
 10
96.10300561833536
 20
-113.5798027602335
 10
96.10300561833536
 20
-113.5798027602335
 10
96.11885305756752
 20
-113.3894612346735
 10
96.12987736312031
 20
-113.2011867664046
 10
96.12987736312031
 20
-113.0106729860702
 10
96.12987736312031
 20
-113.0106729860702
 10
96.12987736312031
 20
-112.1835055600618
 10
96.12987736312031
 20
-112.1835055600618
 10
96.12987736312031
 20
-112.1835055600618
 10
96.00792098294247
 20
-112.1835055600618
 10
96.00792098294247
 20
-112.1835055600618
 10
96.00792098294247
 20
-112.1835055600618
 10
96.00792098294247
 20
-112.6532443294756
 10
96.00792098294247
 20
-112.6532443294756
 10
96.00792098294247
 20
-112.6997531185265
 10
96.01481117391297
 20
-112.8838934722131
 10
96.02583547946577
 20
-113.0509806032477
 10
96.02583547946577
 20
-113.0509806032477
 10
95.81120603073471
 20
-113.0509806032477
 10
95.81120603073471
 20
-113.0509806032477
 10
95.83359915138882
 20
-112.7547023915162
 10
95.83601071822851
 20
-112.7209404557607
 10
95.83601071822851
 20
-112.6341240495324
 10
95.83601071822851
 20
-112.6341240495324
 10
95.83601071822851
 20
-112.3400851498664
 10
95.83601071822851
 20
-112.3400851498664
 10
95.83601071822851
 20
-112.2808295075201
 10
95.83359915138882
 20
-112.128556287072
 10
95.82257484583603
 20
-112.0122843144449
 10
95.92661672949058
 20
-112.0164184290272
 10
96.10059405149569
 20
-112.0227918556749
 10
96.12781030582916
 20
-112.0227918556749
 10
96.12539873898949
 20
-111.8388237567625
 10
96.12092011485866
 20
-111.7456339238865
 10
96.11609698117931
 20
-111.6419365497805
 10
96.11609698117931
 20
-111.6419365497805
 10
96.34691837869106
 20
-111.6653631990802
 10
96.34691837869106
 20
-111.6653631990802
 10
96.38068031444651
 20
-111.6694973136625
 10
96.40341794464915
 20
-111.6715643709536
 10
96.40341794464915
 20
-111.7011921921268
 10
96.40341794464915
 20
-111.7371934399476
 10
96.36483287521435
 20
-111.7478732359519
 10
96.32659231532809
 20
-111.7563137198908
 10
96.3200466339061
 20
-111.8365844446971
 10
96.31763506706643
 20
-111.9402818188031
 10
96.31522350022675
 20
-112.0227918556749
 10
96.31522350022675
 20
-112.0227918556749
 10
96.3558756269527
 20
-112.0227918556749
 10
96.3558756269527
 20
-112.0227918556749
 10
96.43511282311344
 20
-112.0227918556749
 10
96.55500214600015
 20
-112.0186577410926
 10
96.62528209389924
 20
-112.014351371736
 10
96.61598033608907
 20
-112.118048745842
 10
96.61150171195824
 20
-112.3083902714021
 10
96.61150171195824
 20
-112.3126966407586
 97
        0
 97
        0
 92
        1
 93
        1
 72
     4
 94
        3
 73
     0
 74
     1
 95
       29
 96
       25
 40
0.0
 40
0.0
 40
0.0
 40
0.0
 40
1.0
 40
1.0
 40
1.0
 40
2.0
 40
2.0
 40
2.0
 40
3.0
 40
3.0
 40
3.0
 40
4.0
 40
4.0
 40
4.0
 40
5.0
 40
5.0
 40
5.0
 40
6.0
 40
6.0
 40
6.0
 40
7.0
 40
7.0
 40
7.0
 40
8.0
 40
8.0
 40
8.0
 40
8.0
 10
97.42764483241393
 20
-111.8980793991088
 10
97.42764483241393
 20
-111.8980793991088
 10
97.01595592192658
 20
-111.8980793991088
 10
97.01595592192658
 20
-111.8980793991088
 10
96.85541447231392
 20
-111.8980793991088
 10
96.70176321367178
 20
-111.9065198830477
 10
96.63630639945204
 20
-111.91065399763
 10
96.63630639945204
 20
-111.91065399763
 10
96.63630639945204
 20
-111.7330593253653
 10
96.63630639945204
 20
-111.7330593253653
 10
96.71761065290393
 20
-111.7371934399476
 10
96.84645722405227
 20
-111.7435668665954
 10
97.01595592192658
 20
-111.7435668665954
 10
97.01595592192658
 20
-111.7435668665954
 10
97.42764483241393
 20
-111.7435668665954
 10
97.42764483241393
 20
-111.7435668665954
 10
97.55649140356228
 20
-111.7435668665954
 10
97.6808593505798
 20
-111.7392604972388
 10
97.80763886443698
 20
-111.7330593253653
 10
97.80763886443698
 20
-111.7330593253653
 10
97.80763886443698
 20
-111.91065399763
 10
97.80763886443698
 20
-111.91065399763
 10
97.64020722385384
 20
-111.9022135136911
 10
97.50653751902615
 20
-111.8980793991088
 10
97.42764483241393
 20
-111.8980793991088
 97
        0
 97
        0
 92
        1
 93
        1
 72
     4
 94
        3
 73
     0
 74
     1
 95
       47
 96
       43
 40
0.0
 40
0.0
 40
0.0
 40
0.0
 40
1.0
 40
1.0
 40
1.0
 40
2.0
 40
2.0
 40
2.0
 40
3.0
 40
3.0
 40
3.0
 40
4.0
 40
4.0
 40
4.0
 40
5.0
 40
5.0
 40
5.0
 40
6.0
 40
6.0
 40
6.0
 40
7.0
 40
7.0
 40
7.0
 40
8.0
 40
8.0
 40
8.0
 40
9.0
 40
9.0
 40
9.0
 40
10.0
 40
10.0
 40
10.0
 40
11.0
 40
11.0
 40
11.0
 40
12.0
 40
12.0
 40
12.0
 40
13.0
 40
13.0
 40
13.0
 40
14.0
 40
14.0
 40
14.0
 40
14.0
 10
97.5499457221403
 20
-113.5692952190035
 10
97.55649140356228
 20
-113.5312269138915
 10
97.55890297040195
 20
-113.5057332073007
 10
97.56303708498424
 20
-113.4528509916021
 10
97.56303708498424
 20
-113.4528509916021
 10
96.85541447231392
 20
-113.4528509916021
 10
96.85541447231392
 20
-113.4528509916021
 10
96.85817054870213
 20
-113.4909192967141
 10
96.86023760599328
 20
-113.5184800605961
 10
96.86712779696377
 20
-113.5692952190035
 10
96.86712779696377
 20
-113.5692952190035
 10
96.64319659042253
 20
-113.5692952190035
 10
96.64319659042253
 20
-113.5692952190035
 10
96.65422089597534
 20
-113.4168497437812
 10
96.6635226537855
 20
-113.2645765233332
 10
96.6635226537855
 20
-113.2308145875777
 10
96.6635226537855
 20
-113.2308145875777
 10
96.6635226537855
 20
-112.9472832291417
 10
96.6635226537855
 20
-112.9472832291417
 10
96.6635226537855
 20
-112.9240288346162
 10
96.65663246281501
 20
-112.6913126345876
 10
96.65008678139304
 20
-112.600362113777
 10
96.70417478051147
 20
-112.6044962283593
 10
96.88504229348707
 20
-112.6131089670724
 10
97.02525767973674
 20
-112.6131089670724
 10
97.02525767973674
 20
-112.6131089670724
 10
97.366666642325
 20
-112.6131089670724
 10
97.366666642325
 20
-112.6131089670724
 10
97.41834307460375
 20
-112.6131089670724
 10
97.63331703288334
 20
-112.610869655007
 10
97.77112085229334
 20
-112.6024291710682
 10
97.76216360403168
 20
-112.6849392079399
 10
97.76009654674054
 20
-112.8647731922699
 10
97.76009654674054
 20
-112.9493502864328
 10
97.76009654674054
 20
-112.9493502864328
 10
97.76009654674054
 20
-113.2371880142254
 10
97.76009654674054
 20
-113.2371880142254
 10
97.76009654674054
 20
-113.3343397069095
 10
97.76457517087137
 20
-113.4740383288364
 10
97.78007810055499
 20
-113.5692952190035
 10
97.78007810055499
 20
-113.5692952190035
 10
97.5499457221403
 20
-113.5692952190035
 10
97.5499457221403
 20
-113.5692952190035
 97
        0
 97
        0
 92
        1
 93
        1
 72
     4
 94
        3
 73
     0
 74
     1
 95
       41
 96
       37
 40
0.0
 40
0.0
 40
0.0
 40
0.0
 40
1.0
 40
1.0
 40
1.0
 40
2.0
 40
2.0
 40
2.0
 40
3.0
 40
3.0
 40
3.0
 40
4.0
 40
4.0
 40
4.0
 40
5.0
 40
5.0
 40
5.0
 40
6.0
 40
6.0
 40
6.0
 40
7.0
 40
7.0
 40
7.0
 40
8.0
 40
8.0
 40
8.0
 40
9.0
 40
9.0
 40
9.0
 40
10.0
 40
10.0
 40
10.0
 40
11.0
 40
11.0
 40
11.0
 40
12.0
 40
12.0
 40
12.0
 40
12.0
 10
97.38010251471748
 20
-112.4902913130233
 10
97.38010251471748
 20
-112.4902913130233
 10
97.03421492799839
 20
-112.4902913130233
 10
97.03421492799839
 20
-112.4902913130233
 10
96.98701711985048
 20
-112.4902913130233
 10
96.81269528829684
 20
-112.4945976823798
 10
96.75619572233873
 20
-112.5009711090275
 10
96.76067434646956
 20
-112.4542900652024
 10
96.76308591330924
 20
-112.3528320031618
 10
96.76308591330924
 20
-112.3211371246975
 10
96.76308591330924
 20
-112.3211371246975
 10
96.76308591330924
 20
-112.1921182987749
 10
96.76308591330924
 20
-112.1921182987749
 10
96.76308591330924
 20
-112.118048745842
 10
96.76308591330924
 20
-112.118048745842
 10
96.75412866504759
 20
-112.0164184290272
 10
96.8647162301241
 20
-112.0227918556749
 10
96.9529106745465
 20
-112.0270982250314
 10
97.05454099136136
 20
-112.0270982250314
 10
97.05454099136136
 20
-112.0270982250314
 10
97.366666642325
 20
-112.0270982250314
 10
97.366666642325
 20
-112.0270982250314
 10
97.4727755832707
 20
-112.0270982250314
 10
97.57888452421639
 20
-112.024858912966
 10
97.68533797471062
 20
-112.0164184290272
 10
97.68292640787094
 20
-112.0503526195569
 10
97.67879229328864
 20
-112.1497436243063
 10
97.67879229328864
 20
-112.2069322093615
 10
97.67879229328864
 20
-112.2069322093615
 10
97.67879229328864
 20
-112.3337117232187
 10
97.67879229328864
 20
-112.3337117232187
 10
97.67879229328864
 20
-112.3803927670438
 10
97.68292640787094
 20
-112.469103975789
 10
97.68533797471062
 20
-112.4987317969621
 10
97.63814016656269
 20
-112.4987317969621
 10
97.4231662082831
 20
-112.4902913130233
 10
97.38010251471748
 20
-112.4902913130233
 97
        0
 97
        0
 92
        1
 93
        4
 72
     1
 10
97.11345212415914
 20
-112.7653821875205
 11
96.85128035773162
 21
-112.7653821875205
 72
     1
 10
96.85128035773162
 20
-112.7653821875205
 11
96.85128035773162
 21
-112.9600300824371
 72
     1
 10
96.85128035773162
 20
-112.9600300824371
 11
97.11345212415914
 21
-112.9600300824371
 72
     1
 10
97.11345212415914
 20
-112.9600300824371
 11
97.11345212415914
 21
-112.7653821875205
 97
        0
 92
        1
 93
        4
 72
     1
 10
97.11345212415914
 20
-113.1038628189463
 11
96.85128035773162
 21
-113.1038628189463
 72
     1
 10
96.85128035773162
 20
-113.1038628189463
 11
96.85128035773162
 21
-113.2985107138629
 72
     1
 10
96.85128035773162
 20
-113.2985107138629
 11
97.11345212415914
 21
-113.2985107138629
 72
     1
 10
97.11345212415914
 20
-113.2985107138629
 11
97.11345212415914
 21
-113.1038628189463
 97
        0
 92
        1
 93
        4
 72
     1
 10
97.48414439837202
 20
-112.1709309615406
 11
96.95532224138617
 21
-112.1709309615406
 72
     1
 10
96.95532224138617
 20
-112.1709309615406
 11
96.95532224138617
 21
-112.3464585765141
 72
     1
 10
96.95532224138617
 20
-112.3464585765141
 11
97.48414439837202
 21
-112.3464585765141
 72
     1
 10
97.48414439837202
 20
-112.3464585765141
 11
97.48414439837202
 21
-112.1709309615406
 97
        0
 92
        1
 93
        4
 72
     1
 10
97.56579316137244
 20
-112.7653821875205
 11
97.30120982810526
 21
-112.7653821875205
 72
     1
 10
97.30120982810526
 20
-112.7653821875205
 11
97.30120982810526
 21
-112.9600300824371
 72
     1
 10
97.30120982810526
 20
-112.9600300824371
 11
97.56579316137244
 21
-112.9600300824371
 72
     1
 10
97.56579316137244
 20
-112.9600300824371
 11
97.56579316137244
 21
-112.7653821875205
 97
        0
 92
        1
 93
        4
 72
     1
 10
97.56579316137244
 20
-113.1038628189463
 11
97.30120982810526
 21
-113.1038628189463
 72
     1
 10
97.30120982810526
 20
-113.1038628189463
 11
97.30120982810526
 21
-113.2985107138629
 72
     1
 10
97.30120982810526
 20
-113.2985107138629
 11
97.56579316137244
 21
-113.2985107138629
 72
     1
 10
97.56579316137244
 20
-113.2985107138629
 11
97.56579316137244
 21
-113.1038628189463
 97
        0
 75
     2
 76
     1
 98
        0
  0
SPLINE
  5
B6
330
8A
100
AcDbEntity
  8
_U+30EC_U+30A4_U+30E4_U+30FC 1
370
     0
100
AcDbSpline
210
0.0
220
0.0
230
1.0
 70
    11
 71
     3
 72
    44
 73
    40
 74
     0
 42
0.0000000001
 43
0.0000000001
 12
1.0
 22
0.0
 32
0.0
 13
1.0
 23
0.0
 33
0.0
 40
0.0
 40
0.0
 40
0.0
 40
0.0
 40
1.0
 40
1.0
 40
1.0
 40
2.0
 40
2.0
 40
2.0
 40
3.0
 40
3.0
 40
3.0
 40
4.0
 40
4.0
 40
4.0
 40
5.0
 40
5.0
 40
5.0
 40
6.0
 40
6.0
 40
6.0
 40
7.0
 40
7.0
 40
7.0
 40
8.0
 40
8.0
 40
8.0
 40
9.0
 40
9.0
 40
9.0
 40
10.0
 40
10.0
 40
10.0
 40
11.0
 40
11.0
 40
11.0
 40
12.0
 40
12.0
 40
12.0
 40
13.0
 40
13.0
 40
13.0
 40
13.0
 10
98.66340058297304
 20
-112.8394517404533
 30
0.0
 10
98.43051212817015
 20
-112.9980983875491
 30
0.0
 10
98.33129337819496
 20
-113.072167940482
 30
0.0
 10
98.27892792681916
 20
-113.2160006769911
 30
0.0
 10
98.27892792681916
 20
-113.2160006769911
 30
0.0
 10
99.11126299605552
 20
-113.2160006769911
 30
0.0
 10
99.11126299605552
 20
-113.2160006769911
 30
0.0
 10
99.11126299605552
 20
-113.2160006769911
 30
0.0
 10
99.11126299605552
 20
-113.4211561131378
 30
0.0
 10
99.11126299605552
 20
-113.4211561131378
 30
0.0
 10
99.11126299605552
 20
-113.4211561131378
 30
0.0
 10
98.01227753626083
 20
-113.4211561131378
 30
0.0
 10
98.01227753626083
 20
-113.4211561131378
 30
0.0
 10
98.04603947201628
 20
-113.0635552017688
 30
0.0
 10
98.11631941991537
 20
-112.9853515342537
 30
0.0
 10
98.5276638208542
 20
-112.687006265231
 30
0.0
 10
98.80120440238304
 20
-112.4882242557321
 30
0.0
 10
98.87148435028213
 20
-112.420528129447
 30
0.0
 10
98.87148435028213
 20
-112.2830688195855
 30
0.0
 10
98.87148435028213
 20
-112.1645575348929
 30
0.0
 10
98.79431421141254
 20
-112.0334716516791
 30
0.0
 10
98.58416338681229
 20
-112.0334716516791
 30
0.0
 10
98.30648869070116
 20
-112.0334716516791
 30
0.0
 10
98.29718693289098
 20
-112.2639485396424
 30
0.0
 10
98.29270830876015
 20
-112.3803927670438
 30
0.0
 10
98.29270830876015
 20
-112.3803927670438
 30
0.0
 10
98.05292966298677
 20
-112.3803927670438
 30
0.0
 10
98.05292966298677
 20
-112.3803927670438
 30
0.0
 10
98.06188691124842
 20
-112.2534409984123
 30
0.0
 10
98.07360023589827
 20
-112.1413031403675
 30
0.0
 10
98.15903860393247
 20
-112.0227918556749
 30
0.0
 10
98.27686086952801
 20
-111.862078151288
 30
0.0
 10
98.47598738857545
 20
-111.8281439607582
 30
0.0
 10
98.60001082604444
 20
-111.8281439607582
 30
0.0
 10
98.89628903777593
 20
-111.8281439607582
 30
0.0
 10
99.1178086774775
 20
-112.0122843144449
 30
0.0
 10
99.1178086774775
 20
-112.2851358768766
 30
0.0
 10
99.1178086774775
 20
-112.5135457075487
 30
0.0
 10
98.99344073045998
 20
-112.6131089670724
 30
0.0
 10
98.66340058297304
 20
-112.8394517404533
 30
0.0
  0
HATCH
  5
B7
330
8A
100
AcDbEntity
  8
_U+30EC_U+30A4_U+30E4_U+30FC 1
 62
   179
420
  2234388
100
AcDbHatch
 10
0.0
 20
0.0
 30
0.0
210
0.0
220
0.0
230
1.0
  2
SOLID
 70
     1
 71
     0
 91
        1
 92
        1
 93
        1
 72
     4
 94
        3
 73
     0
 74
     1
 95
       44
 96
       40
 40
0.0
 40
0.0
 40
0.0
 40
0.0
 40
1.0
 40
1.0
 40
1.0
 40
2.0
 40
2.0
 40
2.0
 40
3.0
 40
3.0
 40
3.0
 40
4.0
 40
4.0
 40
4.0
 40
5.0
 40
5.0
 40
5.0
 40
6.0
 40
6.0
 40
6.0
 40
7.0
 40
7.0
 40
7.0
 40
8.0
 40
8.0
 40
8.0
 40
9.0
 40
9.0
 40
9.0
 40
10.0
 40
10.0
 40
10.0
 40
11.0
 40
11.0
 40
11.0
 40
12.0
 40
12.0
 40
12.0
 40
13.0
 40
13.0
 40
13.0
 40
13.0
 10
98.66340058297304
 20
-112.8394517404533
 10
98.43051212817015
 20
-112.9980983875491
 10
98.33129337819496
 20
-113.072167940482
 10
98.27892792681916
 20
-113.2160006769911
 10
98.27892792681916
 20
-113.2160006769911
 10
99.11126299605552
 20
-113.2160006769911
 10
99.11126299605552
 20
-113.2160006769911
 10
99.11126299605552
 20
-113.2160006769911
 10
99.11126299605552
 20
-113.4211561131378
 10
99.11126299605552
 20
-113.4211561131378
 10
99.11126299605552
 20
-113.4211561131378
 10
98.01227753626083
 20
-113.4211561131378
 10
98.01227753626083
 20
-113.4211561131378
 10
98.04603947201628
 20
-113.0635552017688
 10
98.11631941991537
 20
-112.9853515342537
 10
98.5276638208542
 20
-112.687006265231
 10
98.80120440238304
 20
-112.4882242557321
 10
98.87148435028213
 20
-112.420528129447
 10
98.87148435028213
 20
-112.2830688195855
 10
98.87148435028213
 20
-112.1645575348929
 10
98.79431421141254
 20
-112.0334716516791
 10
98.58416338681229
 20
-112.0334716516791
 10
98.30648869070116
 20
-112.0334716516791
 10
98.29718693289098
 20
-112.2639485396424
 10
98.29270830876015
 20
-112.3803927670438
 10
98.29270830876015
 20
-112.3803927670438
 10
98.05292966298677
 20
-112.3803927670438
 10
98.05292966298677
 20
-112.3803927670438
 10
98.06188691124842
 20
-112.2534409984123
 10
98.07360023589827
 20
-112.1413031403675
 10
98.15903860393247
 20
-112.0227918556749
 10
98.27686086952801
 20
-111.862078151288
 10
98.47598738857545
 20
-111.8281439607582
 10
98.60001082604444
 20
-111.8281439607582
 10
98.89628903777593
 20
-111.8281439607582
 10
99.1178086774775
 20
-112.0122843144449
 10
99.1178086774775
 20
-112.2851358768766
 10
99.1178086774775
 20
-112.5135457075487
 10
98.99344073045998
 20
-112.6131089670724
 10
98.66340058297304
 20
-112.8394517404533
 97
        0
 97
        0
 75
     2
 76
     1
 98
        0
  0
SPLINE
  5
B8
330
8A
100
AcDbEntity
  8
_U+30EC_U+30A4_U+30E4_U+30FC 1
370
     0
100
AcDbSpline
210
0.0
220
0.0
230
1.0
 70
    11
 71
     3
 72
    29
 73
    25
 74
     0
 42
0.0000000001
 43
0.0000000001
 12
1.0
 22
0.0
 32
0.0
 13
1.0
 23
0.0
 33
0.0
 40
0.0
 40
0.0
 40
0.0
 40
0.0
 40
1.0
 40
1.0
 40
1.0
 40
2.0
 40
2.0
 40
2.0
 40
3.0
 40
3.0
 40
3.0
 40
4.0
 40
4.0
 40
4.0
 40
5.0
 40
5.0
 40
5.0
 40
6.0
 40
6.0
 40
6.0
 40
7.0
 40
7.0
 40
7.0
 40
8.0
 40
8.0
 40
8.0
 40
8.0
 10
100.2467664679939
 20
-113.2433891860989
 30
0.0
 10
100.1317002787865
 20
-113.4528509916021
 30
0.0
 10
99.94635414168009
 20
-113.4719712715452
 30
0.0
 10
99.82164168511405
 20
-113.4719712715452
 30
0.0
 10
99.6500759299486
 20
-113.4719712715452
 30
0.0
 10
99.4984917285976
 20
-113.4254624824943
 30
0.0
 10
99.39651690223421
 20
-113.2433891860989
 30
0.0
 10
99.28592933715768
 20
-113.0487412911823
 30
0.0
 10
99.26560327379471
 20
-112.8118909765713
 30
0.0
 10
99.26560327379471
 20
-112.648937960119
 30
0.0
 10
99.26560327379471
 20
-112.5051052236098
 30
0.0
 10
99.28351777031801
 20
-112.2534409984123
 30
0.0
 10
99.39651690223421
 20
-112.0544867341392
 30
0.0
 10
99.5122721105386
 20
-111.8513983552837
 30
0.0
 10
99.68383786570405
 20
-111.8281439607582
 30
0.0
 10
99.82164168511405
 20
-111.8281439607582
 30
0.0
 10
99.99114038298833
 20
-111.8281439607582
 30
0.0
 10
100.145136151179
 20
-111.872585692518
 30
0.0
 10
100.2467664679939
 20
-112.0544867341392
 30
0.0
 10
100.3528754089396
 20
-112.2470675717646
 30
0.0
 10
100.3776800964334
 20
-112.4754774024367
 30
0.0
 10
100.3776800964334
 20
-112.648937960119
 30
0.0
 10
100.3776800964334
 20
-112.8203314605102
 30
0.0
 10
100.3552869757792
 20
-113.0509806032477
 30
0.0
 10
100.2467664679939
 20
-113.2433891860989
 30
0.0
  0
SPLINE
  5
B9
330
8A
100
AcDbEntity
  8
_U+30EC_U+30A4_U+30E4_U+30FC 1
370
     0
100
AcDbSpline
210
0.0
220
0.0
230
1.0
 70
    11
 71
     3
 72
    17
 73
    13
 74
     0
 42
0.0000000001
 43
0.0000000001
 12
1.0
 22
0.0
 32
0.0
 13
1.0
 23
0.0
 33
0.0
 40
0.0
 40
0.0
 40
0.0
 40
0.0
 40
1.0
 40
1.0
 40
1.0
 40
2.0
 40
2.0
 40
2.0
 40
3.0
 40
3.0
 40
3.0
 40
4.0
 40
4.0
 40
4.0
 40
4.0
 10
99.82164168511405
 20
-112.0207247983837
 30
0.0
 10
99.5549912945557
 20
-112.0207247983837
 30
0.0
 10
99.50538191956811
 20
-112.3042561568198
 30
0.0
 10
99.50538191956811
 20
-112.648937960119
 30
0.0
 10
99.50538191956811
 20
-112.9684705663759
 30
0.0
 10
99.54362247945437
 20
-113.2773233766286
 30
0.0
 10
99.82164168511405
 20
-113.2773233766286
 30
0.0
 10
100.0862250183812
 20
-113.2773233766286
 30
0.0
 10
100.1382459602085
 20
-112.9958590754837
 30
0.0
 10
100.1382459602085
 20
-112.648937960119
 30
0.0
 10
100.1382459602085
 20
-112.3295776086364
 30
0.0
 10
100.0975938334825
 20
-112.0207247983837
 30
0.0
 10
99.82164168511405
 20
-112.0207247983837
 30
0.0
  0
HATCH
  5
BA
330
8A
100
AcDbEntity
  8
_U+30EC_U+30A4_U+30E4_U+30FC 1
 62
   179
420
  2234388
100
AcDbHatch
 10
0.0
 20
0.0
 30
0.0
210
0.0
220
0.0
230
1.0
  2
SOLID
 70
     1
 71
     0
 91
        2
 92
        1
 93
        1
 72
     4
 94
        3
 73
     0
 74
     1
 95
       29
 96
       25
 40
0.0
 40
0.0
 40
0.0
 40
0.0
 40
1.0
 40
1.0
 40
1.0
 40
2.0
 40
2.0
 40
2.0
 40
3.0
 40
3.0
 40
3.0
 40
4.0
 40
4.0
 40
4.0
 40
5.0
 40
5.0
 40
5.0
 40
6.0
 40
6.0
 40
6.0
 40
7.0
 40
7.0
 40
7.0
 40
8.0
 40
8.0
 40
8.0
 40
8.0
 10
100.2467664679939
 20
-113.2433891860989
 10
100.1317002787865
 20
-113.4528509916021
 10
99.94635414168009
 20
-113.4719712715452
 10
99.82164168511405
 20
-113.4719712715452
 10
99.6500759299486
 20
-113.4719712715452
 10
99.4984917285976
 20
-113.4254624824943
 10
99.39651690223421
 20
-113.2433891860989
 10
99.28592933715768
 20
-113.0487412911823
 10
99.26560327379471
 20
-112.8118909765713
 10
99.26560327379471
 20
-112.648937960119
 10
99.26560327379471
 20
-112.5051052236098
 10
99.28351777031801
 20
-112.2534409984123
 10
99.39651690223421
 20
-112.0544867341392
 10
99.5122721105386
 20
-111.8513983552837
 10
99.68383786570405
 20
-111.8281439607582
 10
99.82164168511405
 20
-111.8281439607582
 10
99.99114038298833
 20
-111.8281439607582
 10
100.145136151179
 20
-111.872585692518
 10
100.2467664679939
 20
-112.0544867341392
 10
100.3528754089396
 20
-112.2470675717646
 10
100.3776800964334
 20
-112.4754774024367
 10
100.3776800964334
 20
-112.648937960119
 10
100.3776800964334
 20
-112.8203314605102
 10
100.3552869757792
 20
-113.0509806032477
 10
100.2467664679939
 20
-113.2433891860989
 97
        0
 97
        0
 92
        1
 93
        1
 72
     4
 94
        3
 73
     0
 74
     1
 95
       17
 96
       13
 40
0.0
 40
0.0
 40
0.0
 40
0.0
 40
1.0
 40
1.0
 40
1.0
 40
2.0
 40
2.0
 40
2.0
 40
3.0
 40
3.0
 40
3.0
 40
4.0
 40
4.0
 40
4.0
 40
4.0
 10
99.82164168511405
 20
-112.0207247983837
 10
99.5549912945557
 20
-112.0207247983837
 10
99.50538191956811
 20
-112.3042561568198
 10
99.50538191956811
 20
-112.648937960119
 10
99.50538191956811
 20
-112.9684705663759
 10
99.54362247945437
 20
-113.2773233766286
 10
99.82164168511405
 20
-113.2773233766286
 10
100.0862250183812
 20
-113.2773233766286
 10
100.1382459602085
 20
-112.9958590754837
 10
100.1382459602085
 20
-112.648937960119
 10
100.1382459602085
 20
-112.3295776086364
 10
100.0975938334825
 20
-112.0207247983837
 10
99.82164168511405
 20
-112.0207247983837
 97
        0
 97
        0
 75
     2
 76
     1
 98
        0
  0
SPLINE
  5
BB
330
8A
100
AcDbEntity
  8
_U+30EC_U+30A4_U+30E4_U+30FC 1
370
     0
100
AcDbSpline
210
0.0
220
0.0
230
1.0
 70
    11
 71
     3
 72
    62
 73
    58
 74
     0
 42
0.0000000001
 43
0.0000000001
 12
1.0
 22
0.0
 32
0.0
 13
1.0
 23
0.0
 33
0.0
 40
0.0
 40
0.0
 40
0.0
 40
0.0
 40
1.0
 40
1.0
 40
1.0
 40
2.0
 40
2.0
 40
2.0
 40
3.0
 40
3.0
 40
3.0
 40
4.0
 40
4.0
 40
4.0
 40
5.0
 40
5.0
 40
5.0
 40
6.0
 40
6.0
 40
6.0
 40
7.0
 40
7.0
 40
7.0
 40
8.0
 40
8.0
 40
8.0
 40
9.0
 40
9.0
 40
9.0
 40
10.0
 40
10.0
 40
10.0
 40
11.0
 40
11.0
 40
11.0
 40
12.0
 40
12.0
 40
12.0
 40
13.0
 40
13.0
 40
13.0
 40
14.0
 40
14.0
 40
14.0
 40
15.0
 40
15.0
 40
15.0
 40
16.0
 40
16.0
 40
16.0
 40
17.0
 40
17.0
 40
17.0
 40
18.0
 40
18.0
 40
18.0
 40
19.0
 40
19.0
 40
19.0
 40
19.0
 10
101.9045464154961
 20
-113.4211561131378
 30
0.0
 10
101.9045464154961
 20
-113.4211561131378
 30
0.0
 10
101.9045464154961
 20
-112.676498724001
 30
0.0
 10
101.9045464154961
 20
-112.676498724001
 30
0.0
 10
101.9045464154961
 20
-112.5812418338339
 30
0.0
 10
101.8501139068291
 20
-112.4818508290844
 30
0.0
 10
101.7350477176218
 20
-112.4818508290844
 30
0.0
 10
101.538332765414
 20
-112.4818508290844
 30
0.0
 10
101.4883788808779
 20
-112.7273138824085
 30
0.0
 10
101.4883788808779
 20
-112.7886365820459
 30
0.0
 10
101.4883788808779
 20
-112.7886365820459
 30
0.0
 10
101.4883788808779
 20
-113.4211561131378
 30
0.0
 10
101.4883788808779
 20
-113.4211561131378
 30
0.0
 10
101.4883788808779
 20
-113.4211561131378
 30
0.0
 10
101.255490426075
 20
-113.4211561131378
 30
0.0
 10
101.255490426075
 20
-113.4211561131378
 30
0.0
 10
101.255490426075
 20
-113.4211561131378
 30
0.0
 10
101.255490426075
 20
-112.6744316667099
 30
0.0
 10
101.255490426075
 20
-112.6744316667099
 30
0.0
 10
101.255490426075
 20
-112.5812418338339
 30
0.0
 10
101.2017469365051
 20
-112.4818508290844
 30
0.0
 10
101.0859917282007
 20
-112.4818508290844
 30
0.0
 10
100.9213161640058
 20
-112.4818508290844
 30
0.0
 10
100.8400119105539
 20
-112.6701252973533
 30
0.0
 10
100.8400119105539
 20
-112.7886365820459
 30
0.0
 10
100.8400119105539
 20
-112.7886365820459
 30
0.0
 10
100.8400119105539
 20
-113.4211561131378
 30
0.0
 10
100.8400119105539
 20
-113.4211561131378
 30
0.0
 10
100.8400119105539
 20
-113.4211561131378
 30
0.0
 10
100.607123455751
 20
-113.4211561131378
 30
0.0
 10
100.607123455751
 20
-113.4211561131378
 30
0.0
 10
100.607123455751
 20
-113.4211561131378
 30
0.0
 10
100.607123455751
 20
-112.3126966407586
 30
0.0
 10
100.607123455751
 20
-112.3126966407586
 30
0.0
 10
100.607123455751
 20
-112.3126966407586
 30
0.0
 10
100.8241644713217
 20
-112.3126966407586
 30
0.0
 10
100.8241644713217
 20
-112.3126966407586
 30
0.0
 10
100.8241644713217
 20
-112.3126966407586
 30
0.0
 10
100.8400119105539
 20
-112.4332749827424
 30
0.0
 10
100.8400119105539
 20
-112.4332749827424
 30
0.0
 10
100.9123589157441
 20
-112.3042561568198
 30
0.0
 10
101.0680772316774
 20
-112.2618814823512
 30
0.0
 10
101.1542046188087
 20
-112.2618814823512
 30
0.0
 10
101.1741861726231
 20
-112.2618814823512
 30
0.0
 10
101.3777913158014
 20
-112.2618814823512
 30
0.0
 10
101.4704643843546
 20
-112.4629028039155
 30
0.0
 10
101.5565917714859
 20
-112.2894422462332
 30
0.0
 10
101.737114774913
 20
-112.2618814823512
 30
0.0
 10
101.8005045318415
 20
-112.2618814823512
 30
0.0
 10
101.958978924163
 20
-112.2618814823512
 30
0.0
 10
102.137434870299
 20
-112.3781534549784
 30
0.0
 10
102.137434870299
 20
-112.5538533247261
 30
0.0
 10
102.137434870299
 20
-112.5538533247261
 30
0.0
 10
102.137434870299
 20
-113.4211561131378
 30
0.0
 10
102.137434870299
 20
-113.4211561131378
 30
0.0
 10
102.137434870299
 20
-113.4211561131378
 30
0.0
 10
101.9045464154961
 20
-113.4211561131378
 30
0.0
 10
101.9045464154961
 20
-113.4211561131378
 30
0.0
  0
HATCH
  5
BC
330
8A
100
AcDbEntity
  8
_U+30EC_U+30A4_U+30E4_U+30FC 1
 62
   179
420
  2234388
100
AcDbHatch
 10
0.0
 20
0.0
 30
0.0
210
0.0
220
0.0
230
1.0
  2
SOLID
 70
     1
 71
     0
 91
        1
 92
        1
 93
        1
 72
     4
 94
        3
 73
     0
 74
     1
 95
       62
 96
       58
 40
0.0
 40
0.0
 40
0.0
 40
0.0
 40
1.0
 40
1.0
 40
1.0
 40
2.0
 40
2.0
 40
2.0
 40
3.0
 40
3.0
 40
3.0
 40
4.0
 40
4.0
 40
4.0
 40
5.0
 40
5.0
 40
5.0
 40
6.0
 40
6.0
 40
6.0
 40
7.0
 40
7.0
 40
7.0
 40
8.0
 40
8.0
 40
8.0
 40
9.0
 40
9.0
 40
9.0
 40
10.0
 40
10.0
 40
10.0
 40
11.0
 40
11.0
 40
11.0
 40
12.0
 40
12.0
 40
12.0
 40
13.0
 40
13.0
 40
13.0
 40
14.0
 40
14.0
 40
14.0
 40
15.0
 40
15.0
 40
15.0
 40
16.0
 40
16.0
 40
16.0
 40
17.0
 40
17.0
 40
17.0
 40
18.0
 40
18.0
 40
18.0
 40
19.0
 40
19.0
 40
19.0
 40
19.0
 10
101.9045464154961
 20
-113.4211561131378
 10
101.9045464154961
 20
-113.4211561131378
 10
101.9045464154961
 20
-112.676498724001
 10
101.9045464154961
 20
-112.676498724001
 10
101.9045464154961
 20
-112.5812418338339
 10
101.8501139068291
 20
-112.4818508290844
 10
101.7350477176218
 20
-112.4818508290844
 10
101.538332765414
 20
-112.4818508290844
 10
101.4883788808779
 20
-112.7273138824085
 10
101.4883788808779
 20
-112.7886365820459
 10
101.4883788808779
 20
-112.7886365820459
 10
101.4883788808779
 20
-113.4211561131378
 10
101.4883788808779
 20
-113.4211561131378
 10
101.4883788808779
 20
-113.4211561131378
 10
101.255490426075
 20
-113.4211561131378
 10
101.255490426075
 20
-113.4211561131378
 10
101.255490426075
 20
-113.4211561131378
 10
101.255490426075
 20
-112.6744316667099
 10
101.255490426075
 20
-112.6744316667099
 10
101.255490426075
 20
-112.5812418338339
 10
101.2017469365051
 20
-112.4818508290844
 10
101.0859917282007
 20
-112.4818508290844
 10
100.9213161640058
 20
-112.4818508290844
 10
100.8400119105539
 20
-112.6701252973533
 10
100.8400119105539
 20
-112.7886365820459
 10
100.8400119105539
 20
-112.7886365820459
 10
100.8400119105539
 20
-113.4211561131378
 10
100.8400119105539
 20
-113.4211561131378
 10
100.8400119105539
 20
-113.4211561131378
 10
100.607123455751
 20
-113.4211561131378
 10
100.607123455751
 20
-113.4211561131378
 10
100.607123455751
 20
-113.4211561131378
 10
100.607123455751
 20
-112.3126966407586
 10
100.607123455751
 20
-112.3126966407586
 10
100.607123455751
 20
-112.3126966407586
 10
100.8241644713217
 20
-112.3126966407586
 10
100.8241644713217
 20
-112.3126966407586
 10
100.8241644713217
 20
-112.3126966407586
 10
100.8400119105539
 20
-112.4332749827424
 10
100.8400119105539
 20
-112.4332749827424
 10
100.9123589157441
 20
-112.3042561568198
 10
101.0680772316774
 20
-112.2618814823512
 10
101.1542046188087
 20
-112.2618814823512
 10
101.1741861726231
 20
-112.2618814823512
 10
101.3777913158014
 20
-112.2618814823512
 10
101.4704643843546
 20
-112.4629028039155
 10
101.5565917714859
 20
-112.2894422462332
 10
101.737114774913
 20
-112.2618814823512
 10
101.8005045318415
 20
-112.2618814823512
 10
101.958978924163
 20
-112.2618814823512
 10
102.137434870299
 20
-112.3781534549784
 10
102.137434870299
 20
-112.5538533247261
 10
102.137434870299
 20
-112.5538533247261
 10
102.137434870299
 20
-113.4211561131378
 10
102.137434870299
 20
-113.4211561131378
 10
102.137434870299
 20
-113.4211561131378
 10
101.9045464154961
 20
-113.4211561131378
 10
101.9045464154961
 20
-113.4211561131378
 97
        0
 97
        0
 75
     2
 76
     1
 98
        0
  0
SPLINE
  5
BD
330
8A
100
AcDbEntity
  8
_U+30EC_U+30A4_U+30E4_U+30FC 1
370
     0
100
AcDbSpline
210
0.0
220
0.0
230
1.0
 70
    11
 71
     3
 72
    62
 73
    58
 74
     0
 42
0.0000000001
 43
0.0000000001
 12
1.0
 22
0.0
 32
0.0
 13
1.0
 23
0.0
 33
0.0
 40
0.0
 40
0.0
 40
0.0
 40
0.0
 40
1.0
 40
1.0
 40
1.0
 40
2.0
 40
2.0
 40
2.0
 40
3.0
 40
3.0
 40
3.0
 40
4.0
 40
4.0
 40
4.0
 40
5.0
 40
5.0
 40
5.0
 40
6.0
 40
6.0
 40
6.0
 40
7.0
 40
7.0
 40
7.0
 40
8.0
 40
8.0
 40
8.0
 40
9.0
 40
9.0
 40
9.0
 40
10.0
 40
10.0
 40
10.0
 40
11.0
 40
11.0
 40
11.0
 40
12.0
 40
12.0
 40
12.0
 40
13.0
 40
13.0
 40
13.0
 40
14.0
 40
14.0
 40
14.0
 40
15.0
 40
15.0
 40
15.0
 40
16.0
 40
16.0
 40
16.0
 40
17.0
 40
17.0
 40
17.0
 40
18.0
 40
18.0
 40
18.0
 40
19.0
 40
19.0
 40
19.0
 40
19.0
 10
103.7483615192018
 20
-113.4211561131378
 30
0.0
 10
103.7483615192018
 20
-113.4211561131378
 30
0.0
 10
103.7483615192018
 20
-112.676498724001
 30
0.0
 10
103.7483615192018
 20
-112.676498724001
 30
0.0
 10
103.7483615192018
 20
-112.5812418338339
 30
0.0
 10
103.6939290105349
 20
-112.4818508290844
 30
0.0
 10
103.5788628213275
 20
-112.4818508290844
 30
0.0
 10
103.3821478691197
 20
-112.4818508290844
 30
0.0
 10
103.3321939845836
 20
-112.7273138824085
 30
0.0
 10
103.3321939845836
 20
-112.7886365820459
 30
0.0
 10
103.3321939845836
 20
-112.7886365820459
 30
0.0
 10
103.3321939845836
 20
-113.4211561131378
 30
0.0
 10
103.3321939845836
 20
-113.4211561131378
 30
0.0
 10
103.3321939845836
 20
-113.4211561131378
 30
0.0
 10
103.0993055297807
 20
-113.4211561131378
 30
0.0
 10
103.0993055297807
 20
-113.4211561131378
 30
0.0
 10
103.0993055297807
 20
-113.4211561131378
 30
0.0
 10
103.0993055297807
 20
-112.6744316667099
 30
0.0
 10
103.0993055297807
 20
-112.6744316667099
 30
0.0
 10
103.0993055297807
 20
-112.5812418338339
 30
0.0
 10
103.0455620402108
 20
-112.4818508290844
 30
0.0
 10
102.9298068319064
 20
-112.4818508290844
 30
0.0
 10
102.7651312677115
 20
-112.4818508290844
 30
0.0
 10
102.6838270142596
 20
-112.6701252973533
 30
0.0
 10
102.6838270142596
 20
-112.7886365820459
 30
0.0
 10
102.6838270142596
 20
-112.7886365820459
 30
0.0
 10
102.6838270142596
 20
-113.4211561131378
 30
0.0
 10
102.6838270142596
 20
-113.4211561131378
 30
0.0
 10
102.6838270142596
 20
-113.4211561131378
 30
0.0
 10
102.4509385594567
 20
-113.4211561131378
 30
0.0
 10
102.4509385594567
 20
-113.4211561131378
 30
0.0
 10
102.4509385594567
 20
-113.4211561131378
 30
0.0
 10
102.4509385594567
 20
-112.3126966407586
 30
0.0
 10
102.4509385594567
 20
-112.3126966407586
 30
0.0
 10
102.4509385594567
 20
-112.3126966407586
 30
0.0
 10
102.6679795750275
 20
-112.3126966407586
 30
0.0
 10
102.6679795750275
 20
-112.3126966407586
 30
0.0
 10
102.6679795750275
 20
-112.3126966407586
 30
0.0
 10
102.6838270142596
 20
-112.4332749827424
 30
0.0
 10
102.6838270142596
 20
-112.4332749827424
 30
0.0
 10
102.7561740194498
 20
-112.3042561568198
 30
0.0
 10
102.9118923353831
 20
-112.2618814823512
 30
0.0
 10
102.9980197225144
 20
-112.2618814823512
 30
0.0
 10
103.0180012763288
 20
-112.2618814823512
 30
0.0
 10
103.2216064195071
 20
-112.2618814823512
 30
0.0
 10
103.3142794880603
 20
-112.4629028039155
 30
0.0
 10
103.4004068751916
 20
-112.2894422462332
 30
0.0
 10
103.5809298786187
 20
-112.2618814823512
 30
0.0
 10
103.6443196355473
 20
-112.2618814823512
 30
0.0
 10
103.8027940278688
 20
-112.2618814823512
 30
0.0
 10
103.9812499740047
 20
-112.3781534549784
 30
0.0
 10
103.9812499740047
 20
-112.5538533247261
 30
0.0
 10
103.9812499740047
 20
-112.5538533247261
 30
0.0
 10
103.9812499740047
 20
-113.4211561131378
 30
0.0
 10
103.9812499740047
 20
-113.4211561131378
 30
0.0
 10
103.9812499740047
 20
-113.4211561131378
 30
0.0
 10
103.7483615192018
 20
-113.4211561131378
 30
0.0
 10
103.7483615192018
 20
-113.4211561131378
 30
0.0
  0
HATCH
  5
BE
330
8A
100
AcDbEntity
  8
_U+30EC_U+30A4_U+30E4_U+30FC 1
 62
   179
420
  2234388
100
AcDbHatch
 10
0.0
 20
0.0
 30
0.0
210
0.0
220
0.0
230
1.0
  2
SOLID
 70
     1
 71
     0
 91
        1
 92
        1
 93
        1
 72
     4
 94
        3
 73
     0
 74
     1
 95
       62
 96
       58
 40
0.0
 40
0.0
 40
0.0
 40
0.0
 40
1.0
 40
1.0
 40
1.0
 40
2.0
 40
2.0
 40
2.0
 40
3.0
 40
3.0
 40
3.0
 40
4.0
 40
4.0
 40
4.0
 40
5.0
 40
5.0
 40
5.0
 40
6.0
 40
6.0
 40
6.0
 40
7.0
 40
7.0
 40
7.0
 40
8.0
 40
8.0
 40
8.0
 40
9.0
 40
9.0
 40
9.0
 40
10.0
 40
10.0
 40
10.0
 40
11.0
 40
11.0
 40
11.0
 40
12.0
 40
12.0
 40
12.0
 40
13.0
 40
13.0
 40
13.0
 40
14.0
 40
14.0
 40
14.0
 40
15.0
 40
15.0
 40
15.0
 40
16.0
 40
16.0
 40
16.0
 40
17.0
 40
17.0
 40
17.0
 40
18.0
 40
18.0
 40
18.0
 40
19.0
 40
19.0
 40
19.0
 40
19.0
 10
103.7483615192018
 20
-113.4211561131378
 10
103.7483615192018
 20
-113.4211561131378
 10
103.7483615192018
 20
-112.676498724001
 10
103.7483615192018
 20
-112.676498724001
 10
103.7483615192018
 20
-112.5812418338339
 10
103.6939290105349
 20
-112.4818508290844
 10
103.5788628213275
 20
-112.4818508290844
 10
103.3821478691197
 20
-112.4818508290844
 10
103.3321939845836
 20
-112.7273138824085
 10
103.3321939845836
 20
-112.7886365820459
 10
103.3321939845836
 20
-112.7886365820459
 10
103.3321939845836
 20
-113.4211561131378
 10
103.3321939845836
 20
-113.4211561131378
 10
103.3321939845836
 20
-113.4211561131378
 10
103.0993055297807
 20
-113.4211561131378
 10
103.0993055297807
 20
-113.4211561131378
 10
103.0993055297807
 20
-113.4211561131378
 10
103.0993055297807
 20
-112.6744316667099
 10
103.0993055297807
 20
-112.6744316667099
 10
103.0993055297807
 20
-112.5812418338339
 10
103.0455620402108
 20
-112.4818508290844
 10
102.9298068319064
 20
-112.4818508290844
 10
102.7651312677115
 20
-112.4818508290844
 10
102.6838270142596
 20
-112.6701252973533
 10
102.6838270142596
 20
-112.7886365820459
 10
102.6838270142596
 20
-112.7886365820459
 10
102.6838270142596
 20
-113.4211561131378
 10
102.6838270142596
 20
-113.4211561131378
 10
102.6838270142596
 20
-113.4211561131378
 10
102.4509385594567
 20
-113.4211561131378
 10
102.4509385594567
 20
-113.4211561131378
 10
102.4509385594567
 20
-113.4211561131378
 10
102.4509385594567
 20
-112.3126966407586
 10
102.4509385594567
 20
-112.3126966407586
 10
102.4509385594567
 20
-112.3126966407586
 10
102.6679795750275
 20
-112.3126966407586
 10
102.6679795750275
 20
-112.3126966407586
 10
102.6679795750275
 20
-112.3126966407586
 10
102.6838270142596
 20
-112.4332749827424
 10
102.6838270142596
 20
-112.4332749827424
 10
102.7561740194498
 20
-112.3042561568198
 10
102.9118923353831
 20
-112.2618814823512
 10
102.9980197225144
 20
-112.2618814823512
 10
103.0180012763288
 20
-112.2618814823512
 10
103.2216064195071
 20
-112.2618814823512
 10
103.3142794880603
 20
-112.4629028039155
 10
103.4004068751916
 20
-112.2894422462332
 10
103.5809298786187
 20
-112.2618814823512
 10
103.6443196355473
 20
-112.2618814823512
 10
103.8027940278688
 20
-112.2618814823512
 10
103.9812499740047
 20
-112.3781534549784
 10
103.9812499740047
 20
-112.5538533247261
 10
103.9812499740047
 20
-112.5538533247261
 10
103.9812499740047
 20
-113.4211561131378
 10
103.9812499740047
 20
-113.4211561131378
 10
103.9812499740047
 20
-113.4211561131378
 10
103.7483615192018
 20
-113.4211561131378
 10
103.7483615192018
 20
-113.4211561131378
 97
        0
 97
        0
 75
     2
 76
     1
 98
        0
  0
SPLINE
  5
BF
330
8A
100
AcDbEntity
  8
_U+30EC_U+30A4_U+30E4_U+30FC 1
370
     0
100
AcDbSpline
210
0.0
220
0.0
230
1.0
 70
    11
 71
     3
 72
   176
 73
   172
 74
     0
 42
0.0000000001
 43
0.0000000001
 12
1.0
 22
0.0
 32
0.0
 13
1.0
 23
0.0
 33
0.0
 40
0.0
 40
0.0
 40
0.0
 40
0.0
 40
1.0
 40
1.0
 40
1.0
 40
2.0
 40
2.0
 40
2.0
 40
3.0
 40
3.0
 40
3.0
 40
4.0
 40
4.0
 40
4.0
 40
5.0
 40
5.0
 40
5.0
 40
6.0
 40
6.0
 40
6.0
 40
7.0
 40
7.0
 40
7.0
 40
8.0
 40
8.0
 40
8.0
 40
9.0
 40
9.0
 40
9.0
 40
10.0
 40
10.0
 40
10.0
 40
11.0
 40
11.0
 40
11.0
 40
12.0
 40
12.0
 40
12.0
 40
13.0
 40
13.0
 40
13.0
 40
14.0
 40
14.0
 40
14.0
 40
15.0
 40
15.0
 40
15.0
 40
16.0
 40
16.0
 40
16.0
 40
17.0
 40
17.0
 40
17.0
 40
18.0
 40
18.0
 40
18.0
 40
19.0
 40
19.0
 40
19.0
 40
20.0
 40
20.0
 40
20.0
 40
21.0
 40
21.0
 40
21.0
 40
22.0
 40
22.0
 40
22.0
 40
23.0
 40
23.0
 40
23.0
 40
24.0
 40
24.0
 40
24.0
 40
25.0
 40
25.0
 40
25.0
 40
26.0
 40
26.0
 40
26.0
 40
27.0
 40
27.0
 40
27.0
 40
28.0
 40
28.0
 40
28.0
 40
29.0
 40
29.0
 40
29.0
 40
30.0
 40
30.0
 40
30.0
 40
31.0
 40
31.0
 40
31.0
 40
32.0
 40
32.0
 40
32.0
 40
33.0
 40
33.0
 40
33.0
 40
34.0
 40
34.0
 40
34.0
 40
35.0
 40
35.0
 40
35.0
 40
36.0
 40
36.0
 40
36.0
 40
37.0
 40
37.0
 40
37.0
 40
38.0
 40
38.0
 40
38.0
 40
39.0
 40
39.0
 40
39.0
 40
40.0
 40
40.0
 40
40.0
 40
41.0
 40
41.0
 40
41.0
 40
42.0
 40
42.0
 40
42.0
 40
43.0
 40
43.0
 40
43.0
 40
44.0
 40
44.0
 40
44.0
 40
45.0
 40
45.0
 40
45.0
 40
46.0
 40
46.0
 40
46.0
 40
47.0
 40
47.0
 40
47.0
 40
48.0
 40
48.0
 40
48.0
 40
49.0
 40
49.0
 40
49.0
 40
50.0
 40
50.0
 40
50.0
 40
51.0
 40
51.0
 40
51.0
 40
52.0
 40
52.0
 40
52.0
 40
53.0
 40
53.0
 40
53.0
 40
54.0
 40
54.0
 40
54.0
 40
55.0
 40
55.0
 40
55.0
 40
56.0
 40
56.0
 40
56.0
 40
57.0
 40
57.0
 40
57.0
 40
57.0
 10
105.6080240621397
 20
-111.9190944815688
 30
0.0
 10
105.6080240621397
 20
-111.9190944815688
 30
0.0
 10
105.3820257983073
 20
-111.9190944815688
 30
0.0
 10
105.3820257983073
 20
-111.9190944815688
 30
0.0
 10
105.3820257983073
 20
-111.9190944815688
 30
0.0
 10
105.3820257983073
 20
-112.1497436243063
 30
0.0
 10
105.3820257983073
 20
-112.1497436243063
 30
0.0
 10
105.3820257983073
 20
-112.1497436243063
 30
0.0
 10
105.6080240621397
 20
-112.1497436243063
 30
0.0
 10
105.6080240621397
 20
-112.1497436243063
 30
0.0
 10
105.6531548129964
 20
-112.1497436243063
 30
0.0
 10
105.6803710673299
 20
-112.1518106815975
 30
0.0
 10
105.9173936367151
 20
-112.1454372549498
 30
0.0
 10
106.143736410096
 20
-112.1392360830763
 30
0.0
 10
106.1685410975898
 20
-112.1328626564286
 30
0.0
 10
106.2026475428938
 20
-112.1328626564286
 30
0.0
 10
106.2026475428938
 20
-112.1645575348929
 30
0.0
 10
106.1957573519233
 20
-112.2512016863469
 30
0.0
 10
106.1957573519233
 20
-112.3443915192229
 30
0.0
 10
106.1957573519233
 20
-112.3443915192229
 30
0.0
 10
106.1957573519233
 20
-112.9112819813208
 30
0.0
 10
106.1957573519233
 20
-112.9112819813208
 30
0.0
 10
106.1957573519233
 20
-113.3577663562092
 30
0.0
 10
106.1978244092144
 20
-113.4063422025512
 30
0.0
 10
106.1909342182439
 20
-113.4402763930809
 30
0.0
 10
106.1709526644295
 20
-113.564988849647
 30
0.0
 10
106.0421060932811
 20
-113.5692952190035
 30
0.0
 10
105.9673475212512
 20
-113.5692952190035
 30
0.0
 10
105.9153265794239
 20
-113.5692952190035
 30
0.0
 10
105.854348389335
 20
-113.5670559069381
 30
0.0
 10
105.8002603902166
 20
-113.5629217923558
 30
0.0
 10
105.8002603902166
 20
-113.5629217923558
 30
0.0
 10
105.723090251347
 20
-113.3450195029137
 30
0.0
 10
105.723090251347
 20
-113.3450195029137
 30
0.0
 10
105.7706325690435
 20
-113.3534599868526
 30
0.0
 10
105.8726073954069
 20
-113.3703409547303
 30
0.0
 10
105.9266953945253
 20
-113.3703409547303
 30
0.0
 10
105.9876735846142
 20
-113.3703409547303
 30
0.0
 10
105.9876735846142
 20
-113.3407131335572
 30
0.0
 10
105.9876735846142
 20
-113.262509466042
 30
0.0
 10
105.9876735846142
 20
-113.262509466042
 30
0.0
 10
105.9876735846142
 20
-112.3211371246975
 30
0.0
 10
105.9876735846142
 20
-112.3211371246975
 30
0.0
 10
105.9876735846142
 20
-112.3211371246975
 30
0.0
 10
105.3820257983073
 20
-112.3211371246975
 30
0.0
 10
105.3820257983073
 20
-112.3211371246975
 30
0.0
 10
105.3820257983073
 20
-112.3211371246975
 30
0.0
 10
105.3820257983073
 20
-112.9452161718505
 30
0.0
 10
105.3820257983073
 20
-112.9452161718505
 30
0.0
 10
105.3820257983073
 20
-112.9452161718505
 30
0.0
 10
105.6056124953
 20
-112.9452161718505
 30
0.0
 10
105.6056124953
 20
-112.9452161718505
 30
0.0
 10
105.6056124953
 20
-112.9452161718505
 30
0.0
 10
105.6056124953
 20
-112.7357543663473
 30
0.0
 10
105.6056124953
 20
-112.7357543663473
 30
0.0
 10
105.6056124953
 20
-112.6701252973533
 30
0.0
 10
105.6032009284603
 20
-112.6256835655936
 30
0.0
 10
105.599066813878
 20
-112.4882242557321
 30
0.0
 10
105.599066813878
 20
-112.4882242557321
 30
0.0
 10
105.8023274475077
 20
-112.5030381663187
 30
0.0
 10
105.8023274475077
 20
-112.5030381663187
 30
0.0
 10
105.8161078294488
 20
-112.5030381663187
 30
0.0
 10
105.8567599561747
 20
-112.507172280901
 30
0.0
 10
105.8567599561747
 20
-112.534733044783
 30
0.0
 10
105.8567599561747
 20
-112.5579874393084
 30
0.0
 10
105.8291991922927
 20
-112.5771077192516
 30
0.0
 10
105.8181748867399
 20
-112.5834811458993
 30
0.0
 10
105.8112846957694
 20
-112.6808050933576
 30
0.0
 10
105.8112846957694
 20
-112.7081936024653
 30
0.0
 10
105.8112846957694
 20
-112.7610758181639
 30
0.0
 10
105.8112846957694
 20
-112.7610758181639
 30
0.0
 10
105.8112846957694
 20
-112.8583997656222
 30
0.0
 10
105.8112846957694
 20
-112.8583997656222
 30
0.0
 10
105.8112846957694
 20
-112.9049085546731
 30
0.0
 10
105.8136962626091
 20
-112.9917249609014
 30
0.0
 10
105.8226535108707
 20
-113.1355576974106
 30
0.0
 10
105.7437608242585
 20
-113.1334906401194
 30
0.0
 10
105.6190483676925
 20
-113.1250501561805
 30
0.0
 10
105.4926133633838
 20
-113.1250501561805
 30
0.0
 10
105.4926133633838
 20
-113.1250501561805
 30
0.0
 10
104.9431206334864
 20
-113.1250501561805
 30
0.0
 10
104.9431206334864
 20
-113.1250501561805
 30
0.0
 10
104.9431206334864
 20
-113.1460652386406
 30
0.0
 10
104.9479437671658
 20
-113.2308145875777
 30
0.0
 10
104.9479437671658
 20
-113.2476955554554
 30
0.0
 10
104.9479437671658
 20
-113.2476955554554
 30
0.0
 10
104.7216009937849
 20
-113.2476955554554
 30
0.0
 10
104.7216009937849
 20
-113.2476955554554
 30
0.0
 10
104.7309027515951
 20
-113.186372855818
 30
0.0
 10
104.7329698088862
 20
-113.0466742338911
 30
0.0
 10
104.7329698088862
 20
-112.9812174196714
 30
0.0
 10
104.7329698088862
 20
-112.9812174196714
 30
0.0
 10
104.7329698088862
 20
-112.7674492448116
 30
0.0
 10
104.7329698088862
 20
-112.7674492448116
 30
0.0
 10
104.7329698088862
 20
-112.6828721506487
 30
0.0
 10
104.7329698088862
 20
-112.648937960119
 30
0.0
 10
104.7284911847554
 20
-112.4839178863756
 30
0.0
 10
104.7284911847554
 20
-112.4839178863756
 30
0.0
 10
104.9431206334864
 20
-112.496664739671
 30
0.0
 10
104.9431206334864
 20
-112.496664739671
 30
0.0
 10
104.9996201994445
 20
-112.5009711090275
 30
0.0
 10
105.006510390415
 20
-112.5114786502576
 30
0.0
 10
105.006510390415
 20
-112.5283596181353
 30
0.0
 10
105.006510390415
 20
-112.5559203820173
 30
0.0
 10
104.9817057029212
 20
-112.5664279232473
 30
0.0
 10
104.9520778817481
 20
-112.5812418338339
 30
0.0
 10
104.9479437671658
 20
-112.6299899349501
 30
0.0
 10
104.9431206334864
 20
-112.6913126345876
 30
0.0
 10
104.9431206334864
 20
-112.7633151302293
 30
0.0
 10
104.9431206334864
 20
-112.7633151302293
 30
0.0
 10
104.9431206334864
 20
-112.9452161718505
 30
0.0
 10
104.9431206334864
 20
-112.9452161718505
 30
0.0
 10
104.9431206334864
 20
-112.9452161718505
 30
0.0
 10
105.1649847827365
 20
-112.9452161718505
 30
0.0
 10
105.1649847827365
 20
-112.9452161718505
 30
0.0
 10
105.1649847827365
 20
-112.9452161718505
 30
0.0
 10
105.1649847827365
 20
-112.3211371246975
 30
0.0
 10
105.1649847827365
 20
-112.3211371246975
 30
0.0
 10
105.1649847827365
 20
-112.3211371246975
 30
0.0
 10
104.5407334808093
 20
-112.3211371246975
 30
0.0
 10
104.5407334808093
 20
-112.3211371246975
 30
0.0
 10
104.5407334808093
 20
-112.3211371246975
 30
0.0
 10
104.5407334808093
 20
-112.8859605295042
 30
0.0
 10
104.5407334808093
 20
-112.8859605295042
 30
0.0
 10
104.5407334808093
 20
-113.0783691123554
 30
0.0
 10
104.5407334808093
 20
-113.3999687759035
 30
0.0
 10
104.5496907290709
 20
-113.5798027602335
 30
0.0
 10
104.5496907290709
 20
-113.5798027602335
 30
0.0
 10
104.3078450260064
 20
-113.5798027602335
 30
0.0
 10
104.3078450260064
 20
-113.5798027602335
 30
0.0
 10
104.3285155989179
 20
-113.4464775649544
 30
0.0
 10
104.330582656209
 20
-113.1608791492271
 30
0.0
 10
104.330582656209
 20
-113.1398640667671
 30
0.0
 10
104.330582656209
 20
-113.1398640667671
 30
0.0
 10
104.330582656209
 20
-112.392967365565
 30
0.0
 10
104.330582656209
 20
-112.392967365565
 30
0.0
 10
104.330582656209
 20
-112.2808295075201
 30
0.0
 10
104.3257595225297
 20
-112.1645575348929
 30
0.0
 10
104.3257595225297
 20
-112.1328626564286
 30
0.0
 10
104.5362548566784
 20
-112.1433701976586
 30
0.0
 10
104.8032497567853
 20
-112.1497436243063
 30
0.0
 10
105.0154676386767
 20
-112.1497436243063
 30
0.0
 10
105.0154676386767
 20
-112.1497436243063
 30
0.0
 10
105.1649847827365
 20
-112.1497436243063
 30
0.0
 10
105.1649847827365
 20
-112.1497436243063
 30
0.0
 10
105.1649847827365
 20
-112.1497436243063
 30
0.0
 10
105.1649847827365
 20
-111.9190944815688
 30
0.0
 10
105.1649847827365
 20
-111.9190944815688
 30
0.0
 10
105.1649847827365
 20
-111.9190944815688
 30
0.0
 10
104.9272731942543
 20
-111.9190944815688
 30
0.0
 10
104.9272731942543
 20
-111.9190944815688
 30
0.0
 10
104.7081651213924
 20
-111.9190944815688
 30
0.0
 10
104.4504719790957
 20
-111.9190944815688
 30
0.0
 10
104.2468668359175
 20
-111.9297742775731
 30
0.0
 10
104.2468668359175
 20
-111.9297742775731
 30
0.0
 10
104.2468668359175
 20
-111.7392604972388
 30
0.0
 10
104.2468668359175
 20
-111.7392604972388
 30
0.0
 10
104.522818984286
 20
-111.7583807771819
 30
0.0
 10
104.9024685067605
 20
-111.7583807771819
 30
0.0
 10
104.9272731942543
 20
-111.7583807771819
 30
0.0
 10
104.9272731942543
 20
-111.7583807771819
 30
0.0
 10
105.6080240621397
 20
-111.7583807771819
 30
0.0
 10
105.6080240621397
 20
-111.7583807771819
 30
0.0
 10
105.8340223259721
 20
-111.7583807771819
 30
0.0
 10
106.0600205898044
 20
-111.7540744078254
 30
0.0
 10
106.2860188536368
 20
-111.7392604972388
 30
0.0
 10
106.2860188536368
 20
-111.7392604972388
 30
0.0
 10
106.2860188536368
 20
-111.9297742775731
 30
0.0
 10
106.2860188536368
 20
-111.9297742775731
 30
0.0
 10
106.0896484109776
 20
-111.9190944815688
 30
0.0
 10
105.8994791401918
 20
-111.9190944815688
 30
0.0
 10
105.6080240621397
 20
-111.9190944815688
 30
0.0
  0
HATCH
  5
C0
330
8A
100
AcDbEntity
  8
_U+30EC_U+30A4_U+30E4_U+30FC 1
 62
   179
420
  2234388
100
AcDbHatch
 10
0.0
 20
0.0
 30
0.0
210
0.0
220
0.0
230
1.0
  2
SOLID
 70
     1
 71
     0
 91
        1
 92
        1
 93
        1
 72
     4
 94
        3
 73
     0
 74
     1
 95
      176
 96
      172
 40
0.0
 40
0.0
 40
0.0
 40
0.0
 40
1.0
 40
1.0
 40
1.0
 40
2.0
 40
2.0
 40
2.0
 40
3.0
 40
3.0
 40
3.0
 40
4.0
 40
4.0
 40
4.0
 40
5.0
 40
5.0
 40
5.0
 40
6.0
 40
6.0
 40
6.0
 40
7.0
 40
7.0
 40
7.0
 40
8.0
 40
8.0
 40
8.0
 40
9.0
 40
9.0
 40
9.0
 40
10.0
 40
10.0
 40
10.0
 40
11.0
 40
11.0
 40
11.0
 40
12.0
 40
12.0
 40
12.0
 40
13.0
 40
13.0
 40
13.0
 40
14.0
 40
14.0
 40
14.0
 40
15.0
 40
15.0
 40
15.0
 40
16.0
 40
16.0
 40
16.0
 40
17.0
 40
17.0
 40
17.0
 40
18.0
 40
18.0
 40
18.0
 40
19.0
 40
19.0
 40
19.0
 40
20.0
 40
20.0
 40
20.0
 40
21.0
 40
21.0
 40
21.0
 40
22.0
 40
22.0
 40
22.0
 40
23.0
 40
23.0
 40
23.0
 40
24.0
 40
24.0
 40
24.0
 40
25.0
 40
25.0
 40
25.0
 40
26.0
 40
26.0
 40
26.0
 40
27.0
 40
27.0
 40
27.0
 40
28.0
 40
28.0
 40
28.0
 40
29.0
 40
29.0
 40
29.0
 40
30.0
 40
30.0
 40
30.0
 40
31.0
 40
31.0
 40
31.0
 40
32.0
 40
32.0
 40
32.0
 40
33.0
 40
33.0
 40
33.0
 40
34.0
 40
34.0
 40
34.0
 40
35.0
 40
35.0
 40
35.0
 40
36.0
 40
36.0
 40
36.0
 40
37.0
 40
37.0
 40
37.0
 40
38.0
 40
38.0
 40
38.0
 40
39.0
 40
39.0
 40
39.0
 40
40.0
 40
40.0
 40
40.0
 40
41.0
 40
41.0
 40
41.0
 40
42.0
 40
42.0
 40
42.0
 40
43.0
 40
43.0
 40
43.0
 40
44.0
 40
44.0
 40
44.0
 40
45.0
 40
45.0
 40
45.0
 40
46.0
 40
46.0
 40
46.0
 40
47.0
 40
47.0
 40
47.0
 40
48.0
 40
48.0
 40
48.0
 40
49.0
 40
49.0
 40
49.0
 40
50.0
 40
50.0
 40
50.0
 40
51.0
 40
51.0
 40
51.0
 40
52.0
 40
52.0
 40
52.0
 40
53.0
 40
53.0
 40
53.0
 40
54.0
 40
54.0
 40
54.0
 40
55.0
 40
55.0
 40
55.0
 40
56.0
 40
56.0
 40
56.0
 40
57.0
 40
57.0
 40
57.0
 40
57.0
 10
105.6080240621397
 20
-111.9190944815688
 10
105.6080240621397
 20
-111.9190944815688
 10
105.3820257983073
 20
-111.9190944815688
 10
105.3820257983073
 20
-111.9190944815688
 10
105.3820257983073
 20
-111.9190944815688
 10
105.3820257983073
 20
-112.1497436243063
 10
105.3820257983073
 20
-112.1497436243063
 10
105.3820257983073
 20
-112.1497436243063
 10
105.6080240621397
 20
-112.1497436243063
 10
105.6080240621397
 20
-112.1497436243063
 10
105.6531548129964
 20
-112.1497436243063
 10
105.6803710673299
 20
-112.1518106815975
 10
105.9173936367151
 20
-112.1454372549498
 10
106.143736410096
 20
-112.1392360830763
 10
106.1685410975898
 20
-112.1328626564286
 10
106.2026475428938
 20
-112.1328626564286
 10
106.2026475428938
 20
-112.1645575348929
 10
106.1957573519233
 20
-112.2512016863469
 10
106.1957573519233
 20
-112.3443915192229
 10
106.1957573519233
 20
-112.3443915192229
 10
106.1957573519233
 20
-112.9112819813208
 10
106.1957573519233
 20
-112.9112819813208
 10
106.1957573519233
 20
-113.3577663562092
 10
106.1978244092144
 20
-113.4063422025512
 10
106.1909342182439
 20
-113.4402763930809
 10
106.1709526644295
 20
-113.564988849647
 10
106.0421060932811
 20
-113.5692952190035
 10
105.9673475212512
 20
-113.5692952190035
 10
105.9153265794239
 20
-113.5692952190035
 10
105.854348389335
 20
-113.5670559069381
 10
105.8002603902166
 20
-113.5629217923558
 10
105.8002603902166
 20
-113.5629217923558
 10
105.723090251347
 20
-113.3450195029137
 10
105.723090251347
 20
-113.3450195029137
 10
105.7706325690435
 20
-113.3534599868526
 10
105.8726073954069
 20
-113.3703409547303
 10
105.9266953945253
 20
-113.3703409547303
 10
105.9876735846142
 20
-113.3703409547303
 10
105.9876735846142
 20
-113.3407131335572
 10
105.9876735846142
 20
-113.262509466042
 10
105.9876735846142
 20
-113.262509466042
 10
105.9876735846142
 20
-112.3211371246975
 10
105.9876735846142
 20
-112.3211371246975
 10
105.9876735846142
 20
-112.3211371246975
 10
105.3820257983073
 20
-112.3211371246975
 10
105.3820257983073
 20
-112.3211371246975
 10
105.3820257983073
 20
-112.3211371246975
 10
105.3820257983073
 20
-112.9452161718505
 10
105.3820257983073
 20
-112.9452161718505
 10
105.3820257983073
 20
-112.9452161718505
 10
105.6056124953
 20
-112.9452161718505
 10
105.6056124953
 20
-112.9452161718505
 10
105.6056124953
 20
-112.9452161718505
 10
105.6056124953
 20
-112.7357543663473
 10
105.6056124953
 20
-112.7357543663473
 10
105.6056124953
 20
-112.6701252973533
 10
105.6032009284603
 20
-112.6256835655936
 10
105.599066813878
 20
-112.4882242557321
 10
105.599066813878
 20
-112.4882242557321
 10
105.8023274475077
 20
-112.5030381663187
 10
105.8023274475077
 20
-112.5030381663187
 10
105.8161078294488
 20
-112.5030381663187
 10
105.8567599561747
 20
-112.507172280901
 10
105.8567599561747
 20
-112.534733044783
 10
105.8567599561747
 20
-112.5579874393084
 10
105.8291991922927
 20
-112.5771077192516
 10
105.8181748867399
 20
-112.5834811458993
 10
105.8112846957694
 20
-112.6808050933576
 10
105.8112846957694
 20
-112.7081936024653
 10
105.8112846957694
 20
-112.7610758181639
 10
105.8112846957694
 20
-112.7610758181639
 10
105.8112846957694
 20
-112.8583997656222
 10
105.8112846957694
 20
-112.8583997656222
 10
105.8112846957694
 20
-112.9049085546731
 10
105.8136962626091
 20
-112.9917249609014
 10
105.8226535108707
 20
-113.1355576974106
 10
105.7437608242585
 20
-113.1334906401194
 10
105.6190483676925
 20
-113.1250501561805
 10
105.4926133633838
 20
-113.1250501561805
 10
105.4926133633838
 20
-113.1250501561805
 10
104.9431206334864
 20
-113.1250501561805
 10
104.9431206334864
 20
-113.1250501561805
 10
104.9431206334864
 20
-113.1460652386406
 10
104.9479437671658
 20
-113.2308145875777
 10
104.9479437671658
 20
-113.2476955554554
 10
104.9479437671658
 20
-113.2476955554554
 10
104.7216009937849
 20
-113.2476955554554
 10
104.7216009937849
 20
-113.2476955554554
 10
104.7309027515951
 20
-113.186372855818
 10
104.7329698088862
 20
-113.0466742338911
 10
104.7329698088862
 20
-112.9812174196714
 10
104.7329698088862
 20
-112.9812174196714
 10
104.7329698088862
 20
-112.7674492448116
 10
104.7329698088862
 20
-112.7674492448116
 10
104.7329698088862
 20
-112.6828721506487
 10
104.7329698088862
 20
-112.648937960119
 10
104.7284911847554
 20
-112.4839178863756
 10
104.7284911847554
 20
-112.4839178863756
 10
104.9431206334864
 20
-112.496664739671
 10
104.9431206334864
 20
-112.496664739671
 10
104.9996201994445
 20
-112.5009711090275
 10
105.006510390415
 20
-112.5114786502576
 10
105.006510390415
 20
-112.5283596181353
 10
105.006510390415
 20
-112.5559203820173
 10
104.9817057029212
 20
-112.5664279232473
 10
104.9520778817481
 20
-112.5812418338339
 10
104.9479437671658
 20
-112.6299899349501
 10
104.9431206334864
 20
-112.6913126345876
 10
104.9431206334864
 20
-112.7633151302293
 10
104.9431206334864
 20
-112.7633151302293
 10
104.9431206334864
 20
-112.9452161718505
 10
104.9431206334864
 20
-112.9452161718505
 10
104.9431206334864
 20
-112.9452161718505
 10
105.1649847827365
 20
-112.9452161718505
 10
105.1649847827365
 20
-112.9452161718505
 10
105.1649847827365
 20
-112.9452161718505
 10
105.1649847827365
 20
-112.3211371246975
 10
105.1649847827365
 20
-112.3211371246975
 10
105.1649847827365
 20
-112.3211371246975
 10
104.5407334808093
 20
-112.3211371246975
 10
104.5407334808093
 20
-112.3211371246975
 10
104.5407334808093
 20
-112.3211371246975
 10
104.5407334808093
 20
-112.8859605295042
 10
104.5407334808093
 20
-112.8859605295042
 10
104.5407334808093
 20
-113.0783691123554
 10
104.5407334808093
 20
-113.3999687759035
 10
104.5496907290709
 20
-113.5798027602335
 10
104.5496907290709
 20
-113.5798027602335
 10
104.3078450260064
 20
-113.5798027602335
 10
104.3078450260064
 20
-113.5798027602335
 10
104.3285155989179
 20
-113.4464775649544
 10
104.330582656209
 20
-113.1608791492271
 10
104.330582656209
 20
-113.1398640667671
 10
104.330582656209
 20
-113.1398640667671
 10
104.330582656209
 20
-112.392967365565
 10
104.330582656209
 20
-112.392967365565
 10
104.330582656209
 20
-112.2808295075201
 10
104.3257595225297
 20
-112.1645575348929
 10
104.3257595225297
 20
-112.1328626564286
 10
104.5362548566784
 20
-112.1433701976586
 10
104.8032497567853
 20
-112.1497436243063
 10
105.0154676386767
 20
-112.1497436243063
 10
105.0154676386767
 20
-112.1497436243063
 10
105.1649847827365
 20
-112.1497436243063
 10
105.1649847827365
 20
-112.1497436243063
 10
105.1649847827365
 20
-112.1497436243063
 10
105.1649847827365
 20
-111.9190944815688
 10
105.1649847827365
 20
-111.9190944815688
 10
105.1649847827365
 20
-111.9190944815688
 10
104.9272731942543
 20
-111.9190944815688
 10
104.9272731942543
 20
-111.9190944815688
 10
104.7081651213924
 20
-111.9190944815688
 10
104.4504719790957
 20
-111.9190944815688
 10
104.2468668359175
 20
-111.9297742775731
 10
104.2468668359175
 20
-111.9297742775731
 10
104.2468668359175
 20
-111.7392604972388
 10
104.2468668359175
 20
-111.7392604972388
 10
104.522818984286
 20
-111.7583807771819
 10
104.9024685067605
 20
-111.7583807771819
 10
104.9272731942543
 20
-111.7583807771819
 10
104.9272731942543
 20
-111.7583807771819
 10
105.6080240621397
 20
-111.7583807771819
 10
105.6080240621397
 20
-111.7583807771819
 10
105.8340223259721
 20
-111.7583807771819
 10
106.0600205898044
 20
-111.7540744078254
 10
106.2860188536368
 20
-111.7392604972388
 10
106.2860188536368
 20
-111.7392604972388
 10
106.2860188536368
 20
-111.9297742775731
 10
106.2860188536368
 20
-111.9297742775731
 10
106.0896484109776
 20
-111.9190944815688
 10
105.8994791401918
 20
-111.9190944815688
 10
105.6080240621397
 20
-111.9190944815688
 97
        0
 97
        0
 75
     2
 76
     1
 98
        0
  0
SPLINE
  5
C1
330
8A
100
AcDbEntity
  8
_U+30EC_U+30A4_U+30E4_U+30FC 1
370
     0
100
AcDbSpline
210
0.0
220
0.0
230
1.0
 70
    11
 71
     3
 72
    89
 73
    85
 74
     0
 42
0.0000000001
 43
0.0000000001
 12
1.0
 22
0.0
 32
0.0
 13
1.0
 23
0.0
 33
0.0
 40
0.0
 40
0.0
 40
0.0
 40
0.0
 40
1.0
 40
1.0
 40
1.0
 40
2.0
 40
2.0
 40
2.0
 40
3.0
 40
3.0
 40
3.0
 40
4.0
 40
4.0
 40
4.0
 40
5.0
 40
5.0
 40
5.0
 40
6.0
 40
6.0
 40
6.0
 40
7.0
 40
7.0
 40
7.0
 40
8.0
 40
8.0
 40
8.0
 40
9.0
 40
9.0
 40
9.0
 40
10.0
 40
10.0
 40
10.0
 40
11.0
 40
11.0
 40
11.0
 40
12.0
 40
12.0
 40
12.0
 40
13.0
 40
13.0
 40
13.0
 40
14.0
 40
14.0
 40
14.0
 40
15.0
 40
15.0
 40
15.0
 40
16.0
 40
16.0
 40
16.0
 40
17.0
 40
17.0
 40
17.0
 40
18.0
 40
18.0
 40
18.0
 40
19.0
 40
19.0
 40
19.0
 40
20.0
 40
20.0
 40
20.0
 40
21.0
 40
21.0
 40
21.0
 40
22.0
 40
22.0
 40
22.0
 40
23.0
 40
23.0
 40
23.0
 40
24.0
 40
24.0
 40
24.0
 40
25.0
 40
25.0
 40
25.0
 40
26.0
 40
26.0
 40
26.0
 40
27.0
 40
27.0
 40
27.0
 40
28.0
 40
28.0
 40
28.0
 40
28.0
 10
107.8204643827671
 20
-111.9001464564
 30
0.0
 10
107.8204643827671
 20
-111.9001464564
 30
0.0
 10
107.6506211753443
 20
-111.9001464564
 30
0.0
 10
107.6506211753443
 20
-111.9001464564
 30
0.0
 10
107.6213378637197
 20
-112.0100450023794
 30
0.0
 10
107.6165147300403
 20
-112.0291652823226
 30
0.0
 10
107.5534694826602
 20
-112.1814385027706
 30
0.0
 10
107.5534694826602
 20
-112.1814385027706
 30
0.0
 10
107.8087510581173
 20
-112.1814385027706
 30
0.0
 10
107.8087510581173
 20
-112.1814385027706
 30
0.0
 10
107.867662190915
 20
-112.1814385027706
 30
0.0
 10
108.1188096517897
 20
-112.1750650761229
 30
0.0
 10
108.1684190267773
 20
-112.1750650761229
 30
0.0
 10
108.3468749729133
 20
-112.1709309615406
 30
0.0
 10
108.412331787133
 20
-112.1645575348929
 30
0.0
 10
108.4736544867705
 20
-112.1581841082452
 30
0.0
 10
108.4667642958
 20
-112.2450005144735
 30
0.0
 10
108.4622856716692
 20
-112.5411064714307
 30
0.0
 10
108.4622856716692
 20
-112.6404974761802
 30
0.0
 10
108.4622856716692
 20
-112.6404974761802
 30
0.0
 10
108.4622856716692
 20
-113.0847425390031
 30
0.0
 10
108.4622856716692
 20
-113.0847425390031
 30
0.0
 10
108.4622856716692
 20
-113.1123033028851
 30
0.0
 10
108.4646972385088
 20
-113.2137613649257
 30
0.0
 10
108.4688313530911
 20
-113.2921372872152
 30
0.0
 10
108.4757215440616
 20
-113.4084092598423
 30
0.0
 10
108.4846787923233
 20
-113.5289876018261
 30
0.0
 10
108.4870903591629
 20
-113.564988849647
 30
0.0
 10
108.4870903591629
 20
-113.564988849647
 30
0.0
 10
108.2338758409971
 20
-113.564988849647
 30
0.0
 10
108.2338758409971
 20
-113.564988849647
 30
0.0
 10
108.2428330892587
 20
-113.5269205445349
 30
0.0
 10
108.2517903375204
 20
-113.4655978448975
 30
0.0
 10
108.2566134711997
 20
-113.4232231704289
 30
0.0
 10
108.2566134711997
 20
-113.4232231704289
 30
0.0
 10
106.8007161191332
 20
-113.4232231704289
 30
0.0
 10
106.8007161191332
 20
-113.4232231704289
 30
0.0
 10
106.8027831764243
 20
-113.4824788127752
 30
0.0
 10
106.8027831764243
 20
-113.4888522394229
 30
0.0
 10
106.8096733673948
 20
-113.5629217923558
 30
0.0
 10
106.8096733673948
 20
-113.5629217923558
 30
0.0
 10
106.5836751035624
 20
-113.5629217923558
 30
0.0
 10
106.5836751035624
 20
-113.5629217923558
 30
0.0
 10
106.6036566573769
 20
-113.4127156291989
 30
0.0
 10
106.6060682242165
 20
-113.2878309178586
 30
0.0
 10
106.6060682242165
 20
-113.0869818510685
 30
0.0
 10
106.6060682242165
 20
-113.0869818510685
 30
0.0
 10
106.6060682242165
 20
-112.714567029113
 30
0.0
 10
106.6060682242165
 20
-112.714567029113
 30
0.0
 10
106.6060682242165
 20
-112.5791747765427
 30
0.0
 10
106.5971109759549
 20
-112.2808295075201
 30
0.0
 10
106.5905652945329
 20
-112.1645575348929
 30
0.0
 10
106.7890027944833
 20
-112.1773043881883
 30
0.0
 10
107.1100856937086
 20
-112.1814385027706
 30
0.0
 10
107.3181694610177
 20
-112.1814385027706
 30
0.0
 10
107.3612331545833
 20
-112.0968614086077
 30
0.0
 10
107.4063639054401
 20
-111.9826564932717
 30
0.0
 10
107.4246229115119
 20
-111.9001464564
 30
0.0
 10
107.4246229115119
 20
-111.9001464564
 30
0.0
 10
107.2051703291015
 20
-111.9001464564
 30
0.0
 10
107.2051703291015
 20
-111.9001464564
 30
0.0
 10
106.942998562674
 20
-111.9001464564
 30
0.0
 10
106.7462836104662
 20
-111.9001464564
 30
0.0
 10
106.5337212190263
 20
-111.9297742775731
 30
0.0
 10
106.5337212190263
 20
-111.9297742775731
 30
0.0
 10
106.5337212190263
 20
-111.7203124720699
 30
0.0
 10
106.5337212190263
 20
-111.7203124720699
 30
0.0
 10
106.653610541913
 20
-111.7371934399476
 30
0.0
 10
107.1803656416077
 20
-111.7392604972388
 30
0.0
 10
107.225840902013
 20
-111.7392604972388
 30
0.0
 10
107.225840902013
 20
-111.7392604972388
 30
0.0
 10
107.8270100641891
 20
-111.7392604972388
 30
0.0
 10
107.8270100641891
 20
-111.7392604972388
 30
0.0
 10
107.8835096301472
 20
-111.7392604972388
 30
0.0
 10
108.315180094449
 20
-111.7330593253653
 30
0.0
 10
108.3923502333186
 20
-111.7308200132999
 30
0.0
 10
108.452983913859
 20
-111.7287529560088
 30
0.0
 10
108.4826117350321
 20
-111.7244465866522
 30
0.0
 10
108.5322211100197
 20
-111.7182454147788
 30
0.0
 10
108.5322211100197
 20
-111.7182454147788
 30
0.0
 10
108.5322211100197
 20
-111.9170274242777
 30
0.0
 10
108.5322211100197
 20
-111.9170274242777
 30
0.0
 10
108.3110459798667
 20
-111.9022135136911
 30
0.0
 10
107.8359673124507
 20
-111.9001464564
 30
0.0
 10
107.8204643827671
 20
-111.9001464564
 30
0.0
  0
POLYLINE
  5
C2
330
8A
100
AcDbEntity
  8
_U+30EC_U+30A4_U+30E4_U+30FC 1
370
     0
100
AcDb2dPolyline
 66
     1
 10
0.0
 20
0.0
 30
0.0
  0
VERTEX
  5
C3
330
C2
100
AcDbEntity
  8
_U+30EC_U+30A4_U+30E4_U+30FC 1
370
     0
100
AcDbVertex
100
AcDb2dVertex
 10
107.0942382544765
 20
-112.3507649458707
 30
0.0
  0
VERTEX
  5
C4
330
C2
100
AcDbEntity
  8
_U+30EC_U+30A4_U+30E4_U+30FC 1
370
     0
100
AcDbVertex
100
AcDb2dVertex
 10
106.8007161191332
 20
-112.3507649458707
 30
0.0
  0
VERTEX
  5
C5
330
C2
100
AcDbEntity
  8
_U+30EC_U+30A4_U+30E4_U+30FC 1
370
     0
100
AcDbVertex
100
AcDb2dVertex
 10
106.8007161191332
 20
-113.252001924812
 30
0.0
  0
VERTEX
  5
C6
330
C2
100
AcDbEntity
  8
_U+30EC_U+30A4_U+30E4_U+30FC 1
370
     0
100
AcDbVertex
100
AcDb2dVertex
 10
107.0942382544765
 20
-113.252001924812
 30
0.0
  0
VERTEX
  5
C7
330
C2
100
AcDbEntity
  8
_U+30EC_U+30A4_U+30E4_U+30FC 1
370
     0
100
AcDbVertex
100
AcDb2dVertex
 10
107.0942382544765
 20
-112.3507649458707
 30
0.0
  0
SEQEND
  5
C8
330
C2
100
AcDbEntity
  8
_U+30EC_U+30A4_U+30E4_U+30FC 1
370
     0
  0
POLYLINE
  5
C9
330
8A
100
AcDbEntity
  8
_U+30EC_U+30A4_U+30E4_U+30FC 1
370
     0
100
AcDb2dPolyline
 66
     1
 10
0.0
 20
0.0
 30
0.0
  0
VERTEX
  5
CA
330
C9
100
AcDbEntity
  8
_U+30EC_U+30A4_U+30E4_U+30FC 1
370
     0
100
AcDbVertex
100
AcDb2dVertex
 10
107.7660318741002
 20
-112.3507649458707
 30
0.0
  0
VERTEX
  5
CB
330
C9
100
AcDbEntity
  8
_U+30EC_U+30A4_U+30E4_U+30FC 1
370
     0
100
AcDbVertex
100
AcDb2dVertex
 10
107.2823404679711
 20
-112.3507649458707
 30
0.0
  0
VERTEX
  5
CC
330
C9
100
AcDbEntity
  8
_U+30EC_U+30A4_U+30E4_U+30FC 1
370
     0
100
AcDbVertex
100
AcDb2dVertex
 10
107.2823404679711
 20
-112.5411064714307
 30
0.0
  0
VERTEX
  5
CD
330
C9
100
AcDbEntity
  8
_U+30EC_U+30A4_U+30E4_U+30FC 1
370
     0
100
AcDbVertex
100
AcDb2dVertex
 10
107.7660318741002
 20
-112.5411064714307
 30
0.0
  0
VERTEX
  5
CE
330
C9
100
AcDbEntity
  8
_U+30EC_U+30A4_U+30E4_U+30FC 1
370
     0
100
AcDbVertex
100
AcDb2dVertex
 10
107.7660318741002
 20
-112.3507649458707
 30
0.0
  0
SEQEND
  5
CF
330
C9
100
AcDbEntity
  8
_U+30EC_U+30A4_U+30E4_U+30FC 1
370
     0
  0
POLYLINE
  5
D0
330
8A
100
AcDbEntity
  8
_U+30EC_U+30A4_U+30E4_U+30FC 1
370
     0
100
AcDb2dPolyline
 66
     1
 10
0.0
 20
0.0
 30
0.0
  0
VERTEX
  5
D1
330
D0
100
AcDbEntity
  8
_U+30EC_U+30A4_U+30E4_U+30FC 1
370
     0
100
AcDbVertex
100
AcDb2dVertex
 10
107.7660318741002
 20
-112.7018201758176
 30
0.0
  0
VERTEX
  5
D2
330
D0
100
AcDbEntity
  8
_U+30EC_U+30A4_U+30E4_U+30FC 1
370
     0
100
AcDbVertex
100
AcDb2dVertex
 10
107.2823404679711
 20
-112.7018201758176
 30
0.0
  0
VERTEX
  5
D3
330
D0
100
AcDbEntity
  8
_U+30EC_U+30A4_U+30E4_U+30FC 1
370
     0
100
AcDbVertex
100
AcDb2dVertex
 10
107.2823404679711
 20
-112.8923339561519
 30
0.0
  0
VERTEX
  5
D4
330
D0
100
AcDbEntity
  8
_U+30EC_U+30A4_U+30E4_U+30FC 1
370
     0
100
AcDbVertex
100
AcDb2dVertex
 10
107.7660318741002
 20
-112.8923339561519
 30
0.0
  0
VERTEX
  5
D5
330
D0
100
AcDbEntity
  8
_U+30EC_U+30A4_U+30E4_U+30FC 1
370
     0
100
AcDbVertex
100
AcDb2dVertex
 10
107.7660318741002
 20
-112.7018201758176
 30
0.0
  0
SEQEND
  5
D6
330
D0
100
AcDbEntity
  8
_U+30EC_U+30A4_U+30E4_U+30FC 1
370
     0
  0
POLYLINE
  5
D7
330
8A
100
AcDbEntity
  8
_U+30EC_U+30A4_U+30E4_U+30FC 1
370
     0
100
AcDb2dPolyline
 66
     1
 10
0.0
 20
0.0
 30
0.0
  0
VERTEX
  5
D8
330
D7
100
AcDbEntity
  8
_U+30EC_U+30A4_U+30E4_U+30FC 1
370
     0
100
AcDbVertex
100
AcDb2dVertex
 10
107.7660318741002
 20
-113.0530476605388
 30
0.0
  0
VERTEX
  5
D9
330
D7
100
AcDbEntity
  8
_U+30EC_U+30A4_U+30E4_U+30FC 1
370
     0
100
AcDbVertex
100
AcDb2dVertex
 10
107.2823404679711
 20
-113.0530476605388
 30
0.0
  0
VERTEX
  5
DA
330
D7
100
AcDbEntity
  8
_U+30EC_U+30A4_U+30E4_U+30FC 1
370
     0
100
AcDbVertex
100
AcDb2dVertex
 10
107.2823404679711
 20
-113.252001924812
 30
0.0
  0
VERTEX
  5
DB
330
D7
100
AcDbEntity
  8
_U+30EC_U+30A4_U+30E4_U+30FC 1
370
     0
100
AcDbVertex
100
AcDb2dVertex
 10
107.7660318741002
 20
-113.252001924812
 30
0.0
  0
VERTEX
  5
DC
330
D7
100
AcDbEntity
  8
_U+30EC_U+30A4_U+30E4_U+30FC 1
370
     0
100
AcDbVertex
100
AcDb2dVertex
 10
107.7660318741002
 20
-113.0530476605388
 30
0.0
  0
SEQEND
  5
DD
330
D7
100
AcDbEntity
  8
_U+30EC_U+30A4_U+30E4_U+30FC 1
370
     0
  0
POLYLINE
  5
DE
330
8A
100
AcDbEntity
  8
_U+30EC_U+30A4_U+30E4_U+30FC 1
370
     0
100
AcDb2dPolyline
 66
     1
 10
0.0
 20
0.0
 30
0.0
  0
VERTEX
  5
DF
330
DE
100
AcDbEntity
  8
_U+30EC_U+30A4_U+30E4_U+30FC 1
370
     0
100
AcDbVertex
100
AcDb2dVertex
 10
108.2586805284909
 20
-112.3507649458707
 30
0.0
  0
VERTEX
  5
E0
330
DE
100
AcDbEntity
  8
_U+30EC_U+30A4_U+30E4_U+30FC 1
370
     0
100
AcDbVertex
100
AcDb2dVertex
 10
107.9651583931476
 20
-112.3507649458707
 30
0.0
  0
VERTEX
  5
E1
330
DE
100
AcDbEntity
  8
_U+30EC_U+30A4_U+30E4_U+30FC 1
370
     0
100
AcDbVertex
100
AcDb2dVertex
 10
107.9651583931476
 20
-113.252001924812
 30
0.0
  0
VERTEX
  5
E2
330
DE
100
AcDbEntity
  8
_U+30EC_U+30A4_U+30E4_U+30FC 1
370
     0
100
AcDbVertex
100
AcDb2dVertex
 10
108.2586805284909
 20
-113.252001924812
 30
0.0
  0
VERTEX
  5
E3
330
DE
100
AcDbEntity
  8
_U+30EC_U+30A4_U+30E4_U+30FC 1
370
     0
100
AcDbVertex
100
AcDb2dVertex
 10
108.2586805284909
 20
-112.3507649458707
 30
0.0
  0
SEQEND
  5
E4
330
DE
100
AcDbEntity
  8
_U+30EC_U+30A4_U+30E4_U+30FC 1
370
     0
  0
HATCH
  5
E5
330
8A
100
AcDbEntity
  8
_U+30EC_U+30A4_U+30E4_U+30FC 1
 62
   179
420
  2234388
100
AcDbHatch
 10
0.0
 20
0.0
 30
0.0
210
0.0
220
0.0
230
1.0
  2
SOLID
 70
     1
 71
     0
 91
        6
 92
        1
 93
        1
 72
     4
 94
        3
 73
     0
 74
     1
 95
       89
 96
       85
 40
0.0
 40
0.0
 40
0.0
 40
0.0
 40
1.0
 40
1.0
 40
1.0
 40
2.0
 40
2.0
 40
2.0
 40
3.0
 40
3.0
 40
3.0
 40
4.0
 40
4.0
 40
4.0
 40
5.0
 40
5.0
 40
5.0
 40
6.0
 40
6.0
 40
6.0
 40
7.0
 40
7.0
 40
7.0
 40
8.0
 40
8.0
 40
8.0
 40
9.0
 40
9.0
 40
9.0
 40
10.0
 40
10.0
 40
10.0
 40
11.0
 40
11.0
 40
11.0
 40
12.0
 40
12.0
 40
12.0
 40
13.0
 40
13.0
 40
13.0
 40
14.0
 40
14.0
 40
14.0
 40
15.0
 40
15.0
 40
15.0
 40
16.0
 40
16.0
 40
16.0
 40
17.0
 40
17.0
 40
17.0
 40
18.0
 40
18.0
 40
18.0
 40
19.0
 40
19.0
 40
19.0
 40
20.0
 40
20.0
 40
20.0
 40
21.0
 40
21.0
 40
21.0
 40
22.0
 40
22.0
 40
22.0
 40
23.0
 40
23.0
 40
23.0
 40
24.0
 40
24.0
 40
24.0
 40
25.0
 40
25.0
 40
25.0
 40
26.0
 40
26.0
 40
26.0
 40
27.0
 40
27.0
 40
27.0
 40
28.0
 40
28.0
 40
28.0
 40
28.0
 10
107.8204643827671
 20
-111.9001464564
 10
107.8204643827671
 20
-111.9001464564
 10
107.6506211753443
 20
-111.9001464564
 10
107.6506211753443
 20
-111.9001464564
 10
107.6213378637197
 20
-112.0100450023794
 10
107.6165147300403
 20
-112.0291652823226
 10
107.5534694826602
 20
-112.1814385027706
 10
107.5534694826602
 20
-112.1814385027706
 10
107.8087510581173
 20
-112.1814385027706
 10
107.8087510581173
 20
-112.1814385027706
 10
107.867662190915
 20
-112.1814385027706
 10
108.1188096517897
 20
-112.1750650761229
 10
108.1684190267773
 20
-112.1750650761229
 10
108.3468749729133
 20
-112.1709309615406
 10
108.412331787133
 20
-112.1645575348929
 10
108.4736544867705
 20
-112.1581841082452
 10
108.4667642958
 20
-112.2450005144735
 10
108.4622856716692
 20
-112.5411064714307
 10
108.4622856716692
 20
-112.6404974761802
 10
108.4622856716692
 20
-112.6404974761802
 10
108.4622856716692
 20
-113.0847425390031
 10
108.4622856716692
 20
-113.0847425390031
 10
108.4622856716692
 20
-113.1123033028851
 10
108.4646972385088
 20
-113.2137613649257
 10
108.4688313530911
 20
-113.2921372872152
 10
108.4757215440616
 20
-113.4084092598423
 10
108.4846787923233
 20
-113.5289876018261
 10
108.4870903591629
 20
-113.564988849647
 10
108.4870903591629
 20
-113.564988849647
 10
108.2338758409971
 20
-113.564988849647
 10
108.2338758409971
 20
-113.564988849647
 10
108.2428330892587
 20
-113.5269205445349
 10
108.2517903375204
 20
-113.4655978448975
 10
108.2566134711997
 20
-113.4232231704289
 10
108.2566134711997
 20
-113.4232231704289
 10
106.8007161191332
 20
-113.4232231704289
 10
106.8007161191332
 20
-113.4232231704289
 10
106.8027831764243
 20
-113.4824788127752
 10
106.8027831764243
 20
-113.4888522394229
 10
106.8096733673948
 20
-113.5629217923558
 10
106.8096733673948
 20
-113.5629217923558
 10
106.5836751035624
 20
-113.5629217923558
 10
106.5836751035624
 20
-113.5629217923558
 10
106.6036566573769
 20
-113.4127156291989
 10
106.6060682242165
 20
-113.2878309178586
 10
106.6060682242165
 20
-113.0869818510685
 10
106.6060682242165
 20
-113.0869818510685
 10
106.6060682242165
 20
-112.714567029113
 10
106.6060682242165
 20
-112.714567029113
 10
106.6060682242165
 20
-112.5791747765427
 10
106.5971109759549
 20
-112.2808295075201
 10
106.5905652945329
 20
-112.1645575348929
 10
106.7890027944833
 20
-112.1773043881883
 10
107.1100856937086
 20
-112.1814385027706
 10
107.3181694610177
 20
-112.1814385027706
 10
107.3612331545833
 20
-112.0968614086077
 10
107.4063639054401
 20
-111.9826564932717
 10
107.4246229115119
 20
-111.9001464564
 10
107.4246229115119
 20
-111.9001464564
 10
107.2051703291015
 20
-111.9001464564
 10
107.2051703291015
 20
-111.9001464564
 10
106.942998562674
 20
-111.9001464564
 10
106.7462836104662
 20
-111.9001464564
 10
106.5337212190263
 20
-111.9297742775731
 10
106.5337212190263
 20
-111.9297742775731
 10
106.5337212190263
 20
-111.7203124720699
 10
106.5337212190263
 20
-111.7203124720699
 10
106.653610541913
 20
-111.7371934399476
 10
107.1803656416077
 20
-111.7392604972388
 10
107.225840902013
 20
-111.7392604972388
 10
107.225840902013
 20
-111.7392604972388
 10
107.8270100641891
 20
-111.7392604972388
 10
107.8270100641891
 20
-111.7392604972388
 10
107.8835096301472
 20
-111.7392604972388
 10
108.315180094449
 20
-111.7330593253653
 10
108.3923502333186
 20
-111.7308200132999
 10
108.452983913859
 20
-111.7287529560088
 10
108.4826117350321
 20
-111.7244465866522
 10
108.5322211100197
 20
-111.7182454147788
 10
108.5322211100197
 20
-111.7182454147788
 10
108.5322211100197
 20
-111.9170274242777
 10
108.5322211100197
 20
-111.9170274242777
 10
108.3110459798667
 20
-111.9022135136911
 10
107.8359673124507
 20
-111.9001464564
 10
107.8204643827671
 20
-111.9001464564
 97
        0
 97
        0
 92
        1
 93
        4
 72
     1
 10
107.0942382544765
 20
-112.3507649458707
 11
106.8007161191332
 21
-112.3507649458707
 72
     1
 10
106.8007161191332
 20
-112.3507649458707
 11
106.8007161191332
 21
-113.252001924812
 72
     1
 10
106.8007161191332
 20
-113.252001924812
 11
107.0942382544765
 21
-113.252001924812
 72
     1
 10
107.0942382544765
 20
-113.252001924812
 11
107.0942382544765
 21
-112.3507649458707
 97
        0
 92
        1
 93
        4
 72
     1
 10
107.7660318741002
 20
-112.3507649458707
 11
107.2823404679711
 21
-112.3507649458707
 72
     1
 10
107.2823404679711
 20
-112.3507649458707
 11
107.2823404679711
 21
-112.5411064714307
 72
     1
 10
107.2823404679711
 20
-112.5411064714307
 11
107.7660318741002
 21
-112.5411064714307
 72
     1
 10
107.7660318741002
 20
-112.5411064714307
 11
107.7660318741002
 21
-112.3507649458707
 97
        0
 92
        1
 93
        4
 72
     1
 10
107.7660318741002
 20
-112.7018201758176
 11
107.2823404679711
 21
-112.7018201758176
 72
     1
 10
107.2823404679711
 20
-112.7018201758176
 11
107.2823404679711
 21
-112.8923339561519
 72
     1
 10
107.2823404679711
 20
-112.8923339561519
 11
107.7660318741002
 21
-112.8923339561519
 72
     1
 10
107.7660318741002
 20
-112.8923339561519
 11
107.7660318741002
 21
-112.7018201758176
 97
        0
 92
        1
 93
        4
 72
     1
 10
107.7660318741002
 20
-113.0530476605388
 11
107.2823404679711
 21
-113.0530476605388
 72
     1
 10
107.2823404679711
 20
-113.0530476605388
 11
107.2823404679711
 21
-113.252001924812
 72
     1
 10
107.2823404679711
 20
-113.252001924812
 11
107.7660318741002
 21
-113.252001924812
 72
     1
 10
107.7660318741002
 20
-113.252001924812
 11
107.7660318741002
 21
-113.0530476605388
 97
        0
 92
        1
 93
        4
 72
     1
 10
108.2586805284909
 20
-112.3507649458707
 11
107.9651583931476
 21
-112.3507649458707
 72
     1
 10
107.9651583931476
 20
-112.3507649458707
 11
107.9651583931476
 21
-113.252001924812
 72
     1
 10
107.9651583931476
 20
-113.252001924812
 11
108.2586805284909
 21
-113.252001924812
 72
     1
 10
108.2586805284909
 20
-113.252001924812
 11
108.2586805284909
 21
-112.3507649458707
 97
        0
 75
     2
 76
     1
 98
        0
  0
SPLINE
  5
E6
330
8A
100
AcDbEntity
  8
_U+30EC_U+30A4_U+30E4_U+30FC 1
370
     0
100
AcDbSpline
210
0.0
220
0.0
230
1.0
 70
    11
 71
     3
 72
    47
 73
    43
 74
     0
 42
0.0000000001
 43
0.0000000001
 12
1.0
 22
0.0
 32
0.0
 13
1.0
 23
0.0
 33
0.0
 40
0.0
 40
0.0
 40
0.0
 40
0.0
 40
1.0
 40
1.0
 40
1.0
 40
2.0
 40
2.0
 40
2.0
 40
3.0
 40
3.0
 40
3.0
 40
4.0
 40
4.0
 40
4.0
 40
5.0
 40
5.0
 40
5.0
 40
6.0
 40
6.0
 40
6.0
 40
7.0
 40
7.0
 40
7.0
 40
8.0
 40
8.0
 40
8.0
 40
9.0
 40
9.0
 40
9.0
 40
10.0
 40
10.0
 40
10.0
 40
11.0
 40
11.0
 40
11.0
 40
12.0
 40
12.0
 40
12.0
 40
13.0
 40
13.0
 40
13.0
 40
14.0
 40
14.0
 40
14.0
 40
14.0
 10
109.9853623856981
 20
-112.5431735287219
 30
0.0
 10
109.9853623856981
 20
-112.5431735287219
 30
0.0
 10
109.8764973683642
 20
-112.5431735287219
 30
0.0
 10
109.8764973683642
 20
-112.5431735287219
 30
0.0
 10
109.8764973683642
 20
-112.6299899349501
 30
0.0
 10
109.8541042477101
 20
-113.0192857247834
 30
0.0
 10
109.6436089135613
 20
-113.2392550715166
 30
0.0
 10
109.4810004066575
 20
-113.4084092598423
 30
0.0
 10
109.259480766956
 20
-113.4783446981929
 30
0.0
 10
109.1688747556939
 20
-113.5057332073007
 30
0.0
 10
109.1688747556939
 20
-113.5057332073007
 30
0.0
 10
108.9607909883848
 20
-113.338646076266
 30
0.0
 10
108.9607909883848
 20
-113.338646076266
 30
0.0
 10
109.0648328720393
 20
-113.3258992229706
 30
0.0
 10
109.2525905759855
 20
-113.3026448284452
 30
0.0
 10
109.4541286618726
 20
-113.1143703601763
 30
0.0
 10
109.5330213484848
 20
-113.0425401193088
 30
0.0
 10
109.6436089135613
 20
-112.9028414973819
 30
0.0
 10
109.6436089135613
 20
-112.5431735287219
 30
0.0
 10
109.6436089135613
 20
-112.5431735287219
 30
0.0
 10
109.397284586366
 20
-112.5431735287219
 30
0.0
 10
109.397284586366
 20
-112.5431735287219
 30
0.0
 10
109.198502576867
 20
-112.5431735287219
 30
0.0
 10
108.9993760578196
 20
-112.5474798980784
 30
0.0
 10
108.8002495387722
 20
-112.562293808665
 30
0.0
 10
108.8002495387722
 20
-112.562293808665
 30
0.0
 10
108.8002495387722
 20
-112.3423244619318
 30
0.0
 10
108.8002495387722
 20
-112.3423244619318
 30
0.0
 10
109.0014431151108
 20
-112.3571383725184
 30
0.0
 10
109.3066785751039
 20
-112.3612724871007
 30
0.0
 10
109.397284586366
 20
-112.3612724871007
 30
0.0
 10
109.397284586366
 20
-112.3612724871007
 30
0.0
 10
109.9853623856981
 20
-112.3612724871007
 30
0.0
 10
109.9853623856981
 20
-112.3612724871007
 30
0.0
 10
110.0053439395126
 20
-112.3612724871007
 30
0.0
 10
110.3446858448097
 20
-112.3612724871007
 30
0.0
 10
110.5889431147139
 20
-112.3423244619318
 30
0.0
 10
110.5889431147139
 20
-112.3423244619318
 30
0.0
 10
110.5889431147139
 20
-112.562293808665
 30
0.0
 10
110.5889431147139
 20
-112.562293808665
 30
0.0
 10
110.3877495383753
 20
-112.5474798980784
 30
0.0
 10
110.1865559620367
 20
-112.5431735287219
 30
0.0
 10
109.9853623856981
 20
-112.5431735287219
 30
0.0
  0
SPLINE
  5
E7
330
8A
100
AcDbEntity
  8
_U+30EC_U+30A4_U+30E4_U+30FC 1
370
     0
100
AcDbSpline
210
0.0
220
0.0
230
1.0
 70
    11
 71
     3
 72
    29
 73
    25
 74
     0
 42
0.0000000001
 43
0.0000000001
 12
1.0
 22
0.0
 32
0.0
 13
1.0
 23
0.0
 33
0.0
 40
0.0
 40
0.0
 40
0.0
 40
0.0
 40
1.0
 40
1.0
 40
1.0
 40
2.0
 40
2.0
 40
2.0
 40
3.0
 40
3.0
 40
3.0
 40
4.0
 40
4.0
 40
4.0
 40
5.0
 40
5.0
 40
5.0
 40
6.0
 40
6.0
 40
6.0
 40
7.0
 40
7.0
 40
7.0
 40
8.0
 40
8.0
 40
8.0
 40
8.0
 10
109.8764973683642
 20
-112.014351371736
 30
0.0
 10
109.8764973683642
 20
-112.014351371736
 30
0.0
 10
109.4989149031808
 20
-112.014351371736
 30
0.0
 10
109.4989149031808
 20
-112.014351371736
 30
0.0
 10
109.3790255802941
 20
-112.014351371736
 30
0.0
 10
109.2301974553313
 20
-112.0207247983837
 30
0.0
 10
109.1147867565755
 20
-112.0334716516791
 30
0.0
 10
109.1147867565755
 20
-112.0334716516791
 30
0.0
 10
109.1147867565755
 20
-111.7985161395851
 30
0.0
 10
109.1147867565755
 20
-111.7985161395851
 30
0.0
 10
109.2412217608841
 20
-111.8133300501717
 30
0.0
 10
109.4382812226404
 20
-111.8176364195282
 30
0.0
 10
109.4989149031808
 20
-111.8176364195282
 30
0.0
 10
109.4989149031808
 20
-111.8176364195282
 30
0.0
 10
109.8764973683642
 20
-111.8176364195282
 30
0.0
 10
109.8764973683642
 20
-111.8176364195282
 30
0.0
 10
109.8971679412757
 20
-111.8176364195282
 30
0.0
 10
110.1142089568465
 20
-111.8176364195282
 30
0.0
 10
110.2654486486489
 20
-111.7985161395851
 30
0.0
 10
110.2654486486489
 20
-111.7985161395851
 30
0.0
 10
110.2654486486489
 20
-112.0334716516791
 30
0.0
 10
110.2654486486489
 20
-112.0334716516791
 30
0.0
 10
110.0983615176143
 20
-112.014351371736
 30
0.0
 10
109.894756374436
 20
-112.014351371736
 30
0.0
 10
109.8764973683642
 20
-112.014351371736
 30
0.0
  0
HATCH
  5
E8
330
8A
100
AcDbEntity
  8
_U+30EC_U+30A4_U+30E4_U+30FC 1
 62
   179
420
  2234388
100
AcDbHatch
 10
0.0
 20
0.0
 30
0.0
210
0.0
220
0.0
230
1.0
  2
SOLID
 70
     1
 71
     0
 91
        2
 92
        1
 93
        1
 72
     4
 94
        3
 73
     0
 74
     1
 95
       47
 96
       43
 40
0.0
 40
0.0
 40
0.0
 40
0.0
 40
1.0
 40
1.0
 40
1.0
 40
2.0
 40
2.0
 40
2.0
 40
3.0
 40
3.0
 40
3.0
 40
4.0
 40
4.0
 40
4.0
 40
5.0
 40
5.0
 40
5.0
 40
6.0
 40
6.0
 40
6.0
 40
7.0
 40
7.0
 40
7.0
 40
8.0
 40
8.0
 40
8.0
 40
9.0
 40
9.0
 40
9.0
 40
10.0
 40
10.0
 40
10.0
 40
11.0
 40
11.0
 40
11.0
 40
12.0
 40
12.0
 40
12.0
 40
13.0
 40
13.0
 40
13.0
 40
14.0
 40
14.0
 40
14.0
 40
14.0
 10
109.9853623856981
 20
-112.5431735287219
 10
109.9853623856981
 20
-112.5431735287219
 10
109.8764973683642
 20
-112.5431735287219
 10
109.8764973683642
 20
-112.5431735287219
 10
109.8764973683642
 20
-112.6299899349501
 10
109.8541042477101
 20
-113.0192857247834
 10
109.6436089135613
 20
-113.2392550715166
 10
109.4810004066575
 20
-113.4084092598423
 10
109.259480766956
 20
-113.4783446981929
 10
109.1688747556939
 20
-113.5057332073007
 10
109.1688747556939
 20
-113.5057332073007
 10
108.9607909883848
 20
-113.338646076266
 10
108.9607909883848
 20
-113.338646076266
 10
109.0648328720393
 20
-113.3258992229706
 10
109.2525905759855
 20
-113.3026448284452
 10
109.4541286618726
 20
-113.1143703601763
 10
109.5330213484848
 20
-113.0425401193088
 10
109.6436089135613
 20
-112.9028414973819
 10
109.6436089135613
 20
-112.5431735287219
 10
109.6436089135613
 20
-112.5431735287219
 10
109.397284586366
 20
-112.5431735287219
 10
109.397284586366
 20
-112.5431735287219
 10
109.198502576867
 20
-112.5431735287219
 10
108.9993760578196
 20
-112.5474798980784
 10
108.8002495387722
 20
-112.562293808665
 10
108.8002495387722
 20
-112.562293808665
 10
108.8002495387722
 20
-112.3423244619318
 10
108.8002495387722
 20
-112.3423244619318
 10
109.0014431151108
 20
-112.3571383725184
 10
109.3066785751039
 20
-112.3612724871007
 10
109.397284586366
 20
-112.3612724871007
 10
109.397284586366
 20
-112.3612724871007
 10
109.9853623856981
 20
-112.3612724871007
 10
109.9853623856981
 20
-112.3612724871007
 10
110.0053439395126
 20
-112.3612724871007
 10
110.3446858448097
 20
-112.3612724871007
 10
110.5889431147139
 20
-112.3423244619318
 10
110.5889431147139
 20
-112.3423244619318
 10
110.5889431147139
 20
-112.562293808665
 10
110.5889431147139
 20
-112.562293808665
 10
110.3877495383753
 20
-112.5474798980784
 10
110.1865559620367
 20
-112.5431735287219
 10
109.9853623856981
 20
-112.5431735287219
 97
        0
 97
        0
 92
        1
 93
        1
 72
     4
 94
        3
 73
     0
 74
     1
 95
       29
 96
       25
 40
0.0
 40
0.0
 40
0.0
 40
0.0
 40
1.0
 40
1.0
 40
1.0
 40
2.0
 40
2.0
 40
2.0
 40
3.0
 40
3.0
 40
3.0
 40
4.0
 40
4.0
 40
4.0
 40
5.0
 40
5.0
 40
5.0
 40
6.0
 40
6.0
 40
6.0
 40
7.0
 40
7.0
 40
7.0
 40
8.0
 40
8.0
 40
8.0
 40
8.0
 10
109.8764973683642
 20
-112.014351371736
 10
109.8764973683642
 20
-112.014351371736
 10
109.4989149031808
 20
-112.014351371736
 10
109.4989149031808
 20
-112.014351371736
 10
109.3790255802941
 20
-112.014351371736
 10
109.2301974553313
 20
-112.0207247983837
 10
109.1147867565755
 20
-112.0334716516791
 10
109.1147867565755
 20
-112.0334716516791
 10
109.1147867565755
 20
-111.7985161395851
 10
109.1147867565755
 20
-111.7985161395851
 10
109.2412217608841
 20
-111.8133300501717
 10
109.4382812226404
 20
-111.8176364195282
 10
109.4989149031808
 20
-111.8176364195282
 10
109.4989149031808
 20
-111.8176364195282
 10
109.8764973683642
 20
-111.8176364195282
 10
109.8764973683642
 20
-111.8176364195282
 10
109.8971679412757
 20
-111.8176364195282
 10
110.1142089568465
 20
-111.8176364195282
 10
110.2654486486489
 20
-111.7985161395851
 10
110.2654486486489
 20
-111.7985161395851
 10
110.2654486486489
 20
-112.0334716516791
 10
110.2654486486489
 20
-112.0334716516791
 10
110.0983615176143
 20
-112.014351371736
 10
109.894756374436
 20
-112.014351371736
 10
109.8764973683642
 20
-112.014351371736
 97
        0
 97
        0
 75
     2
 76
     1
 98
        0
  0
SPLINE
  5
E9
330
8A
100
AcDbEntity
  8
_U+30EC_U+30A4_U+30E4_U+30FC 1
370
     0
100
AcDbSpline
210
0.0
220
0.0
230
1.0
 70
    11
 71
     3
 72
    29
 73
    25
 74
     0
 42
0.0000000001
 43
0.0000000001
 12
1.0
 22
0.0
 32
0.0
 13
1.0
 23
0.0
 33
0.0
 40
0.0
 40
0.0
 40
0.0
 40
0.0
 40
1.0
 40
1.0
 40
1.0
 40
2.0
 40
2.0
 40
2.0
 40
3.0
 40
3.0
 40
3.0
 40
4.0
 40
4.0
 40
4.0
 40
5.0
 40
5.0
 40
5.0
 40
6.0
 40
6.0
 40
6.0
 40
7.0
 40
7.0
 40
7.0
 40
8.0
 40
8.0
 40
8.0
 40
8.0
 10
111.9580240605522
 20
-112.7061265451742
 30
0.0
 10
111.9580240605522
 20
-112.7061265451742
 30
0.0
 10
111.4402262091191
 20
-112.7061265451742
 30
0.0
 10
111.4402262091191
 20
-112.7061265451742
 30
0.0
 10
111.4109428974945
 20
-112.7061265451742
 30
0.0
 10
111.0719455017459
 20
-112.7061265451742
 30
0.0
 10
110.845602728365
 20
-112.7314479969908
 30
0.0
 10
110.845602728365
 20
-112.7314479969908
 30
0.0
 10
110.845602728365
 20
-112.5009711090275
 30
0.0
 10
110.845602728365
 20
-112.5009711090275
 30
0.0
 10
111.0151014262393
 20
-112.524225503553
 30
0.0
 10
111.2187065694175
 20
-112.5262925608441
 30
0.0
 10
111.4402262091191
 20
-112.5262925608441
 30
0.0
 10
111.4402262091191
 20
-112.5262925608441
 30
0.0
 10
111.9580240605522
 20
-112.5262925608441
 30
0.0
 10
111.9580240605522
 20
-112.5262925608441
 30
0.0
 10
112.1571505795996
 20
-112.5262925608441
 30
0.0
 10
112.35558807955
 20
-112.524225503553
 30
0.0
 10
112.5526475413063
 20
-112.5009711090275
 30
0.0
 10
112.5526475413063
 20
-112.5009711090275
 30
0.0
 10
112.5526475413063
 20
-112.7314479969908
 30
0.0
 10
112.5526475413063
 20
-112.7314479969908
 30
0.0
 10
112.35558807955
 20
-112.7081936024653
 30
0.0
 10
112.0913492558313
 20
-112.7061265451742
 30
0.0
 10
111.9580240605522
 20
-112.7061265451742
 30
0.0
  0
HATCH
  5
EA
330
8A
100
AcDbEntity
  8
_U+30EC_U+30A4_U+30E4_U+30FC 1
 62
   179
420
  2234388
100
AcDbHatch
 10
0.0
 20
0.0
 30
0.0
210
0.0
220
0.0
230
1.0
  2
SOLID
 70
     1
 71
     0
 91
        1
 92
        1
 93
        1
 72
     4
 94
        3
 73
     0
 74
     1
 95
       29
 96
       25
 40
0.0
 40
0.0
 40
0.0
 40
0.0
 40
1.0
 40
1.0
 40
1.0
 40
2.0
 40
2.0
 40
2.0
 40
3.0
 40
3.0
 40
3.0
 40
4.0
 40
4.0
 40
4.0
 40
5.0
 40
5.0
 40
5.0
 40
6.0
 40
6.0
 40
6.0
 40
7.0
 40
7.0
 40
7.0
 40
8.0
 40
8.0
 40
8.0
 40
8.0
 10
111.9580240605522
 20
-112.7061265451742
 10
111.9580240605522
 20
-112.7061265451742
 10
111.4402262091191
 20
-112.7061265451742
 10
111.4402262091191
 20
-112.7061265451742
 10
111.4109428974945
 20
-112.7061265451742
 10
111.0719455017459
 20
-112.7061265451742
 10
110.845602728365
 20
-112.7314479969908
 10
110.845602728365
 20
-112.7314479969908
 10
110.845602728365
 20
-112.5009711090275
 10
110.845602728365
 20
-112.5009711090275
 10
111.0151014262393
 20
-112.524225503553
 10
111.2187065694175
 20
-112.5262925608441
 10
111.4402262091191
 20
-112.5262925608441
 10
111.4402262091191
 20
-112.5262925608441
 10
111.9580240605522
 20
-112.5262925608441
 10
111.9580240605522
 20
-112.5262925608441
 10
112.1571505795996
 20
-112.5262925608441
 10
112.35558807955
 20
-112.524225503553
 10
112.5526475413063
 20
-112.5009711090275
 10
112.5526475413063
 20
-112.5009711090275
 10
112.5526475413063
 20
-112.7314479969908
 10
112.5526475413063
 20
-112.7314479969908
 10
112.35558807955
 20
-112.7081936024653
 10
112.0913492558313
 20
-112.7061265451742
 10
111.9580240605522
 20
-112.7061265451742
 97
        0
 97
        0
 75
     2
 76
     1
 98
        0
  0
SPLINE
  5
EB
330
8A
100
AcDbEntity
  8
_U+30EC_U+30A4_U+30E4_U+30FC 1
370
     0
100
AcDbSpline
210
0.0
220
0.0
230
1.0
 70
    11
 71
     3
 72
    44
 73
    40
 74
     0
 42
0.0000000001
 43
0.0000000001
 12
1.0
 22
0.0
 32
0.0
 13
1.0
 23
0.0
 33
0.0
 40
0.0
 40
0.0
 40
0.0
 40
0.0
 40
1.0
 40
1.0
 40
1.0
 40
2.0
 40
2.0
 40
2.0
 40
3.0
 40
3.0
 40
3.0
 40
4.0
 40
4.0
 40
4.0
 40
5.0
 40
5.0
 40
5.0
 40
6.0
 40
6.0
 40
6.0
 40
7.0
 40
7.0
 40
7.0
 40
8.0
 40
8.0
 40
8.0
 40
9.0
 40
9.0
 40
9.0
 40
10.0
 40
10.0
 40
10.0
 40
11.0
 40
11.0
 40
11.0
 40
12.0
 40
12.0
 40
12.0
 40
13.0
 40
13.0
 40
13.0
 40
13.0
 10
114.3213595634336
 20
-112.2682549089989
 30
0.0
 10
114.2018147500954
 20
-112.6363633615979
 30
0.0
 10
114.147726750977
 20
-112.7950100086936
 30
0.0
 10
113.9372314168282
 20
-113.0446071766
 30
0.0
 10
113.7405164646204
 20
-113.2752563193374
 30
0.0
 10
113.4873019464546
 20
-113.4612914755409
 30
0.0
 10
113.1889566774319
 20
-113.5544813084169
 30
0.0
 10
113.1889566774319
 20
-113.5544813084169
 30
0.0
 10
112.9832844769625
 20
-113.3746473240869
 30
0.0
 10
112.9832844769625
 20
-113.3746473240869
 30
0.0
 10
113.6681694594302
 20
-113.2223741036389
 30
0.0
 10
114.0209472371198
 20
-112.665991182771
 30
0.0
 10
114.0884711086307
 20
-112.2258802345303
 30
0.0
 10
114.0884711086307
 20
-112.2258802345303
 30
0.0
 10
113.2702609308838
 20
-112.2258802345303
 30
0.0
 10
113.2702609308838
 20
-112.2258802345303
 30
0.0
 10
113.1706976713601
 20
-112.2258802345303
 30
0.0
 10
112.9743272287009
 20
-112.2301866038869
 30
0.0
 10
112.8068955881177
 20
-112.2491346290558
 30
0.0
 10
112.8068955881177
 20
-112.2491346290558
 30
0.0
 10
112.8068955881177
 20
-112.0291652823226
 30
0.0
 10
112.8068955881177
 20
-112.0291652823226
 30
0.0
 10
112.899568656671
 20
-112.0503526195569
 30
0.0
 10
113.168630614069
 20
-112.0503526195569
 30
0.0
 10
113.2747395550146
 20
-112.0503526195569
 30
0.0
 10
113.2747395550146
 20
-112.0503526195569
 30
0.0
 10
113.7360378404896
 20
-112.0503526195569
 30
0.0
 10
113.7360378404896
 20
-112.0503526195569
 30
0.0
 10
113.7811685913464
 20
-112.0503526195569
 30
0.0
 10
114.0319715426726
 20
-112.0481133074914
 30
0.0
 10
114.072968178947
 20
-112.041912135618
 30
0.0
 10
114.1180989298038
 20
-112.0355387089703
 30
0.0
 10
114.120165987095
 20
-112.0334716516791
 30
0.0
 10
114.1859673108632
 20
-111.9931640345017
 30
0.0
 10
114.1859673108632
 20
-111.9931640345017
 30
0.0
 10
114.3871608872018
 20
-112.1476765670152
 30
0.0
 10
114.3871608872018
 20
-112.1476765670152
 30
0.0
 10
114.3554660087375
 20
-112.1773043881883
 30
0.0
 10
114.3396185695054
 20
-112.2089992666526
 30
0.0
 10
114.3213595634336
 20
-112.2682549089989
 30
0.0
  0
SPLINE
  5
EC
330
8A
100
AcDbEntity
  8
_U+30EC_U+30A4_U+30E4_U+30FC 1
370
     0
100
AcDbSpline
210
0.0
220
0.0
230
1.0
 70
    11
 71
     3
 72
    17
 73
    13
 74
     0
 42
0.0000000001
 43
0.0000000001
 12
1.0
 22
0.0
 32
0.0
 13
1.0
 23
0.0
 33
0.0
 40
0.0
 40
0.0
 40
0.0
 40
0.0
 40
1.0
 40
1.0
 40
1.0
 40
2.0
 40
2.0
 40
2.0
 40
3.0
 40
3.0
 40
3.0
 40
4.0
 40
4.0
 40
4.0
 40
4.0
 10
114.5452907699748
 20
-112.0693006447257
 30
0.0
 10
114.4095540078559
 20
-112.0693006447257
 30
0.0
 10
114.3013780096191
 20
-111.9678425826851
 30
0.0
 10
114.3013780096191
 20
-111.8408908140537
 30
0.0
 10
114.3013780096191
 20
-111.7139390454222
 30
0.0
 10
114.4095540078559
 20
-111.6102416713162
 30
0.0
 10
114.5452907699748
 20
-111.6102416713162
 30
0.0
 10
114.6810275320936
 20
-111.6102416713162
 30
0.0
 10
114.7919596067187
 20
-111.7139390454222
 30
0.0
 10
114.7919596067187
 20
-111.8408908140537
 30
0.0
 10
114.7919596067187
 20
-111.9678425826851
 30
0.0
 10
114.6810275320936
 20
-112.0693006447257
 30
0.0
 10
114.5452907699748
 20
-112.0693006447257
 30
0.0
  0
SPLINE
  5
ED
330
8A
100
AcDbEntity
  8
_U+30EC_U+30A4_U+30E4_U+30FC 1
370
     0
100
AcDbSpline
210
0.0
220
0.0
230
1.0
 70
    11
 71
     3
 72
    17
 73
    13
 74
     0
 42
0.0000000001
 43
0.0000000001
 12
1.0
 22
0.0
 32
0.0
 13
1.0
 23
0.0
 33
0.0
 40
0.0
 40
0.0
 40
0.0
 40
0.0
 40
1.0
 40
1.0
 40
1.0
 40
2.0
 40
2.0
 40
2.0
 40
3.0
 40
3.0
 40
3.0
 40
4.0
 40
4.0
 40
4.0
 40
4.0
 10
114.5432237126836
 20
-111.7392604972388
 30
0.0
 10
114.4843125798859
 20
-111.7392604972388
 30
0.0
 10
114.437114771738
 20
-111.7837022289985
 30
0.0
 10
114.437114771738
 20
-111.8388237567625
 30
0.0
 10
114.437114771738
 20
-111.8958400870434
 30
0.0
 10
114.4843125798859
 20
-111.9445881881597
 30
0.0
 10
114.5477023368145
 20
-111.9445881881597
 30
0.0
 10
114.6107475841945
 20
-111.9445881881597
 30
0.0
 10
114.6541557873087
 20
-111.8937730297523
 30
0.0
 10
114.6541557873087
 20
-111.8408908140537
 30
0.0
 10
114.6541557873087
 20
-111.7837022289985
 30
0.0
 10
114.6042019027726
 20
-111.7392604972388
 30
0.0
 10
114.5432237126836
 20
-111.7392604972388
 30
0.0
  0
HATCH
  5
EE
330
8A
100
AcDbEntity
  8
_U+30EC_U+30A4_U+30E4_U+30FC 1
 62
   179
420
  2234388
100
AcDbHatch
 10
0.0
 20
0.0
 30
0.0
210
0.0
220
0.0
230
1.0
  2
SOLID
 70
     1
 71
     0
 91
        3
 92
        1
 93
        1
 72
     4
 94
        3
 73
     0
 74
     1
 95
       44
 96
       40
 40
0.0
 40
0.0
 40
0.0
 40
0.0
 40
1.0
 40
1.0
 40
1.0
 40
2.0
 40
2.0
 40
2.0
 40
3.0
 40
3.0
 40
3.0
 40
4.0
 40
4.0
 40
4.0
 40
5.0
 40
5.0
 40
5.0
 40
6.0
 40
6.0
 40
6.0
 40
7.0
 40
7.0
 40
7.0
 40
8.0
 40
8.0
 40
8.0
 40
9.0
 40
9.0
 40
9.0
 40
10.0
 40
10.0
 40
10.0
 40
11.0
 40
11.0
 40
11.0
 40
12.0
 40
12.0
 40
12.0
 40
13.0
 40
13.0
 40
13.0
 40
13.0
 10
114.3213595634336
 20
-112.2682549089989
 10
114.2018147500954
 20
-112.6363633615979
 10
114.147726750977
 20
-112.7950100086936
 10
113.9372314168282
 20
-113.0446071766
 10
113.7405164646204
 20
-113.2752563193374
 10
113.4873019464546
 20
-113.4612914755409
 10
113.1889566774319
 20
-113.5544813084169
 10
113.1889566774319
 20
-113.5544813084169
 10
112.9832844769625
 20
-113.3746473240869
 10
112.9832844769625
 20
-113.3746473240869
 10
113.6681694594302
 20
-113.2223741036389
 10
114.0209472371198
 20
-112.665991182771
 10
114.0884711086307
 20
-112.2258802345303
 10
114.0884711086307
 20
-112.2258802345303
 10
113.2702609308838
 20
-112.2258802345303
 10
113.2702609308838
 20
-112.2258802345303
 10
113.1706976713601
 20
-112.2258802345303
 10
112.9743272287009
 20
-112.2301866038869
 10
112.8068955881177
 20
-112.2491346290558
 10
112.8068955881177
 20
-112.2491346290558
 10
112.8068955881177
 20
-112.0291652823226
 10
112.8068955881177
 20
-112.0291652823226
 10
112.899568656671
 20
-112.0503526195569
 10
113.168630614069
 20
-112.0503526195569
 10
113.2747395550146
 20
-112.0503526195569
 10
113.2747395550146
 20
-112.0503526195569
 10
113.7360378404896
 20
-112.0503526195569
 10
113.7360378404896
 20
-112.0503526195569
 10
113.7811685913464
 20
-112.0503526195569
 10
114.0319715426726
 20
-112.0481133074914
 10
114.072968178947
 20
-112.041912135618
 10
114.1180989298038
 20
-112.0355387089703
 10
114.120165987095
 20
-112.0334716516791
 10
114.1859673108632
 20
-111.9931640345017
 10
114.1859673108632
 20
-111.9931640345017
 10
114.3871608872018
 20
-112.1476765670152
 10
114.3871608872018
 20
-112.1476765670152
 10
114.3554660087375
 20
-112.1773043881883
 10
114.3396185695054
 20
-112.2089992666526
 10
114.3213595634336
 20
-112.2682549089989
 97
        0
 97
        0
 92
        1
 93
        1
 72
     4
 94
        3
 73
     0
 74
     1
 95
       17
 96
       13
 40
0.0
 40
0.0
 40
0.0
 40
0.0
 40
1.0
 40
1.0
 40
1.0
 40
2.0
 40
2.0
 40
2.0
 40
3.0
 40
3.0
 40
3.0
 40
4.0
 40
4.0
 40
4.0
 40
4.0
 10
114.5452907699748
 20
-112.0693006447257
 10
114.4095540078559
 20
-112.0693006447257
 10
114.3013780096191
 20
-111.9678425826851
 10
114.3013780096191
 20
-111.8408908140537
 10
114.3013780096191
 20
-111.7139390454222
 10
114.4095540078559
 20
-111.6102416713162
 10
114.5452907699748
 20
-111.6102416713162
 10
114.6810275320936
 20
-111.6102416713162
 10
114.7919596067187
 20
-111.7139390454222
 10
114.7919596067187
 20
-111.8408908140537
 10
114.7919596067187
 20
-111.9678425826851
 10
114.6810275320936
 20
-112.0693006447257
 10
114.5452907699748
 20
-112.0693006447257
 97
        0
 97
        0
 92
        1
 93
        1
 72
     4
 94
        3
 73
     0
 74
     1
 95
       17
 96
       13
 40
0.0
 40
0.0
 40
0.0
 40
0.0
 40
1.0
 40
1.0
 40
1.0
 40
2.0
 40
2.0
 40
2.0
 40
3.0
 40
3.0
 40
3.0
 40
4.0
 40
4.0
 40
4.0
 40
4.0
 10
114.5432237126836
 20
-111.7392604972388
 10
114.4843125798859
 20
-111.7392604972388
 10
114.437114771738
 20
-111.7837022289985
 10
114.437114771738
 20
-111.8388237567625
 10
114.437114771738
 20
-111.8958400870434
 10
114.4843125798859
 20
-111.9445881881597
 10
114.5477023368145
 20
-111.9445881881597
 10
114.6107475841945
 20
-111.9445881881597
 10
114.6541557873087
 20
-111.8937730297523
 10
114.6541557873087
 20
-111.8408908140537
 10
114.6541557873087
 20
-111.7837022289985
 10
114.6042019027726
 20
-111.7392604972388
 10
114.5432237126836
 20
-111.7392604972388
 97
        0
 97
        0
 75
     2
 76
     1
 98
        0
  0
ENDBLK
  5
8D
330
8A
100
AcDbEntity
  8
0
100
AcDbBlockEnd
  0
BLOCK
  5
101
330
FF
100
AcDbEntity
  8
0
100
AcDbBlockBegin
  2
block 3
 70
     0
 10
0.0
 20
0.0
 30
0.0
  3
block 3
  1

  0
SPLINE
  5
103
330
FF
100
AcDbEntity
  8
_U+30EC_U+30A4_U+30E4_U+30FC 1
370
     0
100
AcDbSpline
210
0.0
220
0.0
230
1.0
 70
    11
 71
     3
 72
    53
 73
    49
 74
     0
 42
0.0000000001
 43
0.0000000001
 12
1.0
 22
0.0
 32
0.0
 13
1.0
 23
0.0
 33
0.0
 40
0.0
 40
0.0
 40
0.0
 40
0.0
 40
1.0
 40
1.0
 40
1.0
 40
2.0
 40
2.0
 40
2.0
 40
3.0
 40
3.0
 40
3.0
 40
4.0
 40
4.0
 40
4.0
 40
5.0
 40
5.0
 40
5.0
 40
6.0
 40
6.0
 40
6.0
 40
7.0
 40
7.0
 40
7.0
 40
8.0
 40
8.0
 40
8.0
 40
9.0
 40
9.0
 40
9.0
 40
10.0
 40
10.0
 40
10.0
 40
11.0
 40
11.0
 40
11.0
 40
12.0
 40
12.0
 40
12.0
 40
13.0
 40
13.0
 40
13.0
 40
14.0
 40
14.0
 40
14.0
 40
15.0
 40
15.0
 40
15.0
 40
16.0
 40
16.0
 40
16.0
 40
16.0
 10
74.89706486842852
 20
-140.3049587322849
 30
0.0
 10
74.8195502200104
 20
-140.2732638538206
 30
0.0
 10
74.72549911326307
 20
-140.216419778314
 30
0.0
 10
74.64901799349053
 20
-140.1168565187902
 30
0.0
 10
74.51879338414808
 20
-139.9446017445277
 30
0.0
 10
74.54773218622418
 20
-139.8147216447338
 30
0.0
 10
74.56943628778126
 20
-139.707234665594
 30
0.0
 10
74.56943628778126
 20
-139.707234665594
 30
0.0
 10
74.7892333797402
 20
-139.7971516577591
 30
0.0
 10
74.7892333797402
 20
-139.7971516577591
 30
0.0
 10
74.7685628068287
 20
-140.0035128773255
 30
0.0
 10
74.88293997693899
 20
-140.0820610543892
 30
0.0
 10
74.97492402639516
 20
-140.1196125951784
 30
0.0
 10
75.11307235535368
 20
-140.1761121611365
 30
0.0
 10
75.30151907839685
 20
-140.1457953208663
 30
0.0
 10
75.38936901327072
 20
-139.9304768530382
 30
0.0
 10
75.48617619640623
 20
-139.693454283653
 30
0.0
 10
75.33459199505525
 20
-139.5559949737916
 30
0.0
 10
75.2153916912656
 20
-139.5074191274495
 30
0.0
 10
75.18404132234983
 20
-139.4946722741541
 30
0.0
 10
75.04382593610016
 20
-139.4371391795505
 30
0.0
 10
74.90705564533575
 20
-139.520854999842
 30
0.0
 10
74.90705564533575
 20
-139.520854999842
 30
0.0
 10
74.74065753339818
 20
-139.4319715363226
 30
0.0
 10
74.74065753339818
 20
-139.4319715363226
 30
0.0
 10
74.74065753339818
 20
-139.4319715363226
 30
0.0
 10
75.17990720776753
 20
-138.6974771788673
 30
0.0
 10
75.17990720776753
 20
-138.6974771788673
 30
0.0
 10
75.17990720776753
 20
-138.6974771788673
 30
0.0
 10
75.9502305582694
 20
-139.0123589062191
 30
0.0
 10
75.9502305582694
 20
-139.0123589062191
 30
0.0
 10
75.9502305582694
 20
-139.0123589062191
 30
0.0
 10
75.87650551488504
 20
-139.1925374000977
 30
0.0
 10
75.87650551488504
 20
-139.1925374000977
 30
0.0
 10
75.87650551488504
 20
-139.1925374000977
 30
0.0
 10
75.26741263309287
 20
-138.9434569965141
 30
0.0
 10
75.26741263309287
 20
-138.9434569965141
 30
0.0
 10
75.26741263309287
 20
-138.9434569965141
 30
0.0
 10
75.04244789790606
 20
-139.3086371179506
 30
0.0
 10
75.04244789790606
 20
-139.3086371179506
 30
0.0
 10
75.1161729412904
 20
-139.3020914365287
 30
0.0
 10
75.21298012442593
 20
-139.2983018314949
 30
0.0
 10
75.33011337092442
 20
-139.3461886587398
 30
0.0
 10
75.58126083179913
 20
-139.4488525042003
 30
0.0
 10
75.74524737689703
 20
-139.7172254425012
 30
0.0
 10
75.62708060175295
 20
-140.0066134632623
 30
0.0
 10
75.50684676931773
 20
-140.3008246177026
 30
0.0
 10
75.1960991565482
 20
-140.4276041315598
 30
0.0
 10
74.89706486842852
 20
-140.3049587322849
 30
0.0
  0
HATCH
  5
104
330
FF
100
AcDbEntity
  8
_U+30EC_U+30A4_U+30E4_U+30FC 1
 62
   179
420
  2234388
100
AcDbHatch
 10
0.0
 20
0.0
 30
0.0
210
0.0
220
0.0
230
1.0
  2
SOLID
 70
     1
 71
     0
 91
        1
 92
        1
 93
        1
 72
     4
 94
        3
 73
     0
 74
     1
 95
       53
 96
       49
 40
0.0
 40
0.0
 40
0.0
 40
0.0
 40
1.0
 40
1.0
 40
1.0
 40
2.0
 40
2.0
 40
2.0
 40
3.0
 40
3.0
 40
3.0
 40
4.0
 40
4.0
 40
4.0
 40
5.0
 40
5.0
 40
5.0
 40
6.0
 40
6.0
 40
6.0
 40
7.0
 40
7.0
 40
7.0
 40
8.0
 40
8.0
 40
8.0
 40
9.0
 40
9.0
 40
9.0
 40
10.0
 40
10.0
 40
10.0
 40
11.0
 40
11.0
 40
11.0
 40
12.0
 40
12.0
 40
12.0
 40
13.0
 40
13.0
 40
13.0
 40
14.0
 40
14.0
 40
14.0
 40
15.0
 40
15.0
 40
15.0
 40
16.0
 40
16.0
 40
16.0
 40
16.0
 10
74.89706486842852
 20
-140.3049587322849
 10
74.8195502200104
 20
-140.2732638538206
 10
74.72549911326307
 20
-140.216419778314
 10
74.64901799349053
 20
-140.1168565187902
 10
74.51879338414808
 20
-139.9446017445277
 10
74.54773218622418
 20
-139.8147216447338
 10
74.56943628778126
 20
-139.707234665594
 10
74.56943628778126
 20
-139.707234665594
 10
74.7892333797402
 20
-139.7971516577591
 10
74.7892333797402
 20
-139.7971516577591
 10
74.7685628068287
 20
-140.0035128773255
 10
74.88293997693899
 20
-140.0820610543892
 10
74.97492402639516
 20
-140.1196125951784
 10
75.11307235535368
 20
-140.1761121611365
 10
75.30151907839685
 20
-140.1457953208663
 10
75.38936901327072
 20
-139.9304768530382
 10
75.48617619640623
 20
-139.693454283653
 10
75.33459199505525
 20
-139.5559949737916
 10
75.2153916912656
 20
-139.5074191274495
 10
75.18404132234983
 20
-139.4946722741541
 10
75.04382593610016
 20
-139.4371391795505
 10
74.90705564533575
 20
-139.520854999842
 10
74.90705564533575
 20
-139.520854999842
 10
74.74065753339818
 20
-139.4319715363226
 10
74.74065753339818
 20
-139.4319715363226
 10
74.74065753339818
 20
-139.4319715363226
 10
75.17990720776753
 20
-138.6974771788673
 10
75.17990720776753
 20
-138.6974771788673
 10
75.17990720776753
 20
-138.6974771788673
 10
75.9502305582694
 20
-139.0123589062191
 10
75.9502305582694
 20
-139.0123589062191
 10
75.9502305582694
 20
-139.0123589062191
 10
75.87650551488504
 20
-139.1925374000977
 10
75.87650551488504
 20
-139.1925374000977
 10
75.87650551488504
 20
-139.1925374000977
 10
75.26741263309287
 20
-138.9434569965141
 10
75.26741263309287
 20
-138.9434569965141
 10
75.26741263309287
 20
-138.9434569965141
 10
75.04244789790606
 20
-139.3086371179506
 10
75.04244789790606
 20
-139.3086371179506
 10
75.1161729412904
 20
-139.3020914365287
 10
75.21298012442593
 20
-139.2983018314949
 10
75.33011337092442
 20
-139.3461886587398
 10
75.58126083179913
 20
-139.4488525042003
 10
75.74524737689703
 20
-139.7172254425012
 10
75.62708060175295
 20
-140.0066134632623
 10
75.50684676931773
 20
-140.3008246177026
 10
75.1960991565482
 20
-140.4276041315598
 10
74.89706486842852
 20
-140.3049587322849
 97
        0
 97
        0
 75
     2
 76
     1
 98
        0
  0
SPLINE
  5
105
330
FF
100
AcDbEntity
  8
_U+30EC_U+30A4_U+30E4_U+30FC 1
370
     0
100
AcDbSpline
210
0.0
220
0.0
230
1.0
 70
    11
 71
     3
 72
    29
 73
    25
 74
     0
 42
0.0000000001
 43
0.0000000001
 12
1.0
 22
0.0
 32
0.0
 13
1.0
 23
0.0
 33
0.0
 40
0.0
 40
0.0
 40
0.0
 40
0.0
 40
1.0
 40
1.0
 40
1.0
 40
2.0
 40
2.0
 40
2.0
 40
3.0
 40
3.0
 40
3.0
 40
4.0
 40
4.0
 40
4.0
 40
5.0
 40
5.0
 40
5.0
 40
6.0
 40
6.0
 40
6.0
 40
7.0
 40
7.0
 40
7.0
 40
8.0
 40
8.0
 40
8.0
 40
8.0
 10
76.56001245915861
 20
-140.7376627252323
 30
0.0
 10
76.37397730295513
 20
-140.8878688883892
 30
0.0
 10
76.19517684727066
 20
-140.8355034370134
 30
0.0
 10
76.0801106580633
 20
-140.7886501384139
 30
0.0
 10
75.92094724664477
 20
-140.7235378337427
 30
0.0
 10
75.79830184736987
 20
-140.623285555122
 30
0.0
 10
75.77315265032755
 20
-140.4158908069099
 30
0.0
 10
75.74386933870292
 20
-140.1940266576598
 30
0.0
 10
75.81483830569907
 20
-139.9669948651819
 30
0.0
 10
75.87650551488504
 20
-139.8164441924764
 30
0.0
 10
75.93093802355199
 20
-139.6831189971973
 30
0.0
 10
76.0429036268226
 20
-139.4567762238164
 30
0.0
 10
76.22273761115265
 20
-139.3155273089211
 30
0.0
 10
76.40636120051647
 20
-139.1711778080892
 30
0.0
 10
76.57413735064813
 20
-139.2145860112033
 30
0.0
 10
76.70195039315091
 20
-139.2669514625791
 30
0.0
 10
76.85870223772977
 20
-139.3310302386047
 30
0.0
 10
76.9844482229414
 20
-139.4302489885799
 30
0.0
 10
77.00959741998372
 20
-139.6372992272435
 30
0.0
 10
77.03509112657457
 20
-139.8557182810083
 30
0.0
 10
76.97170136964597
 20
-140.0765489016128
 30
0.0
 10
76.90624455542623
 20
-140.2370903512254
 30
0.0
 10
76.84147676030352
 20
-140.3959092530955
 30
0.0
 10
76.73295625251815
 20
-140.6005479249193
 30
0.0
 10
76.56001245915861
 20
-140.7376627252323
 30
0.0
  0
SPLINE
  5
106
330
FF
100
AcDbEntity
  8
_U+30EC_U+30A4_U+30E4_U+30FC 1
370
     0
100
AcDbSpline
210
0.0
220
0.0
230
1.0
 70
    11
 71
     3
 72
    17
 73
    13
 74
     0
 42
0.0000000001
 43
0.0000000001
 12
1.0
 22
0.0
 32
0.0
 13
1.0
 23
0.0
 33
0.0
 40
0.0
 40
0.0
 40
0.0
 40
0.0
 40
1.0
 40
1.0
 40
1.0
 40
2.0
 40
2.0
 40
2.0
 40
3.0
 40
3.0
 40
3.0
 40
4.0
 40
4.0
 40
4.0
 40
4.0
 10
76.6289143688636
 20
-139.4450628991665
 30
0.0
 10
76.3819010225712
 20
-139.3441216014487
 30
0.0
 10
76.22859427347758
 20
-139.5876898522559
 30
0.0
 10
76.09836966413513
 20
-139.9070502037385
 30
0.0
 10
75.97744681260286
 20
-140.2026393963729
 30
0.0
 10
75.89614255915097
 20
-140.5030517226867
 30
0.0
 10
76.15349119189914
 20
-140.6084716445354
 30
0.0
 10
76.3984374809004
 20
-140.7083794136076
 30
0.0
 10
76.5531222681881
 20
-140.4675672391887
 30
0.0
 10
76.68438040617613
 20
-140.1464843399634
 30
0.0
 10
76.8053032577084
 20
-139.8505506377804
 30
0.0
 10
76.88419594432062
 20
-139.5494492923696
 30
0.0
 10
76.6289143688636
 20
-139.4450628991665
 30
0.0
  0
HATCH
  5
107
330
FF
100
AcDbEntity
  8
_U+30EC_U+30A4_U+30E4_U+30FC 1
 62
   179
420
  2234388
100
AcDbHatch
 10
0.0
 20
0.0
 30
0.0
210
0.0
220
0.0
230
1.0
  2
SOLID
 70
     1
 71
     0
 91
        2
 92
        1
 93
        1
 72
     4
 94
        3
 73
     0
 74
     1
 95
       29
 96
       25
 40
0.0
 40
0.0
 40
0.0
 40
0.0
 40
1.0
 40
1.0
 40
1.0
 40
2.0
 40
2.0
 40
2.0
 40
3.0
 40
3.0
 40
3.0
 40
4.0
 40
4.0
 40
4.0
 40
5.0
 40
5.0
 40
5.0
 40
6.0
 40
6.0
 40
6.0
 40
7.0
 40
7.0
 40
7.0
 40
8.0
 40
8.0
 40
8.0
 40
8.0
 10
76.56001245915861
 20
-140.7376627252323
 10
76.37397730295513
 20
-140.8878688883892
 10
76.19517684727066
 20
-140.8355034370134
 10
76.0801106580633
 20
-140.7886501384139
 10
75.92094724664477
 20
-140.7235378337427
 10
75.79830184736987
 20
-140.623285555122
 10
75.77315265032755
 20
-140.4158908069099
 10
75.74386933870292
 20
-140.1940266576598
 10
75.81483830569907
 20
-139.9669948651819
 10
75.87650551488504
 20
-139.8164441924764
 10
75.93093802355199
 20
-139.6831189971973
 10
76.0429036268226
 20
-139.4567762238164
 10
76.22273761115265
 20
-139.3155273089211
 10
76.40636120051647
 20
-139.1711778080892
 10
76.57413735064813
 20
-139.2145860112033
 10
76.70195039315091
 20
-139.2669514625791
 10
76.85870223772977
 20
-139.3310302386047
 10
76.9844482229414
 20
-139.4302489885799
 10
77.00959741998372
 20
-139.6372992272435
 10
77.03509112657457
 20
-139.8557182810083
 10
76.97170136964597
 20
-140.0765489016128
 10
76.90624455542623
 20
-140.2370903512254
 10
76.84147676030352
 20
-140.3959092530955
 10
76.73295625251815
 20
-140.6005479249193
 10
76.56001245915861
 20
-140.7376627252323
 97
        0
 97
        0
 92
        1
 93
        1
 72
     4
 94
        3
 73
     0
 74
     1
 95
       17
 96
       13
 40
0.0
 40
0.0
 40
0.0
 40
0.0
 40
1.0
 40
1.0
 40
1.0
 40
2.0
 40
2.0
 40
2.0
 40
3.0
 40
3.0
 40
3.0
 40
4.0
 40
4.0
 40
4.0
 40
4.0
 10
76.6289143688636
 20
-139.4450628991665
 10
76.3819010225712
 20
-139.3441216014487
 10
76.22859427347758
 20
-139.5876898522559
 10
76.09836966413513
 20
-139.9070502037385
 10
75.97744681260286
 20
-140.2026393963729
 10
75.89614255915097
 20
-140.5030517226867
 10
76.15349119189914
 20
-140.6084716445354
 10
76.3984374809004
 20
-140.7083794136076
 10
76.5531222681881
 20
-140.4675672391887
 10
76.68438040617613
 20
-140.1464843399634
 10
76.8053032577084
 20
-139.8505506377804
 10
76.88419594432062
 20
-139.5494492923696
 10
76.6289143688636
 20
-139.4450628991665
 97
        0
 97
        0
 75
     2
 76
     1
 98
        0
  0
ENDBLK
  5
102
330
FF
100
AcDbEntity
  8
0
100
AcDbBlockEnd
  0
BLOCK
  5
11A
330
118
100
AcDbEntity
  8
0
100
AcDbBlockBegin
  2
block 4
 70
     0
 10
0.0
 20
0.0
 30
0.0
  3
block 4
  1

  0
SPLINE
  5
11C
330
118
100
AcDbEntity
  8
_U+30EC_U+30A4_U+30E4_U+30FC 1
370
     0
100
AcDbSpline
210
0.0
220
0.0
230
1.0
 70
    11
 71
     3
 72
    26
 73
    22
 74
     0
 42
0.0000000001
 43
0.0000000001
 12
1.0
 22
0.0
 32
0.0
 13
1.0
 23
0.0
 33
0.0
 40
0.0
 40
0.0
 40
0.0
 40
0.0
 40
1.0
 40
1.0
 40
1.0
 40
2.0
 40
2.0
 40
2.0
 40
3.0
 40
3.0
 40
3.0
 40
4.0
 40
4.0
 40
4.0
 40
5.0
 40
5.0
 40
5.0
 40
6.0
 40
6.0
 40
6.0
 40
7.0
 40
7.0
 40
7.0
 40
7.0
 10
108.1356906196675
 20
-134.2508924360554
 30
0.0
 10
108.1356906196675
 20
-134.2508924360554
 30
0.0
 10
107.9575791830801
 20
-134.4310709299339
 30
0.0
 10
107.9575791830801
 20
-134.4310709299339
 30
0.0
 10
107.7570746258385
 20
-134.1950818891943
 30
0.0
 10
107.5324544002002
 20
-133.6845187382803
 30
0.0
 10
107.4773328724362
 20
-133.0206488382726
 30
0.0
 10
107.4773328724362
 20
-133.0206488382726
 30
0.0
 10
106.8486029463781
 20
-133.6576469934953
 30
0.0
 10
106.8486029463781
 20
-133.6576469934953
 30
0.0
 10
106.8486029463781
 20
-133.6576469934953
 30
0.0
 10
106.6980522736727
 20
-133.509163378081
 30
0.0
 10
106.6980522736727
 20
-133.509163378081
 30
0.0
 10
106.6980522736727
 20
-133.509163378081
 30
0.0
 10
107.5048936363182
 20
-132.6916422194313
 30
0.0
 10
107.5048936363182
 20
-132.6916422194313
 30
0.0
 10
107.5048936363182
 20
-132.6916422194313
 30
0.0
 10
107.6554443090237
 20
-132.8401258348455
 30
0.0
 10
107.6554443090237
 20
-132.8401258348455
 30
0.0
 10
107.6185817873315
 20
-133.2900553052192
 30
0.0
 10
107.8404459365816
 20
-133.90879445437
 30
0.0
 10
108.1356906196675
 20
-134.2508924360554
 30
0.0
  0
HATCH
  5
11D
330
118
100
AcDbEntity
  8
_U+30EC_U+30A4_U+30E4_U+30FC 1
 62
   179
420
  2234388
100
AcDbHatch
 10
0.0
 20
0.0
 30
0.0
210
0.0
220
0.0
230
1.0
  2
SOLID
 70
     1
 71
     0
 91
        1
 92
        1
 93
        1
 72
     4
 94
        3
 73
     0
 74
     1
 95
       26
 96
       22
 40
0.0
 40
0.0
 40
0.0
 40
0.0
 40
1.0
 40
1.0
 40
1.0
 40
2.0
 40
2.0
 40
2.0
 40
3.0
 40
3.0
 40
3.0
 40
4.0
 40
4.0
 40
4.0
 40
5.0
 40
5.0
 40
5.0
 40
6.0
 40
6.0
 40
6.0
 40
7.0
 40
7.0
 40
7.0
 40
7.0
 10
108.1356906196675
 20
-134.2508924360554
 10
108.1356906196675
 20
-134.2508924360554
 10
107.9575791830801
 20
-134.4310709299339
 10
107.9575791830801
 20
-134.4310709299339
 10
107.7570746258385
 20
-134.1950818891943
 10
107.5324544002002
 20
-133.6845187382803
 10
107.4773328724362
 20
-133.0206488382726
 10
107.4773328724362
 20
-133.0206488382726
 10
106.8486029463781
 20
-133.6576469934953
 10
106.8486029463781
 20
-133.6576469934953
 10
106.8486029463781
 20
-133.6576469934953
 10
106.6980522736727
 20
-133.509163378081
 10
106.6980522736727
 20
-133.509163378081
 10
106.6980522736727
 20
-133.509163378081
 10
107.5048936363182
 20
-132.6916422194313
 10
107.5048936363182
 20
-132.6916422194313
 10
107.5048936363182
 20
-132.6916422194313
 10
107.6554443090237
 20
-132.8401258348455
 10
107.6554443090237
 20
-132.8401258348455
 10
107.6185817873315
 20
-133.2900553052192
 10
107.8404459365816
 20
-133.90879445437
 10
108.1356906196675
 20
-134.2508924360554
 97
        0
 97
        0
 75
     2
 76
     1
 98
        0
  0
SPLINE
  5
11E
330
118
100
AcDbEntity
  8
_U+30EC_U+30A4_U+30E4_U+30FC 1
370
     0
100
AcDbSpline
210
0.0
220
0.0
230
1.0
 70
    11
 71
     3
 72
    29
 73
    25
 74
     0
 42
0.0000000001
 43
0.0000000001
 12
1.0
 22
0.0
 32
0.0
 13
1.0
 23
0.0
 33
0.0
 40
0.0
 40
0.0
 40
0.0
 40
0.0
 40
1.0
 40
1.0
 40
1.0
 40
2.0
 40
2.0
 40
2.0
 40
3.0
 40
3.0
 40
3.0
 40
4.0
 40
4.0
 40
4.0
 40
5.0
 40
5.0
 40
5.0
 40
6.0
 40
6.0
 40
6.0
 40
7.0
 40
7.0
 40
7.0
 40
8.0
 40
8.0
 40
8.0
 40
8.0
 10
109.2577582192133
 20
-132.860796407757
 30
0.0
 10
109.3259711098213
 20
-133.0902397670747
 30
0.0
 10
109.2095268824199
 20
-133.2356227965522
 30
0.0
 10
109.1220214570945
 20
-133.3238172409746
 30
0.0
 10
109.0014431151108
 20
-133.4464626402495
 30
0.0
 10
108.8615722384096
 20
-133.521565721828
 30
0.0
 10
108.6607231716196
 20
-133.4657551749669
 30
0.0
 10
108.4440266655973
 20
-133.4078775708147
 30
0.0
 10
108.2614366048791
 20
-133.2562933694637
 30
0.0
 10
108.1456813965747
 20
-133.1415716898049
 30
0.0
 10
108.0430175511142
 20
-133.0406303920871
 30
0.0
 10
107.8766194391767
 20
-132.8511501403983
 30
0.0
 10
107.8142632108937
 20
-132.6306640293423
 30
0.0
 10
107.7508734539651
 20
-132.4060438037041
 30
0.0
 10
107.8549153376196
 20
-132.267550965197
 30
0.0
 10
107.9520670303037
 20
-132.1690212343188
 30
0.0
 10
108.0712673340933
 20
-132.0484428923351
 30
0.0
 10
108.2107937012459
 20
-131.9702392248199
 30
0.0
 10
108.411642768036
 20
-132.0257052621325
 30
0.0
 10
108.6231716308303
 20
-132.0856499235758
 30
0.0
 10
108.8036946342574
 20
-132.2282768766651
 30
0.0
 10
108.9270290526294
 20
-132.3498887472945
 30
0.0
 10
109.0489854328072
 20
-132.4701225797297
 30
0.0
 10
109.197124538673
 20
-132.6485785258656
 30
0.0
 10
109.2577582192133
 20
-132.860796407757
 30
0.0
  0
SPLINE
  5
11F
330
118
100
AcDbEntity
  8
_U+30EC_U+30A4_U+30E4_U+30FC 1
370
     0
100
AcDbSpline
210
0.0
220
0.0
230
1.0
 70
    11
 71
     3
 72
    17
 73
    13
 74
     0
 42
0.0000000001
 43
0.0000000001
 12
1.0
 22
0.0
 32
0.0
 13
1.0
 23
0.0
 33
0.0
 40
0.0
 40
0.0
 40
0.0
 40
0.0
 40
1.0
 40
1.0
 40
1.0
 40
2.0
 40
2.0
 40
2.0
 40
3.0
 40
3.0
 40
3.0
 40
4.0
 40
4.0
 40
4.0
 40
4.0
 10
108.0891818306166
 20
-132.3047579964377
 30
0.0
 10
107.901768636219
 20
-132.494582757675
 30
0.0
 10
108.0685112577051
 20
-132.7291937602205
 30
0.0
 10
108.3138020562549
 20
-132.971039463285
 30
0.0
 10
108.5411783582814
 20
-133.1956596889233
 30
0.0
 10
108.7878471950253
 20
-133.385139940612
 30
0.0
 10
108.9835286185875
 20
-133.1873914597587
 30
0.0
 10
109.1692192652424
 20
-132.9992892462641
 30
0.0
 10
109.0055772296931
 20
-132.76433373417
 30
0.0
 10
108.7582193738521
 20
-132.5204209738143
 30
0.0
 10
108.5311875813742
 20
-132.2964897672731
 30
0.0
 10
108.2827961968876
 20
-132.1083875537785
 30
0.0
 10
108.0891818306166
 20
-132.3047579964377
 30
0.0
  0
HATCH
  5
120
330
118
100
AcDbEntity
  8
_U+30EC_U+30A4_U+30E4_U+30FC 1
 62
   179
420
  2234388
100
AcDbHatch
 10
0.0
 20
0.0
 30
0.0
210
0.0
220
0.0
230
1.0
  2
SOLID
 70
     1
 71
     0
 91
        2
 92
        1
 93
        1
 72
     4
 94
        3
 73
     0
 74
     1
 95
       29
 96
       25
 40
0.0
 40
0.0
 40
0.0
 40
0.0
 40
1.0
 40
1.0
 40
1.0
 40
2.0
 40
2.0
 40
2.0
 40
3.0
 40
3.0
 40
3.0
 40
4.0
 40
4.0
 40
4.0
 40
5.0
 40
5.0
 40
5.0
 40
6.0
 40
6.0
 40
6.0
 40
7.0
 40
7.0
 40
7.0
 40
8.0
 40
8.0
 40
8.0
 40
8.0
 10
109.2577582192133
 20
-132.860796407757
 10
109.3259711098213
 20
-133.0902397670747
 10
109.2095268824199
 20
-133.2356227965522
 10
109.1220214570945
 20
-133.3238172409746
 10
109.0014431151108
 20
-133.4464626402495
 10
108.8615722384096
 20
-133.521565721828
 10
108.6607231716196
 20
-133.4657551749669
 10
108.4440266655973
 20
-133.4078775708147
 10
108.2614366048791
 20
-133.2562933694637
 10
108.1456813965747
 20
-133.1415716898049
 10
108.0430175511142
 20
-133.0406303920871
 10
107.8766194391767
 20
-132.8511501403983
 10
107.8142632108937
 20
-132.6306640293423
 10
107.7508734539651
 20
-132.4060438037041
 10
107.8549153376196
 20
-132.267550965197
 10
107.9520670303037
 20
-132.1690212343188
 10
108.0712673340933
 20
-132.0484428923351
 10
108.2107937012459
 20
-131.9702392248199
 10
108.411642768036
 20
-132.0257052621325
 10
108.6231716308303
 20
-132.0856499235758
 10
108.8036946342574
 20
-132.2282768766651
 10
108.9270290526294
 20
-132.3498887472945
 10
109.0489854328072
 20
-132.4701225797297
 10
109.197124538673
 20
-132.6485785258656
 10
109.2577582192133
 20
-132.860796407757
 97
        0
 97
        0
 92
        1
 93
        1
 72
     4
 94
        3
 73
     0
 74
     1
 95
       17
 96
       13
 40
0.0
 40
0.0
 40
0.0
 40
0.0
 40
1.0
 40
1.0
 40
1.0
 40
2.0
 40
2.0
 40
2.0
 40
3.0
 40
3.0
 40
3.0
 40
4.0
 40
4.0
 40
4.0
 40
4.0
 10
108.0891818306166
 20
-132.3047579964377
 10
107.901768636219
 20
-132.494582757675
 10
108.0685112577051
 20
-132.7291937602205
 10
108.3138020562549
 20
-132.971039463285
 10
108.5411783582814
 20
-133.1956596889233
 10
108.7878471950253
 20
-133.385139940612
 10
108.9835286185875
 20
-133.1873914597587
 10
109.1692192652424
 20
-132.9992892462641
 10
109.0055772296931
 20
-132.76433373417
 10
108.7582193738521
 20
-132.5204209738143
 10
108.5311875813742
 20
-132.2964897672731
 10
108.2827961968876
 20
-132.1083875537785
 10
108.0891818306166
 20
-132.3047579964377
 97
        0
 97
        0
 75
     2
 76
     1
 98
        0
  0
ENDBLK
  5
11B
330
118
100
AcDbEntity
  8
0
100
AcDbBlockEnd
  0
ENDSEC
  0
SECTION
  2
ENTITIES
  0
POLYLINE
  5
41
330
1F
100
AcDbEntity
  8
_U+30EC_U+30A4_U+30E4_U+30FC 1
 62
   179
420
  2234388
370
    25
100
AcDb2dPolyline
 66
     1
 10
0.0
 20
0.0
 30
0.0
  0
VERTEX
  5
42
330
41
100
AcDbEntity
  8
_U+30EC_U+30A4_U+30E4_U+30FC 1
 62
   179
420
  2234388
370
    25
100
AcDbVertex
100
AcDb2dVertex
 10
87.79379248241598
 20
-114.2931208047599
 30
0.0
  0
VERTEX
  5
43
330
41
100
AcDbEntity
  8
_U+30EC_U+30A4_U+30E4_U+30FC 1
 62
   179
420
  2234388
370
    25
100
AcDbVertex
100
AcDb2dVertex
 10
116.2316670346831
 20
-122.3959677471788
 30
0.0
  0
VERTEX
  5
44
330
41
100
AcDbEntity
  8
_U+30EC_U+30A4_U+30E4_U+30FC 1
 62
   179
420
  2234388
370
    25
100
AcDbVertex
100
AcDb2dVertex
 10
92.73681108792698
 20
-141.6581988534747
 30
0.0
  0
VERTEX
  5
45
330
41
100
AcDbEntity
  8
_U+30EC_U+30A4_U+30E4_U+30FC 1
 62
   179
420
  2234388
370
    25
100
AcDbVertex
100
AcDb2dVertex
 10
64.29960447069153
 20
-133.555316633278
 30
0.0
  0
VERTEX
  5
46
330
41
100
AcDbEntity
  8
_U+30EC_U+30A4_U+30E4_U+30FC 1
 62
   179
420
  2234388
370
    25
100
AcDbVertex
100
AcDb2dVertex
 10
87.79379248241598
 20
-114.2931208047599
 30
0.0
  0
SEQEND
  5
47
330
41
100
AcDbEntity
  8
_U+30EC_U+30A4_U+30E4_U+30FC 1
 62
   179
420
  2234388
370
    25
  0
POLYLINE
  5
48
330
1F
100
AcDbEntity
  8
_U+30EC_U+30A4_U+30E4_U+30FC 1
 62
   179
420
  2234388
370
    25
100
AcDb2dPolyline
 66
     1
 10
0.0
 20
0.0
 30
0.0
  0
VERTEX
  5
49
330
48
100
AcDbEntity
  8
_U+30EC_U+30A4_U+30E4_U+30FC 1
 62
   179
420
  2234388
370
    25
100
AcDbVertex
100
AcDb2dVertex
 10
116.2316670346831
 20
-123.1449502469915
 30
0.0
  0
VERTEX
  5
4A
330
48
100
AcDbEntity
  8
_U+30EC_U+30A4_U+30E4_U+30FC 1
 62
   179
420
  2234388
370
    25
100
AcDbVertex
100
AcDb2dVertex
 10
116.2316670346831
 20
-122.3959677471788
 30
0.0
  0
VERTEX
  5
4B
330
48
100
AcDbEntity
  8
_U+30EC_U+30A4_U+30E4_U+30FC 1
 62
   179
420
  2234388
370
    25
100
AcDbVertex
100
AcDb2dVertex
 10
87.79308692687842
 20
-114.2931208047599
 30
0.0
  0
SEQEND
  5
4C
330
48
100
AcDbEntity
  8
_U+30EC_U+30A4_U+30E4_U+30FC 1
 62
   179
420
  2234388
370
    25
  0
POLYLINE
  5
4D
330
1F
100
AcDbEntity
  8
_U+30EC_U+30A4_U+30E4_U+30FC 1
 62
   179
420
  2234388
370
    25
100
AcDb2dPolyline
 66
     1
 10
0.0
 20
0.0
 30
0.0
  0
VERTEX
  5
4E
330
4D
100
AcDbEntity
  8
_U+30EC_U+30A4_U+30E4_U+30FC 1
 62
   179
420
  2234388
370
    25
100
AcDbVertex
100
AcDb2dVertex
 10
116.2316670346831
 20
-122.3959677471788
 30
0.0
  0
VERTEX
  5
4F
330
4D
100
AcDbEntity
  8
_U+30EC_U+30A4_U+30E4_U+30FC 1
 62
   179
420
  2234388
370
    25
100
AcDbVertex
100
AcDb2dVertex
 10
116.2316670346831
 20
-123.1449502469915
 30
0.0
  0
VERTEX
  5
50
330
4D
100
AcDbEntity
  8
_U+30EC_U+30A4_U+30E4_U+30FC 1
 62
   179
420
  2234388
370
    25
100
AcDbVertex
100
AcDb2dVertex
 10
92.73681108792698
 20
-142.407851631065
 30
0.0
  0
VERTEX
  5
51
330
4D
100
AcDbEntity
  8
_U+30EC_U+30A4_U+30E4_U+30FC 1
 62
   179
420
  2234388
370
    25
100
AcDbVertex
100
AcDb2dVertex
 10
92.73681108792698
 20
-141.6581988534747
 30
0.0
  0
VERTEX
  5
52
330
4D
100
AcDbEntity
  8
_U+30EC_U+30A4_U+30E4_U+30FC 1
 62
   179
420
  2234388
370
    25
100
AcDbVertex
100
AcDb2dVertex
 10
116.2316670346831
 20
-122.3959677471788
 30
0.0
  0
SEQEND
  5
53
330
4D
100
AcDbEntity
  8
_U+30EC_U+30A4_U+30E4_U+30FC 1
 62
   179
420
  2234388
370
    25
  0
POLYLINE
  5
54
330
1F
100
AcDbEntity
  8
_U+30EC_U+30A4_U+30E4_U+30FC 1
 62
   179
420
  2234388
370
    25
100
AcDb2dPolyline
 66
     1
 10
0.0
 20
0.0
 30
0.0
  0
VERTEX
  5
55
330
54
100
AcDbEntity
  8
_U+30EC_U+30A4_U+30E4_U+30FC 1
 62
   179
420
  2234388
370
    25
100
AcDbVertex
100
AcDb2dVertex
 10
92.73681108792698
 20
-141.6581988534747
 30
0.0
  0
VERTEX
  5
56
330
54
100
AcDbEntity
  8
_U+30EC_U+30A4_U+30E4_U+30FC 1
 62
   179
420
  2234388
370
    25
100
AcDbVertex
100
AcDb2dVertex
 10
92.73681108792698
 20
-142.407851631065
 30
0.0
  0
VERTEX
  5
57
330
54
100
AcDbEntity
  8
_U+30EC_U+30A4_U+30E4_U+30FC 1
 62
   179
420
  2234388
370
    25
100
AcDbVertex
100
AcDb2dVertex
 10
64.29960447069153
 20
-134.3035935775355
 30
0.0
  0
VERTEX
  5
58
330
54
100
AcDbEntity
  8
_U+30EC_U+30A4_U+30E4_U+30FC 1
 62
   179
420
  2234388
370
    25
100
AcDbVertex
100
AcDb2dVertex
 10
64.29960447069153
 20
-133.555316633278
 30
0.0
  0
VERTEX
  5
59
330
54
100
AcDbEntity
  8
_U+30EC_U+30A4_U+30E4_U+30FC 1
 62
   179
420
  2234388
370
    25
100
AcDbVertex
100
AcDb2dVertex
 10
92.73681108792698
 20
-141.6581988534747
 30
0.0
  0
SEQEND
  5
5A
330
54
100
AcDbEntity
  8
_U+30EC_U+30A4_U+30E4_U+30FC 1
 62
   179
420
  2234388
370
    25
  0
POLYLINE
  5
5B
330
1F
100
AcDbEntity
  8
_U+30EC_U+30A4_U+30E4_U+30FC 1
 62
   179
420
  2234388
370
    25
100
AcDb2dPolyline
 66
     1
 10
0.0
 20
0.0
 30
0.0
  0
VERTEX
  5
5C
330
5B
100
AcDbEntity
  8
_U+30EC_U+30A4_U+30E4_U+30FC 1
 62
   179
420
  2234388
370
    25
100
AcDbVertex
100
AcDb2dVertex
 10
101.7763888634448
 20
-119.7160208034043
 30
0.0
  0
VERTEX
  5
5D
330
5B
100
AcDbEntity
  8
_U+30EC_U+30A4_U+30E4_U+30FC 1
 62
   179
420
  2234388
370
    25
100
AcDbVertex
100
AcDb2dVertex
 10
113.1527666383783
 20
-122.9578721914829
 30
0.0
  0
VERTEX
  5
5E
330
5B
100
AcDbEntity
  8
_U+30EC_U+30A4_U+30E4_U+30FC 1
 62
   179
420
  2234388
370
    25
100
AcDbVertex
100
AcDb2dVertex
 10
93.00033608786089
 20
-139.4584882984686
 30
0.0
  0
VERTEX
  5
5F
330
5B
100
AcDbEntity
  8
_U+30EC_U+30A4_U+30E4_U+30FC 1
 62
   179
420
  2234388
370
    25
100
AcDbVertex
100
AcDb2dVertex
 10
81.62395831292734
 20
-136.2166721881681
 30
0.0
  0
VERTEX
  5
60
330
5B
100
AcDbEntity
  8
_U+30EC_U+30A4_U+30E4_U+30FC 1
 62
   179
420
  2234388
370
    25
100
AcDbVertex
100
AcDb2dVertex
 10
101.7763888634448
 20
-119.7160208034043
 30
0.0
  0
SEQEND
  5
61
330
5B
100
AcDbEntity
  8
_U+30EC_U+30A4_U+30E4_U+30FC 1
 62
   179
420
  2234388
370
    25
  0
POLYLINE
  5
62
330
1F
100
AcDbEntity
  8
_U+30EC_U+30A4_U+30E4_U+30FC 1
 62
   179
420
  2234388
370
    25
100
AcDb2dPolyline
 66
     1
 10
0.0
 20
0.0
 30
0.0
  0
VERTEX
  5
63
330
62
100
AcDbEntity
  8
_U+30EC_U+30A4_U+30E4_U+30FC 1
 62
   179
420
  2234388
370
    25
100
AcDbVertex
100
AcDb2dVertex
 10
113.1527666383783
 20
-122.9578721914829
 30
0.0
  0
VERTEX
  5
64
330
62
100
AcDbEntity
  8
_U+30EC_U+30A4_U+30E4_U+30FC 1
 62
   179
420
  2234388
370
    25
100
AcDbVertex
100
AcDb2dVertex
 10
113.1527666383783
 20
-123.7188844135147
 30
0.0
  0
VERTEX
  5
65
330
62
100
AcDbEntity
  8
_U+30EC_U+30A4_U+30E4_U+30FC 1
 62
   179
420
  2234388
370
    25
100
AcDbVertex
100
AcDb2dVertex
 10
93.00033608786089
 20
-140.2222874649443
 30
0.0
  0
VERTEX
  5
66
330
62
100
AcDbEntity
  8
_U+30EC_U+30A4_U+30E4_U+30FC 1
 62
   179
420
  2234388
370
    25
100
AcDbVertex
100
AcDb2dVertex
 10
93.00033608786089
 20
-139.4584882984686
 30
0.0
  0
VERTEX
  5
67
330
62
100
AcDbEntity
  8
_U+30EC_U+30A4_U+30E4_U+30FC 1
 62
   179
420
  2234388
370
    25
100
AcDbVertex
100
AcDb2dVertex
 10
113.1527666383783
 20
-122.9578721914829
 30
0.0
  0
SEQEND
  5
68
330
62
100
AcDbEntity
  8
_U+30EC_U+30A4_U+30E4_U+30FC 1
 62
   179
420
  2234388
370
    25
  0
POLYLINE
  5
69
330
1F
100
AcDbEntity
  8
_U+30EC_U+30A4_U+30E4_U+30FC 1
 62
   179
420
  2234388
370
    25
100
AcDb2dPolyline
 66
     1
 10
0.0
 20
0.0
 30
0.0
  0
VERTEX
  5
6A
330
69
100
AcDbEntity
  8
_U+30EC_U+30A4_U+30E4_U+30FC 1
 62
   179
420
  2234388
370
    25
100
AcDbVertex
100
AcDb2dVertex
 10
93.00033608786089
 20
-139.4584882984686
 30
0.0
  0
VERTEX
  5
6B
330
69
100
AcDbEntity
  8
_U+30EC_U+30A4_U+30E4_U+30FC 1
 62
   179
420
  2234388
370
    25
100
AcDbVertex
100
AcDb2dVertex
 10
93.00033608786089
 20
-140.2222874649443
 30
0.0
  0
VERTEX
  5
6C
330
69
100
AcDbEntity
  8
_U+30EC_U+30A4_U+30E4_U+30FC 1
 62
   179
420
  2234388
370
    25
100
AcDbVertex
100
AcDb2dVertex
 10
81.62395831292734
 20
-136.9831877435322
 30
0.0
  0
VERTEX
  5
6D
330
69
100
AcDbEntity
  8
_U+30EC_U+30A4_U+30E4_U+30FC 1
 62
   179
420
  2234388
370
    25
100
AcDbVertex
100
AcDb2dVertex
 10
81.62395831292734
 20
-136.2166721881681
 30
0.0
  0
VERTEX
  5
6E
330
69
100
AcDbEntity
  8
_U+30EC_U+30A4_U+30E4_U+30FC 1
 62
   179
420
  2234388
370
    25
100
AcDbVertex
100
AcDb2dVertex
 10
93.00033608786089
 20
-139.4584882984686
 30
0.0
  0
SEQEND
  5
6F
330
69
100
AcDbEntity
  8
_U+30EC_U+30A4_U+30E4_U+30FC 1
 62
   179
420
  2234388
370
    25
  0
POLYLINE
  5
70
330
1F
100
AcDbEntity
  8
_U+30EC_U+30A4_U+30E4_U+30FC 1
 62
   179
420
  2234388
370
    25
100
AcDb2dPolyline
 66
     1
 10
0.0
 20
0.0
 30
0.0
  0
VERTEX
  5
71
330
70
100
AcDbEntity
  8
_U+30EC_U+30A4_U+30E4_U+30FC 1
 62
   179
420
  2234388
370
    25
100
AcDbVertex
100
AcDb2dVertex
 10
87.20190194196081
 20
-115.5788194155497
 30
0.0
  0
VERTEX
  5
72
330
70
100
AcDbEntity
  8
_U+30EC_U+30A4_U+30E4_U+30FC 1
 62
   179
420
  2234388
370
    25
100
AcDbVertex
100
AcDb2dVertex
 10
98.57760915174234
 20
-118.8185894147399
 30
0.0
  0
VERTEX
  5
73
330
70
100
AcDbEntity
  8
_U+30EC_U+30A4_U+30E4_U+30FC 1
 62
   179
420
  2234388
370
    25
100
AcDbVertex
100
AcDb2dVertex
 10
78.42380327701987
 20
-135.3212869106143
 30
0.0
  0
VERTEX
  5
74
330
70
100
AcDbEntity
  8
_U+30EC_U+30A4_U+30E4_U+30FC 1
 62
   179
420
  2234388
370
    25
100
AcDbVertex
100
AcDb2dVertex
 10
67.0488016227759
 20
-132.0794355225357
 30
0.0
  0
VERTEX
  5
75
330
70
100
AcDbEntity
  8
_U+30EC_U+30A4_U+30E4_U+30FC 1
 62
   179
420
  2234388
370
    25
100
AcDbVertex
100
AcDb2dVertex
 10
87.20190194196081
 20
-115.5788194155497
 30
0.0
  0
SEQEND
  5
76
330
70
100
AcDbEntity
  8
_U+30EC_U+30A4_U+30E4_U+30FC 1
 62
   179
420
  2234388
370
    25
  0
POLYLINE
  5
77
330
1F
100
AcDbEntity
  8
_U+30EC_U+30A4_U+30E4_U+30FC 1
 62
   179
420
  2234388
370
    25
100
AcDb2dPolyline
 66
     1
 10
0.0
 20
0.0
 30
0.0
  0
VERTEX
  5
78
330
77
100
AcDbEntity
  8
_U+30EC_U+30A4_U+30E4_U+30FC 1
 62
   179
420
  2234388
370
    25
100
AcDbVertex
100
AcDb2dVertex
 10
98.57760915174234
 20
-118.8185894147399
 30
0.0
  0
VERTEX
  5
79
330
77
100
AcDbEntity
  8
_U+30EC_U+30A4_U+30E4_U+30FC 1
 62
   179
420
  2234388
370
    25
100
AcDbVertex
100
AcDb2dVertex
 10
98.57760915174234
 20
-119.5837291367707
 30
0.0
  0
VERTEX
  5
7A
330
77
100
AcDbEntity
  8
_U+30EC_U+30A4_U+30E4_U+30FC 1
 62
   179
420
  2234388
370
    25
100
AcDbVertex
100
AcDb2dVertex
 10
78.42380327701987
 20
-136.0843805215345
 30
0.0
  0
VERTEX
  5
7B
330
77
100
AcDbEntity
  8
_U+30EC_U+30A4_U+30E4_U+30FC 1
 62
   179
420
  2234388
370
    25
100
AcDbVertex
100
AcDb2dVertex
 10
78.42380327701987
 20
-135.3212869106143
 30
0.0
  0
VERTEX
  5
7C
330
77
100
AcDbEntity
  8
_U+30EC_U+30A4_U+30E4_U+30FC 1
 62
   179
420
  2234388
370
    25
100
AcDbVertex
100
AcDb2dVertex
 10
98.57760915174234
 20
-118.8185894147399
 30
0.0
  0
SEQEND
  5
7D
330
77
100
AcDbEntity
  8
_U+30EC_U+30A4_U+30E4_U+30FC 1
 62
   179
420
  2234388
370
    25
  0
POLYLINE
  5
7E
330
1F
100
AcDbEntity
  8
_U+30EC_U+30A4_U+30E4_U+30FC 1
 62
   179
420
  2234388
370
    25
100
AcDb2dPolyline
 66
     1
 10
0.0
 20
0.0
 30
0.0
  0
VERTEX
  5
7F
330
7E
100
AcDbEntity
  8
_U+30EC_U+30A4_U+30E4_U+30FC 1
 62
   179
420
  2234388
370
    25
100
AcDbVertex
100
AcDb2dVertex
 10
78.42380327701987
 20
-135.3212869106143
 30
0.0
  0
VERTEX
  5
80
330
7E
100
AcDbEntity
  8
_U+30EC_U+30A4_U+30E4_U+30FC 1
 62
   179
420
  2234388
370
    25
100
AcDbVertex
100
AcDb2dVertex
 10
78.42380327701987
 20
-136.0843805215345
 30
0.0
  0
VERTEX
  5
81
330
7E
100
AcDbEntity
  8
_U+30EC_U+30A4_U+30E4_U+30FC 1
 62
   179
420
  2234388
370
    25
100
AcDbVertex
100
AcDb2dVertex
 10
67.0488016227759
 20
-132.842529133456
 30
0.0
  0
VERTEX
  5
82
330
7E
100
AcDbEntity
  8
_U+30EC_U+30A4_U+30E4_U+30FC 1
 62
   179
420
  2234388
370
    25
100
AcDbVertex
100
AcDb2dVertex
 10
67.0488016227759
 20
-132.0794355225357
 30
0.0
  0
VERTEX
  5
83
330
7E
100
AcDbEntity
  8
_U+30EC_U+30A4_U+30E4_U+30FC 1
 62
   179
420
  2234388
370
    25
100
AcDbVertex
100
AcDb2dVertex
 10
78.42380327701987
 20
-135.3212869106143
 30
0.0
  0
SEQEND
  5
84
330
7E
100
AcDbEntity
  8
_U+30EC_U+30A4_U+30E4_U+30FC 1
 62
   179
420
  2234388
370
    25
  0
POLYLINE
  5
85
330
1F
100
AcDbEntity
  8
_U+30EC_U+30A4_U+30E4_U+30FC 1
 62
     7
420
 16777215
370
     9
100
AcDb2dPolyline
 66
     1
 10
0.0
 20
0.0
 30
0.0
  0
VERTEX
  5
86
330
85
100
AcDbEntity
  8
_U+30EC_U+30A4_U+30E4_U+30FC 1
 62
     7
420
 16777215
370
     9
100
AcDbVertex
100
AcDb2dVertex
 10
115.7886134348753
 20
-114.1544438603504
 30
0.0
  0
VERTEX
  5
87
330
85
100
AcDbEntity
  8
_U+30EC_U+30A4_U+30E4_U+30FC 1
 62
     7
420
 16777215
370
     9
100
AcDbVertex
100
AcDb2dVertex
 10
95.0935759072941
 20
-114.1544438603504
 30
0.0
  0
VERTEX
  5
88
330
85
100
AcDbEntity
  8
_U+30EC_U+30A4_U+30E4_U+30FC 1
 62
     7
420
 16777215
370
     9
100
AcDbVertex
100
AcDb2dVertex
 10
91.02700073326329
 20
-119.471616359021
 30
0.0
  0
SEQEND
  5
89
330
85
100
AcDbEntity
  8
_U+30EC_U+30A4_U+30E4_U+30FC 1
 62
     7
420
 16777215
370
     9
  0
INSERT
  5
8B
330
1F
100
AcDbEntity
  8
_U+30EC_U+30A4_U+30E4_U+30FC 1
100
AcDbBlockReference
  2
block 2
 10
0.0
 20
0.0
 30
0.0
  0
POLYLINE
  5
EF
330
1F
100
AcDbEntity
  8
_U+30EC_U+30A4_U+30E4_U+30FC 1
 62
   179
420
  2234388
370
     9
100
AcDb2dPolyline
 66
     1
 10
0.0
 20
0.0
 30
0.0
  0
VERTEX
  5
F0
330
EF
100
AcDbEntity
  8
_U+30EC_U+30A4_U+30E4_U+30FC 1
 62
   179
420
  2234388
370
     9
100
AcDbVertex
100
AcDb2dVertex
 10
61.21967816037812
 20
-137.0900088546164
 30
0.0
  0
VERTEX
  5
F1
330
EF
100
AcDbEntity
  8
_U+30EC_U+30A4_U+30E4_U+30FC 1
 62
   179
420
  2234388
370
     9
100
AcDbVertex
100
AcDb2dVertex
 10
89.64171299082714
 20
-145.1897513525914
 30
0.0
  0
SEQEND
  5
F2
330
EF
100
AcDbEntity
  8
_U+30EC_U+30A4_U+30E4_U+30FC 1
 62
   179
420
  2234388
370
     9
  0
POLYLINE
  5
F3
330
1F
100
AcDbEntity
  8
_U+30EC_U+30A4_U+30E4_U+30FC 1
 62
   179
420
  2234388
370
     9
100
AcDb2dPolyline
 66
     1
 10
0.0
 20
0.0
 30
0.0
  0
VERTEX
  5
F4
330
F3
100
AcDbEntity
  8
_U+30EC_U+30A4_U+30E4_U+30FC 1
 62
   179
420
  2234388
370
     9
100
AcDbVertex
100
AcDb2dVertex
 10
60.38803984826164
 20
-137.6453516322557
 30
0.0
  0
VERTEX
  5
F5
330
F3
100
AcDbEntity
  8
_U+30EC_U+30A4_U+30E4_U+30FC 1
 62
   179
420
  2234388
370
     9
100
AcDbVertex
100
AcDb2dVertex
 10
63.29810366290862
 20
-135.7023221882965
 30
0.0
  0
SEQEND
  5
F6
330
F3
100
AcDbEntity
  8
_U+30EC_U+30A4_U+30E4_U+30FC 1
 62
   179
420
  2234388
370
     9
  0
POLYLINE
  5
F7
330
1F
100
AcDbEntity
  8
_U+30EC_U+30A4_U+30E4_U+30FC 1
 62
   179
420
  2234388
370
     9
100
AcDb2dPolyline
 66
     1
 10
0.0
 20
0.0
 30
0.0
  0
VERTEX
  5
F8
330
F7
100
AcDbEntity
  8
_U+30EC_U+30A4_U+30E4_U+30FC 1
 62
   179
420
  2234388
370
     9
100
AcDbVertex
100
AcDb2dVertex
 10
88.82937162266282
 20
-145.8877221857506
 30
0.0
  0
VERTEX
  5
F9
330
F7
100
AcDbEntity
  8
_U+30EC_U+30A4_U+30E4_U+30FC 1
 62
   179
420
  2234388
370
     9
100
AcDbVertex
100
AcDb2dVertex
 10
91.52067794289076
 20
-143.6515344085314
 30
0.0
  0
SEQEND
  5
FA
330
F7
100
AcDbEntity
  8
_U+30EC_U+30A4_U+30E4_U+30FC 1
 62
   179
420
  2234388
370
     9
  0
SPLINE
  5
FB
330
1F
100
AcDbEntity
  8
_U+30EC_U+30A4_U+30E4_U+30FC 1
370
     0
100
AcDbSpline
210
0.0
220
0.0
230
1.0
 70
    11
 71
     3
 72
    17
 73
    13
 74
     0
 42
0.0000000001
 43
0.0000000001
 12
1.0
 22
0.0
 32
0.0
 13
1.0
 23
0.0
 33
0.0
 40
0.0
 40
0.0
 40
0.0
 40
0.0
 40
1.0
 40
1.0
 40
1.0
 40
2.0
 40
2.0
 40
2.0
 40
3.0
 40
3.0
 40
3.0
 40
4.0
 40
4.0
 40
4.0
 40
4.0
 10
89.60107299186396
 20
-145.3330849636669
 30
0.0
 10
89.52148632722772
 20
-145.309978019228
 30
0.0
 10
89.47499021730283
 20
-145.2262638525826
 30
0.0
 10
89.4977091056121
 20
-145.1477355192686
 30
0.0
 10
89.5201104939295
 20
-145.0671257970668
 30
0.0
 10
89.60280160293098
 20
-145.0216527415221
 30
0.0
 10
89.68274104533599
 20
-145.0437013526277
 30
0.0
 10
89.76229243219535
 20
-145.0664202415113
 30
0.0
 10
89.8094940976578
 20
-145.1497816303795
 30
0.0
 10
89.78677520934853
 20
-145.2297210748039
 30
0.0
 10
89.76437382103114
 20
-145.3089549636728
 30
0.0
 10
89.68065965650021
 20
-145.3558038525498
 30
0.0
 10
89.60107299186396
 20
-145.3330849636669
 30
0.0
  0
HATCH
  5
FC
330
1F
100
AcDbEntity
  8
_U+30EC_U+30A4_U+30E4_U+30FC 1
 62
   179
420
  2234388
100
AcDbHatch
 10
0.0
 20
0.0
 30
0.0
210
0.0
220
0.0
230
1.0
  2
SOLID
 70
     1
 71
     0
 91
        1
 92
        1
 93
        2
 72
     4
 94
        3
 73
     0
 74
     0
 95
       17
 96
       13
 40
0.0
 40
0.0
 40
0.0
 40
0.0
 40
0.3527777776895833
 40
0.3527777776895833
 40
0.3527777776895833
 40
0.7055555553791667
 40
0.7055555553791667
 40
0.7055555553791667
 40
1.05833333306875
 40
1.05833333306875
 40
1.05833333306875
 40
1.411111110758333
 40
1.411111110758333
 40
1.411111110758333
 40
1.411111110758333
 10
89.60107299186396
 20
-145.3330849636669
 10
89.52148632722772
 20
-145.309978019228
 10
89.47499021730283
 20
-145.2262638525826
 10
89.4977091056121
 20
-145.1477355192686
 10
89.5201104939295
 20
-145.0671257970668
 10
89.60280160293098
 20
-145.0216527415221
 10
89.68274104533599
 20
-145.0437013526277
 10
89.76229243219535
 20
-145.0664202415113
 10
89.8094940976578
 20
-145.1497816303795
 10
89.78677520934853
 20
-145.2297210748039
 10
89.76437382103114
 20
-145.3089549636728
 10
89.68065965650021
 20
-145.3558038525498
 10
89.60107299186396
 20
-145.3330849636669
 97
        0
 72
     1
 10
89.60107299186396
 20
-145.3330849636669
 11
89.60107299186396
 21
-145.3330849636669
 97
        0
 75
     2
 76
     1
 98
        0
  0
SPLINE
  5
FD
330
1F
100
AcDbEntity
  8
_U+30EC_U+30A4_U+30E4_U+30FC 1
370
     0
100
AcDbSpline
210
0.0
220
0.0
230
1.0
 70
    11
 71
     3
 72
    17
 73
    13
 74
     0
 42
0.0000000001
 43
0.0000000001
 12
1.0
 22
0.0
 32
0.0
 13
1.0
 23
0.0
 33
0.0
 40
0.0
 40
0.0
 40
0.0
 40
0.0
 40
1.0
 40
1.0
 40
1.0
 40
2.0
 40
2.0
 40
2.0
 40
3.0
 40
3.0
 40
3.0
 40
4.0
 40
4.0
 40
4.0
 40
4.0
 10
61.1793909391837
 20
-137.2346830212466
 30
0.0
 10
61.09909871900991
 20
-137.2116113545858
 30
0.0
 10
61.05260260908501
 20
-137.1282499657176
 30
0.0
 10
61.07567427516307
 20
-137.0486632990709
 30
0.0
 10
61.09807566348045
 20
-136.9687238546465
 30
0.0
 10
61.18111955025071
 20
-136.9225805213251
 30
0.0
 10
61.26137649264763
 20
-136.9456521879858
 30
0.0
 10
61.3406103795151
 20
-136.9680535768692
 30
0.0
 10
61.38710648943999
 20
-137.0514149657374
 30
0.0
 10
61.36438760113072
 20
-137.1306488546063
 30
0.0
 10
61.34131593505266
 20
-137.2105882990307
 30
0.0
 10
61.25827204828239
 20
-137.2574371879077
 30
0.0
 10
61.1793909391837
 20
-137.2346830212466
 30
0.0
  0
HATCH
  5
FE
330
1F
100
AcDbEntity
  8
_U+30EC_U+30A4_U+30E4_U+30FC 1
 62
   179
420
  2234388
100
AcDbHatch
 10
0.0
 20
0.0
 30
0.0
210
0.0
220
0.0
230
1.0
  2
SOLID
 70
     1
 71
     0
 91
        1
 92
        1
 93
        2
 72
     4
 94
        3
 73
     0
 74
     0
 95
       17
 96
       13
 40
0.0
 40
0.0
 40
0.0
 40
0.0
 40
0.3527777776895833
 40
0.3527777776895833
 40
0.3527777776895833
 40
0.7055555553791667
 40
0.7055555553791667
 40
0.7055555553791667
 40
1.05833333306875
 40
1.05833333306875
 40
1.05833333306875
 40
1.411111110758333
 40
1.411111110758333
 40
1.411111110758333
 40
1.411111110758333
 10
61.1793909391837
 20
-137.2346830212466
 10
61.09909871900991
 20
-137.2116113545858
 10
61.05260260908501
 20
-137.1282499657176
 10
61.07567427516307
 20
-137.0486632990709
 10
61.09807566348045
 20
-136.9687238546465
 10
61.18111955025071
 20
-136.9225805213251
 10
61.26137649264763
 20
-136.9456521879858
 10
61.3406103795151
 20
-136.9680535768692
 10
61.38710648943999
 20
-137.0514149657374
 10
61.36438760113072
 20
-137.1306488546063
 10
61.34131593505266
 20
-137.2105882990307
 10
61.25827204828239
 20
-137.2574371879077
 10
61.1793909391837
 20
-137.2346830212466
 97
        0
 72
     1
 10
61.1793909391837
 20
-137.2346830212466
 11
61.1793909391837
 21
-137.2346830212466
 97
        0
 75
     2
 76
     1
 98
        0
  0
INSERT
  5
100
330
1F
100
AcDbEntity
  8
_U+30EC_U+30A4_U+30E4_U+30FC 1
100
AcDbBlockReference
  2
block 3
 10
0.0
 20
0.0
 30
0.0
  0
POLYLINE
  5
108
330
1F
100
AcDbEntity
  8
_U+30EC_U+30A4_U+30E4_U+30FC 1
 62
   179
420
  2234388
370
     9
100
AcDb2dPolyline
 66
     1
 10
0.0
 20
0.0
 30
0.0
  0
VERTEX
  5
109
330
108
100
AcDbEntity
  8
_U+30EC_U+30A4_U+30E4_U+30FC 1
 62
   179
420
  2234388
370
     9
100
AcDbVertex
100
AcDb2dVertex
 10
96.90741808324135
 20
-144.0656249639836
 30
0.0
  0
VERTEX
  5
10A
330
108
100
AcDbEntity
  8
_U+30EC_U+30A4_U+30E4_U+30FC 1
 62
   179
420
  2234388
370
     9
100
AcDbVertex
100
AcDb2dVertex
 10
120.3874949842147
 20
-124.8028999687993
 30
0.0
  0
SEQEND
  5
10B
330
108
100
AcDbEntity
  8
_U+30EC_U+30A4_U+30E4_U+30FC 1
 62
   179
420
  2234388
370
     9
  0
POLYLINE
  5
10C
330
1F
100
AcDbEntity
  8
_U+30EC_U+30A4_U+30E4_U+30FC 1
 62
   179
420
  2234388
370
     9
100
AcDb2dPolyline
 66
     1
 10
0.0
 20
0.0
 30
0.0
  0
VERTEX
  5
10D
330
10C
100
AcDbEntity
  8
_U+30EC_U+30A4_U+30E4_U+30FC 1
 62
   179
420
  2234388
370
     9
100
AcDbVertex
100
AcDb2dVertex
 10
98.2058872167813
 20
-144.3960013527898
 30
0.0
  0
VERTEX
  5
10E
330
10C
100
AcDbEntity
  8
_U+30EC_U+30A4_U+30E4_U+30FC 1
 62
   179
420
  2234388
370
     9
100
AcDbVertex
100
AcDb2dVertex
 10
94.82006730316077
 20
-143.5109524641223
 30
0.0
  0
SEQEND
  5
10F
330
10C
100
AcDbEntity
  8
_U+30EC_U+30A4_U+30E4_U+30FC 1
 62
   179
420
  2234388
370
     9
  0
POLYLINE
  5
110
330
1F
100
AcDbEntity
  8
_U+30EC_U+30A4_U+30E4_U+30FC 1
 62
   179
420
  2234388
370
     9
100
AcDb2dPolyline
 66
     1
 10
0.0
 20
0.0
 30
0.0
  0
VERTEX
  5
111
330
110
100
AcDbEntity
  8
_U+30EC_U+30A4_U+30E4_U+30FC 1
 62
   179
420
  2234388
370
     9
100
AcDbVertex
100
AcDb2dVertex
 10
121.5247093996464
 20
-125.1243158020523
 30
0.0
  0
VERTEX
  5
112
330
110
100
AcDbEntity
  8
_U+30EC_U+30A4_U+30E4_U+30FC 1
 62
   179
420
  2234388
370
     9
100
AcDbVertex
100
AcDb2dVertex
 10
118.138854208249
 20
-124.2389141356071
 30
0.0
  0
SEQEND
  5
113
330
110
100
AcDbEntity
  8
_U+30EC_U+30A4_U+30E4_U+30FC 1
 62
   179
420
  2234388
370
     9
  0
SPLINE
  5
114
330
1F
100
AcDbEntity
  8
_U+30EC_U+30A4_U+30E4_U+30FC 1
370
     0
100
AcDbSpline
210
0.0
220
0.0
230
1.0
 70
    11
 71
     3
 72
    17
 73
    13
 74
     0
 42
0.0000000001
 43
0.0000000001
 12
1.0
 22
0.0
 32
0.0
 13
1.0
 23
0.0
 33
0.0
 40
0.0
 40
0.0
 40
0.0
 40
0.0
 40
1.0
 40
1.0
 40
1.0
 40
2.0
 40
2.0
 40
2.0
 40
3.0
 40
3.0
 40
3.0
 40
4.0
 40
4.0
 40
4.0
 40
4.0
 10
120.4815455373708
 20
-124.9203749687698
 30
0.0
 10
120.4170930390151
 20
-124.9723744132015
 30
0.0
 10
120.3220194303295
 20
-124.9630963576481
 30
0.0
 10
120.2703374872036
 20
-124.8997021909974
 30
0.0
 10
120.2169622107876
 20
-124.8352849687912
 30
0.0
 10
120.2265930438752
 20
-124.7414108021481
 30
0.0
 10
120.2906574866852
 20
-124.6883530243834
 30
0.0
 10
120.3547572072721
 20
-124.6359655243967
 30
0.0
 10
120.4501835937265
 20
-124.6445733021721
 30
0.0
 10
120.5028916365411
 20
-124.7088494132672
 30
0.0
 10
120.5555935910372
 20
-124.772384691029
 30
0.0
 10
120.5459627579496
 20
-124.8679874687831
 30
0.0
 10
120.4815455373708
 20
-124.9203749687698
 30
0.0
  0
HATCH
  5
115
330
1F
100
AcDbEntity
  8
_U+30EC_U+30A4_U+30E4_U+30FC 1
 62
   179
420
  2234388
100
AcDbHatch
 10
0.0
 20
0.0
 30
0.0
210
0.0
220
0.0
230
1.0
  2
SOLID
 70
     1
 71
     0
 91
        1
 92
        1
 93
        2
 72
     4
 94
        3
 73
     0
 74
     0
 95
       17
 96
       13
 40
0.0
 40
0.0
 40
0.0
 40
0.0
 40
0.3527777776895833
 40
0.3527777776895833
 40
0.3527777776895833
 40
0.7055555553791667
 40
0.7055555553791667
 40
0.7055555553791667
 40
1.05833333306875
 40
1.05833333306875
 40
1.05833333306875
 40
1.411111110758333
 40
1.411111110758333
 40
1.411111110758333
 40
1.411111110758333
 10
120.4815455373708
 20
-124.9203749687698
 10
120.4170930390151
 20
-124.9723744132015
 10
120.3220194303295
 20
-124.9630963576481
 10
120.2703374872036
 20
-124.8997021909974
 10
120.2169622107876
 20
-124.8352849687912
 10
120.2265930438752
 20
-124.7414108021481
 10
120.2906574866852
 20
-124.6883530243834
 10
120.3547572072721
 20
-124.6359655243967
 10
120.4501835937265
 20
-124.6445733021721
 10
120.5028916365411
 20
-124.7088494132672
 10
120.5555935910372
 20
-124.772384691029
 10
120.5459627579496
 20
-124.8679874687831
 10
120.4815455373708
 20
-124.9203749687698
 97
        0
 72
     1
 10
120.4815455373708
 20
-124.9203749687698
 11
120.4815455373708
 21
-124.9203749687698
 97
        0
 75
     2
 76
     1
 98
        0
  0
SPLINE
  5
116
330
1F
100
AcDbEntity
  8
_U+30EC_U+30A4_U+30E4_U+30FC 1
370
     0
100
AcDbSpline
210
0.0
220
0.0
230
1.0
 70
    11
 71
     3
 72
    17
 73
    13
 74
     0
 42
0.0000000001
 43
0.0000000001
 12
1.0
 22
0.0
 32
0.0
 13
1.0
 23
0.0
 33
0.0
 40
0.0
 40
0.0
 40
0.0
 40
0.0
 40
1.0
 40
1.0
 40
1.0
 40
2.0
 40
2.0
 40
2.0
 40
3.0
 40
3.0
 40
3.0
 40
4.0
 40
4.0
 40
4.0
 40
4.0
 10
97.00319724746448
 20
-144.1813713528438
 30
0.0
 10
96.93878002688568
 20
-144.2340763528307
 30
0.0
 10
96.8437064182001
 20
-144.224798297277
 30
0.0
 10
96.79202447507417
 20
-144.1606985750711
 30
0.0
 10
96.73896669865002
 20
-144.0966341306427
 30
0.0
 10
96.74828003174575
 20
-144.0022307973326
 30
0.0
 10
96.81269725232454
 20
-143.9491730195685
 30
0.0
 10
96.87644419514267
 20
-143.8971735751365
 30
0.0
 10
96.9708122482907
 20
-143.9057813529122
 30
0.0
 10
97.02351724694608
 20
-143.9701985751184
 30
0.0
 10
97.07555196784078
 20
-144.0342630195468
 30
0.0
 10
97.06659141251383
 20
-144.1293719084124
 30
0.0
 10
97.00319724746448
 20
-144.1813713528438
 30
0.0
  0
HATCH
  5
117
330
1F
100
AcDbEntity
  8
_U+30EC_U+30A4_U+30E4_U+30FC 1
 62
   179
420
  2234388
100
AcDbHatch
 10
0.0
 20
0.0
 30
0.0
210
0.0
220
0.0
230
1.0
  2
SOLID
 70
     1
 71
     0
 91
        1
 92
        1
 93
        2
 72
     4
 94
        3
 73
     0
 74
     0
 95
       17
 96
       13
 40
0.0
 40
0.0
 40
0.0
 40
0.0
 40
0.3527777776895833
 40
0.3527777776895833
 40
0.3527777776895833
 40
0.7055555553791667
 40
0.7055555553791667
 40
0.7055555553791667
 40
1.05833333306875
 40
1.05833333306875
 40
1.05833333306875
 40
1.411111110758333
 40
1.411111110758333
 40
1.411111110758333
 40
1.411111110758333
 10
97.00319724746448
 20
-144.1813713528438
 10
96.93878002688568
 20
-144.2340763528307
 10
96.8437064182001
 20
-144.224798297277
 10
96.79202447507417
 20
-144.1606985750711
 10
96.73896669865002
 20
-144.0966341306427
 10
96.74828003174575
 20
-144.0022307973326
 10
96.81269725232454
 20
-143.9491730195685
 10
96.87644419514267
 20
-143.8971735751365
 10
96.9708122482907
 20
-143.9057813529122
 10
97.02351724694608
 20
-143.9701985751184
 10
97.07555196784078
 20
-144.0342630195468
 10
97.06659141251383
 20
-144.1293719084124
 10
97.00319724746448
 20
-144.1813713528438
 97
        0
 72
     1
 10
97.00319724746448
 20
-144.1813713528438
 11
97.00319724746448
 21
-144.1813713528438
 97
        0
 75
     2
 76
     1
 98
        0
  0
INSERT
  5
119
330
1F
100
AcDbEntity
  8
_U+30EC_U+30A4_U+30E4_U+30FC 1
100
AcDbBlockReference
  2
block 4
 10
0.0
 20
0.0
 30
0.0
  0
ENDSEC
  0
SECTION
  2
OBJECTS
  0
DICTIONARY
  5
C
330
0
100
AcDbDictionary
281
     1
  3
ACAD_GROUP
350
D
  3
ACAD_LAYOUT
350
1A
  3
ACAD_MATERIAL
350
3B
  3
ACAD_MLEADERSTYLE
350
122
  3
ACAD_MLINESTYLE
350
17
  3
ACAD_PLOTSETTINGS
350
19
  3
ACAD_PLOTSTYLENAME
350
E
  3
ACAD_TABLESTYLE
350
121
  3
ACAD_VISUALSTYLE
350
2A
  0
SUN
  5
3F
330
29
100
AcDbSun
 90
        1
290
     0
 63
     7
421
 16777215
 40
1.0
291
     1
 91
  2455826
 92
 54000000
292
     0
 70
     2
 71
   256
280
     1
  0
DICTIONARY
  5
D
102
{ACAD_REACTORS
330
C
102
}
330
C
100
AcDbDictionary
281
     1
  0
DICTIONARY
  5
1A
102
{ACAD_REACTORS
330
C
102
}
330
C
100
AcDbDictionary
281
     1
  3
Layout1
350
1E
  3
Layout2
350
26
  3
Model
350
22
  0
DICTIONARY
  5
3B
102
{ACAD_REACTORS
330
C
102
}
330
C
100
AcDbDictionary
281
     1
  3
ByBlock
350
3D
  3
ByLayer
350
3C
  3
Global
350
3E
  0
DICTIONARY
  5
122
102
{ACAD_REACTORS
330
C
102
}
330
C
100
AcDbDictionary
281
     1
  0
DICTIONARY
  5
17
102
{ACAD_REACTORS
330
C
102
}
330
C
100
AcDbDictionary
281
     1
  3
Standard
350
18
  0
DICTIONARY
  5
19
102
{ACAD_REACTORS
330
C
102
}
330
C
100
AcDbDictionary
281
     1
  0
ACDBDICTIONARYWDFLT
  5
E
102
{ACAD_REACTORS
330
C
102
}
330
C
100
AcDbDictionary
281
     1
  3
Normal
350
F
100
AcDbDictionaryWithDefault
340
F
  0
DICTIONARY
  5
121
102
{ACAD_REACTORS
330
C
102
}
330
C
100
AcDbDictionary
281
     1
  0
DICTIONARY
  5
2A
102
{ACAD_REACTORS
330
C
102
}
330
C
100
AcDbDictionary
281
     1
  3
2dWireframe
350
2F
  3
3D Hidden
350
31
  3
3dWireframe
350
30
  3
Basic
350
32
  3
Brighten
350
36
  3
ColorChange
350
3A
  3
Conceptual
350
34
  3
Dim
350
35
  3
Facepattern
350
39
  3
Flat
350
2B
  3
FlatWithEdges
350
2C
  3
Gouraud
350
2D
  3
GouraudWithEdges
350
2E
  3
Linepattern
350
38
  3
Realistic
350
33
  3
Thicken
350
37
  0
LAYOUT
  5
1E
102
{ACAD_REACTORS
330
1A
102
}
330
1A
100
AcDbPlotSettings
  1

  2
none_device
  4

  6

 40
0.0
 41
0.0
 42
0.0
 43
0.0
 44
0.0
 45
0.0
 46
0.0
 47
0.0
 48
0.0
 49
0.0
140
0.0
141
0.0
142
1.0
143
1.0
 70
   688
 72
     0
 73
     0
 74
     5
  7

 75
    16
 76
     0
 77
     2
 78
   300
147
1.0
148
0.0
149
0.0
100
AcDbLayout
  1
Layout1
 70
     1
 71
     1
 10
0.0
 20
0.0
 11
12.0
 21
9.0
 12
0.0
 22
0.0
 32
0.0
 14
1.000000000000000E+20
 24
1.000000000000000E+20
 34
1.000000000000000E+20
 15
-1.000000000000000E+20
 25
-1.000000000000000E+20
 35
-1.000000000000000E+20
146
0.0
 13
0.0
 23
0.0
 33
0.0
 16
1.0
 26
0.0
 36
0.0
 17
0.0
 27
1.0
 37
0.0
 76
     0
330
1B
  0
LAYOUT
  5
26
102
{ACAD_REACTORS
330
1A
102
}
330
1A
100
AcDbPlotSettings
  1

  2
none_device
  4

  6

 40
0.0
 41
0.0
 42
0.0
 43
0.0
 44
0.0
 45
0.0
 46
0.0
 47
0.0
 48
0.0
 49
0.0
140
0.0
141
0.0
142
1.0
143
1.0
 70
   688
 72
     0
 73
     0
 74
     5
  7

 75
    16
 76
     0
 77
     2
 78
   300
147
1.0
148
0.0
149
0.0
100
AcDbLayout
  1
Layout2
 70
     1
 71
     2
 10
0.0
 20
0.0
 11
0.0
 21
0.0
 12
0.0
 22
0.0
 32
0.0
 14
0.0
 24
0.0
 34
0.0
 15
0.0
 25
0.0
 35
0.0
146
0.0
 13
0.0
 23
0.0
 33
0.0
 16
1.0
 26
0.0
 36
0.0
 17
0.0
 27
1.0
 37
0.0
 76
     0
330
23
  0
LAYOUT
  5
22
102
{ACAD_REACTORS
330
1A
102
}
330
1A
100
AcDbPlotSettings
  1

  2
none_device
  4

  6

 40
0.0
 41
0.0
 42
0.0
 43
0.0
 44
0.0
 45
0.0
 46
0.0
 47
0.0
 48
0.0
 49
0.0
140
0.0
141
0.0
142
1.0
143
1.0
 70
  1712
 72
     0
 73
     0
 74
     0
  7

 75
     0
 76
     0
 77
     2
 78
   300
147
1.0
148
0.0
149
0.0
100
AcDbLayout
  1
Model
 70
     1
 71
     0
 10
0.0
 20
0.0
 11
12.0
 21
9.0
 12
0.0
 22
0.0
 32
0.0
 14
1.000000000000000E+20
 24
1.000000000000000E+20
 34
1.000000000000000E+20
 15
-1.000000000000000E+20
 25
-1.000000000000000E+20
 35
-1.000000000000000E+20
146
0.0
 13
0.0
 23
0.0
 33
0.0
 16
1.0
 26
0.0
 36
0.0
 17
0.0
 27
1.0
 37
0.0
 76
     0
330
1F
331
29
  0
MATERIAL
  5
3D
102
{ACAD_REACTORS
330
3B
102
}
330
3B
100
AcDbMaterial
  1
ByBlock
 72
     1
 94
      127
  0
MATERIAL
  5
3C
102
{ACAD_REACTORS
330
3B
102
}
330
3B
100
AcDbMaterial
  1
ByLayer
 72
     1
 94
      127
  0
MATERIAL
  5
3E
102
{ACAD_REACTORS
330
3B
102
}
330
3B
100
AcDbMaterial
  1
Global
 72
     1
 94
      127
  0
MLINESTYLE
  5
18
102
{ACAD_REACTORS
330
17
102
}
330
17
100
AcDbMlineStyle
  2
Standard
 70
     0
  3

 62
   256
 51
90.0
 52
90.0
 71
     2
 49
0.5
 62
   256
  6
BYLAYER
 49
-0.5
 62
   256
  6
BYLAYER
  0
ACDBPLACEHOLDER
  5
F
102
{ACAD_REACTORS
330
E
102
}
330
E
  0
VISUALSTYLE
  5
2F
102
{ACAD_REACTORS
330
2A
102
}
330
2A
100
AcDbVisualStyle
  2
2dWireframe
 70
     4
177
     2
291
     0
 71
     0
176
     1
 72
     2
176
     1
 73
     0
176
     1
 90
        0
176
     1
 40
-0.6
176
     1
 41
-30.0
176
     1
 62
     5
 63
     7
421
 16777215
176
     1
 74
     1
176
     1
 91
        4
176
     1
 64
     7
176
     1
 65
   257
176
     1
 75
     1
176
     1
175
     1
176
     1
 42
1.0
176
     1
 92
        0
176
     1
 66
   257
176
     1
 43
1.0
176
     1
 76
     1
176
     1
 77
     6
176
     1
 78
     2
176
     1
 67
     7
176
     1
 79
     5
176
     1
170
     0
176
     1
171
     0
176
     1
290
     0
176
     1
 93
        1
176
     1
 44
0.0
176
     1
173
     0
176
     1
  0
VISUALSTYLE
  5
31
102
{ACAD_REACTORS
330
2A
102
}
330
2A
100
AcDbVisualStyle
  2
3D Hidden
 70
     6
177
     2
291
     0
 71
     1
176
     1
 72
     2
176
     1
 73
     2
176
     1
 90
        0
176
     1
 40
-0.6
176
     1
 41
-30.0
176
     1
 62
     5
 63
     7
421
 16777215
176
     1
 74
     2
176
     1
 91
        2
176
     1
 64
     7
176
     1
 65
   257
176
     1
 75
     2
176
     1
175
     1
176
     1
 42
40.0
176
     1
 92
        0
176
     1
 66
   257
176
     1
 43
1.0
176
     1
 76
     1
176
     1
 77
     6
176
     1
 78
     2
176
     1
 67
     7
176
     1
 79
     3
176
     1
170
     0
176
     1
171
     0
176
     1
290
     0
176
     1
 93
        1
176
     1
 44
0.0
176
     1
173
     0
176
     1
  0
VISUALSTYLE
  5
30
102
{ACAD_REACTORS
330
2A
102
}
330
2A
100
AcDbVisualStyle
  2
3dWireframe
 70
     5
177
     2
291
     0
 71
     0
176
     1
 72
     2
176
     1
 73
     0
176
     1
 90
        0
176
     1
 40
-0.6
176
     1
 41
-30.0
176
     1
 62
     5
 63
     7
421
 16777215
176
     1
 74
     1
176
     1
 91
        4
176
     1
 64
     7
176
     1
 65
   257
176
     1
 75
     1
176
     1
175
     1
176
     1
 42
1.0
176
     1
 92
        0
176
     1
 66
   257
176
     1
 43
1.0
176
     1
 76
     1
176
     1
 77
     6
176
     1
 78
     2
176
     1
 67
     7
176
     1
 79
     5
176
     1
170
     0
176
     1
171
     0
176
     1
290
     0
176
     1
 93
        1
176
     1
 44
0.0
176
     1
173
     0
176
     1
  0
VISUALSTYLE
  5
32
102
{ACAD_REACTORS
330
2A
102
}
330
2A
100
AcDbVisualStyle
  2
Basic
 70
     7
177
     2
291
     1
 71
     1
176
     1
 72
     0
176
     1
 73
     1
176
     1
 90
        0
176
     1
 40
-0.6
176
     1
 41
-30.0
176
     1
 62
     5
 63
     7
421
 16777215
176
     1
 74
     0
176
     1
 91
        4
176
     1
 64
     7
176
     1
 65
   257
176
     1
 75
     1
176
     1
175
     1
176
     1
 42
1.0
176
     1
 92
        8
176
     1
 66
     7
176
     1
 43
1.0
176
     1
 76
     1
176
     1
 77
     6
176
     1
 78
     2
176
     1
 67
     7
176
     1
 79
     5
176
     1
170
     0
176
     1
171
     0
176
     1
290
     0
176
     1
 93
        1
176
     1
 44
0.0
176
     1
173
     0
176
     1
  0
VISUALSTYLE
  5
36
102
{ACAD_REACTORS
330
2A
102
}
330
2A
100
AcDbVisualStyle
  2
Brighten
 70
    12
177
     2
291
     1
 71
     2
176
     1
 72
     2
176
     1
 73
     0
176
     1
 90
        0
176
     1
 40
-0.6
176
     1
 41
-30.0
176
     1
 62
     5
 63
     7
421
 16777215
176
     1
 74
     1
176
     1
 91
        4
176
     1
 64
     7
176
     1
 65
   257
176
     1
 75
     1
176
     1
175
     1
176
     1
 42
1.0
176
     1
 92
        8
176
     1
 66
     7
176
     1
 43
1.0
176
     1
 76
     1
176
     1
 77
     6
176
     1
 78
     2
176
     1
 67
     7
176
     1
 79
     5
176
     1
170
     0
176
     1
171
     0
176
     1
290
     0
176
     1
 93
        1
176
     1
 44
50.0
176
     1
173
     0
176
     1
  0
VISUALSTYLE
  5
3A
102
{ACAD_REACTORS
330
2A
102
}
330
2A
100
AcDbVisualStyle
  2
ColorChange
 70
    16
177
     2
291
     1
 71
     2
176
     1
 72
     2
176
     1
 73
     3
176
     1
 90
        0
176
     1
 40
-0.6
176
     1
 41
-30.0
176
     1
 62
     5
 63
     8
421
  8421504
176
     1
 74
     1
176
     1
 91
        4
176
     1
 64
     7
176
     1
 65
   257
176
     1
 75
     1
176
     1
175
     1
176
     1
 42
1.0
176
     1
 92
        8
176
     1
 66
     8
424
  8421504
176
     1
 43
1.0
176
     1
 76
     1
176
     1
 77
     6
176
     1
 78
     2
176
     1
 67
     7
176
     1
 79
     5
176
     1
170
     0
176
     1
171
     0
176
     1
290
     0
176
     1
 93
        1
176
     1
 44
0.0
176
     1
173
     0
176
     1
  0
VISUALSTYLE
  5
34
102
{ACAD_REACTORS
330
2A
102
}
330
2A
100
AcDbVisualStyle
  2
Conceptual
 70
     9
177
     2
291
     0
 71
     3
176
     1
 72
     2
176
     1
 73
     0
176
     1
 90
        0
176
     1
 40
-0.6
176
     1
 41
-30.0
176
     1
 62
     5
 63
     7
421
 16777215
176
     1
 74
     2
176
     1
 91
        2
176
     1
 64
     7
176
     1
 65
   257
176
     1
 75
     1
176
     1
175
     1
176
     1
 42
40.0
176
     1
 92
        8
176
     1
 66
     7
176
     1
 43
1.0
176
     1
 76
     1
176
     1
 77
     6
176
     1
 78
     2
176
     1
 67
     7
176
     1
 79
     3
176
     1
170
     0
176
     1
171
     0
176
     1
290
     0
176
     1
 93
        1
176
     1
 44
0.0
176
     1
173
     0
176
     1
  0
VISUALSTYLE
  5
35
102
{ACAD_REACTORS
330
2A
102
}
330
2A
100
AcDbVisualStyle
  2
Dim
 70
    11
177
     2
291
     1
 71
     2
176
     1
 72
     2
176
     1
 73
     0
176
     1
 90
        0
176
     1
 40
-0.6
176
     1
 41
-30.0
176
     1
 62
     5
 63
     7
421
 16777215
176
     1
 74
     1
176
     1
 91
        4
176
     1
 64
     7
176
     1
 65
   257
176
     1
 75
     1
176
     1
175
     1
176
     1
 42
1.0
176
     1
 92
        8
176
     1
 66
     7
176
     1
 43
1.0
176
     1
 76
     1
176
     1
 77
     6
176
     1
 78
     2
176
     1
 67
     7
176
     1
 79
     5
176
     1
170
     0
176
     1
171
     0
176
     1
290
     0
176
     1
 93
        1
176
     1
 44
-50.0
176
     1
173
     0
176
     1
  0
VISUALSTYLE
  5
39
102
{ACAD_REACTORS
330
2A
102
}
330
2A
100
AcDbVisualStyle
  2
Facepattern
 70
    15
177
     2
291
     1
 71
     2
176
     1
 72
     2
176
     1
 73
     0
176
     1
 90
        0
176
     1
 40
-0.6
176
     1
 41
-30.0
176
     1
 62
     5
 63
     7
421
 16777215
176
     1
 74
     1
176
     1
 91
        4
176
     1
 64
     7
176
     1
 65
   257
176
     1
 75
     1
176
     1
175
     1
176
     1
 42
1.0
176
     1
 92
        8
176
     1
 66
     7
176
     1
 43
1.0
176
     1
 76
     1
176
     1
 77
     6
176
     1
 78
     2
176
     1
 67
     7
176
     1
 79
     5
176
     1
170
     0
176
     1
171
     0
176
     1
290
     0
176
     1
 93
        1
176
     1
 44
0.0
176
     1
173
     0
176
     1
  0
VISUALSTYLE
  5
2B
102
{ACAD_REACTORS
330
2A
102
}
330
2A
100
AcDbVisualStyle
  2
Flat
 70
     0
177
     2
291
     1
 71
     2
176
     1
 72
     1
176
     1
 73
     1
176
     1
 90
        2
176
     1
 40
-0.6
176
     1
 41
30.0
176
     1
 62
     5
 63
     7
421
 16777215
176
     1
 74
     0
176
     1
 91
        4
176
     1
 64
     7
176
     1
 65
   257
176
     1
 75
     1
176
     1
175
     1
176
     1
 42
1.0
176
     1
 92
        8
176
     1
 66
     7
176
     1
 43
1.0
176
     1
 76
     1
176
     1
 77
     6
176
     1
 78
     2
176
     1
 67
     7
176
     1
 79
     5
176
     1
170
     0
176
     1
171
     0
176
     1
290
     0
176
     1
 93
       13
176
     1
 44
0.0
176
     1
173
     0
176
     1
  0
VISUALSTYLE
  5
2C
102
{ACAD_REACTORS
330
2A
102
}
330
2A
100
AcDbVisualStyle
  2
FlatWithEdges
 70
     1
177
     2
291
     1
 71
     2
176
     1
 72
     1
176
     1
 73
     1
176
     1
 90
        2
176
     1
 40
-0.6
176
     1
 41
30.0
176
     1
 62
     5
 63
     7
421
 16777215
176
     1
 74
     1
176
     1
 91
        4
176
     1
 64
     7
176
     1
 65
   257
176
     1
 75
     1
176
     1
175
     1
176
     1
 42
1.0
176
     1
 92
        0
176
     1
 66
   257
176
     1
 43
1.0
176
     1
 76
     1
176
     1
 77
     6
176
     1
 78
     2
176
     1
 67
     7
176
     1
 79
     5
176
     1
170
     0
176
     1
171
     0
176
     1
290
     0
176
     1
 93
       13
176
     1
 44
0.0
176
     1
173
     0
176
     1
  0
VISUALSTYLE
  5
2D
102
{ACAD_REACTORS
330
2A
102
}
330
2A
100
AcDbVisualStyle
  2
Gouraud
 70
     2
177
     2
291
     1
 71
     2
176
     1
 72
     2
176
     1
 73
     1
176
     1
 90
        2
176
     1
 40
-0.6
176
     1
 41
30.0
176
     1
 62
     5
 63
     7
421
 16777215
176
     1
 74
     0
176
     1
 91
        4
176
     1
 64
     7
176
     1
 65
   257
176
     1
 75
     1
176
     1
175
     1
176
     1
 42
1.0
176
     1
 92
        0
176
     1
 66
     7
176
     1
 43
1.0
176
     1
 76
     1
176
     1
 77
     6
176
     1
 78
     2
176
     1
 67
     7
176
     1
 79
     5
176
     1
170
     0
176
     1
171
     0
176
     1
290
     0
176
     1
 93
       13
176
     1
 44
0.0
176
     1
173
     0
176
     1
  0
VISUALSTYLE
  5
2E
102
{ACAD_REACTORS
330
2A
102
}
330
2A
100
AcDbVisualStyle
  2
GouraudWithEdges
 70
     3
177
     2
291
     1
 71
     2
176
     1
 72
     2
176
     1
 73
     1
176
     1
 90
        2
176
     1
 40
-0.6
176
     1
 41
30.0
176
     1
 62
     5
 63
     7
421
 16777215
176
     1
 74
     1
176
     1
 91
        4
176
     1
 64
     7
176
     1
 65
   257
176
     1
 75
     1
176
     1
175
     1
176
     1
 42
1.0
176
     1
 92
        0
176
     1
 66
   257
176
     1
 43
1.0
176
     1
 76
     1
176
     1
 77
     6
176
     1
 78
     2
176
     1
 67
     7
176
     1
 79
     5
176
     1
170
     0
176
     1
171
     0
176
     1
290
     0
176
     1
 93
       13
176
     1
 44
0.0
176
     1
173
     0
176
     1
  0
VISUALSTYLE
  5
38
102
{ACAD_REACTORS
330
2A
102
}
330
2A
100
AcDbVisualStyle
  2
Linepattern
 70
    14
177
     2
291
     1
 71
     2
176
     1
 72
     2
176
     1
 73
     0
176
     1
 90
        0
176
     1
 40
-0.6
176
     1
 41
-30.0
176
     1
 62
     5
 63
     7
421
 16777215
176
     1
 74
     1
176
     1
 91
        4
176
     1
 64
     7
176
     1
 65
   257
176
     1
 75
     7
176
     1
175
     7
176
     1
 42
1.0
176
     1
 92
        8
176
     1
 66
     7
176
     1
 43
1.0
176
     1
 76
     1
176
     1
 77
     6
176
     1
 78
     2
176
     1
 67
     7
176
     1
 79
     5
176
     1
170
     0
176
     1
171
     0
176
     1
290
     0
176
     1
 93
        1
176
     1
 44
0.0
176
     1
173
     0
176
     1
  0
VISUALSTYLE
  5
33
102
{ACAD_REACTORS
330
2A
102
}
330
2A
100
AcDbVisualStyle
  2
Realistic
 70
     8
177
     2
291
     0
 71
     2
176
     1
 72
     2
176
     1
 73
     0
176
     1
 90
        0
176
     1
 40
-0.6
176
     1
 41
-30.0
176
     1
 62
     5
 63
     7
421
 16777215
176
     1
 74
     1
176
     1
 91
        0
176
     1
 64
     7
176
     1
 65
   257
176
     1
 75
     1
176
     1
175
     1
176
     1
 42
1.0
176
     1
 92
        8
176
     1
 66
     8
424
  7895160
176
     1
 43
1.0
176
     1
 76
     1
176
     1
 77
     6
176
     1
 78
     2
176
     1
 67
     7
176
     1
 79
     5
176
     1
170
     0
176
     1
171
     0
176
     1
290
     0
176
     1
 93
       13
176
     1
 44
0.0
176
     1
173
     0
176
     1
  0
VISUALSTYLE
  5
37
102
{ACAD_REACTORS
330
2A
102
}
330
2A
100
AcDbVisualStyle
  2
Thicken
 70
    13
177
     2
291
     1
 71
     2
176
     1
 72
     2
176
     1
 73
     0
176
     1
 90
        0
176
     1
 40
-0.6
176
     1
 41
-30.0
176
     1
 62
     5
 63
     7
421
 16777215
176
     1
 74
     1
176
     1
 91
        4
176
     1
 64
     7
176
     1
 65
   257
176
     1
 75
     1
176
     1
175
     1
176
     1
 42
1.0
176
     1
 92
       12
176
     1
 66
     7
176
     1
 43
1.0
176
     1
 76
     1
176
     1
 77
     6
176
     1
 78
     2
176
     1
 67
     7
176
     1
 79
     5
176
     1
170
     0
176
     1
171
     0
176
     1
290
     0
176
     1
 93
        1
176
     1
 44
0.0
176
     1
173
     0
176
     1
  0
ENDSEC
  0
EOF
