  0
SECTION
  2
HEADER
  9
$ACADVER
  1
AC1024
  9
$ACADMAINTVER
 70
   226
  9
$DWGCODEPAGE
  3
ANSI_932
  9
$INSBASE
 10
0.0
 20
0.0
 30
0.0
  9
$EXTMIN
 10
1.000000000000000E+20
 20
1.000000000000000E+20
 30
1.000000000000000E+20
  9
$EXTMAX
 10
-1.000000000000000E+20
 20
-1.000000000000000E+20
 30
-1.000000000000000E+20
  9
$LIMMIN
 10
0.0
 20
0.0
  9
$LIMMAX
 10
12.0
 20
9.0
  9
$ORTHOMODE
 70
     0
  9
$REGENMODE
 70
     1
  9
$FILLMODE
 70
     1
  9
$QTEXTMODE
 70
     0
  9
$MIRRTEXT
 70
     0
  9
$LTSCALE
 40
1.0
  9
$ATTMODE
 70
     1
  9
$TEXTSIZE
 40
0.2
  9
$TRACEWID
 40
0.05
  9
$TEXTSTYLE
  7
Standard
  9
$CLAYER
  8
0
  9
$CELTYPE
  6
ByLayer
  9
$CECOLOR
 62
   256
  9
$CELTSCALE
 40
1.0
  9
$DISPSILH
 70
     0
  9
$DIMSCALE
 40
1.0
  9
$DIMASZ
 40
0.18
  9
$DIMEXO
 40
0.0625
  9
$DIMDLI
 40
0.38
  9
$DIMRND
 40
0.0
  9
$DIMDLE
 40
0.0
  9
$DIMEXE
 40
0.18
  9
$DIMTP
 40
0.0
  9
$DIMTM
 40
0.0
  9
$DIMTXT
 40
0.18
  9
$DIMCEN
 40
0.09
  9
$DIMTSZ
 40
0.0
  9
$DIMTOL
 70
     0
  9
$DIMLIM
 70
     0
  9
$DIMTIH
 70
     1
  9
$DIMTOH
 70
     1
  9
$DIMSE1
 70
     0
  9
$DIMSE2
 70
     0
  9
$DIMTAD
 70
     0
  9
$DIMZIN
 70
     0
  9
$DIMBLK
  1

  9
$DIMASO
 70
     1
  9
$DIMSHO
 70
     1
  9
$DIMPOST
  1

  9
$DIMAPOST
  1

  9
$DIMALT
 70
     0
  9
$DIMALTD
 70
     2
  9
$DIMALTF
 40
25.4
  9
$DIMLFAC
 40
1.0
  9
$DIMTOFL
 70
     0
  9
$DIMTVP
 40
0.0
  9
$DIMTIX
 70
     0
  9
$DIMSOXD
 70
     0
  9
$DIMSAH
 70
     0
  9
$DIMBLK1
  1

  9
$DIMBLK2
  1

  9
$DIMSTYLE
  2
Standard
  9
$DIMCLRD
 70
     0
  9
$DIMCLRE
 70
     0
  9
$DIMCLRT
 70
     0
  9
$DIMTFAC
 40
1.0
  9
$DIMGAP
 40
0.09
  9
$DIMJUST
 70
     0
  9
$DIMSD1
 70
     0
  9
$DIMSD2
 70
     0
  9
$DIMTOLJ
 70
     1
  9
$DIMTZIN
 70
     0
  9
$DIMALTZ
 70
     0
  9
$DIMALTTZ
 70
     0
  9
$DIMUPT
 70
     0
  9
$DIMDEC
 70
     4
  9
$DIMTDEC
 70
     4
  9
$DIMALTU
 70
     2
  9
$DIMALTTD
 70
     2
  9
$DIMTXSTY
  7
Standard
  9
$DIMAUNIT
 70
     0
  9
$DIMADEC
 70
     0
  9
$DIMALTRND
 40
0.0
  9
$DIMAZIN
 70
     0
  9
$DIMDSEP
 70
    46
  9
$DIMATFIT
 70
     3
  9
$DIMFRAC
 70
     0
  9
$DIMLDRBLK
  1

  9
$DIMLUNIT
 70
     2
  9
$DIMLWD
 70
    -2
  9
$DIMLWE
 70
    -2
  9
$DIMTMOVE
 70
     0
  9
$DIMFXL
 40
1.0
  9
$DIMFXLON
 70
     0
  9
$DIMJOGANG
 40
0.7853981633974483
  9
$DIMTFILL
 70
     0
  9
$DIMTFILLCLR
 70
     0
  9
$DIMARCSYM
 70
     0
  9
$DIMLTYPE
  6

  9
$DIMLTEX1
  6

  9
$DIMLTEX2
  6

  9
$DIMTXTDIRECTION
 70
     0
  9
$LUNITS
 70
     2
  9
$LUPREC
 70
     4
  9
$SKETCHINC
 40
0.1
  9
$FILLETRAD
 40
0.0
  9
$AUNITS
 70
     0
  9
$AUPREC
 70
     0
  9
$MENU
  1
.
  9
$ELEVATION
 40
0.0
  9
$PELEVATION
 40
0.0
  9
$THICKNESS
 40
0.0
  9
$LIMCHECK
 70
     0
  9
$CHAMFERA
 40
0.0
  9
$CHAMFERB
 40
0.0
  9
$CHAMFERC
 40
0.0
  9
$CHAMFERD
 40
0.0
  9
$SKPOLY
 70
     0
  9
$TDCREATE
 40
2459569.490208334
  9
$TDUCREATE
 40
2459569.115208334
  9
$TDUPDATE
 40
2459569.490208334
  9
$TDUUPDATE
 40
2459569.115208334
  9
$TDINDWG
 40
0.0000000000
  9
$TDUSRTIMER
 40
0.0000000000
  9
$USRTIMER
 70
     1
  9
$ANGBASE
 50
0.0
  9
$ANGDIR
 70
     0
  9
$PDMODE
 70
     0
  9
$PDSIZE
 40
0.0
  9
$PLINEWID
 40
0.0
  9
$SPLFRAME
 70
     0
  9
$SPLINETYPE
 70
     6
  9
$SPLINESEGS
 70
     8
  9
$HANDSEED
  5
15B
  9
$SURFTAB1
 70
     6
  9
$SURFTAB2
 70
     6
  9
$SURFTYPE
 70
     6
  9
$SURFU
 70
     6
  9
$SURFV
 70
     6
  9
$UCSBASE
  2

  9
$UCSNAME
  2

  9
$UCSORG
 10
0.0
 20
0.0
 30
0.0
  9
$UCSXDIR
 10
1.0
 20
0.0
 30
0.0
  9
$UCSYDIR
 10
0.0
 20
1.0
 30
0.0
  9
$UCSORTHOREF
  2

  9
$UCSORTHOVIEW
 70
     0
  9
$UCSORGTOP
 10
0.0
 20
0.0
 30
0.0
  9
$UCSORGBOTTOM
 10
0.0
 20
0.0
 30
0.0
  9
$UCSORGLEFT
 10
0.0
 20
0.0
 30
0.0
  9
$UCSORGRIGHT
 10
0.0
 20
0.0
 30
0.0
  9
$UCSORGFRONT
 10
0.0
 20
0.0
 30
0.0
  9
$UCSORGBACK
 10
0.0
 20
0.0
 30
0.0
  9
$PUCSBASE
  2

  9
$PUCSNAME
  2

  9
$PUCSORG
 10
0.0
 20
0.0
 30
0.0
  9
$PUCSXDIR
 10
1.0
 20
0.0
 30
0.0
  9
$PUCSYDIR
 10
0.0
 20
1.0
 30
0.0
  9
$PUCSORTHOREF
  2

  9
$PUCSORTHOVIEW
 70
     0
  9
$PUCSORGTOP
 10
0.0
 20
0.0
 30
0.0
  9
$PUCSORGBOTTOM
 10
0.0
 20
0.0
 30
0.0
  9
$PUCSORGLEFT
 10
0.0
 20
0.0
 30
0.0
  9
$PUCSORGRIGHT
 10
0.0
 20
0.0
 30
0.0
  9
$PUCSORGFRONT
 10
0.0
 20
0.0
 30
0.0
  9
$PUCSORGBACK
 10
0.0
 20
0.0
 30
0.0
  9
$USERI1
 70
     0
  9
$USERI2
 70
     0
  9
$USERI3
 70
     0
  9
$USERI4
 70
     0
  9
$USERI5
 70
     0
  9
$USERR1
 40
0.0
  9
$USERR2
 40
0.0
  9
$USERR3
 40
0.0
  9
$USERR4
 40
0.0
  9
$USERR5
 40
0.0
  9
$WORLDVIEW
 70
     1
  9
$SHADEDGE
 70
     3
  9
$SHADEDIF
 70
    70
  9
$TILEMODE
 70
     1
  9
$MAXACTVP
 70
    64
  9
$PINSBASE
 10
0.0
 20
0.0
 30
0.0
  9
$PLIMCHECK
 70
     0
  9
$PEXTMIN
 10
1.000000000000000E+20
 20
1.000000000000000E+20
 30
1.000000000000000E+20
  9
$PEXTMAX
 10
-1.000000000000000E+20
 20
-1.000000000000000E+20
 30
-1.000000000000000E+20
  9
$PLIMMIN
 10
0.0
 20
0.0
  9
$PLIMMAX
 10
12.0
 20
9.0
  9
$UNITMODE
 70
     0
  9
$VISRETAIN
 70
     1
  9
$PLINEGEN
 70
     0
  9
$PSLTSCALE
 70
     1
  9
$TREEDEPTH
 70
  3020
  9
$CMLSTYLE
  2
Standard
  9
$CMLJUST
 70
     0
  9
$CMLSCALE
 40
1.0
  9
$PROXYGRAPHICS
 70
     1
  9
$MEASUREMENT
 70
     0
  9
$CELWEIGHT
370
    -1
  9
$ENDCAPS
280
     0
  9
$JOINSTYLE
280
     0
  9
$LWDISPLAY
290
     1
  9
$INSUNITS
 70
     4
  9
$HYPERLINKBASE
  1

  9
$STYLESHEET
  1

  9
$XEDIT
290
     1
  9
$CEPSNTYPE
380
     0
  9
$PSTYLEMODE
290
     1
  9
$FINGERPRINTGUID
  2
{87087D6F-69BB-8846-BC2E-7166DE07DE88}
  9
$VERSIONGUID
  2
{D160CA62-38FA-B844-BA18-AEB073F7E2BC}
  9
$EXTNAMES
290
     1
  9
$PSVPSCALE
 40
0.0
  9
$OLESTARTUP
290
     0
  9
$SORTENTS
280
   127
  9
$INDEXCTL
280
     0
  9
$HIDETEXT
280
     1
  9
$XCLIPFRAME
280
     2
  9
$HALOGAP
280
     0
  9
$OBSCOLOR
 70
   257
  9
$OBSLTYPE
280
     0
  9
$INTERSECTIONDISPLAY
280
     0
  9
$INTERSECTIONCOLOR
 70
   257
  9
$DIMASSOC
280
     2
  9
$PROJECTNAME
  1

  9
$CAMERADISPLAY
290
     0
  9
$LENSLENGTH
 40
50.0
  9
$CAMERAHEIGHT
 40
0.0
  9
$STEPSPERSEC
 40
2.0
  9
$STEPSIZE
 40
6.0
  9
$3DDWFPREC
 40
2.0
  9
$PSOLWIDTH
 40
0.25
  9
$PSOLHEIGHT
 40
4.0
  9
$LOFTANG1
 40
1.570796326794896
  9
$LOFTANG2
 40
1.570796326794896
  9
$LOFTMAG1
 40
0.0
  9
$LOFTMAG2
 40
0.0
  9
$LOFTPARAM
 70
     7
  9
$LOFTNORMALS
280
     1
  9
$LATITUDE
 40
37.795
  9
$LONGITUDE
 40
-122.394
  9
$NORTHDIRECTION
 40
0.0
  9
$TIMEZONE
 70
 -8000
  9
$LIGHTGLYPHDISPLAY
280
     1
  9
$TILEMODELIGHTSYNCH
280
     1
  9
$CMATERIAL
347
11
  9
$SOLIDHIST
280
     0
  9
$SHOWHIST
280
     1
  9
$DWFFRAME
280
     2
  9
$DGNFRAME
280
     0
  9
$REALWORLDSCALE
290
     1
  9
$INTERFERECOLOR
 62
     1
  9
$INTERFEREOBJVS
345
33
  9
$INTERFEREVPVS
346
30
  9
$CSHADOW
280
     0
  9
$SHADOWPLANELOCATION
 40
0.0
  0
ENDSEC
  0
SECTION
  2
CLASSES
  0
CLASS
  1
ACDBDICTIONARYWDFLT
  2
AcDbDictionaryWithDefault
  3
ObjectDBX Classes
 90
        0
 91
        1
280
     0
281
     0
  0
CLASS
  1
MATERIAL
  2
AcDbMaterial
  3
ObjectDBX Classes
 90
     1153
 91
        3
280
     0
281
     0
  0
CLASS
  1
VISUALSTYLE
  2
AcDbVisualStyle
  3
ObjectDBX Classes
 90
     4095
 91
       24
280
     0
281
     0
  0
CLASS
  1
SCALE
  2
AcDbScale
  3
ObjectDBX Classes
 90
     1153
 91
       17
280
     0
281
     0
  0
CLASS
  1
TABLESTYLE
  2
AcDbTableStyle
  3
ObjectDBX Classes
 90
     4095
 91
        1
280
     0
281
     0
  0
CLASS
  1
MLEADERSTYLE
  2
AcDbMLeaderStyle
  3
ACDB_MLEADERSTYLE_CLASS
 90
     4095
 91
        1
280
     0
281
     0
  0
CLASS
  1
ACDBSECTIONVIEWSTYLE
  2
AcDbSectionViewStyle
  3
ObjectDBX Classes
 90
     1025
 91
        1
280
     0
281
     0
  0
CLASS
  1
ACDBDETAILVIEWSTYLE
  2
AcDbDetailViewStyle
  3
ObjectDBX Classes
 90
     1025
 91
        1
280
     0
281
     0
  0
CLASS
  1
DICTIONARYVAR
  2
AcDbDictionaryVar
  3
ObjectDBX Classes
 90
        0
 91
        5
280
     0
281
     0
  0
CLASS
  1
CELLSTYLEMAP
  2
AcDbCellStyleMap
  3
ObjectDBX Classes
 90
     1152
 91
        1
280
     0
281
     0
  0
ENDSEC
  0
SECTION
  2
TABLES
  0
TABLE
  2
VPORT
  5
8
330
0
100
AcDbSymbolTable
 70
     1
  0
VPORT
  5
57
330
8
100
AcDbSymbolTableRecord
100
AcDbViewportTableRecord
  2
*Active
 70
     0
 10
0.0
 20
0.0
 11
1.0
 21
1.0
 12
0.0
 22
0.0
 13
0.0
 23
0.0
 14
1.0
 24
1.0
 15
0.0
 25
0.0
 16
0.0
 26
0.0
 36
1.0
 17
104.9999999737534
 27
-148.4999999628701
 37
0.0
 40
302.939999924255
 41
0.7070707070707534
 42
50.0
 43
0.0
 44
0.0
 50
0.0
 51
0.0
 71
     0
 72
   100
 73
     1
 74
     0
 75
     1
 76
     0
 77
     0
 78
     0
281
     0
 65
     1
110
0.0
120
0.0
130
0.0
111
1.0
121
0.0
131
0.0
112
0.0
122
1.0
132
0.0
 79
     0
146
0.0
 60
     3
 61
     5
292
     1
282
     1
141
0.0
142
0.0
 63
   250
421
  3355443
  0
ENDTAB
  0
TABLE
  2
LTYPE
  5
5
330
0
100
AcDbSymbolTable
 70
     1
  0
LTYPE
  5
5B
330
5
100
AcDbSymbolTableRecord
100
AcDbLinetypeTableRecord
  2
ByBlock
 70
     0
  3

 72
    65
 73
     0
 40
0.0
  0
LTYPE
  5
5C
330
5
100
AcDbSymbolTableRecord
100
AcDbLinetypeTableRecord
  2
ByLayer
 70
     0
  3

 72
    65
 73
     0
 40
0.0
  0
LTYPE
  5
5D
330
5
100
AcDbSymbolTableRecord
100
AcDbLinetypeTableRecord
  2
Continuous
 70
     0
  3
Solid line
 72
    65
 73
     0
 40
0.0
  0
ENDTAB
  0
TABLE
  2
LAYER
  5
2
330
0
100
AcDbSymbolTable
 70
     2
  0
LAYER
  5
54
330
2
100
AcDbSymbolTableRecord
100
AcDbLayerTableRecord
  2
0
 70
     0
 62
     7
  6
Continuous
370
    -3
390
F
347
21
  0
LAYER
  5
78
330
2
100
AcDbSymbolTableRecord
100
AcDbLayerTableRecord
  2
レイヤー 1
 70
     0
 62
     7
  6
Continuous
370
     0
390
F
347
21
  0
ENDTAB
  0
TABLE
  2
STYLE
  5
3
330
0
100
AcDbSymbolTable
 70
     2
  0
STYLE
  5
55
330
3
100
AcDbSymbolTableRecord
100
AcDbTextStyleTableRecord
  2
Standard
 70
     0
 40
0.0
 41
1.0
 50
0.0
 71
     0
 42
0.2
  3
txt
  4

  0
STYLE
  5
5A
330
3
100
AcDbSymbolTableRecord
100
AcDbTextStyleTableRecord
  2
Annotative
 70
     0
 40
0.0
 41
1.0
 50
0.0
 71
     0
 42
0.2
  3
txt
  4

1001
AcadAnnotative
1000
AnnotativeData
1002
{
1070
     1
1070
     1
1002
}
  0
ENDTAB
  0
TABLE
  2
VIEW
  5
6
330
0
100
AcDbSymbolTable
 70
     0
  0
ENDTAB
  0
TABLE
  2
UCS
  5
7
330
0
100
AcDbSymbolTable
 70
     0
  0
ENDTAB
  0
TABLE
  2
APPID
  5
9
330
0
100
AcDbSymbolTable
 70
     2
  0
APPID
  5
56
330
9
100
AcDbSymbolTableRecord
100
AcDbRegAppTableRecord
  2
ACAD
 70
     0
  0
APPID
  5
5E
330
9
100
AcDbSymbolTableRecord
100
AcDbRegAppTableRecord
  2
AcadAnnotative
 70
     0
  0
ENDTAB
  0
TABLE
  2
DIMSTYLE
  5
A
330
0
100
AcDbSymbolTable
 70
     2
100
AcDbDimStyleTable
 71
     0
  0
DIMSTYLE
105
58
330
A
100
AcDbSymbolTableRecord
100
AcDbDimStyleTableRecord
  2
Standard
 70
     0
340
55
  0
DIMSTYLE
105
59
330
A
100
AcDbSymbolTableRecord
100
AcDbDimStyleTableRecord
  2
Annotative
 70
     0
340
55
1001
AcadAnnotative
1000
AnnotativeData
1002
{
1070
     1
1070
     1
1002
}
  0
ENDTAB
  0
TABLE
  2
BLOCK_RECORD
  5
1
330
0
100
AcDbSymbolTable
 70
    20
  0
BLOCK_RECORD
  5
70
330
1
100
AcDbSymbolTableRecord
100
AcDbBlockTableRecord
  2
*Model_Space
340
73
 70
     0
280
     1
281
     0
  0
BLOCK_RECORD
  5
6C
330
1
100
AcDbSymbolTableRecord
100
AcDbBlockTableRecord
  2
*Paper_Space
340
6F
 70
     0
280
     1
281
     0
  0
BLOCK_RECORD
  5
74
330
1
100
AcDbSymbolTableRecord
100
AcDbBlockTableRecord
  2
*Paper_Space0
340
77
 70
     0
280
     1
281
     0
  0
BLOCK_RECORD
  5
7F
330
1
100
AcDbSymbolTableRecord
100
AcDbBlockTableRecord
  2
Block_0
340
0
102
{BLKREFS
331
80
102
}
 70
     0
280
     1
281
     0
  0
BLOCK_RECORD
  5
86
330
1
100
AcDbSymbolTableRecord
100
AcDbBlockTableRecord
  2
Block_1
340
0
102
{BLKREFS
331
87
102
}
 70
     0
280
     1
281
     0
  0
BLOCK_RECORD
  5
8A
330
1
100
AcDbSymbolTableRecord
100
AcDbBlockTableRecord
  2
Block_2
340
0
102
{BLKREFS
331
8B
102
}
 70
     0
280
     1
281
     0
  0
BLOCK_RECORD
  5
96
330
1
100
AcDbSymbolTableRecord
100
AcDbBlockTableRecord
  2
Block_3
340
0
102
{BLKREFS
331
97
102
}
 70
     0
280
     1
281
     0
  0
BLOCK_RECORD
  5
9E
330
1
100
AcDbSymbolTableRecord
100
AcDbBlockTableRecord
  2
Block_4
340
0
102
{BLKREFS
331
9F
102
}
 70
     0
280
     1
281
     0
  0
BLOCK_RECORD
  5
A2
330
1
100
AcDbSymbolTableRecord
100
AcDbBlockTableRecord
  2
Block_5
340
0
102
{BLKREFS
331
A3
102
}
 70
     0
280
     1
281
     0
  0
BLOCK_RECORD
  5
AA
330
1
100
AcDbSymbolTableRecord
100
AcDbBlockTableRecord
  2
Block_6
340
0
102
{BLKREFS
331
AB
102
}
 70
     0
280
     1
281
     0
  0
BLOCK_RECORD
  5
AE
330
1
100
AcDbSymbolTableRecord
100
AcDbBlockTableRecord
  2
Block_7
340
0
102
{BLKREFS
331
AF
102
}
 70
     0
280
     1
281
     0
  0
BLOCK_RECORD
  5
B9
330
1
100
AcDbSymbolTableRecord
100
AcDbBlockTableRecord
  2
Block_8
340
0
102
{BLKREFS
331
BA
102
}
 70
     0
280
     1
281
     0
  0
BLOCK_RECORD
  5
C0
330
1
100
AcDbSymbolTableRecord
100
AcDbBlockTableRecord
  2
Block_9
340
0
102
{BLKREFS
331
C1
102
}
 70
     0
280
     1
281
     0
  0
BLOCK_RECORD
  5
D0
330
1
100
AcDbSymbolTableRecord
100
AcDbBlockTableRecord
  2
Block_10
340
0
102
{BLKREFS
331
D1
102
}
 70
     0
280
     1
281
     0
  0
BLOCK_RECORD
  5
D6
330
1
100
AcDbSymbolTableRecord
100
AcDbBlockTableRecord
  2
Block_11
340
0
102
{BLKREFS
331
D7
102
}
 70
     0
280
     1
281
     0
  0
BLOCK_RECORD
  5
DA
330
1
100
AcDbSymbolTableRecord
100
AcDbBlockTableRecord
  2
Block_12
340
0
102
{BLKREFS
331
DB
102
}
 70
     0
280
     1
281
     0
  0
BLOCK_RECORD
  5
E2
330
1
100
AcDbSymbolTableRecord
100
AcDbBlockTableRecord
  2
Block_13
340
0
102
{BLKREFS
331
E3
102
}
 70
     0
280
     1
281
     0
  0
BLOCK_RECORD
  5
EF
330
1
100
AcDbSymbolTableRecord
100
AcDbBlockTableRecord
  2
Block_14
340
0
102
{BLKREFS
331
F0
102
}
 70
     0
280
     1
281
     0
  0
BLOCK_RECORD
  5
F5
330
1
100
AcDbSymbolTableRecord
100
AcDbBlockTableRecord
  2
Block_15
340
0
102
{BLKREFS
331
F6
102
}
 70
     0
280
     1
281
     0
  0
BLOCK_RECORD
  5
FC
330
1
100
AcDbSymbolTableRecord
100
AcDbBlockTableRecord
  2
Block_16
340
0
102
{BLKREFS
331
FD
102
}
 70
     0
280
     1
281
     0
  0
BLOCK_RECORD
  5
103
330
1
100
AcDbSymbolTableRecord
100
AcDbBlockTableRecord
  2
Block_17
340
0
102
{BLKREFS
331
104
102
}
 70
     0
280
     1
281
     0
  0
BLOCK_RECORD
  5
107
330
1
100
AcDbSymbolTableRecord
100
AcDbBlockTableRecord
  2
Block_18
340
0
102
{BLKREFS
331
108
102
}
 70
     0
280
     1
281
     0
  0
ENDTAB
  0
ENDSEC
  0
SECTION
  2
BLOCKS
  0
BLOCK
  5
71
330
70
100
AcDbEntity
  8
0
100
AcDbBlockBegin
  2
*Model_Space
 70
     0
 10
0.0
 20
0.0
 30
0.0
  3
*Model_Space
  1

  0
ENDBLK
  5
72
330
70
100
AcDbEntity
  8
0
100
AcDbBlockEnd
  0
BLOCK
  5
6D
330
6C
100
AcDbEntity
 67
     1
  8
0
100
AcDbBlockBegin
  2
*Paper_Space
 70
     0
 10
0.0
 20
0.0
 30
0.0
  3
*Paper_Space
  1

  0
ENDBLK
  5
6E
330
6C
100
AcDbEntity
 67
     1
  8
0
100
AcDbBlockEnd
  0
BLOCK
  5
75
330
74
100
AcDbEntity
 67
     1
  8
0
100
AcDbBlockBegin
  2
*Paper_Space0
 70
     0
 10
0.0
 20
0.0
 30
0.0
  3
*Paper_Space0
  1

  0
ENDBLK
  5
76
330
74
100
AcDbEntity
 67
     1
  8
0
100
AcDbBlockEnd
  0
BLOCK
  5
81
330
7F
100
AcDbEntity
  8
0
100
AcDbBlockBegin
  2
Block_0
 70
     0
 10
0.0
 20
0.0
 30
0.0
  3
Block_0
  1

  0
LINE
  5
83
330
7F
100
AcDbEntity
  8
レイヤー 1
 62
    18
420
        0
370
     9
100
AcDbLine
 10
102.8765997877415
 20
-138.2131082253562
 30
0.0
 11
122.8652400163108
 21
-138.2131082253562
 31
0.0
  0
LINE
  5
84
330
7F
100
AcDbEntity
  8
レイヤー 1
 62
    18
420
        0
370
     9
100
AcDbLine
 10
102.8765997877415
 20
-139.6731495769963
 30
0.0
 11
102.8765997877415
 21
-137.2129832508715
 31
0.0
  0
LINE
  5
85
330
7F
100
AcDbEntity
  8
レイヤー 1
 62
    18
420
        0
370
     9
100
AcDbLine
 10
122.8652399016032
 20
-139.6731495769963
 30
0.0
 11
122.8652399016032
 21
-137.2129832508715
 31
0.0
  0
INSERT
  5
87
330
7F
100
AcDbEntity
  8
レイヤー 1
100
AcDbBlockReference
  2
Block_1
 10
0.0
 20
0.0
 30
0.0
  0
ENDBLK
  5
82
330
7F
100
AcDbEntity
  8
0
100
AcDbBlockEnd
  0
BLOCK
  5
88
330
86
100
AcDbEntity
  8
0
100
AcDbBlockBegin
  2
Block_1
 70
     0
 10
0.0
 20
0.0
 30
0.0
  3
Block_1
  1

  0
INSERT
  5
8B
330
86
100
AcDbEntity
  8
レイヤー 1
100
AcDbBlockReference
  2
Block_2
 10
0.0
 20
0.0
 30
0.0
  0
ENDBLK
  5
89
330
86
100
AcDbEntity
  8
0
100
AcDbBlockEnd
  0
BLOCK
  5
8C
330
8A
100
AcDbEntity
  8
0
100
AcDbBlockBegin
  2
Block_2
 70
     0
 10
0.0
 20
0.0
 30
0.0
  3
Block_2
  1

  0
SPLINE
  5
8E
330
8A
100
AcDbEntity
  8
レイヤー 1
100
AcDbSpline
210
0.0
220
0.0
230
1.0
 70
     9
 71
     3
 72
    44
 73
    40
 74
     0
 42
0.0000000001
 43
0.0000000001
 40
0.0
 40
0.0
 40
0.0
 40
0.0
 40
1.0
 40
1.0
 40
1.0
 40
2.0
 40
2.0
 40
2.0
 40
3.0
 40
3.0
 40
3.0
 40
4.0
 40
4.0
 40
4.0
 40
5.0
 40
5.0
 40
5.0
 40
6.0
 40
6.0
 40
6.0
 40
7.0
 40
7.0
 40
7.0
 40
8.0
 40
8.0
 40
8.0
 40
9.0
 40
9.0
 40
9.0
 40
10.0
 40
10.0
 40
10.0
 40
11.0
 40
11.0
 40
11.0
 40
12.0
 40
12.0
 40
12.0
 40
13.0
 40
13.0
 40
13.0
 40
13.0
 10
112.369368461491
 20
-136.2791924029962
 30
0.0
 10
112.1516384268232
 20
-136.4378390500919
 30
0.0
 10
112.0586208487214
 20
-136.5119086030248
 30
0.0
 10
112.0097004928309
 20
-136.655741339534
 30
0.0
 10
112.0097004928309
 20
-136.655741339534
 30
0.0
 10
112.7882920724973
 20
-136.655741339534
 30
0.0
 10
112.7882920724973
 20
-136.655741339534
 30
0.0
 10
112.7882920724973
 20
-136.655741339534
 30
0.0
 10
112.7882920724973
 20
-136.8608967756806
 30
0.0
 10
112.7882920724973
 20
-136.8608967756806
 30
0.0
 10
112.7882920724973
 20
-136.8608967756806
 30
0.0
 10
111.7602755796988
 20
-136.8608967756806
 30
0.0
 10
111.7602755796988
 20
-136.8608967756806
 30
0.0
 10
111.7919704581631
 20
-136.5032958643117
 30
0.0
 10
111.8574272723828
 20
-136.4250921967965
 30
0.0
 10
112.2425889476338
 20
-136.1267469277738
 30
0.0
 10
112.4985595421878
 20
-135.9279649182749
 30
0.0
 10
112.5640163564076
 20
-135.8602687919898
 30
0.0
 10
112.5640163564076
 20
-135.7228094821283
 30
0.0
 10
112.5640163564076
 20
-135.6042981974357
 30
0.0
 10
112.4920138607659
 20
-135.473212314222
 30
0.0
 10
112.2952989085581
 20
-135.473212314222
 30
0.0
 10
112.0351941994217
 20
-135.473212314222
 30
0.0
 10
112.0269259702571
 20
-135.7036892021852
 30
0.0
 10
112.0224473461263
 20
-135.8201334295866
 30
0.0
 10
112.0224473461263
 20
-135.8201334295866
 30
0.0
 10
111.7981716300366
 20
-135.8201334295866
 30
0.0
 10
111.7981716300366
 20
-135.8201334295866
 30
0.0
 10
111.8067843687497
 20
-135.6931816609552
 30
0.0
 10
111.8174641647539
 20
-135.5810438029103
 30
0.0
 10
111.8977348895603
 20
-135.4625325182177
 30
0.0
 10
112.0076334355397
 20
-135.3018188138308
 30
0.0
 10
112.1940131012918
 20
-135.2678846233011
 30
0.0
 10
112.3101128191447
 20
-135.2678846233011
 30
0.0
 10
112.5874430057073
 20
-135.2678846233011
 30
0.0
 10
112.7948377539193
 20
-135.4520249769877
 30
0.0
 10
112.7948377539193
 20
-135.7248765394195
 30
0.0
 10
112.7948377539193
 20
-135.9532863700915
 30
0.0
 10
112.6783935265179
 20
-136.0528496296152
 30
0.0
 10
112.369368461491
 20
-136.2791924029962
 30
0.0
  0
HATCH
  5
8F
330
8A
100
AcDbEntity
  8
レイヤー 1
 62
    18
420
        0
440
 33554687
100
AcDbHatch
 10
0.0
 20
0.0
 30
0.0
210
0.0
220
0.0
230
1.0
  2
SOLID
 70
     1
 71
     1
 91
        1
 92
        1
 93
        1
 72
     4
 94
        3
 73
     0
 74
     0
 95
       44
 96
       40
 40
0.0
 40
0.0
 40
0.0
 40
0.0
 40
1.0
 40
1.0
 40
1.0
 40
2.0
 40
2.0
 40
2.0
 40
3.0
 40
3.0
 40
3.0
 40
4.0
 40
4.0
 40
4.0
 40
5.0
 40
5.0
 40
5.0
 40
6.0
 40
6.0
 40
6.0
 40
7.0
 40
7.0
 40
7.0
 40
8.0
 40
8.0
 40
8.0
 40
9.0
 40
9.0
 40
9.0
 40
10.0
 40
10.0
 40
10.0
 40
11.0
 40
11.0
 40
11.0
 40
12.0
 40
12.0
 40
12.0
 40
13.0
 40
13.0
 40
13.0
 40
13.0
 10
112.369368461491
 20
-136.2791924029962
 10
112.1516384268232
 20
-136.4378390500919
 10
112.0586208487214
 20
-136.5119086030248
 10
112.0097004928309
 20
-136.655741339534
 10
112.0097004928309
 20
-136.655741339534
 10
112.7882920724973
 20
-136.655741339534
 10
112.7882920724973
 20
-136.655741339534
 10
112.7882920724973
 20
-136.655741339534
 10
112.7882920724973
 20
-136.8608967756806
 10
112.7882920724973
 20
-136.8608967756806
 10
112.7882920724973
 20
-136.8608967756806
 10
111.7602755796988
 20
-136.8608967756806
 10
111.7602755796988
 20
-136.8608967756806
 10
111.7919704581631
 20
-136.5032958643117
 10
111.8574272723828
 20
-136.4250921967965
 10
112.2425889476338
 20
-136.1267469277738
 10
112.4985595421878
 20
-135.9279649182749
 10
112.5640163564076
 20
-135.8602687919898
 10
112.5640163564076
 20
-135.7228094821283
 10
112.5640163564076
 20
-135.6042981974357
 10
112.4920138607659
 20
-135.473212314222
 10
112.2952989085581
 20
-135.473212314222
 10
112.0351941994217
 20
-135.473212314222
 10
112.0269259702571
 20
-135.7036892021852
 10
112.0224473461263
 20
-135.8201334295866
 10
112.0224473461263
 20
-135.8201334295866
 10
111.7981716300366
 20
-135.8201334295866
 10
111.7981716300366
 20
-135.8201334295866
 10
111.8067843687497
 20
-135.6931816609552
 10
111.8174641647539
 20
-135.5810438029103
 10
111.8977348895603
 20
-135.4625325182177
 10
112.0076334355397
 20
-135.3018188138308
 10
112.1940131012918
 20
-135.2678846233011
 10
112.3101128191447
 20
-135.2678846233011
 10
112.5874430057073
 20
-135.2678846233011
 10
112.7948377539193
 20
-135.4520249769877
 10
112.7948377539193
 20
-135.7248765394195
 10
112.7948377539193
 20
-135.9532863700915
 10
112.6783935265179
 20
-136.0528496296152
 10
112.369368461491
 20
-136.2791924029962
 97
        0
 97
        1
330
8E
 75
     2
 76
     1
 98
        1
 10
0.0
 20
0.0
450
        0
451
        0
460
0.0
461
0.0
452
        0
462
0.0
453
        0
470

  0
SPLINE
  5
90
330
8A
100
AcDbEntity
  8
レイヤー 1
100
AcDbSpline
210
0.0
220
0.0
230
1.0
 70
     9
 71
     3
 72
    17
 73
    13
 74
     0
 42
0.0000000001
 43
0.0000000001
 40
0.0
 40
0.0
 40
0.0
 40
0.0
 40
1.0
 40
1.0
 40
1.0
 40
2.0
 40
2.0
 40
2.0
 40
3.0
 40
3.0
 40
3.0
 40
4.0
 40
4.0
 40
4.0
 40
4.0
 10
113.4531955011506
 20
-135.4604654609265
 30
0.0
 10
113.2037705880185
 20
-135.4604654609265
 30
0.0
 10
113.1569172894191
 20
-135.7439968193626
 30
0.0
 10
113.1569172894191
 20
-136.0886786226618
 30
0.0
 10
113.1569172894191
 20
-136.4082112289188
 30
0.0
 10
113.1930907920142
 20
-136.7170640391714
 30
0.0
 10
113.4531955011506
 20
-136.7170640391714
 30
0.0
 10
113.70089786654
 20
-136.7170640391714
 30
0.0
 10
113.7494737128821
 20
-136.4355997380265
 30
0.0
 10
113.7494737128821
 20
-136.0886786226618
 30
0.0
 10
113.7494737128821
 20
-135.7693182711792
 30
0.0
 10
113.7112331529958
 20
-135.4604654609265
 30
0.0
 10
113.4531955011506
 20
-135.4604654609265
 30
0.0
  0
SPLINE
  5
91
330
8A
100
AcDbEntity
  8
レイヤー 1
100
AcDbSpline
210
0.0
220
0.0
230
1.0
 70
     9
 71
     3
 72
    29
 73
    25
 74
     0
 42
0.0000000001
 43
0.0000000001
 40
0.0
 40
0.0
 40
0.0
 40
0.0
 40
1.0
 40
1.0
 40
1.0
 40
2.0
 40
2.0
 40
2.0
 40
3.0
 40
3.0
 40
3.0
 40
4.0
 40
4.0
 40
4.0
 40
5.0
 40
5.0
 40
5.0
 40
6.0
 40
6.0
 40
6.0
 40
7.0
 40
7.0
 40
7.0
 40
8.0
 40
8.0
 40
8.0
 40
8.0
 10
113.8511040296969
 20
-136.6831298486417
 30
0.0
 10
113.7429280314601
 20
-136.8925916541449
 30
0.0
 10
113.569639728552
 20
-136.911711934088
 30
0.0
 10
113.4531955011506
 20
-136.911711934088
 30
0.0
 10
113.2923095419894
 20
-136.911711934088
 30
0.0
 10
113.1507161175456
 20
-136.8652031450372
 30
0.0
 10
113.0556314821527
 20
-136.6831298486417
 30
0.0
 10
112.9519341080467
 20
-136.4884819537251
 30
0.0
 10
112.9329860828778
 20
-136.2516316391142
 30
0.0
 10
112.9329860828778
 20
-136.0886786226618
 30
0.0
 10
112.9329860828778
 20
-135.9448458861526
 30
0.0
 10
112.9498670507556
 20
-135.6931816609552
 30
0.0
 10
113.0556314821527
 20
-135.494227396682
 30
0.0
 10
113.163462970841
 20
-135.2911390178265
 30
0.0
 10
113.3243489300022
 20
-135.2678846233011
 30
0.0
 10
113.4531955011506
 20
-135.2678846233011
 30
0.0
 10
113.6120144030206
 20
-135.2678846233011
 30
0.0
 10
113.7556748847555
 20
-135.3123263550608
 30
0.0
 10
113.8511040296969
 20
-135.494227396682
 30
0.0
 10
113.9503227796721
 20
-135.6868082343074
 30
0.0
 10
113.9737494289718
 20
-135.9152180649795
 30
0.0
 10
113.9737494289718
 20
-136.0886786226618
 30
0.0
 10
113.9737494289718
 20
-136.260072123053
 30
0.0
 10
113.9523898369633
 20
-136.4907212657905
 30
0.0
 10
113.8511040296969
 20
-136.6831298486417
 30
0.0
  0
HATCH
  5
92
330
8A
100
AcDbEntity
  8
レイヤー 1
 62
    18
420
        0
440
 33554687
100
AcDbHatch
 10
0.0
 20
0.0
 30
0.0
210
0.0
220
0.0
230
1.0
  2
SOLID
 70
     1
 71
     1
 91
        2
 92
        1
 93
        1
 72
     4
 94
        3
 73
     0
 74
     0
 95
       17
 96
       13
 40
0.0
 40
0.0
 40
0.0
 40
0.0
 40
1.0
 40
1.0
 40
1.0
 40
2.0
 40
2.0
 40
2.0
 40
3.0
 40
3.0
 40
3.0
 40
4.0
 40
4.0
 40
4.0
 40
4.0
 10
113.4531955011506
 20
-135.4604654609265
 10
113.2037705880185
 20
-135.4604654609265
 10
113.1569172894191
 20
-135.7439968193626
 10
113.1569172894191
 20
-136.0886786226618
 10
113.1569172894191
 20
-136.4082112289188
 10
113.1930907920142
 20
-136.7170640391714
 10
113.4531955011506
 20
-136.7170640391714
 10
113.70089786654
 20
-136.7170640391714
 10
113.7494737128821
 20
-136.4355997380265
 10
113.7494737128821
 20
-136.0886786226618
 10
113.7494737128821
 20
-135.7693182711792
 10
113.7112331529958
 20
-135.4604654609265
 10
113.4531955011506
 20
-135.4604654609265
 97
        0
 97
        1
330
90
 92
        1
 93
        1
 72
     4
 94
        3
 73
     0
 74
     0
 95
       29
 96
       25
 40
0.0
 40
0.0
 40
0.0
 40
0.0
 40
1.0
 40
1.0
 40
1.0
 40
2.0
 40
2.0
 40
2.0
 40
3.0
 40
3.0
 40
3.0
 40
4.0
 40
4.0
 40
4.0
 40
5.0
 40
5.0
 40
5.0
 40
6.0
 40
6.0
 40
6.0
 40
7.0
 40
7.0
 40
7.0
 40
8.0
 40
8.0
 40
8.0
 40
8.0
 10
113.8511040296969
 20
-136.6831298486417
 10
113.7429280314601
 20
-136.8925916541449
 10
113.569639728552
 20
-136.911711934088
 10
113.4531955011506
 20
-136.911711934088
 10
113.2923095419894
 20
-136.911711934088
 10
113.1507161175456
 20
-136.8652031450372
 10
113.0556314821527
 20
-136.6831298486417
 10
112.9519341080467
 20
-136.4884819537251
 10
112.9329860828778
 20
-136.2516316391142
 10
112.9329860828778
 20
-136.0886786226618
 10
112.9329860828778
 20
-135.9448458861526
 10
112.9498670507556
 20
-135.6931816609552
 10
113.0556314821527
 20
-135.494227396682
 10
113.163462970841
 20
-135.2911390178265
 10
113.3243489300022
 20
-135.2678846233011
 10
113.4531955011506
 20
-135.2678846233011
 10
113.6120144030206
 20
-135.2678846233011
 10
113.7556748847555
 20
-135.3123263550608
 10
113.8511040296969
 20
-135.494227396682
 10
113.9503227796721
 20
-135.6868082343074
 10
113.9737494289718
 20
-135.9152180649795
 10
113.9737494289718
 20
-136.0886786226618
 10
113.9737494289718
 20
-136.260072123053
 10
113.9523898369633
 20
-136.4907212657905
 10
113.8511040296969
 20
-136.6831298486417
 97
        0
 97
        1
330
91
 75
     2
 76
     1
 98
        1
 10
0.0
 20
0.0
450
        0
451
        0
460
0.0
461
0.0
452
        0
462
0.0
453
        0
470

  0
ENDBLK
  5
8D
330
8A
100
AcDbEntity
  8
0
100
AcDbBlockEnd
  0
BLOCK
  5
98
330
96
100
AcDbEntity
  8
0
100
AcDbBlockBegin
  2
Block_3
 70
     0
 10
0.0
 20
0.0
 30
0.0
  3
Block_3
  1

  0
LINE
  5
9A
330
96
100
AcDbEntity
  8
レイヤー 1
 62
    18
420
        0
370
     9
100
AcDbLine
 10
88.69833458337186
 20
-162.8960941885702
 30
0.0
 11
113.6760039074962
 21
-162.8960941885702
 31
0.0
  0
LINE
  5
9B
330
96
100
AcDbEntity
  8
レイヤー 1
 62
    18
420
        0
370
     9
100
AcDbLine
 10
98.68736367767768
 20
-164.3561355402104
 30
0.0
 11
98.68736367767768
 21
-161.8959692140856
 31
0.0
  0
LINE
  5
9C
330
96
100
AcDbEntity
  8
レイヤー 1
 62
    18
420
        0
370
     9
100
AcDbLine
 10
88.68736373845777
 20
-164.3561355402104
 30
0.0
 11
88.68736373845777
 21
-161.8959692140856
 31
0.0
  0
LINE
  5
9D
330
96
100
AcDbEntity
  8
レイヤー 1
 62
    18
420
        0
370
     9
100
AcDbLine
 10
113.6760036537119
 20
-164.3561355402104
 30
0.0
 11
113.6760036537119
 21
-161.8959692140856
 31
0.0
  0
INSERT
  5
9F
330
96
100
AcDbEntity
  8
レイヤー 1
100
AcDbBlockReference
  2
Block_4
 10
0.0
 20
0.0
 30
0.0
  0
INSERT
  5
AB
330
96
100
AcDbEntity
  8
レイヤー 1
100
AcDbBlockReference
  2
Block_6
 10
0.0
 20
0.0
 30
0.0
  0
ENDBLK
  5
99
330
96
100
AcDbEntity
  8
0
100
AcDbBlockEnd
  0
BLOCK
  5
A0
330
9E
100
AcDbEntity
  8
0
100
AcDbBlockBegin
  2
Block_4
 70
     0
 10
0.0
 20
0.0
 30
0.0
  3
Block_4
  1

  0
INSERT
  5
A3
330
9E
100
AcDbEntity
  8
レイヤー 1
100
AcDbBlockReference
  2
Block_5
 10
0.0
 20
0.0
 30
0.0
  0
ENDBLK
  5
A1
330
9E
100
AcDbEntity
  8
0
100
AcDbBlockEnd
  0
BLOCK
  5
A4
330
A2
100
AcDbEntity
  8
0
100
AcDbBlockBegin
  2
Block_5
 70
     0
 10
0.0
 20
0.0
 30
0.0
  3
Block_5
  1

  0
SPLINE
  5
A6
330
A2
100
AcDbEntity
  8
レイヤー 1
100
AcDbSpline
210
0.0
220
0.0
230
1.0
 70
    11
 71
     3
 72
    26
 73
    22
 74
     0
 42
0.0000000001
 43
0.0000000001
 40
0.0
 40
0.0
 40
0.0
 40
0.0
 40
1.0
 40
1.0
 40
1.0
 40
2.0
 40
2.0
 40
2.0
 40
3.0
 40
3.0
 40
3.0
 40
4.0
 40
4.0
 40
4.0
 40
5.0
 40
5.0
 40
5.0
 40
6.0
 40
6.0
 40
6.0
 40
7.0
 40
7.0
 40
7.0
 40
7.0
 10
105.5387776428861
 20
-161.5439723988501
 30
0.0
 10
105.5387776428861
 20
-161.5439723988501
 30
0.0
 10
105.5387776428861
 20
-160.439474786279
 30
0.0
 10
105.5387776428861
 20
-160.439474786279
 30
0.0
 10
105.5387776428861
 20
-160.439474786279
 30
0.0
 10
105.2085652406249
 20
-160.439474786279
 30
0.0
 10
105.2085652406249
 20
-160.439474786279
 30
0.0
 10
105.2085652406249
 20
-160.439474786279
 30
0.0
 10
105.2085652406249
 20
-160.2916801899618
 30
0.0
 10
105.2085652406249
 20
-160.2916801899618
 30
0.0
 10
105.5408447001773
 20
-160.2768662793752
 30
0.0
 10
105.5873534892281
 20
-160.1139132629229
 30
0.0
 10
105.6169813104013
 20
-159.9995360928126
 30
0.0
 10
105.6169813104013
 20
-159.9995360928126
 30
0.0
 10
105.7630533589759
 20
-159.9995360928126
 30
0.0
 10
105.7630533589759
 20
-159.9995360928126
 30
0.0
 10
105.7630533589759
 20
-159.9995360928126
 30
0.0
 10
105.7630533589759
 20
-161.5439723988501
 30
0.0
 10
105.7630533589759
 20
-161.5439723988501
 30
0.0
 10
105.7630533589759
 20
-161.5439723988501
 30
0.0
 10
105.5387776428861
 20
-161.5439723988501
 30
0.0
 10
105.5387776428861
 20
-161.5439723988501
 30
0.0
  0
HATCH
  5
A7
330
A2
100
AcDbEntity
  8
レイヤー 1
 62
    18
420
        0
440
 33554687
100
AcDbHatch
 10
0.0
 20
0.0
 30
0.0
210
0.0
220
0.0
230
1.0
  2
SOLID
 70
     1
 71
     1
 91
        1
 92
        1
 93
        1
 72
     4
 94
        3
 73
     0
 74
     0
 95
       26
 96
       22
 40
0.0
 40
0.0
 40
0.0
 40
0.0
 40
1.0
 40
1.0
 40
1.0
 40
2.0
 40
2.0
 40
2.0
 40
3.0
 40
3.0
 40
3.0
 40
4.0
 40
4.0
 40
4.0
 40
5.0
 40
5.0
 40
5.0
 40
6.0
 40
6.0
 40
6.0
 40
7.0
 40
7.0
 40
7.0
 40
7.0
 10
105.5387776428861
 20
-161.5439723988501
 10
105.5387776428861
 20
-161.5439723988501
 10
105.5387776428861
 20
-160.439474786279
 10
105.5387776428861
 20
-160.439474786279
 10
105.5387776428861
 20
-160.439474786279
 10
105.2085652406249
 20
-160.439474786279
 10
105.2085652406249
 20
-160.439474786279
 10
105.2085652406249
 20
-160.439474786279
 10
105.2085652406249
 20
-160.2916801899618
 10
105.2085652406249
 20
-160.2916801899618
 10
105.5408447001773
 20
-160.2768662793752
 10
105.5873534892281
 20
-160.1139132629229
 10
105.6169813104013
 20
-159.9995360928126
 10
105.6169813104013
 20
-159.9995360928126
 10
105.7630533589759
 20
-159.9995360928126
 10
105.7630533589759
 20
-159.9995360928126
 10
105.7630533589759
 20
-159.9995360928126
 10
105.7630533589759
 20
-161.5439723988501
 10
105.7630533589759
 20
-161.5439723988501
 10
105.7630533589759
 20
-161.5439723988501
 10
105.5387776428861
 20
-161.5439723988501
 10
105.5387776428861
 20
-161.5439723988501
 97
        0
 97
        1
330
A6
 75
     2
 76
     1
 98
        1
 10
0.0
 20
0.0
450
        0
451
        0
460
0.0
461
0.0
452
        0
462
0.0
453
        0
470

  0
SPLINE
  5
A8
330
A2
100
AcDbEntity
  8
レイヤー 1
100
AcDbSpline
210
0.0
220
0.0
230
1.0
 70
     9
 71
     3
 72
    53
 73
    49
 74
     0
 42
0.0000000001
 43
0.0000000001
 40
0.0
 40
0.0
 40
0.0
 40
0.0
 40
1.0
 40
1.0
 40
1.0
 40
2.0
 40
2.0
 40
2.0
 40
3.0
 40
3.0
 40
3.0
 40
4.0
 40
4.0
 40
4.0
 40
5.0
 40
5.0
 40
5.0
 40
6.0
 40
6.0
 40
6.0
 40
7.0
 40
7.0
 40
7.0
 40
8.0
 40
8.0
 40
8.0
 40
9.0
 40
9.0
 40
9.0
 40
10.0
 40
10.0
 40
10.0
 40
11.0
 40
11.0
 40
11.0
 40
12.0
 40
12.0
 40
12.0
 40
13.0
 40
13.0
 40
13.0
 40
14.0
 40
14.0
 40
14.0
 40
15.0
 40
15.0
 40
15.0
 40
16.0
 40
16.0
 40
16.0
 40
16.0
 10
106.7452500818206
 20
-161.5946153024833
 30
0.0
 10
106.6670464143054
 20
-161.5946153024833
 30
0.0
 10
106.5654160974906
 20
-161.5777343346055
 30
0.0
 10
106.4637857806757
 20
-161.514344577677
 30
0.0
 10
106.2904974777676
 20
-161.404101522149
 30
0.0
 10
106.2691378857591
 20
-161.2731878937095
 30
0.0
 10
106.2501898605902
 20
-161.1653564050211
 30
0.0
 10
106.2501898605902
 20
-161.1653564050211
 30
0.0
 10
106.4723985193888
 20
-161.1653564050211
 30
0.0
 10
106.4723985193888
 20
-161.1653564050211
 30
0.0
 10
106.5271755376043
 20
-161.3641384145201
 30
0.0
 10
106.65429956101
 20
-161.3937662356932
 30
0.0
 10
106.7473171391118
 20
-161.3937662356932
 30
0.0
 10
106.8868435062644
 20
-161.3937662356932
 30
0.0
 10
107.0391167267124
 20
-161.2942029761695
 30
0.0
 10
107.0391167267124
 20
-161.0616590309151
 30
0.0
 10
107.0391167267124
 20
-160.8056884363611
 30
0.0
 10
106.8592827423824
 20
-160.7357529980105
 30
0.0
 10
106.7387044003986
 20
-160.7357529980105
 30
0.0
 10
106.7070095219343
 20
-160.7357529980105
 30
0.0
 10
106.5654160974906
 20
-160.7357529980105
 30
0.0
 10
106.4765326339711
 20
-160.8649440787074
 30
0.0
 10
106.4765326339711
 20
-160.8649440787074
 30
0.0
 10
106.3008327642234
 20
-160.84565154399
 30
0.0
 10
106.3008327642234
 20
-160.84565154399
 30
0.0
 10
106.3008327642234
 20
-160.84565154399
 30
0.0
 10
106.4214111062071
 20
-159.9995360928126
 30
0.0
 10
106.4214111062071
 20
-159.9995360928126
 30
0.0
 10
106.4214111062071
 20
-159.9995360928126
 30
0.0
 10
107.2000026858736
 20
-159.9995360928126
 30
0.0
 10
107.2000026858736
 20
-159.9995360928126
 30
0.0
 10
107.2000026858736
 20
-159.9995360928126
 30
0.0
 10
107.2000026858736
 20
-160.1941839877292
 30
0.0
 10
107.2000026858736
 20
-160.1941839877292
 30
0.0
 10
107.2000026858736
 20
-160.1941839877292
 30
0.0
 10
106.5843641226594
 20
-160.1941839877292
 30
0.0
 10
106.5843641226594
 20
-160.1941839877292
 30
0.0
 10
106.5843641226594
 20
-160.1941839877292
 30
0.0
 10
106.5189073084397
 20
-160.6172417133179
 30
0.0
 10
106.5189073084397
 20
-160.6172417133179
 30
0.0
 10
106.5802300080771
 20
-160.5834797775625
 30
0.0
 10
106.6625677901746
 20
-160.543172160385
 30
0.0
 10
106.7810790748672
 20
-160.543172160385
 30
0.0
 10
107.0349826121301
 20
-160.543172160385
 30
0.0
 10
107.2720051815153
 20
-160.729551826137
 30
0.0
 10
107.2720051815153
 20
-161.0423664961977
 30
0.0
 10
107.2720051815153
 20
-161.3600042999378
 30
0.0
 10
107.0477294654256
 20
-161.5946153024833
 30
0.0
 10
106.7452500818206
 20
-161.5946153024833
 30
0.0
  0
HATCH
  5
A9
330
A2
100
AcDbEntity
  8
レイヤー 1
 62
    18
420
        0
440
 33554687
100
AcDbHatch
 10
0.0
 20
0.0
 30
0.0
210
0.0
220
0.0
230
1.0
  2
SOLID
 70
     1
 71
     1
 91
        1
 92
        1
 93
        1
 72
     4
 94
        3
 73
     0
 74
     0
 95
       53
 96
       49
 40
0.0
 40
0.0
 40
0.0
 40
0.0
 40
1.0
 40
1.0
 40
1.0
 40
2.0
 40
2.0
 40
2.0
 40
3.0
 40
3.0
 40
3.0
 40
4.0
 40
4.0
 40
4.0
 40
5.0
 40
5.0
 40
5.0
 40
6.0
 40
6.0
 40
6.0
 40
7.0
 40
7.0
 40
7.0
 40
8.0
 40
8.0
 40
8.0
 40
9.0
 40
9.0
 40
9.0
 40
10.0
 40
10.0
 40
10.0
 40
11.0
 40
11.0
 40
11.0
 40
12.0
 40
12.0
 40
12.0
 40
13.0
 40
13.0
 40
13.0
 40
14.0
 40
14.0
 40
14.0
 40
15.0
 40
15.0
 40
15.0
 40
16.0
 40
16.0
 40
16.0
 40
16.0
 10
106.7452500818206
 20
-161.5946153024833
 10
106.6670464143054
 20
-161.5946153024833
 10
106.5654160974906
 20
-161.5777343346055
 10
106.4637857806757
 20
-161.514344577677
 10
106.2904974777676
 20
-161.404101522149
 10
106.2691378857591
 20
-161.2731878937095
 10
106.2501898605902
 20
-161.1653564050211
 10
106.2501898605902
 20
-161.1653564050211
 10
106.4723985193888
 20
-161.1653564050211
 10
106.4723985193888
 20
-161.1653564050211
 10
106.5271755376043
 20
-161.3641384145201
 10
106.65429956101
 20
-161.3937662356932
 10
106.7473171391118
 20
-161.3937662356932
 10
106.8868435062644
 20
-161.3937662356932
 10
107.0391167267124
 20
-161.2942029761695
 10
107.0391167267124
 20
-161.0616590309151
 10
107.0391167267124
 20
-160.8056884363611
 10
106.8592827423824
 20
-160.7357529980105
 10
106.7387044003986
 20
-160.7357529980105
 10
106.7070095219343
 20
-160.7357529980105
 10
106.5654160974906
 20
-160.7357529980105
 10
106.4765326339711
 20
-160.8649440787074
 10
106.4765326339711
 20
-160.8649440787074
 10
106.3008327642234
 20
-160.84565154399
 10
106.3008327642234
 20
-160.84565154399
 10
106.3008327642234
 20
-160.84565154399
 10
106.4214111062071
 20
-159.9995360928126
 10
106.4214111062071
 20
-159.9995360928126
 10
106.4214111062071
 20
-159.9995360928126
 10
107.2000026858736
 20
-159.9995360928126
 10
107.2000026858736
 20
-159.9995360928126
 10
107.2000026858736
 20
-159.9995360928126
 10
107.2000026858736
 20
-160.1941839877292
 10
107.2000026858736
 20
-160.1941839877292
 10
107.2000026858736
 20
-160.1941839877292
 10
106.5843641226594
 20
-160.1941839877292
 10
106.5843641226594
 20
-160.1941839877292
 10
106.5843641226594
 20
-160.1941839877292
 10
106.5189073084397
 20
-160.6172417133179
 10
106.5189073084397
 20
-160.6172417133179
 10
106.5802300080771
 20
-160.5834797775625
 10
106.6625677901746
 20
-160.543172160385
 10
106.7810790748672
 20
-160.543172160385
 10
107.0349826121301
 20
-160.543172160385
 10
107.2720051815153
 20
-160.729551826137
 10
107.2720051815153
 20
-161.0423664961977
 10
107.2720051815153
 20
-161.3600042999378
 10
107.0477294654256
 20
-161.5946153024833
 10
106.7452500818206
 20
-161.5946153024833
 97
        0
 97
        1
330
A8
 75
     2
 76
     1
 98
        1
 10
0.0
 20
0.0
450
        0
451
        0
460
0.0
461
0.0
452
        0
462
0.0
453
        0
470

  0
ENDBLK
  5
A5
330
A2
100
AcDbEntity
  8
0
100
AcDbBlockEnd
  0
BLOCK
  5
AC
330
AA
100
AcDbEntity
  8
0
100
AcDbBlockBegin
  2
Block_6
 70
     0
 10
0.0
 20
0.0
 30
0.0
  3
Block_6
  1

  0
INSERT
  5
AF
330
AA
100
AcDbEntity
  8
レイヤー 1
100
AcDbBlockReference
  2
Block_7
 10
0.0
 20
0.0
 30
0.0
  0
ENDBLK
  5
AD
330
AA
100
AcDbEntity
  8
0
100
AcDbBlockEnd
  0
BLOCK
  5
B0
330
AE
100
AcDbEntity
  8
0
100
AcDbBlockBegin
  2
Block_7
 70
     0
 10
0.0
 20
0.0
 30
0.0
  3
Block_7
  1

  0
SPLINE
  5
B2
330
AE
100
AcDbEntity
  8
レイヤー 1
100
AcDbSpline
210
0.0
220
0.0
230
1.0
 70
    11
 71
     3
 72
    26
 73
    22
 74
     0
 42
0.0000000001
 43
0.0000000001
 40
0.0
 40
0.0
 40
0.0
 40
0.0
 40
1.0
 40
1.0
 40
1.0
 40
2.0
 40
2.0
 40
2.0
 40
3.0
 40
3.0
 40
3.0
 40
4.0
 40
4.0
 40
4.0
 40
5.0
 40
5.0
 40
5.0
 40
6.0
 40
6.0
 40
6.0
 40
7.0
 40
7.0
 40
7.0
 40
7.0
 10
93.04548337517614
 20
-161.5439723988501
 30
0.0
 10
93.04548337517614
 20
-161.5439723988501
 30
0.0
 10
93.04548337517614
 20
-160.439474786279
 30
0.0
 10
93.04548337517614
 20
-160.439474786279
 30
0.0
 10
93.04548337517614
 20
-160.439474786279
 30
0.0
 10
92.71544322768919
 20
-160.439474786279
 30
0.0
 10
92.71544322768919
 20
-160.439474786279
 30
0.0
 10
92.71544322768919
 20
-160.439474786279
 30
0.0
 10
92.71544322768919
 20
-160.2916801899618
 30
0.0
 10
92.71544322768919
 20
-160.2916801899618
 30
0.0
 10
93.04755043246728
 20
-160.2768662793752
 30
0.0
 10
93.09405922151816
 20
-160.1139132629229
 30
0.0
 10
93.12368704269131
 20
-159.9995360928126
 30
0.0
 10
93.12368704269131
 20
-159.9995360928126
 30
0.0
 10
93.2697590912659
 20
-159.9995360928126
 30
0.0
 10
93.2697590912659
 20
-159.9995360928126
 30
0.0
 10
93.2697590912659
 20
-159.9995360928126
 30
0.0
 10
93.2697590912659
 20
-161.5439723988501
 30
0.0
 10
93.2697590912659
 20
-161.5439723988501
 30
0.0
 10
93.2697590912659
 20
-161.5439723988501
 30
0.0
 10
93.04548337517614
 20
-161.5439723988501
 30
0.0
 10
93.04548337517614
 20
-161.5439723988501
 30
0.0
  0
HATCH
  5
B3
330
AE
100
AcDbEntity
  8
レイヤー 1
 62
    18
420
        0
440
 33554687
100
AcDbHatch
 10
0.0
 20
0.0
 30
0.0
210
0.0
220
0.0
230
1.0
  2
SOLID
 70
     1
 71
     1
 91
        1
 92
        1
 93
        1
 72
     4
 94
        3
 73
     0
 74
     0
 95
       26
 96
       22
 40
0.0
 40
0.0
 40
0.0
 40
0.0
 40
1.0
 40
1.0
 40
1.0
 40
2.0
 40
2.0
 40
2.0
 40
3.0
 40
3.0
 40
3.0
 40
4.0
 40
4.0
 40
4.0
 40
5.0
 40
5.0
 40
5.0
 40
6.0
 40
6.0
 40
6.0
 40
7.0
 40
7.0
 40
7.0
 40
7.0
 10
93.04548337517614
 20
-161.5439723988501
 10
93.04548337517614
 20
-161.5439723988501
 10
93.04548337517614
 20
-160.439474786279
 10
93.04548337517614
 20
-160.439474786279
 10
93.04548337517614
 20
-160.439474786279
 10
92.71544322768919
 20
-160.439474786279
 10
92.71544322768919
 20
-160.439474786279
 10
92.71544322768919
 20
-160.439474786279
 10
92.71544322768919
 20
-160.2916801899618
 10
92.71544322768919
 20
-160.2916801899618
 10
93.04755043246728
 20
-160.2768662793752
 10
93.09405922151816
 20
-160.1139132629229
 10
93.12368704269131
 20
-159.9995360928126
 10
93.12368704269131
 20
-159.9995360928126
 10
93.2697590912659
 20
-159.9995360928126
 10
93.2697590912659
 20
-159.9995360928126
 10
93.2697590912659
 20
-159.9995360928126
 10
93.2697590912659
 20
-161.5439723988501
 10
93.2697590912659
 20
-161.5439723988501
 10
93.2697590912659
 20
-161.5439723988501
 10
93.04548337517614
 20
-161.5439723988501
 10
93.04548337517614
 20
-161.5439723988501
 97
        0
 97
        1
330
B2
 75
     2
 76
     1
 98
        1
 10
0.0
 20
0.0
450
        0
451
        0
460
0.0
461
0.0
452
        0
462
0.0
453
        0
470

  0
SPLINE
  5
B4
330
AE
100
AcDbEntity
  8
レイヤー 1
100
AcDbSpline
210
0.0
220
0.0
230
1.0
 70
     9
 71
     3
 72
    17
 73
    13
 74
     0
 42
0.0000000001
 43
0.0000000001
 40
0.0
 40
0.0
 40
0.0
 40
0.0
 40
1.0
 40
1.0
 40
1.0
 40
2.0
 40
2.0
 40
2.0
 40
3.0
 40
3.0
 40
3.0
 40
4.0
 40
4.0
 40
4.0
 40
4.0
 10
94.2709038392795
 20
-160.143541084096
 30
0.0
 10
94.0214789261474
 20
-160.143541084096
 30
0.0
 10
93.97462562754801
 20
-160.4270724425321
 30
0.0
 10
93.97462562754801
 20
-160.7715819910571
 30
0.0
 10
93.97462562754801
 20
-161.0912868520883
 30
0.0
 10
94.01079913014314
 20
-161.3999674075667
 30
0.0
 10
94.2709038392795
 20
-161.3999674075667
 30
0.0
 10
94.51860620466897
 20
-161.3999674075667
 30
0.0
 10
94.56718205101099
 20
-161.1185031064217
 30
0.0
 10
94.56718205101099
 20
-160.7715819910571
 30
0.0
 10
94.56718205101099
 20
-160.4522216395744
 30
0.0
 10
94.52894149112472
 20
-160.143541084096
 30
0.0
 10
94.2709038392795
 20
-160.143541084096
 30
0.0
  0
SPLINE
  5
B5
330
AE
100
AcDbEntity
  8
レイヤー 1
100
AcDbSpline
210
0.0
220
0.0
230
1.0
 70
     9
 71
     3
 72
    29
 73
    25
 74
     0
 42
0.0000000001
 43
0.0000000001
 40
0.0
 40
0.0
 40
0.0
 40
0.0
 40
1.0
 40
1.0
 40
1.0
 40
2.0
 40
2.0
 40
2.0
 40
3.0
 40
3.0
 40
3.0
 40
4.0
 40
4.0
 40
4.0
 40
5.0
 40
5.0
 40
5.0
 40
6.0
 40
6.0
 40
6.0
 40
7.0
 40
7.0
 40
7.0
 40
8.0
 40
8.0
 40
8.0
 40
8.0
 10
94.66881236782585
 20
-161.3662054718112
 30
0.0
 10
94.560636369589
 20
-161.5756672773144
 30
0.0
 10
94.38734806668094
 20
-161.5946153024833
 30
0.0
 10
94.2709038392795
 20
-161.5946153024833
 30
0.0
 10
94.11001788011834
 20
-161.5946153024833
 30
0.0
 10
93.96842445567456
 20
-161.5481065134324
 30
0.0
 10
93.87333982028167
 20
-161.3662054718112
 30
0.0
 10
93.76964244617566
 20
-161.1715575768946
 30
0.0
 10
93.75069442100677
 20
-160.9345350075094
 30
0.0
 10
93.75069442100677
 20
-160.7715819910571
 30
0.0
 10
93.75069442100677
 20
-160.6279215093222
 30
0.0
 10
93.76757538888449
 20
-160.3760850293504
 30
0.0
 10
93.87333982028167
 20
-160.1773030198515
 30
0.0
 10
93.98117130896999
 20
-159.9740423862218
 30
0.0
 10
94.14205726813115
 20
-159.9509602464706
 30
0.0
 10
94.2709038392795
 20
-159.9509602464706
 30
0.0
 10
94.42972274114952
 20
-159.9509602464706
 30
0.0
 10
94.57338322288443
 20
-159.9954019782303
 30
0.0
 10
94.66881236782585
 20
-160.1773030198515
 30
0.0
 10
94.76803111780105
 20
-160.369883857477
 30
0.0
 10
94.79145776710074
 20
-160.598293688149
 30
0.0
 10
94.79145776710074
 20
-160.7715819910571
 30
0.0
 10
94.79145776710074
 20
-160.9431477462225
 30
0.0
 10
94.7700981750922
 20
-161.1736246341857
 30
0.0
 10
94.66881236782585
 20
-161.3662054718112
 30
0.0
  0
HATCH
  5
B6
330
AE
100
AcDbEntity
  8
レイヤー 1
 62
    18
420
        0
440
 33554687
100
AcDbHatch
 10
0.0
 20
0.0
 30
0.0
210
0.0
220
0.0
230
1.0
  2
SOLID
 70
     1
 71
     1
 91
        2
 92
        1
 93
        1
 72
     4
 94
        3
 73
     0
 74
     0
 95
       17
 96
       13
 40
0.0
 40
0.0
 40
0.0
 40
0.0
 40
1.0
 40
1.0
 40
1.0
 40
2.0
 40
2.0
 40
2.0
 40
3.0
 40
3.0
 40
3.0
 40
4.0
 40
4.0
 40
4.0
 40
4.0
 10
94.2709038392795
 20
-160.143541084096
 10
94.0214789261474
 20
-160.143541084096
 10
93.97462562754801
 20
-160.4270724425321
 10
93.97462562754801
 20
-160.7715819910571
 10
93.97462562754801
 20
-161.0912868520883
 10
94.01079913014314
 20
-161.3999674075667
 10
94.2709038392795
 20
-161.3999674075667
 10
94.51860620466897
 20
-161.3999674075667
 10
94.56718205101099
 20
-161.1185031064217
 10
94.56718205101099
 20
-160.7715819910571
 10
94.56718205101099
 20
-160.4522216395744
 10
94.52894149112472
 20
-160.143541084096
 10
94.2709038392795
 20
-160.143541084096
 97
        0
 97
        1
330
B4
 92
        1
 93
        1
 72
     4
 94
        3
 73
     0
 74
     0
 95
       29
 96
       25
 40
0.0
 40
0.0
 40
0.0
 40
0.0
 40
1.0
 40
1.0
 40
1.0
 40
2.0
 40
2.0
 40
2.0
 40
3.0
 40
3.0
 40
3.0
 40
4.0
 40
4.0
 40
4.0
 40
5.0
 40
5.0
 40
5.0
 40
6.0
 40
6.0
 40
6.0
 40
7.0
 40
7.0
 40
7.0
 40
8.0
 40
8.0
 40
8.0
 40
8.0
 10
94.66881236782585
 20
-161.3662054718112
 10
94.560636369589
 20
-161.5756672773144
 10
94.38734806668094
 20
-161.5946153024833
 10
94.2709038392795
 20
-161.5946153024833
 10
94.11001788011834
 20
-161.5946153024833
 10
93.96842445567456
 20
-161.5481065134324
 10
93.87333982028167
 20
-161.3662054718112
 10
93.76964244617566
 20
-161.1715575768946
 10
93.75069442100677
 20
-160.9345350075094
 10
93.75069442100677
 20
-160.7715819910571
 10
93.75069442100677
 20
-160.6279215093222
 10
93.76757538888449
 20
-160.3760850293504
 10
93.87333982028167
 20
-160.1773030198515
 10
93.98117130896999
 20
-159.9740423862218
 10
94.14205726813115
 20
-159.9509602464706
 10
94.2709038392795
 20
-159.9509602464706
 10
94.42972274114952
 20
-159.9509602464706
 10
94.57338322288443
 20
-159.9954019782303
 10
94.66881236782585
 20
-160.1773030198515
 10
94.76803111780105
 20
-160.369883857477
 10
94.79145776710074
 20
-160.598293688149
 10
94.79145776710074
 20
-160.7715819910571
 10
94.79145776710074
 20
-160.9431477462225
 10
94.7700981750922
 20
-161.1736246341857
 10
94.66881236782585
 20
-161.3662054718112
 97
        0
 97
        1
330
B5
 75
     2
 76
     1
 98
        1
 10
0.0
 20
0.0
450
        0
451
        0
460
0.0
461
0.0
452
        0
462
0.0
453
        0
470

  0
ENDBLK
  5
B1
330
AE
100
AcDbEntity
  8
0
100
AcDbBlockEnd
  0
BLOCK
  5
BB
330
B9
100
AcDbEntity
  8
0
100
AcDbBlockBegin
  2
Block_8
 70
     0
 10
0.0
 20
0.0
 30
0.0
  3
Block_8
  1

  0
LINE
  5
BD
330
B9
100
AcDbEntity
  8
レイヤー 1
 62
    18
420
        0
370
     9
100
AcDbLine
 10
106.8661106294051
 20
-153.7464941174936
 30
0.0
 11
113.8547508612229
 21
-153.7464941174936
 31
0.0
  0
LINE
  5
BE
330
B9
100
AcDbEntity
  8
レイヤー 1
 62
    18
420
        0
370
     9
100
AcDbLine
 10
106.8661106294051
 20
-155.2065354691337
 30
0.0
 11
106.8661106294051
 21
-152.7463691430089
 31
0.0
  0
LINE
  5
BF
330
B9
100
AcDbEntity
  8
レイヤー 1
 62
    18
420
        0
370
     9
100
AcDbLine
 10
113.8547503849147
 20
-155.2065354691337
 30
0.0
 11
113.8547503849147
 21
-152.7463691430089
 31
0.0
  0
INSERT
  5
C1
330
B9
100
AcDbEntity
  8
レイヤー 1
100
AcDbBlockReference
  2
Block_9
 10
0.0
 20
0.0
 30
0.0
  0
ENDBLK
  5
BC
330
B9
100
AcDbEntity
  8
0
100
AcDbBlockEnd
  0
BLOCK
  5
C2
330
C0
100
AcDbEntity
  8
0
100
AcDbBlockBegin
  2
Block_9
 70
     0
 10
0.0
 20
0.0
 30
0.0
  3
Block_9
  1

  0
SPLINE
  5
C4
330
C0
100
AcDbEntity
  8
レイヤー 1
100
AcDbSpline
210
0.0
220
0.0
230
1.0
 70
     9
 71
     3
 72
    26
 73
    22
 74
     0
 42
0.0000000001
 43
0.0000000001
 40
0.0
 40
0.0
 40
0.0
 40
0.0
 40
1.0
 40
1.0
 40
1.0
 40
2.0
 40
2.0
 40
2.0
 40
3.0
 40
3.0
 40
3.0
 40
4.0
 40
4.0
 40
4.0
 40
5.0
 40
5.0
 40
5.0
 40
6.0
 40
6.0
 40
6.0
 40
7.0
 40
7.0
 40
7.0
 40
7.0
 10
110.2723388396194
 20
-152.8940266544848
 30
0.0
 10
110.2723388396194
 20
-152.8940266544848
 30
0.0
 10
110.0353162702342
 20
-152.8940266544848
 30
0.0
 10
110.0353162702342
 20
-152.8940266544848
 30
0.0
 10
110.0608099768251
 20
-152.5853460990064
 30
0.0
 10
110.2533908144505
 20
-152.0668592284763
 30
0.0
 10
110.6595675721615
 20
-151.5614637207901
 30
0.0
 10
110.6595675721615
 20
-151.5614637207901
 30
0.0
 10
109.8217203501487
 20
-151.5614637207901
 30
0.0
 10
109.8217203501487
 20
-151.5614637207901
 30
0.0
 10
109.8217203501487
 20
-151.5614637207901
 30
0.0
 10
109.8217203501487
 20
-151.3499348579958
 30
0.0
 10
109.8217203501487
 20
-151.3499348579958
 30
0.0
 10
109.8217203501487
 20
-151.3499348579958
 30
0.0
 10
110.8965901415467
 20
-151.3499348579958
 30
0.0
 10
110.8965901415467
 20
-151.3499348579958
 30
0.0
 10
110.8965901415467
 20
-151.3499348579958
 30
0.0
 10
110.8965901415467
 20
-151.5614637207901
 30
0.0
 10
110.8965901415467
 20
-151.5614637207901
 30
0.0
 10
110.5727511659332
 20
-151.8511962510997
 30
0.0
 10
110.3061007753749
 20
-152.4434081650141
 30
0.0
 10
110.2723388396194
 20
-152.8940266544848
 30
0.0
  0
HATCH
  5
C5
330
C0
100
AcDbEntity
  8
レイヤー 1
 62
    18
420
        0
440
 33554687
100
AcDbHatch
 10
0.0
 20
0.0
 30
0.0
210
0.0
220
0.0
230
1.0
  2
SOLID
 70
     1
 71
     1
 91
        1
 92
        1
 93
        1
 72
     4
 94
        3
 73
     0
 74
     0
 95
       26
 96
       22
 40
0.0
 40
0.0
 40
0.0
 40
0.0
 40
1.0
 40
1.0
 40
1.0
 40
2.0
 40
2.0
 40
2.0
 40
3.0
 40
3.0
 40
3.0
 40
4.0
 40
4.0
 40
4.0
 40
5.0
 40
5.0
 40
5.0
 40
6.0
 40
6.0
 40
6.0
 40
7.0
 40
7.0
 40
7.0
 40
7.0
 10
110.2723388396194
 20
-152.8940266544848
 10
110.2723388396194
 20
-152.8940266544848
 10
110.0353162702342
 20
-152.8940266544848
 10
110.0353162702342
 20
-152.8940266544848
 10
110.0608099768251
 20
-152.5853460990064
 10
110.2533908144505
 20
-152.0668592284763
 10
110.6595675721615
 20
-151.5614637207901
 10
110.6595675721615
 20
-151.5614637207901
 10
109.8217203501487
 20
-151.5614637207901
 10
109.8217203501487
 20
-151.5614637207901
 10
109.8217203501487
 20
-151.5614637207901
 10
109.8217203501487
 20
-151.3499348579958
 10
109.8217203501487
 20
-151.3499348579958
 10
109.8217203501487
 20
-151.3499348579958
 10
110.8965901415467
 20
-151.3499348579958
 10
110.8965901415467
 20
-151.3499348579958
 10
110.8965901415467
 20
-151.3499348579958
 10
110.8965901415467
 20
-151.5614637207901
 10
110.8965901415467
 20
-151.5614637207901
 10
110.5727511659332
 20
-151.8511962510997
 10
110.3061007753749
 20
-152.4434081650141
 10
110.2723388396194
 20
-152.8940266544848
 97
        0
 97
        1
330
C4
 75
     2
 76
     1
 98
        1
 10
0.0
 20
0.0
450
        0
451
        0
460
0.0
461
0.0
452
        0
462
0.0
453
        0
470

  0
ENDBLK
  5
C3
330
C0
100
AcDbEntity
  8
0
100
AcDbBlockEnd
  0
BLOCK
  5
D2
330
D0
100
AcDbEntity
  8
0
100
AcDbBlockBegin
  2
Block_10
 70
     0
 10
0.0
 20
0.0
 30
0.0
  3
Block_10
  1

  0
SPLINE
  5
D4
330
D0
100
AcDbEntity
  8
レイヤー 1
100
AcDbSpline
210
0.0
220
0.0
230
1.0
 70
     9
 71
     3
 72
    62
 73
    58
 74
     0
 42
0.0000000001
 43
0.0000000001
 40
0.0
 40
0.0
 40
0.0
 40
0.0
 40
1.0
 40
1.0
 40
1.0
 40
2.0
 40
2.0
 40
2.0
 40
3.0
 40
3.0
 40
3.0
 40
4.0
 40
4.0
 40
4.0
 40
5.0
 40
5.0
 40
5.0
 40
6.0
 40
6.0
 40
6.0
 40
7.0
 40
7.0
 40
7.0
 40
8.0
 40
8.0
 40
8.0
 40
9.0
 40
9.0
 40
9.0
 40
10.0
 40
10.0
 40
10.0
 40
11.0
 40
11.0
 40
11.0
 40
12.0
 40
12.0
 40
12.0
 40
13.0
 40
13.0
 40
13.0
 40
14.0
 40
14.0
 40
14.0
 40
15.0
 40
15.0
 40
15.0
 40
16.0
 40
16.0
 40
16.0
 40
17.0
 40
17.0
 40
17.0
 40
18.0
 40
18.0
 40
18.0
 40
19.0
 40
19.0
 40
19.0
 40
19.0
 10
125.4982828462296
 20
-157.3981444919004
 30
0.0
 10
125.4982828462296
 20
-157.4935736368419
 30
0.0
 10
125.4772677637695
 20
-157.7113036715097
 30
0.0
 10
125.2912326075661
 20
-157.8363606376242
 30
0.0
 10
125.1789224947469
 20
-157.9100856810086
 30
0.0
 10
125.0797037447717
 20
-157.9145643051394
 30
0.0
 10
124.9949543958346
 20
-157.9186984197217
 30
0.0
 10
124.9949543958346
 20
-157.9186984197217
 30
0.0
 10
124.9949543958346
 20
-157.6985568182142
 30
0.0
 10
124.9949543958346
 20
-157.6985568182142
 30
0.0
 10
125.0690239487674
 20
-157.6964897609231
 30
0.0
 10
125.303634951313
 20
-157.6861544744673
 30
0.0
 10
125.303634951313
 20
-157.4026231160313
 30
0.0
 10
125.303634951313
 20
-157.2651638061698
 30
0.0
 10
125.2340440225109
 20
-157.1125460761732
 30
0.0
 10
125.0056341918388
 20
-157.1125460761732
 30
0.0
 10
124.8891899644374
 20
-157.1125460761732
 30
0.0
 10
124.8406141180954
 20
-157.1507866360595
 30
0.0
 10
124.8089192396311
 20
-157.1824815145238
 30
0.0
 10
124.7348496866982
 20
-157.2565510674567
 30
0.0
 10
124.7221028334028
 20
-157.3729952948581
 30
0.0
 10
124.7221028334028
 20
-157.4277723130736
 30
0.0
 10
124.7221028334028
 20
-157.447064847791
 30
0.0
 10
124.7241698906939
 20
-157.4828938408376
 30
0.0
 10
124.7283040052762
 20
-157.5104546047196
 30
0.0
 10
124.7283040052762
 20
-157.5104546047196
 30
0.0
 10
124.5336561103596
 20
-157.5104546047196
 30
0.0
 10
124.5336561103596
 20
-157.5104546047196
 30
0.0
 10
124.5402017917816
 20
-157.4722140448333
 30
0.0
 10
124.5422688490728
 20
-157.4301838799133
 30
0.0
 10
124.5422688490728
 20
-157.4236381984913
 30
0.0
 10
124.5422688490728
 20
-157.3581813842715
 30
0.0
 10
124.5209092570642
 20
-157.1593993747726
 30
0.0
 10
124.2842311972275
 20
-157.1593993747726
 30
0.0
 10
124.1064642701886
 20
-157.1593993747726
 30
0.0
 10
124.0513427424246
 20
-157.2903130032121
 30
0.0
 10
124.0513427424246
 20
-157.4005560587401
 30
0.0
 10
124.0513427424246
 20
-157.6647948824588
 30
0.0
 10
124.2842311972275
 20
-157.6734076211719
 30
0.0
 10
124.3558891833207
 20
-157.6775417357542
 30
0.0
 10
124.3558891833207
 20
-157.6775417357542
 30
0.0
 10
124.3558891833207
 20
-157.880802369384
 30
0.0
 10
124.3558891833207
 20
-157.880802369384
 30
0.0
 10
124.2311767267547
 20
-157.8721896306708
 30
0.0
 10
123.8546277902169
 20
-157.8446288667888
 30
0.0
 10
123.8546277902169
 20
-157.3878092054447
 30
0.0
 10
123.8546277902169
 20
-157.1635334893549
 30
0.0
 10
123.9817518136226
 20
-156.9223768053874
 30
0.0
 10
124.2776855158056
 20
-156.9223768053874
 30
0.0
 10
124.4640651815576
 20
-156.9223768053874
 30
0.0
 10
124.546402963655
 20
-157.0174614407803
 30
0.0
 10
124.6077256632925
 20
-157.1170247003041
 30
0.0
 10
124.6352864271745
 20
-157.0557020006666
 30
0.0
 10
124.7155571519808
 20
-156.8738009590454
 30
0.0
 10
124.9928873385434
 20
-156.8738009590454
 30
0.0
 10
125.3311957151949
 20
-156.8738009590454
 30
0.0
 10
125.4982828462296
 20
-157.1211588148863
 30
0.0
 10
125.4982828462296
 20
-157.3981444919004
 30
0.0
  0
HATCH
  5
D5
330
D0
100
AcDbEntity
  8
レイヤー 1
 62
    18
420
        0
440
 33554687
100
AcDbHatch
 10
0.0
 20
0.0
 30
0.0
210
0.0
220
0.0
230
1.0
  2
SOLID
 70
     1
 71
     1
 91
        1
 92
        1
 93
        1
 72
     4
 94
        3
 73
     0
 74
     0
 95
       62
 96
       58
 40
0.0
 40
0.0
 40
0.0
 40
0.0
 40
1.0
 40
1.0
 40
1.0
 40
2.0
 40
2.0
 40
2.0
 40
3.0
 40
3.0
 40
3.0
 40
4.0
 40
4.0
 40
4.0
 40
5.0
 40
5.0
 40
5.0
 40
6.0
 40
6.0
 40
6.0
 40
7.0
 40
7.0
 40
7.0
 40
8.0
 40
8.0
 40
8.0
 40
9.0
 40
9.0
 40
9.0
 40
10.0
 40
10.0
 40
10.0
 40
11.0
 40
11.0
 40
11.0
 40
12.0
 40
12.0
 40
12.0
 40
13.0
 40
13.0
 40
13.0
 40
14.0
 40
14.0
 40
14.0
 40
15.0
 40
15.0
 40
15.0
 40
16.0
 40
16.0
 40
16.0
 40
17.0
 40
17.0
 40
17.0
 40
18.0
 40
18.0
 40
18.0
 40
19.0
 40
19.0
 40
19.0
 40
19.0
 10
125.4982828462296
 20
-157.3981444919004
 10
125.4982828462296
 20
-157.4935736368419
 10
125.4772677637695
 20
-157.7113036715097
 10
125.2912326075661
 20
-157.8363606376242
 10
125.1789224947469
 20
-157.9100856810086
 10
125.0797037447717
 20
-157.9145643051394
 10
124.9949543958346
 20
-157.9186984197217
 10
124.9949543958346
 20
-157.9186984197217
 10
124.9949543958346
 20
-157.6985568182142
 10
124.9949543958346
 20
-157.6985568182142
 10
125.0690239487674
 20
-157.6964897609231
 10
125.303634951313
 20
-157.6861544744673
 10
125.303634951313
 20
-157.4026231160313
 10
125.303634951313
 20
-157.2651638061698
 10
125.2340440225109
 20
-157.1125460761732
 10
125.0056341918388
 20
-157.1125460761732
 10
124.8891899644374
 20
-157.1125460761732
 10
124.8406141180954
 20
-157.1507866360595
 10
124.8089192396311
 20
-157.1824815145238
 10
124.7348496866982
 20
-157.2565510674567
 10
124.7221028334028
 20
-157.3729952948581
 10
124.7221028334028
 20
-157.4277723130736
 10
124.7221028334028
 20
-157.447064847791
 10
124.7241698906939
 20
-157.4828938408376
 10
124.7283040052762
 20
-157.5104546047196
 10
124.7283040052762
 20
-157.5104546047196
 10
124.5336561103596
 20
-157.5104546047196
 10
124.5336561103596
 20
-157.5104546047196
 10
124.5402017917816
 20
-157.4722140448333
 10
124.5422688490728
 20
-157.4301838799133
 10
124.5422688490728
 20
-157.4236381984913
 10
124.5422688490728
 20
-157.3581813842715
 10
124.5209092570642
 20
-157.1593993747726
 10
124.2842311972275
 20
-157.1593993747726
 10
124.1064642701886
 20
-157.1593993747726
 10
124.0513427424246
 20
-157.2903130032121
 10
124.0513427424246
 20
-157.4005560587401
 10
124.0513427424246
 20
-157.6647948824588
 10
124.2842311972275
 20
-157.6734076211719
 10
124.3558891833207
 20
-157.6775417357542
 10
124.3558891833207
 20
-157.6775417357542
 10
124.3558891833207
 20
-157.880802369384
 10
124.3558891833207
 20
-157.880802369384
 10
124.2311767267547
 20
-157.8721896306708
 10
123.8546277902169
 20
-157.8446288667888
 10
123.8546277902169
 20
-157.3878092054447
 10
123.8546277902169
 20
-157.1635334893549
 10
123.9817518136226
 20
-156.9223768053874
 10
124.2776855158056
 20
-156.9223768053874
 10
124.4640651815576
 20
-156.9223768053874
 10
124.546402963655
 20
-157.0174614407803
 10
124.6077256632925
 20
-157.1170247003041
 10
124.6352864271745
 20
-157.0557020006666
 10
124.7155571519808
 20
-156.8738009590454
 10
124.9928873385434
 20
-156.8738009590454
 10
125.3311957151949
 20
-156.8738009590454
 10
125.4982828462296
 20
-157.1211588148863
 10
125.4982828462296
 20
-157.3981444919004
 97
        0
 97
        1
330
D4
 75
     2
 76
     1
 98
        1
 10
0.0
 20
0.0
450
        0
451
        0
460
0.0
461
0.0
452
        0
462
0.0
453
        0
470

  0
ENDBLK
  5
D3
330
D0
100
AcDbEntity
  8
0
100
AcDbBlockEnd
  0
BLOCK
  5
D8
330
D6
100
AcDbEntity
  8
0
100
AcDbBlockBegin
  2
Block_11
 70
     0
 10
0.0
 20
0.0
 30
0.0
  3
Block_11
  1

  0
INSERT
  5
DB
330
D6
100
AcDbEntity
  8
レイヤー 1
100
AcDbBlockReference
  2
Block_12
 10
0.0
 20
0.0
 30
0.0
  0
ENDBLK
  5
D9
330
D6
100
AcDbEntity
  8
0
100
AcDbBlockEnd
  0
BLOCK
  5
DC
330
DA
100
AcDbEntity
  8
0
100
AcDbBlockBegin
  2
Block_12
 70
     0
 10
0.0
 20
0.0
 30
0.0
  3
Block_12
  1

  0
SPLINE
  5
DE
330
DA
100
AcDbEntity
  8
レイヤー 1
100
AcDbSpline
210
0.0
220
0.0
230
1.0
 70
    11
 71
     3
 72
    26
 73
    22
 74
     0
 42
0.0000000001
 43
0.0000000001
 40
0.0
 40
0.0
 40
0.0
 40
0.0
 40
1.0
 40
1.0
 40
1.0
 40
2.0
 40
2.0
 40
2.0
 40
3.0
 40
3.0
 40
3.0
 40
4.0
 40
4.0
 40
4.0
 40
5.0
 40
5.0
 40
5.0
 40
6.0
 40
6.0
 40
6.0
 40
7.0
 40
7.0
 40
7.0
 40
7.0
 10
125.4476399425964
 20
-149.9615613774402
 30
0.0
 10
125.4476399425964
 20
-149.9615613774402
 30
0.0
 10
124.3434868395738
 20
-149.9615613774402
 30
0.0
 10
124.3434868395738
 20
-149.9615613774402
 30
0.0
 10
124.3434868395738
 20
-149.9615613774402
 30
0.0
 10
124.3434868395738
 20
-150.2916015249271
 30
0.0
 10
124.3434868395738
 20
-150.2916015249271
 30
0.0
 10
124.3434868395738
 20
-150.2916015249271
 30
0.0
 10
124.1953477337081
 20
-150.2916015249271
 30
0.0
 10
124.1953477337081
 20
-150.2916015249271
 30
0.0
 10
124.1805338231215
 20
-149.959494320149
 30
0.0
 10
124.0175808066692
 20
-149.9129855310981
 30
0.0
 10
123.9032036365589
 20
-149.883357709925
 30
0.0
 10
123.9032036365589
 20
-149.883357709925
 30
0.0
 10
123.9032036365589
 20
-149.7372856613504
 30
0.0
 10
123.9032036365589
 20
-149.7372856613504
 30
0.0
 10
123.9032036365589
 20
-149.7372856613504
 30
0.0
 10
125.4476399425964
 20
-149.7372856613504
 30
0.0
 10
125.4476399425964
 20
-149.7372856613504
 30
0.0
 10
125.4476399425964
 20
-149.7372856613504
 30
0.0
 10
125.4476399425964
 20
-149.9615613774402
 30
0.0
 10
125.4476399425964
 20
-149.9615613774402
 30
0.0
  0
HATCH
  5
DF
330
DA
100
AcDbEntity
  8
レイヤー 1
 62
    18
420
        0
440
 33554687
100
AcDbHatch
 10
0.0
 20
0.0
 30
0.0
210
0.0
220
0.0
230
1.0
  2
SOLID
 70
     1
 71
     1
 91
        1
 92
        1
 93
        1
 72
     4
 94
        3
 73
     0
 74
     0
 95
       26
 96
       22
 40
0.0
 40
0.0
 40
0.0
 40
0.0
 40
1.0
 40
1.0
 40
1.0
 40
2.0
 40
2.0
 40
2.0
 40
3.0
 40
3.0
 40
3.0
 40
4.0
 40
4.0
 40
4.0
 40
5.0
 40
5.0
 40
5.0
 40
6.0
 40
6.0
 40
6.0
 40
7.0
 40
7.0
 40
7.0
 40
7.0
 10
125.4476399425964
 20
-149.9615613774402
 10
125.4476399425964
 20
-149.9615613774402
 10
124.3434868395738
 20
-149.9615613774402
 10
124.3434868395738
 20
-149.9615613774402
 10
124.3434868395738
 20
-149.9615613774402
 10
124.3434868395738
 20
-150.2916015249271
 10
124.3434868395738
 20
-150.2916015249271
 10
124.3434868395738
 20
-150.2916015249271
 10
124.1953477337081
 20
-150.2916015249271
 10
124.1953477337081
 20
-150.2916015249271
 10
124.1805338231215
 20
-149.959494320149
 10
124.0175808066692
 20
-149.9129855310981
 10
123.9032036365589
 20
-149.883357709925
 10
123.9032036365589
 20
-149.883357709925
 10
123.9032036365589
 20
-149.7372856613504
 10
123.9032036365589
 20
-149.7372856613504
 10
123.9032036365589
 20
-149.7372856613504
 10
125.4476399425964
 20
-149.7372856613504
 10
125.4476399425964
 20
-149.7372856613504
 10
125.4476399425964
 20
-149.7372856613504
 10
125.4476399425964
 20
-149.9615613774402
 10
125.4476399425964
 20
-149.9615613774402
 97
        0
 97
        1
330
DE
 75
     2
 76
     1
 98
        1
 10
0.0
 20
0.0
450
        0
451
        0
460
0.0
461
0.0
452
        0
462
0.0
453
        0
470

  0
SPLINE
  5
E0
330
DA
100
AcDbEntity
  8
レイヤー 1
100
AcDbSpline
210
0.0
220
0.0
230
1.0
 70
     9
 71
     3
 72
    62
 73
    58
 74
     0
 42
0.0000000001
 43
0.0000000001
 40
0.0
 40
0.0
 40
0.0
 40
0.0
 40
1.0
 40
1.0
 40
1.0
 40
2.0
 40
2.0
 40
2.0
 40
3.0
 40
3.0
 40
3.0
 40
4.0
 40
4.0
 40
4.0
 40
5.0
 40
5.0
 40
5.0
 40
6.0
 40
6.0
 40
6.0
 40
7.0
 40
7.0
 40
7.0
 40
8.0
 40
8.0
 40
8.0
 40
9.0
 40
9.0
 40
9.0
 40
10.0
 40
10.0
 40
10.0
 40
11.0
 40
11.0
 40
11.0
 40
12.0
 40
12.0
 40
12.0
 40
13.0
 40
13.0
 40
13.0
 40
14.0
 40
14.0
 40
14.0
 40
15.0
 40
15.0
 40
15.0
 40
16.0
 40
16.0
 40
16.0
 40
17.0
 40
17.0
 40
17.0
 40
18.0
 40
18.0
 40
18.0
 40
19.0
 40
19.0
 40
19.0
 40
19.0
 10
125.4982828462296
 20
-148.7444091425014
 30
0.0
 10
125.4982828462296
 20
-148.8398382874428
 30
0.0
 10
125.4772677637695
 20
-149.0575683221106
 30
0.0
 10
125.2912326075661
 20
-149.1826252882252
 30
0.0
 10
125.1789224947469
 20
-149.256694841158
 30
0.0
 10
125.0797037447717
 20
-149.2608289557403
 30
0.0
 10
124.9949543958346
 20
-149.2649630703226
 30
0.0
 10
124.9949543958346
 20
-149.2649630703226
 30
0.0
 10
124.9949543958346
 20
-149.0448214688152
 30
0.0
 10
124.9949543958346
 20
-149.0448214688152
 30
0.0
 10
125.0690239487674
 20
-149.042754411524
 30
0.0
 10
125.303634951313
 20
-149.0324191250683
 30
0.0
 10
125.303634951313
 20
-148.7488877666322
 30
0.0
 10
125.303634951313
 20
-148.6114284567707
 30
0.0
 10
125.2340440225109
 20
-148.4588107267742
 30
0.0
 10
125.0056341918388
 20
-148.4588107267742
 30
0.0
 10
124.8891899644374
 20
-148.4588107267742
 30
0.0
 10
124.8406141180954
 20
-148.4970512866605
 30
0.0
 10
124.8089192396311
 20
-148.5287461651247
 30
0.0
 10
124.7348496866982
 20
-148.6028157180576
 30
0.0
 10
124.7221028334028
 20
-148.719259945459
 30
0.0
 10
124.7221028334028
 20
-148.7740369636745
 30
0.0
 10
124.7221028334028
 20
-148.7933294983919
 30
0.0
 10
124.7241698906939
 20
-148.8291584914385
 30
0.0
 10
124.7283040052762
 20
-148.8567192553205
 30
0.0
 10
124.7283040052762
 20
-148.8567192553205
 30
0.0
 10
124.5336561103596
 20
-148.8567192553205
 30
0.0
 10
124.5336561103596
 20
-148.8567192553205
 30
0.0
 10
124.5402017917816
 20
-148.8184786954342
 30
0.0
 10
124.5422688490728
 20
-148.7764485305142
 30
0.0
 10
124.5422688490728
 20
-148.7699028490922
 30
0.0
 10
124.5422688490728
 20
-148.7044460348725
 30
0.0
 10
124.5209092570642
 20
-148.5056640253736
 30
0.0
 10
124.2842311972275
 20
-148.5056640253736
 30
0.0
 10
124.1064642701886
 20
-148.5056640253736
 30
0.0
 10
124.0513427424246
 20
-148.6365776538131
 30
0.0
 10
124.0513427424246
 20
-148.7468207093411
 30
0.0
 10
124.0513427424246
 20
-149.0110595330597
 30
0.0
 10
124.2842311972275
 20
-149.0196722717728
 30
0.0
 10
124.3558891833207
 20
-149.0238063863551
 30
0.0
 10
124.3558891833207
 20
-149.0238063863551
 30
0.0
 10
124.3558891833207
 20
-149.2270670199849
 30
0.0
 10
124.3558891833207
 20
-149.2270670199849
 30
0.0
 10
124.2311767267547
 20
-149.2184542812718
 30
0.0
 10
123.8546277902169
 20
-149.1908935173898
 30
0.0
 10
123.8546277902169
 20
-148.7340738560456
 30
0.0
 10
123.8546277902169
 20
-148.5097981399559
 30
0.0
 10
123.9817518136226
 20
-148.2686414559884
 30
0.0
 10
124.2776855158056
 20
-148.2686414559884
 30
0.0
 10
124.4640651815576
 20
-148.2686414559884
 30
0.0
 10
124.546402963655
 20
-148.3637260913813
 30
0.0
 10
124.6077256632925
 20
-148.463289350905
 30
0.0
 10
124.6352864271745
 20
-148.4019666512675
 30
0.0
 10
124.7155571519808
 20
-148.2200656096464
 30
0.0
 10
124.9928873385434
 20
-148.2200656096464
 30
0.0
 10
125.3311957151949
 20
-148.2200656096464
 30
0.0
 10
125.4982828462296
 20
-148.4674234654873
 30
0.0
 10
125.4982828462296
 20
-148.7444091425014
 30
0.0
  0
HATCH
  5
E1
330
DA
100
AcDbEntity
  8
レイヤー 1
 62
    18
420
        0
440
 33554687
100
AcDbHatch
 10
0.0
 20
0.0
 30
0.0
210
0.0
220
0.0
230
1.0
  2
SOLID
 70
     1
 71
     1
 91
        1
 92
        1
 93
        1
 72
     4
 94
        3
 73
     0
 74
     0
 95
       62
 96
       58
 40
0.0
 40
0.0
 40
0.0
 40
0.0
 40
1.0
 40
1.0
 40
1.0
 40
2.0
 40
2.0
 40
2.0
 40
3.0
 40
3.0
 40
3.0
 40
4.0
 40
4.0
 40
4.0
 40
5.0
 40
5.0
 40
5.0
 40
6.0
 40
6.0
 40
6.0
 40
7.0
 40
7.0
 40
7.0
 40
8.0
 40
8.0
 40
8.0
 40
9.0
 40
9.0
 40
9.0
 40
10.0
 40
10.0
 40
10.0
 40
11.0
 40
11.0
 40
11.0
 40
12.0
 40
12.0
 40
12.0
 40
13.0
 40
13.0
 40
13.0
 40
14.0
 40
14.0
 40
14.0
 40
15.0
 40
15.0
 40
15.0
 40
16.0
 40
16.0
 40
16.0
 40
17.0
 40
17.0
 40
17.0
 40
18.0
 40
18.0
 40
18.0
 40
19.0
 40
19.0
 40
19.0
 40
19.0
 10
125.4982828462296
 20
-148.7444091425014
 10
125.4982828462296
 20
-148.8398382874428
 10
125.4772677637695
 20
-149.0575683221106
 10
125.2912326075661
 20
-149.1826252882252
 10
125.1789224947469
 20
-149.256694841158
 10
125.0797037447717
 20
-149.2608289557403
 10
124.9949543958346
 20
-149.2649630703226
 10
124.9949543958346
 20
-149.2649630703226
 10
124.9949543958346
 20
-149.0448214688152
 10
124.9949543958346
 20
-149.0448214688152
 10
125.0690239487674
 20
-149.042754411524
 10
125.303634951313
 20
-149.0324191250683
 10
125.303634951313
 20
-148.7488877666322
 10
125.303634951313
 20
-148.6114284567707
 10
125.2340440225109
 20
-148.4588107267742
 10
125.0056341918388
 20
-148.4588107267742
 10
124.8891899644374
 20
-148.4588107267742
 10
124.8406141180954
 20
-148.4970512866605
 10
124.8089192396311
 20
-148.5287461651247
 10
124.7348496866982
 20
-148.6028157180576
 10
124.7221028334028
 20
-148.719259945459
 10
124.7221028334028
 20
-148.7740369636745
 10
124.7221028334028
 20
-148.7933294983919
 10
124.7241698906939
 20
-148.8291584914385
 10
124.7283040052762
 20
-148.8567192553205
 10
124.7283040052762
 20
-148.8567192553205
 10
124.5336561103596
 20
-148.8567192553205
 10
124.5336561103596
 20
-148.8567192553205
 10
124.5402017917816
 20
-148.8184786954342
 10
124.5422688490728
 20
-148.7764485305142
 10
124.5422688490728
 20
-148.7699028490922
 10
124.5422688490728
 20
-148.7044460348725
 10
124.5209092570642
 20
-148.5056640253736
 10
124.2842311972275
 20
-148.5056640253736
 10
124.1064642701886
 20
-148.5056640253736
 10
124.0513427424246
 20
-148.6365776538131
 10
124.0513427424246
 20
-148.7468207093411
 10
124.0513427424246
 20
-149.0110595330597
 10
124.2842311972275
 20
-149.0196722717728
 10
124.3558891833207
 20
-149.0238063863551
 10
124.3558891833207
 20
-149.0238063863551
 10
124.3558891833207
 20
-149.2270670199849
 10
124.3558891833207
 20
-149.2270670199849
 10
124.2311767267547
 20
-149.2184542812718
 10
123.8546277902169
 20
-149.1908935173898
 10
123.8546277902169
 20
-148.7340738560456
 10
123.8546277902169
 20
-148.5097981399559
 10
123.9817518136226
 20
-148.2686414559884
 10
124.2776855158056
 20
-148.2686414559884
 10
124.4640651815576
 20
-148.2686414559884
 10
124.546402963655
 20
-148.3637260913813
 10
124.6077256632925
 20
-148.463289350905
 10
124.6352864271745
 20
-148.4019666512675
 10
124.7155571519808
 20
-148.2200656096464
 10
124.9928873385434
 20
-148.2200656096464
 10
125.3311957151949
 20
-148.2200656096464
 10
125.4982828462296
 20
-148.4674234654873
 10
125.4982828462296
 20
-148.7444091425014
 97
        0
 97
        1
330
E0
 75
     2
 76
     1
 98
        1
 10
0.0
 20
0.0
450
        0
451
        0
460
0.0
461
0.0
452
        0
462
0.0
453
        0
470

  0
ENDBLK
  5
DD
330
DA
100
AcDbEntity
  8
0
100
AcDbBlockEnd
  0
BLOCK
  5
E4
330
E2
100
AcDbEntity
  8
0
100
AcDbBlockBegin
  2
Block_13
 70
     0
 10
0.0
 20
0.0
 30
0.0
  3
Block_13
  1

  0
SPLINE
  5
E6
330
E2
100
AcDbEntity
  8
レイヤー 1
100
AcDbSpline
210
0.0
220
0.0
230
1.0
 70
    11
 71
     3
 72
    26
 73
    22
 74
     0
 42
0.0000000001
 43
0.0000000001
 40
0.0
 40
0.0
 40
0.0
 40
0.0
 40
1.0
 40
1.0
 40
1.0
 40
2.0
 40
2.0
 40
2.0
 40
3.0
 40
3.0
 40
3.0
 40
4.0
 40
4.0
 40
4.0
 40
5.0
 40
5.0
 40
5.0
 40
6.0
 40
6.0
 40
6.0
 40
7.0
 40
7.0
 40
7.0
 40
7.0
 10
125.4476399425964
 20
-140.1189235760814
 30
0.0
 10
125.4476399425964
 20
-140.1189235760814
 30
0.0
 10
124.3434868395738
 20
-140.1189235760814
 30
0.0
 10
124.3434868395738
 20
-140.1189235760814
 30
0.0
 10
124.3434868395738
 20
-140.1189235760814
 30
0.0
 10
124.3434868395738
 20
-140.4489637235683
 30
0.0
 10
124.3434868395738
 20
-140.4489637235683
 30
0.0
 10
124.3434868395738
 20
-140.4489637235683
 30
0.0
 10
124.1953477337081
 20
-140.4489637235683
 30
0.0
 10
124.1953477337081
 20
-140.4489637235683
 30
0.0
 10
124.1805338231215
 20
-140.1168565187902
 30
0.0
 10
124.0175808066692
 20
-140.0703477297393
 30
0.0
 10
123.9032036365589
 20
-140.0407199085662
 30
0.0
 10
123.9032036365589
 20
-140.0407199085662
 30
0.0
 10
123.9032036365589
 20
-139.8946478599916
 30
0.0
 10
123.9032036365589
 20
-139.8946478599916
 30
0.0
 10
123.9032036365589
 20
-139.8946478599916
 30
0.0
 10
125.4476399425964
 20
-139.8946478599916
 30
0.0
 10
125.4476399425964
 20
-139.8946478599916
 30
0.0
 10
125.4476399425964
 20
-139.8946478599916
 30
0.0
 10
125.4476399425964
 20
-140.1189235760814
 30
0.0
 10
125.4476399425964
 20
-140.1189235760814
 30
0.0
  0
HATCH
  5
E7
330
E2
100
AcDbEntity
  8
レイヤー 1
 62
    18
420
        0
440
 33554687
100
AcDbHatch
 10
0.0
 20
0.0
 30
0.0
210
0.0
220
0.0
230
1.0
  2
SOLID
 70
     1
 71
     1
 91
        1
 92
        1
 93
        1
 72
     4
 94
        3
 73
     0
 74
     0
 95
       26
 96
       22
 40
0.0
 40
0.0
 40
0.0
 40
0.0
 40
1.0
 40
1.0
 40
1.0
 40
2.0
 40
2.0
 40
2.0
 40
3.0
 40
3.0
 40
3.0
 40
4.0
 40
4.0
 40
4.0
 40
5.0
 40
5.0
 40
5.0
 40
6.0
 40
6.0
 40
6.0
 40
7.0
 40
7.0
 40
7.0
 40
7.0
 10
125.4476399425964
 20
-140.1189235760814
 10
125.4476399425964
 20
-140.1189235760814
 10
124.3434868395738
 20
-140.1189235760814
 10
124.3434868395738
 20
-140.1189235760814
 10
124.3434868395738
 20
-140.1189235760814
 10
124.3434868395738
 20
-140.4489637235683
 10
124.3434868395738
 20
-140.4489637235683
 10
124.3434868395738
 20
-140.4489637235683
 10
124.1953477337081
 20
-140.4489637235683
 10
124.1953477337081
 20
-140.4489637235683
 10
124.1805338231215
 20
-140.1168565187902
 10
124.0175808066692
 20
-140.0703477297393
 10
123.9032036365589
 20
-140.0407199085662
 10
123.9032036365589
 20
-140.0407199085662
 10
123.9032036365589
 20
-139.8946478599916
 10
123.9032036365589
 20
-139.8946478599916
 10
123.9032036365589
 20
-139.8946478599916
 10
125.4476399425964
 20
-139.8946478599916
 10
125.4476399425964
 20
-139.8946478599916
 10
125.4476399425964
 20
-139.8946478599916
 10
125.4476399425964
 20
-140.1189235760814
 10
125.4476399425964
 20
-140.1189235760814
 97
        0
 97
        1
330
E6
 75
     2
 76
     1
 98
        1
 10
0.0
 20
0.0
450
        0
451
        0
460
0.0
461
0.0
452
        0
462
0.0
453
        0
470

  0
ENDBLK
  5
E5
330
E2
100
AcDbEntity
  8
0
100
AcDbBlockEnd
  0
BLOCK
  5
F1
330
EF
100
AcDbEntity
  8
0
100
AcDbBlockBegin
  2
Block_14
 70
     0
 10
0.0
 20
0.0
 30
0.0
  3
Block_14
  1

  0
SPLINE
  5
F3
330
EF
100
AcDbEntity
  8
レイヤー 1
100
AcDbSpline
210
0.0
220
0.0
230
1.0
 70
     9
 71
     3
 72
    53
 73
    49
 74
     0
 42
0.0000000001
 43
0.0000000001
 40
0.0
 40
0.0
 40
0.0
 40
0.0
 40
1.0
 40
1.0
 40
1.0
 40
2.0
 40
2.0
 40
2.0
 40
3.0
 40
3.0
 40
3.0
 40
4.0
 40
4.0
 40
4.0
 40
5.0
 40
5.0
 40
5.0
 40
6.0
 40
6.0
 40
6.0
 40
7.0
 40
7.0
 40
7.0
 40
8.0
 40
8.0
 40
8.0
 40
9.0
 40
9.0
 40
9.0
 40
10.0
 40
10.0
 40
10.0
 40
11.0
 40
11.0
 40
11.0
 40
12.0
 40
12.0
 40
12.0
 40
13.0
 40
13.0
 40
13.0
 40
14.0
 40
14.0
 40
14.0
 40
15.0
 40
15.0
 40
15.0
 40
16.0
 40
16.0
 40
16.0
 40
16.0
 10
85.94962020420704
 20
-150.4176920196872
 30
0.0
 10
85.94962020420704
 20
-150.4958956872024
 30
0.0
 10
85.93273923632933
 20
-150.5975260040172
 30
0.0
 10
85.86934947940072
 20
-150.6991563208321
 30
0.0
 10
85.75945093342125
 20
-150.8724446237402
 30
0.0
 10
85.62819279543324
 20
-150.8938042157488
 30
0.0
 10
85.52036130674492
 20
-150.9127522409176
 30
0.0
 10
85.52036130674492
 20
-150.9127522409176
 30
0.0
 10
85.52036130674492
 20
-150.690543582119
 30
0.0
 10
85.52036130674492
 20
-150.690543582119
 30
0.0
 10
85.71914331624382
 20
-150.6357665639035
 30
0.0
 10
85.74877113741697
 20
-150.5086425404978
 30
0.0
 10
85.74877113741697
 20
-150.4156249623961
 30
0.0
 10
85.74877113741697
 20
-150.2760985952434
 30
0.0
 10
85.64920787789326
 20
-150.1238253747954
 30
0.0
 10
85.4166639326389
 20
-150.1238253747954
 30
0.0
 10
85.16069333808482
 20
-150.1238253747954
 30
0.0
 10
85.09075789973426
 20
-150.3036593591255
 30
0.0
 10
85.09075789973426
 20
-150.4242377011092
 30
0.0
 10
85.09075789973426
 20
-150.4559325795735
 30
0.0
 10
85.09075789973426
 20
-150.5975260040172
 30
0.0
 10
85.21994898043113
 20
-150.6864094675367
 30
0.0
 10
85.21994898043113
 20
-150.6864094675367
 30
0.0
 10
85.20100095526226
 20
-150.8621093372845
 30
0.0
 10
85.20100095526226
 20
-150.8621093372845
 30
0.0
 10
85.20100095526226
 20
-150.8621093372845
 30
0.0
 10
84.35454099453636
 20
-150.7415309953007
 30
0.0
 10
84.35454099453636
 20
-150.7415309953007
 30
0.0
 10
84.35454099453636
 20
-150.7415309953007
 30
0.0
 10
84.35454099453636
 20
-149.9629394156342
 30
0.0
 10
84.35454099453636
 20
-149.9629394156342
 30
0.0
 10
84.35454099453636
 20
-149.9629394156342
 30
0.0
 10
84.54918888945298
 20
-149.9629394156342
 30
0.0
 10
84.54918888945298
 20
-149.9629394156342
 30
0.0
 10
84.54918888945298
 20
-149.9629394156342
 30
0.0
 10
84.54918888945298
 20
-150.5785779788484
 30
0.0
 10
84.54918888945298
 20
-150.5785779788484
 30
0.0
 10
84.54918888945298
 20
-150.5785779788484
 30
0.0
 10
84.97224661504167
 20
-150.6440347930681
 30
0.0
 10
84.97224661504167
 20
-150.6440347930681
 30
0.0
 10
84.93848467928621
 20
-150.5827120934307
 30
0.0
 10
84.89817706210878
 20
-150.5003743113332
 30
0.0
 10
84.89817706210878
 20
-150.3818630266406
 30
0.0
 10
84.89817706210878
 20
-150.1279594893777
 30
0.0
 10
85.08455672786082
 20
-149.8909369199925
 30
0.0
 10
85.39771590747001
 20
-149.8909369199925
 30
0.0
 10
85.71500920166153
 20
-149.8909369199925
 30
0.0
 10
85.94962020420704
 20
-150.1152126360823
 30
0.0
 10
85.94962020420704
 20
-150.4176920196872
 30
0.0
  0
HATCH
  5
F4
330
EF
100
AcDbEntity
  8
レイヤー 1
 62
    18
420
        0
440
 33554687
100
AcDbHatch
 10
0.0
 20
0.0
 30
0.0
210
0.0
220
0.0
230
1.0
  2
SOLID
 70
     1
 71
     1
 91
        1
 92
        1
 93
        1
 72
     4
 94
        3
 73
     0
 74
     0
 95
       53
 96
       49
 40
0.0
 40
0.0
 40
0.0
 40
0.0
 40
1.0
 40
1.0
 40
1.0
 40
2.0
 40
2.0
 40
2.0
 40
3.0
 40
3.0
 40
3.0
 40
4.0
 40
4.0
 40
4.0
 40
5.0
 40
5.0
 40
5.0
 40
6.0
 40
6.0
 40
6.0
 40
7.0
 40
7.0
 40
7.0
 40
8.0
 40
8.0
 40
8.0
 40
9.0
 40
9.0
 40
9.0
 40
10.0
 40
10.0
 40
10.0
 40
11.0
 40
11.0
 40
11.0
 40
12.0
 40
12.0
 40
12.0
 40
13.0
 40
13.0
 40
13.0
 40
14.0
 40
14.0
 40
14.0
 40
15.0
 40
15.0
 40
15.0
 40
16.0
 40
16.0
 40
16.0
 40
16.0
 10
85.94962020420704
 20
-150.4176920196872
 10
85.94962020420704
 20
-150.4958956872024
 10
85.93273923632933
 20
-150.5975260040172
 10
85.86934947940072
 20
-150.6991563208321
 10
85.75945093342125
 20
-150.8724446237402
 10
85.62819279543324
 20
-150.8938042157488
 10
85.52036130674492
 20
-150.9127522409176
 10
85.52036130674492
 20
-150.9127522409176
 10
85.52036130674492
 20
-150.690543582119
 10
85.52036130674492
 20
-150.690543582119
 10
85.71914331624382
 20
-150.6357665639035
 10
85.74877113741697
 20
-150.5086425404978
 10
85.74877113741697
 20
-150.4156249623961
 10
85.74877113741697
 20
-150.2760985952434
 10
85.64920787789326
 20
-150.1238253747954
 10
85.4166639326389
 20
-150.1238253747954
 10
85.16069333808482
 20
-150.1238253747954
 10
85.09075789973426
 20
-150.3036593591255
 10
85.09075789973426
 20
-150.4242377011092
 10
85.09075789973426
 20
-150.4559325795735
 10
85.09075789973426
 20
-150.5975260040172
 10
85.21994898043113
 20
-150.6864094675367
 10
85.21994898043113
 20
-150.6864094675367
 10
85.20100095526226
 20
-150.8621093372845
 10
85.20100095526226
 20
-150.8621093372845
 10
85.20100095526226
 20
-150.8621093372845
 10
84.35454099453636
 20
-150.7415309953007
 10
84.35454099453636
 20
-150.7415309953007
 10
84.35454099453636
 20
-150.7415309953007
 10
84.35454099453636
 20
-149.9629394156342
 10
84.35454099453636
 20
-149.9629394156342
 10
84.35454099453636
 20
-149.9629394156342
 10
84.54918888945298
 20
-149.9629394156342
 10
84.54918888945298
 20
-149.9629394156342
 10
84.54918888945298
 20
-149.9629394156342
 10
84.54918888945298
 20
-150.5785779788484
 10
84.54918888945298
 20
-150.5785779788484
 10
84.54918888945298
 20
-150.5785779788484
 10
84.97224661504167
 20
-150.6440347930681
 10
84.97224661504167
 20
-150.6440347930681
 10
84.93848467928621
 20
-150.5827120934307
 10
84.89817706210878
 20
-150.5003743113332
 10
84.89817706210878
 20
-150.3818630266406
 10
84.89817706210878
 20
-150.1279594893777
 10
85.08455672786082
 20
-149.8909369199925
 10
85.39771590747001
 20
-149.8909369199925
 10
85.71500920166153
 20
-149.8909369199925
 10
85.94962020420704
 20
-150.1152126360823
 10
85.94962020420704
 20
-150.4176920196872
 97
        0
 97
        1
330
F3
 75
     2
 76
     1
 98
        1
 10
0.0
 20
0.0
450
        0
451
        0
460
0.0
461
0.0
452
        0
462
0.0
453
        0
470

  0
ENDBLK
  5
F2
330
EF
100
AcDbEntity
  8
0
100
AcDbBlockEnd
  0
BLOCK
  5
F7
330
F5
100
AcDbEntity
  8
0
100
AcDbBlockBegin
  2
Block_15
 70
     0
 10
0.0
 20
0.0
 30
0.0
  3
Block_15
  1

  0
SPLINE
  5
F9
330
F5
100
AcDbEntity
  8
レイヤー 1
100
AcDbSpline
210
0.0
220
0.0
230
1.0
 70
     9
 71
     3
 72
    17
 73
    13
 74
     0
 42
0.0000000001
 43
0.0000000001
 40
0.0
 40
0.0
 40
0.0
 40
0.0
 40
1.0
 40
1.0
 40
1.0
 40
2.0
 40
2.0
 40
2.0
 40
3.0
 40
3.0
 40
3.0
 40
4.0
 40
4.0
 40
4.0
 40
4.0
 10
85.09075789973426
 20
-155.8781683638082
 30
0.0
 10
85.09075789973426
 20
-156.1403401302357
 30
0.0
 10
85.30228676252859
 20
-156.1782361805735
 30
0.0
 10
85.41873098993004
 20
-156.1782361805735
 30
0.0
 10
85.59443085967778
 20
-156.1782361805735
 30
0.0
 10
85.75738387613011
 20
-156.0831515451806
 30
0.0
 10
85.75738387613011
 20
-155.8991834462682
 30
0.0
 10
85.75738387613011
 20
-155.7786051042845
 30
0.0
 10
85.69812823378381
 20
-155.6029052345368
 30
0.0
 10
85.4125298180566
 20
-155.6029052345368
 30
0.0
 10
85.18825410196683
 20
-155.6029052345368
 30
0.0
 10
85.09075789973426
 20
-155.7424316016894
 30
0.0
 10
85.09075789973426
 20
-155.8781683638082
 30
0.0
  0
SPLINE
  5
FA
330
F5
100
AcDbEntity
  8
レイヤー 1
100
AcDbSpline
210
0.0
220
0.0
230
1.0
 70
     9
 71
     3
 72
    32
 73
    28
 74
     0
 42
0.0000000001
 43
0.0000000001
 40
0.0
 40
0.0
 40
0.0
 40
0.0
 40
1.0
 40
1.0
 40
1.0
 40
2.0
 40
2.0
 40
2.0
 40
3.0
 40
3.0
 40
3.0
 40
4.0
 40
4.0
 40
4.0
 40
5.0
 40
5.0
 40
5.0
 40
6.0
 40
6.0
 40
6.0
 40
7.0
 40
7.0
 40
7.0
 40
8.0
 40
8.0
 40
8.0
 40
9.0
 40
9.0
 40
9.0
 40
9.0
 10
85.94962020420704
 20
-155.8950493316859
 30
0.0
 10
85.94962020420704
 20
-156.4111246353764
 30
0.0
 10
85.39564885017886
 20
-156.4197373740895
 30
0.0
 10
85.18170842054486
 20
-156.4197373740895
 30
0.0
 10
84.95123153258164
 20
-156.4197373740895
 30
0.0
 10
84.30389809090319
 20
-156.4004448393721
 30
0.0
 10
84.30389809090319
 20
-155.8568087717997
 30
0.0
 10
84.30389809090319
 20
-155.6835204688916
 30
0.0
 10
84.37383352925378
 20
-155.4378851607933
 30
0.0
 10
84.70594073403185
 20
-155.3999891104556
 30
0.0
 10
84.70594073403185
 20
-155.3999891104556
 30
0.0
 10
84.70594073403185
 20
-155.613585030541
 30
0.0
 10
84.70594073403185
 20
-155.613585030541
 30
0.0
 10
84.6487521489767
 20
-155.6242648265453
 30
0.0
 10
84.50061304311097
 20
-155.6559597050096
 30
0.0
 10
84.50061304311097
 20
-155.8588758290908
 30
0.0
 10
84.50061304311097
 20
-156.15101992624
 30
0.0
 10
84.82858613330675
 20
-156.1909830338689
 30
0.0
 10
85.0335693146791
 20
-156.2037298871643
 30
0.0
 10
84.95536564716394
 20
-156.1107123090626
 30
0.0
 10
84.89611000481763
 20
-156.0428439280032
 30
0.0
 10
84.89611000481763
 20
-155.860942886382
 30
0.0
 10
84.89611000481763
 20
-155.6811089020519
 30
0.0
 10
85.00428600305449
 20
-155.378629518447
 30
0.0
 10
85.41046276076544
 20
-155.378629518447
 30
0.0
 10
85.7298231122481
 20
-155.378629518447
 30
0.0
 10
85.94962020420704
 20
-155.5777560374944
 30
0.0
 10
85.94962020420704
 20
-155.8950493316859
 30
0.0
  0
HATCH
  5
FB
330
F5
100
AcDbEntity
  8
レイヤー 1
 62
    18
420
        0
440
 33554687
100
AcDbHatch
 10
0.0
 20
0.0
 30
0.0
210
0.0
220
0.0
230
1.0
  2
SOLID
 70
     1
 71
     1
 91
        2
 92
        1
 93
        1
 72
     4
 94
        3
 73
     0
 74
     0
 95
       17
 96
       13
 40
0.0
 40
0.0
 40
0.0
 40
0.0
 40
1.0
 40
1.0
 40
1.0
 40
2.0
 40
2.0
 40
2.0
 40
3.0
 40
3.0
 40
3.0
 40
4.0
 40
4.0
 40
4.0
 40
4.0
 10
85.09075789973426
 20
-155.8781683638082
 10
85.09075789973426
 20
-156.1403401302357
 10
85.30228676252859
 20
-156.1782361805735
 10
85.41873098993004
 20
-156.1782361805735
 10
85.59443085967778
 20
-156.1782361805735
 10
85.75738387613011
 20
-156.0831515451806
 10
85.75738387613011
 20
-155.8991834462682
 10
85.75738387613011
 20
-155.7786051042845
 10
85.69812823378381
 20
-155.6029052345368
 10
85.4125298180566
 20
-155.6029052345368
 10
85.18825410196683
 20
-155.6029052345368
 10
85.09075789973426
 20
-155.7424316016894
 10
85.09075789973426
 20
-155.8781683638082
 97
        0
 97
        1
330
F9
 92
        1
 93
        1
 72
     4
 94
        3
 73
     0
 74
     0
 95
       32
 96
       28
 40
0.0
 40
0.0
 40
0.0
 40
0.0
 40
1.0
 40
1.0
 40
1.0
 40
2.0
 40
2.0
 40
2.0
 40
3.0
 40
3.0
 40
3.0
 40
4.0
 40
4.0
 40
4.0
 40
5.0
 40
5.0
 40
5.0
 40
6.0
 40
6.0
 40
6.0
 40
7.0
 40
7.0
 40
7.0
 40
8.0
 40
8.0
 40
8.0
 40
9.0
 40
9.0
 40
9.0
 40
9.0
 10
85.94962020420704
 20
-155.8950493316859
 10
85.94962020420704
 20
-156.4111246353764
 10
85.39564885017886
 20
-156.4197373740895
 10
85.18170842054486
 20
-156.4197373740895
 10
84.95123153258164
 20
-156.4197373740895
 10
84.30389809090319
 20
-156.4004448393721
 10
84.30389809090319
 20
-155.8568087717997
 10
84.30389809090319
 20
-155.6835204688916
 10
84.37383352925378
 20
-155.4378851607933
 10
84.70594073403185
 20
-155.3999891104556
 10
84.70594073403185
 20
-155.3999891104556
 10
84.70594073403185
 20
-155.613585030541
 10
84.70594073403185
 20
-155.613585030541
 10
84.6487521489767
 20
-155.6242648265453
 10
84.50061304311097
 20
-155.6559597050096
 10
84.50061304311097
 20
-155.8588758290908
 10
84.50061304311097
 20
-156.15101992624
 10
84.82858613330675
 20
-156.1909830338689
 10
85.0335693146791
 20
-156.2037298871643
 10
84.95536564716394
 20
-156.1107123090626
 10
84.89611000481763
 20
-156.0428439280032
 10
84.89611000481763
 20
-155.860942886382
 10
84.89611000481763
 20
-155.6811089020519
 10
85.00428600305449
 20
-155.378629518447
 10
85.41046276076544
 20
-155.378629518447
 10
85.7298231122481
 20
-155.378629518447
 10
85.94962020420704
 20
-155.5777560374944
 10
85.94962020420704
 20
-155.8950493316859
 97
        0
 97
        1
330
FA
 75
     2
 76
     1
 98
        1
 10
0.0
 20
0.0
450
        0
451
        0
460
0.0
461
0.0
452
        0
462
0.0
453
        0
470

  0
ENDBLK
  5
F8
330
F5
100
AcDbEntity
  8
0
100
AcDbBlockEnd
  0
BLOCK
  5
FE
330
FC
100
AcDbEntity
  8
0
100
AcDbBlockBegin
  2
Block_16
 70
     0
 10
0.0
 20
0.0
 30
0.0
  3
Block_16
  1

  0
LINE
  5
100
330
FC
100
AcDbEntity
  8
レイヤー 1
 62
   250
420
  2299925
370
     9
100
AcDbLine
 10
100.819475772986
 20
-148.7870177650746
 30
0.0
 11
101.3765471617353
 21
-149.6178094105463
 31
0.0
  0
LINE
  5
101
330
FC
100
AcDbEntity
  8
レイヤー 1
 62
   250
420
  2299925
370
     9
100
AcDbLine
 10
101.3097310506411
 20
-148.6202597137733
 30
0.0
 11
101.3765471617353
 21
-149.6178094105463
 31
0.0
  0
LINE
  5
102
330
FC
100
AcDbEntity
  8
レイヤー 1
 62
   250
420
  2299925
370
     9
100
AcDbLine
 10
99.95942947680262
 20
-145.4738797502711
 30
0.0
 11
101.3765471820117
 21
-149.617809482106
 31
0.0
  0
ENDBLK
  5
FF
330
FC
100
AcDbEntity
  8
0
100
AcDbBlockEnd
  0
BLOCK
  5
105
330
103
100
AcDbEntity
  8
0
100
AcDbBlockBegin
  2
Block_17
 70
     0
 10
0.0
 20
0.0
 30
0.0
  3
Block_17
  1

  0
INSERT
  5
108
330
103
100
AcDbEntity
  8
レイヤー 1
100
AcDbBlockReference
  2
Block_18
 10
0.0
 20
0.0
 30
0.0
  0
ENDBLK
  5
106
330
103
100
AcDbEntity
  8
0
100
AcDbBlockEnd
  0
BLOCK
  5
109
330
107
100
AcDbEntity
  8
0
100
AcDbBlockBegin
  2
Block_18
 70
     0
 10
0.0
 20
0.0
 30
0.0
  3
Block_18
  1

  0
SPLINE
  5
10B
330
107
100
AcDbEntity
  8
レイヤー 1
100
AcDbSpline
210
0.0
220
0.0
230
1.0
 70
     9
 71
     3
 72
    38
 73
    34
 74
     0
 42
0.0000000001
 43
0.0000000001
 40
0.0
 40
0.0
 40
0.0
 40
0.0
 40
1.0
 40
1.0
 40
1.0
 40
2.0
 40
2.0
 40
2.0
 40
3.0
 40
3.0
 40
3.0
 40
4.0
 40
4.0
 40
4.0
 40
5.0
 40
5.0
 40
5.0
 40
6.0
 40
6.0
 40
6.0
 40
7.0
 40
7.0
 40
7.0
 40
8.0
 40
8.0
 40
8.0
 40
9.0
 40
9.0
 40
9.0
 40
10.0
 40
10.0
 40
10.0
 40
11.0
 40
11.0
 40
11.0
 40
11.0
 10
98.37073972150108
 20
-143.8415215026681
 30
0.0
 10
98.46392955437707
 20
-143.7188761033932
 30
0.0
 10
98.58864201094313
 20
-143.5390421190631
 30
0.0
 10
98.68389890111028
 20
-143.0904906868836
 30
0.0
 10
98.68389890111028
 20
-143.0904906868836
 30
0.0
 10
98.8509860321449
 20
-143.109783221601
 30
0.0
 10
98.8509860321449
 20
-143.109783221601
 30
0.0
 10
98.82566458032831
 20
-143.2303615635848
 30
0.0
 10
98.80241018580287
 20
-143.3213120843953
 30
0.0
 10
98.7641696259166
 20
-143.4291435730837
 30
0.0
 10
98.7641696259166
 20
-143.4291435730837
 30
0.0
 10
99.39255504242616
 20
-143.4291435730837
 30
0.0
 10
99.39255504242616
 20
-143.4291435730837
 30
0.0
 10
99.39255504242616
 20
-143.4291435730837
 30
0.0
 10
99.39255504242616
 20
-143.5814167935317
 30
0.0
 10
99.39255504242616
 20
-143.5814167935317
 30
0.0
 10
99.35879310667072
 20
-143.7230102179755
 30
0.0
 10
99.26353621650356
 20
-143.9813923793692
 30
0.0
 10
99.1894666635707
 20
-144.0999036640618
 30
0.0
 10
99.1894666635707
 20
-144.0999036640618
 30
0.0
 10
99.03719344312264
 20
-144.0213554869981
 30
0.0
 10
99.03719344312264
 20
-144.0213554869981
 30
0.0
 10
99.13227807851555
 20
-143.8859632344278
 30
0.0
 10
99.19790714750956
 20
-143.6978610209331
 30
0.0
 10
99.22546791139154
 20
-143.5879624749537
 30
0.0
 10
99.22546791139154
 20
-143.5879624749537
 30
0.0
 10
98.70715329563573
 20
-143.5879624749537
 30
0.0
 10
98.70715329563573
 20
-143.5879624749537
 30
0.0
 10
98.60776229088626
 20
-143.8291191589212
 30
0.0
 10
98.53369273795339
 20
-143.9176581128921
 30
0.0
 10
98.49562443284138
 20
-143.9620998446518
 30
0.0
 10
98.49562443284138
 20
-143.9620998446518
 30
0.0
 10
98.37073972150108
 20
-143.8415215026681
 30
0.0
 10
98.37073972150108
 20
-143.8415215026681
 30
0.0
  0
SPLINE
  5
10C
330
107
100
AcDbEntity
  8
レイヤー 1
100
AcDbSpline
210
0.0
220
0.0
230
1.0
 70
     9
 71
     3
 72
    38
 73
    34
 74
     0
 42
0.0000000001
 43
0.0000000001
 40
0.0
 40
0.0
 40
0.0
 40
0.0
 40
1.0
 40
1.0
 40
1.0
 40
2.0
 40
2.0
 40
2.0
 40
3.0
 40
3.0
 40
3.0
 40
4.0
 40
4.0
 40
4.0
 40
5.0
 40
5.0
 40
5.0
 40
6.0
 40
6.0
 40
6.0
 40
7.0
 40
7.0
 40
7.0
 40
8.0
 40
8.0
 40
8.0
 40
9.0
 40
9.0
 40
9.0
 40
10.0
 40
10.0
 40
10.0
 40
11.0
 40
11.0
 40
11.0
 40
11.0
 10
98.25653480616503
 20
-144.9143242367749
 30
0.0
 10
98.33904484303678
 20
-144.861269766302
 30
0.0
 10
98.50406491678024
 20
-144.7534382776137
 30
0.0
 10
98.60982934817741
 20
-144.5460435294017
 30
0.0
 10
98.75796845404316
 20
-144.254243941801
 30
0.0
 10
98.75796845404316
 20
-144.0279011684201
 30
0.0
 10
98.75796845404316
 20
-143.943151819483
 30
0.0
 10
98.75796845404316
 20
-143.943151819483
 30
0.0
 10
98.75796845404316
 20
-143.7085408169374
 30
0.0
 10
98.75796845404316
 20
-143.7085408169374
 30
0.0
 10
98.75796845404316
 20
-143.7085408169374
 30
0.0
 10
98.92298852778662
 20
-143.7085408169374
 30
0.0
 10
98.92298852778662
 20
-143.7085408169374
 30
0.0
 10
98.92298852778662
 20
-143.7085408169374
 30
0.0
 10
98.92298852778662
 20
-143.9348835903184
 30
0.0
 10
98.92298852778662
 20
-143.9348835903184
 30
0.0
 10
98.92298852778662
 20
-144.1336655998173
 30
0.0
 10
98.98844534200637
 20
-144.3706881692025
 30
0.0
 10
99.09007565882124
 20
-144.5439764721105
 30
0.0
 10
99.20634763144843
 20
-144.7427584816094
 30
0.0
 10
99.33536645737103
 20
-144.8423217411331
 30
0.0
 10
99.42011580630818
 20
-144.9036444407706
 30
0.0
 10
99.42011580630818
 20
-144.9036444407706
 30
0.0
 10
99.31211206284558
 20
-145.0538506039275
 30
0.0
 10
99.31211206284558
 20
-145.0538506039275
 30
0.0
 10
99.13451739058096
 20
-144.9246595232306
 30
0.0
 10
98.93556312630778
 20
-144.6855698965543
 30
0.0
 10
98.85735945879261
 20
-144.3324476093162
 30
0.0
 10
98.7917303897986
 20
-144.5715372359925
 30
0.0
 10
98.69027232775799
 20
-144.840254683842
 30
0.0
 10
98.38141951750536
 20
-145.0497164893452
 30
0.0
 10
98.38141951750536
 20
-145.0497164893452
 30
0.0
 10
98.25653480616503
 20
-144.9143242367749
 30
0.0
 10
98.25653480616503
 20
-144.9143242367749
 30
0.0
  0
SPLINE
  5
10D
330
107
100
AcDbEntity
  8
レイヤー 1
100
AcDbSpline
210
0.0
220
0.0
230
1.0
 70
    11
 71
     3
 72
    17
 73
    13
 74
     0
 42
0.0000000001
 43
0.0000000001
 40
0.0
 40
0.0
 40
0.0
 40
0.0
 40
1.0
 40
1.0
 40
1.0
 40
2.0
 40
2.0
 40
2.0
 40
3.0
 40
3.0
 40
3.0
 40
4.0
 40
4.0
 40
4.0
 40
4.0
 10
98.21416013169645
 20
-144.0258341111289
 30
0.0
 10
98.21416013169645
 20
-144.0258341111289
 30
0.0
 10
98.00263126890213
 20
-144.0258341111289
 30
0.0
 10
98.00263126890213
 20
-144.0258341111289
 30
0.0
 10
98.00263126890213
 20
-144.0258341111289
 30
0.0
 10
98.00263126890213
 20
-144.2328843497924
 30
0.0
 10
98.00263126890213
 20
-144.2328843497924
 30
0.0
 10
98.00263126890213
 20
-144.2328843497924
 30
0.0
 10
98.21416013169645
 20
-144.2328843497924
 30
0.0
 10
98.21416013169645
 20
-144.2328843497924
 30
0.0
 10
98.21416013169645
 20
-144.2328843497924
 30
0.0
 10
98.21416013169645
 20
-144.0258341111289
 30
0.0
 10
98.21416013169645
 20
-144.0258341111289
 30
0.0
  0
SPLINE
  5
10E
330
107
100
AcDbEntity
  8
レイヤー 1
100
AcDbSpline
210
0.0
220
0.0
230
1.0
 70
    11
 71
     3
 72
    17
 73
    13
 74
     0
 42
0.0000000001
 43
0.0000000001
 40
0.0
 40
0.0
 40
0.0
 40
0.0
 40
1.0
 40
1.0
 40
1.0
 40
2.0
 40
2.0
 40
2.0
 40
3.0
 40
3.0
 40
3.0
 40
4.0
 40
4.0
 40
4.0
 40
4.0
 10
98.21416013169645
 20
-143.6999280782243
 30
0.0
 10
98.21416013169645
 20
-143.6999280782243
 30
0.0
 10
98.00263126890213
 20
-143.6999280782243
 30
0.0
 10
98.00263126890213
 20
-143.6999280782243
 30
0.0
 10
98.00263126890213
 20
-143.6999280782243
 30
0.0
 10
98.00263126890213
 20
-143.9028442023055
 30
0.0
 10
98.00263126890213
 20
-143.9028442023055
 30
0.0
 10
98.00263126890213
 20
-143.9028442023055
 30
0.0
 10
98.21416013169645
 20
-143.9028442023055
 30
0.0
 10
98.21416013169645
 20
-143.9028442023055
 30
0.0
 10
98.21416013169645
 20
-143.9028442023055
 30
0.0
 10
98.21416013169645
 20
-143.6999280782243
 30
0.0
 10
98.21416013169645
 20
-143.6999280782243
 30
0.0
  0
SPLINE
  5
10F
330
107
100
AcDbEntity
  8
レイヤー 1
100
AcDbSpline
210
0.0
220
0.0
230
1.0
 70
    11
 71
     3
 72
    17
 73
    13
 74
     0
 42
0.0000000001
 43
0.0000000001
 40
0.0
 40
0.0
 40
0.0
 40
0.0
 40
1.0
 40
1.0
 40
1.0
 40
2.0
 40
2.0
 40
2.0
 40
3.0
 40
3.0
 40
3.0
 40
4.0
 40
4.0
 40
4.0
 40
4.0
 10
97.84829099116294
 20
-144.0258341111289
 30
0.0
 10
97.84829099116294
 20
-144.0258341111289
 30
0.0
 10
97.64089624295088
 20
-144.0258341111289
 30
0.0
 10
97.64089624295088
 20
-144.0258341111289
 30
0.0
 10
97.64089624295088
 20
-144.0258341111289
 30
0.0
 10
97.64089624295088
 20
-144.2328843497924
 30
0.0
 10
97.64089624295088
 20
-144.2328843497924
 30
0.0
 10
97.64089624295088
 20
-144.2328843497924
 30
0.0
 10
97.84829099116294
 20
-144.2328843497924
 30
0.0
 10
97.84829099116294
 20
-144.2328843497924
 30
0.0
 10
97.84829099116294
 20
-144.2328843497924
 30
0.0
 10
97.84829099116294
 20
-144.0258341111289
 30
0.0
 10
97.84829099116294
 20
-144.0258341111289
 30
0.0
  0
SPLINE
  5
110
330
107
100
AcDbEntity
  8
レイヤー 1
100
AcDbSpline
210
0.0
220
0.0
230
1.0
 70
    11
 71
     3
 72
    17
 73
    13
 74
     0
 42
0.0000000001
 43
0.0000000001
 40
0.0
 40
0.0
 40
0.0
 40
0.0
 40
1.0
 40
1.0
 40
1.0
 40
2.0
 40
2.0
 40
2.0
 40
3.0
 40
3.0
 40
3.0
 40
4.0
 40
4.0
 40
4.0
 40
4.0
 10
97.84829099116294
 20
-143.6999280782243
 30
0.0
 10
97.84829099116294
 20
-143.6999280782243
 30
0.0
 10
97.64089624295088
 20
-143.6999280782243
 30
0.0
 10
97.64089624295088
 20
-143.6999280782243
 30
0.0
 10
97.64089624295088
 20
-143.6999280782243
 30
0.0
 10
97.64089624295088
 20
-143.9028442023055
 30
0.0
 10
97.64089624295088
 20
-143.9028442023055
 30
0.0
 10
97.64089624295088
 20
-143.9028442023055
 30
0.0
 10
97.84829099116294
 20
-143.9028442023055
 30
0.0
 10
97.84829099116294
 20
-143.9028442023055
 30
0.0
 10
97.84829099116294
 20
-143.9028442023055
 30
0.0
 10
97.84829099116294
 20
-143.6999280782243
 30
0.0
 10
97.84829099116294
 20
-143.6999280782243
 30
0.0
  0
SPLINE
  5
111
330
107
100
AcDbEntity
  8
レイヤー 1
100
AcDbSpline
210
0.0
220
0.0
230
1.0
 70
    11
 71
     3
 72
    89
 73
    85
 74
     0
 42
0.0000000001
 43
0.0000000001
 40
0.0
 40
0.0
 40
0.0
 40
0.0
 40
1.0
 40
1.0
 40
1.0
 40
2.0
 40
2.0
 40
2.0
 40
3.0
 40
3.0
 40
3.0
 40
4.0
 40
4.0
 40
4.0
 40
5.0
 40
5.0
 40
5.0
 40
6.0
 40
6.0
 40
6.0
 40
7.0
 40
7.0
 40
7.0
 40
8.0
 40
8.0
 40
8.0
 40
9.0
 40
9.0
 40
9.0
 40
10.0
 40
10.0
 40
10.0
 40
11.0
 40
11.0
 40
11.0
 40
12.0
 40
12.0
 40
12.0
 40
13.0
 40
13.0
 40
13.0
 40
14.0
 40
14.0
 40
14.0
 40
15.0
 40
15.0
 40
15.0
 40
16.0
 40
16.0
 40
16.0
 40
17.0
 40
17.0
 40
17.0
 40
18.0
 40
18.0
 40
18.0
 40
19.0
 40
19.0
 40
19.0
 40
20.0
 40
20.0
 40
20.0
 40
21.0
 40
21.0
 40
21.0
 40
22.0
 40
22.0
 40
22.0
 40
23.0
 40
23.0
 40
23.0
 40
24.0
 40
24.0
 40
24.0
 40
25.0
 40
25.0
 40
25.0
 40
26.0
 40
26.0
 40
26.0
 40
27.0
 40
27.0
 40
27.0
 40
28.0
 40
28.0
 40
28.0
 40
28.0
 10
97.84829099116294
 20
-143.2513766460448
 30
0.0
 10
97.84829099116294
 20
-143.2513766460448
 30
0.0
 10
97.84829099116294
 20
-143.0904906868836
 30
0.0
 10
97.84829099116294
 20
-143.0904906868836
 30
0.0
 10
97.84829099116294
 20
-143.0904906868836
 30
0.0
 10
98.00263126890213
 20
-143.0904906868836
 30
0.0
 10
98.00263126890213
 20
-143.0904906868836
 30
0.0
 10
98.00263126890213
 20
-143.0904906868836
 30
0.0
 10
98.00263126890213
 20
-143.2513766460448
 30
0.0
 10
98.00263126890213
 20
-143.2513766460448
 30
0.0
 10
98.00263126890213
 20
-143.2513766460448
 30
0.0
 10
98.39623342809192
 20
-143.2513766460448
 30
0.0
 10
98.39623342809192
 20
-143.2513766460448
 30
0.0
 10
98.39623342809192
 20
-143.2513766460448
 30
0.0
 10
98.39623342809192
 20
-143.405716923784
 30
0.0
 10
98.39623342809192
 20
-143.405716923784
 30
0.0
 10
98.39623342809192
 20
-143.405716923784
 30
0.0
 10
98.00263126890213
 20
-143.405716923784
 30
0.0
 10
98.00263126890213
 20
-143.405716923784
 30
0.0
 10
98.00263126890213
 20
-143.405716923784
 30
0.0
 10
98.00263126890213
 20
-143.5604017110717
 30
0.0
 10
98.00263126890213
 20
-143.5604017110717
 30
0.0
 10
98.00263126890213
 20
-143.5604017110717
 30
0.0
 10
98.35799286820565
 20
-143.5604017110717
 30
0.0
 10
98.35799286820565
 20
-143.5604017110717
 30
0.0
 10
98.35799286820565
 20
-143.5604017110717
 30
0.0
 10
98.35799286820565
 20
-144.3727552264936
 30
0.0
 10
98.35799286820565
 20
-144.3727552264936
 30
0.0
 10
98.35799286820565
 20
-144.3727552264936
 30
0.0
 10
98.00263126890213
 20
-144.3727552264936
 30
0.0
 10
98.00263126890213
 20
-144.3727552264936
 30
0.0
 10
98.00263126890213
 20
-144.3727552264936
 30
0.0
 10
98.00263126890213
 20
-144.5419094148194
 30
0.0
 10
98.00263126890213
 20
-144.5419094148194
 30
0.0
 10
98.00263126890213
 20
-144.5419094148194
 30
0.0
 10
98.41104733867849
 20
-144.5419094148194
 30
0.0
 10
98.41104733867849
 20
-144.5419094148194
 30
0.0
 10
98.41104733867849
 20
-144.5419094148194
 30
0.0
 10
98.41104733867849
 20
-144.6962496925586
 30
0.0
 10
98.41104733867849
 20
-144.6962496925586
 30
0.0
 10
98.41104733867849
 20
-144.6962496925586
 30
0.0
 10
98.00263126890213
 20
-144.6962496925586
 30
0.0
 10
98.00263126890213
 20
-144.6962496925586
 30
0.0
 10
98.00263126890213
 20
-144.6962496925586
 30
0.0
 10
98.00263126890213
 20
-145.0497164893452
 30
0.0
 10
98.00263126890213
 20
-145.0497164893452
 30
0.0
 10
98.00263126890213
 20
-145.0497164893452
 30
0.0
 10
97.84829099116294
 20
-145.0497164893452
 30
0.0
 10
97.84829099116294
 20
-145.0497164893452
 30
0.0
 10
97.84829099116294
 20
-145.0497164893452
 30
0.0
 10
97.84829099116294
 20
-144.6962496925586
 30
0.0
 10
97.84829099116294
 20
-144.6962496925586
 30
0.0
 10
97.84829099116294
 20
-144.6962496925586
 30
0.0
 10
97.43780786409542
 20
-144.6962496925586
 30
0.0
 10
97.43780786409542
 20
-144.6962496925586
 30
0.0
 10
97.43780786409542
 20
-144.6962496925586
 30
0.0
 10
97.43780786409542
 20
-144.5419094148194
 30
0.0
 10
97.43780786409542
 20
-144.5419094148194
 30
0.0
 10
97.43780786409542
 20
-144.5419094148194
 30
0.0
 10
97.84829099116294
 20
-144.5419094148194
 30
0.0
 10
97.84829099116294
 20
-144.5419094148194
 30
0.0
 10
97.84829099116294
 20
-144.5419094148194
 30
0.0
 10
97.84829099116294
 20
-144.3727552264936
 30
0.0
 10
97.84829099116294
 20
-144.3727552264936
 30
0.0
 10
97.84829099116294
 20
-144.3727552264936
 30
0.0
 10
97.49913056373287
 20
-144.3727552264936
 30
0.0
 10
97.49913056373287
 20
-144.3727552264936
 30
0.0
 10
97.49913056373287
 20
-144.3727552264936
 30
0.0
 10
97.49913056373287
 20
-143.5604017110717
 30
0.0
 10
97.49913056373287
 20
-143.5604017110717
 30
0.0
 10
97.49913056373287
 20
-143.5604017110717
 30
0.0
 10
97.84829099116294
 20
-143.5604017110717
 30
0.0
 10
97.84829099116294
 20
-143.5604017110717
 30
0.0
 10
97.84829099116294
 20
-143.5604017110717
 30
0.0
 10
97.84829099116294
 20
-143.405716923784
 30
0.0
 10
97.84829099116294
 20
-143.405716923784
 30
0.0
 10
97.84829099116294
 20
-143.405716923784
 30
0.0
 10
97.45899520132971
 20
-143.405716923784
 30
0.0
 10
97.45899520132971
 20
-143.405716923784
 30
0.0
 10
97.45899520132971
 20
-143.405716923784
 30
0.0
 10
97.45899520132971
 20
-143.2513766460448
 30
0.0
 10
97.45899520132971
 20
-143.2513766460448
 30
0.0
 10
97.45899520132971
 20
-143.2513766460448
 30
0.0
 10
97.84829099116294
 20
-143.2513766460448
 30
0.0
 10
97.84829099116294
 20
-143.2513766460448
 30
0.0
  0
HATCH
  5
112
330
107
100
AcDbEntity
  8
レイヤー 1
 62
    12
420
 15007762
440
 33554687
100
AcDbHatch
 10
0.0
 20
0.0
 30
0.0
210
0.0
220
0.0
230
1.0
  2
SOLID
 70
     1
 71
     1
 91
        7
 92
        1
 93
        1
 72
     4
 94
        3
 73
     0
 74
     0
 95
       38
 96
       34
 40
0.0
 40
0.0
 40
0.0
 40
0.0
 40
1.0
 40
1.0
 40
1.0
 40
2.0
 40
2.0
 40
2.0
 40
3.0
 40
3.0
 40
3.0
 40
4.0
 40
4.0
 40
4.0
 40
5.0
 40
5.0
 40
5.0
 40
6.0
 40
6.0
 40
6.0
 40
7.0
 40
7.0
 40
7.0
 40
8.0
 40
8.0
 40
8.0
 40
9.0
 40
9.0
 40
9.0
 40
10.0
 40
10.0
 40
10.0
 40
11.0
 40
11.0
 40
11.0
 40
11.0
 10
98.37073972150108
 20
-143.8415215026681
 10
98.46392955437707
 20
-143.7188761033932
 10
98.58864201094313
 20
-143.5390421190631
 10
98.68389890111028
 20
-143.0904906868836
 10
98.68389890111028
 20
-143.0904906868836
 10
98.8509860321449
 20
-143.109783221601
 10
98.8509860321449
 20
-143.109783221601
 10
98.82566458032831
 20
-143.2303615635848
 10
98.80241018580287
 20
-143.3213120843953
 10
98.7641696259166
 20
-143.4291435730837
 10
98.7641696259166
 20
-143.4291435730837
 10
99.39255504242616
 20
-143.4291435730837
 10
99.39255504242616
 20
-143.4291435730837
 10
99.39255504242616
 20
-143.4291435730837
 10
99.39255504242616
 20
-143.5814167935317
 10
99.39255504242616
 20
-143.5814167935317
 10
99.35879310667072
 20
-143.7230102179755
 10
99.26353621650356
 20
-143.9813923793692
 10
99.1894666635707
 20
-144.0999036640618
 10
99.1894666635707
 20
-144.0999036640618
 10
99.03719344312264
 20
-144.0213554869981
 10
99.03719344312264
 20
-144.0213554869981
 10
99.13227807851555
 20
-143.8859632344278
 10
99.19790714750956
 20
-143.6978610209331
 10
99.22546791139154
 20
-143.5879624749537
 10
99.22546791139154
 20
-143.5879624749537
 10
98.70715329563573
 20
-143.5879624749537
 10
98.70715329563573
 20
-143.5879624749537
 10
98.60776229088626
 20
-143.8291191589212
 10
98.53369273795339
 20
-143.9176581128921
 10
98.49562443284138
 20
-143.9620998446518
 10
98.49562443284138
 20
-143.9620998446518
 10
98.37073972150108
 20
-143.8415215026681
 10
98.37073972150108
 20
-143.8415215026681
 97
        0
 97
        1
330
10B
 92
        1
 93
        1
 72
     4
 94
        3
 73
     0
 74
     0
 95
       38
 96
       34
 40
0.0
 40
0.0
 40
0.0
 40
0.0
 40
1.0
 40
1.0
 40
1.0
 40
2.0
 40
2.0
 40
2.0
 40
3.0
 40
3.0
 40
3.0
 40
4.0
 40
4.0
 40
4.0
 40
5.0
 40
5.0
 40
5.0
 40
6.0
 40
6.0
 40
6.0
 40
7.0
 40
7.0
 40
7.0
 40
8.0
 40
8.0
 40
8.0
 40
9.0
 40
9.0
 40
9.0
 40
10.0
 40
10.0
 40
10.0
 40
11.0
 40
11.0
 40
11.0
 40
11.0
 10
98.25653480616503
 20
-144.9143242367749
 10
98.33904484303678
 20
-144.861269766302
 10
98.50406491678024
 20
-144.7534382776137
 10
98.60982934817741
 20
-144.5460435294017
 10
98.75796845404316
 20
-144.254243941801
 10
98.75796845404316
 20
-144.0279011684201
 10
98.75796845404316
 20
-143.943151819483
 10
98.75796845404316
 20
-143.943151819483
 10
98.75796845404316
 20
-143.7085408169374
 10
98.75796845404316
 20
-143.7085408169374
 10
98.75796845404316
 20
-143.7085408169374
 10
98.92298852778662
 20
-143.7085408169374
 10
98.92298852778662
 20
-143.7085408169374
 10
98.92298852778662
 20
-143.7085408169374
 10
98.92298852778662
 20
-143.9348835903184
 10
98.92298852778662
 20
-143.9348835903184
 10
98.92298852778662
 20
-144.1336655998173
 10
98.98844534200637
 20
-144.3706881692025
 10
99.09007565882124
 20
-144.5439764721105
 10
99.20634763144843
 20
-144.7427584816094
 10
99.33536645737103
 20
-144.8423217411331
 10
99.42011580630818
 20
-144.9036444407706
 10
99.42011580630818
 20
-144.9036444407706
 10
99.31211206284558
 20
-145.0538506039275
 10
99.31211206284558
 20
-145.0538506039275
 10
99.13451739058096
 20
-144.9246595232306
 10
98.93556312630778
 20
-144.6855698965543
 10
98.85735945879261
 20
-144.3324476093162
 10
98.7917303897986
 20
-144.5715372359925
 10
98.69027232775799
 20
-144.840254683842
 10
98.38141951750536
 20
-145.0497164893452
 10
98.38141951750536
 20
-145.0497164893452
 10
98.25653480616503
 20
-144.9143242367749
 10
98.25653480616503
 20
-144.9143242367749
 97
        0
 97
        1
330
10C
 92
        1
 93
        1
 72
     4
 94
        3
 73
     0
 74
     0
 95
       17
 96
       13
 40
0.0
 40
0.0
 40
0.0
 40
0.0
 40
1.0
 40
1.0
 40
1.0
 40
2.0
 40
2.0
 40
2.0
 40
3.0
 40
3.0
 40
3.0
 40
4.0
 40
4.0
 40
4.0
 40
4.0
 10
98.21416013169645
 20
-144.0258341111289
 10
98.21416013169645
 20
-144.0258341111289
 10
98.00263126890213
 20
-144.0258341111289
 10
98.00263126890213
 20
-144.0258341111289
 10
98.00263126890213
 20
-144.0258341111289
 10
98.00263126890213
 20
-144.2328843497924
 10
98.00263126890213
 20
-144.2328843497924
 10
98.00263126890213
 20
-144.2328843497924
 10
98.21416013169645
 20
-144.2328843497924
 10
98.21416013169645
 20
-144.2328843497924
 10
98.21416013169645
 20
-144.2328843497924
 10
98.21416013169645
 20
-144.0258341111289
 10
98.21416013169645
 20
-144.0258341111289
 97
        0
 97
        1
330
10D
 92
        1
 93
        1
 72
     4
 94
        3
 73
     0
 74
     0
 95
       17
 96
       13
 40
0.0
 40
0.0
 40
0.0
 40
0.0
 40
1.0
 40
1.0
 40
1.0
 40
2.0
 40
2.0
 40
2.0
 40
3.0
 40
3.0
 40
3.0
 40
4.0
 40
4.0
 40
4.0
 40
4.0
 10
98.21416013169645
 20
-143.6999280782243
 10
98.21416013169645
 20
-143.6999280782243
 10
98.00263126890213
 20
-143.6999280782243
 10
98.00263126890213
 20
-143.6999280782243
 10
98.00263126890213
 20
-143.6999280782243
 10
98.00263126890213
 20
-143.9028442023055
 10
98.00263126890213
 20
-143.9028442023055
 10
98.00263126890213
 20
-143.9028442023055
 10
98.21416013169645
 20
-143.9028442023055
 10
98.21416013169645
 20
-143.9028442023055
 10
98.21416013169645
 20
-143.9028442023055
 10
98.21416013169645
 20
-143.6999280782243
 10
98.21416013169645
 20
-143.6999280782243
 97
        0
 97
        1
330
10E
 92
        1
 93
        1
 72
     4
 94
        3
 73
     0
 74
     0
 95
       17
 96
       13
 40
0.0
 40
0.0
 40
0.0
 40
0.0
 40
1.0
 40
1.0
 40
1.0
 40
2.0
 40
2.0
 40
2.0
 40
3.0
 40
3.0
 40
3.0
 40
4.0
 40
4.0
 40
4.0
 40
4.0
 10
97.84829099116294
 20
-144.0258341111289
 10
97.84829099116294
 20
-144.0258341111289
 10
97.64089624295088
 20
-144.0258341111289
 10
97.64089624295088
 20
-144.0258341111289
 10
97.64089624295088
 20
-144.0258341111289
 10
97.64089624295088
 20
-144.2328843497924
 10
97.64089624295088
 20
-144.2328843497924
 10
97.64089624295088
 20
-144.2328843497924
 10
97.84829099116294
 20
-144.2328843497924
 10
97.84829099116294
 20
-144.2328843497924
 10
97.84829099116294
 20
-144.2328843497924
 10
97.84829099116294
 20
-144.0258341111289
 10
97.84829099116294
 20
-144.0258341111289
 97
        0
 97
        1
330
10F
 92
        1
 93
        1
 72
     4
 94
        3
 73
     0
 74
     0
 95
       17
 96
       13
 40
0.0
 40
0.0
 40
0.0
 40
0.0
 40
1.0
 40
1.0
 40
1.0
 40
2.0
 40
2.0
 40
2.0
 40
3.0
 40
3.0
 40
3.0
 40
4.0
 40
4.0
 40
4.0
 40
4.0
 10
97.84829099116294
 20
-143.6999280782243
 10
97.84829099116294
 20
-143.6999280782243
 10
97.64089624295088
 20
-143.6999280782243
 10
97.64089624295088
 20
-143.6999280782243
 10
97.64089624295088
 20
-143.6999280782243
 10
97.64089624295088
 20
-143.9028442023055
 10
97.64089624295088
 20
-143.9028442023055
 10
97.64089624295088
 20
-143.9028442023055
 10
97.84829099116294
 20
-143.9028442023055
 10
97.84829099116294
 20
-143.9028442023055
 10
97.84829099116294
 20
-143.9028442023055
 10
97.84829099116294
 20
-143.6999280782243
 10
97.84829099116294
 20
-143.6999280782243
 97
        0
 97
        1
330
110
 92
        1
 93
        1
 72
     4
 94
        3
 73
     0
 74
     0
 95
       89
 96
       85
 40
0.0
 40
0.0
 40
0.0
 40
0.0
 40
1.0
 40
1.0
 40
1.0
 40
2.0
 40
2.0
 40
2.0
 40
3.0
 40
3.0
 40
3.0
 40
4.0
 40
4.0
 40
4.0
 40
5.0
 40
5.0
 40
5.0
 40
6.0
 40
6.0
 40
6.0
 40
7.0
 40
7.0
 40
7.0
 40
8.0
 40
8.0
 40
8.0
 40
9.0
 40
9.0
 40
9.0
 40
10.0
 40
10.0
 40
10.0
 40
11.0
 40
11.0
 40
11.0
 40
12.0
 40
12.0
 40
12.0
 40
13.0
 40
13.0
 40
13.0
 40
14.0
 40
14.0
 40
14.0
 40
15.0
 40
15.0
 40
15.0
 40
16.0
 40
16.0
 40
16.0
 40
17.0
 40
17.0
 40
17.0
 40
18.0
 40
18.0
 40
18.0
 40
19.0
 40
19.0
 40
19.0
 40
20.0
 40
20.0
 40
20.0
 40
21.0
 40
21.0
 40
21.0
 40
22.0
 40
22.0
 40
22.0
 40
23.0
 40
23.0
 40
23.0
 40
24.0
 40
24.0
 40
24.0
 40
25.0
 40
25.0
 40
25.0
 40
26.0
 40
26.0
 40
26.0
 40
27.0
 40
27.0
 40
27.0
 40
28.0
 40
28.0
 40
28.0
 40
28.0
 10
97.84829099116294
 20
-143.2513766460448
 10
97.84829099116294
 20
-143.2513766460448
 10
97.84829099116294
 20
-143.0904906868836
 10
97.84829099116294
 20
-143.0904906868836
 10
97.84829099116294
 20
-143.0904906868836
 10
98.00263126890213
 20
-143.0904906868836
 10
98.00263126890213
 20
-143.0904906868836
 10
98.00263126890213
 20
-143.0904906868836
 10
98.00263126890213
 20
-143.2513766460448
 10
98.00263126890213
 20
-143.2513766460448
 10
98.00263126890213
 20
-143.2513766460448
 10
98.39623342809192
 20
-143.2513766460448
 10
98.39623342809192
 20
-143.2513766460448
 10
98.39623342809192
 20
-143.2513766460448
 10
98.39623342809192
 20
-143.405716923784
 10
98.39623342809192
 20
-143.405716923784
 10
98.39623342809192
 20
-143.405716923784
 10
98.00263126890213
 20
-143.405716923784
 10
98.00263126890213
 20
-143.405716923784
 10
98.00263126890213
 20
-143.405716923784
 10
98.00263126890213
 20
-143.5604017110717
 10
98.00263126890213
 20
-143.5604017110717
 10
98.00263126890213
 20
-143.5604017110717
 10
98.35799286820565
 20
-143.5604017110717
 10
98.35799286820565
 20
-143.5604017110717
 10
98.35799286820565
 20
-143.5604017110717
 10
98.35799286820565
 20
-144.3727552264936
 10
98.35799286820565
 20
-144.3727552264936
 10
98.35799286820565
 20
-144.3727552264936
 10
98.00263126890213
 20
-144.3727552264936
 10
98.00263126890213
 20
-144.3727552264936
 10
98.00263126890213
 20
-144.3727552264936
 10
98.00263126890213
 20
-144.5419094148194
 10
98.00263126890213
 20
-144.5419094148194
 10
98.00263126890213
 20
-144.5419094148194
 10
98.41104733867849
 20
-144.5419094148194
 10
98.41104733867849
 20
-144.5419094148194
 10
98.41104733867849
 20
-144.5419094148194
 10
98.41104733867849
 20
-144.6962496925586
 10
98.41104733867849
 20
-144.6962496925586
 10
98.41104733867849
 20
-144.6962496925586
 10
98.00263126890213
 20
-144.6962496925586
 10
98.00263126890213
 20
-144.6962496925586
 10
98.00263126890213
 20
-144.6962496925586
 10
98.00263126890213
 20
-145.0497164893452
 10
98.00263126890213
 20
-145.0497164893452
 10
98.00263126890213
 20
-145.0497164893452
 10
97.84829099116294
 20
-145.0497164893452
 10
97.84829099116294
 20
-145.0497164893452
 10
97.84829099116294
 20
-145.0497164893452
 10
97.84829099116294
 20
-144.6962496925586
 10
97.84829099116294
 20
-144.6962496925586
 10
97.84829099116294
 20
-144.6962496925586
 10
97.43780786409542
 20
-144.6962496925586
 10
97.43780786409542
 20
-144.6962496925586
 10
97.43780786409542
 20
-144.6962496925586
 10
97.43780786409542
 20
-144.5419094148194
 10
97.43780786409542
 20
-144.5419094148194
 10
97.43780786409542
 20
-144.5419094148194
 10
97.84829099116294
 20
-144.5419094148194
 10
97.84829099116294
 20
-144.5419094148194
 10
97.84829099116294
 20
-144.5419094148194
 10
97.84829099116294
 20
-144.3727552264936
 10
97.84829099116294
 20
-144.3727552264936
 10
97.84829099116294
 20
-144.3727552264936
 10
97.49913056373287
 20
-144.3727552264936
 10
97.49913056373287
 20
-144.3727552264936
 10
97.49913056373287
 20
-144.3727552264936
 10
97.49913056373287
 20
-143.5604017110717
 10
97.49913056373287
 20
-143.5604017110717
 10
97.49913056373287
 20
-143.5604017110717
 10
97.84829099116294
 20
-143.5604017110717
 10
97.84829099116294
 20
-143.5604017110717
 10
97.84829099116294
 20
-143.5604017110717
 10
97.84829099116294
 20
-143.405716923784
 10
97.84829099116294
 20
-143.405716923784
 10
97.84829099116294
 20
-143.405716923784
 10
97.45899520132971
 20
-143.405716923784
 10
97.45899520132971
 20
-143.405716923784
 10
97.45899520132971
 20
-143.405716923784
 10
97.45899520132971
 20
-143.2513766460448
 10
97.45899520132971
 20
-143.2513766460448
 10
97.45899520132971
 20
-143.2513766460448
 10
97.84829099116294
 20
-143.2513766460448
 10
97.84829099116294
 20
-143.2513766460448
 97
        0
 97
        1
330
111
 75
     2
 76
     1
 98
        1
 10
0.0
 20
0.0
450
        0
451
        0
460
0.0
461
0.0
452
        0
462
0.0
453
        0
470

  0
SPLINE
  5
113
330
107
100
AcDbEntity
  8
レイヤー 1
100
AcDbSpline
210
0.0
220
0.0
230
1.0
 70
     9
 71
     3
 72
    17
 73
    13
 74
     0
 42
0.0000000001
 43
0.0000000001
 40
0.0
 40
0.0
 40
0.0
 40
0.0
 40
1.0
 40
1.0
 40
1.0
 40
2.0
 40
2.0
 40
2.0
 40
3.0
 40
3.0
 40
3.0
 40
4.0
 40
4.0
 40
4.0
 40
4.0
 10
100.8851426614106
 20
-144.7406914243183
 30
0.0
 10
101.1051120081438
 20
-144.8530015371374
 30
0.0
 10
101.3717623987022
 20
-144.8908975874752
 30
0.0
 10
101.5007812246248
 20
-144.9015773834794
 30
0.0
 10
101.5007812246248
 20
-144.9015773834794
 30
0.0
 10
101.4310180410485
 20
-145.0559176612187
 30
0.0
 10
101.4310180410485
 20
-145.0559176612187
 30
0.0
 10
101.3104396990647
 20
-145.0411037506321
 30
0.0
 10
101.0480956778629
 20
-145.0007961334546
 30
0.0
 10
100.78368459937
 20
-144.8550685944286
 30
0.0
 10
100.78368459937
 20
-144.8550685944286
 30
0.0
 10
100.8851426614106
 20
-144.7406914243183
 30
0.0
 10
100.8851426614106
 20
-144.7406914243183
 30
0.0
  0
SPLINE
  5
114
330
107
100
AcDbEntity
  8
レイヤー 1
100
AcDbSpline
210
0.0
220
0.0
230
1.0
 70
    11
 71
     3
 72
    50
 73
    46
 74
     0
 42
0.0000000001
 43
0.0000000001
 40
0.0
 40
0.0
 40
0.0
 40
0.0
 40
1.0
 40
1.0
 40
1.0
 40
2.0
 40
2.0
 40
2.0
 40
3.0
 40
3.0
 40
3.0
 40
4.0
 40
4.0
 40
4.0
 40
5.0
 40
5.0
 40
5.0
 40
6.0
 40
6.0
 40
6.0
 40
7.0
 40
7.0
 40
7.0
 40
8.0
 40
8.0
 40
8.0
 40
9.0
 40
9.0
 40
9.0
 40
10.0
 40
10.0
 40
10.0
 40
11.0
 40
11.0
 40
11.0
 40
12.0
 40
12.0
 40
12.0
 40
13.0
 40
13.0
 40
13.0
 40
14.0
 40
14.0
 40
14.0
 40
15.0
 40
15.0
 40
15.0
 40
15.0
 10
100.7730048033657
 20
-143.3888359559063
 30
0.0
 10
100.7730048033657
 20
-143.3888359559063
 30
0.0
 10
101.5092217085636
 20
-143.3888359559063
 30
0.0
 10
101.5092217085636
 20
-143.3888359559063
 30
0.0
 10
101.5092217085636
 20
-143.3888359559063
 30
0.0
 10
101.5092217085636
 20
-143.5138929220208
 30
0.0
 10
101.5092217085636
 20
-143.5138929220208
 30
0.0
 10
101.5092217085636
 20
-143.5138929220208
 30
0.0
 10
101.1791815610767
 20
-143.5138929220208
 30
0.0
 10
101.1791815610767
 20
-143.5138929220208
 30
0.0
 10
101.1791815610767
 20
-143.5138929220208
 30
0.0
 10
101.1791815610767
 20
-143.7888115417437
 30
0.0
 10
101.1791815610767
 20
-143.7888115417437
 30
0.0
 10
101.1791815610767
 20
-143.7888115417437
 30
0.0
 10
101.0226019712721
 20
-143.7888115417437
 30
0.0
 10
101.0226019712721
 20
-143.7888115417437
 30
0.0
 10
101.0226019712721
 20
-143.7888115417437
 30
0.0
 10
101.0226019712721
 20
-143.5138929220208
 30
0.0
 10
101.0226019712721
 20
-143.5138929220208
 30
0.0
 10
101.0226019712721
 20
-143.5138929220208
 30
0.0
 10
100.7581908927792
 20
-143.5138929220208
 30
0.0
 10
100.7581908927792
 20
-143.5138929220208
 30
0.0
 10
100.7328694409626
 20
-143.6427394931692
 30
0.0
 10
100.6820542825552
 20
-143.7336900139797
 30
0.0
 10
100.5847303350968
 20
-143.8163723056258
 30
0.0
 10
100.5847303350968
 20
-143.8163723056258
 30
0.0
 10
100.462084935822
 20
-143.7085408169374
 30
0.0
 10
100.462084935822
 20
-143.7085408169374
 30
0.0
 10
100.5974771883923
 20
-143.5982977614094
 30
0.0
 10
100.6207315829177
 20
-143.460838451548
 30
0.0
 10
100.6207315829177
 20
-143.3867688986151
 30
0.0
 10
100.6207315829177
 20
-143.3867688986151
 30
0.0
 10
100.6207315829177
 20
-143.1435451573564
 30
0.0
 10
100.6207315829177
 20
-143.1435451573564
 30
0.0
 10
101.0902980975573
 20
-143.1435451573564
 30
0.0
 10
101.2575574833662
 20
-143.103237540179
 30
0.0
 10
101.4013902198753
 20
-143.0608628657104
 30
0.0
 10
101.4013902198753
 20
-143.0608628657104
 30
0.0
 10
101.4606458622216
 20
-143.1986666851205
 30
0.0
 10
101.4606458622216
 20
-143.1986666851205
 30
0.0
 10
101.189861357081
 20
-143.2682576139225
 30
0.0
 10
100.8746351201806
 20
-143.2727362380533
 30
0.0
 10
100.7730048033657
 20
-143.2727362380533
 30
0.0
 10
100.7730048033657
 20
-143.2727362380533
 30
0.0
 10
100.7730048033657
 20
-143.3888359559063
 30
0.0
 10
100.7730048033657
 20
-143.3888359559063
 30
0.0
  0
SPLINE
  5
115
330
107
100
AcDbEntity
  8
レイヤー 1
100
AcDbSpline
210
0.0
220
0.0
230
1.0
 70
    11
 71
     3
 72
    17
 73
    13
 74
     0
 42
0.0000000001
 43
0.0000000001
 40
0.0
 40
0.0
 40
0.0
 40
0.0
 40
1.0
 40
1.0
 40
1.0
 40
2.0
 40
2.0
 40
2.0
 40
3.0
 40
3.0
 40
3.0
 40
4.0
 40
4.0
 40
4.0
 40
4.0
 10
101.1094183775004
 20
-144.4592271231734
 30
0.0
 10
101.1094183775004
 20
-144.4592271231734
 30
0.0
 10
99.95014374671386
 20
-144.4592271231734
 30
0.0
 10
99.95014374671386
 20
-144.4592271231734
 30
0.0
 10
99.95014374671386
 20
-144.4592271231734
 30
0.0
 10
99.95014374671386
 20
-144.5990979998745
 30
0.0
 10
99.95014374671386
 20
-144.5990979998745
 30
0.0
 10
99.95014374671386
 20
-144.5990979998745
 30
0.0
 10
101.1094183775004
 20
-144.5990979998745
 30
0.0
 10
101.1094183775004
 20
-144.5990979998745
 30
0.0
 10
101.1094183775004
 20
-144.5990979998745
 30
0.0
 10
101.1094183775004
 20
-144.4592271231734
 30
0.0
 10
101.1094183775004
 20
-144.4592271231734
 30
0.0
  0
SPLINE
  5
116
330
107
100
AcDbEntity
  8
レイヤー 1
100
AcDbSpline
210
0.0
220
0.0
230
1.0
 70
    11
 71
     3
 72
    17
 73
    13
 74
     0
 42
0.0000000001
 43
0.0000000001
 40
0.0
 40
0.0
 40
0.0
 40
0.0
 40
1.0
 40
1.0
 40
1.0
 40
2.0
 40
2.0
 40
2.0
 40
3.0
 40
3.0
 40
3.0
 40
4.0
 40
4.0
 40
4.0
 40
4.0
 10
101.1094183775004
 20
-144.2077351527501
 30
0.0
 10
101.1094183775004
 20
-144.2077351527501
 30
0.0
 10
99.95014374671386
 20
-144.2077351527501
 30
0.0
 10
99.95014374671386
 20
-144.2077351527501
 30
0.0
 10
99.95014374671386
 20
-144.2077351527501
 30
0.0
 10
99.95014374671386
 20
-144.3493285771939
 30
0.0
 10
99.95014374671386
 20
-144.3493285771939
 30
0.0
 10
99.95014374671386
 20
-144.3493285771939
 30
0.0
 10
101.1094183775004
 20
-144.3493285771939
 30
0.0
 10
101.1094183775004
 20
-144.3493285771939
 30
0.0
 10
101.1094183775004
 20
-144.3493285771939
 30
0.0
 10
101.1094183775004
 20
-144.2077351527501
 30
0.0
 10
101.1094183775004
 20
-144.2077351527501
 30
0.0
  0
SPLINE
  5
117
330
107
100
AcDbEntity
  8
レイヤー 1
100
AcDbSpline
210
0.0
220
0.0
230
1.0
 70
    11
 71
     3
 72
    17
 73
    13
 74
     0
 42
0.0000000001
 43
0.0000000001
 40
0.0
 40
0.0
 40
0.0
 40
0.0
 40
1.0
 40
1.0
 40
1.0
 40
2.0
 40
2.0
 40
2.0
 40
3.0
 40
3.0
 40
3.0
 40
4.0
 40
4.0
 40
4.0
 40
4.0
 10
101.1094183775004
 20
-143.9686455260738
 30
0.0
 10
101.1094183775004
 20
-143.9686455260738
 30
0.0
 10
99.95014374671386
 20
-143.9686455260738
 30
0.0
 10
99.95014374671386
 20
-143.9686455260738
 30
0.0
 10
99.95014374671386
 20
-143.9686455260738
 30
0.0
 10
99.95014374671386
 20
-144.0974920972221
 30
0.0
 10
99.95014374671386
 20
-144.0974920972221
 30
0.0
 10
99.95014374671386
 20
-144.0974920972221
 30
0.0
 10
101.1094183775004
 20
-144.0974920972221
 30
0.0
 10
101.1094183775004
 20
-144.0974920972221
 30
0.0
 10
101.1094183775004
 20
-144.0974920972221
 30
0.0
 10
101.1094183775004
 20
-143.9686455260738
 30
0.0
 10
101.1094183775004
 20
-143.9686455260738
 30
0.0
  0
SPLINE
  5
118
330
107
100
AcDbEntity
  8
レイヤー 1
100
AcDbSpline
210
0.0
220
0.0
230
1.0
 70
    11
 71
     3
 72
    32
 73
    28
 74
     0
 42
0.0000000001
 43
0.0000000001
 40
0.0
 40
0.0
 40
0.0
 40
0.0
 40
1.0
 40
1.0
 40
1.0
 40
2.0
 40
2.0
 40
2.0
 40
3.0
 40
3.0
 40
3.0
 40
4.0
 40
4.0
 40
4.0
 40
5.0
 40
5.0
 40
5.0
 40
6.0
 40
6.0
 40
6.0
 40
7.0
 40
7.0
 40
7.0
 40
8.0
 40
8.0
 40
8.0
 40
9.0
 40
9.0
 40
9.0
 40
9.0
 10
99.78081730361383
 20
-144.7344902524448
 30
0.0
 10
99.78081730361383
 20
-144.7344902524448
 30
0.0
 10
99.78081730361383
 20
-143.8353203307946
 30
0.0
 10
99.78081730361383
 20
-143.8353203307946
 30
0.0
 10
99.78081730361383
 20
-143.8353203307946
 30
0.0
 10
101.2785725658262
 20
-143.8353203307946
 30
0.0
 10
101.2785725658262
 20
-143.8353203307946
 30
0.0
 10
101.2785725658262
 20
-143.8353203307946
 30
0.0
 10
101.2785725658262
 20
-144.7344902524448
 30
0.0
 10
101.2785725658262
 20
-144.7344902524448
 30
0.0
 10
101.2785725658262
 20
-144.7344902524448
 30
0.0
 10
100.1341118456262
 20
-144.7344902524448
 30
0.0
 10
100.1341118456262
 20
-144.7344902524448
 30
0.0
 10
100.1341118456262
 20
-144.7344902524448
 30
0.0
 10
100.2398762770233
 20
-144.8443887984243
 30
0.0
 10
100.2398762770233
 20
-144.8443887984243
 30
0.0
 10
100.0748562032799
 20
-144.9394734338172
 30
0.0
 10
99.90983612953643
 20
-145.0007961334546
 30
0.0
 10
99.61373017257921
 20
-145.0517835466363
 30
0.0
 10
99.61373017257921
 20
-145.0517835466363
 30
0.0
 10
99.5481011035852
 20
-144.8995103261883
 30
0.0
 10
99.5481011035852
 20
-144.8995103261883
 30
0.0
 10
99.92688935218843
 20
-144.8464558557154
 30
0.0
 10
100.0495347514633
 20
-144.7789319842045
 30
0.0
 10
100.1299777310439
 20
-144.7344902524448
 30
0.0
 10
100.1299777310439
 20
-144.7344902524448
 30
0.0
 10
99.78081730361383
 20
-144.7344902524448
 30
0.0
 10
99.78081730361383
 20
-144.7344902524448
 30
0.0
  0
SPLINE
  5
119
330
107
100
AcDbEntity
  8
レイヤー 1
100
AcDbSpline
210
0.0
220
0.0
230
1.0
 70
    11
 71
     3
 72
    50
 73
    46
 74
     0
 42
0.0000000001
 43
0.0000000001
 40
0.0
 40
0.0
 40
0.0
 40
0.0
 40
1.0
 40
1.0
 40
1.0
 40
2.0
 40
2.0
 40
2.0
 40
3.0
 40
3.0
 40
3.0
 40
4.0
 40
4.0
 40
4.0
 40
5.0
 40
5.0
 40
5.0
 40
6.0
 40
6.0
 40
6.0
 40
7.0
 40
7.0
 40
7.0
 40
8.0
 40
8.0
 40
8.0
 40
9.0
 40
9.0
 40
9.0
 40
10.0
 40
10.0
 40
10.0
 40
11.0
 40
11.0
 40
11.0
 40
12.0
 40
12.0
 40
12.0
 40
13.0
 40
13.0
 40
13.0
 40
14.0
 40
14.0
 40
14.0
 40
15.0
 40
15.0
 40
15.0
 40
15.0
 10
99.86539439777672
 20
-143.3888359559063
 30
0.0
 10
99.86539439777672
 20
-143.3888359559063
 30
0.0
 10
100.5170342088117
 20
-143.3888359559063
 30
0.0
 10
100.5170342088117
 20
-143.3888359559063
 30
0.0
 10
100.5170342088117
 20
-143.3888359559063
 30
0.0
 10
100.5170342088117
 20
-143.5138929220208
 30
0.0
 10
100.5170342088117
 20
-143.5138929220208
 30
0.0
 10
100.5170342088117
 20
-143.5138929220208
 30
0.0
 10
100.2398762770233
 20
-143.5138929220208
 30
0.0
 10
100.2398762770233
 20
-143.5138929220208
 30
0.0
 10
100.2398762770233
 20
-143.5138929220208
 30
0.0
 10
100.2398762770233
 20
-143.7888115417437
 30
0.0
 10
100.2398762770233
 20
-143.7888115417437
 30
0.0
 10
100.2398762770233
 20
-143.7888115417437
 30
0.0
 10
100.0791625726364
 20
-143.7888115417437
 30
0.0
 10
100.0791625726364
 20
-143.7888115417437
 30
0.0
 10
100.0791625726364
 20
-143.7888115417437
 30
0.0
 10
100.0791625726364
 20
-143.5138929220208
 30
0.0
 10
100.0791625726364
 20
-143.5138929220208
 30
0.0
 10
100.0791625726364
 20
-143.5138929220208
 30
0.0
 10
99.85919322590326
 20
-143.5138929220208
 30
0.0
 10
99.85919322590326
 20
-143.5138929220208
 30
0.0
 10
99.84851342989898
 20
-143.5834838508229
 30
0.0
 10
99.82319197808241
 20
-143.7781317457395
 30
0.0
 10
99.66867944556895
 20
-143.9283379088964
 30
0.0
 10
99.66867944556895
 20
-143.9283379088964
 30
0.0
 10
99.54603404629406
 20
-143.8184393629169
 30
0.0
 10
99.54603404629406
 20
-143.8184393629169
 30
0.0
 10
99.6666123882778
 20
-143.7188761033932
 30
0.0
 10
99.70898706274638
 20
-143.5138929220208
 30
0.0
 10
99.70898706274638
 20
-143.4312106303748
 30
0.0
 10
99.70898706274638
 20
-143.4312106303748
 30
0.0
 10
99.70898706274638
 20
-143.1456122146476
 30
0.0
 10
99.70898706274638
 20
-143.1456122146476
 30
0.0
 10
100.1933674879725
 20
-143.1456122146476
 30
0.0
 10
100.3478800204859
 20
-143.0991034255967
 30
0.0
 10
100.4429646558788
 20
-143.0715426617148
 30
0.0
 10
100.4429646558788
 20
-143.0715426617148
 30
0.0
 10
100.4958468715774
 20
-143.2110690288673
 30
0.0
 10
100.4958468715774
 20
-143.2110690288673
 30
0.0
 10
100.2863850660742
 20
-143.2599893847579
 30
0.0
 10
100.1236043043961
 20
-143.2703246712137
 30
0.0
 10
99.86539439777672
 20
-143.2748032953445
 30
0.0
 10
99.86539439777672
 20
-143.2748032953445
 30
0.0
 10
99.86539439777672
 20
-143.3888359559063
 30
0.0
 10
99.86539439777672
 20
-143.3888359559063
 30
0.0
  0
HATCH
  5
11A
330
107
100
AcDbEntity
  8
レイヤー 1
 62
    12
420
 15007762
440
 33554687
100
AcDbHatch
 10
0.0
 20
0.0
 30
0.0
210
0.0
220
0.0
230
1.0
  2
SOLID
 70
     1
 71
     1
 91
        7
 92
        1
 93
        1
 72
     4
 94
        3
 73
     0
 74
     0
 95
       17
 96
       13
 40
0.0
 40
0.0
 40
0.0
 40
0.0
 40
1.0
 40
1.0
 40
1.0
 40
2.0
 40
2.0
 40
2.0
 40
3.0
 40
3.0
 40
3.0
 40
4.0
 40
4.0
 40
4.0
 40
4.0
 10
100.8851426614106
 20
-144.7406914243183
 10
101.1051120081438
 20
-144.8530015371374
 10
101.3717623987022
 20
-144.8908975874752
 10
101.5007812246248
 20
-144.9015773834794
 10
101.5007812246248
 20
-144.9015773834794
 10
101.4310180410485
 20
-145.0559176612187
 10
101.4310180410485
 20
-145.0559176612187
 10
101.3104396990647
 20
-145.0411037506321
 10
101.0480956778629
 20
-145.0007961334546
 10
100.78368459937
 20
-144.8550685944286
 10
100.78368459937
 20
-144.8550685944286
 10
100.8851426614106
 20
-144.7406914243183
 10
100.8851426614106
 20
-144.7406914243183
 97
        0
 97
        1
330
113
 92
        1
 93
        1
 72
     4
 94
        3
 73
     0
 74
     0
 95
       50
 96
       46
 40
0.0
 40
0.0
 40
0.0
 40
0.0
 40
1.0
 40
1.0
 40
1.0
 40
2.0
 40
2.0
 40
2.0
 40
3.0
 40
3.0
 40
3.0
 40
4.0
 40
4.0
 40
4.0
 40
5.0
 40
5.0
 40
5.0
 40
6.0
 40
6.0
 40
6.0
 40
7.0
 40
7.0
 40
7.0
 40
8.0
 40
8.0
 40
8.0
 40
9.0
 40
9.0
 40
9.0
 40
10.0
 40
10.0
 40
10.0
 40
11.0
 40
11.0
 40
11.0
 40
12.0
 40
12.0
 40
12.0
 40
13.0
 40
13.0
 40
13.0
 40
14.0
 40
14.0
 40
14.0
 40
15.0
 40
15.0
 40
15.0
 40
15.0
 10
100.7730048033657
 20
-143.3888359559063
 10
100.7730048033657
 20
-143.3888359559063
 10
101.5092217085636
 20
-143.3888359559063
 10
101.5092217085636
 20
-143.3888359559063
 10
101.5092217085636
 20
-143.3888359559063
 10
101.5092217085636
 20
-143.5138929220208
 10
101.5092217085636
 20
-143.5138929220208
 10
101.5092217085636
 20
-143.5138929220208
 10
101.1791815610767
 20
-143.5138929220208
 10
101.1791815610767
 20
-143.5138929220208
 10
101.1791815610767
 20
-143.5138929220208
 10
101.1791815610767
 20
-143.7888115417437
 10
101.1791815610767
 20
-143.7888115417437
 10
101.1791815610767
 20
-143.7888115417437
 10
101.0226019712721
 20
-143.7888115417437
 10
101.0226019712721
 20
-143.7888115417437
 10
101.0226019712721
 20
-143.7888115417437
 10
101.0226019712721
 20
-143.5138929220208
 10
101.0226019712721
 20
-143.5138929220208
 10
101.0226019712721
 20
-143.5138929220208
 10
100.7581908927792
 20
-143.5138929220208
 10
100.7581908927792
 20
-143.5138929220208
 10
100.7328694409626
 20
-143.6427394931692
 10
100.6820542825552
 20
-143.7336900139797
 10
100.5847303350968
 20
-143.8163723056258
 10
100.5847303350968
 20
-143.8163723056258
 10
100.462084935822
 20
-143.7085408169374
 10
100.462084935822
 20
-143.7085408169374
 10
100.5974771883923
 20
-143.5982977614094
 10
100.6207315829177
 20
-143.460838451548
 10
100.6207315829177
 20
-143.3867688986151
 10
100.6207315829177
 20
-143.3867688986151
 10
100.6207315829177
 20
-143.1435451573564
 10
100.6207315829177
 20
-143.1435451573564
 10
101.0902980975573
 20
-143.1435451573564
 10
101.2575574833662
 20
-143.103237540179
 10
101.4013902198753
 20
-143.0608628657104
 10
101.4013902198753
 20
-143.0608628657104
 10
101.4606458622216
 20
-143.1986666851205
 10
101.4606458622216
 20
-143.1986666851205
 10
101.189861357081
 20
-143.2682576139225
 10
100.8746351201806
 20
-143.2727362380533
 10
100.7730048033657
 20
-143.2727362380533
 10
100.7730048033657
 20
-143.2727362380533
 10
100.7730048033657
 20
-143.3888359559063
 10
100.7730048033657
 20
-143.3888359559063
 97
        0
 97
        1
330
114
 92
        1
 93
        1
 72
     4
 94
        3
 73
     0
 74
     0
 95
       17
 96
       13
 40
0.0
 40
0.0
 40
0.0
 40
0.0
 40
1.0
 40
1.0
 40
1.0
 40
2.0
 40
2.0
 40
2.0
 40
3.0
 40
3.0
 40
3.0
 40
4.0
 40
4.0
 40
4.0
 40
4.0
 10
101.1094183775004
 20
-144.4592271231734
 10
101.1094183775004
 20
-144.4592271231734
 10
99.95014374671386
 20
-144.4592271231734
 10
99.95014374671386
 20
-144.4592271231734
 10
99.95014374671386
 20
-144.4592271231734
 10
99.95014374671386
 20
-144.5990979998745
 10
99.95014374671386
 20
-144.5990979998745
 10
99.95014374671386
 20
-144.5990979998745
 10
101.1094183775004
 20
-144.5990979998745
 10
101.1094183775004
 20
-144.5990979998745
 10
101.1094183775004
 20
-144.5990979998745
 10
101.1094183775004
 20
-144.4592271231734
 10
101.1094183775004
 20
-144.4592271231734
 97
        0
 97
        1
330
115
 92
        1
 93
        1
 72
     4
 94
        3
 73
     0
 74
     0
 95
       17
 96
       13
 40
0.0
 40
0.0
 40
0.0
 40
0.0
 40
1.0
 40
1.0
 40
1.0
 40
2.0
 40
2.0
 40
2.0
 40
3.0
 40
3.0
 40
3.0
 40
4.0
 40
4.0
 40
4.0
 40
4.0
 10
101.1094183775004
 20
-144.2077351527501
 10
101.1094183775004
 20
-144.2077351527501
 10
99.95014374671386
 20
-144.2077351527501
 10
99.95014374671386
 20
-144.2077351527501
 10
99.95014374671386
 20
-144.2077351527501
 10
99.95014374671386
 20
-144.3493285771939
 10
99.95014374671386
 20
-144.3493285771939
 10
99.95014374671386
 20
-144.3493285771939
 10
101.1094183775004
 20
-144.3493285771939
 10
101.1094183775004
 20
-144.3493285771939
 10
101.1094183775004
 20
-144.3493285771939
 10
101.1094183775004
 20
-144.2077351527501
 10
101.1094183775004
 20
-144.2077351527501
 97
        0
 97
        1
330
116
 92
        1
 93
        1
 72
     4
 94
        3
 73
     0
 74
     0
 95
       17
 96
       13
 40
0.0
 40
0.0
 40
0.0
 40
0.0
 40
1.0
 40
1.0
 40
1.0
 40
2.0
 40
2.0
 40
2.0
 40
3.0
 40
3.0
 40
3.0
 40
4.0
 40
4.0
 40
4.0
 40
4.0
 10
101.1094183775004
 20
-143.9686455260738
 10
101.1094183775004
 20
-143.9686455260738
 10
99.95014374671386
 20
-143.9686455260738
 10
99.95014374671386
 20
-143.9686455260738
 10
99.95014374671386
 20
-143.9686455260738
 10
99.95014374671386
 20
-144.0974920972221
 10
99.95014374671386
 20
-144.0974920972221
 10
99.95014374671386
 20
-144.0974920972221
 10
101.1094183775004
 20
-144.0974920972221
 10
101.1094183775004
 20
-144.0974920972221
 10
101.1094183775004
 20
-144.0974920972221
 10
101.1094183775004
 20
-143.9686455260738
 10
101.1094183775004
 20
-143.9686455260738
 97
        0
 97
        1
330
117
 92
        1
 93
        1
 72
     4
 94
        3
 73
     0
 74
     0
 95
       32
 96
       28
 40
0.0
 40
0.0
 40
0.0
 40
0.0
 40
1.0
 40
1.0
 40
1.0
 40
2.0
 40
2.0
 40
2.0
 40
3.0
 40
3.0
 40
3.0
 40
4.0
 40
4.0
 40
4.0
 40
5.0
 40
5.0
 40
5.0
 40
6.0
 40
6.0
 40
6.0
 40
7.0
 40
7.0
 40
7.0
 40
8.0
 40
8.0
 40
8.0
 40
9.0
 40
9.0
 40
9.0
 40
9.0
 10
99.78081730361383
 20
-144.7344902524448
 10
99.78081730361383
 20
-144.7344902524448
 10
99.78081730361383
 20
-143.8353203307946
 10
99.78081730361383
 20
-143.8353203307946
 10
99.78081730361383
 20
-143.8353203307946
 10
101.2785725658262
 20
-143.8353203307946
 10
101.2785725658262
 20
-143.8353203307946
 10
101.2785725658262
 20
-143.8353203307946
 10
101.2785725658262
 20
-144.7344902524448
 10
101.2785725658262
 20
-144.7344902524448
 10
101.2785725658262
 20
-144.7344902524448
 10
100.1341118456262
 20
-144.7344902524448
 10
100.1341118456262
 20
-144.7344902524448
 10
100.1341118456262
 20
-144.7344902524448
 10
100.2398762770233
 20
-144.8443887984243
 10
100.2398762770233
 20
-144.8443887984243
 10
100.0748562032799
 20
-144.9394734338172
 10
99.90983612953643
 20
-145.0007961334546
 10
99.61373017257921
 20
-145.0517835466363
 10
99.61373017257921
 20
-145.0517835466363
 10
99.5481011035852
 20
-144.8995103261883
 10
99.5481011035852
 20
-144.8995103261883
 10
99.92688935218843
 20
-144.8464558557154
 10
100.0495347514633
 20
-144.7789319842045
 10
100.1299777310439
 20
-144.7344902524448
 10
100.1299777310439
 20
-144.7344902524448
 10
99.78081730361383
 20
-144.7344902524448
 10
99.78081730361383
 20
-144.7344902524448
 97
        0
 97
        1
330
118
 92
        1
 93
        1
 72
     4
 94
        3
 73
     0
 74
     0
 95
       50
 96
       46
 40
0.0
 40
0.0
 40
0.0
 40
0.0
 40
1.0
 40
1.0
 40
1.0
 40
2.0
 40
2.0
 40
2.0
 40
3.0
 40
3.0
 40
3.0
 40
4.0
 40
4.0
 40
4.0
 40
5.0
 40
5.0
 40
5.0
 40
6.0
 40
6.0
 40
6.0
 40
7.0
 40
7.0
 40
7.0
 40
8.0
 40
8.0
 40
8.0
 40
9.0
 40
9.0
 40
9.0
 40
10.0
 40
10.0
 40
10.0
 40
11.0
 40
11.0
 40
11.0
 40
12.0
 40
12.0
 40
12.0
 40
13.0
 40
13.0
 40
13.0
 40
14.0
 40
14.0
 40
14.0
 40
15.0
 40
15.0
 40
15.0
 40
15.0
 10
99.86539439777672
 20
-143.3888359559063
 10
99.86539439777672
 20
-143.3888359559063
 10
100.5170342088117
 20
-143.3888359559063
 10
100.5170342088117
 20
-143.3888359559063
 10
100.5170342088117
 20
-143.3888359559063
 10
100.5170342088117
 20
-143.5138929220208
 10
100.5170342088117
 20
-143.5138929220208
 10
100.5170342088117
 20
-143.5138929220208
 10
100.2398762770233
 20
-143.5138929220208
 10
100.2398762770233
 20
-143.5138929220208
 10
100.2398762770233
 20
-143.5138929220208
 10
100.2398762770233
 20
-143.7888115417437
 10
100.2398762770233
 20
-143.7888115417437
 10
100.2398762770233
 20
-143.7888115417437
 10
100.0791625726364
 20
-143.7888115417437
 10
100.0791625726364
 20
-143.7888115417437
 10
100.0791625726364
 20
-143.7888115417437
 10
100.0791625726364
 20
-143.5138929220208
 10
100.0791625726364
 20
-143.5138929220208
 10
100.0791625726364
 20
-143.5138929220208
 10
99.85919322590326
 20
-143.5138929220208
 10
99.85919322590326
 20
-143.5138929220208
 10
99.84851342989898
 20
-143.5834838508229
 10
99.82319197808241
 20
-143.7781317457395
 10
99.66867944556895
 20
-143.9283379088964
 10
99.66867944556895
 20
-143.9283379088964
 10
99.54603404629406
 20
-143.8184393629169
 10
99.54603404629406
 20
-143.8184393629169
 10
99.6666123882778
 20
-143.7188761033932
 10
99.70898706274638
 20
-143.5138929220208
 10
99.70898706274638
 20
-143.4312106303748
 10
99.70898706274638
 20
-143.4312106303748
 10
99.70898706274638
 20
-143.1456122146476
 10
99.70898706274638
 20
-143.1456122146476
 10
100.1933674879725
 20
-143.1456122146476
 10
100.3478800204859
 20
-143.0991034255967
 10
100.4429646558788
 20
-143.0715426617148
 10
100.4429646558788
 20
-143.0715426617148
 10
100.4958468715774
 20
-143.2110690288673
 10
100.4958468715774
 20
-143.2110690288673
 10
100.2863850660742
 20
-143.2599893847579
 10
100.1236043043961
 20
-143.2703246712137
 10
99.86539439777672
 20
-143.2748032953445
 10
99.86539439777672
 20
-143.2748032953445
 10
99.86539439777672
 20
-143.3888359559063
 10
99.86539439777672
 20
-143.3888359559063
 97
        0
 97
        1
330
119
 75
     2
 76
     1
 98
        1
 10
0.0
 20
0.0
450
        0
451
        0
460
0.0
461
0.0
452
        0
462
0.0
453
        0
470

  0
ENDBLK
  5
10A
330
107
100
AcDbEntity
  8
0
100
AcDbBlockEnd
  0
ENDSEC
  0
SECTION
  2
ENTITIES
  0
LWPOLYLINE
  5
79
330
70
100
AcDbEntity
  8
レイヤー 1
 62
    18
420
        0
370
    25
100
AcDbPolyline
 90
       12
 70
     1
 43
0.0
 10
102.8652400213114
 20
-157.8936289577828
 10
109.8652400195611
 20
-157.8936289577828
 10
109.8652400195611
 20
-156.8991411108088
 10
103.8652400210612
 20
-156.8991411108088
 10
103.8652400210612
 20
-142.7826049950877
 10
122.8652400163108
 20
-142.7826049950877
 10
122.8652400163108
 20
-141.7826049953382
 10
102.8652400213114
 20
-141.7826049953382
 10
102.8652400213114
 20
-149.7826049641991
 10
99.86523993861496
 20
-149.7826049641991
 10
99.86523993861496
 20
-155.782604793157
 10
102.8652400213114
 20
-155.782604793157
  0
LWPOLYLINE
  5
7A
330
70
100
AcDbEntity
  8
レイヤー 1
 62
    18
420
        0
370
    25
100
AcDbPolyline
 90
        4
 70
     1
 43
0.0
 10
102.8652401338975
 20
-154.7826049907637
 10
100.865240134398
 20
-154.7826049907637
 10
100.865240134398
 20
-150.7826049917646
 10
102.8652401338975
 20
-150.7826049917646
  0
LINE
  5
7B
330
70
100
AcDbEntity
  8
レイヤー 1
 62
    18
420
        0
370
    25
100
AcDbLine
 10
102.8652400213114
 20
-141.7826049661993
 30
0.0
 11
102.8652400213114
 21
-150.7826049917646
 31
0.0
  0
LINE
  5
7C
330
70
100
AcDbEntity
  8
レイヤー 1
 62
    18
420
        0
370
    25
100
AcDbLine
 10
102.8652401338975
 20
-154.7826049907637
 30
0.0
 11
102.8652400213114
 21
-155.782604793157
 31
0.0
  0
SPLINE
  5
7D
330
70
100
AcDbEntity
  8
レイヤー 1
 62
    18
420
        0
370
     9
100
AcDbSpline
210
0.0
220
0.0
230
1.0
 70
     9
 71
     3
 72
    17
 73
    13
 74
     0
 42
0.0000000001
 43
0.0000000001
 40
0.0
 40
0.0
 40
0.0
 40
0.0
 40
1.0
 40
1.0
 40
1.0
 40
2.0
 40
2.0
 40
2.0
 40
3.0
 40
3.0
 40
3.0
 40
4.0
 40
4.0
 40
4.0
 40
4.0
 10
122.9651442794577
 20
-138.2131082253562
 30
0.0
 10
122.9651442794577
 20
-138.1580043378731
 30
0.0
 10
122.9203767805998
 20
-138.1132015612386
 30
0.0
 10
122.8652399016032
 20
-138.1132015612386
 30
0.0
 10
122.8101337278568
 20
-138.1132015612386
 30
0.0
 10
122.7653309512221
 20
-138.1580043378731
 30
0.0
 10
122.7653309512221
 20
-138.2131082253562
 30
0.0
 10
122.7653309512221
 20
-138.2682438358935
 30
0.0
 10
122.8101337278568
 20
-138.313014889474
 30
0.0
 10
122.8652399016032
 20
-138.313014889474
 30
0.0
 10
122.9203767805998
 20
-138.313014889474
 30
0.0
 10
122.9651442794577
 20
-138.2682438358935
 30
0.0
 10
122.9651442794577
 20
-138.2131082253562
 30
0.0
  0
CIRCLE
  5
7E
330
70
100
AcDbEntity
  8
レイヤー 1
 62
    18
420
        0
370
     9
100
AcDbCircle
 10
102.8765997877415
 20
-138.2131082253563
 30
0.0
 40
0.099906664117715
  0
INSERT
  5
80
330
70
100
AcDbEntity
  8
レイヤー 1
100
AcDbBlockReference
  2
Block_0
 10
0.0
 20
0.0
 30
0.0
  0
SPLINE
  5
93
330
70
100
AcDbEntity
  8
レイヤー 1
 62
    18
420
        0
370
     9
100
AcDbSpline
210
0.0
220
0.0
230
1.0
 70
     9
 71
     3
 72
    17
 73
    13
 74
     0
 42
0.0000000001
 43
0.0000000001
 40
0.0
 40
0.0
 40
0.0
 40
0.0
 40
1.0
 40
1.0
 40
1.0
 40
2.0
 40
2.0
 40
2.0
 40
3.0
 40
3.0
 40
3.0
 40
4.0
 40
4.0
 40
4.0
 40
4.0
 10
113.7759080315664
 20
-162.8960941885702
 30
0.0
 10
113.7759080315664
 20
-162.8409903010872
 30
0.0
 10
113.7311405327085
 20
-162.7961875244524
 30
0.0
 10
113.6760036537119
 20
-162.7961875244524
 30
0.0
 10
113.6208974799655
 20
-162.7961875244524
 30
0.0
 10
113.5760947033308
 20
-162.8409903010872
 30
0.0
 10
113.5760947033308
 20
-162.8960941885702
 30
0.0
 10
113.5760947033308
 20
-162.9512297991076
 30
0.0
 10
113.6208974799655
 20
-162.9960008526881
 30
0.0
 10
113.6760036537119
 20
-162.9960008526881
 30
0.0
 10
113.7311405327085
 20
-162.9960008526881
 30
0.0
 10
113.7759080315664
 20
-162.9512297991076
 30
0.0
 10
113.7759080315664
 20
-162.8960941885702
 30
0.0
  0
CIRCLE
  5
94
330
70
100
AcDbEntity
  8
レイヤー 1
 62
    18
420
        0
370
     9
100
AcDbCircle
 10
98.68736367767768
 20
-162.8960941885702
 30
0.0
 40
0.0999066641178353
  0
CIRCLE
  5
95
330
70
100
AcDbEntity
  8
レイヤー 1
 62
    18
420
        0
370
     9
100
AcDbCircle
 10
88.68736373845777
 20
-162.8960941885702
 30
0.0
 40
0.0999066641178353
  0
INSERT
  5
97
330
70
100
AcDbEntity
  8
レイヤー 1
100
AcDbBlockReference
  2
Block_3
 10
0.0
 20
0.0
 30
0.0
  0
SPLINE
  5
B7
330
70
100
AcDbEntity
  8
レイヤー 1
 62
    18
420
        0
370
     9
100
AcDbSpline
210
0.0
220
0.0
230
1.0
 70
     9
 71
     3
 72
    17
 73
    13
 74
     0
 42
0.0000000001
 43
0.0000000001
 40
0.0
 40
0.0
 40
0.0
 40
0.0
 40
1.0
 40
1.0
 40
1.0
 40
2.0
 40
2.0
 40
2.0
 40
3.0
 40
3.0
 40
3.0
 40
4.0
 40
4.0
 40
4.0
 40
4.0
 10
113.9546547627699
 20
-153.7464941174936
 30
0.0
 10
113.9546547627699
 20
-153.6913902300105
 30
0.0
 10
113.909887263912
 20
-153.6465874533758
 30
0.0
 10
113.8547503849147
 20
-153.6465874533758
 30
0.0
 10
113.799644211169
 20
-153.6465874533758
 30
0.0
 10
113.7548414345342
 20
-153.6913902300105
 30
0.0
 10
113.7548414345342
 20
-153.7464941174936
 30
0.0
 10
113.7548414345342
 20
-153.8016297280309
 30
0.0
 10
113.799644211169
 20
-153.8464007816114
 30
0.0
 10
113.8547503849147
 20
-153.8464007816114
 30
0.0
 10
113.909887263912
 20
-153.8464007816114
 30
0.0
 10
113.9546547627699
 20
-153.8016297280309
 30
0.0
 10
113.9546547627699
 20
-153.7464941174936
 30
0.0
  0
CIRCLE
  5
B8
330
70
100
AcDbEntity
  8
レイヤー 1
 62
    18
420
        0
370
     9
100
AcDbCircle
 10
106.8661106294051
 20
-153.7464941174936
 30
0.0
 40
0.0999066641178353
  0
INSERT
  5
BA
330
70
100
AcDbEntity
  8
レイヤー 1
100
AcDbBlockReference
  2
Block_8
 10
0.0
 20
0.0
 30
0.0
  0
SPLINE
  5
C6
330
70
100
AcDbEntity
  8
レイヤー 1
 62
    18
420
        0
370
     9
100
AcDbSpline
210
0.0
220
0.0
230
1.0
 70
     9
 71
     3
 72
    17
 73
    13
 74
     0
 42
0.0000000001
 43
0.0000000001
 40
0.0
 40
0.0
 40
0.0
 40
0.0
 40
1.0
 40
1.0
 40
1.0
 40
2.0
 40
2.0
 40
2.0
 40
3.0
 40
3.0
 40
3.0
 40
4.0
 40
4.0
 40
4.0
 40
4.0
 10
126.8995168703596
 20
-155.8891818772871
 30
0.0
 10
126.8995168703596
 20
-155.834077989804
 30
0.0
 10
126.8547493715017
 20
-155.7892752131693
 30
0.0
 10
126.7996102062418
 20
-155.7892752131693
 30
0.0
 10
126.7441535409899
 20
-155.7892752131693
 30
0.0
 10
126.6993507643551
 20
-155.834077989804
 30
0.0
 10
126.6993507643551
 20
-155.8891818772871
 30
0.0
 10
126.6993507643551
 20
-155.944321042547
 30
0.0
 10
126.7441535409899
 20
-155.9890885414049
 30
0.0
 10
126.7996102062418
 20
-155.9890885414049
 30
0.0
 10
126.8547493715017
 20
-155.9890885414049
 30
0.0
 10
126.8995168703596
 20
-155.944321042547
 30
0.0
 10
126.8995168703596
 20
-155.8891818772871
 30
0.0
  0
SPLINE
  5
C7
330
70
100
AcDbEntity
  8
レイヤー 1
 62
    18
420
        0
370
     9
100
AcDbSpline
210
0.0
220
0.0
230
1.0
 70
     9
 71
     3
 72
    17
 73
    13
 74
     0
 42
0.0000000001
 43
0.0000000001
 40
0.0
 40
0.0
 40
0.0
 40
0.0
 40
1.0
 40
1.0
 40
1.0
 40
2.0
 40
2.0
 40
2.0
 40
3.0
 40
3.0
 40
3.0
 40
4.0
 40
4.0
 40
4.0
 40
4.0
 10
126.8995168703596
 20
-158.8892040229717
 30
0.0
 10
126.8995168703596
 20
-158.8340648577124
 30
0.0
 10
126.8547493715017
 20
-158.7892620810777
 30
0.0
 10
126.7996102062418
 20
-158.7892620810777
 30
0.0
 10
126.7441535409899
 20
-158.7892620810777
 30
0.0
 10
126.6993507643551
 20
-158.8340648577124
 30
0.0
 10
126.6993507643551
 20
-158.8892040229717
 30
0.0
 10
126.6993507643551
 20
-158.9443079104555
 30
0.0
 10
126.7441535409899
 20
-158.9891106870902
 30
0.0
 10
126.7996102062418
 20
-158.9891106870902
 30
0.0
 10
126.8547493715017
 20
-158.9891106870902
 30
0.0
 10
126.8995168703596
 20
-158.9443079104555
 30
0.0
 10
126.8995168703596
 20
-158.8892040229717
 30
0.0
  0
LINE
  5
C8
330
70
100
AcDbEntity
  8
レイヤー 1
 62
    18
420
        0
370
     9
100
AcDbLine
 10
126.7996102062418
 20
-155.8891818772871
 30
0.0
 11
126.7996102062418
 21
-158.8892040229717
 31
0.0
  0
LINE
  5
C9
330
70
100
AcDbEntity
  8
レイヤー 1
 62
    18
420
        0
370
     9
100
AcDbLine
 10
125.3395688546016
 20
-155.8891818772871
 30
0.0
 11
127.7993824029577
 21
-155.8891818772871
 31
0.0
  0
SPLINE
  5
CA
330
70
100
AcDbEntity
  8
レイヤー 1
 62
    18
420
        0
370
     9
100
AcDbSpline
210
0.0
220
0.0
230
1.0
 70
     9
 71
     3
 72
    17
 73
    13
 74
     0
 42
0.0000000001
 43
0.0000000001
 40
0.0
 40
0.0
 40
0.0
 40
0.0
 40
1.0
 40
1.0
 40
1.0
 40
2.0
 40
2.0
 40
2.0
 40
3.0
 40
3.0
 40
3.0
 40
4.0
 40
4.0
 40
4.0
 40
4.0
 10
126.8995168703596
 20
-141.773517120544
 30
0.0
 10
126.8995168703596
 20
-141.7184132330609
 30
0.0
 10
126.8547493715017
 20
-141.6736104564262
 30
0.0
 10
126.7996102062418
 20
-141.6736104564262
 30
0.0
 10
126.7441535409899
 20
-141.6736104564262
 30
0.0
 10
126.6993507643551
 20
-141.7184132330609
 30
0.0
 10
126.6993507643551
 20
-141.773517120544
 30
0.0
 10
126.6993507643551
 20
-141.8286562858043
 30
0.0
 10
126.7441535409899
 20
-141.8734237846619
 30
0.0
 10
126.7996102062418
 20
-141.8734237846619
 30
0.0
 10
126.8547493715017
 20
-141.8734237846619
 30
0.0
 10
126.8995168703596
 20
-141.8286562858043
 30
0.0
 10
126.8995168703596
 20
-141.773517120544
 30
0.0
  0
LINE
  5
CB
330
70
100
AcDbEntity
  8
レイヤー 1
 62
    18
420
        0
370
     9
100
AcDbLine
 10
126.7996102062418
 20
-138.7735165697621
 30
0.0
 11
126.7996102062418
 21
-158.8892040229717
 31
0.0
  0
LINE
  5
CC
330
70
100
AcDbEntity
  8
レイヤー 1
 62
    18
420
        0
370
     9
100
AcDbLine
 10
125.3395688546016
 20
-141.773517120544
 30
0.0
 11
127.7993824029577
 21
-141.773517120544
 31
0.0
  0
SPLINE
  5
CD
330
70
100
AcDbEntity
  8
レイヤー 1
 62
    18
420
        0
370
     9
100
AcDbSpline
210
0.0
220
0.0
230
1.0
 70
     9
 71
     3
 72
    17
 73
    13
 74
     0
 42
0.0000000001
 43
0.0000000001
 40
0.0
 40
0.0
 40
0.0
 40
0.0
 40
1.0
 40
1.0
 40
1.0
 40
2.0
 40
2.0
 40
2.0
 40
3.0
 40
3.0
 40
3.0
 40
4.0
 40
4.0
 40
4.0
 40
4.0
 10
126.8995168703596
 20
-142.7735171481095
 30
0.0
 10
126.8995168703596
 20
-142.7184132606264
 30
0.0
 10
126.8547493715017
 20
-142.6736104839917
 30
0.0
 10
126.7996102062418
 20
-142.6736104839917
 30
0.0
 10
126.7441535409899
 20
-142.6736104839917
 30
0.0
 10
126.6993507643551
 20
-142.7184132606264
 30
0.0
 10
126.6993507643551
 20
-142.7735171481095
 30
0.0
 10
126.6993507643551
 20
-142.8286563133694
 30
0.0
 10
126.7441535409899
 20
-142.873423812227
 30
0.0
 10
126.7996102062418
 20
-142.873423812227
 30
0.0
 10
126.8547493715017
 20
-142.873423812227
 30
0.0
 10
126.8995168703596
 20
-142.8286563133694
 30
0.0
 10
126.8995168703596
 20
-142.7735171481095
 30
0.0
  0
LINE
  5
CE
330
70
100
AcDbEntity
  8
レイヤー 1
 62
    18
420
        0
370
     9
100
AcDbLine
 10
125.3395688546016
 20
-142.7735171481095
 30
0.0
 11
127.7993824029577
 21
-142.7735171481095
 31
0.0
  0
LINE
  5
CF
330
70
100
AcDbEntity
  8
レイヤー 1
 62
    18
420
        0
370
     9
100
AcDbLine
 10
125.3395688546016
 20
-158.8892040229717
 30
0.0
 11
127.7993824029577
 21
-158.8892040229717
 31
0.0
  0
INSERT
  5
D1
330
70
100
AcDbEntity
  8
レイヤー 1
100
AcDbBlockReference
  2
Block_10
 10
0.0
 20
0.0
 30
0.0
  0
INSERT
  5
D7
330
70
100
AcDbEntity
  8
レイヤー 1
100
AcDbBlockReference
  2
Block_11
 10
0.0
 20
0.0
 30
0.0
  0
INSERT
  5
E3
330
70
100
AcDbEntity
  8
レイヤー 1
100
AcDbBlockReference
  2
Block_13
 10
0.0
 20
0.0
 30
0.0
  0
SPLINE
  5
E8
330
70
100
AcDbEntity
  8
レイヤー 1
 62
    18
420
        0
370
     9
100
AcDbSpline
210
0.0
220
0.0
230
1.0
 70
     9
 71
     3
 72
    17
 73
    13
 74
     0
 42
0.0000000001
 43
0.0000000001
 40
0.0
 40
0.0
 40
0.0
 40
0.0
 40
1.0
 40
1.0
 40
1.0
 40
2.0
 40
2.0
 40
2.0
 40
3.0
 40
3.0
 40
3.0
 40
4.0
 40
4.0
 40
4.0
 40
4.0
 10
87.35082108947912
 20
-158.8892040229717
 30
0.0
 10
87.35082108947912
 20
-158.8340648577124
 30
0.0
 10
87.30605359062124
 20
-158.7892620810777
 30
0.0
 10
87.25091442536129
 20
-158.7892620810777
 30
0.0
 10
87.19545776010944
 20
-158.7892620810777
 30
0.0
 10
87.15065498347469
 20
-158.8340648577124
 30
0.0
 10
87.15065498347469
 20
-158.8892040229717
 30
0.0
 10
87.15065498347469
 20
-158.9443079104555
 30
0.0
 10
87.19545776010944
 20
-158.9891106870902
 30
0.0
 10
87.25091442536129
 20
-158.9891106870902
 30
0.0
 10
87.30605359062124
 20
-158.9891106870902
 30
0.0
 10
87.35082108947912
 20
-158.9443079104555
 30
0.0
 10
87.35082108947912
 20
-158.8892040229717
 30
0.0
  0
SPLINE
  5
E9
330
70
100
AcDbEntity
  8
レイヤー 1
 62
    18
420
        0
370
     9
100
AcDbSpline
210
0.0
220
0.0
230
1.0
 70
     9
 71
     3
 72
    17
 73
    13
 74
     0
 42
0.0000000001
 43
0.0000000001
 40
0.0
 40
0.0
 40
0.0
 40
0.0
 40
1.0
 40
1.0
 40
1.0
 40
2.0
 40
2.0
 40
2.0
 40
3.0
 40
3.0
 40
3.0
 40
4.0
 40
4.0
 40
4.0
 40
4.0
 10
87.35082108947912
 20
-152.8892038575787
 30
0.0
 10
87.35082108947912
 20
-152.8340646923194
 30
0.0
 10
87.30605359062124
 20
-152.7892619156847
 30
0.0
 10
87.25091442536129
 20
-152.7892619156847
 30
0.0
 10
87.19545776010944
 20
-152.7892619156847
 30
0.0
 10
87.15065498347469
 20
-152.8340646923194
 30
0.0
 10
87.15065498347469
 20
-152.8892038575787
 30
0.0
 10
87.15065498347469
 20
-152.9443077450624
 30
0.0
 10
87.19545776010944
 20
-152.9891105216972
 30
0.0
 10
87.25091442536129
 20
-152.9891105216972
 30
0.0
 10
87.30605359062124
 20
-152.9891105216972
 30
0.0
 10
87.35082108947912
 20
-152.9443077450624
 30
0.0
 10
87.35082108947912
 20
-152.8892038575787
 30
0.0
  0
LINE
  5
EA
330
70
100
AcDbEntity
  8
レイヤー 1
 62
    18
420
        0
370
     9
100
AcDbLine
 10
87.25091442536129
 20
-147.8844251142401
 30
0.0
 11
87.25091442536129
 21
-158.8892040229717
 31
0.0
  0
SPLINE
  5
EB
330
70
100
AcDbEntity
  8
レイヤー 1
 62
    18
420
        0
370
     9
100
AcDbSpline
210
0.0
220
0.0
230
1.0
 70
     9
 71
     3
 72
    17
 73
    13
 74
     0
 42
0.0000000001
 43
0.0000000001
 40
0.0
 40
0.0
 40
0.0
 40
0.0
 40
1.0
 40
1.0
 40
1.0
 40
2.0
 40
2.0
 40
2.0
 40
3.0
 40
3.0
 40
3.0
 40
4.0
 40
4.0
 40
4.0
 40
4.0
 10
87.35082108947912
 20
-147.8864927517462
 30
0.0
 10
87.35082108947912
 20
-147.8313888642631
 30
0.0
 10
87.30605359062124
 20
-147.7865860876284
 30
0.0
 10
87.25091442536129
 20
-147.7865860876284
 30
0.0
 10
87.19545776010944
 20
-147.7865860876284
 30
0.0
 10
87.15065498347469
 20
-147.8313888642631
 30
0.0
 10
87.15065498347469
 20
-147.8864927517462
 30
0.0
 10
87.15065498347469
 20
-147.9416319170062
 30
0.0
 10
87.19545776010944
 20
-147.986399415864
 30
0.0
 10
87.25091442536129
 20
-147.986399415864
 30
0.0
 10
87.30605359062124
 20
-147.986399415864
 30
0.0
 10
87.35082108947912
 20
-147.9416319170062
 30
0.0
 10
87.35082108947912
 20
-147.8864927517462
 30
0.0
  0
LINE
  5
EC
330
70
100
AcDbEntity
  8
レイヤー 1
 62
    18
420
        0
370
     9
100
AcDbLine
 10
85.79087307372116
 20
-147.8864927517462
 30
0.0
 11
88.25068662207719
 21
-147.8864927517462
 31
0.0
  0
LINE
  5
ED
330
70
100
AcDbEntity
  8
レイヤー 1
 62
    18
420
        0
370
     9
100
AcDbLine
 10
85.79087307372116
 20
-158.8857380525348
 30
0.0
 11
88.25068662207719
 21
-158.8857380525348
 31
0.0
  0
LINE
  5
EE
330
70
100
AcDbEntity
  8
レイヤー 1
 62
    18
420
        0
370
     9
100
AcDbLine
 10
85.79087307372116
 20
-152.8857378871418
 30
0.0
 11
88.25068662207719
 21
-152.8857378871418
 31
0.0
  0
INSERT
  5
F0
330
70
100
AcDbEntity
  8
レイヤー 1
100
AcDbBlockReference
  2
Block_14
 10
0.0
 20
0.0
 30
0.0
  0
INSERT
  5
F6
330
70
100
AcDbEntity
  8
レイヤー 1
100
AcDbBlockReference
  2
Block_15
 10
0.0
 20
0.0
 30
0.0
  0
INSERT
  5
FD
330
70
100
AcDbEntity
  8
レイヤー 1
100
AcDbBlockReference
  2
Block_16
 10
0.0
 20
0.0
 30
0.0
  0
INSERT
  5
104
330
70
100
AcDbEntity
  8
レイヤー 1
100
AcDbBlockReference
  2
Block_17
 10
0.0
 20
0.0
 30
0.0
  0
LWPOLYLINE
  5
11B
330
70
100
AcDbEntity
  8
レイヤー 1
 62
    18
420
        0
370
    25
100
AcDbPolyline
 90
       22
 70
     0
 43
0.0
 10
88.85079505302096
 20
-151.3779288805468
 10
89.15079505296803
 20
-150.8779288806851
 10
88.85079505306588
 20
-150.3779288529813
 10
89.15079505301296
 20
-149.8779288531196
 10
88.85079505311081
 20
-149.3779288254158
 10
89.15079505305788
 20
-148.8779288255541
 10
88.85079505315571
 20
-148.37792879785
 10
89.14322923940622
 20
-147.8905384874813
 10
89.85134583448878
 20
-147.890113029123
 10
89.85134583448878
 20
-151.8805463053486
 10
99.86235949980301
 20
-151.8805463053486
 10
99.85863030780059
 20
-157.8936289577828
 10
112.8681746522596
 20
-157.8936289577828
 10
112.8681746522596
 20
-156.8991411108088
 10
106.8635840689881
 20
-156.8991411108088
 10
106.8635840689881
 20
-155.8977803572281
 10
113.86817465201
 20
-155.8977803572281
 10
113.86817465201
 20
-158.8931106296209
 10
98.85863030805081
 20
-158.8931106296209
 10
98.85863030805081
 20
-152.8805463050977
 10
88.85134580692328
 20
-152.8805463050977
 10
88.85134580692328
 20
-151.3805463478582
  0
ENDSEC
  0
SECTION
  2
OBJECTS
  0
DICTIONARY
  5
C
330
0
100
AcDbDictionary
281
     1
  3
ACAD_COLOR
350
63
  3
ACAD_DETAILVIEWSTYLE
350
6A
  3
ACAD_GROUP
350
D
  3
ACAD_LAYOUT
350
62
  3
ACAD_MATERIAL
350
10
  3
ACAD_MLEADERSTYLE
350
66
  3
ACAD_MLINESTYLE
350
5F
  3
ACAD_PLOTSETTINGS
350
61
  3
ACAD_PLOTSTYLENAME
350
E
  3
ACAD_SCALELIST
350
42
  3
ACAD_SECTIONVIEWSTYLE
350
68
  3
ACAD_TABLESTYLE
350
64
  3
ACAD_VISUALSTYLE
350
29
  3
ACDB_RECOMPOSE_DATA
350
124
  3
AcDbVariableDictionary
350
11C
  0
DICTIONARY
  5
63
102
{ACAD_REACTORS
330
C
102
}
330
C
100
AcDbDictionary
281
     1
  0
DICTIONARY
  5
6A
102
{ACAD_REACTORS
330
C
102
}
330
C
100
AcDbDictionary
281
     1
  3
Imperial24
350
6B
  0
DICTIONARY
  5
D
102
{ACAD_REACTORS
330
C
102
}
330
C
100
AcDbDictionary
281
     1
  0
DICTIONARY
  5
62
102
{ACAD_REACTORS
330
C
102
}
330
C
100
AcDbDictionary
281
     1
  3
Layout1
350
6F
  3
Layout2
350
77
  3
Model
350
73
  0
DICTIONARY
  5
10
102
{ACAD_REACTORS
330
C
102
}
330
C
100
AcDbDictionary
281
     1
  3
ByBlock
350
19
  3
ByLayer
350
11
  3
Global
350
21
  0
DICTIONARY
  5
66
102
{ACAD_REACTORS
330
C
102
}
330
C
100
AcDbDictionary
281
     1
  3
Standard
350
67
  0
DICTIONARY
  5
5F
102
{ACAD_REACTORS
330
C
102
}
330
C
100
AcDbDictionary
281
     1
  3
Standard
350
60
  0
DICTIONARY
  5
61
102
{ACAD_REACTORS
330
C
102
}
330
C
100
AcDbDictionary
281
     1
  0
ACDBDICTIONARYWDFLT
  5
E
102
{ACAD_REACTORS
330
C
102
}
330
C
100
AcDbDictionary
281
     1
  3
Normal
350
F
100
AcDbDictionaryWithDefault
340
F
  0
DICTIONARY
  5
42
102
{ACAD_REACTORS
330
C
102
}
330
C
100
AcDbDictionary
281
     1
  3
A0
350
43
  3
A1
350
44
  3
A2
350
45
  3
A3
350
46
  3
A4
350
47
  3
A5
350
48
  3
A6
350
49
  3
A7
350
4A
  3
A8
350
4B
  3
A9
350
4C
  3
B0
350
4D
  3
B1
350
4E
  3
B2
350
4F
  3
B3
350
50
  3
B4
350
51
  3
B5
350
52
  3
B6
350
53
  0
DICTIONARY
  5
68
102
{ACAD_REACTORS
330
C
102
}
330
C
100
AcDbDictionary
281
     1
  3
Imperial24
350
69
  0
DICTIONARY
  5
64
102
{ACAD_REACTORS
330
C
102
}
330
C
100
AcDbDictionary
281
     1
  3
Standard
350
65
  0
DICTIONARY
  5
29
102
{ACAD_REACTORS
330
C
102
}
330
C
100
AcDbDictionary
281
     1
  3
2dWireframe
350
2F
  3
Basic
350
2E
  3
Brighten
350
35
  3
ColorChange
350
39
  3
Conceptual
350
32
  3
Dim
350
34
  3
EdgeColorOff
350
41
  3
Facepattern
350
38
  3
Flat
350
2A
  3
FlatWithEdges
350
2B
  3
Gouraud
350
2C
  3
GouraudWithEdges
350
2D
  3
Hidden
350
31
  3
JitterOff
350
3F
  3
Linepattern
350
37
  3
OverhangOff
350
40
  3
Realistic
350
33
  3
Shaded
350
3E
  3
Shaded with edges
350
3D
  3
Shades of Gray
350
3A
  3
Sketchy
350
3B
  3
Thicken
350
36
  3
Wireframe
350
30
  3
X-Ray
350
3C
  0
XRECORD
  5
124
102
{ACAD_REACTORS
330
C
102
}
330
C
100
AcDbXrecord
280
     1
 90
        1
330
65
  0
DICTIONARY
  5
11C
102
{ACAD_REACTORS
330
C
102
}
330
C
100
AcDbDictionary
281
     1
  3
CANNOSCALE
350
121
  3
CMLEADERSTYLE
350
11E
  3
CTABLESTYLE
350
11D
  3
CVIEWDETAILSTYLE
350
11F
  3
CVIEWSECTIONSTYLE
350
120
  0
ACDBDETAILVIEWSTYLE
  5
6B
102
{ACAD_XDICTIONARY
360
159
102
}
102
{ACAD_REACTORS
330
6A
102
}
330
6A
100
AcDbModelDocViewStyle
 70
     0
  3
Imperial24
290
     0
100
AcDbDetailViewStyle
 70
     0
 71
     0
 90
        3
 71
     1
340
55
 62
   256
 40
0.24
340
0
 62
   256
 40
0.24
300

 40
0.36
280
     3
 71
     2
340
5D
 90
       25
 62
   256
 71
     3
340
55
 62
   256
 40
0.24
 90
        1
 40
0.75
 90
        1
300
%<\AcVar ViewType \f "%tc1">% %<\AcVar ViewDetailId>%\PSCALE %<\AcVar ViewScale \f "%sn">%
 71
     4
340
5D
 90
       25
 62
   256
340
5D
 90
       25
 62
   256
280
     0
  0
LAYOUT
  5
6F
102
{ACAD_REACTORS
330
62
102
}
330
62
100
AcDbPlotSettings
  1

  2

  4

  6

 40
0.0
 41
0.0
 42
0.0
 43
0.0
 44
0.0
 45
0.0
 46
0.0
 47
0.0
 48
0.0
 49
0.0
140
0.0
141
0.0
142
1.0
143
1.0
 70
   688
 72
     0
 73
     0
 74
     5
  7

 75
    16
147
1.0
 76
     0
 77
     2
 78
   300
148
0.0
149
0.0
100
AcDbLayout
  1
Layout1
 70
     1
 71
     1
 10
0.0
 20
0.0
 11
12.0
 21
9.0
 12
0.0
 22
0.0
 32
0.0
 14
0.0
 24
0.0
 34
0.0
 15
0.0
 25
0.0
 35
0.0
146
0.0
 13
0.0
 23
0.0
 33
0.0
 16
1.0
 26
0.0
 36
0.0
 17
0.0
 27
1.0
 37
0.0
 76
     0
330
6C
  0
LAYOUT
  5
77
102
{ACAD_REACTORS
330
62
102
}
330
62
100
AcDbPlotSettings
  1

  2

  4

  6

 40
0.0
 41
0.0
 42
0.0
 43
0.0
 44
0.0
 45
0.0
 46
0.0
 47
0.0
 48
0.0
 49
0.0
140
0.0
141
0.0
142
1.0
143
1.0
 70
   688
 72
     0
 73
     0
 74
     5
  7

 75
    16
147
1.0
 76
     0
 77
     2
 78
   300
148
0.0
149
0.0
100
AcDbLayout
  1
Layout2
 70
     1
 71
     2
 10
0.0
 20
0.0
 11
12.0
 21
9.0
 12
0.0
 22
0.0
 32
0.0
 14
0.0
 24
0.0
 34
0.0
 15
0.0
 25
0.0
 35
0.0
146
0.0
 13
0.0
 23
0.0
 33
0.0
 16
1.0
 26
0.0
 36
0.0
 17
0.0
 27
1.0
 37
0.0
 76
     0
330
74
  0
LAYOUT
  5
73
102
{ACAD_REACTORS
330
62
102
}
330
62
100
AcDbPlotSettings
  1

  2

  4

  6

 40
0.0
 41
0.0
 42
0.0
 43
0.0
 44
0.0
 45
0.0
 46
0.0
 47
0.0
 48
0.0
 49
0.0
140
0.0
141
0.0
142
1.0
143
1.0
 70
  1712
 72
     0
 73
     0
 74
     0
  7

 75
     0
147
1.0
 76
     0
 77
     2
 78
   300
148
0.0
149
0.0
100
AcDbLayout
  1
Model
 70
     1
 71
     0
 10
0.0
 20
0.0
 11
12.0
 21
9.0
 12
0.0
 22
0.0
 32
0.0
 14
0.0
 24
0.0
 34
0.0
 15
0.0
 25
0.0
 35
0.0
146
0.0
 13
0.0
 23
0.0
 33
0.0
 16
1.0
 26
0.0
 36
0.0
 17
0.0
 27
1.0
 37
0.0
 76
     0
330
70
  0
MATERIAL
  5
19
102
{ACAD_XDICTIONARY
360
1A
102
}
102
{ACAD_REACTORS
330
10
102
}
330
10
100
AcDbMaterial
  1
ByBlock
 72
     0
 43
0.0208333333333333
 43
0.0
 43
0.0
 43
0.0
 43
0.0
 43
0.0208333333333333
 43
0.0
 43
0.0
 43
0.0
 43
0.0
 43
1.0
 43
0.0
 43
0.0
 43
0.0
 43
0.0
 43
1.0
 77
     0
 47
0.0208333333333333
 47
0.0
 47
0.0
 47
0.0
 47
0.0
 47
0.0208333333333333
 47
0.0
 47
0.0
 47
0.0
 47
0.0
 47
1.0
 47
0.0
 47
0.0
 47
0.0
 47
0.0
 47
1.0
171
     0
 49
0.0208333333333333
 49
0.0
 49
0.0
 49
0.0
 49
0.0
 49
0.0208333333333333
 49
0.0
 49
0.0
 49
0.0
 49
0.0
 49
1.0
 49
0.0
 49
0.0
 49
0.0
 49
0.0
 49
1.0
175
     0
142
0.0208333333333333
142
0.0
142
0.0
142
0.0
142
0.0
142
0.0208333333333333
142
0.0
142
0.0
142
0.0
142
0.0
142
1.0
142
0.0
142
0.0
142
0.0
142
0.0
142
1.0
179
     0
144
0.0208333333333333
144
0.0
144
0.0
144
0.0
144
0.0
144
0.0208333333333333
144
0.0
144
0.0
144
0.0
144
0.0
144
1.0
144
0.0
144
0.0
144
0.0
144
0.0
144
1.0
147
0.0208333333333333
147
0.0
147
0.0
147
0.0
147
0.0
147
0.0208333333333333
147
0.0
147
0.0
147
0.0
147
0.0
147
1.0
147
0.0
147
0.0
147
0.0
147
0.0
147
1.0
  0
MATERIAL
  5
11
102
{ACAD_XDICTIONARY
360
12
102
}
102
{ACAD_REACTORS
330
10
102
}
330
10
100
AcDbMaterial
  1
ByLayer
 72
     0
 43
0.0208333333333333
 43
0.0
 43
0.0
 43
0.0
 43
0.0
 43
0.0208333333333333
 43
0.0
 43
0.0
 43
0.0
 43
0.0
 43
1.0
 43
0.0
 43
0.0
 43
0.0
 43
0.0
 43
1.0
 77
     0
 47
0.0208333333333333
 47
0.0
 47
0.0
 47
0.0
 47
0.0
 47
0.0208333333333333
 47
0.0
 47
0.0
 47
0.0
 47
0.0
 47
1.0
 47
0.0
 47
0.0
 47
0.0
 47
0.0
 47
1.0
171
     0
 49
0.0208333333333333
 49
0.0
 49
0.0
 49
0.0
 49
0.0
 49
0.0208333333333333
 49
0.0
 49
0.0
 49
0.0
 49
0.0
 49
1.0
 49
0.0
 49
0.0
 49
0.0
 49
0.0
 49
1.0
175
     0
142
0.0208333333333333
142
0.0
142
0.0
142
0.0
142
0.0
142
0.0208333333333333
142
0.0
142
0.0
142
0.0
142
0.0
142
1.0
142
0.0
142
0.0
142
0.0
142
0.0
142
1.0
179
     0
144
0.0208333333333333
144
0.0
144
0.0
144
0.0
144
0.0
144
0.0208333333333333
144
0.0
144
0.0
144
0.0
144
0.0
144
1.0
144
0.0
144
0.0
144
0.0
144
0.0
144
1.0
147
0.0208333333333333
147
0.0
147
0.0
147
0.0
147
0.0
147
0.0208333333333333
147
0.0
147
0.0
147
0.0
147
0.0
147
1.0
147
0.0
147
0.0
147
0.0
147
0.0
147
1.0
  0
MATERIAL
  5
21
102
{ACAD_XDICTIONARY
360
22
102
}
102
{ACAD_REACTORS
330
10
102
}
330
10
100
AcDbMaterial
  1
Global
 72
     0
 43
0.0208333333333333
 43
0.0
 43
0.0
 43
0.0
 43
0.0
 43
0.0208333333333333
 43
0.0
 43
0.0
 43
0.0
 43
0.0
 43
1.0
 43
0.0
 43
0.0
 43
0.0
 43
0.0
 43
1.0
 77
     0
 47
0.0208333333333333
 47
0.0
 47
0.0
 47
0.0
 47
0.0
 47
0.0208333333333333
 47
0.0
 47
0.0
 47
0.0
 47
0.0
 47
1.0
 47
0.0
 47
0.0
 47
0.0
 47
0.0
 47
1.0
171
     0
 49
0.0208333333333333
 49
0.0
 49
0.0
 49
0.0
 49
0.0
 49
0.0208333333333333
 49
0.0
 49
0.0
 49
0.0
 49
0.0
 49
1.0
 49
0.0
 49
0.0
 49
0.0
 49
0.0
 49
1.0
175
     0
142
0.0208333333333333
142
0.0
142
0.0
142
0.0
142
0.0
142
0.0208333333333333
142
0.0
142
0.0
142
0.0
142
0.0
142
1.0
142
0.0
142
0.0
142
0.0
142
0.0
142
1.0
179
     0
144
0.0208333333333333
144
0.0
144
0.0
144
0.0
144
0.0
144
0.0208333333333333
144
0.0
144
0.0
144
0.0
144
0.0
144
1.0
144
0.0
144
0.0
144
0.0
144
0.0
144
1.0
147
0.0208333333333333
147
0.0
147
0.0
147
0.0
147
0.0
147
0.0208333333333333
147
0.0
147
0.0
147
0.0
147
0.0
147
1.0
147
0.0
147
0.0
147
0.0
147
0.0
147
1.0
  0
MLEADERSTYLE
  5
67
102
{ACAD_XDICTIONARY
360
155
102
}
102
{ACAD_REACTORS
330
66
102
}
330
66
100
AcDbMLeaderStyle
179
     2
170
     2
171
     1
172
     0
 90
        2
 40
0.0
 41
0.0
173
     1
 91
-1056964608
340
5B
 92
       -2
290
     1
 42
0.09
291
     1
 43
0.36
  3
Standard
 44
0.18
300

342
55
174
     1
178
     6
175
     1
176
     0
 93
-1056964608
 45
0.18
292
     0
297
     0
 46
0.18
 94
-1056964608
 47
1.0
 49
1.0
140
1.0
293
     1
141
0.0
294
     1
177
     0
142
1.0
295
     0
296
     0
143
0.125
271
     0
272
     9
273
     9
  0
MLINESTYLE
  5
60
102
{ACAD_REACTORS
330
5F
102
}
330
5F
100
AcDbMlineStyle
  2
STANDARD
 70
     0
  3

 62
   256
 51
90.0
 52
90.0
 71
     2
 49
0.5
 62
   256
  6
BYLAYER
 49
-0.5
 62
   256
  6
BYLAYER
  0
ACDBPLACEHOLDER
  5
F
102
{ACAD_REACTORS
330
E
102
}
330
E
  0
SCALE
  5
43
102
{ACAD_REACTORS
330
42
102
}
330
42
100
AcDbScale
 70
     0
300
1:1
140
1.0
141
1.0
290
     1
  0
SCALE
  5
44
102
{ACAD_REACTORS
330
42
102
}
330
42
100
AcDbScale
 70
     0
300
1/128" = 1'-0"
140
0.0078125
141
12.0
290
     0
  0
SCALE
  5
45
102
{ACAD_REACTORS
330
42
102
}
330
42
100
AcDbScale
 70
     0
300
1/64" = 1'-0"
140
0.015625
141
12.0
290
     0
  0
SCALE
  5
46
102
{ACAD_REACTORS
330
42
102
}
330
42
100
AcDbScale
 70
     0
300
1/32" = 1'-0"
140
0.03125
141
12.0
290
     0
  0
SCALE
  5
47
102
{ACAD_REACTORS
330
42
102
}
330
42
100
AcDbScale
 70
     0
300
1/16" = 1'-0"
140
0.0625
141
12.0
290
     0
  0
SCALE
  5
48
102
{ACAD_REACTORS
330
42
102
}
330
42
100
AcDbScale
 70
     0
300
3/32" = 1'-0"
140
0.09375
141
12.0
290
     0
  0
SCALE
  5
49
102
{ACAD_REACTORS
330
42
102
}
330
42
100
AcDbScale
 70
     0
300
1/8" = 1'-0"
140
0.125
141
12.0
290
     0
  0
SCALE
  5
4A
102
{ACAD_REACTORS
330
42
102
}
330
42
100
AcDbScale
 70
     0
300
3/16" = 1'-0"
140
0.1875
141
12.0
290
     0
  0
SCALE
  5
4B
102
{ACAD_REACTORS
330
42
102
}
330
42
100
AcDbScale
 70
     0
300
1/4" = 1'-0"
140
0.25
141
12.0
290
     0
  0
SCALE
  5
4C
102
{ACAD_REACTORS
330
42
102
}
330
42
100
AcDbScale
 70
     0
300
3/8" = 1'-0"
140
0.375
141
12.0
290
     0
  0
SCALE
  5
4D
102
{ACAD_REACTORS
330
42
102
}
330
42
100
AcDbScale
 70
     0
300
1/2" = 1'-0"
140
0.5
141
12.0
290
     0
  0
SCALE
  5
4E
102
{ACAD_REACTORS
330
42
102
}
330
42
100
AcDbScale
 70
     0
300
3/4" = 1'-0"
140
0.75
141
12.0
290
     0
  0
SCALE
  5
4F
102
{ACAD_REACTORS
330
42
102
}
330
42
100
AcDbScale
 70
     0
300
1" = 1'-0"
140
1.0
141
12.0
290
     0
  0
SCALE
  5
50
102
{ACAD_REACTORS
330
42
102
}
330
42
100
AcDbScale
 70
     0
300
1-1/2" = 1'-0"
140
1.5
141
12.0
290
     0
  0
SCALE
  5
51
102
{ACAD_REACTORS
330
42
102
}
330
42
100
AcDbScale
 70
     0
300
3" = 1'-0"
140
3.0
141
12.0
290
     0
  0
SCALE
  5
52
102
{ACAD_REACTORS
330
42
102
}
330
42
100
AcDbScale
 70
     0
300
6" = 1'-0"
140
6.0
141
12.0
290
     0
  0
SCALE
  5
53
102
{ACAD_REACTORS
330
42
102
}
330
42
100
AcDbScale
 70
     0
300
1'-0" = 1'-0"
140
12.0
141
12.0
290
     0
  0
ACDBSECTIONVIEWSTYLE
  5
69
102
{ACAD_XDICTIONARY
360
157
102
}
102
{ACAD_REACTORS
330
68
102
}
330
68
100
AcDbModelDocViewStyle
 70
     0
  3
Imperial24
290
     0
100
AcDbSectionViewStyle
 70
     0
 71
     0
 90
       78
 71
     1
340
55
 62
   256
 40
0.24
340
0
340
0
 62
   256
 40
0.24
300
I, O, Q, S, X, Z
 40
0.48
 90
        3
 40
0.18
 90
        1
 71
     2
340
5D
 90
       25
 62
   256
340
5D
 90
       50
 62
   256
 40
0.24
 40
0.0
 40
0.24
 71
     3
340
55
 62
   256
 40
0.24
 90
        1
 40
0.75
 90
        1
300
%<\AcVar ViewType \f "%tc1">% %<\AcVar ViewSectionStartId>%-%<\AcVar ViewSectionEndId>%\PSCALE %<\AcVar ViewScale \f "%sn">%
 71
     4
 62
   256
 62
   257
300
ANSI31
 40
1.0
 90
        0
290
     0
290
     0
 90
        6
 40
0.0
 40
1.570796326794896
 40
0.2617993877991494
 40
1.308996938995747
 40
-0.2617993877991494
 40
1.832595714594046
  0
TABLESTYLE
  5
65
102
{ACAD_XDICTIONARY
360
122
102
}
102
{ACAD_REACTORS
330
64
102
}
330
64
100
AcDbTableStyle
280
     0
  3
Standard
 70
     0
 71
     0
 40
0.06
 41
0.06
280
     0
281
     0
  7
Standard
140
0.18
170
     2
 62
     0
 63
     7
283
     0
 90
      512
 91
        0
  1

274
    -2
284
     1
 64
     0
275
    -2
285
     1
 65
     0
276
    -2
286
     1
 66
     0
277
    -2
287
     1
 67
     0
278
    -2
288
     1
 68
     0
279
    -2
289
     1
 69
     0
  7
Standard
140
0.25
170
     5
 62
     0
 63
     7
283
     0
 90
      512
 91
        0
  1

274
    -2
284
     1
 64
     0
275
    -2
285
     1
 65
     0
276
    -2
286
     1
 66
     0
277
    -2
287
     1
 67
     0
278
    -2
288
     1
 68
     0
279
    -2
289
     1
 69
     0
  7
Standard
140
0.18
170
     5
 62
     0
 63
     7
283
     0
 90
      512
 91
        0
  1

274
    -2
284
     1
 64
     0
275
    -2
285
     1
 65
     0
276
    -2
286
     1
 66
     0
277
    -2
287
     1
 67
     0
278
    -2
288
     1
 68
     0
279
    -2
289
     1
 69
     0
  0
VISUALSTYLE
  5
2F
102
{ACAD_XDICTIONARY
360
12F
102
}
102
{ACAD_REACTORS
330
29
102
}
330
29
100
AcDbVisualStyle
  2
2dWireframe
 70
     4
177
     2
291
     0
 71
     0
176
     1
 72
     2
176
     1
 73
     0
176
     1
 90
        0
176
     1
 40
0.6
176
     1
 41
30.0
176
     1
 63
     7
421
 16777215
176
     1
 74
     1
176
     1
 91
        4
176
     1
 64
     7
176
     1
 65
   257
176
     1
 75
     1
176
     1
175
     1
176
     1
 42
1.0
176
     1
 92
        0
176
     1
 66
   257
176
     1
 43
1.0
176
     1
 76
     1
176
     1
 77
     6
176
     1
 78
     2
176
     1
 67
     7
176
     1
 79
     5
176
     1
170
     0
176
     1
171
     0
176
     1
290
     0
176
     1
 93
        1
176
     1
 44
0.0
176
     1
173
     0
176
     1
1001
ACAD
1000
AcDbSavedByObjectVersion
1070
     0
  0
VISUALSTYLE
  5
2E
102
{ACAD_XDICTIONARY
360
12D
102
}
102
{ACAD_REACTORS
330
29
102
}
330
29
100
AcDbVisualStyle
  2
Basic
 70
     7
177
     2
291
     1
 71
     1
176
     1
 72
     0
176
     1
 73
     1
176
     1
 90
        0
176
     1
 40
0.6
176
     1
 41
30.0
176
     1
 63
     7
421
 16777215
176
     1
 74
     0
176
     1
 91
        4
176
     1
 64
     7
176
     1
 65
   257
176
     1
 75
     1
176
     1
175
     1
176
     1
 42
1.0
176
     1
 92
        8
176
     1
 66
     7
176
     1
 43
1.0
176
     1
 76
     1
176
     1
 77
     6
176
     1
 78
     2
176
     1
 67
     7
176
     1
 79
     5
176
     1
170
     0
176
     1
171
     0
176
     1
290
     0
176
     1
 93
        1
176
     1
 44
0.0
176
     1
173
     0
176
     1
1001
ACAD
1000
AcDbSavedByObjectVersion
1070
     0
  0
VISUALSTYLE
  5
35
102
{ACAD_XDICTIONARY
360
13B
102
}
102
{ACAD_REACTORS
330
29
102
}
330
29
100
AcDbVisualStyle
  2
Brighten
 70
    12
177
     2
291
     1
 71
     2
176
     1
 72
     2
176
     1
 73
     0
176
     1
 90
        0
176
     1
 40
0.6
176
     1
 41
30.0
176
     1
 63
     7
421
 16777215
176
     1
 74
     1
176
     1
 91
        4
176
     1
 64
     7
176
     1
 65
   257
176
     1
 75
     1
176
     1
175
     1
176
     1
 42
1.0
176
     1
 92
        8
176
     1
 66
     7
176
     1
 43
1.0
176
     1
 76
     1
176
     1
 77
     6
176
     1
 78
     2
176
     1
 67
     7
176
     1
 79
     5
176
     1
170
     0
176
     1
171
     0
176
     1
290
     0
176
     1
 93
        1
176
     1
 44
50.0
176
     1
173
     0
176
     1
1001
ACAD
1000
AcDbSavedByObjectVersion
1070
     0
  0
VISUALSTYLE
  5
39
102
{ACAD_XDICTIONARY
360
143
102
}
102
{ACAD_REACTORS
330
29
102
}
330
29
100
AcDbVisualStyle
  2
ColorChange
 70
    16
177
     2
291
     1
 71
     2
176
     1
 72
     2
176
     1
 73
     3
176
     1
 90
        0
176
     1
 40
0.6
176
     1
 41
30.0
176
     1
 63
     8
421
  8421504
176
     1
 74
     1
176
     1
 91
        4
176
     1
 64
     7
176
     1
 65
   257
176
     1
 75
     1
176
     1
175
     1
176
     1
 42
1.0
176
     1
 92
        8
176
     1
 66
     8
424
  8421504
176
     1
 43
1.0
176
     1
 76
     1
176
     1
 77
     6
176
     1
 78
     2
176
     1
 67
     7
176
     1
 79
     5
176
     1
170
     0
176
     1
171
     0
176
     1
290
     0
176
     1
 93
        1
176
     1
 44
0.0
176
     1
173
     0
176
     1
1001
ACAD
1000
AcDbSavedByObjectVersion
1070
     0
  0
VISUALSTYLE
  5
32
102
{ACAD_XDICTIONARY
360
135
102
}
102
{ACAD_REACTORS
330
29
102
}
330
29
100
AcDbVisualStyle
  2
Conceptual
 70
     9
177
     2
291
     0
 71
     3
176
     1
 72
     2
176
     1
 73
     0
176
     1
 90
        0
176
     1
 40
0.6
176
     1
 41
30.0
176
     1
 63
     7
421
 16777215
176
     1
 74
     2
176
     1
 91
        2
176
     1
 64
     7
176
     1
 65
   257
176
     1
 75
     1
176
     1
175
     1
176
     1
 42
179.0
176
     1
 92
        8
176
     1
 66
     7
176
     1
 43
1.0
176
     1
 76
     1
176
     1
 77
     6
176
     1
 78
     2
176
     1
 67
     7
176
     1
 79
     3
176
     1
170
     0
176
     1
171
     0
176
     1
290
     0
176
     1
 93
        1
176
     1
 44
0.0
176
     1
173
     0
176
     1
1001
ACAD
1000
AcDbSavedByObjectVersion
1070
     0
  0
VISUALSTYLE
  5
34
102
{ACAD_XDICTIONARY
360
139
102
}
102
{ACAD_REACTORS
330
29
102
}
330
29
100
AcDbVisualStyle
  2
Dim
 70
    11
177
     2
291
     1
 71
     2
176
     1
 72
     2
176
     1
 73
     0
176
     1
 90
        0
176
     1
 40
0.6
176
     1
 41
30.0
176
     1
 63
     7
421
 16777215
176
     1
 74
     1
176
     1
 91
        4
176
     1
 64
     7
176
     1
 65
   257
176
     1
 75
     1
176
     1
175
     1
176
     1
 42
1.0
176
     1
 92
        8
176
     1
 66
     7
176
     1
 43
1.0
176
     1
 76
     1
176
     1
 77
     6
176
     1
 78
     2
176
     1
 67
     7
176
     1
 79
     5
176
     1
170
     0
176
     1
171
     0
176
     1
290
     0
176
     1
 93
        1
176
     1
 44
-50.0
176
     1
173
     0
176
     1
1001
ACAD
1000
AcDbSavedByObjectVersion
1070
     0
  0
VISUALSTYLE
  5
41
102
{ACAD_XDICTIONARY
360
153
102
}
102
{ACAD_REACTORS
330
29
102
}
330
29
100
AcDbVisualStyle
  2
EdgeColorOff
 70
    22
177
     2
291
     1
 71
     2
176
     0
 72
     2
176
     0
 73
     0
176
     0
 90
        0
176
     0
 40
0.6
176
     0
 41
30.0
176
     0
 63
     7
421
 16777215
176
     0
 74
     1
176
     0
 91
        4
176
     0
 64
     7
176
     0
 65
   257
176
     0
 75
     1
176
     0
175
     1
176
     0
 42
1.0
176
     0
 92
        8
176
     2
 66
     7
176
     0
 43
1.0
176
     0
 76
     1
176
     0
 77
     6
176
     0
 78
     2
176
     0
 67
     7
176
     0
 79
     5
176
     0
170
     0
176
     0
171
     0
176
     0
290
     0
176
     0
 93
        1
176
     0
 44
0.0
176
     0
173
     0
176
     0
1001
ACAD
1000
AcDbSavedByObjectVersion
1070
     0
  0
VISUALSTYLE
  5
38
102
{ACAD_XDICTIONARY
360
141
102
}
102
{ACAD_REACTORS
330
29
102
}
330
29
100
AcDbVisualStyle
  2
Facepattern
 70
    15
177
     2
291
     1
 71
     2
176
     1
 72
     2
176
     1
 73
     0
176
     1
 90
        0
176
     1
 40
0.6
176
     1
 41
30.0
176
     1
 63
     7
421
 16777215
176
     1
 74
     1
176
     1
 91
        4
176
     1
 64
     7
176
     1
 65
   257
176
     1
 75
     1
176
     1
175
     1
176
     1
 42
1.0
176
     1
 92
        8
176
     1
 66
     7
176
     1
 43
1.0
176
     1
 76
     1
176
     1
 77
     6
176
     1
 78
     2
176
     1
 67
     7
176
     1
 79
     5
176
     1
170
     0
176
     1
171
     0
176
     1
290
     0
176
     1
 93
        1
176
     1
 44
0.0
176
     1
173
     0
176
     1
1001
ACAD
1000
AcDbSavedByObjectVersion
1070
     0
  0
VISUALSTYLE
  5
2A
102
{ACAD_XDICTIONARY
360
125
102
}
102
{ACAD_REACTORS
330
29
102
}
330
29
100
AcDbVisualStyle
  2
Flat
 70
     0
177
     2
291
     1
 71
     2
176
     1
 72
     1
176
     1
 73
     1
176
     1
 90
        2
176
     1
 40
0.6
176
     1
 41
30.0
176
     1
 63
     7
421
 16777215
176
     1
 74
     0
176
     1
 91
        0
176
     1
 64
     7
176
     1
 65
   257
176
     1
 75
     1
176
     1
175
     1
176
     1
 42
1.0
176
     1
 92
        8
176
     1
 66
     7
176
     1
 43
1.0
176
     1
 76
     1
176
     1
 77
     6
176
     1
 78
     2
176
     1
 67
     7
176
     1
 79
     5
176
     1
170
     0
176
     1
171
     0
176
     1
290
     0
176
     1
 93
       13
176
     1
 44
0.0
176
     1
173
     0
176
     1
1001
ACAD
1000
AcDbSavedByObjectVersion
1070
     0
  0
VISUALSTYLE
  5
2B
102
{ACAD_XDICTIONARY
360
127
102
}
102
{ACAD_REACTORS
330
29
102
}
330
29
100
AcDbVisualStyle
  2
FlatWithEdges
 70
     1
177
     2
291
     1
 71
     2
176
     1
 72
     1
176
     1
 73
     1
176
     1
 90
        2
176
     1
 40
0.6
176
     1
 41
30.0
176
     1
 63
     7
421
 16777215
176
     1
 74
     1
176
     1
 91
        0
176
     1
 64
     7
176
     1
 65
   257
176
     1
 75
     1
176
     1
175
     1
176
     1
 42
1.0
176
     1
 92
        0
176
     1
 66
   257
176
     1
 43
1.0
176
     1
 76
     1
176
     1
 77
     6
176
     1
 78
     2
176
     1
 67
     7
176
     1
 79
     5
176
     1
170
     0
176
     1
171
     0
176
     1
290
     0
176
     1
 93
       13
176
     1
 44
0.0
176
     1
173
     0
176
     1
1001
ACAD
1000
AcDbSavedByObjectVersion
1070
     0
  0
VISUALSTYLE
  5
2C
102
{ACAD_XDICTIONARY
360
129
102
}
102
{ACAD_REACTORS
330
29
102
}
330
29
100
AcDbVisualStyle
  2
Gouraud
 70
     2
177
     2
291
     1
 71
     2
176
     1
 72
     2
176
     1
 73
     1
176
     1
 90
        2
176
     1
 40
0.6
176
     1
 41
30.0
176
     1
 63
     7
421
 16777215
176
     1
 74
     0
176
     1
 91
        0
176
     1
 64
     7
176
     1
 65
   257
176
     1
 75
     1
176
     1
175
     1
176
     1
 42
1.0
176
     1
 92
        0
176
     1
 66
     7
176
     1
 43
1.0
176
     1
 76
     1
176
     1
 77
     6
176
     1
 78
     2
176
     1
 67
     7
176
     1
 79
     5
176
     1
170
     0
176
     1
171
     0
176
     1
290
     0
176
     1
 93
       13
176
     1
 44
0.0
176
     1
173
     0
176
     1
1001
ACAD
1000
AcDbSavedByObjectVersion
1070
     0
  0
VISUALSTYLE
  5
2D
102
{ACAD_XDICTIONARY
360
12B
102
}
102
{ACAD_REACTORS
330
29
102
}
330
29
100
AcDbVisualStyle
  2
GouraudWithEdges
 70
     3
177
     2
291
     1
 71
     2
176
     1
 72
     2
176
     1
 73
     1
176
     1
 90
        2
176
     1
 40
0.6
176
     1
 41
30.0
176
     1
 63
     7
421
 16777215
176
     1
 74
     1
176
     1
 91
        0
176
     1
 64
     7
176
     1
 65
   257
176
     1
 75
     1
176
     1
175
     1
176
     1
 42
1.0
176
     1
 92
        0
176
     1
 66
   257
176
     1
 43
1.0
176
     1
 76
     1
176
     1
 77
     6
176
     1
 78
     2
176
     1
 67
     7
176
     1
 79
     5
176
     1
170
     0
176
     1
171
     0
176
     1
290
     0
176
     1
 93
       13
176
     1
 44
0.0
176
     1
173
     0
176
     1
1001
ACAD
1000
AcDbSavedByObjectVersion
1070
     0
  0
VISUALSTYLE
  5
31
102
{ACAD_XDICTIONARY
360
133
102
}
102
{ACAD_REACTORS
330
29
102
}
330
29
100
AcDbVisualStyle
  2
Hidden
 70
     6
177
     2
291
     0
 71
     1
176
     1
 72
     2
176
     1
 73
     2
176
     1
 90
        0
176
     1
 40
0.6
176
     1
 41
30.0
176
     1
 63
     7
421
 16777215
176
     1
 74
     2
176
     1
 91
        2
176
     1
 64
     7
176
     1
 65
   257
176
     1
 75
     2
176
     1
175
     1
176
     1
 42
40.0
176
     1
 92
        0
176
     1
 66
   257
176
     1
 43
1.0
176
     1
 76
     1
176
     1
 77
     6
176
     1
 78
     2
176
     1
 67
     7
176
     1
 79
     3
176
     1
170
     0
176
     1
171
     0
176
     1
290
     0
176
     1
 93
        1
176
     1
 44
0.0
176
     1
173
     0
176
     1
1001
ACAD
1000
AcDbSavedByObjectVersion
1070
     0
  0
VISUALSTYLE
  5
3F
102
{ACAD_XDICTIONARY
360
14F
102
}
102
{ACAD_REACTORS
330
29
102
}
330
29
100
AcDbVisualStyle
  2
JitterOff
 70
    20
177
     2
291
     1
 71
     2
176
     0
 72
     2
176
     0
 73
     0
176
     0
 90
        0
176
     0
 40
0.6
176
     0
 41
30.0
176
     0
 63
     7
421
 16777215
176
     0
 74
     1
176
     0
 91
        4
176
     0
 64
     7
176
     0
 65
   257
176
     0
 75
     1
176
     0
175
     1
176
     0
 42
1.0
176
     0
 92
       10
176
     2
 66
     7
176
     0
 43
1.0
176
     0
 76
     1
176
     0
 77
     6
176
     0
 78
     2
176
     0
 67
     7
176
     0
 79
     5
176
     0
170
     0
176
     0
171
     0
176
     0
290
     0
176
     0
 93
        1
176
     0
 44
0.0
176
     0
173
     0
176
     0
1001
ACAD
1000
AcDbSavedByObjectVersion
1070
     0
  0
VISUALSTYLE
  5
37
102
{ACAD_XDICTIONARY
360
13F
102
}
102
{ACAD_REACTORS
330
29
102
}
330
29
100
AcDbVisualStyle
  2
Linepattern
 70
    14
177
     2
291
     1
 71
     2
176
     1
 72
     2
176
     1
 73
     0
176
     1
 90
        0
176
     1
 40
0.6
176
     1
 41
30.0
176
     1
 63
     7
421
 16777215
176
     1
 74
     1
176
     1
 91
        4
176
     1
 64
     7
176
     1
 65
   257
176
     1
 75
     7
176
     1
175
     7
176
     1
 42
1.0
176
     1
 92
        8
176
     1
 66
     7
176
     1
 43
1.0
176
     1
 76
     1
176
     1
 77
     6
176
     1
 78
     2
176
     1
 67
     7
176
     1
 79
     5
176
     1
170
     0
176
     1
171
     0
176
     1
290
     0
176
     1
 93
        1
176
     1
 44
0.0
176
     1
173
     0
176
     1
1001
ACAD
1000
AcDbSavedByObjectVersion
1070
     0
  0
VISUALSTYLE
  5
40
102
{ACAD_XDICTIONARY
360
151
102
}
102
{ACAD_REACTORS
330
29
102
}
330
29
100
AcDbVisualStyle
  2
OverhangOff
 70
    21
177
     2
291
     1
 71
     2
176
     0
 72
     2
176
     0
 73
     0
176
     0
 90
        0
176
     0
 40
0.6
176
     0
 41
30.0
176
     0
 63
     7
421
 16777215
176
     0
 74
     1
176
     0
 91
        4
176
     0
 64
     7
176
     0
 65
   257
176
     0
 75
     1
176
     0
175
     1
176
     0
 42
1.0
176
     0
 92
        9
176
     2
 66
     7
176
     0
 43
1.0
176
     0
 76
     1
176
     0
 77
     6
176
     0
 78
     2
176
     0
 67
     7
176
     0
 79
     5
176
     0
170
     0
176
     0
171
     0
176
     0
290
     0
176
     0
 93
        1
176
     0
 44
0.0
176
     0
173
     0
176
     0
1001
ACAD
1000
AcDbSavedByObjectVersion
1070
     0
  0
VISUALSTYLE
  5
33
102
{ACAD_XDICTIONARY
360
137
102
}
102
{ACAD_REACTORS
330
29
102
}
330
29
100
AcDbVisualStyle
  2
Realistic
 70
     8
177
     2
291
     0
 71
     2
176
     1
 72
     3
176
     1
 73
     0
176
     1
 90
        2
176
     1
 40
0.6
176
     1
 41
30.0
176
     1
 63
     7
421
 16777215
176
     1
 74
     0
176
     1
 91
        0
176
     1
 64
     7
176
     1
 65
   257
176
     1
 75
     1
176
     1
175
     1
176
     1
 42
1.0
176
     1
 92
        8
176
     1
 66
   257
176
     1
 43
1.0
176
     1
 76
     1
176
     1
 77
     6
176
     1
 78
     2
176
     1
 67
     7
176
     1
 79
     3
176
     1
170
     0
176
     1
171
     0
176
     1
290
     0
176
     1
 93
       13
176
     1
 44
0.0
176
     1
173
     0
176
     1
1001
ACAD
1000
AcDbSavedByObjectVersion
1070
     0
  0
VISUALSTYLE
  5
3E
102
{ACAD_XDICTIONARY
360
14D
102
}
102
{ACAD_REACTORS
330
29
102
}
330
29
100
AcDbVisualStyle
  2
Shaded
 70
    27
177
     2
291
     0
 71
     2
176
     1
 72
     2
176
     1
 73
     1
176
     1
 90
        2
176
     1
 40
0.6
176
     1
 41
30.0
176
     1
 63
     7
421
 16777215
176
     1
 74
     0
176
     1
 91
        4
176
     1
 64
     7
176
     1
 65
   257
176
     1
 75
     1
176
     1
175
     1
176
     1
 42
1.0
176
     1
 92
        8
176
     1
 66
   257
176
     1
 43
1.0
176
     1
 76
     1
176
     1
 77
     6
176
     1
 78
     2
176
     1
 67
     8
425
  7895160
176
     1
 79
     3
176
     1
170
     0
176
     1
171
     0
176
     1
290
     0
176
     1
 93
        5
176
     1
 44
0.0
176
     1
173
     0
176
     1
1001
ACAD
1000
AcDbSavedByObjectVersion
1070
     0
  0
VISUALSTYLE
  5
3D
102
{ACAD_XDICTIONARY
360
14B
102
}
102
{ACAD_REACTORS
330
29
102
}
330
29
100
AcDbVisualStyle
  2
Shaded with edges
 70
    26
177
     2
291
     0
 71
     2
176
     1
 72
     2
176
     1
 73
     1
176
     1
 90
        2
176
     1
 40
0.6
176
     1
 41
30.0
176
     1
 63
     7
421
 16777215
176
     1
 74
     1
176
     1
 91
        2
176
     1
 64
     7
176
     1
 65
   257
176
     1
 75
     2
176
     1
175
     1
176
     1
 42
1.0
176
     1
 92
        8
176
     1
 66
   257
176
     1
 43
1.0
176
     1
 76
     1
176
     1
 77
     6
176
     1
 78
     2
176
     1
 67
     7
176
     1
 79
     3
176
     1
170
     0
176
     1
171
     0
176
     1
290
     0
176
     1
 93
        5
176
     1
 44
0.0
176
     1
173
     0
176
     1
1001
ACAD
1000
AcDbSavedByObjectVersion
1070
     0
  0
VISUALSTYLE
  5
3A
102
{ACAD_XDICTIONARY
360
145
102
}
102
{ACAD_REACTORS
330
29
102
}
330
29
100
AcDbVisualStyle
  2
Shades of Gray
 70
    23
177
     2
291
     0
 71
     2
176
     1
 72
     2
176
     1
 73
     3
176
     1
 90
        0
176
     1
 40
0.6
176
     1
 41
30.0
176
     1
 63
     7
421
 16777215
176
     1
 74
     2
176
     1
 91
        2
176
     1
 64
     7
176
     1
 65
     7
176
     1
 75
     1
176
     1
175
     1
176
     1
 42
40.0
176
     1
 92
        8
176
     1
 66
     7
176
     1
 43
1.0
176
     1
 76
     1
176
     1
 77
     6
176
     1
 78
     2
176
     1
 67
     7
176
     1
 79
     3
176
     1
170
     0
176
     1
171
     0
176
     1
290
     0
176
     1
 93
        1
176
     1
 44
0.0
176
     1
173
     0
176
     1
1001
ACAD
1000
AcDbSavedByObjectVersion
1070
     0
  0
VISUALSTYLE
  5
3B
102
{ACAD_XDICTIONARY
360
147
102
}
102
{ACAD_REACTORS
330
29
102
}
330
29
100
AcDbVisualStyle
  2
Sketchy
 70
    24
177
     2
291
     0
 71
     1
176
     1
 72
     2
176
     1
 73
     2
176
     1
 90
        0
176
     1
 40
0.6
176
     1
 41
30.0
176
     1
 63
     7
421
 16777215
176
     1
 74
     2
176
     1
 91
        2
176
     1
 64
     7
176
     1
 65
     7
176
     1
 75
     1
176
     1
175
     1
176
     1
 42
40.0
176
     1
 92
       11
176
     1
 66
     7
176
     1
 43
1.0
176
     1
 76
     1
176
     1
 77
     6
176
     1
 78
     2
176
     1
 67
     7
176
     1
 79
     6
176
     1
170
     0
176
     1
171
     0
176
     1
290
     0
176
     1
 93
        1
176
     1
 44
0.0
176
     1
173
     0
176
     1
1001
ACAD
1000
AcDbSavedByObjectVersion
1070
     0
  0
VISUALSTYLE
  5
36
102
{ACAD_XDICTIONARY
360
13D
102
}
102
{ACAD_REACTORS
330
29
102
}
330
29
100
AcDbVisualStyle
  2
Thicken
 70
    13
177
     2
291
     1
 71
     2
176
     1
 72
     2
176
     1
 73
     0
176
     1
 90
        0
176
     1
 40
0.6
176
     1
 41
30.0
176
     1
 63
     7
421
 16777215
176
     1
 74
     1
176
     1
 91
        4
176
     1
 64
     7
176
     1
 65
   257
176
     1
 75
     1
176
     1
175
     1
176
     1
 42
1.0
176
     1
 92
       12
176
     1
 66
     7
176
     1
 43
1.0
176
     1
 76
     1
176
     1
 77
     6
176
     1
 78
     2
176
     1
 67
     7
176
     1
 79
     5
176
     1
170
     0
176
     1
171
     0
176
     1
290
     0
176
     1
 93
        1
176
     1
 44
0.0
176
     1
173
     0
176
     1
1001
ACAD
1000
AcDbSavedByObjectVersion
1070
     0
  0
VISUALSTYLE
  5
30
102
{ACAD_XDICTIONARY
360
131
102
}
102
{ACAD_REACTORS
330
29
102
}
330
29
100
AcDbVisualStyle
  2
Wireframe
 70
     5
177
     2
291
     0
 71
     0
176
     1
 72
     2
176
     1
 73
     0
176
     1
 90
        0
176
     1
 40
0.6
176
     1
 41
30.0
176
     1
 63
     7
421
 16777215
176
     1
 74
     1
176
     1
 91
        4
176
     1
 64
     7
176
     1
 65
   257
176
     1
 75
     1
176
     1
175
     1
176
     1
 42
1.0
176
     1
 92
        0
176
     1
 66
   257
176
     1
 43
1.0
176
     1
 76
     1
176
     1
 77
     6
176
     1
 78
     2
176
     1
 67
     7
176
     1
 79
     3
176
     1
170
     0
176
     1
171
     0
176
     1
290
     0
176
     1
 93
        1
176
     1
 44
0.0
176
     1
173
     0
176
     1
1001
ACAD
1000
AcDbSavedByObjectVersion
1070
     0
  0
VISUALSTYLE
  5
3C
102
{ACAD_XDICTIONARY
360
149
102
}
102
{ACAD_REACTORS
330
29
102
}
330
29
100
AcDbVisualStyle
  2
X-Ray
 70
    25
177
     2
291
     0
 71
     2
176
     1
 72
     2
176
     1
 73
     1
176
     1
 90
        1
176
     1
 40
0.5
176
     1
 41
30.0
176
     1
 63
     7
421
 16777215
176
     1
 74
     1
176
     1
 91
        0
176
     1
 64
     7
176
     1
 65
   257
176
     1
 75
     1
176
     1
175
     1
176
     1
 42
1.0
176
     1
 92
        8
176
     1
 66
     7
176
     1
 43
1.0
176
     1
 76
     1
176
     1
 77
     6
176
     1
 78
     2
176
     1
 67
     7
176
     1
 79
     3
176
     1
170
     0
176
     1
171
     0
176
     1
290
     0
176
     1
 93
       13
176
     1
 44
0.0
176
     1
173
     0
176
     1
1001
ACAD
1000
AcDbSavedByObjectVersion
1070
     0
  0
DICTIONARYVAR
  5
121
102
{ACAD_REACTORS
330
11C
102
}
330
11C
100
DictionaryVariables
280
     0
  1
1:1
  0
DICTIONARYVAR
  5
11E
102
{ACAD_REACTORS
330
11C
102
}
330
11C
100
DictionaryVariables
280
     0
  1
STANDARD
  0
DICTIONARYVAR
  5
11D
102
{ACAD_REACTORS
330
11C
102
}
330
11C
100
DictionaryVariables
280
     0
  1
STANDARD
  0
DICTIONARYVAR
  5
11F
102
{ACAD_REACTORS
330
11C
102
}
330
11C
100
DictionaryVariables
280
     0
  1
Imperial24
  0
DICTIONARYVAR
  5
120
102
{ACAD_REACTORS
330
11C
102
}
330
11C
100
DictionaryVariables
280
     0
  1
Imperial24
  0
DICTIONARY
  5
159
330
6B
100
AcDbDictionary
280
     1
281
     1
  3
ACAD_XREC_ROUNDTRIP
360
15A
  0
DICTIONARY
  5
1A
330
19
100
AcDbDictionary
280
     1
281
     1
  3
BUMPTILE
360
1C
  3
DIFFUSETILE
360
1B
  3
OPACITYTILE
360
1F
  3
REFLECTIONTILE
360
1E
  3
REFRACTIONTILE
360
20
  3
SPECULARTILE
360
1D
  0
DICTIONARY
  5
12
330
11
100
AcDbDictionary
280
     1
281
     1
  3
BUMPTILE
360
14
  3
DIFFUSETILE
360
13
  3
OPACITYTILE
360
17
  3
REFLECTIONTILE
360
16
  3
REFRACTIONTILE
360
18
  3
SPECULARTILE
360
15
  0
DICTIONARY
  5
22
330
21
100
AcDbDictionary
280
     1
281
     1
  3
BUMPTILE
360
24
  3
DIFFUSETILE
360
23
  3
OPACITYTILE
360
27
  3
REFLECTIONTILE
360
26
  3
REFRACTIONTILE
360
28
  3
SPECULARTILE
360
25
  0
DICTIONARY
  5
155
330
67
100
AcDbDictionary
280
     1
281
     1
  3
ACAD_XREC_ROUNDTRIP
360
156
  0
DICTIONARY
  5
157
330
69
100
AcDbDictionary
280
     1
281
     1
  3
ACAD_XREC_ROUNDTRIP
360
158
  0
DICTIONARY
  5
122
330
65
100
AcDbDictionary
280
     1
281
     1
  3
ACAD_ROUNDTRIP_2008_TABLESTYLE_CELLSTYLEMAP
360
123
  0
DICTIONARY
  5
12F
330
2F
100
AcDbDictionary
280
     1
281
     1
  3
ACAD_XREC_ROUNDTRIP
360
130
  0
DICTIONARY
  5
12D
330
2E
100
AcDbDictionary
280
     1
281
     1
  3
ACAD_XREC_ROUNDTRIP
360
12E
  0
DICTIONARY
  5
13B
330
35
100
AcDbDictionary
280
     1
281
     1
  3
ACAD_XREC_ROUNDTRIP
360
13C
  0
DICTIONARY
  5
143
330
39
100
AcDbDictionary
280
     1
281
     1
  3
ACAD_XREC_ROUNDTRIP
360
144
  0
DICTIONARY
  5
135
330
32
100
AcDbDictionary
280
     1
281
     1
  3
ACAD_XREC_ROUNDTRIP
360
136
  0
DICTIONARY
  5
139
330
34
100
AcDbDictionary
280
     1
281
     1
  3
ACAD_XREC_ROUNDTRIP
360
13A
  0
DICTIONARY
  5
153
330
41
100
AcDbDictionary
280
     1
281
     1
  3
ACAD_XREC_ROUNDTRIP
360
154
  0
DICTIONARY
  5
141
330
38
100
AcDbDictionary
280
     1
281
     1
  3
ACAD_XREC_ROUNDTRIP
360
142
  0
DICTIONARY
  5
125
330
2A
100
AcDbDictionary
280
     1
281
     1
  3
ACAD_XREC_ROUNDTRIP
360
126
  0
DICTIONARY
  5
127
330
2B
100
AcDbDictionary
280
     1
281
     1
  3
ACAD_XREC_ROUNDTRIP
360
128
  0
DICTIONARY
  5
129
330
2C
100
AcDbDictionary
280
     1
281
     1
  3
ACAD_XREC_ROUNDTRIP
360
12A
  0
DICTIONARY
  5
12B
330
2D
100
AcDbDictionary
280
     1
281
     1
  3
ACAD_XREC_ROUNDTRIP
360
12C
  0
DICTIONARY
  5
133
330
31
100
AcDbDictionary
280
     1
281
     1
  3
ACAD_XREC_ROUNDTRIP
360
134
  0
DICTIONARY
  5
14F
330
3F
100
AcDbDictionary
280
     1
281
     1
  3
ACAD_XREC_ROUNDTRIP
360
150
  0
DICTIONARY
  5
13F
330
37
100
AcDbDictionary
280
     1
281
     1
  3
ACAD_XREC_ROUNDTRIP
360
140
  0
DICTIONARY
  5
151
330
40
100
AcDbDictionary
280
     1
281
     1
  3
ACAD_XREC_ROUNDTRIP
360
152
  0
DICTIONARY
  5
137
330
33
100
AcDbDictionary
280
     1
281
     1
  3
ACAD_XREC_ROUNDTRIP
360
138
  0
DICTIONARY
  5
14D
330
3E
100
AcDbDictionary
280
     1
281
     1
  3
ACAD_XREC_ROUNDTRIP
360
14E
  0
DICTIONARY
  5
14B
330
3D
100
AcDbDictionary
280
     1
281
     1
  3
ACAD_XREC_ROUNDTRIP
360
14C
  0
DICTIONARY
  5
145
330
3A
100
AcDbDictionary
280
     1
281
     1
  3
ACAD_XREC_ROUNDTRIP
360
146
  0
DICTIONARY
  5
147
330
3B
100
AcDbDictionary
280
     1
281
     1
  3
ACAD_XREC_ROUNDTRIP
360
148
  0
DICTIONARY
  5
13D
330
36
100
AcDbDictionary
280
     1
281
     1
  3
ACAD_XREC_ROUNDTRIP
360
13E
  0
DICTIONARY
  5
131
330
30
100
AcDbDictionary
280
     1
281
     1
  3
ACAD_XREC_ROUNDTRIP
360
132
  0
DICTIONARY
  5
149
330
3C
100
AcDbDictionary
280
     1
281
     1
  3
ACAD_XREC_ROUNDTRIP
360
14A
  0
XRECORD
  5
15A
102
{ACAD_REACTORS
330
159
102
}
330
159
100
AcDbXrecord
280
     1
102
DISPLAYNAME
  1
Imperial24
102
FLAGS
 90
        0
  0
XRECORD
  5
1C
102
{ACAD_REACTORS
330
1A
102
}
330
1A
100
AcDbXrecord
280
     1
270
     1
271
     1
  0
XRECORD
  5
1B
102
{ACAD_REACTORS
330
1A
102
}
330
1A
100
AcDbXrecord
280
     1
270
     1
271
     1
  0
XRECORD
  5
1F
102
{ACAD_REACTORS
330
1A
102
}
330
1A
100
AcDbXrecord
280
     1
270
     1
271
     1
  0
XRECORD
  5
1E
102
{ACAD_REACTORS
330
1A
102
}
330
1A
100
AcDbXrecord
280
     1
270
     1
271
     1
  0
XRECORD
  5
20
102
{ACAD_REACTORS
330
1A
102
}
330
1A
100
AcDbXrecord
280
     1
270
     1
271
     1
  0
XRECORD
  5
1D
102
{ACAD_REACTORS
330
1A
102
}
330
1A
100
AcDbXrecord
280
     1
270
     1
271
     1
  0
XRECORD
  5
14
102
{ACAD_REACTORS
330
12
102
}
330
12
100
AcDbXrecord
280
     1
270
     1
271
     1
  0
XRECORD
  5
13
102
{ACAD_REACTORS
330
12
102
}
330
12
100
AcDbXrecord
280
     1
270
     1
271
     1
  0
XRECORD
  5
17
102
{ACAD_REACTORS
330
12
102
}
330
12
100
AcDbXrecord
280
     1
270
     1
271
     1
  0
XRECORD
  5
16
102
{ACAD_REACTORS
330
12
102
}
330
12
100
AcDbXrecord
280
     1
270
     1
271
     1
  0
XRECORD
  5
18
102
{ACAD_REACTORS
330
12
102
}
330
12
100
AcDbXrecord
280
     1
270
     1
271
     1
  0
XRECORD
  5
15
102
{ACAD_REACTORS
330
12
102
}
330
12
100
AcDbXrecord
280
     1
270
     1
271
     1
  0
XRECORD
  5
24
102
{ACAD_REACTORS
330
22
102
}
330
22
100
AcDbXrecord
280
     1
270
     1
271
     1
  0
XRECORD
  5
23
102
{ACAD_REACTORS
330
22
102
}
330
22
100
AcDbXrecord
280
     1
270
     1
271
     1
  0
XRECORD
  5
27
102
{ACAD_REACTORS
330
22
102
}
330
22
100
AcDbXrecord
280
     1
270
     1
271
     1
  0
XRECORD
  5
26
102
{ACAD_REACTORS
330
22
102
}
330
22
100
AcDbXrecord
280
     1
270
     1
271
     1
  0
XRECORD
  5
28
102
{ACAD_REACTORS
330
22
102
}
330
22
100
AcDbXrecord
280
     1
270
     1
271
     1
  0
XRECORD
  5
25
102
{ACAD_REACTORS
330
22
102
}
330
22
100
AcDbXrecord
280
     1
270
     1
271
     1
  0
XRECORD
  5
156
102
{ACAD_REACTORS
330
155
102
}
330
155
100
AcDbXrecord
280
     1
102
ACAD_ROUNDTRIP_2012_MLEADER_STYLE
298
     1
  0
XRECORD
  5
158
102
{ACAD_REACTORS
330
157
102
}
330
157
100
AcDbXrecord
280
     1
102
DISPLAYNAME
  1
Imperial24
102
FLAGS
 90
        0
  0
CELLSTYLEMAP
  5
123
102
{ACAD_REACTORS
330
122
102
}
330
122
100
AcDbCellStyleMap
 90
        3
300
CELLSTYLE
  1
TABLEFORMAT_BEGIN
 90
        5
170
     1
 91
        0
 92
    32768
 62
   257
 93
        1
300
CONTENTFORMAT
  1
CONTENTFORMAT_BEGIN
 90
        0
 91
        0
 92
      512
 93
        0
300

 40
0.0
140
1.0
 94
        5
 62
     0
340
55
144
0.25
309
CONTENTFORMAT_END
171
     0
 94
        0
309
TABLEFORMAT_END
  1
CELLSTYLE_BEGIN
 90
        1
 91
        1
300
_TITLE
309
CELLSTYLE_END
300
CELLSTYLE
  1
TABLEFORMAT_BEGIN
 90
        5
170
     1
 91
        0
 92
        0
 62
   257
 93
        1
300
CONTENTFORMAT
  1
CONTENTFORMAT_BEGIN
 90
        0
 91
        0
 92
      512
 93
        0
300

 40
0.0
140
1.0
 94
        5
 62
     0
340
55
144
0.18
309
CONTENTFORMAT_END
171
     0
 94
        0
309
TABLEFORMAT_END
  1
CELLSTYLE_BEGIN
 90
        2
 91
        1
300
_HEADER
309
CELLSTYLE_END
300
CELLSTYLE
  1
TABLEFORMAT_BEGIN
 90
        5
170
     1
 91
        0
 92
        0
 62
   257
 93
        1
300
CONTENTFORMAT
  1
CONTENTFORMAT_BEGIN
 90
        0
 91
        0
 92
      512
 93
        0
300

 40
0.0
140
1.0
 94
        2
 62
     0
340
55
144
0.18
309
CONTENTFORMAT_END
171
     0
 94
        0
309
TABLEFORMAT_END
  1
CELLSTYLE_BEGIN
 90
        3
 91
        2
300
_DATA
309
CELLSTYLE_END
  0
XRECORD
  5
130
102
{ACAD_REACTORS
330
12F
102
}
330
12F
100
AcDbXrecord
280
     1
102
RTVSPost2010Prop28
280
     1
102
RTVSPost2010PropOp28
 70
     1
102
RTVSPost2010Prop29
280
     1
102
RTVSPost2010PropOp29
 70
     1
102
RTVSPost2010Prop30
280
     0
102
RTVSPost2010PropOp30
 70
     1
102
RTVSPost2010Prop31
280
     0
102
RTVSPost2010PropOp31
 70
     1
102
RTVSPost2010Prop32
280
     0
102
RTVSPost2010PropOp32
 70
     1
102
RTVSPost2010Prop33
280
     0
102
RTVSPost2010PropOp33
 70
     1
102
RTVSPost2010Prop34
280
     0
102
RTVSPost2010PropOp34
 70
     1
102
RTVSPost2010Prop35
280
     0
102
RTVSPost2010PropOp35
 70
     1
102
RTVSPost2010Prop36
280
     0
102
RTVSPost2010PropOp36
 70
     1
102
RTVSPost2010Prop37
 90
       50
102
RTVSPost2010PropOp37
 70
     1
102
RTVSPost2010Prop38
140
0.0
102
RTVSPost2010PropOp38
 70
     1
102
RTVSPost2010Prop39
140
1.0
102
RTVSPost2010PropOp39
 70
     1
102
RTVSPost2010Prop40
 90
        0
102
RTVSPost2010PropOp40
 70
     1
102
RTVSPost2010Prop41ColorIndex
 90
       18
102
RTVSPost2010Prop41ColorRGB
 90
        0
102
RTVSPost2010PropOp41
 70
     1
102
RTVSPost2010Prop42
 90
       50
102
RTVSPost2010PropOp42
 70
     1
102
RTVSPost2010Prop43
 90
        3
102
RTVSPost2010PropOp43
 70
     1
102
RTVSPost2010Prop44ColorIndex
 90
        5
102
RTVSPost2010Prop44ColorRGB
 90
      255
102
RTVSPost2010PropOp44
 70
     1
102
RTVSPost2010Prop45
280
     0
102
RTVSPost2010PropOp45
 70
     1
102
RTVSPost2010Prop46
 90
       50
102
RTVSPost2010PropOp46
 70
     1
102
RTVSPost2010Prop47
 90
       50
102
RTVSPost2010PropOp47
 70
     1
102
RTVSPost2010Prop48
 90
       50
102
RTVSPost2010PropOp48
 70
     1
102
RTVSPost2010Prop49
280
     0
102
RTVSPost2010PropOp49
 70
     1
102
RTVSPost2010Prop50
 90
       50
102
RTVSPost2010PropOp50
 70
     1
102
RTVSPost2010Prop51ColorIndex
 90
      256
102
RTVSPost2010Prop51ColorRGB
 90
-16777216
102
RTVSPost2010PropOp51
 70
     0
102
RTVSPost2010Prop52
140
1.0
102
RTVSPost2010PropOp52
 70
     0
102
RTVSPost2010Prop53
 90
        2
102
RTVSPost2010PropOp53
 70
     1
102
RTVSPost2010Prop54
  1
strokes_ogs.tif
102
RTVSPost2010PropOp54
 70
     1
102
RTVSPost2010Prop55
280
     0
102
RTVSPost2010PropOp55
 70
     1
102
RTVSPost2010Prop56
140
1.0
102
RTVSPost2010PropOp56
 70
     1
102
RTVSPost2010Prop57
140
1.0
102
RTVSPost2010PropOp57
 70
     1
  0
XRECORD
  5
12E
102
{ACAD_REACTORS
330
12D
102
}
330
12D
100
AcDbXrecord
280
     1
102
RTVSPost2010Prop28
280
     0
102
RTVSPost2010PropOp28
 70
     1
102
RTVSPost2010Prop29
280
     1
102
RTVSPost2010PropOp29
 70
     1
102
RTVSPost2010Prop30
280
     1
102
RTVSPost2010PropOp30
 70
     1
102
RTVSPost2010Prop31
280
     0
102
RTVSPost2010PropOp31
 70
     1
102
RTVSPost2010Prop32
280
     0
102
RTVSPost2010PropOp32
 70
     1
102
RTVSPost2010Prop33
280
     0
102
RTVSPost2010PropOp33
 70
     1
102
RTVSPost2010Prop34
280
     0
102
RTVSPost2010PropOp34
 70
     1
102
RTVSPost2010Prop35
280
     0
102
RTVSPost2010PropOp35
 70
     1
102
RTVSPost2010Prop36
280
     0
102
RTVSPost2010PropOp36
 70
     1
102
RTVSPost2010Prop37
 90
       50
102
RTVSPost2010PropOp37
 70
     1
102
RTVSPost2010Prop38
140
0.0
102
RTVSPost2010PropOp38
 70
     1
102
RTVSPost2010Prop39
140
1.0
102
RTVSPost2010PropOp39
 70
     1
102
RTVSPost2010Prop40
 90
        0
102
RTVSPost2010PropOp40
 70
     1
102
RTVSPost2010Prop41ColorIndex
 90
       18
102
RTVSPost2010Prop41ColorRGB
 90
        0
102
RTVSPost2010PropOp41
 70
     1
102
RTVSPost2010Prop42
 90
       50
102
RTVSPost2010PropOp42
 70
     1
102
RTVSPost2010Prop43
 90
        3
102
RTVSPost2010PropOp43
 70
     1
102
RTVSPost2010Prop44ColorIndex
 90
        5
102
RTVSPost2010Prop44ColorRGB
 90
      255
102
RTVSPost2010PropOp44
 70
     1
102
RTVSPost2010Prop45
280
     0
102
RTVSPost2010PropOp45
 70
     1
102
RTVSPost2010Prop46
 90
       50
102
RTVSPost2010PropOp46
 70
     1
102
RTVSPost2010Prop47
 90
       50
102
RTVSPost2010PropOp47
 70
     1
102
RTVSPost2010Prop48
 90
       50
102
RTVSPost2010PropOp48
 70
     1
102
RTVSPost2010Prop49
280
     0
102
RTVSPost2010PropOp49
 70
     1
102
RTVSPost2010Prop50
 90
       50
102
RTVSPost2010PropOp50
 70
     1
102
RTVSPost2010Prop51ColorIndex
 90
      256
102
RTVSPost2010Prop51ColorRGB
 90
-16777216
102
RTVSPost2010PropOp51
 70
     0
102
RTVSPost2010Prop52
140
1.0
102
RTVSPost2010PropOp52
 70
     0
102
RTVSPost2010Prop53
 90
        2
102
RTVSPost2010PropOp53
 70
     1
102
RTVSPost2010Prop54
  1
strokes_ogs.tif
102
RTVSPost2010PropOp54
 70
     1
102
RTVSPost2010Prop55
280
     0
102
RTVSPost2010PropOp55
 70
     1
102
RTVSPost2010Prop56
140
1.0
102
RTVSPost2010PropOp56
 70
     1
102
RTVSPost2010Prop57
140
1.0
102
RTVSPost2010PropOp57
 70
     1
  0
XRECORD
  5
13C
102
{ACAD_REACTORS
330
13B
102
}
330
13B
100
AcDbXrecord
280
     1
102
RTVSPost2010Prop28
280
     0
102
RTVSPost2010PropOp28
 70
     1
102
RTVSPost2010Prop29
280
     1
102
RTVSPost2010PropOp29
 70
     1
102
RTVSPost2010Prop30
280
     1
102
RTVSPost2010PropOp30
 70
     1
102
RTVSPost2010Prop31
280
     0
102
RTVSPost2010PropOp31
 70
     1
102
RTVSPost2010Prop32
280
     0
102
RTVSPost2010PropOp32
 70
     1
102
RTVSPost2010Prop33
280
     0
102
RTVSPost2010PropOp33
 70
     1
102
RTVSPost2010Prop34
280
     0
102
RTVSPost2010PropOp34
 70
     1
102
RTVSPost2010Prop35
280
     0
102
RTVSPost2010PropOp35
 70
     1
102
RTVSPost2010Prop36
280
     0
102
RTVSPost2010PropOp36
 70
     1
102
RTVSPost2010Prop37
 90
       50
102
RTVSPost2010PropOp37
 70
     1
102
RTVSPost2010Prop38
140
0.0
102
RTVSPost2010PropOp38
 70
     1
102
RTVSPost2010Prop39
140
1.0
102
RTVSPost2010PropOp39
 70
     1
102
RTVSPost2010Prop40
 90
        0
102
RTVSPost2010PropOp40
 70
     1
102
RTVSPost2010Prop41ColorIndex
 90
       18
102
RTVSPost2010Prop41ColorRGB
 90
        0
102
RTVSPost2010PropOp41
 70
     1
102
RTVSPost2010Prop42
 90
       50
102
RTVSPost2010PropOp42
 70
     1
102
RTVSPost2010Prop43
 90
        3
102
RTVSPost2010PropOp43
 70
     1
102
RTVSPost2010Prop44ColorIndex
 90
        5
102
RTVSPost2010Prop44ColorRGB
 90
      255
102
RTVSPost2010PropOp44
 70
     1
102
RTVSPost2010Prop45
280
     0
102
RTVSPost2010PropOp45
 70
     1
102
RTVSPost2010Prop46
 90
       50
102
RTVSPost2010PropOp46
 70
     1
102
RTVSPost2010Prop47
 90
       50
102
RTVSPost2010PropOp47
 70
     1
102
RTVSPost2010Prop48
 90
       50
102
RTVSPost2010PropOp48
 70
     1
102
RTVSPost2010Prop49
280
     0
102
RTVSPost2010PropOp49
 70
     1
102
RTVSPost2010Prop50
 90
       50
102
RTVSPost2010PropOp50
 70
     1
102
RTVSPost2010Prop51ColorIndex
 90
      256
102
RTVSPost2010Prop51ColorRGB
 90
-16777216
102
RTVSPost2010PropOp51
 70
     0
102
RTVSPost2010Prop52
140
1.0
102
RTVSPost2010PropOp52
 70
     0
102
RTVSPost2010Prop53
 90
        2
102
RTVSPost2010PropOp53
 70
     1
102
RTVSPost2010Prop54
  1
strokes_ogs.tif
102
RTVSPost2010PropOp54
 70
     1
102
RTVSPost2010Prop55
280
     0
102
RTVSPost2010PropOp55
 70
     1
102
RTVSPost2010Prop56
140
1.0
102
RTVSPost2010PropOp56
 70
     1
102
RTVSPost2010Prop57
140
1.0
102
RTVSPost2010PropOp57
 70
     1
  0
XRECORD
  5
144
102
{ACAD_REACTORS
330
143
102
}
330
143
100
AcDbXrecord
280
     1
102
RTVSPost2010Prop28
280
     0
102
RTVSPost2010PropOp28
 70
     1
102
RTVSPost2010Prop29
280
     1
102
RTVSPost2010PropOp29
 70
     1
102
RTVSPost2010Prop30
280
     1
102
RTVSPost2010PropOp30
 70
     1
102
RTVSPost2010Prop31
280
     0
102
RTVSPost2010PropOp31
 70
     1
102
RTVSPost2010Prop32
280
     0
102
RTVSPost2010PropOp32
 70
     1
102
RTVSPost2010Prop33
280
     0
102
RTVSPost2010PropOp33
 70
     1
102
RTVSPost2010Prop34
280
     0
102
RTVSPost2010PropOp34
 70
     1
102
RTVSPost2010Prop35
280
     0
102
RTVSPost2010PropOp35
 70
     1
102
RTVSPost2010Prop36
280
     0
102
RTVSPost2010PropOp36
 70
     1
102
RTVSPost2010Prop37
 90
       50
102
RTVSPost2010PropOp37
 70
     1
102
RTVSPost2010Prop38
140
0.0
102
RTVSPost2010PropOp38
 70
     1
102
RTVSPost2010Prop39
140
1.0
102
RTVSPost2010PropOp39
 70
     1
102
RTVSPost2010Prop40
 90
        0
102
RTVSPost2010PropOp40
 70
     1
102
RTVSPost2010Prop41ColorIndex
 90
       18
102
RTVSPost2010Prop41ColorRGB
 90
        0
102
RTVSPost2010PropOp41
 70
     1
102
RTVSPost2010Prop42
 90
       50
102
RTVSPost2010PropOp42
 70
     1
102
RTVSPost2010Prop43
 90
        3
102
RTVSPost2010PropOp43
 70
     1
102
RTVSPost2010Prop44ColorIndex
 90
        5
102
RTVSPost2010Prop44ColorRGB
 90
      255
102
RTVSPost2010PropOp44
 70
     1
102
RTVSPost2010Prop45
280
     0
102
RTVSPost2010PropOp45
 70
     1
102
RTVSPost2010Prop46
 90
       50
102
RTVSPost2010PropOp46
 70
     1
102
RTVSPost2010Prop47
 90
       50
102
RTVSPost2010PropOp47
 70
     1
102
RTVSPost2010Prop48
 90
       50
102
RTVSPost2010PropOp48
 70
     1
102
RTVSPost2010Prop49
280
     0
102
RTVSPost2010PropOp49
 70
     1
102
RTVSPost2010Prop50
 90
       50
102
RTVSPost2010PropOp50
 70
     1
102
RTVSPost2010Prop51ColorIndex
 90
      256
102
RTVSPost2010Prop51ColorRGB
 90
-16777216
102
RTVSPost2010PropOp51
 70
     0
102
RTVSPost2010Prop52
140
1.0
102
RTVSPost2010PropOp52
 70
     0
102
RTVSPost2010Prop53
 90
        2
102
RTVSPost2010PropOp53
 70
     1
102
RTVSPost2010Prop54
  1
strokes_ogs.tif
102
RTVSPost2010PropOp54
 70
     1
102
RTVSPost2010Prop55
280
     0
102
RTVSPost2010PropOp55
 70
     1
102
RTVSPost2010Prop56
140
1.0
102
RTVSPost2010PropOp56
 70
     1
102
RTVSPost2010Prop57
140
1.0
102
RTVSPost2010PropOp57
 70
     1
  0
XRECORD
  5
136
102
{ACAD_REACTORS
330
135
102
}
330
135
100
AcDbXrecord
280
     1
102
RTVSPost2010Prop28
280
     0
102
RTVSPost2010PropOp28
 70
     1
102
RTVSPost2010Prop29
280
     1
102
RTVSPost2010PropOp29
 70
     1
102
RTVSPost2010Prop30
280
     1
102
RTVSPost2010PropOp30
 70
     1
102
RTVSPost2010Prop31
280
     0
102
RTVSPost2010PropOp31
 70
     1
102
RTVSPost2010Prop32
280
     0
102
RTVSPost2010PropOp32
 70
     1
102
RTVSPost2010Prop33
280
     0
102
RTVSPost2010PropOp33
 70
     1
102
RTVSPost2010Prop34
280
     0
102
RTVSPost2010PropOp34
 70
     1
102
RTVSPost2010Prop35
280
     0
102
RTVSPost2010PropOp35
 70
     1
102
RTVSPost2010Prop36
280
     0
102
RTVSPost2010PropOp36
 70
     1
102
RTVSPost2010Prop37
 90
       50
102
RTVSPost2010PropOp37
 70
     1
102
RTVSPost2010Prop38
140
0.0
102
RTVSPost2010PropOp38
 70
     1
102
RTVSPost2010Prop39
140
1.0
102
RTVSPost2010PropOp39
 70
     1
102
RTVSPost2010Prop40
 90
        0
102
RTVSPost2010PropOp40
 70
     1
102
RTVSPost2010Prop41ColorIndex
 90
       18
102
RTVSPost2010Prop41ColorRGB
 90
        0
102
RTVSPost2010PropOp41
 70
     1
102
RTVSPost2010Prop42
 90
       50
102
RTVSPost2010PropOp42
 70
     1
102
RTVSPost2010Prop43
 90
        3
102
RTVSPost2010PropOp43
 70
     1
102
RTVSPost2010Prop44ColorIndex
 90
        5
102
RTVSPost2010Prop44ColorRGB
 90
      255
102
RTVSPost2010PropOp44
 70
     1
102
RTVSPost2010Prop45
280
     0
102
RTVSPost2010PropOp45
 70
     1
102
RTVSPost2010Prop46
 90
       50
102
RTVSPost2010PropOp46
 70
     1
102
RTVSPost2010Prop47
 90
       50
102
RTVSPost2010PropOp47
 70
     1
102
RTVSPost2010Prop48
 90
       50
102
RTVSPost2010PropOp48
 70
     1
102
RTVSPost2010Prop49
280
     0
102
RTVSPost2010PropOp49
 70
     1
102
RTVSPost2010Prop50
 90
       50
102
RTVSPost2010PropOp50
 70
     1
102
RTVSPost2010Prop51ColorIndex
 90
      256
102
RTVSPost2010Prop51ColorRGB
 90
-16777216
102
RTVSPost2010PropOp51
 70
     0
102
RTVSPost2010Prop52
140
1.0
102
RTVSPost2010PropOp52
 70
     0
102
RTVSPost2010Prop53
 90
        2
102
RTVSPost2010PropOp53
 70
     1
102
RTVSPost2010Prop54
  1
strokes_ogs.tif
102
RTVSPost2010PropOp54
 70
     1
102
RTVSPost2010Prop55
280
     0
102
RTVSPost2010PropOp55
 70
     1
102
RTVSPost2010Prop56
140
1.0
102
RTVSPost2010PropOp56
 70
     1
102
RTVSPost2010Prop57
140
1.0
102
RTVSPost2010PropOp57
 70
     1
  0
XRECORD
  5
13A
102
{ACAD_REACTORS
330
139
102
}
330
139
100
AcDbXrecord
280
     1
102
RTVSPost2010Prop28
280
     0
102
RTVSPost2010PropOp28
 70
     1
102
RTVSPost2010Prop29
280
     1
102
RTVSPost2010PropOp29
 70
     1
102
RTVSPost2010Prop30
280
     1
102
RTVSPost2010PropOp30
 70
     1
102
RTVSPost2010Prop31
280
     0
102
RTVSPost2010PropOp31
 70
     1
102
RTVSPost2010Prop32
280
     0
102
RTVSPost2010PropOp32
 70
     1
102
RTVSPost2010Prop33
280
     0
102
RTVSPost2010PropOp33
 70
     1
102
RTVSPost2010Prop34
280
     0
102
RTVSPost2010PropOp34
 70
     1
102
RTVSPost2010Prop35
280
     0
102
RTVSPost2010PropOp35
 70
     1
102
RTVSPost2010Prop36
280
     0
102
RTVSPost2010PropOp36
 70
     1
102
RTVSPost2010Prop37
 90
       50
102
RTVSPost2010PropOp37
 70
     1
102
RTVSPost2010Prop38
140
0.0
102
RTVSPost2010PropOp38
 70
     1
102
RTVSPost2010Prop39
140
1.0
102
RTVSPost2010PropOp39
 70
     1
102
RTVSPost2010Prop40
 90
        0
102
RTVSPost2010PropOp40
 70
     1
102
RTVSPost2010Prop41ColorIndex
 90
       18
102
RTVSPost2010Prop41ColorRGB
 90
        0
102
RTVSPost2010PropOp41
 70
     1
102
RTVSPost2010Prop42
 90
       50
102
RTVSPost2010PropOp42
 70
     1
102
RTVSPost2010Prop43
 90
        3
102
RTVSPost2010PropOp43
 70
     1
102
RTVSPost2010Prop44ColorIndex
 90
        5
102
RTVSPost2010Prop44ColorRGB
 90
      255
102
RTVSPost2010PropOp44
 70
     1
102
RTVSPost2010Prop45
280
     0
102
RTVSPost2010PropOp45
 70
     1
102
RTVSPost2010Prop46
 90
       50
102
RTVSPost2010PropOp46
 70
     1
102
RTVSPost2010Prop47
 90
       50
102
RTVSPost2010PropOp47
 70
     1
102
RTVSPost2010Prop48
 90
       50
102
RTVSPost2010PropOp48
 70
     1
102
RTVSPost2010Prop49
280
     0
102
RTVSPost2010PropOp49
 70
     1
102
RTVSPost2010Prop50
 90
       50
102
RTVSPost2010PropOp50
 70
     1
102
RTVSPost2010Prop51ColorIndex
 90
      256
102
RTVSPost2010Prop51ColorRGB
 90
-16777216
102
RTVSPost2010PropOp51
 70
     0
102
RTVSPost2010Prop52
140
1.0
102
RTVSPost2010PropOp52
 70
     0
102
RTVSPost2010Prop53
 90
        2
102
RTVSPost2010PropOp53
 70
     1
102
RTVSPost2010Prop54
  1
strokes_ogs.tif
102
RTVSPost2010PropOp54
 70
     1
102
RTVSPost2010Prop55
280
     0
102
RTVSPost2010PropOp55
 70
     1
102
RTVSPost2010Prop56
140
1.0
102
RTVSPost2010PropOp56
 70
     1
102
RTVSPost2010Prop57
140
1.0
102
RTVSPost2010PropOp57
 70
     1
  0
XRECORD
  5
154
102
{ACAD_REACTORS
330
153
102
}
330
153
100
AcDbXrecord
280
     1
102
RTVSPost2010Prop28
280
     0
102
RTVSPost2010PropOp28
 70
     0
102
RTVSPost2010Prop29
280
     1
102
RTVSPost2010PropOp29
 70
     0
102
RTVSPost2010Prop30
280
     1
102
RTVSPost2010PropOp30
 70
     0
102
RTVSPost2010Prop31
280
     0
102
RTVSPost2010PropOp31
 70
     0
102
RTVSPost2010Prop32
280
     0
102
RTVSPost2010PropOp32
 70
     0
102
RTVSPost2010Prop33
280
     0
102
RTVSPost2010PropOp33
 70
     0
102
RTVSPost2010Prop34
280
     0
102
RTVSPost2010PropOp34
 70
     0
102
RTVSPost2010Prop35
280
     0
102
RTVSPost2010PropOp35
 70
     0
102
RTVSPost2010Prop36
280
     0
102
RTVSPost2010PropOp36
 70
     0
102
RTVSPost2010Prop37
 90
       50
102
RTVSPost2010PropOp37
 70
     0
102
RTVSPost2010Prop38
140
0.0
102
RTVSPost2010PropOp38
 70
     0
102
RTVSPost2010Prop39
140
1.0
102
RTVSPost2010PropOp39
 70
     0
102
RTVSPost2010Prop40
 90
        0
102
RTVSPost2010PropOp40
 70
     0
102
RTVSPost2010Prop41ColorIndex
 90
       18
102
RTVSPost2010Prop41ColorRGB
 90
        0
102
RTVSPost2010PropOp41
 70
     0
102
RTVSPost2010Prop42
 90
       50
102
RTVSPost2010PropOp42
 70
     0
102
RTVSPost2010Prop43
 90
        3
102
RTVSPost2010PropOp43
 70
     0
102
RTVSPost2010Prop44ColorIndex
 90
        5
102
RTVSPost2010Prop44ColorRGB
 90
      255
102
RTVSPost2010PropOp44
 70
     0
102
RTVSPost2010Prop45
280
     0
102
RTVSPost2010PropOp45
 70
     0
102
RTVSPost2010Prop46
 90
       50
102
RTVSPost2010PropOp46
 70
     0
102
RTVSPost2010Prop47
 90
       50
102
RTVSPost2010PropOp47
 70
     0
102
RTVSPost2010Prop48
 90
       50
102
RTVSPost2010PropOp48
 70
     0
102
RTVSPost2010Prop49
280
     0
102
RTVSPost2010PropOp49
 70
     0
102
RTVSPost2010Prop50
 90
       50
102
RTVSPost2010PropOp50
 70
     0
102
RTVSPost2010Prop51ColorIndex
 90
      256
102
RTVSPost2010Prop51ColorRGB
 90
-16777216
102
RTVSPost2010PropOp51
 70
     0
102
RTVSPost2010Prop52
140
1.0
102
RTVSPost2010PropOp52
 70
     0
102
RTVSPost2010Prop53
 90
        2
102
RTVSPost2010PropOp53
 70
     0
102
RTVSPost2010Prop54
  1
strokes_ogs.tif
102
RTVSPost2010PropOp54
 70
     0
102
RTVSPost2010Prop55
280
     0
102
RTVSPost2010PropOp55
 70
     0
102
RTVSPost2010Prop56
140
1.0
102
RTVSPost2010PropOp56
 70
     0
102
RTVSPost2010Prop57
140
1.0
102
RTVSPost2010PropOp57
 70
     0
  0
XRECORD
  5
142
102
{ACAD_REACTORS
330
141
102
}
330
141
100
AcDbXrecord
280
     1
102
RTVSPost2010Prop28
280
     0
102
RTVSPost2010PropOp28
 70
     1
102
RTVSPost2010Prop29
280
     1
102
RTVSPost2010PropOp29
 70
     1
102
RTVSPost2010Prop30
280
     1
102
RTVSPost2010PropOp30
 70
     1
102
RTVSPost2010Prop31
280
     0
102
RTVSPost2010PropOp31
 70
     1
102
RTVSPost2010Prop32
280
     0
102
RTVSPost2010PropOp32
 70
     1
102
RTVSPost2010Prop33
280
     0
102
RTVSPost2010PropOp33
 70
     1
102
RTVSPost2010Prop34
280
     0
102
RTVSPost2010PropOp34
 70
     1
102
RTVSPost2010Prop35
280
     0
102
RTVSPost2010PropOp35
 70
     1
102
RTVSPost2010Prop36
280
     0
102
RTVSPost2010PropOp36
 70
     1
102
RTVSPost2010Prop37
 90
       50
102
RTVSPost2010PropOp37
 70
     1
102
RTVSPost2010Prop38
140
0.0
102
RTVSPost2010PropOp38
 70
     1
102
RTVSPost2010Prop39
140
1.0
102
RTVSPost2010PropOp39
 70
     1
102
RTVSPost2010Prop40
 90
        0
102
RTVSPost2010PropOp40
 70
     1
102
RTVSPost2010Prop41ColorIndex
 90
       18
102
RTVSPost2010Prop41ColorRGB
 90
        0
102
RTVSPost2010PropOp41
 70
     1
102
RTVSPost2010Prop42
 90
       50
102
RTVSPost2010PropOp42
 70
     1
102
RTVSPost2010Prop43
 90
        3
102
RTVSPost2010PropOp43
 70
     1
102
RTVSPost2010Prop44ColorIndex
 90
        5
102
RTVSPost2010Prop44ColorRGB
 90
      255
102
RTVSPost2010PropOp44
 70
     1
102
RTVSPost2010Prop45
280
     0
102
RTVSPost2010PropOp45
 70
     1
102
RTVSPost2010Prop46
 90
       50
102
RTVSPost2010PropOp46
 70
     1
102
RTVSPost2010Prop47
 90
       50
102
RTVSPost2010PropOp47
 70
     1
102
RTVSPost2010Prop48
 90
       50
102
RTVSPost2010PropOp48
 70
     1
102
RTVSPost2010Prop49
280
     0
102
RTVSPost2010PropOp49
 70
     1
102
RTVSPost2010Prop50
 90
       50
102
RTVSPost2010PropOp50
 70
     1
102
RTVSPost2010Prop51ColorIndex
 90
      256
102
RTVSPost2010Prop51ColorRGB
 90
-16777216
102
RTVSPost2010PropOp51
 70
     0
102
RTVSPost2010Prop52
140
1.0
102
RTVSPost2010PropOp52
 70
     0
102
RTVSPost2010Prop53
 90
        2
102
RTVSPost2010PropOp53
 70
     1
102
RTVSPost2010Prop54
  1
strokes_ogs.tif
102
RTVSPost2010PropOp54
 70
     1
102
RTVSPost2010Prop55
280
     0
102
RTVSPost2010PropOp55
 70
     1
102
RTVSPost2010Prop56
140
1.0
102
RTVSPost2010PropOp56
 70
     1
102
RTVSPost2010Prop57
140
1.0
102
RTVSPost2010PropOp57
 70
     1
  0
XRECORD
  5
126
102
{ACAD_REACTORS
330
125
102
}
330
125
100
AcDbXrecord
280
     1
102
RTVSPost2010Prop28
280
     0
102
RTVSPost2010PropOp28
 70
     1
102
RTVSPost2010Prop29
280
     1
102
RTVSPost2010PropOp29
 70
     1
102
RTVSPost2010Prop30
280
     1
102
RTVSPost2010PropOp30
 70
     1
102
RTVSPost2010Prop31
280
     0
102
RTVSPost2010PropOp31
 70
     1
102
RTVSPost2010Prop32
280
     0
102
RTVSPost2010PropOp32
 70
     1
102
RTVSPost2010Prop33
280
     0
102
RTVSPost2010PropOp33
 70
     1
102
RTVSPost2010Prop34
280
     0
102
RTVSPost2010PropOp34
 70
     1
102
RTVSPost2010Prop35
280
     0
102
RTVSPost2010PropOp35
 70
     1
102
RTVSPost2010Prop36
280
     0
102
RTVSPost2010PropOp36
 70
     1
102
RTVSPost2010Prop37
 90
       50
102
RTVSPost2010PropOp37
 70
     1
102
RTVSPost2010Prop38
140
0.0
102
RTVSPost2010PropOp38
 70
     1
102
RTVSPost2010Prop39
140
1.0
102
RTVSPost2010PropOp39
 70
     1
102
RTVSPost2010Prop40
 90
        0
102
RTVSPost2010PropOp40
 70
     1
102
RTVSPost2010Prop41ColorIndex
 90
       18
102
RTVSPost2010Prop41ColorRGB
 90
        0
102
RTVSPost2010PropOp41
 70
     1
102
RTVSPost2010Prop42
 90
       50
102
RTVSPost2010PropOp42
 70
     1
102
RTVSPost2010Prop43
 90
        3
102
RTVSPost2010PropOp43
 70
     1
102
RTVSPost2010Prop44ColorIndex
 90
        5
102
RTVSPost2010Prop44ColorRGB
 90
      255
102
RTVSPost2010PropOp44
 70
     1
102
RTVSPost2010Prop45
280
     0
102
RTVSPost2010PropOp45
 70
     1
102
RTVSPost2010Prop46
 90
       50
102
RTVSPost2010PropOp46
 70
     1
102
RTVSPost2010Prop47
 90
       50
102
RTVSPost2010PropOp47
 70
     1
102
RTVSPost2010Prop48
 90
       50
102
RTVSPost2010PropOp48
 70
     1
102
RTVSPost2010Prop49
280
     0
102
RTVSPost2010PropOp49
 70
     1
102
RTVSPost2010Prop50
 90
       50
102
RTVSPost2010PropOp50
 70
     1
102
RTVSPost2010Prop51ColorIndex
 90
      256
102
RTVSPost2010Prop51ColorRGB
 90
-16777216
102
RTVSPost2010PropOp51
 70
     0
102
RTVSPost2010Prop52
140
1.0
102
RTVSPost2010PropOp52
 70
     0
102
RTVSPost2010Prop53
 90
        2
102
RTVSPost2010PropOp53
 70
     1
102
RTVSPost2010Prop54
  1
strokes_ogs.tif
102
RTVSPost2010PropOp54
 70
     1
102
RTVSPost2010Prop55
280
     0
102
RTVSPost2010PropOp55
 70
     1
102
RTVSPost2010Prop56
140
1.0
102
RTVSPost2010PropOp56
 70
     1
102
RTVSPost2010Prop57
140
1.0
102
RTVSPost2010PropOp57
 70
     1
  0
XRECORD
  5
128
102
{ACAD_REACTORS
330
127
102
}
330
127
100
AcDbXrecord
280
     1
102
RTVSPost2010Prop28
280
     0
102
RTVSPost2010PropOp28
 70
     1
102
RTVSPost2010Prop29
280
     1
102
RTVSPost2010PropOp29
 70
     1
102
RTVSPost2010Prop30
280
     1
102
RTVSPost2010PropOp30
 70
     1
102
RTVSPost2010Prop31
280
     0
102
RTVSPost2010PropOp31
 70
     1
102
RTVSPost2010Prop32
280
     0
102
RTVSPost2010PropOp32
 70
     1
102
RTVSPost2010Prop33
280
     0
102
RTVSPost2010PropOp33
 70
     1
102
RTVSPost2010Prop34
280
     0
102
RTVSPost2010PropOp34
 70
     1
102
RTVSPost2010Prop35
280
     0
102
RTVSPost2010PropOp35
 70
     1
102
RTVSPost2010Prop36
280
     0
102
RTVSPost2010PropOp36
 70
     1
102
RTVSPost2010Prop37
 90
       50
102
RTVSPost2010PropOp37
 70
     1
102
RTVSPost2010Prop38
140
0.0
102
RTVSPost2010PropOp38
 70
     1
102
RTVSPost2010Prop39
140
1.0
102
RTVSPost2010PropOp39
 70
     1
102
RTVSPost2010Prop40
 90
        0
102
RTVSPost2010PropOp40
 70
     1
102
RTVSPost2010Prop41ColorIndex
 90
       18
102
RTVSPost2010Prop41ColorRGB
 90
        0
102
RTVSPost2010PropOp41
 70
     1
102
RTVSPost2010Prop42
 90
       50
102
RTVSPost2010PropOp42
 70
     1
102
RTVSPost2010Prop43
 90
        3
102
RTVSPost2010PropOp43
 70
     1
102
RTVSPost2010Prop44ColorIndex
 90
        5
102
RTVSPost2010Prop44ColorRGB
 90
      255
102
RTVSPost2010PropOp44
 70
     1
102
RTVSPost2010Prop45
280
     0
102
RTVSPost2010PropOp45
 70
     1
102
RTVSPost2010Prop46
 90
       50
102
RTVSPost2010PropOp46
 70
     1
102
RTVSPost2010Prop47
 90
       50
102
RTVSPost2010PropOp47
 70
     1
102
RTVSPost2010Prop48
 90
       50
102
RTVSPost2010PropOp48
 70
     1
102
RTVSPost2010Prop49
280
     0
102
RTVSPost2010PropOp49
 70
     1
102
RTVSPost2010Prop50
 90
       50
102
RTVSPost2010PropOp50
 70
     1
102
RTVSPost2010Prop51ColorIndex
 90
      256
102
RTVSPost2010Prop51ColorRGB
 90
-16777216
102
RTVSPost2010PropOp51
 70
     0
102
RTVSPost2010Prop52
140
1.0
102
RTVSPost2010PropOp52
 70
     0
102
RTVSPost2010Prop53
 90
        2
102
RTVSPost2010PropOp53
 70
     1
102
RTVSPost2010Prop54
  1
strokes_ogs.tif
102
RTVSPost2010PropOp54
 70
     1
102
RTVSPost2010Prop55
280
     0
102
RTVSPost2010PropOp55
 70
     1
102
RTVSPost2010Prop56
140
1.0
102
RTVSPost2010PropOp56
 70
     1
102
RTVSPost2010Prop57
140
1.0
102
RTVSPost2010PropOp57
 70
     1
  0
XRECORD
  5
12A
102
{ACAD_REACTORS
330
129
102
}
330
129
100
AcDbXrecord
280
     1
102
RTVSPost2010Prop28
280
     0
102
RTVSPost2010PropOp28
 70
     1
102
RTVSPost2010Prop29
280
     1
102
RTVSPost2010PropOp29
 70
     1
102
RTVSPost2010Prop30
280
     1
102
RTVSPost2010PropOp30
 70
     1
102
RTVSPost2010Prop31
280
     0
102
RTVSPost2010PropOp31
 70
     1
102
RTVSPost2010Prop32
280
     0
102
RTVSPost2010PropOp32
 70
     1
102
RTVSPost2010Prop33
280
     0
102
RTVSPost2010PropOp33
 70
     1
102
RTVSPost2010Prop34
280
     0
102
RTVSPost2010PropOp34
 70
     1
102
RTVSPost2010Prop35
280
     0
102
RTVSPost2010PropOp35
 70
     1
102
RTVSPost2010Prop36
280
     0
102
RTVSPost2010PropOp36
 70
     1
102
RTVSPost2010Prop37
 90
       50
102
RTVSPost2010PropOp37
 70
     1
102
RTVSPost2010Prop38
140
0.0
102
RTVSPost2010PropOp38
 70
     1
102
RTVSPost2010Prop39
140
1.0
102
RTVSPost2010PropOp39
 70
     1
102
RTVSPost2010Prop40
 90
        0
102
RTVSPost2010PropOp40
 70
     1
102
RTVSPost2010Prop41ColorIndex
 90
       18
102
RTVSPost2010Prop41ColorRGB
 90
        0
102
RTVSPost2010PropOp41
 70
     1
102
RTVSPost2010Prop42
 90
       50
102
RTVSPost2010PropOp42
 70
     1
102
RTVSPost2010Prop43
 90
        3
102
RTVSPost2010PropOp43
 70
     1
102
RTVSPost2010Prop44ColorIndex
 90
        5
102
RTVSPost2010Prop44ColorRGB
 90
      255
102
RTVSPost2010PropOp44
 70
     1
102
RTVSPost2010Prop45
280
     0
102
RTVSPost2010PropOp45
 70
     1
102
RTVSPost2010Prop46
 90
       50
102
RTVSPost2010PropOp46
 70
     1
102
RTVSPost2010Prop47
 90
       50
102
RTVSPost2010PropOp47
 70
     1
102
RTVSPost2010Prop48
 90
       50
102
RTVSPost2010PropOp48
 70
     1
102
RTVSPost2010Prop49
280
     0
102
RTVSPost2010PropOp49
 70
     1
102
RTVSPost2010Prop50
 90
       50
102
RTVSPost2010PropOp50
 70
     1
102
RTVSPost2010Prop51ColorIndex
 90
      256
102
RTVSPost2010Prop51ColorRGB
 90
-16777216
102
RTVSPost2010PropOp51
 70
     0
102
RTVSPost2010Prop52
140
1.0
102
RTVSPost2010PropOp52
 70
     0
102
RTVSPost2010Prop53
 90
        2
102
RTVSPost2010PropOp53
 70
     1
102
RTVSPost2010Prop54
  1
strokes_ogs.tif
102
RTVSPost2010PropOp54
 70
     1
102
RTVSPost2010Prop55
280
     0
102
RTVSPost2010PropOp55
 70
     1
102
RTVSPost2010Prop56
140
1.0
102
RTVSPost2010PropOp56
 70
     1
102
RTVSPost2010Prop57
140
1.0
102
RTVSPost2010PropOp57
 70
     1
  0
XRECORD
  5
12C
102
{ACAD_REACTORS
330
12B
102
}
330
12B
100
AcDbXrecord
280
     1
102
RTVSPost2010Prop28
280
     0
102
RTVSPost2010PropOp28
 70
     1
102
RTVSPost2010Prop29
280
     1
102
RTVSPost2010PropOp29
 70
     1
102
RTVSPost2010Prop30
280
     1
102
RTVSPost2010PropOp30
 70
     1
102
RTVSPost2010Prop31
280
     0
102
RTVSPost2010PropOp31
 70
     1
102
RTVSPost2010Prop32
280
     0
102
RTVSPost2010PropOp32
 70
     1
102
RTVSPost2010Prop33
280
     0
102
RTVSPost2010PropOp33
 70
     1
102
RTVSPost2010Prop34
280
     0
102
RTVSPost2010PropOp34
 70
     1
102
RTVSPost2010Prop35
280
     0
102
RTVSPost2010PropOp35
 70
     1
102
RTVSPost2010Prop36
280
     0
102
RTVSPost2010PropOp36
 70
     1
102
RTVSPost2010Prop37
 90
       50
102
RTVSPost2010PropOp37
 70
     1
102
RTVSPost2010Prop38
140
0.0
102
RTVSPost2010PropOp38
 70
     1
102
RTVSPost2010Prop39
140
1.0
102
RTVSPost2010PropOp39
 70
     1
102
RTVSPost2010Prop40
 90
        0
102
RTVSPost2010PropOp40
 70
     1
102
RTVSPost2010Prop41ColorIndex
 90
       18
102
RTVSPost2010Prop41ColorRGB
 90
        0
102
RTVSPost2010PropOp41
 70
     1
102
RTVSPost2010Prop42
 90
       50
102
RTVSPost2010PropOp42
 70
     1
102
RTVSPost2010Prop43
 90
        3
102
RTVSPost2010PropOp43
 70
     1
102
RTVSPost2010Prop44ColorIndex
 90
        5
102
RTVSPost2010Prop44ColorRGB
 90
      255
102
RTVSPost2010PropOp44
 70
     1
102
RTVSPost2010Prop45
280
     0
102
RTVSPost2010PropOp45
 70
     1
102
RTVSPost2010Prop46
 90
       50
102
RTVSPost2010PropOp46
 70
     1
102
RTVSPost2010Prop47
 90
       50
102
RTVSPost2010PropOp47
 70
     1
102
RTVSPost2010Prop48
 90
       50
102
RTVSPost2010PropOp48
 70
     1
102
RTVSPost2010Prop49
280
     0
102
RTVSPost2010PropOp49
 70
     1
102
RTVSPost2010Prop50
 90
       50
102
RTVSPost2010PropOp50
 70
     1
102
RTVSPost2010Prop51ColorIndex
 90
      256
102
RTVSPost2010Prop51ColorRGB
 90
-16777216
102
RTVSPost2010PropOp51
 70
     0
102
RTVSPost2010Prop52
140
1.0
102
RTVSPost2010PropOp52
 70
     0
102
RTVSPost2010Prop53
 90
        2
102
RTVSPost2010PropOp53
 70
     1
102
RTVSPost2010Prop54
  1
strokes_ogs.tif
102
RTVSPost2010PropOp54
 70
     1
102
RTVSPost2010Prop55
280
     0
102
RTVSPost2010PropOp55
 70
     1
102
RTVSPost2010Prop56
140
1.0
102
RTVSPost2010PropOp56
 70
     1
102
RTVSPost2010Prop57
140
1.0
102
RTVSPost2010PropOp57
 70
     1
  0
XRECORD
  5
134
102
{ACAD_REACTORS
330
133
102
}
330
133
100
AcDbXrecord
280
     1
102
RTVSPost2010Prop28
280
     0
102
RTVSPost2010PropOp28
 70
     1
102
RTVSPost2010Prop29
280
     1
102
RTVSPost2010PropOp29
 70
     1
102
RTVSPost2010Prop30
280
     1
102
RTVSPost2010PropOp30
 70
     1
102
RTVSPost2010Prop31
280
     0
102
RTVSPost2010PropOp31
 70
     1
102
RTVSPost2010Prop32
280
     0
102
RTVSPost2010PropOp32
 70
     1
102
RTVSPost2010Prop33
280
     0
102
RTVSPost2010PropOp33
 70
     1
102
RTVSPost2010Prop34
280
     0
102
RTVSPost2010PropOp34
 70
     1
102
RTVSPost2010Prop35
280
     0
102
RTVSPost2010PropOp35
 70
     1
102
RTVSPost2010Prop36
280
     0
102
RTVSPost2010PropOp36
 70
     1
102
RTVSPost2010Prop37
 90
       50
102
RTVSPost2010PropOp37
 70
     1
102
RTVSPost2010Prop38
140
0.0
102
RTVSPost2010PropOp38
 70
     1
102
RTVSPost2010Prop39
140
1.0
102
RTVSPost2010PropOp39
 70
     1
102
RTVSPost2010Prop40
 90
        0
102
RTVSPost2010PropOp40
 70
     1
102
RTVSPost2010Prop41ColorIndex
 90
       18
102
RTVSPost2010Prop41ColorRGB
 90
        0
102
RTVSPost2010PropOp41
 70
     1
102
RTVSPost2010Prop42
 90
       50
102
RTVSPost2010PropOp42
 70
     1
102
RTVSPost2010Prop43
 90
        3
102
RTVSPost2010PropOp43
 70
     1
102
RTVSPost2010Prop44ColorIndex
 90
        5
102
RTVSPost2010Prop44ColorRGB
 90
      255
102
RTVSPost2010PropOp44
 70
     1
102
RTVSPost2010Prop45
280
     0
102
RTVSPost2010PropOp45
 70
     1
102
RTVSPost2010Prop46
 90
       50
102
RTVSPost2010PropOp46
 70
     1
102
RTVSPost2010Prop47
 90
       50
102
RTVSPost2010PropOp47
 70
     1
102
RTVSPost2010Prop48
 90
       50
102
RTVSPost2010PropOp48
 70
     1
102
RTVSPost2010Prop49
280
     0
102
RTVSPost2010PropOp49
 70
     1
102
RTVSPost2010Prop50
 90
       50
102
RTVSPost2010PropOp50
 70
     1
102
RTVSPost2010Prop51ColorIndex
 90
      256
102
RTVSPost2010Prop51ColorRGB
 90
-16777216
102
RTVSPost2010PropOp51
 70
     0
102
RTVSPost2010Prop52
140
1.0
102
RTVSPost2010PropOp52
 70
     0
102
RTVSPost2010Prop53
 90
        2
102
RTVSPost2010PropOp53
 70
     1
102
RTVSPost2010Prop54
  1
strokes_ogs.tif
102
RTVSPost2010PropOp54
 70
     1
102
RTVSPost2010Prop55
280
     0
102
RTVSPost2010PropOp55
 70
     1
102
RTVSPost2010Prop56
140
1.0
102
RTVSPost2010PropOp56
 70
     1
102
RTVSPost2010Prop57
140
1.0
102
RTVSPost2010PropOp57
 70
     1
  0
XRECORD
  5
150
102
{ACAD_REACTORS
330
14F
102
}
330
14F
100
AcDbXrecord
280
     1
102
RTVSPost2010Prop28
280
     0
102
RTVSPost2010PropOp28
 70
     0
102
RTVSPost2010Prop29
280
     1
102
RTVSPost2010PropOp29
 70
     0
102
RTVSPost2010Prop30
280
     1
102
RTVSPost2010PropOp30
 70
     0
102
RTVSPost2010Prop31
280
     0
102
RTVSPost2010PropOp31
 70
     0
102
RTVSPost2010Prop32
280
     0
102
RTVSPost2010PropOp32
 70
     0
102
RTVSPost2010Prop33
280
     0
102
RTVSPost2010PropOp33
 70
     0
102
RTVSPost2010Prop34
280
     0
102
RTVSPost2010PropOp34
 70
     0
102
RTVSPost2010Prop35
280
     0
102
RTVSPost2010PropOp35
 70
     0
102
RTVSPost2010Prop36
280
     0
102
RTVSPost2010PropOp36
 70
     0
102
RTVSPost2010Prop37
 90
       50
102
RTVSPost2010PropOp37
 70
     0
102
RTVSPost2010Prop38
140
0.0
102
RTVSPost2010PropOp38
 70
     0
102
RTVSPost2010Prop39
140
1.0
102
RTVSPost2010PropOp39
 70
     0
102
RTVSPost2010Prop40
 90
        0
102
RTVSPost2010PropOp40
 70
     0
102
RTVSPost2010Prop41ColorIndex
 90
       18
102
RTVSPost2010Prop41ColorRGB
 90
        0
102
RTVSPost2010PropOp41
 70
     0
102
RTVSPost2010Prop42
 90
       50
102
RTVSPost2010PropOp42
 70
     0
102
RTVSPost2010Prop43
 90
        3
102
RTVSPost2010PropOp43
 70
     0
102
RTVSPost2010Prop44ColorIndex
 90
        5
102
RTVSPost2010Prop44ColorRGB
 90
      255
102
RTVSPost2010PropOp44
 70
     0
102
RTVSPost2010Prop45
280
     0
102
RTVSPost2010PropOp45
 70
     0
102
RTVSPost2010Prop46
 90
       50
102
RTVSPost2010PropOp46
 70
     0
102
RTVSPost2010Prop47
 90
       50
102
RTVSPost2010PropOp47
 70
     0
102
RTVSPost2010Prop48
 90
       50
102
RTVSPost2010PropOp48
 70
     0
102
RTVSPost2010Prop49
280
     0
102
RTVSPost2010PropOp49
 70
     0
102
RTVSPost2010Prop50
 90
       50
102
RTVSPost2010PropOp50
 70
     0
102
RTVSPost2010Prop51ColorIndex
 90
      256
102
RTVSPost2010Prop51ColorRGB
 90
-16777216
102
RTVSPost2010PropOp51
 70
     0
102
RTVSPost2010Prop52
140
1.0
102
RTVSPost2010PropOp52
 70
     0
102
RTVSPost2010Prop53
 90
        2
102
RTVSPost2010PropOp53
 70
     0
102
RTVSPost2010Prop54
  1
strokes_ogs.tif
102
RTVSPost2010PropOp54
 70
     0
102
RTVSPost2010Prop55
280
     0
102
RTVSPost2010PropOp55
 70
     0
102
RTVSPost2010Prop56
140
1.0
102
RTVSPost2010PropOp56
 70
     0
102
RTVSPost2010Prop57
140
1.0
102
RTVSPost2010PropOp57
 70
     0
  0
XRECORD
  5
140
102
{ACAD_REACTORS
330
13F
102
}
330
13F
100
AcDbXrecord
280
     1
102
RTVSPost2010Prop28
280
     0
102
RTVSPost2010PropOp28
 70
     1
102
RTVSPost2010Prop29
280
     1
102
RTVSPost2010PropOp29
 70
     1
102
RTVSPost2010Prop30
280
     1
102
RTVSPost2010PropOp30
 70
     1
102
RTVSPost2010Prop31
280
     0
102
RTVSPost2010PropOp31
 70
     1
102
RTVSPost2010Prop32
280
     0
102
RTVSPost2010PropOp32
 70
     1
102
RTVSPost2010Prop33
280
     0
102
RTVSPost2010PropOp33
 70
     1
102
RTVSPost2010Prop34
280
     0
102
RTVSPost2010PropOp34
 70
     1
102
RTVSPost2010Prop35
280
     0
102
RTVSPost2010PropOp35
 70
     1
102
RTVSPost2010Prop36
280
     0
102
RTVSPost2010PropOp36
 70
     1
102
RTVSPost2010Prop37
 90
       50
102
RTVSPost2010PropOp37
 70
     1
102
RTVSPost2010Prop38
140
0.0
102
RTVSPost2010PropOp38
 70
     1
102
RTVSPost2010Prop39
140
1.0
102
RTVSPost2010PropOp39
 70
     1
102
RTVSPost2010Prop40
 90
        0
102
RTVSPost2010PropOp40
 70
     1
102
RTVSPost2010Prop41ColorIndex
 90
       18
102
RTVSPost2010Prop41ColorRGB
 90
        0
102
RTVSPost2010PropOp41
 70
     1
102
RTVSPost2010Prop42
 90
       50
102
RTVSPost2010PropOp42
 70
     1
102
RTVSPost2010Prop43
 90
        3
102
RTVSPost2010PropOp43
 70
     1
102
RTVSPost2010Prop44ColorIndex
 90
        5
102
RTVSPost2010Prop44ColorRGB
 90
      255
102
RTVSPost2010PropOp44
 70
     1
102
RTVSPost2010Prop45
280
     0
102
RTVSPost2010PropOp45
 70
     1
102
RTVSPost2010Prop46
 90
       50
102
RTVSPost2010PropOp46
 70
     1
102
RTVSPost2010Prop47
 90
       50
102
RTVSPost2010PropOp47
 70
     1
102
RTVSPost2010Prop48
 90
       50
102
RTVSPost2010PropOp48
 70
     1
102
RTVSPost2010Prop49
280
     0
102
RTVSPost2010PropOp49
 70
     1
102
RTVSPost2010Prop50
 90
       50
102
RTVSPost2010PropOp50
 70
     1
102
RTVSPost2010Prop51ColorIndex
 90
      256
102
RTVSPost2010Prop51ColorRGB
 90
-16777216
102
RTVSPost2010PropOp51
 70
     0
102
RTVSPost2010Prop52
140
1.0
102
RTVSPost2010PropOp52
 70
     0
102
RTVSPost2010Prop53
 90
        2
102
RTVSPost2010PropOp53
 70
     1
102
RTVSPost2010Prop54
  1
strokes_ogs.tif
102
RTVSPost2010PropOp54
 70
     1
102
RTVSPost2010Prop55
280
     0
102
RTVSPost2010PropOp55
 70
     1
102
RTVSPost2010Prop56
140
1.0
102
RTVSPost2010PropOp56
 70
     1
102
RTVSPost2010Prop57
140
1.0
102
RTVSPost2010PropOp57
 70
     1
  0
XRECORD
  5
152
102
{ACAD_REACTORS
330
151
102
}
330
151
100
AcDbXrecord
280
     1
102
RTVSPost2010Prop28
280
     0
102
RTVSPost2010PropOp28
 70
     0
102
RTVSPost2010Prop29
280
     1
102
RTVSPost2010PropOp29
 70
     0
102
RTVSPost2010Prop30
280
     1
102
RTVSPost2010PropOp30
 70
     0
102
RTVSPost2010Prop31
280
     0
102
RTVSPost2010PropOp31
 70
     0
102
RTVSPost2010Prop32
280
     0
102
RTVSPost2010PropOp32
 70
     0
102
RTVSPost2010Prop33
280
     0
102
RTVSPost2010PropOp33
 70
     0
102
RTVSPost2010Prop34
280
     0
102
RTVSPost2010PropOp34
 70
     0
102
RTVSPost2010Prop35
280
     0
102
RTVSPost2010PropOp35
 70
     0
102
RTVSPost2010Prop36
280
     0
102
RTVSPost2010PropOp36
 70
     0
102
RTVSPost2010Prop37
 90
       50
102
RTVSPost2010PropOp37
 70
     0
102
RTVSPost2010Prop38
140
0.0
102
RTVSPost2010PropOp38
 70
     0
102
RTVSPost2010Prop39
140
1.0
102
RTVSPost2010PropOp39
 70
     0
102
RTVSPost2010Prop40
 90
        0
102
RTVSPost2010PropOp40
 70
     0
102
RTVSPost2010Prop41ColorIndex
 90
       18
102
RTVSPost2010Prop41ColorRGB
 90
        0
102
RTVSPost2010PropOp41
 70
     0
102
RTVSPost2010Prop42
 90
       50
102
RTVSPost2010PropOp42
 70
     0
102
RTVSPost2010Prop43
 90
        3
102
RTVSPost2010PropOp43
 70
     0
102
RTVSPost2010Prop44ColorIndex
 90
        5
102
RTVSPost2010Prop44ColorRGB
 90
      255
102
RTVSPost2010PropOp44
 70
     0
102
RTVSPost2010Prop45
280
     0
102
RTVSPost2010PropOp45
 70
     0
102
RTVSPost2010Prop46
 90
       50
102
RTVSPost2010PropOp46
 70
     0
102
RTVSPost2010Prop47
 90
       50
102
RTVSPost2010PropOp47
 70
     0
102
RTVSPost2010Prop48
 90
       50
102
RTVSPost2010PropOp48
 70
     0
102
RTVSPost2010Prop49
280
     0
102
RTVSPost2010PropOp49
 70
     0
102
RTVSPost2010Prop50
 90
       50
102
RTVSPost2010PropOp50
 70
     0
102
RTVSPost2010Prop51ColorIndex
 90
      256
102
RTVSPost2010Prop51ColorRGB
 90
-16777216
102
RTVSPost2010PropOp51
 70
     0
102
RTVSPost2010Prop52
140
1.0
102
RTVSPost2010PropOp52
 70
     0
102
RTVSPost2010Prop53
 90
        2
102
RTVSPost2010PropOp53
 70
     0
102
RTVSPost2010Prop54
  1
strokes_ogs.tif
102
RTVSPost2010PropOp54
 70
     0
102
RTVSPost2010Prop55
280
     0
102
RTVSPost2010PropOp55
 70
     0
102
RTVSPost2010Prop56
140
1.0
102
RTVSPost2010PropOp56
 70
     0
102
RTVSPost2010Prop57
140
1.0
102
RTVSPost2010PropOp57
 70
     0
  0
XRECORD
  5
138
102
{ACAD_REACTORS
330
137
102
}
330
137
100
AcDbXrecord
280
     1
102
RTVSPost2010Prop28
280
     0
102
RTVSPost2010PropOp28
 70
     1
102
RTVSPost2010Prop29
280
     1
102
RTVSPost2010PropOp29
 70
     1
102
RTVSPost2010Prop30
280
     1
102
RTVSPost2010PropOp30
 70
     1
102
RTVSPost2010Prop31
280
     0
102
RTVSPost2010PropOp31
 70
     1
102
RTVSPost2010Prop32
280
     0
102
RTVSPost2010PropOp32
 70
     1
102
RTVSPost2010Prop33
280
     0
102
RTVSPost2010PropOp33
 70
     1
102
RTVSPost2010Prop34
280
     0
102
RTVSPost2010PropOp34
 70
     1
102
RTVSPost2010Prop35
280
     0
102
RTVSPost2010PropOp35
 70
     1
102
RTVSPost2010Prop36
280
     0
102
RTVSPost2010PropOp36
 70
     1
102
RTVSPost2010Prop37
 90
       50
102
RTVSPost2010PropOp37
 70
     1
102
RTVSPost2010Prop38
140
0.0
102
RTVSPost2010PropOp38
 70
     1
102
RTVSPost2010Prop39
140
1.0
102
RTVSPost2010PropOp39
 70
     1
102
RTVSPost2010Prop40
 90
        0
102
RTVSPost2010PropOp40
 70
     1
102
RTVSPost2010Prop41ColorIndex
 90
       18
102
RTVSPost2010Prop41ColorRGB
 90
        0
102
RTVSPost2010PropOp41
 70
     1
102
RTVSPost2010Prop42
 90
       50
102
RTVSPost2010PropOp42
 70
     1
102
RTVSPost2010Prop43
 90
        3
102
RTVSPost2010PropOp43
 70
     1
102
RTVSPost2010Prop44ColorIndex
 90
        5
102
RTVSPost2010Prop44ColorRGB
 90
      255
102
RTVSPost2010PropOp44
 70
     1
102
RTVSPost2010Prop45
280
     0
102
RTVSPost2010PropOp45
 70
     1
102
RTVSPost2010Prop46
 90
       50
102
RTVSPost2010PropOp46
 70
     1
102
RTVSPost2010Prop47
 90
       50
102
RTVSPost2010PropOp47
 70
     1
102
RTVSPost2010Prop48
 90
       50
102
RTVSPost2010PropOp48
 70
     1
102
RTVSPost2010Prop49
280
     0
102
RTVSPost2010PropOp49
 70
     1
102
RTVSPost2010Prop50
 90
       50
102
RTVSPost2010PropOp50
 70
     1
102
RTVSPost2010Prop51ColorIndex
 90
      256
102
RTVSPost2010Prop51ColorRGB
 90
-16777216
102
RTVSPost2010PropOp51
 70
     0
102
RTVSPost2010Prop52
140
1.0
102
RTVSPost2010PropOp52
 70
     0
102
RTVSPost2010Prop53
 90
        2
102
RTVSPost2010PropOp53
 70
     1
102
RTVSPost2010Prop54
  1
strokes_ogs.tif
102
RTVSPost2010PropOp54
 70
     1
102
RTVSPost2010Prop55
280
     0
102
RTVSPost2010PropOp55
 70
     1
102
RTVSPost2010Prop56
140
1.0
102
RTVSPost2010PropOp56
 70
     1
102
RTVSPost2010Prop57
140
1.0
102
RTVSPost2010PropOp57
 70
     1
  0
XRECORD
  5
14E
102
{ACAD_REACTORS
330
14D
102
}
330
14D
100
AcDbXrecord
280
     1
102
RTVSPost2010Prop28
280
     0
102
RTVSPost2010PropOp28
 70
     1
102
RTVSPost2010Prop29
280
     1
102
RTVSPost2010PropOp29
 70
     1
102
RTVSPost2010Prop30
280
     1
102
RTVSPost2010PropOp30
 70
     1
102
RTVSPost2010Prop31
280
     0
102
RTVSPost2010PropOp31
 70
     1
102
RTVSPost2010Prop32
280
     0
102
RTVSPost2010PropOp32
 70
     1
102
RTVSPost2010Prop33
280
     0
102
RTVSPost2010PropOp33
 70
     1
102
RTVSPost2010Prop34
280
     0
102
RTVSPost2010PropOp34
 70
     1
102
RTVSPost2010Prop35
280
     0
102
RTVSPost2010PropOp35
 70
     1
102
RTVSPost2010Prop36
280
     0
102
RTVSPost2010PropOp36
 70
     1
102
RTVSPost2010Prop37
 90
       50
102
RTVSPost2010PropOp37
 70
     1
102
RTVSPost2010Prop38
140
0.0
102
RTVSPost2010PropOp38
 70
     1
102
RTVSPost2010Prop39
140
1.0
102
RTVSPost2010PropOp39
 70
     1
102
RTVSPost2010Prop40
 90
        0
102
RTVSPost2010PropOp40
 70
     1
102
RTVSPost2010Prop41ColorIndex
 90
       18
102
RTVSPost2010Prop41ColorRGB
 90
        0
102
RTVSPost2010PropOp41
 70
     1
102
RTVSPost2010Prop42
 90
       50
102
RTVSPost2010PropOp42
 70
     1
102
RTVSPost2010Prop43
 90
        3
102
RTVSPost2010PropOp43
 70
     1
102
RTVSPost2010Prop44ColorIndex
 90
        5
102
RTVSPost2010Prop44ColorRGB
 90
      255
102
RTVSPost2010PropOp44
 70
     1
102
RTVSPost2010Prop45
280
     0
102
RTVSPost2010PropOp45
 70
     1
102
RTVSPost2010Prop46
 90
       50
102
RTVSPost2010PropOp46
 70
     1
102
RTVSPost2010Prop47
 90
       50
102
RTVSPost2010PropOp47
 70
     1
102
RTVSPost2010Prop48
 90
       50
102
RTVSPost2010PropOp48
 70
     1
102
RTVSPost2010Prop49
280
     0
102
RTVSPost2010PropOp49
 70
     1
102
RTVSPost2010Prop50
 90
       50
102
RTVSPost2010PropOp50
 70
     1
102
RTVSPost2010Prop51ColorIndex
 90
      256
102
RTVSPost2010Prop51ColorRGB
 90
-16777216
102
RTVSPost2010PropOp51
 70
     0
102
RTVSPost2010Prop52
140
1.0
102
RTVSPost2010PropOp52
 70
     0
102
RTVSPost2010Prop53
 90
        2
102
RTVSPost2010PropOp53
 70
     1
102
RTVSPost2010Prop54
  1
strokes_ogs.tif
102
RTVSPost2010PropOp54
 70
     1
102
RTVSPost2010Prop55
280
     0
102
RTVSPost2010PropOp55
 70
     1
102
RTVSPost2010Prop56
140
1.0
102
RTVSPost2010PropOp56
 70
     1
102
RTVSPost2010Prop57
140
1.0
102
RTVSPost2010PropOp57
 70
     1
  0
XRECORD
  5
14C
102
{ACAD_REACTORS
330
14B
102
}
330
14B
100
AcDbXrecord
280
     1
102
RTVSPost2010Prop28
280
     0
102
RTVSPost2010PropOp28
 70
     1
102
RTVSPost2010Prop29
280
     1
102
RTVSPost2010PropOp29
 70
     1
102
RTVSPost2010Prop30
280
     1
102
RTVSPost2010PropOp30
 70
     1
102
RTVSPost2010Prop31
280
     0
102
RTVSPost2010PropOp31
 70
     1
102
RTVSPost2010Prop32
280
     0
102
RTVSPost2010PropOp32
 70
     1
102
RTVSPost2010Prop33
280
     0
102
RTVSPost2010PropOp33
 70
     1
102
RTVSPost2010Prop34
280
     0
102
RTVSPost2010PropOp34
 70
     1
102
RTVSPost2010Prop35
280
     0
102
RTVSPost2010PropOp35
 70
     1
102
RTVSPost2010Prop36
280
     0
102
RTVSPost2010PropOp36
 70
     1
102
RTVSPost2010Prop37
 90
       50
102
RTVSPost2010PropOp37
 70
     1
102
RTVSPost2010Prop38
140
0.0
102
RTVSPost2010PropOp38
 70
     1
102
RTVSPost2010Prop39
140
1.0
102
RTVSPost2010PropOp39
 70
     1
102
RTVSPost2010Prop40
 90
        0
102
RTVSPost2010PropOp40
 70
     1
102
RTVSPost2010Prop41ColorIndex
 90
       18
102
RTVSPost2010Prop41ColorRGB
 90
        0
102
RTVSPost2010PropOp41
 70
     1
102
RTVSPost2010Prop42
 90
       50
102
RTVSPost2010PropOp42
 70
     1
102
RTVSPost2010Prop43
 90
        3
102
RTVSPost2010PropOp43
 70
     1
102
RTVSPost2010Prop44ColorIndex
 90
        5
102
RTVSPost2010Prop44ColorRGB
 90
      255
102
RTVSPost2010PropOp44
 70
     1
102
RTVSPost2010Prop45
280
     0
102
RTVSPost2010PropOp45
 70
     1
102
RTVSPost2010Prop46
 90
       50
102
RTVSPost2010PropOp46
 70
     1
102
RTVSPost2010Prop47
 90
       50
102
RTVSPost2010PropOp47
 70
     1
102
RTVSPost2010Prop48
 90
       50
102
RTVSPost2010PropOp48
 70
     1
102
RTVSPost2010Prop49
280
     0
102
RTVSPost2010PropOp49
 70
     1
102
RTVSPost2010Prop50
 90
       50
102
RTVSPost2010PropOp50
 70
     1
102
RTVSPost2010Prop51ColorIndex
 90
      256
102
RTVSPost2010Prop51ColorRGB
 90
-16777216
102
RTVSPost2010PropOp51
 70
     0
102
RTVSPost2010Prop52
140
1.0
102
RTVSPost2010PropOp52
 70
     0
102
RTVSPost2010Prop53
 90
        2
102
RTVSPost2010PropOp53
 70
     1
102
RTVSPost2010Prop54
  1
strokes_ogs.tif
102
RTVSPost2010PropOp54
 70
     1
102
RTVSPost2010Prop55
280
     0
102
RTVSPost2010PropOp55
 70
     1
102
RTVSPost2010Prop56
140
1.0
102
RTVSPost2010PropOp56
 70
     1
102
RTVSPost2010Prop57
140
1.0
102
RTVSPost2010PropOp57
 70
     1
  0
XRECORD
  5
146
102
{ACAD_REACTORS
330
145
102
}
330
145
100
AcDbXrecord
280
     1
102
RTVSPost2010Prop28
280
     0
102
RTVSPost2010PropOp28
 70
     1
102
RTVSPost2010Prop29
280
     1
102
RTVSPost2010PropOp29
 70
     1
102
RTVSPost2010Prop30
280
     1
102
RTVSPost2010PropOp30
 70
     1
102
RTVSPost2010Prop31
280
     0
102
RTVSPost2010PropOp31
 70
     1
102
RTVSPost2010Prop32
280
     0
102
RTVSPost2010PropOp32
 70
     1
102
RTVSPost2010Prop33
280
     0
102
RTVSPost2010PropOp33
 70
     1
102
RTVSPost2010Prop34
280
     0
102
RTVSPost2010PropOp34
 70
     1
102
RTVSPost2010Prop35
280
     0
102
RTVSPost2010PropOp35
 70
     1
102
RTVSPost2010Prop36
280
     0
102
RTVSPost2010PropOp36
 70
     1
102
RTVSPost2010Prop37
 90
       50
102
RTVSPost2010PropOp37
 70
     1
102
RTVSPost2010Prop38
140
0.0
102
RTVSPost2010PropOp38
 70
     1
102
RTVSPost2010Prop39
140
1.0
102
RTVSPost2010PropOp39
 70
     1
102
RTVSPost2010Prop40
 90
        0
102
RTVSPost2010PropOp40
 70
     1
102
RTVSPost2010Prop41ColorIndex
 90
       18
102
RTVSPost2010Prop41ColorRGB
 90
        0
102
RTVSPost2010PropOp41
 70
     1
102
RTVSPost2010Prop42
 90
       50
102
RTVSPost2010PropOp42
 70
     1
102
RTVSPost2010Prop43
 90
        3
102
RTVSPost2010PropOp43
 70
     1
102
RTVSPost2010Prop44ColorIndex
 90
        5
102
RTVSPost2010Prop44ColorRGB
 90
      255
102
RTVSPost2010PropOp44
 70
     1
102
RTVSPost2010Prop45
280
     0
102
RTVSPost2010PropOp45
 70
     1
102
RTVSPost2010Prop46
 90
       50
102
RTVSPost2010PropOp46
 70
     1
102
RTVSPost2010Prop47
 90
       50
102
RTVSPost2010PropOp47
 70
     1
102
RTVSPost2010Prop48
 90
       50
102
RTVSPost2010PropOp48
 70
     1
102
RTVSPost2010Prop49
280
     0
102
RTVSPost2010PropOp49
 70
     1
102
RTVSPost2010Prop50
 90
       50
102
RTVSPost2010PropOp50
 70
     1
102
RTVSPost2010Prop51ColorIndex
 90
      256
102
RTVSPost2010Prop51ColorRGB
 90
-16777216
102
RTVSPost2010PropOp51
 70
     0
102
RTVSPost2010Prop52
140
1.0
102
RTVSPost2010PropOp52
 70
     0
102
RTVSPost2010Prop53
 90
        2
102
RTVSPost2010PropOp53
 70
     1
102
RTVSPost2010Prop54
  1
strokes_ogs.tif
102
RTVSPost2010PropOp54
 70
     1
102
RTVSPost2010Prop55
280
     0
102
RTVSPost2010PropOp55
 70
     1
102
RTVSPost2010Prop56
140
1.0
102
RTVSPost2010PropOp56
 70
     1
102
RTVSPost2010Prop57
140
1.0
102
RTVSPost2010PropOp57
 70
     1
  0
XRECORD
  5
148
102
{ACAD_REACTORS
330
147
102
}
330
147
100
AcDbXrecord
280
     1
102
RTVSPost2010Prop28
280
     0
102
RTVSPost2010PropOp28
 70
     1
102
RTVSPost2010Prop29
280
     1
102
RTVSPost2010PropOp29
 70
     1
102
RTVSPost2010Prop30
280
     1
102
RTVSPost2010PropOp30
 70
     1
102
RTVSPost2010Prop31
280
     0
102
RTVSPost2010PropOp31
 70
     1
102
RTVSPost2010Prop32
280
     0
102
RTVSPost2010PropOp32
 70
     1
102
RTVSPost2010Prop33
280
     0
102
RTVSPost2010PropOp33
 70
     1
102
RTVSPost2010Prop34
280
     0
102
RTVSPost2010PropOp34
 70
     1
102
RTVSPost2010Prop35
280
     0
102
RTVSPost2010PropOp35
 70
     1
102
RTVSPost2010Prop36
280
     0
102
RTVSPost2010PropOp36
 70
     1
102
RTVSPost2010Prop37
 90
       50
102
RTVSPost2010PropOp37
 70
     1
102
RTVSPost2010Prop38
140
0.0
102
RTVSPost2010PropOp38
 70
     1
102
RTVSPost2010Prop39
140
1.0
102
RTVSPost2010PropOp39
 70
     1
102
RTVSPost2010Prop40
 90
        0
102
RTVSPost2010PropOp40
 70
     1
102
RTVSPost2010Prop41ColorIndex
 90
       18
102
RTVSPost2010Prop41ColorRGB
 90
        0
102
RTVSPost2010PropOp41
 70
     1
102
RTVSPost2010Prop42
 90
       50
102
RTVSPost2010PropOp42
 70
     1
102
RTVSPost2010Prop43
 90
        3
102
RTVSPost2010PropOp43
 70
     1
102
RTVSPost2010Prop44ColorIndex
 90
        5
102
RTVSPost2010Prop44ColorRGB
 90
      255
102
RTVSPost2010PropOp44
 70
     1
102
RTVSPost2010Prop45
280
     0
102
RTVSPost2010PropOp45
 70
     1
102
RTVSPost2010Prop46
 90
       50
102
RTVSPost2010PropOp46
 70
     1
102
RTVSPost2010Prop47
 90
       50
102
RTVSPost2010PropOp47
 70
     1
102
RTVSPost2010Prop48
 90
       50
102
RTVSPost2010PropOp48
 70
     1
102
RTVSPost2010Prop49
280
     0
102
RTVSPost2010PropOp49
 70
     1
102
RTVSPost2010Prop50
 90
       50
102
RTVSPost2010PropOp50
 70
     1
102
RTVSPost2010Prop51ColorIndex
 90
      256
102
RTVSPost2010Prop51ColorRGB
 90
-16777216
102
RTVSPost2010PropOp51
 70
     0
102
RTVSPost2010Prop52
140
1.0
102
RTVSPost2010PropOp52
 70
     0
102
RTVSPost2010Prop53
 90
        2
102
RTVSPost2010PropOp53
 70
     1
102
RTVSPost2010Prop54
  1
strokes_ogs.tif
102
RTVSPost2010PropOp54
 70
     1
102
RTVSPost2010Prop55
280
     0
102
RTVSPost2010PropOp55
 70
     1
102
RTVSPost2010Prop56
140
1.0
102
RTVSPost2010PropOp56
 70
     1
102
RTVSPost2010Prop57
140
1.0
102
RTVSPost2010PropOp57
 70
     1
  0
XRECORD
  5
13E
102
{ACAD_REACTORS
330
13D
102
}
330
13D
100
AcDbXrecord
280
     1
102
RTVSPost2010Prop28
280
     0
102
RTVSPost2010PropOp28
 70
     1
102
RTVSPost2010Prop29
280
     1
102
RTVSPost2010PropOp29
 70
     1
102
RTVSPost2010Prop30
280
     1
102
RTVSPost2010PropOp30
 70
     1
102
RTVSPost2010Prop31
280
     0
102
RTVSPost2010PropOp31
 70
     1
102
RTVSPost2010Prop32
280
     0
102
RTVSPost2010PropOp32
 70
     1
102
RTVSPost2010Prop33
280
     0
102
RTVSPost2010PropOp33
 70
     1
102
RTVSPost2010Prop34
280
     0
102
RTVSPost2010PropOp34
 70
     1
102
RTVSPost2010Prop35
280
     0
102
RTVSPost2010PropOp35
 70
     1
102
RTVSPost2010Prop36
280
     0
102
RTVSPost2010PropOp36
 70
     1
102
RTVSPost2010Prop37
 90
       50
102
RTVSPost2010PropOp37
 70
     1
102
RTVSPost2010Prop38
140
0.0
102
RTVSPost2010PropOp38
 70
     1
102
RTVSPost2010Prop39
140
1.0
102
RTVSPost2010PropOp39
 70
     1
102
RTVSPost2010Prop40
 90
        0
102
RTVSPost2010PropOp40
 70
     1
102
RTVSPost2010Prop41ColorIndex
 90
       18
102
RTVSPost2010Prop41ColorRGB
 90
        0
102
RTVSPost2010PropOp41
 70
     1
102
RTVSPost2010Prop42
 90
       50
102
RTVSPost2010PropOp42
 70
     1
102
RTVSPost2010Prop43
 90
        3
102
RTVSPost2010PropOp43
 70
     1
102
RTVSPost2010Prop44ColorIndex
 90
        5
102
RTVSPost2010Prop44ColorRGB
 90
      255
102
RTVSPost2010PropOp44
 70
     1
102
RTVSPost2010Prop45
280
     0
102
RTVSPost2010PropOp45
 70
     1
102
RTVSPost2010Prop46
 90
       50
102
RTVSPost2010PropOp46
 70
     1
102
RTVSPost2010Prop47
 90
       50
102
RTVSPost2010PropOp47
 70
     1
102
RTVSPost2010Prop48
 90
       50
102
RTVSPost2010PropOp48
 70
     1
102
RTVSPost2010Prop49
280
     0
102
RTVSPost2010PropOp49
 70
     1
102
RTVSPost2010Prop50
 90
       50
102
RTVSPost2010PropOp50
 70
     1
102
RTVSPost2010Prop51ColorIndex
 90
      256
102
RTVSPost2010Prop51ColorRGB
 90
-16777216
102
RTVSPost2010PropOp51
 70
     0
102
RTVSPost2010Prop52
140
1.0
102
RTVSPost2010PropOp52
 70
     0
102
RTVSPost2010Prop53
 90
        2
102
RTVSPost2010PropOp53
 70
     1
102
RTVSPost2010Prop54
  1
strokes_ogs.tif
102
RTVSPost2010PropOp54
 70
     1
102
RTVSPost2010Prop55
280
     0
102
RTVSPost2010PropOp55
 70
     1
102
RTVSPost2010Prop56
140
1.0
102
RTVSPost2010PropOp56
 70
     1
102
RTVSPost2010Prop57
140
1.0
102
RTVSPost2010PropOp57
 70
     1
  0
XRECORD
  5
132
102
{ACAD_REACTORS
330
131
102
}
330
131
100
AcDbXrecord
280
     1
102
RTVSPost2010Prop28
280
     0
102
RTVSPost2010PropOp28
 70
     1
102
RTVSPost2010Prop29
280
     1
102
RTVSPost2010PropOp29
 70
     1
102
RTVSPost2010Prop30
280
     1
102
RTVSPost2010PropOp30
 70
     1
102
RTVSPost2010Prop31
280
     0
102
RTVSPost2010PropOp31
 70
     1
102
RTVSPost2010Prop32
280
     0
102
RTVSPost2010PropOp32
 70
     1
102
RTVSPost2010Prop33
280
     0
102
RTVSPost2010PropOp33
 70
     1
102
RTVSPost2010Prop34
280
     0
102
RTVSPost2010PropOp34
 70
     1
102
RTVSPost2010Prop35
280
     0
102
RTVSPost2010PropOp35
 70
     1
102
RTVSPost2010Prop36
280
     0
102
RTVSPost2010PropOp36
 70
     1
102
RTVSPost2010Prop37
 90
       50
102
RTVSPost2010PropOp37
 70
     1
102
RTVSPost2010Prop38
140
0.0
102
RTVSPost2010PropOp38
 70
     1
102
RTVSPost2010Prop39
140
1.0
102
RTVSPost2010PropOp39
 70
     1
102
RTVSPost2010Prop40
 90
        0
102
RTVSPost2010PropOp40
 70
     1
102
RTVSPost2010Prop41ColorIndex
 90
       18
102
RTVSPost2010Prop41ColorRGB
 90
        0
102
RTVSPost2010PropOp41
 70
     1
102
RTVSPost2010Prop42
 90
       50
102
RTVSPost2010PropOp42
 70
     1
102
RTVSPost2010Prop43
 90
        3
102
RTVSPost2010PropOp43
 70
     1
102
RTVSPost2010Prop44ColorIndex
 90
        5
102
RTVSPost2010Prop44ColorRGB
 90
      255
102
RTVSPost2010PropOp44
 70
     1
102
RTVSPost2010Prop45
280
     0
102
RTVSPost2010PropOp45
 70
     1
102
RTVSPost2010Prop46
 90
       50
102
RTVSPost2010PropOp46
 70
     1
102
RTVSPost2010Prop47
 90
       50
102
RTVSPost2010PropOp47
 70
     1
102
RTVSPost2010Prop48
 90
       50
102
RTVSPost2010PropOp48
 70
     1
102
RTVSPost2010Prop49
280
     0
102
RTVSPost2010PropOp49
 70
     1
102
RTVSPost2010Prop50
 90
       50
102
RTVSPost2010PropOp50
 70
     1
102
RTVSPost2010Prop51ColorIndex
 90
      256
102
RTVSPost2010Prop51ColorRGB
 90
-16777216
102
RTVSPost2010PropOp51
 70
     0
102
RTVSPost2010Prop52
140
1.0
102
RTVSPost2010PropOp52
 70
     0
102
RTVSPost2010Prop53
 90
        2
102
RTVSPost2010PropOp53
 70
     1
102
RTVSPost2010Prop54
  1
strokes_ogs.tif
102
RTVSPost2010PropOp54
 70
     1
102
RTVSPost2010Prop55
280
     0
102
RTVSPost2010PropOp55
 70
     1
102
RTVSPost2010Prop56
140
1.0
102
RTVSPost2010PropOp56
 70
     1
102
RTVSPost2010Prop57
140
1.0
102
RTVSPost2010PropOp57
 70
     1
  0
XRECORD
  5
14A
102
{ACAD_REACTORS
330
149
102
}
330
149
100
AcDbXrecord
280
     1
102
RTVSPost2010Prop28
280
     0
102
RTVSPost2010PropOp28
 70
     1
102
RTVSPost2010Prop29
280
     1
102
RTVSPost2010PropOp29
 70
     1
102
RTVSPost2010Prop30
280
     1
102
RTVSPost2010PropOp30
 70
     1
102
RTVSPost2010Prop31
280
     0
102
RTVSPost2010PropOp31
 70
     1
102
RTVSPost2010Prop32
280
     0
102
RTVSPost2010PropOp32
 70
     1
102
RTVSPost2010Prop33
280
     0
102
RTVSPost2010PropOp33
 70
     1
102
RTVSPost2010Prop34
280
     0
102
RTVSPost2010PropOp34
 70
     1
102
RTVSPost2010Prop35
280
     0
102
RTVSPost2010PropOp35
 70
     1
102
RTVSPost2010Prop36
280
     0
102
RTVSPost2010PropOp36
 70
     1
102
RTVSPost2010Prop37
 90
       50
102
RTVSPost2010PropOp37
 70
     1
102
RTVSPost2010Prop38
140
0.0
102
RTVSPost2010PropOp38
 70
     1
102
RTVSPost2010Prop39
140
1.0
102
RTVSPost2010PropOp39
 70
     1
102
RTVSPost2010Prop40
 90
        0
102
RTVSPost2010PropOp40
 70
     1
102
RTVSPost2010Prop41ColorIndex
 90
       18
102
RTVSPost2010Prop41ColorRGB
 90
        0
102
RTVSPost2010PropOp41
 70
     1
102
RTVSPost2010Prop42
 90
       50
102
RTVSPost2010PropOp42
 70
     1
102
RTVSPost2010Prop43
 90
        3
102
RTVSPost2010PropOp43
 70
     1
102
RTVSPost2010Prop44ColorIndex
 90
        5
102
RTVSPost2010Prop44ColorRGB
 90
      255
102
RTVSPost2010PropOp44
 70
     1
102
RTVSPost2010Prop45
280
     0
102
RTVSPost2010PropOp45
 70
     1
102
RTVSPost2010Prop46
 90
       50
102
RTVSPost2010PropOp46
 70
     1
102
RTVSPost2010Prop47
 90
       50
102
RTVSPost2010PropOp47
 70
     1
102
RTVSPost2010Prop48
 90
       50
102
RTVSPost2010PropOp48
 70
     1
102
RTVSPost2010Prop49
280
     0
102
RTVSPost2010PropOp49
 70
     1
102
RTVSPost2010Prop50
 90
       50
102
RTVSPost2010PropOp50
 70
     1
102
RTVSPost2010Prop51ColorIndex
 90
      256
102
RTVSPost2010Prop51ColorRGB
 90
-16777216
102
RTVSPost2010PropOp51
 70
     0
102
RTVSPost2010Prop52
140
1.0
102
RTVSPost2010PropOp52
 70
     0
102
RTVSPost2010Prop53
 90
        2
102
RTVSPost2010PropOp53
 70
     1
102
RTVSPost2010Prop54
  1
strokes_ogs.tif
102
RTVSPost2010PropOp54
 70
     1
102
RTVSPost2010Prop55
280
     0
102
RTVSPost2010PropOp55
 70
     1
102
RTVSPost2010Prop56
140
1.0
102
RTVSPost2010PropOp56
 70
     1
102
RTVSPost2010Prop57
140
1.0
102
RTVSPost2010PropOp57
 70
     1
  0
ENDSEC
  0
EOF
