  0
SECTION
  2
HEADER
  9
$ACADVER
  1
AC1024
  9
$ACADMAINTVER
 70
   226
  9
$DWGCODEPAGE
  3
ANSI_932
  9
$INSBASE
 10
0.0
 20
0.0
 30
0.0
  9
$EXTMIN
 10
1.000000000000000E+20
 20
1.000000000000000E+20
 30
1.000000000000000E+20
  9
$EXTMAX
 10
-1.000000000000000E+20
 20
-1.000000000000000E+20
 30
-1.000000000000000E+20
  9
$LIMMIN
 10
0.0
 20
0.0
  9
$LIMMAX
 10
12.0
 20
9.0
  9
$ORTHOMODE
 70
     0
  9
$REGENMODE
 70
     1
  9
$FILLMODE
 70
     1
  9
$QTEXTMODE
 70
     0
  9
$MIRRTEXT
 70
     0
  9
$LTSCALE
 40
1.0
  9
$ATTMODE
 70
     1
  9
$TEXTSIZE
 40
0.2
  9
$TRACEWID
 40
0.05
  9
$TEXTSTYLE
  7
Standard
  9
$CLAYER
  8
0
  9
$CELTYPE
  6
ByLayer
  9
$CECOLOR
 62
   256
  9
$CELTSCALE
 40
1.0
  9
$DISPSILH
 70
     0
  9
$DIMSCALE
 40
1.0
  9
$DIMASZ
 40
0.18
  9
$DIMEXO
 40
0.0625
  9
$DIMDLI
 40
0.38
  9
$DIMRND
 40
0.0
  9
$DIMDLE
 40
0.0
  9
$DIMEXE
 40
0.18
  9
$DIMTP
 40
0.0
  9
$DIMTM
 40
0.0
  9
$DIMTXT
 40
0.18
  9
$DIMCEN
 40
0.09
  9
$DIMTSZ
 40
0.0
  9
$DIMTOL
 70
     0
  9
$DIMLIM
 70
     0
  9
$DIMTIH
 70
     1
  9
$DIMTOH
 70
     1
  9
$DIMSE1
 70
     0
  9
$DIMSE2
 70
     0
  9
$DIMTAD
 70
     0
  9
$DIMZIN
 70
     0
  9
$DIMBLK
  1

  9
$DIMASO
 70
     1
  9
$DIMSHO
 70
     1
  9
$DIMPOST
  1

  9
$DIMAPOST
  1

  9
$DIMALT
 70
     0
  9
$DIMALTD
 70
     2
  9
$DIMALTF
 40
25.4
  9
$DIMLFAC
 40
1.0
  9
$DIMTOFL
 70
     0
  9
$DIMTVP
 40
0.0
  9
$DIMTIX
 70
     0
  9
$DIMSOXD
 70
     0
  9
$DIMSAH
 70
     0
  9
$DIMBLK1
  1

  9
$DIMBLK2
  1

  9
$DIMSTYLE
  2
Standard
  9
$DIMCLRD
 70
     0
  9
$DIMCLRE
 70
     0
  9
$DIMCLRT
 70
     0
  9
$DIMTFAC
 40
1.0
  9
$DIMGAP
 40
0.09
  9
$DIMJUST
 70
     0
  9
$DIMSD1
 70
     0
  9
$DIMSD2
 70
     0
  9
$DIMTOLJ
 70
     1
  9
$DIMTZIN
 70
     0
  9
$DIMALTZ
 70
     0
  9
$DIMALTTZ
 70
     0
  9
$DIMUPT
 70
     0
  9
$DIMDEC
 70
     4
  9
$DIMTDEC
 70
     4
  9
$DIMALTU
 70
     2
  9
$DIMALTTD
 70
     2
  9
$DIMTXSTY
  7
Standard
  9
$DIMAUNIT
 70
     0
  9
$DIMADEC
 70
     0
  9
$DIMALTRND
 40
0.0
  9
$DIMAZIN
 70
     0
  9
$DIMDSEP
 70
    46
  9
$DIMATFIT
 70
     3
  9
$DIMFRAC
 70
     0
  9
$DIMLDRBLK
  1

  9
$DIMLUNIT
 70
     2
  9
$DIMLWD
 70
    -2
  9
$DIMLWE
 70
    -2
  9
$DIMTMOVE
 70
     0
  9
$DIMFXL
 40
1.0
  9
$DIMFXLON
 70
     0
  9
$DIMJOGANG
 40
0.7853981633974483
  9
$DIMTFILL
 70
     0
  9
$DIMTFILLCLR
 70
     0
  9
$DIMARCSYM
 70
     0
  9
$DIMLTYPE
  6

  9
$DIMLTEX1
  6

  9
$DIMLTEX2
  6

  9
$DIMTXTDIRECTION
 70
     0
  9
$LUNITS
 70
     2
  9
$LUPREC
 70
     4
  9
$SKETCHINC
 40
0.1
  9
$FILLETRAD
 40
0.0
  9
$AUNITS
 70
     0
  9
$AUPREC
 70
     0
  9
$MENU
  1
.
  9
$ELEVATION
 40
0.0
  9
$PELEVATION
 40
0.0
  9
$THICKNESS
 40
0.0
  9
$LIMCHECK
 70
     0
  9
$CHAMFERA
 40
0.0
  9
$CHAMFERB
 40
0.0
  9
$CHAMFERC
 40
0.0
  9
$CHAMFERD
 40
0.0
  9
$SKPOLY
 70
     0
  9
$TDCREATE
 40
2459569.490196760
  9
$TDUCREATE
 40
2459569.115196759
  9
$TDUPDATE
 40
2459569.490196760
  9
$TDUUPDATE
 40
2459569.115196759
  9
$TDINDWG
 40
0.0000000000
  9
$TDUSRTIMER
 40
0.0000000000
  9
$USRTIMER
 70
     1
  9
$ANGBASE
 50
0.0
  9
$ANGDIR
 70
     0
  9
$PDMODE
 70
     0
  9
$PDSIZE
 40
0.0
  9
$PLINEWID
 40
0.0
  9
$SPLFRAME
 70
     0
  9
$SPLINETYPE
 70
     6
  9
$SPLINESEGS
 70
     8
  9
$HANDSEED
  5
15C
  9
$SURFTAB1
 70
     6
  9
$SURFTAB2
 70
     6
  9
$SURFTYPE
 70
     6
  9
$SURFU
 70
     6
  9
$SURFV
 70
     6
  9
$UCSBASE
  2

  9
$UCSNAME
  2

  9
$UCSORG
 10
0.0
 20
0.0
 30
0.0
  9
$UCSXDIR
 10
1.0
 20
0.0
 30
0.0
  9
$UCSYDIR
 10
0.0
 20
1.0
 30
0.0
  9
$UCSORTHOREF
  2

  9
$UCSORTHOVIEW
 70
     0
  9
$UCSORGTOP
 10
0.0
 20
0.0
 30
0.0
  9
$UCSORGBOTTOM
 10
0.0
 20
0.0
 30
0.0
  9
$UCSORGLEFT
 10
0.0
 20
0.0
 30
0.0
  9
$UCSORGRIGHT
 10
0.0
 20
0.0
 30
0.0
  9
$UCSORGFRONT
 10
0.0
 20
0.0
 30
0.0
  9
$UCSORGBACK
 10
0.0
 20
0.0
 30
0.0
  9
$PUCSBASE
  2

  9
$PUCSNAME
  2

  9
$PUCSORG
 10
0.0
 20
0.0
 30
0.0
  9
$PUCSXDIR
 10
1.0
 20
0.0
 30
0.0
  9
$PUCSYDIR
 10
0.0
 20
1.0
 30
0.0
  9
$PUCSORTHOREF
  2

  9
$PUCSORTHOVIEW
 70
     0
  9
$PUCSORGTOP
 10
0.0
 20
0.0
 30
0.0
  9
$PUCSORGBOTTOM
 10
0.0
 20
0.0
 30
0.0
  9
$PUCSORGLEFT
 10
0.0
 20
0.0
 30
0.0
  9
$PUCSORGRIGHT
 10
0.0
 20
0.0
 30
0.0
  9
$PUCSORGFRONT
 10
0.0
 20
0.0
 30
0.0
  9
$PUCSORGBACK
 10
0.0
 20
0.0
 30
0.0
  9
$USERI1
 70
     0
  9
$USERI2
 70
     0
  9
$USERI3
 70
     0
  9
$USERI4
 70
     0
  9
$USERI5
 70
     0
  9
$USERR1
 40
0.0
  9
$USERR2
 40
0.0
  9
$USERR3
 40
0.0
  9
$USERR4
 40
0.0
  9
$USERR5
 40
0.0
  9
$WORLDVIEW
 70
     1
  9
$SHADEDGE
 70
     3
  9
$SHADEDIF
 70
    70
  9
$TILEMODE
 70
     1
  9
$MAXACTVP
 70
    64
  9
$PINSBASE
 10
0.0
 20
0.0
 30
0.0
  9
$PLIMCHECK
 70
     0
  9
$PEXTMIN
 10
1.000000000000000E+20
 20
1.000000000000000E+20
 30
1.000000000000000E+20
  9
$PEXTMAX
 10
-1.000000000000000E+20
 20
-1.000000000000000E+20
 30
-1.000000000000000E+20
  9
$PLIMMIN
 10
0.0
 20
0.0
  9
$PLIMMAX
 10
12.0
 20
9.0
  9
$UNITMODE
 70
     0
  9
$VISRETAIN
 70
     1
  9
$PLINEGEN
 70
     0
  9
$PSLTSCALE
 70
     1
  9
$TREEDEPTH
 70
  3020
  9
$CMLSTYLE
  2
Standard
  9
$CMLJUST
 70
     0
  9
$CMLSCALE
 40
1.0
  9
$PROXYGRAPHICS
 70
     1
  9
$MEASUREMENT
 70
     0
  9
$CELWEIGHT
370
    -1
  9
$ENDCAPS
280
     0
  9
$JOINSTYLE
280
     0
  9
$LWDISPLAY
290
     1
  9
$INSUNITS
 70
     4
  9
$HYPERLINKBASE
  1

  9
$STYLESHEET
  1

  9
$XEDIT
290
     1
  9
$CEPSNTYPE
380
     0
  9
$PSTYLEMODE
290
     1
  9
$FINGERPRINTGUID
  2
{371DB668-7218-9D45-AA37-627296D2EE18}
  9
$VERSIONGUID
  2
{B4079F34-7531-1F4B-84F7-54E558F557A6}
  9
$EXTNAMES
290
     1
  9
$PSVPSCALE
 40
0.0
  9
$OLESTARTUP
290
     0
  9
$SORTENTS
280
   127
  9
$INDEXCTL
280
     0
  9
$HIDETEXT
280
     1
  9
$XCLIPFRAME
280
     2
  9
$HALOGAP
280
     0
  9
$OBSCOLOR
 70
   257
  9
$OBSLTYPE
280
     0
  9
$INTERSECTIONDISPLAY
280
     0
  9
$INTERSECTIONCOLOR
 70
   257
  9
$DIMASSOC
280
     2
  9
$PROJECTNAME
  1

  9
$CAMERADISPLAY
290
     0
  9
$LENSLENGTH
 40
50.0
  9
$CAMERAHEIGHT
 40
0.0
  9
$STEPSPERSEC
 40
2.0
  9
$STEPSIZE
 40
6.0
  9
$3DDWFPREC
 40
2.0
  9
$PSOLWIDTH
 40
0.25
  9
$PSOLHEIGHT
 40
4.0
  9
$LOFTANG1
 40
1.570796326794896
  9
$LOFTANG2
 40
1.570796326794896
  9
$LOFTMAG1
 40
0.0
  9
$LOFTMAG2
 40
0.0
  9
$LOFTPARAM
 70
     7
  9
$LOFTNORMALS
280
     1
  9
$LATITUDE
 40
37.795
  9
$LONGITUDE
 40
-122.394
  9
$NORTHDIRECTION
 40
0.0
  9
$TIMEZONE
 70
 -8000
  9
$LIGHTGLYPHDISPLAY
280
     1
  9
$TILEMODELIGHTSYNCH
280
     1
  9
$CMATERIAL
347
11
  9
$SOLIDHIST
280
     0
  9
$SHOWHIST
280
     1
  9
$DWFFRAME
280
     2
  9
$DGNFRAME
280
     0
  9
$REALWORLDSCALE
290
     1
  9
$INTERFERECOLOR
 62
     1
  9
$INTERFEREOBJVS
345
33
  9
$INTERFEREVPVS
346
30
  9
$CSHADOW
280
     0
  9
$SHADOWPLANELOCATION
 40
0.0
  0
ENDSEC
  0
SECTION
  2
CLASSES
  0
CLASS
  1
ACDBDICTIONARYWDFLT
  2
AcDbDictionaryWithDefault
  3
ObjectDBX Classes
 90
        0
 91
        1
280
     0
281
     0
  0
CLASS
  1
MATERIAL
  2
AcDbMaterial
  3
ObjectDBX Classes
 90
     1153
 91
        3
280
     0
281
     0
  0
CLASS
  1
VISUALSTYLE
  2
AcDbVisualStyle
  3
ObjectDBX Classes
 90
     4095
 91
       24
280
     0
281
     0
  0
CLASS
  1
SCALE
  2
AcDbScale
  3
ObjectDBX Classes
 90
     1153
 91
       17
280
     0
281
     0
  0
CLASS
  1
TABLESTYLE
  2
AcDbTableStyle
  3
ObjectDBX Classes
 90
     4095
 91
        1
280
     0
281
     0
  0
CLASS
  1
MLEADERSTYLE
  2
AcDbMLeaderStyle
  3
ACDB_MLEADERSTYLE_CLASS
 90
     4095
 91
        1
280
     0
281
     0
  0
CLASS
  1
ACDBSECTIONVIEWSTYLE
  2
AcDbSectionViewStyle
  3
ObjectDBX Classes
 90
     1025
 91
        1
280
     0
281
     0
  0
CLASS
  1
ACDBDETAILVIEWSTYLE
  2
AcDbDetailViewStyle
  3
ObjectDBX Classes
 90
     1025
 91
        1
280
     0
281
     0
  0
CLASS
  1
DICTIONARYVAR
  2
AcDbDictionaryVar
  3
ObjectDBX Classes
 90
        0
 91
        5
280
     0
281
     0
  0
CLASS
  1
CELLSTYLEMAP
  2
AcDbCellStyleMap
  3
ObjectDBX Classes
 90
     1152
 91
        1
280
     0
281
     0
  0
ENDSEC
  0
SECTION
  2
TABLES
  0
TABLE
  2
VPORT
  5
8
330
0
100
AcDbSymbolTable
 70
     1
  0
VPORT
  5
57
330
8
100
AcDbSymbolTableRecord
100
AcDbViewportTableRecord
  2
*Active
 70
     0
 10
0.0
 20
0.0
 11
1.0
 21
1.0
 12
0.0
 22
0.0
 13
0.0
 23
0.0
 14
1.0
 24
1.0
 15
0.0
 25
0.0
 16
0.0
 26
0.0
 36
1.0
 17
104.9999999737534
 27
-148.4999999628701
 37
0.0
 40
302.939999924255
 41
0.7070707070707534
 42
50.0
 43
0.0
 44
0.0
 50
0.0
 51
0.0
 71
     0
 72
   100
 73
     1
 74
     0
 75
     1
 76
     0
 77
     0
 78
     0
281
     0
 65
     1
110
0.0
120
0.0
130
0.0
111
1.0
121
0.0
131
0.0
112
0.0
122
1.0
132
0.0
 79
     0
146
0.0
 60
     3
 61
     5
292
     1
282
     1
141
0.0
142
0.0
 63
   250
421
  3355443
  0
ENDTAB
  0
TABLE
  2
LTYPE
  5
5
330
0
100
AcDbSymbolTable
 70
     1
  0
LTYPE
  5
5B
330
5
100
AcDbSymbolTableRecord
100
AcDbLinetypeTableRecord
  2
ByBlock
 70
     0
  3

 72
    65
 73
     0
 40
0.0
  0
LTYPE
  5
5C
330
5
100
AcDbSymbolTableRecord
100
AcDbLinetypeTableRecord
  2
ByLayer
 70
     0
  3

 72
    65
 73
     0
 40
0.0
  0
LTYPE
  5
5D
330
5
100
AcDbSymbolTableRecord
100
AcDbLinetypeTableRecord
  2
Continuous
 70
     0
  3
Solid line
 72
    65
 73
     0
 40
0.0
  0
ENDTAB
  0
TABLE
  2
LAYER
  5
2
330
0
100
AcDbSymbolTable
 70
     2
  0
LAYER
  5
54
330
2
100
AcDbSymbolTableRecord
100
AcDbLayerTableRecord
  2
0
 70
     0
 62
     7
  6
Continuous
370
    -3
390
F
347
21
  0
LAYER
  5
78
330
2
100
AcDbSymbolTableRecord
100
AcDbLayerTableRecord
  2
レイヤー 1
 70
     0
 62
     7
  6
Continuous
370
     0
390
F
347
21
  0
ENDTAB
  0
TABLE
  2
STYLE
  5
3
330
0
100
AcDbSymbolTable
 70
     2
  0
STYLE
  5
55
330
3
100
AcDbSymbolTableRecord
100
AcDbTextStyleTableRecord
  2
Standard
 70
     0
 40
0.0
 41
1.0
 50
0.0
 71
     0
 42
0.2
  3
txt
  4

  0
STYLE
  5
5A
330
3
100
AcDbSymbolTableRecord
100
AcDbTextStyleTableRecord
  2
Annotative
 70
     0
 40
0.0
 41
1.0
 50
0.0
 71
     0
 42
0.2
  3
txt
  4

1001
AcadAnnotative
1000
AnnotativeData
1002
{
1070
     1
1070
     1
1002
}
  0
ENDTAB
  0
TABLE
  2
VIEW
  5
6
330
0
100
AcDbSymbolTable
 70
     0
  0
ENDTAB
  0
TABLE
  2
UCS
  5
7
330
0
100
AcDbSymbolTable
 70
     0
  0
ENDTAB
  0
TABLE
  2
APPID
  5
9
330
0
100
AcDbSymbolTable
 70
     2
  0
APPID
  5
56
330
9
100
AcDbSymbolTableRecord
100
AcDbRegAppTableRecord
  2
ACAD
 70
     0
  0
APPID
  5
5E
330
9
100
AcDbSymbolTableRecord
100
AcDbRegAppTableRecord
  2
AcadAnnotative
 70
     0
  0
ENDTAB
  0
TABLE
  2
DIMSTYLE
  5
A
330
0
100
AcDbSymbolTable
 70
     2
100
AcDbDimStyleTable
 71
     0
  0
DIMSTYLE
105
58
330
A
100
AcDbSymbolTableRecord
100
AcDbDimStyleTableRecord
  2
Standard
 70
     0
340
55
  0
DIMSTYLE
105
59
330
A
100
AcDbSymbolTableRecord
100
AcDbDimStyleTableRecord
  2
Annotative
 70
     0
340
55
1001
AcadAnnotative
1000
AnnotativeData
1002
{
1070
     1
1070
     1
1002
}
  0
ENDTAB
  0
TABLE
  2
BLOCK_RECORD
  5
1
330
0
100
AcDbSymbolTable
 70
    20
  0
BLOCK_RECORD
  5
70
330
1
100
AcDbSymbolTableRecord
100
AcDbBlockTableRecord
  2
*Model_Space
340
73
 70
     0
280
     1
281
     0
  0
BLOCK_RECORD
  5
6C
330
1
100
AcDbSymbolTableRecord
100
AcDbBlockTableRecord
  2
*Paper_Space
340
6F
 70
     0
280
     1
281
     0
  0
BLOCK_RECORD
  5
74
330
1
100
AcDbSymbolTableRecord
100
AcDbBlockTableRecord
  2
*Paper_Space0
340
77
 70
     0
280
     1
281
     0
  0
BLOCK_RECORD
  5
7F
330
1
100
AcDbSymbolTableRecord
100
AcDbBlockTableRecord
  2
Block_0
340
0
102
{BLKREFS
331
80
102
}
 70
     0
280
     1
281
     0
  0
BLOCK_RECORD
  5
86
330
1
100
AcDbSymbolTableRecord
100
AcDbBlockTableRecord
  2
Block_1
340
0
102
{BLKREFS
331
87
102
}
 70
     0
280
     1
281
     0
  0
BLOCK_RECORD
  5
8A
330
1
100
AcDbSymbolTableRecord
100
AcDbBlockTableRecord
  2
Block_2
340
0
102
{BLKREFS
331
8B
102
}
 70
     0
280
     1
281
     0
  0
BLOCK_RECORD
  5
96
330
1
100
AcDbSymbolTableRecord
100
AcDbBlockTableRecord
  2
Block_3
340
0
102
{BLKREFS
331
97
102
}
 70
     0
280
     1
281
     0
  0
BLOCK_RECORD
  5
9E
330
1
100
AcDbSymbolTableRecord
100
AcDbBlockTableRecord
  2
Block_4
340
0
102
{BLKREFS
331
9F
102
}
 70
     0
280
     1
281
     0
  0
BLOCK_RECORD
  5
A2
330
1
100
AcDbSymbolTableRecord
100
AcDbBlockTableRecord
  2
Block_5
340
0
102
{BLKREFS
331
A3
102
}
 70
     0
280
     1
281
     0
  0
BLOCK_RECORD
  5
AA
330
1
100
AcDbSymbolTableRecord
100
AcDbBlockTableRecord
  2
Block_6
340
0
102
{BLKREFS
331
AB
102
}
 70
     0
280
     1
281
     0
  0
BLOCK_RECORD
  5
AE
330
1
100
AcDbSymbolTableRecord
100
AcDbBlockTableRecord
  2
Block_7
340
0
102
{BLKREFS
331
AF
102
}
 70
     0
280
     1
281
     0
  0
BLOCK_RECORD
  5
B9
330
1
100
AcDbSymbolTableRecord
100
AcDbBlockTableRecord
  2
Block_8
340
0
102
{BLKREFS
331
BA
102
}
 70
     0
280
     1
281
     0
  0
BLOCK_RECORD
  5
C0
330
1
100
AcDbSymbolTableRecord
100
AcDbBlockTableRecord
  2
Block_9
340
0
102
{BLKREFS
331
C1
102
}
 70
     0
280
     1
281
     0
  0
BLOCK_RECORD
  5
D0
330
1
100
AcDbSymbolTableRecord
100
AcDbBlockTableRecord
  2
Block_10
340
0
102
{BLKREFS
331
D1
102
}
 70
     0
280
     1
281
     0
  0
BLOCK_RECORD
  5
D6
330
1
100
AcDbSymbolTableRecord
100
AcDbBlockTableRecord
  2
Block_11
340
0
102
{BLKREFS
331
D7
102
}
 70
     0
280
     1
281
     0
  0
BLOCK_RECORD
  5
DA
330
1
100
AcDbSymbolTableRecord
100
AcDbBlockTableRecord
  2
Block_12
340
0
102
{BLKREFS
331
DB
102
}
 70
     0
280
     1
281
     0
  0
BLOCK_RECORD
  5
E3
330
1
100
AcDbSymbolTableRecord
100
AcDbBlockTableRecord
  2
Block_13
340
0
102
{BLKREFS
331
E4
102
}
 70
     0
280
     1
281
     0
  0
BLOCK_RECORD
  5
F0
330
1
100
AcDbSymbolTableRecord
100
AcDbBlockTableRecord
  2
Block_14
340
0
102
{BLKREFS
331
F1
102
}
 70
     0
280
     1
281
     0
  0
BLOCK_RECORD
  5
F6
330
1
100
AcDbSymbolTableRecord
100
AcDbBlockTableRecord
  2
Block_15
340
0
102
{BLKREFS
331
F7
102
}
 70
     0
280
     1
281
     0
  0
BLOCK_RECORD
  5
FD
330
1
100
AcDbSymbolTableRecord
100
AcDbBlockTableRecord
  2
Block_16
340
0
102
{BLKREFS
331
FE
102
}
 70
     0
280
     1
281
     0
  0
BLOCK_RECORD
  5
104
330
1
100
AcDbSymbolTableRecord
100
AcDbBlockTableRecord
  2
Block_17
340
0
102
{BLKREFS
331
105
102
}
 70
     0
280
     1
281
     0
  0
BLOCK_RECORD
  5
108
330
1
100
AcDbSymbolTableRecord
100
AcDbBlockTableRecord
  2
Block_18
340
0
102
{BLKREFS
331
109
102
}
 70
     0
280
     1
281
     0
  0
ENDTAB
  0
ENDSEC
  0
SECTION
  2
BLOCKS
  0
BLOCK
  5
71
330
70
100
AcDbEntity
  8
0
100
AcDbBlockBegin
  2
*Model_Space
 70
     0
 10
0.0
 20
0.0
 30
0.0
  3
*Model_Space
  1

  0
ENDBLK
  5
72
330
70
100
AcDbEntity
  8
0
100
AcDbBlockEnd
  0
BLOCK
  5
6D
330
6C
100
AcDbEntity
 67
     1
  8
0
100
AcDbBlockBegin
  2
*Paper_Space
 70
     0
 10
0.0
 20
0.0
 30
0.0
  3
*Paper_Space
  1

  0
ENDBLK
  5
6E
330
6C
100
AcDbEntity
 67
     1
  8
0
100
AcDbBlockEnd
  0
BLOCK
  5
75
330
74
100
AcDbEntity
 67
     1
  8
0
100
AcDbBlockBegin
  2
*Paper_Space0
 70
     0
 10
0.0
 20
0.0
 30
0.0
  3
*Paper_Space0
  1

  0
ENDBLK
  5
76
330
74
100
AcDbEntity
 67
     1
  8
0
100
AcDbBlockEnd
  0
BLOCK
  5
81
330
7F
100
AcDbEntity
  8
0
100
AcDbBlockBegin
  2
Block_0
 70
     0
 10
0.0
 20
0.0
 30
0.0
  3
Block_0
  1

  0
LINE
  5
83
330
7F
100
AcDbEntity
  8
レイヤー 1
 62
    18
420
        0
370
     9
100
AcDbLine
 10
102.8766159366269
 20
-139.7131135655573
 30
0.0
 11
122.8652561651958
 21
-139.7131135655573
 31
0.0
  0
LINE
  5
84
330
7F
100
AcDbEntity
  8
レイヤー 1
 62
    18
420
        0
370
     9
100
AcDbLine
 10
102.8766159366269
 20
-141.1731549171975
 30
0.0
 11
102.8766159366269
 21
-138.712988591073
 31
0.0
  0
LINE
  5
85
330
7F
100
AcDbEntity
  8
レイヤー 1
 62
    18
420
        0
370
     9
100
AcDbLine
 10
122.8652560504883
 20
-141.1731549171975
 30
0.0
 11
122.8652560504883
 21
-138.712988591073
 31
0.0
  0
INSERT
  5
87
330
7F
100
AcDbEntity
  8
レイヤー 1
100
AcDbBlockReference
  2
Block_1
 10
0.0
 20
0.0
 30
0.0
  0
ENDBLK
  5
82
330
7F
100
AcDbEntity
  8
0
100
AcDbBlockEnd
  0
BLOCK
  5
88
330
86
100
AcDbEntity
  8
0
100
AcDbBlockBegin
  2
Block_1
 70
     0
 10
0.0
 20
0.0
 30
0.0
  3
Block_1
  1

  0
INSERT
  5
8B
330
86
100
AcDbEntity
  8
レイヤー 1
100
AcDbBlockReference
  2
Block_2
 10
0.0
 20
0.0
 30
0.0
  0
ENDBLK
  5
89
330
86
100
AcDbEntity
  8
0
100
AcDbBlockEnd
  0
BLOCK
  5
8C
330
8A
100
AcDbEntity
  8
0
100
AcDbBlockBegin
  2
Block_2
 70
     0
 10
0.0
 20
0.0
 30
0.0
  3
Block_2
  1

  0
SPLINE
  5
8E
330
8A
100
AcDbEntity
  8
レイヤー 1
100
AcDbSpline
210
0.0
220
0.0
230
1.0
 70
     9
 71
     3
 72
    44
 73
    40
 74
     0
 42
0.0000000001
 43
0.0000000001
 40
0.0
 40
0.0
 40
0.0
 40
0.0
 40
1.0
 40
1.0
 40
1.0
 40
2.0
 40
2.0
 40
2.0
 40
3.0
 40
3.0
 40
3.0
 40
4.0
 40
4.0
 40
4.0
 40
5.0
 40
5.0
 40
5.0
 40
6.0
 40
6.0
 40
6.0
 40
7.0
 40
7.0
 40
7.0
 40
8.0
 40
8.0
 40
8.0
 40
9.0
 40
9.0
 40
9.0
 40
10.0
 40
10.0
 40
10.0
 40
11.0
 40
11.0
 40
11.0
 40
12.0
 40
12.0
 40
12.0
 40
13.0
 40
13.0
 40
13.0
 40
13.0
 10
112.369368461491
 20
-137.7791869772739
 30
0.0
 10
112.1516384268232
 20
-137.9378336243697
 30
0.0
 10
112.0586208487214
 20
-138.0119031773026
 30
0.0
 10
112.0097004928309
 20
-138.1557359138117
 30
0.0
 10
112.0097004928309
 20
-138.1557359138117
 30
0.0
 10
112.7882920724973
 20
-138.1557359138117
 30
0.0
 10
112.7882920724973
 20
-138.1557359138117
 30
0.0
 10
112.7882920724973
 20
-138.1557359138117
 30
0.0
 10
112.7882920724973
 20
-138.3608913499584
 30
0.0
 10
112.7882920724973
 20
-138.3608913499584
 30
0.0
 10
112.7882920724973
 20
-138.3608913499584
 30
0.0
 10
111.7602755796988
 20
-138.3608913499584
 30
0.0
 10
111.7602755796988
 20
-138.3608913499584
 30
0.0
 10
111.7919704581631
 20
-138.0032904385894
 30
0.0
 10
111.8574272723828
 20
-137.9250867710743
 30
0.0
 10
112.2425889476338
 20
-137.6267415020516
 30
0.0
 10
112.4985595421878
 20
-137.4279594925527
 30
0.0
 10
112.5640163564076
 20
-137.3602633662676
 30
0.0
 10
112.5640163564076
 20
-137.2228040564061
 30
0.0
 10
112.5640163564076
 20
-137.1042927717135
 30
0.0
 10
112.4920138607659
 20
-136.9732068884997
 30
0.0
 10
112.2952989085581
 20
-136.9732068884997
 30
0.0
 10
112.0351941994217
 20
-136.9732068884997
 30
0.0
 10
112.0269259702571
 20
-137.203683776463
 30
0.0
 10
112.0224473461263
 20
-137.3201280038644
 30
0.0
 10
112.0224473461263
 20
-137.3201280038644
 30
0.0
 10
111.7981716300366
 20
-137.3201280038644
 30
0.0
 10
111.7981716300366
 20
-137.3201280038644
 30
0.0
 10
111.8067843687497
 20
-137.1931762352329
 30
0.0
 10
111.8174641647539
 20
-137.0810383771881
 30
0.0
 10
111.8977348895603
 20
-136.9625270924955
 30
0.0
 10
112.0076334355397
 20
-136.8018133881085
 30
0.0
 10
112.1940131012918
 20
-136.7678791975789
 30
0.0
 10
112.3101128191447
 20
-136.7678791975789
 30
0.0
 10
112.5874430057073
 20
-136.7678791975789
 30
0.0
 10
112.7948377539193
 20
-136.9520195512654
 30
0.0
 10
112.7948377539193
 20
-137.2248711136972
 30
0.0
 10
112.7948377539193
 20
-137.4532809443693
 30
0.0
 10
112.6783935265179
 20
-137.552844203893
 30
0.0
 10
112.369368461491
 20
-137.7791869772739
 30
0.0
  0
HATCH
  5
8F
330
8A
100
AcDbEntity
  8
レイヤー 1
 62
    18
420
        0
440
 33554687
100
AcDbHatch
 10
0.0
 20
0.0
 30
0.0
210
0.0
220
0.0
230
1.0
  2
SOLID
 70
     1
 71
     1
 91
        1
 92
        1
 93
        1
 72
     4
 94
        3
 73
     0
 74
     0
 95
       44
 96
       40
 40
0.0
 40
0.0
 40
0.0
 40
0.0
 40
1.0
 40
1.0
 40
1.0
 40
2.0
 40
2.0
 40
2.0
 40
3.0
 40
3.0
 40
3.0
 40
4.0
 40
4.0
 40
4.0
 40
5.0
 40
5.0
 40
5.0
 40
6.0
 40
6.0
 40
6.0
 40
7.0
 40
7.0
 40
7.0
 40
8.0
 40
8.0
 40
8.0
 40
9.0
 40
9.0
 40
9.0
 40
10.0
 40
10.0
 40
10.0
 40
11.0
 40
11.0
 40
11.0
 40
12.0
 40
12.0
 40
12.0
 40
13.0
 40
13.0
 40
13.0
 40
13.0
 10
112.369368461491
 20
-137.7791869772739
 10
112.1516384268232
 20
-137.9378336243697
 10
112.0586208487214
 20
-138.0119031773026
 10
112.0097004928309
 20
-138.1557359138117
 10
112.0097004928309
 20
-138.1557359138117
 10
112.7882920724973
 20
-138.1557359138117
 10
112.7882920724973
 20
-138.1557359138117
 10
112.7882920724973
 20
-138.1557359138117
 10
112.7882920724973
 20
-138.3608913499584
 10
112.7882920724973
 20
-138.3608913499584
 10
112.7882920724973
 20
-138.3608913499584
 10
111.7602755796988
 20
-138.3608913499584
 10
111.7602755796988
 20
-138.3608913499584
 10
111.7919704581631
 20
-138.0032904385894
 10
111.8574272723828
 20
-137.9250867710743
 10
112.2425889476338
 20
-137.6267415020516
 10
112.4985595421878
 20
-137.4279594925527
 10
112.5640163564076
 20
-137.3602633662676
 10
112.5640163564076
 20
-137.2228040564061
 10
112.5640163564076
 20
-137.1042927717135
 10
112.4920138607659
 20
-136.9732068884997
 10
112.2952989085581
 20
-136.9732068884997
 10
112.0351941994217
 20
-136.9732068884997
 10
112.0269259702571
 20
-137.203683776463
 10
112.0224473461263
 20
-137.3201280038644
 10
112.0224473461263
 20
-137.3201280038644
 10
111.7981716300366
 20
-137.3201280038644
 10
111.7981716300366
 20
-137.3201280038644
 10
111.8067843687497
 20
-137.1931762352329
 10
111.8174641647539
 20
-137.0810383771881
 10
111.8977348895603
 20
-136.9625270924955
 10
112.0076334355397
 20
-136.8018133881085
 10
112.1940131012918
 20
-136.7678791975789
 10
112.3101128191447
 20
-136.7678791975789
 10
112.5874430057073
 20
-136.7678791975789
 10
112.7948377539193
 20
-136.9520195512654
 10
112.7948377539193
 20
-137.2248711136972
 10
112.7948377539193
 20
-137.4532809443693
 10
112.6783935265179
 20
-137.552844203893
 10
112.369368461491
 20
-137.7791869772739
 97
        0
 97
        1
330
8E
 75
     2
 76
     1
 98
        1
 10
0.0
 20
0.0
450
        0
451
        0
460
0.0
461
0.0
452
        0
462
0.0
453
        0
470

  0
SPLINE
  5
90
330
8A
100
AcDbEntity
  8
レイヤー 1
100
AcDbSpline
210
0.0
220
0.0
230
1.0
 70
     9
 71
     3
 72
    17
 73
    13
 74
     0
 42
0.0000000001
 43
0.0000000001
 40
0.0
 40
0.0
 40
0.0
 40
0.0
 40
1.0
 40
1.0
 40
1.0
 40
2.0
 40
2.0
 40
2.0
 40
3.0
 40
3.0
 40
3.0
 40
4.0
 40
4.0
 40
4.0
 40
4.0
 10
113.4531955011506
 20
-136.9604600352043
 30
0.0
 10
113.2037705880185
 20
-136.9604600352043
 30
0.0
 10
113.1569172894191
 20
-137.2439913936404
 30
0.0
 10
113.1569172894191
 20
-137.5886731969396
 30
0.0
 10
113.1569172894191
 20
-137.9082058031966
 30
0.0
 10
113.1930907920142
 20
-138.2170586134492
 30
0.0
 10
113.4531955011506
 20
-138.2170586134492
 30
0.0
 10
113.70089786654
 20
-138.2170586134492
 30
0.0
 10
113.7494737128821
 20
-137.9355943123043
 30
0.0
 10
113.7494737128821
 20
-137.5886731969396
 30
0.0
 10
113.7494737128821
 20
-137.269312845457
 30
0.0
 10
113.7112331529958
 20
-136.9604600352043
 30
0.0
 10
113.4531955011506
 20
-136.9604600352043
 30
0.0
  0
SPLINE
  5
91
330
8A
100
AcDbEntity
  8
レイヤー 1
100
AcDbSpline
210
0.0
220
0.0
230
1.0
 70
     9
 71
     3
 72
    29
 73
    25
 74
     0
 42
0.0000000001
 43
0.0000000001
 40
0.0
 40
0.0
 40
0.0
 40
0.0
 40
1.0
 40
1.0
 40
1.0
 40
2.0
 40
2.0
 40
2.0
 40
3.0
 40
3.0
 40
3.0
 40
4.0
 40
4.0
 40
4.0
 40
5.0
 40
5.0
 40
5.0
 40
6.0
 40
6.0
 40
6.0
 40
7.0
 40
7.0
 40
7.0
 40
8.0
 40
8.0
 40
8.0
 40
8.0
 10
113.8511040296969
 20
-138.1831244229195
 30
0.0
 10
113.7429280314601
 20
-138.3925862284227
 30
0.0
 10
113.569639728552
 20
-138.4117065083658
 30
0.0
 10
113.4531955011506
 20
-138.4117065083658
 30
0.0
 10
113.2923095419894
 20
-138.4117065083658
 30
0.0
 10
113.1507161175456
 20
-138.3651977193149
 30
0.0
 10
113.0556314821527
 20
-138.1831244229195
 30
0.0
 10
112.9519341080467
 20
-137.9884765280029
 30
0.0
 10
112.9329860828778
 20
-137.7516262133919
 30
0.0
 10
112.9329860828778
 20
-137.5886731969396
 30
0.0
 10
112.9329860828778
 20
-137.4448404604304
 30
0.0
 10
112.9498670507556
 20
-137.1931762352329
 30
0.0
 10
113.0556314821527
 20
-136.9942219709598
 30
0.0
 10
113.163462970841
 20
-136.7911335921043
 30
0.0
 10
113.3243489300022
 20
-136.7678791975789
 30
0.0
 10
113.4531955011506
 20
-136.7678791975789
 30
0.0
 10
113.6120144030206
 20
-136.7678791975789
 30
0.0
 10
113.7556748847555
 20
-136.8123209293386
 30
0.0
 10
113.8511040296969
 20
-136.9942219709598
 30
0.0
 10
113.9503227796721
 20
-137.1868028085852
 30
0.0
 10
113.9737494289718
 20
-137.4152126392573
 30
0.0
 10
113.9737494289718
 20
-137.5886731969396
 30
0.0
 10
113.9737494289718
 20
-137.7600666973308
 30
0.0
 10
113.9523898369633
 20
-137.9907158400683
 30
0.0
 10
113.8511040296969
 20
-138.1831244229195
 30
0.0
  0
HATCH
  5
92
330
8A
100
AcDbEntity
  8
レイヤー 1
 62
    18
420
        0
440
 33554687
100
AcDbHatch
 10
0.0
 20
0.0
 30
0.0
210
0.0
220
0.0
230
1.0
  2
SOLID
 70
     1
 71
     1
 91
        2
 92
        1
 93
        1
 72
     4
 94
        3
 73
     0
 74
     0
 95
       17
 96
       13
 40
0.0
 40
0.0
 40
0.0
 40
0.0
 40
1.0
 40
1.0
 40
1.0
 40
2.0
 40
2.0
 40
2.0
 40
3.0
 40
3.0
 40
3.0
 40
4.0
 40
4.0
 40
4.0
 40
4.0
 10
113.4531955011506
 20
-136.9604600352043
 10
113.2037705880185
 20
-136.9604600352043
 10
113.1569172894191
 20
-137.2439913936404
 10
113.1569172894191
 20
-137.5886731969396
 10
113.1569172894191
 20
-137.9082058031966
 10
113.1930907920142
 20
-138.2170586134492
 10
113.4531955011506
 20
-138.2170586134492
 10
113.70089786654
 20
-138.2170586134492
 10
113.7494737128821
 20
-137.9355943123043
 10
113.7494737128821
 20
-137.5886731969396
 10
113.7494737128821
 20
-137.269312845457
 10
113.7112331529958
 20
-136.9604600352043
 10
113.4531955011506
 20
-136.9604600352043
 97
        0
 97
        1
330
90
 92
        1
 93
        1
 72
     4
 94
        3
 73
     0
 74
     0
 95
       29
 96
       25
 40
0.0
 40
0.0
 40
0.0
 40
0.0
 40
1.0
 40
1.0
 40
1.0
 40
2.0
 40
2.0
 40
2.0
 40
3.0
 40
3.0
 40
3.0
 40
4.0
 40
4.0
 40
4.0
 40
5.0
 40
5.0
 40
5.0
 40
6.0
 40
6.0
 40
6.0
 40
7.0
 40
7.0
 40
7.0
 40
8.0
 40
8.0
 40
8.0
 40
8.0
 10
113.8511040296969
 20
-138.1831244229195
 10
113.7429280314601
 20
-138.3925862284227
 10
113.569639728552
 20
-138.4117065083658
 10
113.4531955011506
 20
-138.4117065083658
 10
113.2923095419894
 20
-138.4117065083658
 10
113.1507161175456
 20
-138.3651977193149
 10
113.0556314821527
 20
-138.1831244229195
 10
112.9519341080467
 20
-137.9884765280029
 10
112.9329860828778
 20
-137.7516262133919
 10
112.9329860828778
 20
-137.5886731969396
 10
112.9329860828778
 20
-137.4448404604304
 10
112.9498670507556
 20
-137.1931762352329
 10
113.0556314821527
 20
-136.9942219709598
 10
113.163462970841
 20
-136.7911335921043
 10
113.3243489300022
 20
-136.7678791975789
 10
113.4531955011506
 20
-136.7678791975789
 10
113.6120144030206
 20
-136.7678791975789
 10
113.7556748847555
 20
-136.8123209293386
 10
113.8511040296969
 20
-136.9942219709598
 10
113.9503227796721
 20
-137.1868028085852
 10
113.9737494289718
 20
-137.4152126392573
 10
113.9737494289718
 20
-137.5886731969396
 10
113.9737494289718
 20
-137.7600666973308
 10
113.9523898369633
 20
-137.9907158400683
 10
113.8511040296969
 20
-138.1831244229195
 97
        0
 97
        1
330
91
 75
     2
 76
     1
 98
        1
 10
0.0
 20
0.0
450
        0
451
        0
460
0.0
461
0.0
452
        0
462
0.0
453
        0
470

  0
ENDBLK
  5
8D
330
8A
100
AcDbEntity
  8
0
100
AcDbBlockEnd
  0
BLOCK
  5
98
330
96
100
AcDbEntity
  8
0
100
AcDbBlockBegin
  2
Block_3
 70
     0
 10
0.0
 20
0.0
 30
0.0
  3
Block_3
  1

  0
LINE
  5
9A
330
96
100
AcDbEntity
  8
レイヤー 1
 62
    18
420
        0
370
     9
100
AcDbLine
 10
88.69835073225727
 20
-161.3960996142925
 30
0.0
 11
113.6760200563819
 21
-161.3960996142925
 31
0.0
  0
LINE
  5
9B
330
96
100
AcDbEntity
  8
レイヤー 1
 62
    18
420
        0
370
     9
100
AcDbLine
 10
98.68737982656309
 20
-162.8561409659326
 30
0.0
 11
98.68737982656309
 21
-160.3959746398078
 31
0.0
  0
LINE
  5
9C
330
96
100
AcDbEntity
  8
レイヤー 1
 62
    18
420
        0
370
     9
100
AcDbLine
 10
88.68737988734286
 20
-162.8561409659326
 30
0.0
 11
88.68737988734286
 21
-160.3959746398078
 31
0.0
  0
LINE
  5
9D
330
96
100
AcDbEntity
  8
レイヤー 1
 62
    18
420
        0
370
     9
100
AcDbLine
 10
113.676019802597
 20
-162.8561409659326
 30
0.0
 11
113.676019802597
 21
-160.3959746398078
 31
0.0
  0
INSERT
  5
9F
330
96
100
AcDbEntity
  8
レイヤー 1
100
AcDbBlockReference
  2
Block_4
 10
0.0
 20
0.0
 30
0.0
  0
INSERT
  5
AB
330
96
100
AcDbEntity
  8
レイヤー 1
100
AcDbBlockReference
  2
Block_6
 10
0.0
 20
0.0
 30
0.0
  0
ENDBLK
  5
99
330
96
100
AcDbEntity
  8
0
100
AcDbBlockEnd
  0
BLOCK
  5
A0
330
9E
100
AcDbEntity
  8
0
100
AcDbBlockBegin
  2
Block_4
 70
     0
 10
0.0
 20
0.0
 30
0.0
  3
Block_4
  1

  0
INSERT
  5
A3
330
9E
100
AcDbEntity
  8
レイヤー 1
100
AcDbBlockReference
  2
Block_5
 10
0.0
 20
0.0
 30
0.0
  0
ENDBLK
  5
A1
330
9E
100
AcDbEntity
  8
0
100
AcDbBlockEnd
  0
BLOCK
  5
A4
330
A2
100
AcDbEntity
  8
0
100
AcDbBlockBegin
  2
Block_5
 70
     0
 10
0.0
 20
0.0
 30
0.0
  3
Block_5
  1

  0
SPLINE
  5
A6
330
A2
100
AcDbEntity
  8
レイヤー 1
100
AcDbSpline
210
0.0
220
0.0
230
1.0
 70
    11
 71
     3
 72
    26
 73
    22
 74
     0
 42
0.0000000001
 43
0.0000000001
 40
0.0
 40
0.0
 40
0.0
 40
0.0
 40
1.0
 40
1.0
 40
1.0
 40
2.0
 40
2.0
 40
2.0
 40
3.0
 40
3.0
 40
3.0
 40
4.0
 40
4.0
 40
4.0
 40
5.0
 40
5.0
 40
5.0
 40
6.0
 40
6.0
 40
6.0
 40
7.0
 40
7.0
 40
7.0
 40
7.0
 10
105.5387776428861
 20
-160.0439778245723
 30
0.0
 10
105.5387776428861
 20
-160.0439778245723
 30
0.0
 10
105.5387776428861
 20
-158.9394802120012
 30
0.0
 10
105.5387776428861
 20
-158.9394802120012
 30
0.0
 10
105.5387776428861
 20
-158.9394802120012
 30
0.0
 10
105.2085652406249
 20
-158.9394802120012
 30
0.0
 10
105.2085652406249
 20
-158.9394802120012
 30
0.0
 10
105.2085652406249
 20
-158.9394802120012
 30
0.0
 10
105.2085652406249
 20
-158.791685615684
 30
0.0
 10
105.2085652406249
 20
-158.791685615684
 30
0.0
 10
105.5408447001773
 20
-158.7768717050974
 30
0.0
 10
105.5873534892281
 20
-158.6139186886451
 30
0.0
 10
105.6169813104013
 20
-158.4995415185348
 30
0.0
 10
105.6169813104013
 20
-158.4995415185348
 30
0.0
 10
105.7630533589759
 20
-158.4995415185348
 30
0.0
 10
105.7630533589759
 20
-158.4995415185348
 30
0.0
 10
105.7630533589759
 20
-158.4995415185348
 30
0.0
 10
105.7630533589759
 20
-160.0439778245723
 30
0.0
 10
105.7630533589759
 20
-160.0439778245723
 30
0.0
 10
105.7630533589759
 20
-160.0439778245723
 30
0.0
 10
105.5387776428861
 20
-160.0439778245723
 30
0.0
 10
105.5387776428861
 20
-160.0439778245723
 30
0.0
  0
HATCH
  5
A7
330
A2
100
AcDbEntity
  8
レイヤー 1
 62
    18
420
        0
440
 33554687
100
AcDbHatch
 10
0.0
 20
0.0
 30
0.0
210
0.0
220
0.0
230
1.0
  2
SOLID
 70
     1
 71
     1
 91
        1
 92
        1
 93
        1
 72
     4
 94
        3
 73
     0
 74
     0
 95
       26
 96
       22
 40
0.0
 40
0.0
 40
0.0
 40
0.0
 40
1.0
 40
1.0
 40
1.0
 40
2.0
 40
2.0
 40
2.0
 40
3.0
 40
3.0
 40
3.0
 40
4.0
 40
4.0
 40
4.0
 40
5.0
 40
5.0
 40
5.0
 40
6.0
 40
6.0
 40
6.0
 40
7.0
 40
7.0
 40
7.0
 40
7.0
 10
105.5387776428861
 20
-160.0439778245723
 10
105.5387776428861
 20
-160.0439778245723
 10
105.5387776428861
 20
-158.9394802120012
 10
105.5387776428861
 20
-158.9394802120012
 10
105.5387776428861
 20
-158.9394802120012
 10
105.2085652406249
 20
-158.9394802120012
 10
105.2085652406249
 20
-158.9394802120012
 10
105.2085652406249
 20
-158.9394802120012
 10
105.2085652406249
 20
-158.791685615684
 10
105.2085652406249
 20
-158.791685615684
 10
105.5408447001773
 20
-158.7768717050974
 10
105.5873534892281
 20
-158.6139186886451
 10
105.6169813104013
 20
-158.4995415185348
 10
105.6169813104013
 20
-158.4995415185348
 10
105.7630533589759
 20
-158.4995415185348
 10
105.7630533589759
 20
-158.4995415185348
 10
105.7630533589759
 20
-158.4995415185348
 10
105.7630533589759
 20
-160.0439778245723
 10
105.7630533589759
 20
-160.0439778245723
 10
105.7630533589759
 20
-160.0439778245723
 10
105.5387776428861
 20
-160.0439778245723
 10
105.5387776428861
 20
-160.0439778245723
 97
        0
 97
        1
330
A6
 75
     2
 76
     1
 98
        1
 10
0.0
 20
0.0
450
        0
451
        0
460
0.0
461
0.0
452
        0
462
0.0
453
        0
470

  0
SPLINE
  5
A8
330
A2
100
AcDbEntity
  8
レイヤー 1
100
AcDbSpline
210
0.0
220
0.0
230
1.0
 70
     9
 71
     3
 72
    53
 73
    49
 74
     0
 42
0.0000000001
 43
0.0000000001
 40
0.0
 40
0.0
 40
0.0
 40
0.0
 40
1.0
 40
1.0
 40
1.0
 40
2.0
 40
2.0
 40
2.0
 40
3.0
 40
3.0
 40
3.0
 40
4.0
 40
4.0
 40
4.0
 40
5.0
 40
5.0
 40
5.0
 40
6.0
 40
6.0
 40
6.0
 40
7.0
 40
7.0
 40
7.0
 40
8.0
 40
8.0
 40
8.0
 40
9.0
 40
9.0
 40
9.0
 40
10.0
 40
10.0
 40
10.0
 40
11.0
 40
11.0
 40
11.0
 40
12.0
 40
12.0
 40
12.0
 40
13.0
 40
13.0
 40
13.0
 40
14.0
 40
14.0
 40
14.0
 40
15.0
 40
15.0
 40
15.0
 40
16.0
 40
16.0
 40
16.0
 40
16.0
 10
106.7452500818206
 20
-160.0946207282055
 30
0.0
 10
106.6670464143054
 20
-160.0946207282055
 30
0.0
 10
106.5654160974906
 20
-160.0777397603278
 30
0.0
 10
106.4637857806757
 20
-160.0143500033992
 30
0.0
 10
106.2904974777676
 20
-159.9041069478712
 30
0.0
 10
106.2691378857591
 20
-159.7731933194317
 30
0.0
 10
106.2501898605902
 20
-159.6653618307434
 30
0.0
 10
106.2501898605902
 20
-159.6653618307434
 30
0.0
 10
106.4723985193888
 20
-159.6653618307434
 30
0.0
 10
106.4723985193888
 20
-159.6653618307434
 30
0.0
 10
106.5271755376043
 20
-159.8641438402423
 30
0.0
 10
106.65429956101
 20
-159.8937716614154
 30
0.0
 10
106.7473171391118
 20
-159.8937716614154
 30
0.0
 10
106.8868435062644
 20
-159.8937716614154
 30
0.0
 10
107.0391167267124
 20
-159.7942084018917
 30
0.0
 10
107.0391167267124
 20
-159.5616644566374
 30
0.0
 10
107.0391167267124
 20
-159.3056938620833
 30
0.0
 10
106.8592827423824
 20
-159.2357584237327
 30
0.0
 10
106.7387044003986
 20
-159.2357584237327
 30
0.0
 10
106.7070095219343
 20
-159.2357584237327
 30
0.0
 10
106.5654160974906
 20
-159.2357584237327
 30
0.0
 10
106.4765326339711
 20
-159.3649495044296
 30
0.0
 10
106.4765326339711
 20
-159.3649495044296
 30
0.0
 10
106.3008327642234
 20
-159.3456569697122
 30
0.0
 10
106.3008327642234
 20
-159.3456569697122
 30
0.0
 10
106.3008327642234
 20
-159.3456569697122
 30
0.0
 10
106.4214111062071
 20
-158.4995415185348
 30
0.0
 10
106.4214111062071
 20
-158.4995415185348
 30
0.0
 10
106.4214111062071
 20
-158.4995415185348
 30
0.0
 10
107.2000026858736
 20
-158.4995415185348
 30
0.0
 10
107.2000026858736
 20
-158.4995415185348
 30
0.0
 10
107.2000026858736
 20
-158.4995415185348
 30
0.0
 10
107.2000026858736
 20
-158.6941894134514
 30
0.0
 10
107.2000026858736
 20
-158.6941894134514
 30
0.0
 10
107.2000026858736
 20
-158.6941894134514
 30
0.0
 10
106.5843641226594
 20
-158.6941894134514
 30
0.0
 10
106.5843641226594
 20
-158.6941894134514
 30
0.0
 10
106.5843641226594
 20
-158.6941894134514
 30
0.0
 10
106.5189073084397
 20
-159.1172471390401
 30
0.0
 10
106.5189073084397
 20
-159.1172471390401
 30
0.0
 10
106.5802300080771
 20
-159.0834852032847
 30
0.0
 10
106.6625677901746
 20
-159.0431775861073
 30
0.0
 10
106.7810790748672
 20
-159.0431775861073
 30
0.0
 10
107.0349826121301
 20
-159.0431775861073
 30
0.0
 10
107.2720051815153
 20
-159.2295572518593
 30
0.0
 10
107.2720051815153
 20
-159.54237192192
 30
0.0
 10
107.2720051815153
 20
-159.86000972566
 30
0.0
 10
107.0477294654256
 20
-160.0946207282055
 30
0.0
 10
106.7452500818206
 20
-160.0946207282055
 30
0.0
  0
HATCH
  5
A9
330
A2
100
AcDbEntity
  8
レイヤー 1
 62
    18
420
        0
440
 33554687
100
AcDbHatch
 10
0.0
 20
0.0
 30
0.0
210
0.0
220
0.0
230
1.0
  2
SOLID
 70
     1
 71
     1
 91
        1
 92
        1
 93
        1
 72
     4
 94
        3
 73
     0
 74
     0
 95
       53
 96
       49
 40
0.0
 40
0.0
 40
0.0
 40
0.0
 40
1.0
 40
1.0
 40
1.0
 40
2.0
 40
2.0
 40
2.0
 40
3.0
 40
3.0
 40
3.0
 40
4.0
 40
4.0
 40
4.0
 40
5.0
 40
5.0
 40
5.0
 40
6.0
 40
6.0
 40
6.0
 40
7.0
 40
7.0
 40
7.0
 40
8.0
 40
8.0
 40
8.0
 40
9.0
 40
9.0
 40
9.0
 40
10.0
 40
10.0
 40
10.0
 40
11.0
 40
11.0
 40
11.0
 40
12.0
 40
12.0
 40
12.0
 40
13.0
 40
13.0
 40
13.0
 40
14.0
 40
14.0
 40
14.0
 40
15.0
 40
15.0
 40
15.0
 40
16.0
 40
16.0
 40
16.0
 40
16.0
 10
106.7452500818206
 20
-160.0946207282055
 10
106.6670464143054
 20
-160.0946207282055
 10
106.5654160974906
 20
-160.0777397603278
 10
106.4637857806757
 20
-160.0143500033992
 10
106.2904974777676
 20
-159.9041069478712
 10
106.2691378857591
 20
-159.7731933194317
 10
106.2501898605902
 20
-159.6653618307434
 10
106.2501898605902
 20
-159.6653618307434
 10
106.4723985193888
 20
-159.6653618307434
 10
106.4723985193888
 20
-159.6653618307434
 10
106.5271755376043
 20
-159.8641438402423
 10
106.65429956101
 20
-159.8937716614154
 10
106.7473171391118
 20
-159.8937716614154
 10
106.8868435062644
 20
-159.8937716614154
 10
107.0391167267124
 20
-159.7942084018917
 10
107.0391167267124
 20
-159.5616644566374
 10
107.0391167267124
 20
-159.3056938620833
 10
106.8592827423824
 20
-159.2357584237327
 10
106.7387044003986
 20
-159.2357584237327
 10
106.7070095219343
 20
-159.2357584237327
 10
106.5654160974906
 20
-159.2357584237327
 10
106.4765326339711
 20
-159.3649495044296
 10
106.4765326339711
 20
-159.3649495044296
 10
106.3008327642234
 20
-159.3456569697122
 10
106.3008327642234
 20
-159.3456569697122
 10
106.3008327642234
 20
-159.3456569697122
 10
106.4214111062071
 20
-158.4995415185348
 10
106.4214111062071
 20
-158.4995415185348
 10
106.4214111062071
 20
-158.4995415185348
 10
107.2000026858736
 20
-158.4995415185348
 10
107.2000026858736
 20
-158.4995415185348
 10
107.2000026858736
 20
-158.4995415185348
 10
107.2000026858736
 20
-158.6941894134514
 10
107.2000026858736
 20
-158.6941894134514
 10
107.2000026858736
 20
-158.6941894134514
 10
106.5843641226594
 20
-158.6941894134514
 10
106.5843641226594
 20
-158.6941894134514
 10
106.5843641226594
 20
-158.6941894134514
 10
106.5189073084397
 20
-159.1172471390401
 10
106.5189073084397
 20
-159.1172471390401
 10
106.5802300080771
 20
-159.0834852032847
 10
106.6625677901746
 20
-159.0431775861073
 10
106.7810790748672
 20
-159.0431775861073
 10
107.0349826121301
 20
-159.0431775861073
 10
107.2720051815153
 20
-159.2295572518593
 10
107.2720051815153
 20
-159.54237192192
 10
107.2720051815153
 20
-159.86000972566
 10
107.0477294654256
 20
-160.0946207282055
 10
106.7452500818206
 20
-160.0946207282055
 97
        0
 97
        1
330
A8
 75
     2
 76
     1
 98
        1
 10
0.0
 20
0.0
450
        0
451
        0
460
0.0
461
0.0
452
        0
462
0.0
453
        0
470

  0
ENDBLK
  5
A5
330
A2
100
AcDbEntity
  8
0
100
AcDbBlockEnd
  0
BLOCK
  5
AC
330
AA
100
AcDbEntity
  8
0
100
AcDbBlockBegin
  2
Block_6
 70
     0
 10
0.0
 20
0.0
 30
0.0
  3
Block_6
  1

  0
INSERT
  5
AF
330
AA
100
AcDbEntity
  8
レイヤー 1
100
AcDbBlockReference
  2
Block_7
 10
0.0
 20
0.0
 30
0.0
  0
ENDBLK
  5
AD
330
AA
100
AcDbEntity
  8
0
100
AcDbBlockEnd
  0
BLOCK
  5
B0
330
AE
100
AcDbEntity
  8
0
100
AcDbBlockBegin
  2
Block_7
 70
     0
 10
0.0
 20
0.0
 30
0.0
  3
Block_7
  1

  0
SPLINE
  5
B2
330
AE
100
AcDbEntity
  8
レイヤー 1
100
AcDbSpline
210
0.0
220
0.0
230
1.0
 70
    11
 71
     3
 72
    26
 73
    22
 74
     0
 42
0.0000000001
 43
0.0000000001
 40
0.0
 40
0.0
 40
0.0
 40
0.0
 40
1.0
 40
1.0
 40
1.0
 40
2.0
 40
2.0
 40
2.0
 40
3.0
 40
3.0
 40
3.0
 40
4.0
 40
4.0
 40
4.0
 40
5.0
 40
5.0
 40
5.0
 40
6.0
 40
6.0
 40
6.0
 40
7.0
 40
7.0
 40
7.0
 40
7.0
 10
93.04548337517614
 20
-160.0439778245723
 30
0.0
 10
93.04548337517614
 20
-160.0439778245723
 30
0.0
 10
93.04548337517614
 20
-158.9394802120012
 30
0.0
 10
93.04548337517614
 20
-158.9394802120012
 30
0.0
 10
93.04548337517614
 20
-158.9394802120012
 30
0.0
 10
92.71544322768919
 20
-158.9394802120012
 30
0.0
 10
92.71544322768919
 20
-158.9394802120012
 30
0.0
 10
92.71544322768919
 20
-158.9394802120012
 30
0.0
 10
92.71544322768919
 20
-158.791685615684
 30
0.0
 10
92.71544322768919
 20
-158.791685615684
 30
0.0
 10
93.04755043246728
 20
-158.7768717050974
 30
0.0
 10
93.09405922151816
 20
-158.6139186886451
 30
0.0
 10
93.12368704269131
 20
-158.4995415185348
 30
0.0
 10
93.12368704269131
 20
-158.4995415185348
 30
0.0
 10
93.2697590912659
 20
-158.4995415185348
 30
0.0
 10
93.2697590912659
 20
-158.4995415185348
 30
0.0
 10
93.2697590912659
 20
-158.4995415185348
 30
0.0
 10
93.2697590912659
 20
-160.0439778245723
 30
0.0
 10
93.2697590912659
 20
-160.0439778245723
 30
0.0
 10
93.2697590912659
 20
-160.0439778245723
 30
0.0
 10
93.04548337517614
 20
-160.0439778245723
 30
0.0
 10
93.04548337517614
 20
-160.0439778245723
 30
0.0
  0
HATCH
  5
B3
330
AE
100
AcDbEntity
  8
レイヤー 1
 62
    18
420
        0
440
 33554687
100
AcDbHatch
 10
0.0
 20
0.0
 30
0.0
210
0.0
220
0.0
230
1.0
  2
SOLID
 70
     1
 71
     1
 91
        1
 92
        1
 93
        1
 72
     4
 94
        3
 73
     0
 74
     0
 95
       26
 96
       22
 40
0.0
 40
0.0
 40
0.0
 40
0.0
 40
1.0
 40
1.0
 40
1.0
 40
2.0
 40
2.0
 40
2.0
 40
3.0
 40
3.0
 40
3.0
 40
4.0
 40
4.0
 40
4.0
 40
5.0
 40
5.0
 40
5.0
 40
6.0
 40
6.0
 40
6.0
 40
7.0
 40
7.0
 40
7.0
 40
7.0
 10
93.04548337517614
 20
-160.0439778245723
 10
93.04548337517614
 20
-160.0439778245723
 10
93.04548337517614
 20
-158.9394802120012
 10
93.04548337517614
 20
-158.9394802120012
 10
93.04548337517614
 20
-158.9394802120012
 10
92.71544322768919
 20
-158.9394802120012
 10
92.71544322768919
 20
-158.9394802120012
 10
92.71544322768919
 20
-158.9394802120012
 10
92.71544322768919
 20
-158.791685615684
 10
92.71544322768919
 20
-158.791685615684
 10
93.04755043246728
 20
-158.7768717050974
 10
93.09405922151816
 20
-158.6139186886451
 10
93.12368704269131
 20
-158.4995415185348
 10
93.12368704269131
 20
-158.4995415185348
 10
93.2697590912659
 20
-158.4995415185348
 10
93.2697590912659
 20
-158.4995415185348
 10
93.2697590912659
 20
-158.4995415185348
 10
93.2697590912659
 20
-160.0439778245723
 10
93.2697590912659
 20
-160.0439778245723
 10
93.2697590912659
 20
-160.0439778245723
 10
93.04548337517614
 20
-160.0439778245723
 10
93.04548337517614
 20
-160.0439778245723
 97
        0
 97
        1
330
B2
 75
     2
 76
     1
 98
        1
 10
0.0
 20
0.0
450
        0
451
        0
460
0.0
461
0.0
452
        0
462
0.0
453
        0
470

  0
SPLINE
  5
B4
330
AE
100
AcDbEntity
  8
レイヤー 1
100
AcDbSpline
210
0.0
220
0.0
230
1.0
 70
     9
 71
     3
 72
    17
 73
    13
 74
     0
 42
0.0000000001
 43
0.0000000001
 40
0.0
 40
0.0
 40
0.0
 40
0.0
 40
1.0
 40
1.0
 40
1.0
 40
2.0
 40
2.0
 40
2.0
 40
3.0
 40
3.0
 40
3.0
 40
4.0
 40
4.0
 40
4.0
 40
4.0
 10
94.2709038392795
 20
-158.6435465098183
 30
0.0
 10
94.0214789261474
 20
-158.6435465098183
 30
0.0
 10
93.97462562754801
 20
-158.9270778682543
 30
0.0
 10
93.97462562754801
 20
-159.2715874167793
 30
0.0
 10
93.97462562754801
 20
-159.5912922778105
 30
0.0
 10
94.01079913014314
 20
-159.8999728332889
 30
0.0
 10
94.2709038392795
 20
-159.8999728332889
 30
0.0
 10
94.51860620466897
 20
-159.8999728332889
 30
0.0
 10
94.56718205101099
 20
-159.618508532144
 30
0.0
 10
94.56718205101099
 20
-159.2715874167793
 30
0.0
 10
94.56718205101099
 20
-158.9522270652967
 30
0.0
 10
94.52894149112472
 20
-158.6435465098183
 30
0.0
 10
94.2709038392795
 20
-158.6435465098183
 30
0.0
  0
SPLINE
  5
B5
330
AE
100
AcDbEntity
  8
レイヤー 1
100
AcDbSpline
210
0.0
220
0.0
230
1.0
 70
     9
 71
     3
 72
    29
 73
    25
 74
     0
 42
0.0000000001
 43
0.0000000001
 40
0.0
 40
0.0
 40
0.0
 40
0.0
 40
1.0
 40
1.0
 40
1.0
 40
2.0
 40
2.0
 40
2.0
 40
3.0
 40
3.0
 40
3.0
 40
4.0
 40
4.0
 40
4.0
 40
5.0
 40
5.0
 40
5.0
 40
6.0
 40
6.0
 40
6.0
 40
7.0
 40
7.0
 40
7.0
 40
8.0
 40
8.0
 40
8.0
 40
8.0
 10
94.66881236782585
 20
-159.8662108975334
 30
0.0
 10
94.560636369589
 20
-160.0756727030366
 30
0.0
 10
94.38734806668094
 20
-160.0946207282055
 30
0.0
 10
94.2709038392795
 20
-160.0946207282055
 30
0.0
 10
94.11001788011834
 20
-160.0946207282055
 30
0.0
 10
93.96842445567456
 20
-160.0481119391546
 30
0.0
 10
93.87333982028167
 20
-159.8662108975334
 30
0.0
 10
93.76964244617566
 20
-159.6715630026168
 30
0.0
 10
93.75069442100677
 20
-159.4345404332316
 30
0.0
 10
93.75069442100677
 20
-159.2715874167793
 30
0.0
 10
93.75069442100677
 20
-159.1279269350444
 30
0.0
 10
93.76757538888449
 20
-158.8760904550726
 30
0.0
 10
93.87333982028167
 20
-158.6773084455737
 30
0.0
 10
93.98117130896999
 20
-158.474047811944
 30
0.0
 10
94.14205726813115
 20
-158.4509656721928
 30
0.0
 10
94.2709038392795
 20
-158.4509656721928
 30
0.0
 10
94.42972274114952
 20
-158.4509656721928
 30
0.0
 10
94.57338322288443
 20
-158.4954074039525
 30
0.0
 10
94.66881236782585
 20
-158.6773084455737
 30
0.0
 10
94.76803111780105
 20
-158.8698892831992
 30
0.0
 10
94.79145776710074
 20
-159.0982991138712
 30
0.0
 10
94.79145776710074
 20
-159.2715874167793
 30
0.0
 10
94.79145776710074
 20
-159.4431531719448
 30
0.0
 10
94.7700981750922
 20
-159.673630059908
 30
0.0
 10
94.66881236782585
 20
-159.8662108975334
 30
0.0
  0
HATCH
  5
B6
330
AE
100
AcDbEntity
  8
レイヤー 1
 62
    18
420
        0
440
 33554687
100
AcDbHatch
 10
0.0
 20
0.0
 30
0.0
210
0.0
220
0.0
230
1.0
  2
SOLID
 70
     1
 71
     1
 91
        2
 92
        1
 93
        1
 72
     4
 94
        3
 73
     0
 74
     0
 95
       17
 96
       13
 40
0.0
 40
0.0
 40
0.0
 40
0.0
 40
1.0
 40
1.0
 40
1.0
 40
2.0
 40
2.0
 40
2.0
 40
3.0
 40
3.0
 40
3.0
 40
4.0
 40
4.0
 40
4.0
 40
4.0
 10
94.2709038392795
 20
-158.6435465098183
 10
94.0214789261474
 20
-158.6435465098183
 10
93.97462562754801
 20
-158.9270778682543
 10
93.97462562754801
 20
-159.2715874167793
 10
93.97462562754801
 20
-159.5912922778105
 10
94.01079913014314
 20
-159.8999728332889
 10
94.2709038392795
 20
-159.8999728332889
 10
94.51860620466897
 20
-159.8999728332889
 10
94.56718205101099
 20
-159.618508532144
 10
94.56718205101099
 20
-159.2715874167793
 10
94.56718205101099
 20
-158.9522270652967
 10
94.52894149112472
 20
-158.6435465098183
 10
94.2709038392795
 20
-158.6435465098183
 97
        0
 97
        1
330
B4
 92
        1
 93
        1
 72
     4
 94
        3
 73
     0
 74
     0
 95
       29
 96
       25
 40
0.0
 40
0.0
 40
0.0
 40
0.0
 40
1.0
 40
1.0
 40
1.0
 40
2.0
 40
2.0
 40
2.0
 40
3.0
 40
3.0
 40
3.0
 40
4.0
 40
4.0
 40
4.0
 40
5.0
 40
5.0
 40
5.0
 40
6.0
 40
6.0
 40
6.0
 40
7.0
 40
7.0
 40
7.0
 40
8.0
 40
8.0
 40
8.0
 40
8.0
 10
94.66881236782585
 20
-159.8662108975334
 10
94.560636369589
 20
-160.0756727030366
 10
94.38734806668094
 20
-160.0946207282055
 10
94.2709038392795
 20
-160.0946207282055
 10
94.11001788011834
 20
-160.0946207282055
 10
93.96842445567456
 20
-160.0481119391546
 10
93.87333982028167
 20
-159.8662108975334
 10
93.76964244617566
 20
-159.6715630026168
 10
93.75069442100677
 20
-159.4345404332316
 10
93.75069442100677
 20
-159.2715874167793
 10
93.75069442100677
 20
-159.1279269350444
 10
93.76757538888449
 20
-158.8760904550726
 10
93.87333982028167
 20
-158.6773084455737
 10
93.98117130896999
 20
-158.474047811944
 10
94.14205726813115
 20
-158.4509656721928
 10
94.2709038392795
 20
-158.4509656721928
 10
94.42972274114952
 20
-158.4509656721928
 10
94.57338322288443
 20
-158.4954074039525
 10
94.66881236782585
 20
-158.6773084455737
 10
94.76803111780105
 20
-158.8698892831992
 10
94.79145776710074
 20
-159.0982991138712
 10
94.79145776710074
 20
-159.2715874167793
 10
94.79145776710074
 20
-159.4431531719448
 10
94.7700981750922
 20
-159.673630059908
 10
94.66881236782585
 20
-159.8662108975334
 97
        0
 97
        1
330
B5
 75
     2
 76
     1
 98
        1
 10
0.0
 20
0.0
450
        0
451
        0
460
0.0
461
0.0
452
        0
462
0.0
453
        0
470

  0
ENDBLK
  5
B1
330
AE
100
AcDbEntity
  8
0
100
AcDbBlockEnd
  0
BLOCK
  5
BB
330
B9
100
AcDbEntity
  8
0
100
AcDbBlockBegin
  2
Block_8
 70
     0
 10
0.0
 20
0.0
 30
0.0
  3
Block_8
  1

  0
LINE
  5
BD
330
B9
100
AcDbEntity
  8
レイヤー 1
 62
    18
420
        0
370
     9
100
AcDbLine
 10
106.8661267782902
 20
-152.2464995432159
 30
0.0
 11
113.8547670101086
 21
-152.2464995432159
 31
0.0
  0
LINE
  5
BE
330
B9
100
AcDbEntity
  8
レイヤー 1
 62
    18
420
        0
370
     9
100
AcDbLine
 10
106.8661267782902
 20
-153.706540894856
 30
0.0
 11
106.8661267782902
 21
-151.2463745687312
 31
0.0
  0
LINE
  5
BF
330
B9
100
AcDbEntity
  8
レイヤー 1
 62
    18
420
        0
370
     9
100
AcDbLine
 10
113.8547665337998
 20
-153.706540894856
 30
0.0
 11
113.8547665337998
 21
-151.2463745687312
 31
0.0
  0
INSERT
  5
C1
330
B9
100
AcDbEntity
  8
レイヤー 1
100
AcDbBlockReference
  2
Block_9
 10
0.0
 20
0.0
 30
0.0
  0
ENDBLK
  5
BC
330
B9
100
AcDbEntity
  8
0
100
AcDbBlockEnd
  0
BLOCK
  5
C2
330
C0
100
AcDbEntity
  8
0
100
AcDbBlockBegin
  2
Block_9
 70
     0
 10
0.0
 20
0.0
 30
0.0
  3
Block_9
  1

  0
SPLINE
  5
C4
330
C0
100
AcDbEntity
  8
レイヤー 1
100
AcDbSpline
210
0.0
220
0.0
230
1.0
 70
     9
 71
     3
 72
    26
 73
    22
 74
     0
 42
0.0000000001
 43
0.0000000001
 40
0.0
 40
0.0
 40
0.0
 40
0.0
 40
1.0
 40
1.0
 40
1.0
 40
2.0
 40
2.0
 40
2.0
 40
3.0
 40
3.0
 40
3.0
 40
4.0
 40
4.0
 40
4.0
 40
5.0
 40
5.0
 40
5.0
 40
6.0
 40
6.0
 40
6.0
 40
7.0
 40
7.0
 40
7.0
 40
7.0
 10
110.2723388396194
 20
-151.394032080207
 30
0.0
 10
110.2723388396194
 20
-151.394032080207
 30
0.0
 10
110.0353162702342
 20
-151.394032080207
 30
0.0
 10
110.0353162702342
 20
-151.394032080207
 30
0.0
 10
110.0608099768251
 20
-151.0853515247287
 30
0.0
 10
110.2533908144505
 20
-150.5668646541986
 30
0.0
 10
110.6595675721615
 20
-150.0614691465124
 30
0.0
 10
110.6595675721615
 20
-150.0614691465124
 30
0.0
 10
109.8217203501487
 20
-150.0614691465124
 30
0.0
 10
109.8217203501487
 20
-150.0614691465124
 30
0.0
 10
109.8217203501487
 20
-150.0614691465124
 30
0.0
 10
109.8217203501487
 20
-149.8499402837181
 30
0.0
 10
109.8217203501487
 20
-149.8499402837181
 30
0.0
 10
109.8217203501487
 20
-149.8499402837181
 30
0.0
 10
110.8965901415467
 20
-149.8499402837181
 30
0.0
 10
110.8965901415467
 20
-149.8499402837181
 30
0.0
 10
110.8965901415467
 20
-149.8499402837181
 30
0.0
 10
110.8965901415467
 20
-150.0614691465124
 30
0.0
 10
110.8965901415467
 20
-150.0614691465124
 30
0.0
 10
110.5727511659332
 20
-150.3512016768219
 30
0.0
 10
110.3061007753749
 20
-150.9434135907364
 30
0.0
 10
110.2723388396194
 20
-151.394032080207
 30
0.0
  0
HATCH
  5
C5
330
C0
100
AcDbEntity
  8
レイヤー 1
 62
    18
420
        0
440
 33554687
100
AcDbHatch
 10
0.0
 20
0.0
 30
0.0
210
0.0
220
0.0
230
1.0
  2
SOLID
 70
     1
 71
     1
 91
        1
 92
        1
 93
        1
 72
     4
 94
        3
 73
     0
 74
     0
 95
       26
 96
       22
 40
0.0
 40
0.0
 40
0.0
 40
0.0
 40
1.0
 40
1.0
 40
1.0
 40
2.0
 40
2.0
 40
2.0
 40
3.0
 40
3.0
 40
3.0
 40
4.0
 40
4.0
 40
4.0
 40
5.0
 40
5.0
 40
5.0
 40
6.0
 40
6.0
 40
6.0
 40
7.0
 40
7.0
 40
7.0
 40
7.0
 10
110.2723388396194
 20
-151.394032080207
 10
110.2723388396194
 20
-151.394032080207
 10
110.0353162702342
 20
-151.394032080207
 10
110.0353162702342
 20
-151.394032080207
 10
110.0608099768251
 20
-151.0853515247287
 10
110.2533908144505
 20
-150.5668646541986
 10
110.6595675721615
 20
-150.0614691465124
 10
110.6595675721615
 20
-150.0614691465124
 10
109.8217203501487
 20
-150.0614691465124
 10
109.8217203501487
 20
-150.0614691465124
 10
109.8217203501487
 20
-150.0614691465124
 10
109.8217203501487
 20
-149.8499402837181
 10
109.8217203501487
 20
-149.8499402837181
 10
109.8217203501487
 20
-149.8499402837181
 10
110.8965901415467
 20
-149.8499402837181
 10
110.8965901415467
 20
-149.8499402837181
 10
110.8965901415467
 20
-149.8499402837181
 10
110.8965901415467
 20
-150.0614691465124
 10
110.8965901415467
 20
-150.0614691465124
 10
110.5727511659332
 20
-150.3512016768219
 10
110.3061007753749
 20
-150.9434135907364
 10
110.2723388396194
 20
-151.394032080207
 97
        0
 97
        1
330
C4
 75
     2
 76
     1
 98
        1
 10
0.0
 20
0.0
450
        0
451
        0
460
0.0
461
0.0
452
        0
462
0.0
453
        0
470

  0
ENDBLK
  5
C3
330
C0
100
AcDbEntity
  8
0
100
AcDbBlockEnd
  0
BLOCK
  5
D2
330
D0
100
AcDbEntity
  8
0
100
AcDbBlockBegin
  2
Block_10
 70
     0
 10
0.0
 20
0.0
 30
0.0
  3
Block_10
  1

  0
SPLINE
  5
D4
330
D0
100
AcDbEntity
  8
レイヤー 1
100
AcDbSpline
210
0.0
220
0.0
230
1.0
 70
     9
 71
     3
 72
    62
 73
    58
 74
     0
 42
0.0000000001
 43
0.0000000001
 40
0.0
 40
0.0
 40
0.0
 40
0.0
 40
1.0
 40
1.0
 40
1.0
 40
2.0
 40
2.0
 40
2.0
 40
3.0
 40
3.0
 40
3.0
 40
4.0
 40
4.0
 40
4.0
 40
5.0
 40
5.0
 40
5.0
 40
6.0
 40
6.0
 40
6.0
 40
7.0
 40
7.0
 40
7.0
 40
8.0
 40
8.0
 40
8.0
 40
9.0
 40
9.0
 40
9.0
 40
10.0
 40
10.0
 40
10.0
 40
11.0
 40
11.0
 40
11.0
 40
12.0
 40
12.0
 40
12.0
 40
13.0
 40
13.0
 40
13.0
 40
14.0
 40
14.0
 40
14.0
 40
15.0
 40
15.0
 40
15.0
 40
16.0
 40
16.0
 40
16.0
 40
17.0
 40
17.0
 40
17.0
 40
18.0
 40
18.0
 40
18.0
 40
19.0
 40
19.0
 40
19.0
 40
19.0
 10
125.4982828462296
 20
-155.8981499176227
 30
0.0
 10
125.4982828462296
 20
-155.9935790625641
 30
0.0
 10
125.4772677637695
 20
-156.2113090972319
 30
0.0
 10
125.2912326075661
 20
-156.3363660633465
 30
0.0
 10
125.1789224947469
 20
-156.4100911067308
 30
0.0
 10
125.0797037447717
 20
-156.4145697308616
 30
0.0
 10
124.9949543958346
 20
-156.4187038454439
 30
0.0
 10
124.9949543958346
 20
-156.4187038454439
 30
0.0
 10
124.9949543958346
 20
-156.1985622439364
 30
0.0
 10
124.9949543958346
 20
-156.1985622439364
 30
0.0
 10
125.0690239487674
 20
-156.1964951866453
 30
0.0
 10
125.303634951313
 20
-156.1861599001896
 30
0.0
 10
125.303634951313
 20
-155.9026285417535
 30
0.0
 10
125.303634951313
 20
-155.765169231892
 30
0.0
 10
125.2340440225109
 20
-155.6125515018955
 30
0.0
 10
125.0056341918388
 20
-155.6125515018955
 30
0.0
 10
124.8891899644374
 20
-155.6125515018955
 30
0.0
 10
124.8406141180954
 20
-155.6507920617817
 30
0.0
 10
124.8089192396311
 20
-155.682486940246
 30
0.0
 10
124.7348496866982
 20
-155.7565564931789
 30
0.0
 10
124.7221028334028
 20
-155.8730007205803
 30
0.0
 10
124.7221028334028
 20
-155.9277777387958
 30
0.0
 10
124.7221028334028
 20
-155.9470702735132
 30
0.0
 10
124.7241698906939
 20
-155.9828992665598
 30
0.0
 10
124.7283040052762
 20
-156.0104600304418
 30
0.0
 10
124.7283040052762
 20
-156.0104600304418
 30
0.0
 10
124.5336561103596
 20
-156.0104600304418
 30
0.0
 10
124.5336561103596
 20
-156.0104600304418
 30
0.0
 10
124.5402017917816
 20
-155.9722194705555
 30
0.0
 10
124.5422688490728
 20
-155.9301893056355
 30
0.0
 10
124.5422688490728
 20
-155.9236436242135
 30
0.0
 10
124.5422688490728
 20
-155.8581868099938
 30
0.0
 10
124.5209092570642
 20
-155.6594048004949
 30
0.0
 10
124.2842311972275
 20
-155.6594048004949
 30
0.0
 10
124.1064642701886
 20
-155.6594048004949
 30
0.0
 10
124.0513427424246
 20
-155.7903184289344
 30
0.0
 10
124.0513427424246
 20
-155.9005614844624
 30
0.0
 10
124.0513427424246
 20
-156.164800308181
 30
0.0
 10
124.2842311972275
 20
-156.1734130468941
 30
0.0
 10
124.3558891833207
 20
-156.1775471614764
 30
0.0
 10
124.3558891833207
 20
-156.1775471614764
 30
0.0
 10
124.3558891833207
 20
-156.3808077951062
 30
0.0
 10
124.3558891833207
 20
-156.3808077951062
 30
0.0
 10
124.2311767267547
 20
-156.372195056393
 30
0.0
 10
123.8546277902169
 20
-156.3446342925111
 30
0.0
 10
123.8546277902169
 20
-155.8878146311669
 30
0.0
 10
123.8546277902169
 20
-155.6635389150772
 30
0.0
 10
123.9817518136226
 20
-155.4223822311097
 30
0.0
 10
124.2776855158056
 20
-155.4223822311097
 30
0.0
 10
124.4640651815576
 20
-155.4223822311097
 30
0.0
 10
124.546402963655
 20
-155.5174668665026
 30
0.0
 10
124.6077256632925
 20
-155.6170301260263
 30
0.0
 10
124.6352864271745
 20
-155.5557074263888
 30
0.0
 10
124.7155571519808
 20
-155.3738063847676
 30
0.0
 10
124.9928873385434
 20
-155.3738063847676
 30
0.0
 10
125.3311957151949
 20
-155.3738063847676
 30
0.0
 10
125.4982828462296
 20
-155.6211642406086
 30
0.0
 10
125.4982828462296
 20
-155.8981499176227
 30
0.0
  0
HATCH
  5
D5
330
D0
100
AcDbEntity
  8
レイヤー 1
 62
    18
420
        0
440
 33554687
100
AcDbHatch
 10
0.0
 20
0.0
 30
0.0
210
0.0
220
0.0
230
1.0
  2
SOLID
 70
     1
 71
     1
 91
        1
 92
        1
 93
        1
 72
     4
 94
        3
 73
     0
 74
     0
 95
       62
 96
       58
 40
0.0
 40
0.0
 40
0.0
 40
0.0
 40
1.0
 40
1.0
 40
1.0
 40
2.0
 40
2.0
 40
2.0
 40
3.0
 40
3.0
 40
3.0
 40
4.0
 40
4.0
 40
4.0
 40
5.0
 40
5.0
 40
5.0
 40
6.0
 40
6.0
 40
6.0
 40
7.0
 40
7.0
 40
7.0
 40
8.0
 40
8.0
 40
8.0
 40
9.0
 40
9.0
 40
9.0
 40
10.0
 40
10.0
 40
10.0
 40
11.0
 40
11.0
 40
11.0
 40
12.0
 40
12.0
 40
12.0
 40
13.0
 40
13.0
 40
13.0
 40
14.0
 40
14.0
 40
14.0
 40
15.0
 40
15.0
 40
15.0
 40
16.0
 40
16.0
 40
16.0
 40
17.0
 40
17.0
 40
17.0
 40
18.0
 40
18.0
 40
18.0
 40
19.0
 40
19.0
 40
19.0
 40
19.0
 10
125.4982828462296
 20
-155.8981499176227
 10
125.4982828462296
 20
-155.9935790625641
 10
125.4772677637695
 20
-156.2113090972319
 10
125.2912326075661
 20
-156.3363660633465
 10
125.1789224947469
 20
-156.4100911067308
 10
125.0797037447717
 20
-156.4145697308616
 10
124.9949543958346
 20
-156.4187038454439
 10
124.9949543958346
 20
-156.4187038454439
 10
124.9949543958346
 20
-156.1985622439364
 10
124.9949543958346
 20
-156.1985622439364
 10
125.0690239487674
 20
-156.1964951866453
 10
125.303634951313
 20
-156.1861599001896
 10
125.303634951313
 20
-155.9026285417535
 10
125.303634951313
 20
-155.765169231892
 10
125.2340440225109
 20
-155.6125515018955
 10
125.0056341918388
 20
-155.6125515018955
 10
124.8891899644374
 20
-155.6125515018955
 10
124.8406141180954
 20
-155.6507920617817
 10
124.8089192396311
 20
-155.682486940246
 10
124.7348496866982
 20
-155.7565564931789
 10
124.7221028334028
 20
-155.8730007205803
 10
124.7221028334028
 20
-155.9277777387958
 10
124.7221028334028
 20
-155.9470702735132
 10
124.7241698906939
 20
-155.9828992665598
 10
124.7283040052762
 20
-156.0104600304418
 10
124.7283040052762
 20
-156.0104600304418
 10
124.5336561103596
 20
-156.0104600304418
 10
124.5336561103596
 20
-156.0104600304418
 10
124.5402017917816
 20
-155.9722194705555
 10
124.5422688490728
 20
-155.9301893056355
 10
124.5422688490728
 20
-155.9236436242135
 10
124.5422688490728
 20
-155.8581868099938
 10
124.5209092570642
 20
-155.6594048004949
 10
124.2842311972275
 20
-155.6594048004949
 10
124.1064642701886
 20
-155.6594048004949
 10
124.0513427424246
 20
-155.7903184289344
 10
124.0513427424246
 20
-155.9005614844624
 10
124.0513427424246
 20
-156.164800308181
 10
124.2842311972275
 20
-156.1734130468941
 10
124.3558891833207
 20
-156.1775471614764
 10
124.3558891833207
 20
-156.1775471614764
 10
124.3558891833207
 20
-156.3808077951062
 10
124.3558891833207
 20
-156.3808077951062
 10
124.2311767267547
 20
-156.372195056393
 10
123.8546277902169
 20
-156.3446342925111
 10
123.8546277902169
 20
-155.8878146311669
 10
123.8546277902169
 20
-155.6635389150772
 10
123.9817518136226
 20
-155.4223822311097
 10
124.2776855158056
 20
-155.4223822311097
 10
124.4640651815576
 20
-155.4223822311097
 10
124.546402963655
 20
-155.5174668665026
 10
124.6077256632925
 20
-155.6170301260263
 10
124.6352864271745
 20
-155.5557074263888
 10
124.7155571519808
 20
-155.3738063847676
 10
124.9928873385434
 20
-155.3738063847676
 10
125.3311957151949
 20
-155.3738063847676
 10
125.4982828462296
 20
-155.6211642406086
 10
125.4982828462296
 20
-155.8981499176227
 97
        0
 97
        1
330
D4
 75
     2
 76
     1
 98
        1
 10
0.0
 20
0.0
450
        0
451
        0
460
0.0
461
0.0
452
        0
462
0.0
453
        0
470

  0
ENDBLK
  5
D3
330
D0
100
AcDbEntity
  8
0
100
AcDbBlockEnd
  0
BLOCK
  5
D8
330
D6
100
AcDbEntity
  8
0
100
AcDbBlockBegin
  2
Block_11
 70
     0
 10
0.0
 20
0.0
 30
0.0
  3
Block_11
  1

  0
INSERT
  5
DB
330
D6
100
AcDbEntity
  8
レイヤー 1
100
AcDbBlockReference
  2
Block_12
 10
0.0
 20
0.0
 30
0.0
  0
ENDBLK
  5
D9
330
D6
100
AcDbEntity
  8
0
100
AcDbBlockEnd
  0
BLOCK
  5
DC
330
DA
100
AcDbEntity
  8
0
100
AcDbBlockBegin
  2
Block_12
 70
     0
 10
0.0
 20
0.0
 30
0.0
  3
Block_12
  1

  0
SPLINE
  5
DE
330
DA
100
AcDbEntity
  8
レイヤー 1
100
AcDbSpline
210
0.0
220
0.0
230
1.0
 70
    11
 71
     3
 72
    26
 73
    22
 74
     0
 42
0.0000000001
 43
0.0000000001
 40
0.0
 40
0.0
 40
0.0
 40
0.0
 40
1.0
 40
1.0
 40
1.0
 40
2.0
 40
2.0
 40
2.0
 40
3.0
 40
3.0
 40
3.0
 40
4.0
 40
4.0
 40
4.0
 40
5.0
 40
5.0
 40
5.0
 40
6.0
 40
6.0
 40
6.0
 40
7.0
 40
7.0
 40
7.0
 40
7.0
 10
125.4476399425964
 20
-149.9615613774402
 30
0.0
 10
125.4476399425964
 20
-149.9615613774402
 30
0.0
 10
124.3434868395738
 20
-149.9615613774402
 30
0.0
 10
124.3434868395738
 20
-149.9615613774402
 30
0.0
 10
124.3434868395738
 20
-149.9615613774402
 30
0.0
 10
124.3434868395738
 20
-150.2916015249271
 30
0.0
 10
124.3434868395738
 20
-150.2916015249271
 30
0.0
 10
124.3434868395738
 20
-150.2916015249271
 30
0.0
 10
124.1953477337081
 20
-150.2916015249271
 30
0.0
 10
124.1953477337081
 20
-150.2916015249271
 30
0.0
 10
124.1805338231215
 20
-149.959494320149
 30
0.0
 10
124.0175808066692
 20
-149.9129855310981
 30
0.0
 10
123.9032036365589
 20
-149.883357709925
 30
0.0
 10
123.9032036365589
 20
-149.883357709925
 30
0.0
 10
123.9032036365589
 20
-149.7372856613504
 30
0.0
 10
123.9032036365589
 20
-149.7372856613504
 30
0.0
 10
123.9032036365589
 20
-149.7372856613504
 30
0.0
 10
125.4476399425964
 20
-149.7372856613504
 30
0.0
 10
125.4476399425964
 20
-149.7372856613504
 30
0.0
 10
125.4476399425964
 20
-149.7372856613504
 30
0.0
 10
125.4476399425964
 20
-149.9615613774402
 30
0.0
 10
125.4476399425964
 20
-149.9615613774402
 30
0.0
  0
HATCH
  5
DF
330
DA
100
AcDbEntity
  8
レイヤー 1
 62
    18
420
        0
440
 33554687
100
AcDbHatch
 10
0.0
 20
0.0
 30
0.0
210
0.0
220
0.0
230
1.0
  2
SOLID
 70
     1
 71
     1
 91
        1
 92
        1
 93
        1
 72
     4
 94
        3
 73
     0
 74
     0
 95
       26
 96
       22
 40
0.0
 40
0.0
 40
0.0
 40
0.0
 40
1.0
 40
1.0
 40
1.0
 40
2.0
 40
2.0
 40
2.0
 40
3.0
 40
3.0
 40
3.0
 40
4.0
 40
4.0
 40
4.0
 40
5.0
 40
5.0
 40
5.0
 40
6.0
 40
6.0
 40
6.0
 40
7.0
 40
7.0
 40
7.0
 40
7.0
 10
125.4476399425964
 20
-149.9615613774402
 10
125.4476399425964
 20
-149.9615613774402
 10
124.3434868395738
 20
-149.9615613774402
 10
124.3434868395738
 20
-149.9615613774402
 10
124.3434868395738
 20
-149.9615613774402
 10
124.3434868395738
 20
-150.2916015249271
 10
124.3434868395738
 20
-150.2916015249271
 10
124.3434868395738
 20
-150.2916015249271
 10
124.1953477337081
 20
-150.2916015249271
 10
124.1953477337081
 20
-150.2916015249271
 10
124.1805338231215
 20
-149.959494320149
 10
124.0175808066692
 20
-149.9129855310981
 10
123.9032036365589
 20
-149.883357709925
 10
123.9032036365589
 20
-149.883357709925
 10
123.9032036365589
 20
-149.7372856613504
 10
123.9032036365589
 20
-149.7372856613504
 10
123.9032036365589
 20
-149.7372856613504
 10
125.4476399425964
 20
-149.7372856613504
 10
125.4476399425964
 20
-149.7372856613504
 10
125.4476399425964
 20
-149.7372856613504
 10
125.4476399425964
 20
-149.9615613774402
 10
125.4476399425964
 20
-149.9615613774402
 97
        0
 97
        1
330
DE
 75
     2
 76
     1
 98
        1
 10
0.0
 20
0.0
450
        0
451
        0
460
0.0
461
0.0
452
        0
462
0.0
453
        0
470

  0
SPLINE
  5
E0
330
DA
100
AcDbEntity
  8
レイヤー 1
100
AcDbSpline
210
0.0
220
0.0
230
1.0
 70
     9
 71
     3
 72
    17
 73
    13
 74
     0
 42
0.0000000001
 43
0.0000000001
 40
0.0
 40
0.0
 40
0.0
 40
0.0
 40
1.0
 40
1.0
 40
1.0
 40
2.0
 40
2.0
 40
2.0
 40
3.0
 40
3.0
 40
3.0
 40
4.0
 40
4.0
 40
4.0
 40
4.0
 10
124.0472086278423
 20
-148.7361409133368
 30
0.0
 10
124.0472086278423
 20
-148.9859103360174
 30
0.0
 10
124.3307399862784
 20
-149.0324191250683
 30
0.0
 10
124.6755940443519
 20
-149.0324191250683
 30
0.0
 10
124.9949543958346
 20
-149.0324191250683
 30
0.0
 10
125.303634951313
 20
-148.9962456224732
 30
0.0
 10
125.303634951313
 20
-148.7361409133368
 30
0.0
 10
125.303634951313
 20
-148.4884385479473
 30
0.0
 10
125.0225151597166
 20
-148.4398627016053
 30
0.0
 10
124.6755940443519
 20
-148.4398627016053
 30
0.0
 10
124.3558891833207
 20
-148.4398627016053
 30
0.0
 10
124.0472086278423
 20
-148.4781032614916
 30
0.0
 10
124.0472086278423
 20
-148.7361409133368
 30
0.0
  0
SPLINE
  5
E1
330
DA
100
AcDbEntity
  8
レイヤー 1
100
AcDbSpline
210
0.0
220
0.0
230
1.0
 70
     9
 71
     3
 72
    29
 73
    25
 74
     0
 42
0.0000000001
 43
0.0000000001
 40
0.0
 40
0.0
 40
0.0
 40
0.0
 40
1.0
 40
1.0
 40
1.0
 40
2.0
 40
2.0
 40
2.0
 40
3.0
 40
3.0
 40
3.0
 40
4.0
 40
4.0
 40
4.0
 40
5.0
 40
5.0
 40
5.0
 40
6.0
 40
6.0
 40
6.0
 40
7.0
 40
7.0
 40
7.0
 40
8.0
 40
8.0
 40
8.0
 40
8.0
 10
125.2698730155575
 20
-148.3382323847904
 30
0.0
 10
125.4793348210607
 20
-148.4464083830273
 30
0.0
 10
125.4982828462296
 20
-148.6196966859353
 30
0.0
 10
125.4982828462296
 20
-148.7361409133368
 30
0.0
 10
125.4982828462296
 20
-148.8970268724979
 30
0.0
 10
125.4517740571787
 20
-149.0386202969417
 30
0.0
 10
125.2698730155575
 20
-149.1337049323346
 30
0.0
 10
125.0752251206409
 20
-149.2374023064406
 30
0.0
 10
124.8382025512557
 20
-149.256694841158
 30
0.0
 10
124.6755940443519
 20
-149.256694841158
 30
0.0
 10
124.5315890530685
 20
-149.256694841158
 30
0.0
 10
124.2797525730967
 20
-149.2394693637318
 30
0.0
 10
124.0809705635978
 20
-149.1337049323346
 30
0.0
 10
123.8780544395166
 20
-149.0258734436463
 30
0.0
 10
123.8546277902169
 20
-148.8649874844851
 30
0.0
 10
123.8546277902169
 20
-148.7361409133368
 30
0.0
 10
123.8546277902169
 20
-148.5773220114668
 30
0.0
 10
123.8990695219766
 20
-148.4336615297318
 30
0.0
 10
124.0809705635978
 20
-148.3382323847904
 30
0.0
 10
124.2735514012233
 20
-148.2390136348152
 30
0.0
 10
124.5019612318953
 20
-148.2155869855155
 30
0.0
 10
124.6755940443519
 20
-148.2155869855155
 30
0.0
 10
124.8468152899688
 20
-148.2155869855155
 30
0.0
 10
125.077292177932
 20
-148.2369465775241
 30
0.0
 10
125.2698730155575
 20
-148.3382323847904
 30
0.0
  0
HATCH
  5
E2
330
DA
100
AcDbEntity
  8
レイヤー 1
 62
    18
420
        0
440
 33554687
100
AcDbHatch
 10
0.0
 20
0.0
 30
0.0
210
0.0
220
0.0
230
1.0
  2
SOLID
 70
     1
 71
     1
 91
        2
 92
        1
 93
        1
 72
     4
 94
        3
 73
     0
 74
     0
 95
       17
 96
       13
 40
0.0
 40
0.0
 40
0.0
 40
0.0
 40
1.0
 40
1.0
 40
1.0
 40
2.0
 40
2.0
 40
2.0
 40
3.0
 40
3.0
 40
3.0
 40
4.0
 40
4.0
 40
4.0
 40
4.0
 10
124.0472086278423
 20
-148.7361409133368
 10
124.0472086278423
 20
-148.9859103360174
 10
124.3307399862784
 20
-149.0324191250683
 10
124.6755940443519
 20
-149.0324191250683
 10
124.9949543958346
 20
-149.0324191250683
 10
125.303634951313
 20
-148.9962456224732
 10
125.303634951313
 20
-148.7361409133368
 10
125.303634951313
 20
-148.4884385479473
 10
125.0225151597166
 20
-148.4398627016053
 10
124.6755940443519
 20
-148.4398627016053
 10
124.3558891833207
 20
-148.4398627016053
 10
124.0472086278423
 20
-148.4781032614916
 10
124.0472086278423
 20
-148.7361409133368
 97
        0
 97
        1
330
E0
 92
        1
 93
        1
 72
     4
 94
        3
 73
     0
 74
     0
 95
       29
 96
       25
 40
0.0
 40
0.0
 40
0.0
 40
0.0
 40
1.0
 40
1.0
 40
1.0
 40
2.0
 40
2.0
 40
2.0
 40
3.0
 40
3.0
 40
3.0
 40
4.0
 40
4.0
 40
4.0
 40
5.0
 40
5.0
 40
5.0
 40
6.0
 40
6.0
 40
6.0
 40
7.0
 40
7.0
 40
7.0
 40
8.0
 40
8.0
 40
8.0
 40
8.0
 10
125.2698730155575
 20
-148.3382323847904
 10
125.4793348210607
 20
-148.4464083830273
 10
125.4982828462296
 20
-148.6196966859353
 10
125.4982828462296
 20
-148.7361409133368
 10
125.4982828462296
 20
-148.8970268724979
 10
125.4517740571787
 20
-149.0386202969417
 10
125.2698730155575
 20
-149.1337049323346
 10
125.0752251206409
 20
-149.2374023064406
 10
124.8382025512557
 20
-149.256694841158
 10
124.6755940443519
 20
-149.256694841158
 10
124.5315890530685
 20
-149.256694841158
 10
124.2797525730967
 20
-149.2394693637318
 10
124.0809705635978
 20
-149.1337049323346
 10
123.8780544395166
 20
-149.0258734436463
 10
123.8546277902169
 20
-148.8649874844851
 10
123.8546277902169
 20
-148.7361409133368
 10
123.8546277902169
 20
-148.5773220114668
 10
123.8990695219766
 20
-148.4336615297318
 10
124.0809705635978
 20
-148.3382323847904
 10
124.2735514012233
 20
-148.2390136348152
 10
124.5019612318953
 20
-148.2155869855155
 10
124.6755940443519
 20
-148.2155869855155
 10
124.8468152899688
 20
-148.2155869855155
 10
125.077292177932
 20
-148.2369465775241
 10
125.2698730155575
 20
-148.3382323847904
 97
        0
 97
        1
330
E1
 75
     2
 76
     1
 98
        1
 10
0.0
 20
0.0
450
        0
451
        0
460
0.0
461
0.0
452
        0
462
0.0
453
        0
470

  0
ENDBLK
  5
DD
330
DA
100
AcDbEntity
  8
0
100
AcDbBlockEnd
  0
BLOCK
  5
E5
330
E3
100
AcDbEntity
  8
0
100
AcDbBlockBegin
  2
Block_13
 70
     0
 10
0.0
 20
0.0
 30
0.0
  3
Block_13
  1

  0
SPLINE
  5
E7
330
E3
100
AcDbEntity
  8
レイヤー 1
100
AcDbSpline
210
0.0
220
0.0
230
1.0
 70
    11
 71
     3
 72
    26
 73
    22
 74
     0
 42
0.0000000001
 43
0.0000000001
 40
0.0
 40
0.0
 40
0.0
 40
0.0
 40
1.0
 40
1.0
 40
1.0
 40
2.0
 40
2.0
 40
2.0
 40
3.0
 40
3.0
 40
3.0
 40
4.0
 40
4.0
 40
4.0
 40
5.0
 40
5.0
 40
5.0
 40
6.0
 40
6.0
 40
6.0
 40
7.0
 40
7.0
 40
7.0
 40
7.0
 10
125.4476399425964
 20
-141.6189181503592
 30
0.0
 10
125.4476399425964
 20
-141.6189181503592
 30
0.0
 10
124.3434868395738
 20
-141.6189181503592
 30
0.0
 10
124.3434868395738
 20
-141.6189181503592
 30
0.0
 10
124.3434868395738
 20
-141.6189181503592
 30
0.0
 10
124.3434868395738
 20
-141.9489582978461
 30
0.0
 10
124.3434868395738
 20
-141.9489582978461
 30
0.0
 10
124.3434868395738
 20
-141.9489582978461
 30
0.0
 10
124.1953477337081
 20
-141.9489582978461
 30
0.0
 10
124.1953477337081
 20
-141.9489582978461
 30
0.0
 10
124.1805338231215
 20
-141.616851093068
 30
0.0
 10
124.0175808066692
 20
-141.5703423040171
 30
0.0
 10
123.9032036365589
 20
-141.5407144828439
 30
0.0
 10
123.9032036365589
 20
-141.5407144828439
 30
0.0
 10
123.9032036365589
 20
-141.3946424342694
 30
0.0
 10
123.9032036365589
 20
-141.3946424342694
 30
0.0
 10
123.9032036365589
 20
-141.3946424342694
 30
0.0
 10
125.4476399425964
 20
-141.3946424342694
 30
0.0
 10
125.4476399425964
 20
-141.3946424342694
 30
0.0
 10
125.4476399425964
 20
-141.3946424342694
 30
0.0
 10
125.4476399425964
 20
-141.6189181503592
 30
0.0
 10
125.4476399425964
 20
-141.6189181503592
 30
0.0
  0
HATCH
  5
E8
330
E3
100
AcDbEntity
  8
レイヤー 1
 62
    18
420
        0
440
 33554687
100
AcDbHatch
 10
0.0
 20
0.0
 30
0.0
210
0.0
220
0.0
230
1.0
  2
SOLID
 70
     1
 71
     1
 91
        1
 92
        1
 93
        1
 72
     4
 94
        3
 73
     0
 74
     0
 95
       26
 96
       22
 40
0.0
 40
0.0
 40
0.0
 40
0.0
 40
1.0
 40
1.0
 40
1.0
 40
2.0
 40
2.0
 40
2.0
 40
3.0
 40
3.0
 40
3.0
 40
4.0
 40
4.0
 40
4.0
 40
5.0
 40
5.0
 40
5.0
 40
6.0
 40
6.0
 40
6.0
 40
7.0
 40
7.0
 40
7.0
 40
7.0
 10
125.4476399425964
 20
-141.6189181503592
 10
125.4476399425964
 20
-141.6189181503592
 10
124.3434868395738
 20
-141.6189181503592
 10
124.3434868395738
 20
-141.6189181503592
 10
124.3434868395738
 20
-141.6189181503592
 10
124.3434868395738
 20
-141.9489582978461
 10
124.3434868395738
 20
-141.9489582978461
 10
124.3434868395738
 20
-141.9489582978461
 10
124.1953477337081
 20
-141.9489582978461
 10
124.1953477337081
 20
-141.9489582978461
 10
124.1805338231215
 20
-141.616851093068
 10
124.0175808066692
 20
-141.5703423040171
 10
123.9032036365589
 20
-141.5407144828439
 10
123.9032036365589
 20
-141.5407144828439
 10
123.9032036365589
 20
-141.3946424342694
 10
123.9032036365589
 20
-141.3946424342694
 10
123.9032036365589
 20
-141.3946424342694
 10
125.4476399425964
 20
-141.3946424342694
 10
125.4476399425964
 20
-141.3946424342694
 10
125.4476399425964
 20
-141.3946424342694
 10
125.4476399425964
 20
-141.6189181503592
 10
125.4476399425964
 20
-141.6189181503592
 97
        0
 97
        1
330
E7
 75
     2
 76
     1
 98
        1
 10
0.0
 20
0.0
450
        0
451
        0
460
0.0
461
0.0
452
        0
462
0.0
453
        0
470

  0
ENDBLK
  5
E6
330
E3
100
AcDbEntity
  8
0
100
AcDbBlockEnd
  0
BLOCK
  5
F2
330
F0
100
AcDbEntity
  8
0
100
AcDbBlockBegin
  2
Block_14
 70
     0
 10
0.0
 20
0.0
 30
0.0
  3
Block_14
  1

  0
SPLINE
  5
F4
330
F0
100
AcDbEntity
  8
レイヤー 1
100
AcDbSpline
210
0.0
220
0.0
230
1.0
 70
     9
 71
     3
 72
    53
 73
    49
 74
     0
 42
0.0000000001
 43
0.0000000001
 40
0.0
 40
0.0
 40
0.0
 40
0.0
 40
1.0
 40
1.0
 40
1.0
 40
2.0
 40
2.0
 40
2.0
 40
3.0
 40
3.0
 40
3.0
 40
4.0
 40
4.0
 40
4.0
 40
5.0
 40
5.0
 40
5.0
 40
6.0
 40
6.0
 40
6.0
 40
7.0
 40
7.0
 40
7.0
 40
8.0
 40
8.0
 40
8.0
 40
9.0
 40
9.0
 40
9.0
 40
10.0
 40
10.0
 40
10.0
 40
11.0
 40
11.0
 40
11.0
 40
12.0
 40
12.0
 40
12.0
 40
13.0
 40
13.0
 40
13.0
 40
14.0
 40
14.0
 40
14.0
 40
15.0
 40
15.0
 40
15.0
 40
16.0
 40
16.0
 40
16.0
 40
16.0
 10
85.94962020420704
 20
-148.9176974454094
 30
0.0
 10
85.94962020420704
 20
-148.9959011129246
 30
0.0
 10
85.93273923632933
 20
-149.0975314297395
 30
0.0
 10
85.86934947940072
 20
-149.1991617465544
 30
0.0
 10
85.75945093342125
 20
-149.3724500494624
 30
0.0
 10
85.62819279543324
 20
-149.393809641471
 30
0.0
 10
85.52036130674492
 20
-149.4127576666398
 30
0.0
 10
85.52036130674492
 20
-149.4127576666398
 30
0.0
 10
85.52036130674492
 20
-149.1905490078412
 30
0.0
 10
85.52036130674492
 20
-149.1905490078412
 30
0.0
 10
85.71914331624382
 20
-149.1357719896258
 30
0.0
 10
85.74877113741697
 20
-149.00864796622
 30
0.0
 10
85.74877113741697
 20
-148.9156303881183
 30
0.0
 10
85.74877113741697
 20
-148.7761040209657
 30
0.0
 10
85.64920787789326
 20
-148.6238308005176
 30
0.0
 10
85.4166639326389
 20
-148.6238308005176
 30
0.0
 10
85.16069333808482
 20
-148.6238308005176
 30
0.0
 10
85.09075789973426
 20
-148.8036647848477
 30
0.0
 10
85.09075789973426
 20
-148.9242431268314
 30
0.0
 10
85.09075789973426
 20
-148.9559380052957
 30
0.0
 10
85.09075789973426
 20
-149.0975314297395
 30
0.0
 10
85.21994898043113
 20
-149.1864148932589
 30
0.0
 10
85.21994898043113
 20
-149.1864148932589
 30
0.0
 10
85.20100095526226
 20
-149.3621147630067
 30
0.0
 10
85.20100095526226
 20
-149.3621147630067
 30
0.0
 10
85.20100095526226
 20
-149.3621147630067
 30
0.0
 10
84.35454099453636
 20
-149.2415364210229
 30
0.0
 10
84.35454099453636
 20
-149.2415364210229
 30
0.0
 10
84.35454099453636
 20
-149.2415364210229
 30
0.0
 10
84.35454099453636
 20
-148.4629448413565
 30
0.0
 10
84.35454099453636
 20
-148.4629448413565
 30
0.0
 10
84.35454099453636
 20
-148.4629448413565
 30
0.0
 10
84.54918888945298
 20
-148.4629448413565
 30
0.0
 10
84.54918888945298
 20
-148.4629448413565
 30
0.0
 10
84.54918888945298
 20
-148.4629448413565
 30
0.0
 10
84.54918888945298
 20
-149.0785834045706
 30
0.0
 10
84.54918888945298
 20
-149.0785834045706
 30
0.0
 10
84.54918888945298
 20
-149.0785834045706
 30
0.0
 10
84.97224661504167
 20
-149.1440402187904
 30
0.0
 10
84.97224661504167
 20
-149.1440402187904
 30
0.0
 10
84.93848467928621
 20
-149.0827175191529
 30
0.0
 10
84.89817706210878
 20
-149.0003797370554
 30
0.0
 10
84.89817706210878
 20
-148.8818684523629
 30
0.0
 10
84.89817706210878
 20
-148.6279649151
 30
0.0
 10
85.08455672786082
 20
-148.3909423457147
 30
0.0
 10
85.39771590747001
 20
-148.3909423457147
 30
0.0
 10
85.71500920166153
 20
-148.3909423457147
 30
0.0
 10
85.94962020420704
 20
-148.6152180618045
 30
0.0
 10
85.94962020420704
 20
-148.9176974454094
 30
0.0
  0
HATCH
  5
F5
330
F0
100
AcDbEntity
  8
レイヤー 1
 62
    18
420
        0
440
 33554687
100
AcDbHatch
 10
0.0
 20
0.0
 30
0.0
210
0.0
220
0.0
230
1.0
  2
SOLID
 70
     1
 71
     1
 91
        1
 92
        1
 93
        1
 72
     4
 94
        3
 73
     0
 74
     0
 95
       53
 96
       49
 40
0.0
 40
0.0
 40
0.0
 40
0.0
 40
1.0
 40
1.0
 40
1.0
 40
2.0
 40
2.0
 40
2.0
 40
3.0
 40
3.0
 40
3.0
 40
4.0
 40
4.0
 40
4.0
 40
5.0
 40
5.0
 40
5.0
 40
6.0
 40
6.0
 40
6.0
 40
7.0
 40
7.0
 40
7.0
 40
8.0
 40
8.0
 40
8.0
 40
9.0
 40
9.0
 40
9.0
 40
10.0
 40
10.0
 40
10.0
 40
11.0
 40
11.0
 40
11.0
 40
12.0
 40
12.0
 40
12.0
 40
13.0
 40
13.0
 40
13.0
 40
14.0
 40
14.0
 40
14.0
 40
15.0
 40
15.0
 40
15.0
 40
16.0
 40
16.0
 40
16.0
 40
16.0
 10
85.94962020420704
 20
-148.9176974454094
 10
85.94962020420704
 20
-148.9959011129246
 10
85.93273923632933
 20
-149.0975314297395
 10
85.86934947940072
 20
-149.1991617465544
 10
85.75945093342125
 20
-149.3724500494624
 10
85.62819279543324
 20
-149.393809641471
 10
85.52036130674492
 20
-149.4127576666398
 10
85.52036130674492
 20
-149.4127576666398
 10
85.52036130674492
 20
-149.1905490078412
 10
85.52036130674492
 20
-149.1905490078412
 10
85.71914331624382
 20
-149.1357719896258
 10
85.74877113741697
 20
-149.00864796622
 10
85.74877113741697
 20
-148.9156303881183
 10
85.74877113741697
 20
-148.7761040209657
 10
85.64920787789326
 20
-148.6238308005176
 10
85.4166639326389
 20
-148.6238308005176
 10
85.16069333808482
 20
-148.6238308005176
 10
85.09075789973426
 20
-148.8036647848477
 10
85.09075789973426
 20
-148.9242431268314
 10
85.09075789973426
 20
-148.9559380052957
 10
85.09075789973426
 20
-149.0975314297395
 10
85.21994898043113
 20
-149.1864148932589
 10
85.21994898043113
 20
-149.1864148932589
 10
85.20100095526226
 20
-149.3621147630067
 10
85.20100095526226
 20
-149.3621147630067
 10
85.20100095526226
 20
-149.3621147630067
 10
84.35454099453636
 20
-149.2415364210229
 10
84.35454099453636
 20
-149.2415364210229
 10
84.35454099453636
 20
-149.2415364210229
 10
84.35454099453636
 20
-148.4629448413565
 10
84.35454099453636
 20
-148.4629448413565
 10
84.35454099453636
 20
-148.4629448413565
 10
84.54918888945298
 20
-148.4629448413565
 10
84.54918888945298
 20
-148.4629448413565
 10
84.54918888945298
 20
-148.4629448413565
 10
84.54918888945298
 20
-149.0785834045706
 10
84.54918888945298
 20
-149.0785834045706
 10
84.54918888945298
 20
-149.0785834045706
 10
84.97224661504167
 20
-149.1440402187904
 10
84.97224661504167
 20
-149.1440402187904
 10
84.93848467928621
 20
-149.0827175191529
 10
84.89817706210878
 20
-149.0003797370554
 10
84.89817706210878
 20
-148.8818684523629
 10
84.89817706210878
 20
-148.6279649151
 10
85.08455672786082
 20
-148.3909423457147
 10
85.39771590747001
 20
-148.3909423457147
 10
85.71500920166153
 20
-148.3909423457147
 10
85.94962020420704
 20
-148.6152180618045
 10
85.94962020420704
 20
-148.9176974454094
 97
        0
 97
        1
330
F4
 75
     2
 76
     1
 98
        1
 10
0.0
 20
0.0
450
        0
451
        0
460
0.0
461
0.0
452
        0
462
0.0
453
        0
470

  0
ENDBLK
  5
F3
330
F0
100
AcDbEntity
  8
0
100
AcDbBlockEnd
  0
BLOCK
  5
F8
330
F6
100
AcDbEntity
  8
0
100
AcDbBlockBegin
  2
Block_15
 70
     0
 10
0.0
 20
0.0
 30
0.0
  3
Block_15
  1

  0
SPLINE
  5
FA
330
F6
100
AcDbEntity
  8
レイヤー 1
100
AcDbSpline
210
0.0
220
0.0
230
1.0
 70
     9
 71
     3
 72
    17
 73
    13
 74
     0
 42
0.0000000001
 43
0.0000000001
 40
0.0
 40
0.0
 40
0.0
 40
0.0
 40
1.0
 40
1.0
 40
1.0
 40
2.0
 40
2.0
 40
2.0
 40
3.0
 40
3.0
 40
3.0
 40
4.0
 40
4.0
 40
4.0
 40
4.0
 10
85.09075789973426
 20
-154.3781737895304
 30
0.0
 10
85.09075789973426
 20
-154.6403455559579
 30
0.0
 10
85.30228676252859
 20
-154.6782416062957
 30
0.0
 10
85.41873098993004
 20
-154.6782416062957
 30
0.0
 10
85.59443085967778
 20
-154.6782416062957
 30
0.0
 10
85.75738387613011
 20
-154.5831569709028
 30
0.0
 10
85.75738387613011
 20
-154.3991888719905
 30
0.0
 10
85.75738387613011
 20
-154.2786105300067
 30
0.0
 10
85.69812823378381
 20
-154.102910660259
 30
0.0
 10
85.4125298180566
 20
-154.102910660259
 30
0.0
 10
85.18825410196683
 20
-154.102910660259
 30
0.0
 10
85.09075789973426
 20
-154.2424370274116
 30
0.0
 10
85.09075789973426
 20
-154.3781737895304
 30
0.0
  0
SPLINE
  5
FB
330
F6
100
AcDbEntity
  8
レイヤー 1
100
AcDbSpline
210
0.0
220
0.0
230
1.0
 70
     9
 71
     3
 72
    32
 73
    28
 74
     0
 42
0.0000000001
 43
0.0000000001
 40
0.0
 40
0.0
 40
0.0
 40
0.0
 40
1.0
 40
1.0
 40
1.0
 40
2.0
 40
2.0
 40
2.0
 40
3.0
 40
3.0
 40
3.0
 40
4.0
 40
4.0
 40
4.0
 40
5.0
 40
5.0
 40
5.0
 40
6.0
 40
6.0
 40
6.0
 40
7.0
 40
7.0
 40
7.0
 40
8.0
 40
8.0
 40
8.0
 40
9.0
 40
9.0
 40
9.0
 40
9.0
 10
85.94962020420704
 20
-154.3950547574082
 30
0.0
 10
85.94962020420704
 20
-154.9111300610986
 30
0.0
 10
85.39564885017886
 20
-154.9197427998117
 30
0.0
 10
85.18170842054486
 20
-154.9197427998117
 30
0.0
 10
84.95123153258164
 20
-154.9197427998117
 30
0.0
 10
84.30389809090319
 20
-154.9004502650943
 30
0.0
 10
84.30389809090319
 20
-154.3568141975219
 30
0.0
 10
84.30389809090319
 20
-154.1835258946138
 30
0.0
 10
84.37383352925378
 20
-153.9378905865155
 30
0.0
 10
84.70594073403185
 20
-153.8999945361778
 30
0.0
 10
84.70594073403185
 20
-153.8999945361778
 30
0.0
 10
84.70594073403185
 20
-154.1135904562632
 30
0.0
 10
84.70594073403185
 20
-154.1135904562632
 30
0.0
 10
84.6487521489767
 20
-154.1242702522675
 30
0.0
 10
84.50061304311097
 20
-154.1559651307318
 30
0.0
 10
84.50061304311097
 20
-154.358881254813
 30
0.0
 10
84.50061304311097
 20
-154.6510253519622
 30
0.0
 10
84.82858613330675
 20
-154.6909884595911
 30
0.0
 10
85.0335693146791
 20
-154.7037353128866
 30
0.0
 10
84.95536564716394
 20
-154.6107177347848
 30
0.0
 10
84.89611000481763
 20
-154.5428493537254
 30
0.0
 10
84.89611000481763
 20
-154.3609483121042
 30
0.0
 10
84.89611000481763
 20
-154.1811143277741
 30
0.0
 10
85.00428600305449
 20
-153.8786349441692
 30
0.0
 10
85.41046276076544
 20
-153.8786349441692
 30
0.0
 10
85.7298231122481
 20
-153.8786349441692
 30
0.0
 10
85.94962020420704
 20
-154.0777614632167
 30
0.0
 10
85.94962020420704
 20
-154.3950547574082
 30
0.0
  0
HATCH
  5
FC
330
F6
100
AcDbEntity
  8
レイヤー 1
 62
    18
420
        0
440
 33554687
100
AcDbHatch
 10
0.0
 20
0.0
 30
0.0
210
0.0
220
0.0
230
1.0
  2
SOLID
 70
     1
 71
     1
 91
        2
 92
        1
 93
        1
 72
     4
 94
        3
 73
     0
 74
     0
 95
       17
 96
       13
 40
0.0
 40
0.0
 40
0.0
 40
0.0
 40
1.0
 40
1.0
 40
1.0
 40
2.0
 40
2.0
 40
2.0
 40
3.0
 40
3.0
 40
3.0
 40
4.0
 40
4.0
 40
4.0
 40
4.0
 10
85.09075789973426
 20
-154.3781737895304
 10
85.09075789973426
 20
-154.6403455559579
 10
85.30228676252859
 20
-154.6782416062957
 10
85.41873098993004
 20
-154.6782416062957
 10
85.59443085967778
 20
-154.6782416062957
 10
85.75738387613011
 20
-154.5831569709028
 10
85.75738387613011
 20
-154.3991888719905
 10
85.75738387613011
 20
-154.2786105300067
 10
85.69812823378381
 20
-154.102910660259
 10
85.4125298180566
 20
-154.102910660259
 10
85.18825410196683
 20
-154.102910660259
 10
85.09075789973426
 20
-154.2424370274116
 10
85.09075789973426
 20
-154.3781737895304
 97
        0
 97
        1
330
FA
 92
        1
 93
        1
 72
     4
 94
        3
 73
     0
 74
     0
 95
       32
 96
       28
 40
0.0
 40
0.0
 40
0.0
 40
0.0
 40
1.0
 40
1.0
 40
1.0
 40
2.0
 40
2.0
 40
2.0
 40
3.0
 40
3.0
 40
3.0
 40
4.0
 40
4.0
 40
4.0
 40
5.0
 40
5.0
 40
5.0
 40
6.0
 40
6.0
 40
6.0
 40
7.0
 40
7.0
 40
7.0
 40
8.0
 40
8.0
 40
8.0
 40
9.0
 40
9.0
 40
9.0
 40
9.0
 10
85.94962020420704
 20
-154.3950547574082
 10
85.94962020420704
 20
-154.9111300610986
 10
85.39564885017886
 20
-154.9197427998117
 10
85.18170842054486
 20
-154.9197427998117
 10
84.95123153258164
 20
-154.9197427998117
 10
84.30389809090319
 20
-154.9004502650943
 10
84.30389809090319
 20
-154.3568141975219
 10
84.30389809090319
 20
-154.1835258946138
 10
84.37383352925378
 20
-153.9378905865155
 10
84.70594073403185
 20
-153.8999945361778
 10
84.70594073403185
 20
-153.8999945361778
 10
84.70594073403185
 20
-154.1135904562632
 10
84.70594073403185
 20
-154.1135904562632
 10
84.6487521489767
 20
-154.1242702522675
 10
84.50061304311097
 20
-154.1559651307318
 10
84.50061304311097
 20
-154.358881254813
 10
84.50061304311097
 20
-154.6510253519622
 10
84.82858613330675
 20
-154.6909884595911
 10
85.0335693146791
 20
-154.7037353128866
 10
84.95536564716394
 20
-154.6107177347848
 10
84.89611000481763
 20
-154.5428493537254
 10
84.89611000481763
 20
-154.3609483121042
 10
84.89611000481763
 20
-154.1811143277741
 10
85.00428600305449
 20
-153.8786349441692
 10
85.41046276076544
 20
-153.8786349441692
 10
85.7298231122481
 20
-153.8786349441692
 10
85.94962020420704
 20
-154.0777614632167
 10
85.94962020420704
 20
-154.3950547574082
 97
        0
 97
        1
330
FB
 75
     2
 76
     1
 98
        1
 10
0.0
 20
0.0
450
        0
451
        0
460
0.0
461
0.0
452
        0
462
0.0
453
        0
470

  0
ENDBLK
  5
F9
330
F6
100
AcDbEntity
  8
0
100
AcDbBlockEnd
  0
BLOCK
  5
FF
330
FD
100
AcDbEntity
  8
0
100
AcDbBlockBegin
  2
Block_16
 70
     0
 10
0.0
 20
0.0
 30
0.0
  3
Block_16
  1

  0
LINE
  5
101
330
FD
100
AcDbEntity
  8
レイヤー 1
 62
   250
420
  2299925
370
     9
100
AcDbLine
 10
100.8194919218711
 20
-147.2870231907968
 30
0.0
 11
101.3765633106204
 21
-148.1178148362679
 31
0.0
  0
LINE
  5
102
330
FD
100
AcDbEntity
  8
レイヤー 1
 62
   250
420
  2299925
370
     9
100
AcDbLine
 10
101.3097471995262
 20
-147.1202651394956
 30
0.0
 11
101.3765633106204
 21
-148.1178148362679
 31
0.0
  0
LINE
  5
103
330
FD
100
AcDbEntity
  8
レイヤー 1
 62
   250
420
  2299925
370
     9
100
AcDbLine
 10
99.95944562568773
 20
-143.9738851759933
 30
0.0
 11
101.3765633308968
 21
-148.1178149078286
 31
0.0
  0
ENDBLK
  5
100
330
FD
100
AcDbEntity
  8
0
100
AcDbBlockEnd
  0
BLOCK
  5
106
330
104
100
AcDbEntity
  8
0
100
AcDbBlockBegin
  2
Block_17
 70
     0
 10
0.0
 20
0.0
 30
0.0
  3
Block_17
  1

  0
INSERT
  5
109
330
104
100
AcDbEntity
  8
レイヤー 1
100
AcDbBlockReference
  2
Block_18
 10
0.0
 20
0.0
 30
0.0
  0
ENDBLK
  5
107
330
104
100
AcDbEntity
  8
0
100
AcDbBlockEnd
  0
BLOCK
  5
10A
330
108
100
AcDbEntity
  8
0
100
AcDbBlockBegin
  2
Block_18
 70
     0
 10
0.0
 20
0.0
 30
0.0
  3
Block_18
  1

  0
SPLINE
  5
10C
330
108
100
AcDbEntity
  8
レイヤー 1
100
AcDbSpline
210
0.0
220
0.0
230
1.0
 70
     9
 71
     3
 72
    38
 73
    34
 74
     0
 42
0.0000000001
 43
0.0000000001
 40
0.0
 40
0.0
 40
0.0
 40
0.0
 40
1.0
 40
1.0
 40
1.0
 40
2.0
 40
2.0
 40
2.0
 40
3.0
 40
3.0
 40
3.0
 40
4.0
 40
4.0
 40
4.0
 40
5.0
 40
5.0
 40
5.0
 40
6.0
 40
6.0
 40
6.0
 40
7.0
 40
7.0
 40
7.0
 40
8.0
 40
8.0
 40
8.0
 40
9.0
 40
9.0
 40
9.0
 40
10.0
 40
10.0
 40
10.0
 40
11.0
 40
11.0
 40
11.0
 40
11.0
 10
98.37073972150108
 20
-142.3415269283903
 30
0.0
 10
98.46392955437707
 20
-142.2188815291154
 30
0.0
 10
98.58864201094313
 20
-142.0390475447853
 30
0.0
 10
98.68389890111028
 20
-141.5904961126058
 30
0.0
 10
98.68389890111028
 20
-141.5904961126058
 30
0.0
 10
98.8509860321449
 20
-141.6097886473232
 30
0.0
 10
98.8509860321449
 20
-141.6097886473232
 30
0.0
 10
98.82566458032831
 20
-141.730366989307
 30
0.0
 10
98.80241018580287
 20
-141.8213175101175
 30
0.0
 10
98.7641696259166
 20
-141.9291489988059
 30
0.0
 10
98.7641696259166
 20
-141.9291489988059
 30
0.0
 10
99.39255504242616
 20
-141.9291489988059
 30
0.0
 10
99.39255504242616
 20
-141.9291489988059
 30
0.0
 10
99.39255504242616
 20
-141.9291489988059
 30
0.0
 10
99.39255504242616
 20
-142.0814222192539
 30
0.0
 10
99.39255504242616
 20
-142.0814222192539
 30
0.0
 10
99.35879310667072
 20
-142.2230156436977
 30
0.0
 10
99.26353621650356
 20
-142.4813978050914
 30
0.0
 10
99.1894666635707
 20
-142.599909089784
 30
0.0
 10
99.1894666635707
 20
-142.599909089784
 30
0.0
 10
99.03719344312264
 20
-142.5213609127203
 30
0.0
 10
99.03719344312264
 20
-142.5213609127203
 30
0.0
 10
99.13227807851555
 20
-142.38596866015
 30
0.0
 10
99.19790714750956
 20
-142.1978664466554
 30
0.0
 10
99.22546791139154
 20
-142.0879679006759
 30
0.0
 10
99.22546791139154
 20
-142.0879679006759
 30
0.0
 10
98.70715329563573
 20
-142.0879679006759
 30
0.0
 10
98.70715329563573
 20
-142.0879679006759
 30
0.0
 10
98.60776229088626
 20
-142.3291245846434
 30
0.0
 10
98.53369273795339
 20
-142.4176635386143
 30
0.0
 10
98.49562443284138
 20
-142.462105270374
 30
0.0
 10
98.49562443284138
 20
-142.462105270374
 30
0.0
 10
98.37073972150108
 20
-142.3415269283903
 30
0.0
 10
98.37073972150108
 20
-142.3415269283903
 30
0.0
  0
SPLINE
  5
10D
330
108
100
AcDbEntity
  8
レイヤー 1
100
AcDbSpline
210
0.0
220
0.0
230
1.0
 70
     9
 71
     3
 72
    38
 73
    34
 74
     0
 42
0.0000000001
 43
0.0000000001
 40
0.0
 40
0.0
 40
0.0
 40
0.0
 40
1.0
 40
1.0
 40
1.0
 40
2.0
 40
2.0
 40
2.0
 40
3.0
 40
3.0
 40
3.0
 40
4.0
 40
4.0
 40
4.0
 40
5.0
 40
5.0
 40
5.0
 40
6.0
 40
6.0
 40
6.0
 40
7.0
 40
7.0
 40
7.0
 40
8.0
 40
8.0
 40
8.0
 40
9.0
 40
9.0
 40
9.0
 40
10.0
 40
10.0
 40
10.0
 40
11.0
 40
11.0
 40
11.0
 40
11.0
 10
98.25653480616503
 20
-143.4143296624971
 30
0.0
 10
98.33904484303678
 20
-143.3612751920242
 30
0.0
 10
98.50406491678024
 20
-143.2534437033359
 30
0.0
 10
98.60982934817741
 20
-143.0460489551239
 30
0.0
 10
98.75796845404316
 20
-142.7542493675232
 30
0.0
 10
98.75796845404316
 20
-142.5279065941423
 30
0.0
 10
98.75796845404316
 20
-142.4431572452052
 30
0.0
 10
98.75796845404316
 20
-142.4431572452052
 30
0.0
 10
98.75796845404316
 20
-142.2085462426597
 30
0.0
 10
98.75796845404316
 20
-142.2085462426597
 30
0.0
 10
98.75796845404316
 20
-142.2085462426597
 30
0.0
 10
98.92298852778662
 20
-142.2085462426597
 30
0.0
 10
98.92298852778662
 20
-142.2085462426597
 30
0.0
 10
98.92298852778662
 20
-142.2085462426597
 30
0.0
 10
98.92298852778662
 20
-142.4348890160406
 30
0.0
 10
98.92298852778662
 20
-142.4348890160406
 30
0.0
 10
98.92298852778662
 20
-142.6336710255395
 30
0.0
 10
98.98844534200637
 20
-142.8706935949247
 30
0.0
 10
99.09007565882124
 20
-143.0439818978327
 30
0.0
 10
99.20634763144843
 20
-143.2427639073316
 30
0.0
 10
99.33536645737103
 20
-143.3423271668554
 30
0.0
 10
99.42011580630818
 20
-143.4036498664928
 30
0.0
 10
99.42011580630818
 20
-143.4036498664928
 30
0.0
 10
99.31211206284558
 20
-143.5538560296497
 30
0.0
 10
99.31211206284558
 20
-143.5538560296497
 30
0.0
 10
99.13451739058096
 20
-143.4246649489528
 30
0.0
 10
98.93556312630778
 20
-143.1855753222765
 30
0.0
 10
98.85735945879261
 20
-142.8324530350384
 30
0.0
 10
98.7917303897986
 20
-143.0715426617148
 30
0.0
 10
98.69027232775799
 20
-143.3402601095642
 30
0.0
 10
98.38141951750536
 20
-143.5497219150674
 30
0.0
 10
98.38141951750536
 20
-143.5497219150674
 30
0.0
 10
98.25653480616503
 20
-143.4143296624971
 30
0.0
 10
98.25653480616503
 20
-143.4143296624971
 30
0.0
  0
SPLINE
  5
10E
330
108
100
AcDbEntity
  8
レイヤー 1
100
AcDbSpline
210
0.0
220
0.0
230
1.0
 70
    11
 71
     3
 72
    17
 73
    13
 74
     0
 42
0.0000000001
 43
0.0000000001
 40
0.0
 40
0.0
 40
0.0
 40
0.0
 40
1.0
 40
1.0
 40
1.0
 40
2.0
 40
2.0
 40
2.0
 40
3.0
 40
3.0
 40
3.0
 40
4.0
 40
4.0
 40
4.0
 40
4.0
 10
98.21416013169645
 20
-142.5258395368512
 30
0.0
 10
98.21416013169645
 20
-142.5258395368512
 30
0.0
 10
98.00263126890213
 20
-142.5258395368512
 30
0.0
 10
98.00263126890213
 20
-142.5258395368512
 30
0.0
 10
98.00263126890213
 20
-142.5258395368512
 30
0.0
 10
98.00263126890213
 20
-142.7328897755147
 30
0.0
 10
98.00263126890213
 20
-142.7328897755147
 30
0.0
 10
98.00263126890213
 20
-142.7328897755147
 30
0.0
 10
98.21416013169645
 20
-142.7328897755147
 30
0.0
 10
98.21416013169645
 20
-142.7328897755147
 30
0.0
 10
98.21416013169645
 20
-142.7328897755147
 30
0.0
 10
98.21416013169645
 20
-142.5258395368512
 30
0.0
 10
98.21416013169645
 20
-142.5258395368512
 30
0.0
  0
SPLINE
  5
10F
330
108
100
AcDbEntity
  8
レイヤー 1
100
AcDbSpline
210
0.0
220
0.0
230
1.0
 70
    11
 71
     3
 72
    17
 73
    13
 74
     0
 42
0.0000000001
 43
0.0000000001
 40
0.0
 40
0.0
 40
0.0
 40
0.0
 40
1.0
 40
1.0
 40
1.0
 40
2.0
 40
2.0
 40
2.0
 40
3.0
 40
3.0
 40
3.0
 40
4.0
 40
4.0
 40
4.0
 40
4.0
 10
98.21416013169645
 20
-142.1999335039465
 30
0.0
 10
98.21416013169645
 20
-142.1999335039465
 30
0.0
 10
98.00263126890213
 20
-142.1999335039465
 30
0.0
 10
98.00263126890213
 20
-142.1999335039465
 30
0.0
 10
98.00263126890213
 20
-142.1999335039465
 30
0.0
 10
98.00263126890213
 20
-142.4028496280277
 30
0.0
 10
98.00263126890213
 20
-142.4028496280277
 30
0.0
 10
98.00263126890213
 20
-142.4028496280277
 30
0.0
 10
98.21416013169645
 20
-142.4028496280277
 30
0.0
 10
98.21416013169645
 20
-142.4028496280277
 30
0.0
 10
98.21416013169645
 20
-142.4028496280277
 30
0.0
 10
98.21416013169645
 20
-142.1999335039465
 30
0.0
 10
98.21416013169645
 20
-142.1999335039465
 30
0.0
  0
SPLINE
  5
110
330
108
100
AcDbEntity
  8
レイヤー 1
100
AcDbSpline
210
0.0
220
0.0
230
1.0
 70
    11
 71
     3
 72
    17
 73
    13
 74
     0
 42
0.0000000001
 43
0.0000000001
 40
0.0
 40
0.0
 40
0.0
 40
0.0
 40
1.0
 40
1.0
 40
1.0
 40
2.0
 40
2.0
 40
2.0
 40
3.0
 40
3.0
 40
3.0
 40
4.0
 40
4.0
 40
4.0
 40
4.0
 10
97.84829099116294
 20
-142.5258395368512
 30
0.0
 10
97.84829099116294
 20
-142.5258395368512
 30
0.0
 10
97.64089624295088
 20
-142.5258395368512
 30
0.0
 10
97.64089624295088
 20
-142.5258395368512
 30
0.0
 10
97.64089624295088
 20
-142.5258395368512
 30
0.0
 10
97.64089624295088
 20
-142.7328897755147
 30
0.0
 10
97.64089624295088
 20
-142.7328897755147
 30
0.0
 10
97.64089624295088
 20
-142.7328897755147
 30
0.0
 10
97.84829099116294
 20
-142.7328897755147
 30
0.0
 10
97.84829099116294
 20
-142.7328897755147
 30
0.0
 10
97.84829099116294
 20
-142.7328897755147
 30
0.0
 10
97.84829099116294
 20
-142.5258395368512
 30
0.0
 10
97.84829099116294
 20
-142.5258395368512
 30
0.0
  0
SPLINE
  5
111
330
108
100
AcDbEntity
  8
レイヤー 1
100
AcDbSpline
210
0.0
220
0.0
230
1.0
 70
    11
 71
     3
 72
    17
 73
    13
 74
     0
 42
0.0000000001
 43
0.0000000001
 40
0.0
 40
0.0
 40
0.0
 40
0.0
 40
1.0
 40
1.0
 40
1.0
 40
2.0
 40
2.0
 40
2.0
 40
3.0
 40
3.0
 40
3.0
 40
4.0
 40
4.0
 40
4.0
 40
4.0
 10
97.84829099116294
 20
-142.1999335039465
 30
0.0
 10
97.84829099116294
 20
-142.1999335039465
 30
0.0
 10
97.64089624295088
 20
-142.1999335039465
 30
0.0
 10
97.64089624295088
 20
-142.1999335039465
 30
0.0
 10
97.64089624295088
 20
-142.1999335039465
 30
0.0
 10
97.64089624295088
 20
-142.4028496280277
 30
0.0
 10
97.64089624295088
 20
-142.4028496280277
 30
0.0
 10
97.64089624295088
 20
-142.4028496280277
 30
0.0
 10
97.84829099116294
 20
-142.4028496280277
 30
0.0
 10
97.84829099116294
 20
-142.4028496280277
 30
0.0
 10
97.84829099116294
 20
-142.4028496280277
 30
0.0
 10
97.84829099116294
 20
-142.1999335039465
 30
0.0
 10
97.84829099116294
 20
-142.1999335039465
 30
0.0
  0
SPLINE
  5
112
330
108
100
AcDbEntity
  8
レイヤー 1
100
AcDbSpline
210
0.0
220
0.0
230
1.0
 70
    11
 71
     3
 72
    89
 73
    85
 74
     0
 42
0.0000000001
 43
0.0000000001
 40
0.0
 40
0.0
 40
0.0
 40
0.0
 40
1.0
 40
1.0
 40
1.0
 40
2.0
 40
2.0
 40
2.0
 40
3.0
 40
3.0
 40
3.0
 40
4.0
 40
4.0
 40
4.0
 40
5.0
 40
5.0
 40
5.0
 40
6.0
 40
6.0
 40
6.0
 40
7.0
 40
7.0
 40
7.0
 40
8.0
 40
8.0
 40
8.0
 40
9.0
 40
9.0
 40
9.0
 40
10.0
 40
10.0
 40
10.0
 40
11.0
 40
11.0
 40
11.0
 40
12.0
 40
12.0
 40
12.0
 40
13.0
 40
13.0
 40
13.0
 40
14.0
 40
14.0
 40
14.0
 40
15.0
 40
15.0
 40
15.0
 40
16.0
 40
16.0
 40
16.0
 40
17.0
 40
17.0
 40
17.0
 40
18.0
 40
18.0
 40
18.0
 40
19.0
 40
19.0
 40
19.0
 40
20.0
 40
20.0
 40
20.0
 40
21.0
 40
21.0
 40
21.0
 40
22.0
 40
22.0
 40
22.0
 40
23.0
 40
23.0
 40
23.0
 40
24.0
 40
24.0
 40
24.0
 40
25.0
 40
25.0
 40
25.0
 40
26.0
 40
26.0
 40
26.0
 40
27.0
 40
27.0
 40
27.0
 40
28.0
 40
28.0
 40
28.0
 40
28.0
 10
97.84829099116294
 20
-141.751382071767
 30
0.0
 10
97.84829099116294
 20
-141.751382071767
 30
0.0
 10
97.84829099116294
 20
-141.5904961126058
 30
0.0
 10
97.84829099116294
 20
-141.5904961126058
 30
0.0
 10
97.84829099116294
 20
-141.5904961126058
 30
0.0
 10
98.00263126890213
 20
-141.5904961126058
 30
0.0
 10
98.00263126890213
 20
-141.5904961126058
 30
0.0
 10
98.00263126890213
 20
-141.5904961126058
 30
0.0
 10
98.00263126890213
 20
-141.751382071767
 30
0.0
 10
98.00263126890213
 20
-141.751382071767
 30
0.0
 10
98.00263126890213
 20
-141.751382071767
 30
0.0
 10
98.39623342809192
 20
-141.751382071767
 30
0.0
 10
98.39623342809192
 20
-141.751382071767
 30
0.0
 10
98.39623342809192
 20
-141.751382071767
 30
0.0
 10
98.39623342809192
 20
-141.9057223495062
 30
0.0
 10
98.39623342809192
 20
-141.9057223495062
 30
0.0
 10
98.39623342809192
 20
-141.9057223495062
 30
0.0
 10
98.00263126890213
 20
-141.9057223495062
 30
0.0
 10
98.00263126890213
 20
-141.9057223495062
 30
0.0
 10
98.00263126890213
 20
-141.9057223495062
 30
0.0
 10
98.00263126890213
 20
-142.0604071367939
 30
0.0
 10
98.00263126890213
 20
-142.0604071367939
 30
0.0
 10
98.00263126890213
 20
-142.0604071367939
 30
0.0
 10
98.35799286820565
 20
-142.0604071367939
 30
0.0
 10
98.35799286820565
 20
-142.0604071367939
 30
0.0
 10
98.35799286820565
 20
-142.0604071367939
 30
0.0
 10
98.35799286820565
 20
-142.8727606522158
 30
0.0
 10
98.35799286820565
 20
-142.8727606522158
 30
0.0
 10
98.35799286820565
 20
-142.8727606522158
 30
0.0
 10
98.00263126890213
 20
-142.8727606522158
 30
0.0
 10
98.00263126890213
 20
-142.8727606522158
 30
0.0
 10
98.00263126890213
 20
-142.8727606522158
 30
0.0
 10
98.00263126890213
 20
-143.0419148405416
 30
0.0
 10
98.00263126890213
 20
-143.0419148405416
 30
0.0
 10
98.00263126890213
 20
-143.0419148405416
 30
0.0
 10
98.41104733867849
 20
-143.0419148405416
 30
0.0
 10
98.41104733867849
 20
-143.0419148405416
 30
0.0
 10
98.41104733867849
 20
-143.0419148405416
 30
0.0
 10
98.41104733867849
 20
-143.1962551182808
 30
0.0
 10
98.41104733867849
 20
-143.1962551182808
 30
0.0
 10
98.41104733867849
 20
-143.1962551182808
 30
0.0
 10
98.00263126890213
 20
-143.1962551182808
 30
0.0
 10
98.00263126890213
 20
-143.1962551182808
 30
0.0
 10
98.00263126890213
 20
-143.1962551182808
 30
0.0
 10
98.00263126890213
 20
-143.5497219150674
 30
0.0
 10
98.00263126890213
 20
-143.5497219150674
 30
0.0
 10
98.00263126890213
 20
-143.5497219150674
 30
0.0
 10
97.84829099116294
 20
-143.5497219150674
 30
0.0
 10
97.84829099116294
 20
-143.5497219150674
 30
0.0
 10
97.84829099116294
 20
-143.5497219150674
 30
0.0
 10
97.84829099116294
 20
-143.1962551182808
 30
0.0
 10
97.84829099116294
 20
-143.1962551182808
 30
0.0
 10
97.84829099116294
 20
-143.1962551182808
 30
0.0
 10
97.43780786409542
 20
-143.1962551182808
 30
0.0
 10
97.43780786409542
 20
-143.1962551182808
 30
0.0
 10
97.43780786409542
 20
-143.1962551182808
 30
0.0
 10
97.43780786409542
 20
-143.0419148405416
 30
0.0
 10
97.43780786409542
 20
-143.0419148405416
 30
0.0
 10
97.43780786409542
 20
-143.0419148405416
 30
0.0
 10
97.84829099116294
 20
-143.0419148405416
 30
0.0
 10
97.84829099116294
 20
-143.0419148405416
 30
0.0
 10
97.84829099116294
 20
-143.0419148405416
 30
0.0
 10
97.84829099116294
 20
-142.8727606522158
 30
0.0
 10
97.84829099116294
 20
-142.8727606522158
 30
0.0
 10
97.84829099116294
 20
-142.8727606522158
 30
0.0
 10
97.49913056373287
 20
-142.8727606522158
 30
0.0
 10
97.49913056373287
 20
-142.8727606522158
 30
0.0
 10
97.49913056373287
 20
-142.8727606522158
 30
0.0
 10
97.49913056373287
 20
-142.0604071367939
 30
0.0
 10
97.49913056373287
 20
-142.0604071367939
 30
0.0
 10
97.49913056373287
 20
-142.0604071367939
 30
0.0
 10
97.84829099116294
 20
-142.0604071367939
 30
0.0
 10
97.84829099116294
 20
-142.0604071367939
 30
0.0
 10
97.84829099116294
 20
-142.0604071367939
 30
0.0
 10
97.84829099116294
 20
-141.9057223495062
 30
0.0
 10
97.84829099116294
 20
-141.9057223495062
 30
0.0
 10
97.84829099116294
 20
-141.9057223495062
 30
0.0
 10
97.45899520132971
 20
-141.9057223495062
 30
0.0
 10
97.45899520132971
 20
-141.9057223495062
 30
0.0
 10
97.45899520132971
 20
-141.9057223495062
 30
0.0
 10
97.45899520132971
 20
-141.751382071767
 30
0.0
 10
97.45899520132971
 20
-141.751382071767
 30
0.0
 10
97.45899520132971
 20
-141.751382071767
 30
0.0
 10
97.84829099116294
 20
-141.751382071767
 30
0.0
 10
97.84829099116294
 20
-141.751382071767
 30
0.0
  0
HATCH
  5
113
330
108
100
AcDbEntity
  8
レイヤー 1
 62
    12
420
 15007762
440
 33554687
100
AcDbHatch
 10
0.0
 20
0.0
 30
0.0
210
0.0
220
0.0
230
1.0
  2
SOLID
 70
     1
 71
     1
 91
        7
 92
        1
 93
        1
 72
     4
 94
        3
 73
     0
 74
     0
 95
       38
 96
       34
 40
0.0
 40
0.0
 40
0.0
 40
0.0
 40
1.0
 40
1.0
 40
1.0
 40
2.0
 40
2.0
 40
2.0
 40
3.0
 40
3.0
 40
3.0
 40
4.0
 40
4.0
 40
4.0
 40
5.0
 40
5.0
 40
5.0
 40
6.0
 40
6.0
 40
6.0
 40
7.0
 40
7.0
 40
7.0
 40
8.0
 40
8.0
 40
8.0
 40
9.0
 40
9.0
 40
9.0
 40
10.0
 40
10.0
 40
10.0
 40
11.0
 40
11.0
 40
11.0
 40
11.0
 10
98.37073972150108
 20
-142.3415269283903
 10
98.46392955437707
 20
-142.2188815291154
 10
98.58864201094313
 20
-142.0390475447853
 10
98.68389890111028
 20
-141.5904961126058
 10
98.68389890111028
 20
-141.5904961126058
 10
98.8509860321449
 20
-141.6097886473232
 10
98.8509860321449
 20
-141.6097886473232
 10
98.82566458032831
 20
-141.730366989307
 10
98.80241018580287
 20
-141.8213175101175
 10
98.7641696259166
 20
-141.9291489988059
 10
98.7641696259166
 20
-141.9291489988059
 10
99.39255504242616
 20
-141.9291489988059
 10
99.39255504242616
 20
-141.9291489988059
 10
99.39255504242616
 20
-141.9291489988059
 10
99.39255504242616
 20
-142.0814222192539
 10
99.39255504242616
 20
-142.0814222192539
 10
99.35879310667072
 20
-142.2230156436977
 10
99.26353621650356
 20
-142.4813978050914
 10
99.1894666635707
 20
-142.599909089784
 10
99.1894666635707
 20
-142.599909089784
 10
99.03719344312264
 20
-142.5213609127203
 10
99.03719344312264
 20
-142.5213609127203
 10
99.13227807851555
 20
-142.38596866015
 10
99.19790714750956
 20
-142.1978664466554
 10
99.22546791139154
 20
-142.0879679006759
 10
99.22546791139154
 20
-142.0879679006759
 10
98.70715329563573
 20
-142.0879679006759
 10
98.70715329563573
 20
-142.0879679006759
 10
98.60776229088626
 20
-142.3291245846434
 10
98.53369273795339
 20
-142.4176635386143
 10
98.49562443284138
 20
-142.462105270374
 10
98.49562443284138
 20
-142.462105270374
 10
98.37073972150108
 20
-142.3415269283903
 10
98.37073972150108
 20
-142.3415269283903
 97
        0
 97
        1
330
10C
 92
        1
 93
        1
 72
     4
 94
        3
 73
     0
 74
     0
 95
       38
 96
       34
 40
0.0
 40
0.0
 40
0.0
 40
0.0
 40
1.0
 40
1.0
 40
1.0
 40
2.0
 40
2.0
 40
2.0
 40
3.0
 40
3.0
 40
3.0
 40
4.0
 40
4.0
 40
4.0
 40
5.0
 40
5.0
 40
5.0
 40
6.0
 40
6.0
 40
6.0
 40
7.0
 40
7.0
 40
7.0
 40
8.0
 40
8.0
 40
8.0
 40
9.0
 40
9.0
 40
9.0
 40
10.0
 40
10.0
 40
10.0
 40
11.0
 40
11.0
 40
11.0
 40
11.0
 10
98.25653480616503
 20
-143.4143296624971
 10
98.33904484303678
 20
-143.3612751920242
 10
98.50406491678024
 20
-143.2534437033359
 10
98.60982934817741
 20
-143.0460489551239
 10
98.75796845404316
 20
-142.7542493675232
 10
98.75796845404316
 20
-142.5279065941423
 10
98.75796845404316
 20
-142.4431572452052
 10
98.75796845404316
 20
-142.4431572452052
 10
98.75796845404316
 20
-142.2085462426597
 10
98.75796845404316
 20
-142.2085462426597
 10
98.75796845404316
 20
-142.2085462426597
 10
98.92298852778662
 20
-142.2085462426597
 10
98.92298852778662
 20
-142.2085462426597
 10
98.92298852778662
 20
-142.2085462426597
 10
98.92298852778662
 20
-142.4348890160406
 10
98.92298852778662
 20
-142.4348890160406
 10
98.92298852778662
 20
-142.6336710255395
 10
98.98844534200637
 20
-142.8706935949247
 10
99.09007565882124
 20
-143.0439818978327
 10
99.20634763144843
 20
-143.2427639073316
 10
99.33536645737103
 20
-143.3423271668554
 10
99.42011580630818
 20
-143.4036498664928
 10
99.42011580630818
 20
-143.4036498664928
 10
99.31211206284558
 20
-143.5538560296497
 10
99.31211206284558
 20
-143.5538560296497
 10
99.13451739058096
 20
-143.4246649489528
 10
98.93556312630778
 20
-143.1855753222765
 10
98.85735945879261
 20
-142.8324530350384
 10
98.7917303897986
 20
-143.0715426617148
 10
98.69027232775799
 20
-143.3402601095642
 10
98.38141951750536
 20
-143.5497219150674
 10
98.38141951750536
 20
-143.5497219150674
 10
98.25653480616503
 20
-143.4143296624971
 10
98.25653480616503
 20
-143.4143296624971
 97
        0
 97
        1
330
10D
 92
        1
 93
        1
 72
     4
 94
        3
 73
     0
 74
     0
 95
       17
 96
       13
 40
0.0
 40
0.0
 40
0.0
 40
0.0
 40
1.0
 40
1.0
 40
1.0
 40
2.0
 40
2.0
 40
2.0
 40
3.0
 40
3.0
 40
3.0
 40
4.0
 40
4.0
 40
4.0
 40
4.0
 10
98.21416013169645
 20
-142.5258395368512
 10
98.21416013169645
 20
-142.5258395368512
 10
98.00263126890213
 20
-142.5258395368512
 10
98.00263126890213
 20
-142.5258395368512
 10
98.00263126890213
 20
-142.5258395368512
 10
98.00263126890213
 20
-142.7328897755147
 10
98.00263126890213
 20
-142.7328897755147
 10
98.00263126890213
 20
-142.7328897755147
 10
98.21416013169645
 20
-142.7328897755147
 10
98.21416013169645
 20
-142.7328897755147
 10
98.21416013169645
 20
-142.7328897755147
 10
98.21416013169645
 20
-142.5258395368512
 10
98.21416013169645
 20
-142.5258395368512
 97
        0
 97
        1
330
10E
 92
        1
 93
        1
 72
     4
 94
        3
 73
     0
 74
     0
 95
       17
 96
       13
 40
0.0
 40
0.0
 40
0.0
 40
0.0
 40
1.0
 40
1.0
 40
1.0
 40
2.0
 40
2.0
 40
2.0
 40
3.0
 40
3.0
 40
3.0
 40
4.0
 40
4.0
 40
4.0
 40
4.0
 10
98.21416013169645
 20
-142.1999335039465
 10
98.21416013169645
 20
-142.1999335039465
 10
98.00263126890213
 20
-142.1999335039465
 10
98.00263126890213
 20
-142.1999335039465
 10
98.00263126890213
 20
-142.1999335039465
 10
98.00263126890213
 20
-142.4028496280277
 10
98.00263126890213
 20
-142.4028496280277
 10
98.00263126890213
 20
-142.4028496280277
 10
98.21416013169645
 20
-142.4028496280277
 10
98.21416013169645
 20
-142.4028496280277
 10
98.21416013169645
 20
-142.4028496280277
 10
98.21416013169645
 20
-142.1999335039465
 10
98.21416013169645
 20
-142.1999335039465
 97
        0
 97
        1
330
10F
 92
        1
 93
        1
 72
     4
 94
        3
 73
     0
 74
     0
 95
       17
 96
       13
 40
0.0
 40
0.0
 40
0.0
 40
0.0
 40
1.0
 40
1.0
 40
1.0
 40
2.0
 40
2.0
 40
2.0
 40
3.0
 40
3.0
 40
3.0
 40
4.0
 40
4.0
 40
4.0
 40
4.0
 10
97.84829099116294
 20
-142.5258395368512
 10
97.84829099116294
 20
-142.5258395368512
 10
97.64089624295088
 20
-142.5258395368512
 10
97.64089624295088
 20
-142.5258395368512
 10
97.64089624295088
 20
-142.5258395368512
 10
97.64089624295088
 20
-142.7328897755147
 10
97.64089624295088
 20
-142.7328897755147
 10
97.64089624295088
 20
-142.7328897755147
 10
97.84829099116294
 20
-142.7328897755147
 10
97.84829099116294
 20
-142.7328897755147
 10
97.84829099116294
 20
-142.7328897755147
 10
97.84829099116294
 20
-142.5258395368512
 10
97.84829099116294
 20
-142.5258395368512
 97
        0
 97
        1
330
110
 92
        1
 93
        1
 72
     4
 94
        3
 73
     0
 74
     0
 95
       17
 96
       13
 40
0.0
 40
0.0
 40
0.0
 40
0.0
 40
1.0
 40
1.0
 40
1.0
 40
2.0
 40
2.0
 40
2.0
 40
3.0
 40
3.0
 40
3.0
 40
4.0
 40
4.0
 40
4.0
 40
4.0
 10
97.84829099116294
 20
-142.1999335039465
 10
97.84829099116294
 20
-142.1999335039465
 10
97.64089624295088
 20
-142.1999335039465
 10
97.64089624295088
 20
-142.1999335039465
 10
97.64089624295088
 20
-142.1999335039465
 10
97.64089624295088
 20
-142.4028496280277
 10
97.64089624295088
 20
-142.4028496280277
 10
97.64089624295088
 20
-142.4028496280277
 10
97.84829099116294
 20
-142.4028496280277
 10
97.84829099116294
 20
-142.4028496280277
 10
97.84829099116294
 20
-142.4028496280277
 10
97.84829099116294
 20
-142.1999335039465
 10
97.84829099116294
 20
-142.1999335039465
 97
        0
 97
        1
330
111
 92
        1
 93
        1
 72
     4
 94
        3
 73
     0
 74
     0
 95
       89
 96
       85
 40
0.0
 40
0.0
 40
0.0
 40
0.0
 40
1.0
 40
1.0
 40
1.0
 40
2.0
 40
2.0
 40
2.0
 40
3.0
 40
3.0
 40
3.0
 40
4.0
 40
4.0
 40
4.0
 40
5.0
 40
5.0
 40
5.0
 40
6.0
 40
6.0
 40
6.0
 40
7.0
 40
7.0
 40
7.0
 40
8.0
 40
8.0
 40
8.0
 40
9.0
 40
9.0
 40
9.0
 40
10.0
 40
10.0
 40
10.0
 40
11.0
 40
11.0
 40
11.0
 40
12.0
 40
12.0
 40
12.0
 40
13.0
 40
13.0
 40
13.0
 40
14.0
 40
14.0
 40
14.0
 40
15.0
 40
15.0
 40
15.0
 40
16.0
 40
16.0
 40
16.0
 40
17.0
 40
17.0
 40
17.0
 40
18.0
 40
18.0
 40
18.0
 40
19.0
 40
19.0
 40
19.0
 40
20.0
 40
20.0
 40
20.0
 40
21.0
 40
21.0
 40
21.0
 40
22.0
 40
22.0
 40
22.0
 40
23.0
 40
23.0
 40
23.0
 40
24.0
 40
24.0
 40
24.0
 40
25.0
 40
25.0
 40
25.0
 40
26.0
 40
26.0
 40
26.0
 40
27.0
 40
27.0
 40
27.0
 40
28.0
 40
28.0
 40
28.0
 40
28.0
 10
97.84829099116294
 20
-141.751382071767
 10
97.84829099116294
 20
-141.751382071767
 10
97.84829099116294
 20
-141.5904961126058
 10
97.84829099116294
 20
-141.5904961126058
 10
97.84829099116294
 20
-141.5904961126058
 10
98.00263126890213
 20
-141.5904961126058
 10
98.00263126890213
 20
-141.5904961126058
 10
98.00263126890213
 20
-141.5904961126058
 10
98.00263126890213
 20
-141.751382071767
 10
98.00263126890213
 20
-141.751382071767
 10
98.00263126890213
 20
-141.751382071767
 10
98.39623342809192
 20
-141.751382071767
 10
98.39623342809192
 20
-141.751382071767
 10
98.39623342809192
 20
-141.751382071767
 10
98.39623342809192
 20
-141.9057223495062
 10
98.39623342809192
 20
-141.9057223495062
 10
98.39623342809192
 20
-141.9057223495062
 10
98.00263126890213
 20
-141.9057223495062
 10
98.00263126890213
 20
-141.9057223495062
 10
98.00263126890213
 20
-141.9057223495062
 10
98.00263126890213
 20
-142.0604071367939
 10
98.00263126890213
 20
-142.0604071367939
 10
98.00263126890213
 20
-142.0604071367939
 10
98.35799286820565
 20
-142.0604071367939
 10
98.35799286820565
 20
-142.0604071367939
 10
98.35799286820565
 20
-142.0604071367939
 10
98.35799286820565
 20
-142.8727606522158
 10
98.35799286820565
 20
-142.8727606522158
 10
98.35799286820565
 20
-142.8727606522158
 10
98.00263126890213
 20
-142.8727606522158
 10
98.00263126890213
 20
-142.8727606522158
 10
98.00263126890213
 20
-142.8727606522158
 10
98.00263126890213
 20
-143.0419148405416
 10
98.00263126890213
 20
-143.0419148405416
 10
98.00263126890213
 20
-143.0419148405416
 10
98.41104733867849
 20
-143.0419148405416
 10
98.41104733867849
 20
-143.0419148405416
 10
98.41104733867849
 20
-143.0419148405416
 10
98.41104733867849
 20
-143.1962551182808
 10
98.41104733867849
 20
-143.1962551182808
 10
98.41104733867849
 20
-143.1962551182808
 10
98.00263126890213
 20
-143.1962551182808
 10
98.00263126890213
 20
-143.1962551182808
 10
98.00263126890213
 20
-143.1962551182808
 10
98.00263126890213
 20
-143.5497219150674
 10
98.00263126890213
 20
-143.5497219150674
 10
98.00263126890213
 20
-143.5497219150674
 10
97.84829099116294
 20
-143.5497219150674
 10
97.84829099116294
 20
-143.5497219150674
 10
97.84829099116294
 20
-143.5497219150674
 10
97.84829099116294
 20
-143.1962551182808
 10
97.84829099116294
 20
-143.1962551182808
 10
97.84829099116294
 20
-143.1962551182808
 10
97.43780786409542
 20
-143.1962551182808
 10
97.43780786409542
 20
-143.1962551182808
 10
97.43780786409542
 20
-143.1962551182808
 10
97.43780786409542
 20
-143.0419148405416
 10
97.43780786409542
 20
-143.0419148405416
 10
97.43780786409542
 20
-143.0419148405416
 10
97.84829099116294
 20
-143.0419148405416
 10
97.84829099116294
 20
-143.0419148405416
 10
97.84829099116294
 20
-143.0419148405416
 10
97.84829099116294
 20
-142.8727606522158
 10
97.84829099116294
 20
-142.8727606522158
 10
97.84829099116294
 20
-142.8727606522158
 10
97.49913056373287
 20
-142.8727606522158
 10
97.49913056373287
 20
-142.8727606522158
 10
97.49913056373287
 20
-142.8727606522158
 10
97.49913056373287
 20
-142.0604071367939
 10
97.49913056373287
 20
-142.0604071367939
 10
97.49913056373287
 20
-142.0604071367939
 10
97.84829099116294
 20
-142.0604071367939
 10
97.84829099116294
 20
-142.0604071367939
 10
97.84829099116294
 20
-142.0604071367939
 10
97.84829099116294
 20
-141.9057223495062
 10
97.84829099116294
 20
-141.9057223495062
 10
97.84829099116294
 20
-141.9057223495062
 10
97.45899520132971
 20
-141.9057223495062
 10
97.45899520132971
 20
-141.9057223495062
 10
97.45899520132971
 20
-141.9057223495062
 10
97.45899520132971
 20
-141.751382071767
 10
97.45899520132971
 20
-141.751382071767
 10
97.45899520132971
 20
-141.751382071767
 10
97.84829099116294
 20
-141.751382071767
 10
97.84829099116294
 20
-141.751382071767
 97
        0
 97
        1
330
112
 75
     2
 76
     1
 98
        1
 10
0.0
 20
0.0
450
        0
451
        0
460
0.0
461
0.0
452
        0
462
0.0
453
        0
470

  0
SPLINE
  5
114
330
108
100
AcDbEntity
  8
レイヤー 1
100
AcDbSpline
210
0.0
220
0.0
230
1.0
 70
     9
 71
     3
 72
    17
 73
    13
 74
     0
 42
0.0000000001
 43
0.0000000001
 40
0.0
 40
0.0
 40
0.0
 40
0.0
 40
1.0
 40
1.0
 40
1.0
 40
2.0
 40
2.0
 40
2.0
 40
3.0
 40
3.0
 40
3.0
 40
4.0
 40
4.0
 40
4.0
 40
4.0
 10
100.8851426614106
 20
-143.2406968500405
 30
0.0
 10
101.1051120081438
 20
-143.3530069628596
 30
0.0
 10
101.3717623987022
 20
-143.3909030131974
 30
0.0
 10
101.5007812246248
 20
-143.4015828092017
 30
0.0
 10
101.5007812246248
 20
-143.4015828092017
 30
0.0
 10
101.4310180410485
 20
-143.5559230869408
 30
0.0
 10
101.4310180410485
 20
-143.5559230869408
 30
0.0
 10
101.3104396990647
 20
-143.5411091763543
 30
0.0
 10
101.0480956778629
 20
-143.5008015591769
 30
0.0
 10
100.78368459937
 20
-143.3550740201508
 30
0.0
 10
100.78368459937
 20
-143.3550740201508
 30
0.0
 10
100.8851426614106
 20
-143.2406968500405
 30
0.0
 10
100.8851426614106
 20
-143.2406968500405
 30
0.0
  0
SPLINE
  5
115
330
108
100
AcDbEntity
  8
レイヤー 1
100
AcDbSpline
210
0.0
220
0.0
230
1.0
 70
    11
 71
     3
 72
    50
 73
    46
 74
     0
 42
0.0000000001
 43
0.0000000001
 40
0.0
 40
0.0
 40
0.0
 40
0.0
 40
1.0
 40
1.0
 40
1.0
 40
2.0
 40
2.0
 40
2.0
 40
3.0
 40
3.0
 40
3.0
 40
4.0
 40
4.0
 40
4.0
 40
5.0
 40
5.0
 40
5.0
 40
6.0
 40
6.0
 40
6.0
 40
7.0
 40
7.0
 40
7.0
 40
8.0
 40
8.0
 40
8.0
 40
9.0
 40
9.0
 40
9.0
 40
10.0
 40
10.0
 40
10.0
 40
11.0
 40
11.0
 40
11.0
 40
12.0
 40
12.0
 40
12.0
 40
13.0
 40
13.0
 40
13.0
 40
14.0
 40
14.0
 40
14.0
 40
15.0
 40
15.0
 40
15.0
 40
15.0
 10
100.7730048033657
 20
-141.8888413816285
 30
0.0
 10
100.7730048033657
 20
-141.8888413816285
 30
0.0
 10
101.5092217085636
 20
-141.8888413816285
 30
0.0
 10
101.5092217085636
 20
-141.8888413816285
 30
0.0
 10
101.5092217085636
 20
-141.8888413816285
 30
0.0
 10
101.5092217085636
 20
-142.013898347743
 30
0.0
 10
101.5092217085636
 20
-142.013898347743
 30
0.0
 10
101.5092217085636
 20
-142.013898347743
 30
0.0
 10
101.1791815610767
 20
-142.013898347743
 30
0.0
 10
101.1791815610767
 20
-142.013898347743
 30
0.0
 10
101.1791815610767
 20
-142.013898347743
 30
0.0
 10
101.1791815610767
 20
-142.288816967466
 30
0.0
 10
101.1791815610767
 20
-142.288816967466
 30
0.0
 10
101.1791815610767
 20
-142.288816967466
 30
0.0
 10
101.0226019712721
 20
-142.288816967466
 30
0.0
 10
101.0226019712721
 20
-142.288816967466
 30
0.0
 10
101.0226019712721
 20
-142.288816967466
 30
0.0
 10
101.0226019712721
 20
-142.013898347743
 30
0.0
 10
101.0226019712721
 20
-142.013898347743
 30
0.0
 10
101.0226019712721
 20
-142.013898347743
 30
0.0
 10
100.7581908927792
 20
-142.013898347743
 30
0.0
 10
100.7581908927792
 20
-142.013898347743
 30
0.0
 10
100.7328694409626
 20
-142.1427449188914
 30
0.0
 10
100.6820542825552
 20
-142.233695439702
 30
0.0
 10
100.5847303350968
 20
-142.3163777313479
 30
0.0
 10
100.5847303350968
 20
-142.3163777313479
 30
0.0
 10
100.462084935822
 20
-142.2085462426597
 30
0.0
 10
100.462084935822
 20
-142.2085462426597
 30
0.0
 10
100.5974771883923
 20
-142.0983031871316
 30
0.0
 10
100.6207315829177
 20
-141.9608438772702
 30
0.0
 10
100.6207315829177
 20
-141.8867743243373
 30
0.0
 10
100.6207315829177
 20
-141.8867743243373
 30
0.0
 10
100.6207315829177
 20
-141.6435505830787
 30
0.0
 10
100.6207315829177
 20
-141.6435505830787
 30
0.0
 10
101.0902980975573
 20
-141.6435505830787
 30
0.0
 10
101.2575574833662
 20
-141.6032429659012
 30
0.0
 10
101.4013902198753
 20
-141.5608682914327
 30
0.0
 10
101.4013902198753
 20
-141.5608682914327
 30
0.0
 10
101.4606458622216
 20
-141.6986721108427
 30
0.0
 10
101.4606458622216
 20
-141.6986721108427
 30
0.0
 10
101.189861357081
 20
-141.7682630396447
 30
0.0
 10
100.8746351201806
 20
-141.7727416637756
 30
0.0
 10
100.7730048033657
 20
-141.7727416637756
 30
0.0
 10
100.7730048033657
 20
-141.7727416637756
 30
0.0
 10
100.7730048033657
 20
-141.8888413816285
 30
0.0
 10
100.7730048033657
 20
-141.8888413816285
 30
0.0
  0
SPLINE
  5
116
330
108
100
AcDbEntity
  8
レイヤー 1
100
AcDbSpline
210
0.0
220
0.0
230
1.0
 70
    11
 71
     3
 72
    17
 73
    13
 74
     0
 42
0.0000000001
 43
0.0000000001
 40
0.0
 40
0.0
 40
0.0
 40
0.0
 40
1.0
 40
1.0
 40
1.0
 40
2.0
 40
2.0
 40
2.0
 40
3.0
 40
3.0
 40
3.0
 40
4.0
 40
4.0
 40
4.0
 40
4.0
 10
101.1094183775004
 20
-142.9592325488956
 30
0.0
 10
101.1094183775004
 20
-142.9592325488956
 30
0.0
 10
99.95014374671386
 20
-142.9592325488956
 30
0.0
 10
99.95014374671386
 20
-142.9592325488956
 30
0.0
 10
99.95014374671386
 20
-142.9592325488956
 30
0.0
 10
99.95014374671386
 20
-143.0991034255967
 30
0.0
 10
99.95014374671386
 20
-143.0991034255967
 30
0.0
 10
99.95014374671386
 20
-143.0991034255967
 30
0.0
 10
101.1094183775004
 20
-143.0991034255967
 30
0.0
 10
101.1094183775004
 20
-143.0991034255967
 30
0.0
 10
101.1094183775004
 20
-143.0991034255967
 30
0.0
 10
101.1094183775004
 20
-142.9592325488956
 30
0.0
 10
101.1094183775004
 20
-142.9592325488956
 30
0.0
  0
SPLINE
  5
117
330
108
100
AcDbEntity
  8
レイヤー 1
100
AcDbSpline
210
0.0
220
0.0
230
1.0
 70
    11
 71
     3
 72
    17
 73
    13
 74
     0
 42
0.0000000001
 43
0.0000000001
 40
0.0
 40
0.0
 40
0.0
 40
0.0
 40
1.0
 40
1.0
 40
1.0
 40
2.0
 40
2.0
 40
2.0
 40
3.0
 40
3.0
 40
3.0
 40
4.0
 40
4.0
 40
4.0
 40
4.0
 10
101.1094183775004
 20
-142.7077405784723
 30
0.0
 10
101.1094183775004
 20
-142.7077405784723
 30
0.0
 10
99.95014374671386
 20
-142.7077405784723
 30
0.0
 10
99.95014374671386
 20
-142.7077405784723
 30
0.0
 10
99.95014374671386
 20
-142.7077405784723
 30
0.0
 10
99.95014374671386
 20
-142.8493340029161
 30
0.0
 10
99.95014374671386
 20
-142.8493340029161
 30
0.0
 10
99.95014374671386
 20
-142.8493340029161
 30
0.0
 10
101.1094183775004
 20
-142.8493340029161
 30
0.0
 10
101.1094183775004
 20
-142.8493340029161
 30
0.0
 10
101.1094183775004
 20
-142.8493340029161
 30
0.0
 10
101.1094183775004
 20
-142.7077405784723
 30
0.0
 10
101.1094183775004
 20
-142.7077405784723
 30
0.0
  0
SPLINE
  5
118
330
108
100
AcDbEntity
  8
レイヤー 1
100
AcDbSpline
210
0.0
220
0.0
230
1.0
 70
    11
 71
     3
 72
    17
 73
    13
 74
     0
 42
0.0000000001
 43
0.0000000001
 40
0.0
 40
0.0
 40
0.0
 40
0.0
 40
1.0
 40
1.0
 40
1.0
 40
2.0
 40
2.0
 40
2.0
 40
3.0
 40
3.0
 40
3.0
 40
4.0
 40
4.0
 40
4.0
 40
4.0
 10
101.1094183775004
 20
-142.468650951796
 30
0.0
 10
101.1094183775004
 20
-142.468650951796
 30
0.0
 10
99.95014374671386
 20
-142.468650951796
 30
0.0
 10
99.95014374671386
 20
-142.468650951796
 30
0.0
 10
99.95014374671386
 20
-142.468650951796
 30
0.0
 10
99.95014374671386
 20
-142.5974975229444
 30
0.0
 10
99.95014374671386
 20
-142.5974975229444
 30
0.0
 10
99.95014374671386
 20
-142.5974975229444
 30
0.0
 10
101.1094183775004
 20
-142.5974975229444
 30
0.0
 10
101.1094183775004
 20
-142.5974975229444
 30
0.0
 10
101.1094183775004
 20
-142.5974975229444
 30
0.0
 10
101.1094183775004
 20
-142.468650951796
 30
0.0
 10
101.1094183775004
 20
-142.468650951796
 30
0.0
  0
SPLINE
  5
119
330
108
100
AcDbEntity
  8
レイヤー 1
100
AcDbSpline
210
0.0
220
0.0
230
1.0
 70
    11
 71
     3
 72
    32
 73
    28
 74
     0
 42
0.0000000001
 43
0.0000000001
 40
0.0
 40
0.0
 40
0.0
 40
0.0
 40
1.0
 40
1.0
 40
1.0
 40
2.0
 40
2.0
 40
2.0
 40
3.0
 40
3.0
 40
3.0
 40
4.0
 40
4.0
 40
4.0
 40
5.0
 40
5.0
 40
5.0
 40
6.0
 40
6.0
 40
6.0
 40
7.0
 40
7.0
 40
7.0
 40
8.0
 40
8.0
 40
8.0
 40
9.0
 40
9.0
 40
9.0
 40
9.0
 10
99.78081730361383
 20
-143.234495678167
 30
0.0
 10
99.78081730361383
 20
-143.234495678167
 30
0.0
 10
99.78081730361383
 20
-142.3353257565169
 30
0.0
 10
99.78081730361383
 20
-142.3353257565169
 30
0.0
 10
99.78081730361383
 20
-142.3353257565169
 30
0.0
 10
101.2785725658262
 20
-142.3353257565169
 30
0.0
 10
101.2785725658262
 20
-142.3353257565169
 30
0.0
 10
101.2785725658262
 20
-142.3353257565169
 30
0.0
 10
101.2785725658262
 20
-143.234495678167
 30
0.0
 10
101.2785725658262
 20
-143.234495678167
 30
0.0
 10
101.2785725658262
 20
-143.234495678167
 30
0.0
 10
100.1341118456262
 20
-143.234495678167
 30
0.0
 10
100.1341118456262
 20
-143.234495678167
 30
0.0
 10
100.1341118456262
 20
-143.234495678167
 30
0.0
 10
100.2398762770233
 20
-143.3443942241465
 30
0.0
 10
100.2398762770233
 20
-143.3443942241465
 30
0.0
 10
100.0748562032799
 20
-143.4394788595394
 30
0.0
 10
99.90983612953643
 20
-143.5008015591769
 30
0.0
 10
99.61373017257921
 20
-143.5517889723586
 30
0.0
 10
99.61373017257921
 20
-143.5517889723586
 30
0.0
 10
99.5481011035852
 20
-143.3995157519105
 30
0.0
 10
99.5481011035852
 20
-143.3995157519105
 30
0.0
 10
99.92688935218843
 20
-143.3464612814377
 30
0.0
 10
100.0495347514633
 20
-143.2789374099268
 30
0.0
 10
100.1299777310439
 20
-143.234495678167
 30
0.0
 10
100.1299777310439
 20
-143.234495678167
 30
0.0
 10
99.78081730361383
 20
-143.234495678167
 30
0.0
 10
99.78081730361383
 20
-143.234495678167
 30
0.0
  0
SPLINE
  5
11A
330
108
100
AcDbEntity
  8
レイヤー 1
100
AcDbSpline
210
0.0
220
0.0
230
1.0
 70
    11
 71
     3
 72
    50
 73
    46
 74
     0
 42
0.0000000001
 43
0.0000000001
 40
0.0
 40
0.0
 40
0.0
 40
0.0
 40
1.0
 40
1.0
 40
1.0
 40
2.0
 40
2.0
 40
2.0
 40
3.0
 40
3.0
 40
3.0
 40
4.0
 40
4.0
 40
4.0
 40
5.0
 40
5.0
 40
5.0
 40
6.0
 40
6.0
 40
6.0
 40
7.0
 40
7.0
 40
7.0
 40
8.0
 40
8.0
 40
8.0
 40
9.0
 40
9.0
 40
9.0
 40
10.0
 40
10.0
 40
10.0
 40
11.0
 40
11.0
 40
11.0
 40
12.0
 40
12.0
 40
12.0
 40
13.0
 40
13.0
 40
13.0
 40
14.0
 40
14.0
 40
14.0
 40
15.0
 40
15.0
 40
15.0
 40
15.0
 10
99.86539439777672
 20
-141.8888413816285
 30
0.0
 10
99.86539439777672
 20
-141.8888413816285
 30
0.0
 10
100.5170342088117
 20
-141.8888413816285
 30
0.0
 10
100.5170342088117
 20
-141.8888413816285
 30
0.0
 10
100.5170342088117
 20
-141.8888413816285
 30
0.0
 10
100.5170342088117
 20
-142.013898347743
 30
0.0
 10
100.5170342088117
 20
-142.013898347743
 30
0.0
 10
100.5170342088117
 20
-142.013898347743
 30
0.0
 10
100.2398762770233
 20
-142.013898347743
 30
0.0
 10
100.2398762770233
 20
-142.013898347743
 30
0.0
 10
100.2398762770233
 20
-142.013898347743
 30
0.0
 10
100.2398762770233
 20
-142.288816967466
 30
0.0
 10
100.2398762770233
 20
-142.288816967466
 30
0.0
 10
100.2398762770233
 20
-142.288816967466
 30
0.0
 10
100.0791625726364
 20
-142.288816967466
 30
0.0
 10
100.0791625726364
 20
-142.288816967466
 30
0.0
 10
100.0791625726364
 20
-142.288816967466
 30
0.0
 10
100.0791625726364
 20
-142.013898347743
 30
0.0
 10
100.0791625726364
 20
-142.013898347743
 30
0.0
 10
100.0791625726364
 20
-142.013898347743
 30
0.0
 10
99.85919322590326
 20
-142.013898347743
 30
0.0
 10
99.85919322590326
 20
-142.013898347743
 30
0.0
 10
99.84851342989898
 20
-142.0834892765451
 30
0.0
 10
99.82319197808241
 20
-142.2781371714617
 30
0.0
 10
99.66867944556895
 20
-142.4283433346186
 30
0.0
 10
99.66867944556895
 20
-142.4283433346186
 30
0.0
 10
99.54603404629406
 20
-142.3184447886391
 30
0.0
 10
99.54603404629406
 20
-142.3184447886391
 30
0.0
 10
99.6666123882778
 20
-142.2188815291154
 30
0.0
 10
99.70898706274638
 20
-142.013898347743
 30
0.0
 10
99.70898706274638
 20
-141.931216056097
 30
0.0
 10
99.70898706274638
 20
-141.931216056097
 30
0.0
 10
99.70898706274638
 20
-141.6456176403698
 30
0.0
 10
99.70898706274638
 20
-141.6456176403698
 30
0.0
 10
100.1933674879725
 20
-141.6456176403698
 30
0.0
 10
100.3478800204859
 20
-141.599108851319
 30
0.0
 10
100.4429646558788
 20
-141.571548087437
 30
0.0
 10
100.4429646558788
 20
-141.571548087437
 30
0.0
 10
100.4958468715774
 20
-141.7110744545896
 30
0.0
 10
100.4958468715774
 20
-141.7110744545896
 30
0.0
 10
100.2863850660742
 20
-141.7599948104801
 30
0.0
 10
100.1236043043961
 20
-141.7703300969359
 30
0.0
 10
99.86539439777672
 20
-141.7748087210667
 30
0.0
 10
99.86539439777672
 20
-141.7748087210667
 30
0.0
 10
99.86539439777672
 20
-141.8888413816285
 30
0.0
 10
99.86539439777672
 20
-141.8888413816285
 30
0.0
  0
HATCH
  5
11B
330
108
100
AcDbEntity
  8
レイヤー 1
 62
    12
420
 15007762
440
 33554687
100
AcDbHatch
 10
0.0
 20
0.0
 30
0.0
210
0.0
220
0.0
230
1.0
  2
SOLID
 70
     1
 71
     1
 91
        7
 92
        1
 93
        1
 72
     4
 94
        3
 73
     0
 74
     0
 95
       17
 96
       13
 40
0.0
 40
0.0
 40
0.0
 40
0.0
 40
1.0
 40
1.0
 40
1.0
 40
2.0
 40
2.0
 40
2.0
 40
3.0
 40
3.0
 40
3.0
 40
4.0
 40
4.0
 40
4.0
 40
4.0
 10
100.8851426614106
 20
-143.2406968500405
 10
101.1051120081438
 20
-143.3530069628596
 10
101.3717623987022
 20
-143.3909030131974
 10
101.5007812246248
 20
-143.4015828092017
 10
101.5007812246248
 20
-143.4015828092017
 10
101.4310180410485
 20
-143.5559230869408
 10
101.4310180410485
 20
-143.5559230869408
 10
101.3104396990647
 20
-143.5411091763543
 10
101.0480956778629
 20
-143.5008015591769
 10
100.78368459937
 20
-143.3550740201508
 10
100.78368459937
 20
-143.3550740201508
 10
100.8851426614106
 20
-143.2406968500405
 10
100.8851426614106
 20
-143.2406968500405
 97
        0
 97
        1
330
114
 92
        1
 93
        1
 72
     4
 94
        3
 73
     0
 74
     0
 95
       50
 96
       46
 40
0.0
 40
0.0
 40
0.0
 40
0.0
 40
1.0
 40
1.0
 40
1.0
 40
2.0
 40
2.0
 40
2.0
 40
3.0
 40
3.0
 40
3.0
 40
4.0
 40
4.0
 40
4.0
 40
5.0
 40
5.0
 40
5.0
 40
6.0
 40
6.0
 40
6.0
 40
7.0
 40
7.0
 40
7.0
 40
8.0
 40
8.0
 40
8.0
 40
9.0
 40
9.0
 40
9.0
 40
10.0
 40
10.0
 40
10.0
 40
11.0
 40
11.0
 40
11.0
 40
12.0
 40
12.0
 40
12.0
 40
13.0
 40
13.0
 40
13.0
 40
14.0
 40
14.0
 40
14.0
 40
15.0
 40
15.0
 40
15.0
 40
15.0
 10
100.7730048033657
 20
-141.8888413816285
 10
100.7730048033657
 20
-141.8888413816285
 10
101.5092217085636
 20
-141.8888413816285
 10
101.5092217085636
 20
-141.8888413816285
 10
101.5092217085636
 20
-141.8888413816285
 10
101.5092217085636
 20
-142.013898347743
 10
101.5092217085636
 20
-142.013898347743
 10
101.5092217085636
 20
-142.013898347743
 10
101.1791815610767
 20
-142.013898347743
 10
101.1791815610767
 20
-142.013898347743
 10
101.1791815610767
 20
-142.013898347743
 10
101.1791815610767
 20
-142.288816967466
 10
101.1791815610767
 20
-142.288816967466
 10
101.1791815610767
 20
-142.288816967466
 10
101.0226019712721
 20
-142.288816967466
 10
101.0226019712721
 20
-142.288816967466
 10
101.0226019712721
 20
-142.288816967466
 10
101.0226019712721
 20
-142.013898347743
 10
101.0226019712721
 20
-142.013898347743
 10
101.0226019712721
 20
-142.013898347743
 10
100.7581908927792
 20
-142.013898347743
 10
100.7581908927792
 20
-142.013898347743
 10
100.7328694409626
 20
-142.1427449188914
 10
100.6820542825552
 20
-142.233695439702
 10
100.5847303350968
 20
-142.3163777313479
 10
100.5847303350968
 20
-142.3163777313479
 10
100.462084935822
 20
-142.2085462426597
 10
100.462084935822
 20
-142.2085462426597
 10
100.5974771883923
 20
-142.0983031871316
 10
100.6207315829177
 20
-141.9608438772702
 10
100.6207315829177
 20
-141.8867743243373
 10
100.6207315829177
 20
-141.8867743243373
 10
100.6207315829177
 20
-141.6435505830787
 10
100.6207315829177
 20
-141.6435505830787
 10
101.0902980975573
 20
-141.6435505830787
 10
101.2575574833662
 20
-141.6032429659012
 10
101.4013902198753
 20
-141.5608682914327
 10
101.4013902198753
 20
-141.5608682914327
 10
101.4606458622216
 20
-141.6986721108427
 10
101.4606458622216
 20
-141.6986721108427
 10
101.189861357081
 20
-141.7682630396447
 10
100.8746351201806
 20
-141.7727416637756
 10
100.7730048033657
 20
-141.7727416637756
 10
100.7730048033657
 20
-141.7727416637756
 10
100.7730048033657
 20
-141.8888413816285
 10
100.7730048033657
 20
-141.8888413816285
 97
        0
 97
        1
330
115
 92
        1
 93
        1
 72
     4
 94
        3
 73
     0
 74
     0
 95
       17
 96
       13
 40
0.0
 40
0.0
 40
0.0
 40
0.0
 40
1.0
 40
1.0
 40
1.0
 40
2.0
 40
2.0
 40
2.0
 40
3.0
 40
3.0
 40
3.0
 40
4.0
 40
4.0
 40
4.0
 40
4.0
 10
101.1094183775004
 20
-142.9592325488956
 10
101.1094183775004
 20
-142.9592325488956
 10
99.95014374671386
 20
-142.9592325488956
 10
99.95014374671386
 20
-142.9592325488956
 10
99.95014374671386
 20
-142.9592325488956
 10
99.95014374671386
 20
-143.0991034255967
 10
99.95014374671386
 20
-143.0991034255967
 10
99.95014374671386
 20
-143.0991034255967
 10
101.1094183775004
 20
-143.0991034255967
 10
101.1094183775004
 20
-143.0991034255967
 10
101.1094183775004
 20
-143.0991034255967
 10
101.1094183775004
 20
-142.9592325488956
 10
101.1094183775004
 20
-142.9592325488956
 97
        0
 97
        1
330
116
 92
        1
 93
        1
 72
     4
 94
        3
 73
     0
 74
     0
 95
       17
 96
       13
 40
0.0
 40
0.0
 40
0.0
 40
0.0
 40
1.0
 40
1.0
 40
1.0
 40
2.0
 40
2.0
 40
2.0
 40
3.0
 40
3.0
 40
3.0
 40
4.0
 40
4.0
 40
4.0
 40
4.0
 10
101.1094183775004
 20
-142.7077405784723
 10
101.1094183775004
 20
-142.7077405784723
 10
99.95014374671386
 20
-142.7077405784723
 10
99.95014374671386
 20
-142.7077405784723
 10
99.95014374671386
 20
-142.7077405784723
 10
99.95014374671386
 20
-142.8493340029161
 10
99.95014374671386
 20
-142.8493340029161
 10
99.95014374671386
 20
-142.8493340029161
 10
101.1094183775004
 20
-142.8493340029161
 10
101.1094183775004
 20
-142.8493340029161
 10
101.1094183775004
 20
-142.8493340029161
 10
101.1094183775004
 20
-142.7077405784723
 10
101.1094183775004
 20
-142.7077405784723
 97
        0
 97
        1
330
117
 92
        1
 93
        1
 72
     4
 94
        3
 73
     0
 74
     0
 95
       17
 96
       13
 40
0.0
 40
0.0
 40
0.0
 40
0.0
 40
1.0
 40
1.0
 40
1.0
 40
2.0
 40
2.0
 40
2.0
 40
3.0
 40
3.0
 40
3.0
 40
4.0
 40
4.0
 40
4.0
 40
4.0
 10
101.1094183775004
 20
-142.468650951796
 10
101.1094183775004
 20
-142.468650951796
 10
99.95014374671386
 20
-142.468650951796
 10
99.95014374671386
 20
-142.468650951796
 10
99.95014374671386
 20
-142.468650951796
 10
99.95014374671386
 20
-142.5974975229444
 10
99.95014374671386
 20
-142.5974975229444
 10
99.95014374671386
 20
-142.5974975229444
 10
101.1094183775004
 20
-142.5974975229444
 10
101.1094183775004
 20
-142.5974975229444
 10
101.1094183775004
 20
-142.5974975229444
 10
101.1094183775004
 20
-142.468650951796
 10
101.1094183775004
 20
-142.468650951796
 97
        0
 97
        1
330
118
 92
        1
 93
        1
 72
     4
 94
        3
 73
     0
 74
     0
 95
       32
 96
       28
 40
0.0
 40
0.0
 40
0.0
 40
0.0
 40
1.0
 40
1.0
 40
1.0
 40
2.0
 40
2.0
 40
2.0
 40
3.0
 40
3.0
 40
3.0
 40
4.0
 40
4.0
 40
4.0
 40
5.0
 40
5.0
 40
5.0
 40
6.0
 40
6.0
 40
6.0
 40
7.0
 40
7.0
 40
7.0
 40
8.0
 40
8.0
 40
8.0
 40
9.0
 40
9.0
 40
9.0
 40
9.0
 10
99.78081730361383
 20
-143.234495678167
 10
99.78081730361383
 20
-143.234495678167
 10
99.78081730361383
 20
-142.3353257565169
 10
99.78081730361383
 20
-142.3353257565169
 10
99.78081730361383
 20
-142.3353257565169
 10
101.2785725658262
 20
-142.3353257565169
 10
101.2785725658262
 20
-142.3353257565169
 10
101.2785725658262
 20
-142.3353257565169
 10
101.2785725658262
 20
-143.234495678167
 10
101.2785725658262
 20
-143.234495678167
 10
101.2785725658262
 20
-143.234495678167
 10
100.1341118456262
 20
-143.234495678167
 10
100.1341118456262
 20
-143.234495678167
 10
100.1341118456262
 20
-143.234495678167
 10
100.2398762770233
 20
-143.3443942241465
 10
100.2398762770233
 20
-143.3443942241465
 10
100.0748562032799
 20
-143.4394788595394
 10
99.90983612953643
 20
-143.5008015591769
 10
99.61373017257921
 20
-143.5517889723586
 10
99.61373017257921
 20
-143.5517889723586
 10
99.5481011035852
 20
-143.3995157519105
 10
99.5481011035852
 20
-143.3995157519105
 10
99.92688935218843
 20
-143.3464612814377
 10
100.0495347514633
 20
-143.2789374099268
 10
100.1299777310439
 20
-143.234495678167
 10
100.1299777310439
 20
-143.234495678167
 10
99.78081730361383
 20
-143.234495678167
 10
99.78081730361383
 20
-143.234495678167
 97
        0
 97
        1
330
119
 92
        1
 93
        1
 72
     4
 94
        3
 73
     0
 74
     0
 95
       50
 96
       46
 40
0.0
 40
0.0
 40
0.0
 40
0.0
 40
1.0
 40
1.0
 40
1.0
 40
2.0
 40
2.0
 40
2.0
 40
3.0
 40
3.0
 40
3.0
 40
4.0
 40
4.0
 40
4.0
 40
5.0
 40
5.0
 40
5.0
 40
6.0
 40
6.0
 40
6.0
 40
7.0
 40
7.0
 40
7.0
 40
8.0
 40
8.0
 40
8.0
 40
9.0
 40
9.0
 40
9.0
 40
10.0
 40
10.0
 40
10.0
 40
11.0
 40
11.0
 40
11.0
 40
12.0
 40
12.0
 40
12.0
 40
13.0
 40
13.0
 40
13.0
 40
14.0
 40
14.0
 40
14.0
 40
15.0
 40
15.0
 40
15.0
 40
15.0
 10
99.86539439777672
 20
-141.8888413816285
 10
99.86539439777672
 20
-141.8888413816285
 10
100.5170342088117
 20
-141.8888413816285
 10
100.5170342088117
 20
-141.8888413816285
 10
100.5170342088117
 20
-141.8888413816285
 10
100.5170342088117
 20
-142.013898347743
 10
100.5170342088117
 20
-142.013898347743
 10
100.5170342088117
 20
-142.013898347743
 10
100.2398762770233
 20
-142.013898347743
 10
100.2398762770233
 20
-142.013898347743
 10
100.2398762770233
 20
-142.013898347743
 10
100.2398762770233
 20
-142.288816967466
 10
100.2398762770233
 20
-142.288816967466
 10
100.2398762770233
 20
-142.288816967466
 10
100.0791625726364
 20
-142.288816967466
 10
100.0791625726364
 20
-142.288816967466
 10
100.0791625726364
 20
-142.288816967466
 10
100.0791625726364
 20
-142.013898347743
 10
100.0791625726364
 20
-142.013898347743
 10
100.0791625726364
 20
-142.013898347743
 10
99.85919322590326
 20
-142.013898347743
 10
99.85919322590326
 20
-142.013898347743
 10
99.84851342989898
 20
-142.0834892765451
 10
99.82319197808241
 20
-142.2781371714617
 10
99.66867944556895
 20
-142.4283433346186
 10
99.66867944556895
 20
-142.4283433346186
 10
99.54603404629406
 20
-142.3184447886391
 10
99.54603404629406
 20
-142.3184447886391
 10
99.6666123882778
 20
-142.2188815291154
 10
99.70898706274638
 20
-142.013898347743
 10
99.70898706274638
 20
-141.931216056097
 10
99.70898706274638
 20
-141.931216056097
 10
99.70898706274638
 20
-141.6456176403698
 10
99.70898706274638
 20
-141.6456176403698
 10
100.1933674879725
 20
-141.6456176403698
 10
100.3478800204859
 20
-141.599108851319
 10
100.4429646558788
 20
-141.571548087437
 10
100.4429646558788
 20
-141.571548087437
 10
100.4958468715774
 20
-141.7110744545896
 10
100.4958468715774
 20
-141.7110744545896
 10
100.2863850660742
 20
-141.7599948104801
 10
100.1236043043961
 20
-141.7703300969359
 10
99.86539439777672
 20
-141.7748087210667
 10
99.86539439777672
 20
-141.7748087210667
 10
99.86539439777672
 20
-141.8888413816285
 10
99.86539439777672
 20
-141.8888413816285
 97
        0
 97
        1
330
11A
 75
     2
 76
     1
 98
        1
 10
0.0
 20
0.0
450
        0
451
        0
460
0.0
461
0.0
452
        0
462
0.0
453
        0
470

  0
ENDBLK
  5
10B
330
108
100
AcDbEntity
  8
0
100
AcDbBlockEnd
  0
ENDSEC
  0
SECTION
  2
ENTITIES
  0
LWPOLYLINE
  5
79
330
70
100
AcDbEntity
  8
レイヤー 1
 62
    18
420
        0
370
    25
100
AcDbPolyline
 90
       12
 70
     1
 43
0.0
 10
102.8652561701965
 20
-156.393634383505
 10
109.8652561684462
 20
-156.393634383505
 10
109.8652561684462
 20
-155.399146536531
 10
103.8652561699463
 20
-155.399146536531
 10
103.8652561699463
 20
-144.2826104200598
 10
122.8652561651958
 20
-144.2826104200598
 10
122.8652561651958
 20
-143.2826104203104
 10
102.8652561701965
 20
-143.2826104203104
 10
102.8652561701965
 20
-148.282610389921
 10
99.86525608749973
 20
-148.282610389921
 10
99.86525608749973
 20
-154.2826102188792
 10
102.8652561701965
 20
-154.2826102188792
  0
LWPOLYLINE
  5
7A
330
70
100
AcDbEntity
  8
レイヤー 1
 62
    18
420
        0
370
    25
100
AcDbPolyline
 90
        4
 70
     1
 43
0.0
 10
102.8652562827826
 20
-153.2826104164859
 10
100.8652562832824
 20
-153.2826104164859
 10
100.8652562832824
 20
-149.2826104174868
 10
102.8652562827826
 20
-149.2826104174868
  0
LINE
  5
7B
330
70
100
AcDbEntity
  8
レイヤー 1
 62
    18
420
        0
370
    25
100
AcDbLine
 10
102.8652561701965
 20
-143.2826103911715
 30
0.0
 11
102.8652561701965
 21
-149.2826104174868
 31
0.0
  0
LINE
  5
7C
330
70
100
AcDbEntity
  8
レイヤー 1
 62
    18
420
        0
370
    25
100
AcDbLine
 10
102.8652562827826
 20
-153.2826104164859
 30
0.0
 11
102.8652561701965
 21
-154.2826102188792
 31
0.0
  0
SPLINE
  5
7D
330
70
100
AcDbEntity
  8
レイヤー 1
 62
    18
420
        0
370
     9
100
AcDbSpline
210
0.0
220
0.0
230
1.0
 70
     9
 71
     3
 72
    17
 73
    13
 74
     0
 42
0.0000000001
 43
0.0000000001
 40
0.0
 40
0.0
 40
0.0
 40
0.0
 40
1.0
 40
1.0
 40
1.0
 40
2.0
 40
2.0
 40
2.0
 40
3.0
 40
3.0
 40
3.0
 40
4.0
 40
4.0
 40
4.0
 40
4.0
 10
122.9651604283428
 20
-139.7131135655573
 30
0.0
 10
122.9651604283428
 20
-139.6580096780743
 30
0.0
 10
122.9203929294849
 20
-139.6132069014395
 30
0.0
 10
122.8652560504883
 20
-139.6132069014395
 30
0.0
 10
122.8101498767419
 20
-139.6132069014395
 30
0.0
 10
122.7653471001071
 20
-139.6580096780743
 30
0.0
 10
122.7653471001071
 20
-139.7131135655573
 30
0.0
 10
122.7653471001071
 20
-139.7682491760947
 30
0.0
 10
122.8101498767419
 20
-139.8130202296752
 30
0.0
 10
122.8652560504883
 20
-139.8130202296752
 30
0.0
 10
122.9203929294849
 20
-139.8130202296752
 30
0.0
 10
122.9651604283428
 20
-139.7682491760947
 30
0.0
 10
122.9651604283428
 20
-139.7131135655573
 30
0.0
  0
CIRCLE
  5
7E
330
70
100
AcDbEntity
  8
レイヤー 1
 62
    18
420
        0
370
     9
100
AcDbCircle
 10
102.8766159366267
 20
-139.7131135655573
 30
0.0
 40
0.0999066641179156
  0
INSERT
  5
80
330
70
100
AcDbEntity
  8
レイヤー 1
100
AcDbBlockReference
  2
Block_0
 10
0.0
 20
0.0
 30
0.0
  0
SPLINE
  5
93
330
70
100
AcDbEntity
  8
レイヤー 1
 62
    18
420
        0
370
     9
100
AcDbSpline
210
0.0
220
0.0
230
1.0
 70
     9
 71
     3
 72
    17
 73
    13
 74
     0
 42
0.0000000001
 43
0.0000000001
 40
0.0
 40
0.0
 40
0.0
 40
0.0
 40
1.0
 40
1.0
 40
1.0
 40
2.0
 40
2.0
 40
2.0
 40
3.0
 40
3.0
 40
3.0
 40
4.0
 40
4.0
 40
4.0
 40
4.0
 10
113.7759241804515
 20
-161.3960996142925
 30
0.0
 10
113.7759241804515
 20
-161.3409957268094
 30
0.0
 10
113.7311566815936
 20
-161.2961929501746
 30
0.0
 10
113.676019802597
 20
-161.2961929501746
 30
0.0
 10
113.6209136288506
 20
-161.2961929501746
 30
0.0
 10
113.5761108522158
 20
-161.3409957268094
 30
0.0
 10
113.5761108522158
 20
-161.3960996142925
 30
0.0
 10
113.5761108522158
 20
-161.4512352248298
 30
0.0
 10
113.6209136288506
 20
-161.4960062784103
 30
0.0
 10
113.676019802597
 20
-161.4960062784103
 30
0.0
 10
113.7311566815936
 20
-161.4960062784103
 30
0.0
 10
113.7759241804515
 20
-161.4512352248298
 30
0.0
 10
113.7759241804515
 20
-161.3960996142925
 30
0.0
  0
CIRCLE
  5
94
330
70
100
AcDbEntity
  8
レイヤー 1
 62
    18
420
        0
370
     9
100
AcDbCircle
 10
98.68737982656293
 20
-161.3960996142925
 30
0.0
 40
0.0999066641179156
  0
CIRCLE
  5
95
330
70
100
AcDbEntity
  8
レイヤー 1
 62
    18
420
        0
370
     9
100
AcDbCircle
 10
88.68737988734286
 20
-161.3960996142925
 30
0.0
 40
0.0999066641178353
  0
INSERT
  5
97
330
70
100
AcDbEntity
  8
レイヤー 1
100
AcDbBlockReference
  2
Block_3
 10
0.0
 20
0.0
 30
0.0
  0
SPLINE
  5
B7
330
70
100
AcDbEntity
  8
レイヤー 1
 62
    18
420
        0
370
     9
100
AcDbSpline
210
0.0
220
0.0
230
1.0
 70
     9
 71
     3
 72
    17
 73
    13
 74
     0
 42
0.0000000001
 43
0.0000000001
 40
0.0
 40
0.0
 40
0.0
 40
0.0
 40
1.0
 40
1.0
 40
1.0
 40
2.0
 40
2.0
 40
2.0
 40
3.0
 40
3.0
 40
3.0
 40
4.0
 40
4.0
 40
4.0
 40
4.0
 10
113.954670911655
 20
-152.2464995432159
 30
0.0
 10
113.954670911655
 20
-152.1913956557328
 30
0.0
 10
113.9099034127971
 20
-152.146592879098
 30
0.0
 10
113.8547665337998
 20
-152.146592879098
 30
0.0
 10
113.7996603600541
 20
-152.146592879098
 30
0.0
 10
113.7548575834193
 20
-152.1913956557328
 30
0.0
 10
113.7548575834193
 20
-152.2464995432159
 30
0.0
 10
113.7548575834193
 20
-152.3016351537531
 30
0.0
 10
113.7996603600541
 20
-152.3464062073337
 30
0.0
 10
113.8547665337998
 20
-152.3464062073337
 30
0.0
 10
113.9099034127971
 20
-152.3464062073337
 30
0.0
 10
113.954670911655
 20
-152.3016351537531
 30
0.0
 10
113.954670911655
 20
-152.2464995432159
 30
0.0
  0
CIRCLE
  5
B8
330
70
100
AcDbEntity
  8
レイヤー 1
 62
    18
420
        0
370
     9
100
AcDbCircle
 10
106.8661267782902
 20
-152.2464995432159
 30
0.0
 40
0.0999066641178353
  0
INSERT
  5
BA
330
70
100
AcDbEntity
  8
レイヤー 1
100
AcDbBlockReference
  2
Block_8
 10
0.0
 20
0.0
 30
0.0
  0
SPLINE
  5
C6
330
70
100
AcDbEntity
  8
レイヤー 1
 62
    18
420
        0
370
     9
100
AcDbSpline
210
0.0
220
0.0
230
1.0
 70
     9
 71
     3
 72
    17
 73
    13
 74
     0
 42
0.0000000001
 43
0.0000000001
 40
0.0
 40
0.0
 40
0.0
 40
0.0
 40
1.0
 40
1.0
 40
1.0
 40
2.0
 40
2.0
 40
2.0
 40
3.0
 40
3.0
 40
3.0
 40
4.0
 40
4.0
 40
4.0
 40
4.0
 10
126.8995330192447
 20
-154.3891873030093
 30
0.0
 10
126.8995330192447
 20
-154.3340834155263
 30
0.0
 10
126.8547655203868
 20
-154.2892806388915
 30
0.0
 10
126.7996263551268
 20
-154.2892806388915
 30
0.0
 10
126.744169689875
 20
-154.2892806388915
 30
0.0
 10
126.6993669132402
 20
-154.3340834155263
 30
0.0
 10
126.6993669132402
 20
-154.3891873030093
 30
0.0
 10
126.6993669132402
 20
-154.4443264682693
 30
0.0
 10
126.744169689875
 20
-154.4890939671272
 30
0.0
 10
126.7996263551268
 20
-154.4890939671272
 30
0.0
 10
126.8547655203868
 20
-154.4890939671272
 30
0.0
 10
126.8995330192447
 20
-154.4443264682693
 30
0.0
 10
126.8995330192447
 20
-154.3891873030093
 30
0.0
  0
SPLINE
  5
C7
330
70
100
AcDbEntity
  8
レイヤー 1
 62
    18
420
        0
370
     9
100
AcDbSpline
210
0.0
220
0.0
230
1.0
 70
     9
 71
     3
 72
    17
 73
    13
 74
     0
 42
0.0000000001
 43
0.0000000001
 40
0.0
 40
0.0
 40
0.0
 40
0.0
 40
1.0
 40
1.0
 40
1.0
 40
2.0
 40
2.0
 40
2.0
 40
3.0
 40
3.0
 40
3.0
 40
4.0
 40
4.0
 40
4.0
 40
4.0
 10
126.8995330192447
 20
-157.389209448694
 30
0.0
 10
126.8995330192447
 20
-157.3340702834346
 30
0.0
 10
126.8547655203868
 20
-157.2892675067999
 30
0.0
 10
126.7996263551268
 20
-157.2892675067999
 30
0.0
 10
126.744169689875
 20
-157.2892675067999
 30
0.0
 10
126.6993669132402
 20
-157.3340702834346
 30
0.0
 10
126.6993669132402
 20
-157.389209448694
 30
0.0
 10
126.6993669132402
 20
-157.4443133361777
 30
0.0
 10
126.744169689875
 20
-157.4891161128124
 30
0.0
 10
126.7996263551268
 20
-157.4891161128124
 30
0.0
 10
126.8547655203868
 20
-157.4891161128124
 30
0.0
 10
126.8995330192447
 20
-157.4443133361777
 30
0.0
 10
126.8995330192447
 20
-157.389209448694
 30
0.0
  0
LINE
  5
C8
330
70
100
AcDbEntity
  8
レイヤー 1
 62
    18
420
        0
370
     9
100
AcDbLine
 10
126.7996263551268
 20
-154.3891873030093
 30
0.0
 11
126.7996263551268
 21
-157.389209448694
 31
0.0
  0
LINE
  5
C9
330
70
100
AcDbEntity
  8
レイヤー 1
 62
    18
420
        0
370
     9
100
AcDbLine
 10
125.3395850034867
 20
-154.3891873030093
 30
0.0
 11
127.7993985518428
 21
-154.3891873030093
 31
0.0
  0
SPLINE
  5
CA
330
70
100
AcDbEntity
  8
レイヤー 1
 62
    18
420
        0
370
     9
100
AcDbSpline
210
0.0
220
0.0
230
1.0
 70
     9
 71
     3
 72
    17
 73
    13
 74
     0
 42
0.0000000001
 43
0.0000000001
 40
0.0
 40
0.0
 40
0.0
 40
0.0
 40
1.0
 40
1.0
 40
1.0
 40
2.0
 40
2.0
 40
2.0
 40
3.0
 40
3.0
 40
3.0
 40
4.0
 40
4.0
 40
4.0
 40
4.0
 10
126.8995330192447
 20
-143.2735224607452
 30
0.0
 10
126.8995330192447
 20
-143.2184185732621
 30
0.0
 10
126.8547655203868
 20
-143.1736157966273
 30
0.0
 10
126.7996263551268
 20
-143.1736157966273
 30
0.0
 10
126.744169689875
 20
-143.1736157966273
 30
0.0
 10
126.6993669132402
 20
-143.2184185732621
 30
0.0
 10
126.6993669132402
 20
-143.2735224607452
 30
0.0
 10
126.6993669132402
 20
-143.3286616260051
 30
0.0
 10
126.744169689875
 20
-143.373429124863
 30
0.0
 10
126.7996263551268
 20
-143.373429124863
 30
0.0
 10
126.8547655203868
 20
-143.373429124863
 30
0.0
 10
126.8995330192447
 20
-143.3286616260051
 30
0.0
 10
126.8995330192447
 20
-143.2735224607452
 30
0.0
  0
LINE
  5
CB
330
70
100
AcDbEntity
  8
レイヤー 1
 62
    18
420
        0
370
     9
100
AcDbLine
 10
126.7996263551268
 20
-140.2735219947342
 30
0.0
 11
126.7996263551268
 21
-157.389209448694
 31
0.0
  0
LINE
  5
CC
330
70
100
AcDbEntity
  8
レイヤー 1
 62
    18
420
        0
370
     9
100
AcDbLine
 10
125.3395850034867
 20
-143.2735224607452
 30
0.0
 11
127.7993985518428
 21
-143.2735224607452
 31
0.0
  0
SPLINE
  5
CD
330
70
100
AcDbEntity
  8
レイヤー 1
 62
    18
420
        0
370
     9
100
AcDbSpline
210
0.0
220
0.0
230
1.0
 70
     9
 71
     3
 72
    17
 73
    13
 74
     0
 42
0.0000000001
 43
0.0000000001
 40
0.0
 40
0.0
 40
0.0
 40
0.0
 40
1.0
 40
1.0
 40
1.0
 40
2.0
 40
2.0
 40
2.0
 40
3.0
 40
3.0
 40
3.0
 40
4.0
 40
4.0
 40
4.0
 40
4.0
 10
126.8995330192447
 20
-144.273522488311
 30
0.0
 10
126.8995330192447
 20
-144.2184186008273
 30
0.0
 10
126.8547655203868
 20
-144.1736158241928
 30
0.0
 10
126.7996263551268
 20
-144.1736158241928
 30
0.0
 10
126.744169689875
 20
-144.1736158241928
 30
0.0
 10
126.6993669132402
 20
-144.2184186008273
 30
0.0
 10
126.6993669132402
 20
-144.273522488311
 30
0.0
 10
126.6993669132402
 20
-144.3286616535706
 30
0.0
 10
126.744169689875
 20
-144.3734291524275
 30
0.0
 10
126.7996263551268
 20
-144.3734291524275
 30
0.0
 10
126.8547655203868
 20
-144.3734291524275
 30
0.0
 10
126.8995330192447
 20
-144.3286616535706
 30
0.0
 10
126.8995330192447
 20
-144.273522488311
 30
0.0
  0
LINE
  5
CE
330
70
100
AcDbEntity
  8
レイヤー 1
 62
    18
420
        0
370
     9
100
AcDbLine
 10
125.3395850034867
 20
-144.273522488311
 30
0.0
 11
127.7993985518428
 21
-144.273522488311
 31
0.0
  0
LINE
  5
CF
330
70
100
AcDbEntity
  8
レイヤー 1
 62
    18
420
        0
370
     9
100
AcDbLine
 10
125.3395850034867
 20
-157.389209448694
 30
0.0
 11
127.7993985518428
 21
-157.389209448694
 31
0.0
  0
INSERT
  5
D1
330
70
100
AcDbEntity
  8
レイヤー 1
100
AcDbBlockReference
  2
Block_10
 10
0.0
 20
0.0
 30
0.0
  0
INSERT
  5
D7
330
70
100
AcDbEntity
  8
レイヤー 1
100
AcDbBlockReference
  2
Block_11
 10
0.0
 20
0.0
 30
0.0
  0
INSERT
  5
E4
330
70
100
AcDbEntity
  8
レイヤー 1
100
AcDbBlockReference
  2
Block_13
 10
0.0
 20
0.0
 30
0.0
  0
SPLINE
  5
E9
330
70
100
AcDbEntity
  8
レイヤー 1
 62
    18
420
        0
370
     9
100
AcDbSpline
210
0.0
220
0.0
230
1.0
 70
     9
 71
     3
 72
    17
 73
    13
 74
     0
 42
0.0000000001
 43
0.0000000001
 40
0.0
 40
0.0
 40
0.0
 40
0.0
 40
1.0
 40
1.0
 40
1.0
 40
2.0
 40
2.0
 40
2.0
 40
3.0
 40
3.0
 40
3.0
 40
4.0
 40
4.0
 40
4.0
 40
4.0
 10
87.35083723836389
 20
-157.389209448694
 30
0.0
 10
87.35083723836389
 20
-157.3340702834346
 30
0.0
 10
87.30606973950633
 20
-157.2892675067999
 30
0.0
 10
87.25093057424638
 20
-157.2892675067999
 30
0.0
 10
87.19547390899453
 20
-157.2892675067999
 30
0.0
 10
87.15067113235976
 20
-157.3340702834346
 30
0.0
 10
87.15067113235976
 20
-157.389209448694
 30
0.0
 10
87.15067113235976
 20
-157.4443133361777
 30
0.0
 10
87.19547390899453
 20
-157.4891161128124
 30
0.0
 10
87.25093057424638
 20
-157.4891161128124
 30
0.0
 10
87.30606973950633
 20
-157.4891161128124
 30
0.0
 10
87.35083723836389
 20
-157.4443133361777
 30
0.0
 10
87.35083723836389
 20
-157.389209448694
 30
0.0
  0
SPLINE
  5
EA
330
70
100
AcDbEntity
  8
レイヤー 1
 62
    18
420
        0
370
     9
100
AcDbSpline
210
0.0
220
0.0
230
1.0
 70
     9
 71
     3
 72
    17
 73
    13
 74
     0
 42
0.0000000001
 43
0.0000000001
 40
0.0
 40
0.0
 40
0.0
 40
0.0
 40
1.0
 40
1.0
 40
1.0
 40
2.0
 40
2.0
 40
2.0
 40
3.0
 40
3.0
 40
3.0
 40
4.0
 40
4.0
 40
4.0
 40
4.0
 10
87.35083723836389
 20
-151.389209283301
 30
0.0
 10
87.35083723836389
 20
-151.3340701180417
 30
0.0
 10
87.30606973950633
 20
-151.2892673414069
 30
0.0
 10
87.25093057424638
 20
-151.2892673414069
 30
0.0
 10
87.19547390899453
 20
-151.2892673414069
 30
0.0
 10
87.15067113235976
 20
-151.3340701180417
 30
0.0
 10
87.15067113235976
 20
-151.389209283301
 30
0.0
 10
87.15067113235976
 20
-151.4443131707847
 30
0.0
 10
87.19547390899453
 20
-151.4891159474194
 30
0.0
 10
87.25093057424638
 20
-151.4891159474194
 30
0.0
 10
87.30606973950633
 20
-151.4891159474194
 30
0.0
 10
87.35083723836389
 20
-151.4443131707847
 30
0.0
 10
87.35083723836389
 20
-151.389209283301
 30
0.0
  0
LINE
  5
EB
330
70
100
AcDbEntity
  8
レイヤー 1
 62
    18
420
        0
370
     9
100
AcDbLine
 10
87.25093057424638
 20
-146.3844305399623
 30
0.0
 11
87.25093057424638
 21
-157.389209448694
 31
0.0
  0
SPLINE
  5
EC
330
70
100
AcDbEntity
  8
レイヤー 1
 62
    18
420
        0
370
     9
100
AcDbSpline
210
0.0
220
0.0
230
1.0
 70
     9
 71
     3
 72
    17
 73
    13
 74
     0
 42
0.0000000001
 43
0.0000000001
 40
0.0
 40
0.0
 40
0.0
 40
0.0
 40
1.0
 40
1.0
 40
1.0
 40
2.0
 40
2.0
 40
2.0
 40
3.0
 40
3.0
 40
3.0
 40
4.0
 40
4.0
 40
4.0
 40
4.0
 10
87.35083723836389
 20
-146.3864981774684
 30
0.0
 10
87.35083723836389
 20
-146.3313942899854
 30
0.0
 10
87.30606973950633
 20
-146.2865915133506
 30
0.0
 10
87.25093057424638
 20
-146.2865915133506
 30
0.0
 10
87.19547390899453
 20
-146.2865915133506
 30
0.0
 10
87.15067113235976
 20
-146.3313942899854
 30
0.0
 10
87.15067113235976
 20
-146.3864981774684
 30
0.0
 10
87.15067113235976
 20
-146.4416373427284
 30
0.0
 10
87.19547390899453
 20
-146.4864048415862
 30
0.0
 10
87.25093057424638
 20
-146.4864048415862
 30
0.0
 10
87.30606973950633
 20
-146.4864048415862
 30
0.0
 10
87.35083723836389
 20
-146.4416373427284
 30
0.0
 10
87.35083723836389
 20
-146.3864981774684
 30
0.0
  0
LINE
  5
ED
330
70
100
AcDbEntity
  8
レイヤー 1
 62
    18
420
        0
370
     9
100
AcDbLine
 10
85.79088922260625
 20
-146.3864981774684
 30
0.0
 11
88.25070277096228
 21
-146.3864981774684
 31
0.0
  0
LINE
  5
EE
330
70
100
AcDbEntity
  8
レイヤー 1
 62
    18
420
        0
370
     9
100
AcDbLine
 10
85.79088922260625
 20
-157.385743478257
 30
0.0
 11
88.25070277096228
 21
-157.385743478257
 31
0.0
  0
LINE
  5
EF
330
70
100
AcDbEntity
  8
レイヤー 1
 62
    18
420
        0
370
     9
100
AcDbLine
 10
85.79088922260625
 20
-151.3857433128641
 30
0.0
 11
88.25070277096228
 21
-151.3857433128641
 31
0.0
  0
INSERT
  5
F1
330
70
100
AcDbEntity
  8
レイヤー 1
100
AcDbBlockReference
  2
Block_14
 10
0.0
 20
0.0
 30
0.0
  0
INSERT
  5
F7
330
70
100
AcDbEntity
  8
レイヤー 1
100
AcDbBlockReference
  2
Block_15
 10
0.0
 20
0.0
 30
0.0
  0
INSERT
  5
FE
330
70
100
AcDbEntity
  8
レイヤー 1
100
AcDbBlockReference
  2
Block_16
 10
0.0
 20
0.0
 30
0.0
  0
INSERT
  5
105
330
70
100
AcDbEntity
  8
レイヤー 1
100
AcDbBlockReference
  2
Block_17
 10
0.0
 20
0.0
 30
0.0
  0
LWPOLYLINE
  5
11C
330
70
100
AcDbEntity
  8
レイヤー 1
 62
    18
420
        0
370
    25
100
AcDbPolyline
 90
       22
 70
     0
 43
0.0
 10
88.85081120190573
 20
-149.877934306269
 10
89.15081120185311
 20
-149.3779343064073
 10
88.85081120195097
 20
-148.8779342787035
 10
89.15081120189803
 20
-148.3779342788418
 10
88.8508112019959
 20
-147.8779342511377
 10
89.15081120194296
 20
-147.3779342512759
 10
88.85081120204082
 20
-146.8779342235722
 10
89.14324538829129
 20
-146.3905439132035
 10
89.8513619833742
 20
-146.3901184548451
 10
89.8513619833742
 20
-150.3805517310708
 10
99.86237564868808
 20
-150.3805517310708
 10
99.85864645668598
 20
-156.393634383505
 10
112.8681908011453
 20
-156.393634383505
 10
112.8681908011453
 20
-155.399146536531
 10
106.8636002178732
 20
-155.399146536531
 10
106.8636002178732
 20
-154.3977857829503
 10
113.8681908008951
 20
-154.3977857829503
 10
113.8681908008951
 20
-157.3931160553431
 10
98.85864645693558
 20
-157.3931160553431
 10
98.85864645693558
 20
-151.3805517308199
 10
88.85136195580837
 20
-151.3805517308199
 10
88.85136195580837
 20
-149.8805517735804
  0
ENDSEC
  0
SECTION
  2
OBJECTS
  0
DICTIONARY
  5
C
330
0
100
AcDbDictionary
281
     1
  3
ACAD_COLOR
350
63
  3
ACAD_DETAILVIEWSTYLE
350
6A
  3
ACAD_GROUP
350
D
  3
ACAD_LAYOUT
350
62
  3
ACAD_MATERIAL
350
10
  3
ACAD_MLEADERSTYLE
350
66
  3
ACAD_MLINESTYLE
350
5F
  3
ACAD_PLOTSETTINGS
350
61
  3
ACAD_PLOTSTYLENAME
350
E
  3
ACAD_SCALELIST
350
42
  3
ACAD_SECTIONVIEWSTYLE
350
68
  3
ACAD_TABLESTYLE
350
64
  3
ACAD_VISUALSTYLE
350
29
  3
ACDB_RECOMPOSE_DATA
350
125
  3
AcDbVariableDictionary
350
11D
  0
DICTIONARY
  5
63
102
{ACAD_REACTORS
330
C
102
}
330
C
100
AcDbDictionary
281
     1
  0
DICTIONARY
  5
6A
102
{ACAD_REACTORS
330
C
102
}
330
C
100
AcDbDictionary
281
     1
  3
Imperial24
350
6B
  0
DICTIONARY
  5
D
102
{ACAD_REACTORS
330
C
102
}
330
C
100
AcDbDictionary
281
     1
  0
DICTIONARY
  5
62
102
{ACAD_REACTORS
330
C
102
}
330
C
100
AcDbDictionary
281
     1
  3
Layout1
350
6F
  3
Layout2
350
77
  3
Model
350
73
  0
DICTIONARY
  5
10
102
{ACAD_REACTORS
330
C
102
}
330
C
100
AcDbDictionary
281
     1
  3
ByBlock
350
19
  3
ByLayer
350
11
  3
Global
350
21
  0
DICTIONARY
  5
66
102
{ACAD_REACTORS
330
C
102
}
330
C
100
AcDbDictionary
281
     1
  3
Standard
350
67
  0
DICTIONARY
  5
5F
102
{ACAD_REACTORS
330
C
102
}
330
C
100
AcDbDictionary
281
     1
  3
Standard
350
60
  0
DICTIONARY
  5
61
102
{ACAD_REACTORS
330
C
102
}
330
C
100
AcDbDictionary
281
     1
  0
ACDBDICTIONARYWDFLT
  5
E
102
{ACAD_REACTORS
330
C
102
}
330
C
100
AcDbDictionary
281
     1
  3
Normal
350
F
100
AcDbDictionaryWithDefault
340
F
  0
DICTIONARY
  5
42
102
{ACAD_REACTORS
330
C
102
}
330
C
100
AcDbDictionary
281
     1
  3
A0
350
43
  3
A1
350
44
  3
A2
350
45
  3
A3
350
46
  3
A4
350
47
  3
A5
350
48
  3
A6
350
49
  3
A7
350
4A
  3
A8
350
4B
  3
A9
350
4C
  3
B0
350
4D
  3
B1
350
4E
  3
B2
350
4F
  3
B3
350
50
  3
B4
350
51
  3
B5
350
52
  3
B6
350
53
  0
DICTIONARY
  5
68
102
{ACAD_REACTORS
330
C
102
}
330
C
100
AcDbDictionary
281
     1
  3
Imperial24
350
69
  0
DICTIONARY
  5
64
102
{ACAD_REACTORS
330
C
102
}
330
C
100
AcDbDictionary
281
     1
  3
Standard
350
65
  0
DICTIONARY
  5
29
102
{ACAD_REACTORS
330
C
102
}
330
C
100
AcDbDictionary
281
     1
  3
2dWireframe
350
2F
  3
Basic
350
2E
  3
Brighten
350
35
  3
ColorChange
350
39
  3
Conceptual
350
32
  3
Dim
350
34
  3
EdgeColorOff
350
41
  3
Facepattern
350
38
  3
Flat
350
2A
  3
FlatWithEdges
350
2B
  3
Gouraud
350
2C
  3
GouraudWithEdges
350
2D
  3
Hidden
350
31
  3
JitterOff
350
3F
  3
Linepattern
350
37
  3
OverhangOff
350
40
  3
Realistic
350
33
  3
Shaded
350
3E
  3
Shaded with edges
350
3D
  3
Shades of Gray
350
3A
  3
Sketchy
350
3B
  3
Thicken
350
36
  3
Wireframe
350
30
  3
X-Ray
350
3C
  0
XRECORD
  5
125
102
{ACAD_REACTORS
330
C
102
}
330
C
100
AcDbXrecord
280
     1
 90
        1
330
65
  0
DICTIONARY
  5
11D
102
{ACAD_REACTORS
330
C
102
}
330
C
100
AcDbDictionary
281
     1
  3
CANNOSCALE
350
122
  3
CMLEADERSTYLE
350
11F
  3
CTABLESTYLE
350
11E
  3
CVIEWDETAILSTYLE
350
120
  3
CVIEWSECTIONSTYLE
350
121
  0
ACDBDETAILVIEWSTYLE
  5
6B
102
{ACAD_XDICTIONARY
360
15A
102
}
102
{ACAD_REACTORS
330
6A
102
}
330
6A
100
AcDbModelDocViewStyle
 70
     0
  3
Imperial24
290
     0
100
AcDbDetailViewStyle
 70
     0
 71
     0
 90
        3
 71
     1
340
55
 62
   256
 40
0.24
340
0
 62
   256
 40
0.24
300

 40
0.36
280
     3
 71
     2
340
5D
 90
       25
 62
   256
 71
     3
340
55
 62
   256
 40
0.24
 90
        1
 40
0.75
 90
        1
300
%<\AcVar ViewType \f "%tc1">% %<\AcVar ViewDetailId>%\PSCALE %<\AcVar ViewScale \f "%sn">%
 71
     4
340
5D
 90
       25
 62
   256
340
5D
 90
       25
 62
   256
280
     0
  0
LAYOUT
  5
6F
102
{ACAD_REACTORS
330
62
102
}
330
62
100
AcDbPlotSettings
  1

  2

  4

  6

 40
0.0
 41
0.0
 42
0.0
 43
0.0
 44
0.0
 45
0.0
 46
0.0
 47
0.0
 48
0.0
 49
0.0
140
0.0
141
0.0
142
1.0
143
1.0
 70
   688
 72
     0
 73
     0
 74
     5
  7

 75
    16
147
1.0
 76
     0
 77
     2
 78
   300
148
0.0
149
0.0
100
AcDbLayout
  1
Layout1
 70
     1
 71
     1
 10
0.0
 20
0.0
 11
12.0
 21
9.0
 12
0.0
 22
0.0
 32
0.0
 14
0.0
 24
0.0
 34
0.0
 15
0.0
 25
0.0
 35
0.0
146
0.0
 13
0.0
 23
0.0
 33
0.0
 16
1.0
 26
0.0
 36
0.0
 17
0.0
 27
1.0
 37
0.0
 76
     0
330
6C
  0
LAYOUT
  5
77
102
{ACAD_REACTORS
330
62
102
}
330
62
100
AcDbPlotSettings
  1

  2

  4

  6

 40
0.0
 41
0.0
 42
0.0
 43
0.0
 44
0.0
 45
0.0
 46
0.0
 47
0.0
 48
0.0
 49
0.0
140
0.0
141
0.0
142
1.0
143
1.0
 70
   688
 72
     0
 73
     0
 74
     5
  7

 75
    16
147
1.0
 76
     0
 77
     2
 78
   300
148
0.0
149
0.0
100
AcDbLayout
  1
Layout2
 70
     1
 71
     2
 10
0.0
 20
0.0
 11
12.0
 21
9.0
 12
0.0
 22
0.0
 32
0.0
 14
0.0
 24
0.0
 34
0.0
 15
0.0
 25
0.0
 35
0.0
146
0.0
 13
0.0
 23
0.0
 33
0.0
 16
1.0
 26
0.0
 36
0.0
 17
0.0
 27
1.0
 37
0.0
 76
     0
330
74
  0
LAYOUT
  5
73
102
{ACAD_REACTORS
330
62
102
}
330
62
100
AcDbPlotSettings
  1

  2

  4

  6

 40
0.0
 41
0.0
 42
0.0
 43
0.0
 44
0.0
 45
0.0
 46
0.0
 47
0.0
 48
0.0
 49
0.0
140
0.0
141
0.0
142
1.0
143
1.0
 70
  1712
 72
     0
 73
     0
 74
     0
  7

 75
     0
147
1.0
 76
     0
 77
     2
 78
   300
148
0.0
149
0.0
100
AcDbLayout
  1
Model
 70
     1
 71
     0
 10
0.0
 20
0.0
 11
12.0
 21
9.0
 12
0.0
 22
0.0
 32
0.0
 14
0.0
 24
0.0
 34
0.0
 15
0.0
 25
0.0
 35
0.0
146
0.0
 13
0.0
 23
0.0
 33
0.0
 16
1.0
 26
0.0
 36
0.0
 17
0.0
 27
1.0
 37
0.0
 76
     0
330
70
  0
MATERIAL
  5
19
102
{ACAD_XDICTIONARY
360
1A
102
}
102
{ACAD_REACTORS
330
10
102
}
330
10
100
AcDbMaterial
  1
ByBlock
 72
     0
 43
0.0208333333333333
 43
0.0
 43
0.0
 43
0.0
 43
0.0
 43
0.0208333333333333
 43
0.0
 43
0.0
 43
0.0
 43
0.0
 43
1.0
 43
0.0
 43
0.0
 43
0.0
 43
0.0
 43
1.0
 77
     0
 47
0.0208333333333333
 47
0.0
 47
0.0
 47
0.0
 47
0.0
 47
0.0208333333333333
 47
0.0
 47
0.0
 47
0.0
 47
0.0
 47
1.0
 47
0.0
 47
0.0
 47
0.0
 47
0.0
 47
1.0
171
     0
 49
0.0208333333333333
 49
0.0
 49
0.0
 49
0.0
 49
0.0
 49
0.0208333333333333
 49
0.0
 49
0.0
 49
0.0
 49
0.0
 49
1.0
 49
0.0
 49
0.0
 49
0.0
 49
0.0
 49
1.0
175
     0
142
0.0208333333333333
142
0.0
142
0.0
142
0.0
142
0.0
142
0.0208333333333333
142
0.0
142
0.0
142
0.0
142
0.0
142
1.0
142
0.0
142
0.0
142
0.0
142
0.0
142
1.0
179
     0
144
0.0208333333333333
144
0.0
144
0.0
144
0.0
144
0.0
144
0.0208333333333333
144
0.0
144
0.0
144
0.0
144
0.0
144
1.0
144
0.0
144
0.0
144
0.0
144
0.0
144
1.0
147
0.0208333333333333
147
0.0
147
0.0
147
0.0
147
0.0
147
0.0208333333333333
147
0.0
147
0.0
147
0.0
147
0.0
147
1.0
147
0.0
147
0.0
147
0.0
147
0.0
147
1.0
  0
MATERIAL
  5
11
102
{ACAD_XDICTIONARY
360
12
102
}
102
{ACAD_REACTORS
330
10
102
}
330
10
100
AcDbMaterial
  1
ByLayer
 72
     0
 43
0.0208333333333333
 43
0.0
 43
0.0
 43
0.0
 43
0.0
 43
0.0208333333333333
 43
0.0
 43
0.0
 43
0.0
 43
0.0
 43
1.0
 43
0.0
 43
0.0
 43
0.0
 43
0.0
 43
1.0
 77
     0
 47
0.0208333333333333
 47
0.0
 47
0.0
 47
0.0
 47
0.0
 47
0.0208333333333333
 47
0.0
 47
0.0
 47
0.0
 47
0.0
 47
1.0
 47
0.0
 47
0.0
 47
0.0
 47
0.0
 47
1.0
171
     0
 49
0.0208333333333333
 49
0.0
 49
0.0
 49
0.0
 49
0.0
 49
0.0208333333333333
 49
0.0
 49
0.0
 49
0.0
 49
0.0
 49
1.0
 49
0.0
 49
0.0
 49
0.0
 49
0.0
 49
1.0
175
     0
142
0.0208333333333333
142
0.0
142
0.0
142
0.0
142
0.0
142
0.0208333333333333
142
0.0
142
0.0
142
0.0
142
0.0
142
1.0
142
0.0
142
0.0
142
0.0
142
0.0
142
1.0
179
     0
144
0.0208333333333333
144
0.0
144
0.0
144
0.0
144
0.0
144
0.0208333333333333
144
0.0
144
0.0
144
0.0
144
0.0
144
1.0
144
0.0
144
0.0
144
0.0
144
0.0
144
1.0
147
0.0208333333333333
147
0.0
147
0.0
147
0.0
147
0.0
147
0.0208333333333333
147
0.0
147
0.0
147
0.0
147
0.0
147
1.0
147
0.0
147
0.0
147
0.0
147
0.0
147
1.0
  0
MATERIAL
  5
21
102
{ACAD_XDICTIONARY
360
22
102
}
102
{ACAD_REACTORS
330
10
102
}
330
10
100
AcDbMaterial
  1
Global
 72
     0
 43
0.0208333333333333
 43
0.0
 43
0.0
 43
0.0
 43
0.0
 43
0.0208333333333333
 43
0.0
 43
0.0
 43
0.0
 43
0.0
 43
1.0
 43
0.0
 43
0.0
 43
0.0
 43
0.0
 43
1.0
 77
     0
 47
0.0208333333333333
 47
0.0
 47
0.0
 47
0.0
 47
0.0
 47
0.0208333333333333
 47
0.0
 47
0.0
 47
0.0
 47
0.0
 47
1.0
 47
0.0
 47
0.0
 47
0.0
 47
0.0
 47
1.0
171
     0
 49
0.0208333333333333
 49
0.0
 49
0.0
 49
0.0
 49
0.0
 49
0.0208333333333333
 49
0.0
 49
0.0
 49
0.0
 49
0.0
 49
1.0
 49
0.0
 49
0.0
 49
0.0
 49
0.0
 49
1.0
175
     0
142
0.0208333333333333
142
0.0
142
0.0
142
0.0
142
0.0
142
0.0208333333333333
142
0.0
142
0.0
142
0.0
142
0.0
142
1.0
142
0.0
142
0.0
142
0.0
142
0.0
142
1.0
179
     0
144
0.0208333333333333
144
0.0
144
0.0
144
0.0
144
0.0
144
0.0208333333333333
144
0.0
144
0.0
144
0.0
144
0.0
144
1.0
144
0.0
144
0.0
144
0.0
144
0.0
144
1.0
147
0.0208333333333333
147
0.0
147
0.0
147
0.0
147
0.0
147
0.0208333333333333
147
0.0
147
0.0
147
0.0
147
0.0
147
1.0
147
0.0
147
0.0
147
0.0
147
0.0
147
1.0
  0
MLEADERSTYLE
  5
67
102
{ACAD_XDICTIONARY
360
156
102
}
102
{ACAD_REACTORS
330
66
102
}
330
66
100
AcDbMLeaderStyle
179
     2
170
     2
171
     1
172
     0
 90
        2
 40
0.0
 41
0.0
173
     1
 91
-1056964608
340
5B
 92
       -2
290
     1
 42
0.09
291
     1
 43
0.36
  3
Standard
 44
0.18
300

342
55
174
     1
178
     6
175
     1
176
     0
 93
-1056964608
 45
0.18
292
     0
297
     0
 46
0.18
 94
-1056964608
 47
1.0
 49
1.0
140
1.0
293
     1
141
0.0
294
     1
177
     0
142
1.0
295
     0
296
     0
143
0.125
271
     0
272
     9
273
     9
  0
MLINESTYLE
  5
60
102
{ACAD_REACTORS
330
5F
102
}
330
5F
100
AcDbMlineStyle
  2
STANDARD
 70
     0
  3

 62
   256
 51
90.0
 52
90.0
 71
     2
 49
0.5
 62
   256
  6
BYLAYER
 49
-0.5
 62
   256
  6
BYLAYER
  0
ACDBPLACEHOLDER
  5
F
102
{ACAD_REACTORS
330
E
102
}
330
E
  0
SCALE
  5
43
102
{ACAD_REACTORS
330
42
102
}
330
42
100
AcDbScale
 70
     0
300
1:1
140
1.0
141
1.0
290
     1
  0
SCALE
  5
44
102
{ACAD_REACTORS
330
42
102
}
330
42
100
AcDbScale
 70
     0
300
1/128" = 1'-0"
140
0.0078125
141
12.0
290
     0
  0
SCALE
  5
45
102
{ACAD_REACTORS
330
42
102
}
330
42
100
AcDbScale
 70
     0
300
1/64" = 1'-0"
140
0.015625
141
12.0
290
     0
  0
SCALE
  5
46
102
{ACAD_REACTORS
330
42
102
}
330
42
100
AcDbScale
 70
     0
300
1/32" = 1'-0"
140
0.03125
141
12.0
290
     0
  0
SCALE
  5
47
102
{ACAD_REACTORS
330
42
102
}
330
42
100
AcDbScale
 70
     0
300
1/16" = 1'-0"
140
0.0625
141
12.0
290
     0
  0
SCALE
  5
48
102
{ACAD_REACTORS
330
42
102
}
330
42
100
AcDbScale
 70
     0
300
3/32" = 1'-0"
140
0.09375
141
12.0
290
     0
  0
SCALE
  5
49
102
{ACAD_REACTORS
330
42
102
}
330
42
100
AcDbScale
 70
     0
300
1/8" = 1'-0"
140
0.125
141
12.0
290
     0
  0
SCALE
  5
4A
102
{ACAD_REACTORS
330
42
102
}
330
42
100
AcDbScale
 70
     0
300
3/16" = 1'-0"
140
0.1875
141
12.0
290
     0
  0
SCALE
  5
4B
102
{ACAD_REACTORS
330
42
102
}
330
42
100
AcDbScale
 70
     0
300
1/4" = 1'-0"
140
0.25
141
12.0
290
     0
  0
SCALE
  5
4C
102
{ACAD_REACTORS
330
42
102
}
330
42
100
AcDbScale
 70
     0
300
3/8" = 1'-0"
140
0.375
141
12.0
290
     0
  0
SCALE
  5
4D
102
{ACAD_REACTORS
330
42
102
}
330
42
100
AcDbScale
 70
     0
300
1/2" = 1'-0"
140
0.5
141
12.0
290
     0
  0
SCALE
  5
4E
102
{ACAD_REACTORS
330
42
102
}
330
42
100
AcDbScale
 70
     0
300
3/4" = 1'-0"
140
0.75
141
12.0
290
     0
  0
SCALE
  5
4F
102
{ACAD_REACTORS
330
42
102
}
330
42
100
AcDbScale
 70
     0
300
1" = 1'-0"
140
1.0
141
12.0
290
     0
  0
SCALE
  5
50
102
{ACAD_REACTORS
330
42
102
}
330
42
100
AcDbScale
 70
     0
300
1-1/2" = 1'-0"
140
1.5
141
12.0
290
     0
  0
SCALE
  5
51
102
{ACAD_REACTORS
330
42
102
}
330
42
100
AcDbScale
 70
     0
300
3" = 1'-0"
140
3.0
141
12.0
290
     0
  0
SCALE
  5
52
102
{ACAD_REACTORS
330
42
102
}
330
42
100
AcDbScale
 70
     0
300
6" = 1'-0"
140
6.0
141
12.0
290
     0
  0
SCALE
  5
53
102
{ACAD_REACTORS
330
42
102
}
330
42
100
AcDbScale
 70
     0
300
1'-0" = 1'-0"
140
12.0
141
12.0
290
     0
  0
ACDBSECTIONVIEWSTYLE
  5
69
102
{ACAD_XDICTIONARY
360
158
102
}
102
{ACAD_REACTORS
330
68
102
}
330
68
100
AcDbModelDocViewStyle
 70
     0
  3
Imperial24
290
     0
100
AcDbSectionViewStyle
 70
     0
 71
     0
 90
       78
 71
     1
340
55
 62
   256
 40
0.24
340
0
340
0
 62
   256
 40
0.24
300
I, O, Q, S, X, Z
 40
0.48
 90
        3
 40
0.18
 90
        1
 71
     2
340
5D
 90
       25
 62
   256
340
5D
 90
       50
 62
   256
 40
0.24
 40
0.0
 40
0.24
 71
     3
340
55
 62
   256
 40
0.24
 90
        1
 40
0.75
 90
        1
300
%<\AcVar ViewType \f "%tc1">% %<\AcVar ViewSectionStartId>%-%<\AcVar ViewSectionEndId>%\PSCALE %<\AcVar ViewScale \f "%sn">%
 71
     4
 62
   256
 62
   257
300
ANSI31
 40
1.0
 90
        0
290
     0
290
     0
 90
        6
 40
0.0
 40
1.570796326794896
 40
0.2617993877991494
 40
1.308996938995747
 40
-0.2617993877991494
 40
1.832595714594046
  0
TABLESTYLE
  5
65
102
{ACAD_XDICTIONARY
360
123
102
}
102
{ACAD_REACTORS
330
64
102
}
330
64
100
AcDbTableStyle
280
     0
  3
Standard
 70
     0
 71
     0
 40
0.06
 41
0.06
280
     0
281
     0
  7
Standard
140
0.18
170
     2
 62
     0
 63
     7
283
     0
 90
      512
 91
        0
  1

274
    -2
284
     1
 64
     0
275
    -2
285
     1
 65
     0
276
    -2
286
     1
 66
     0
277
    -2
287
     1
 67
     0
278
    -2
288
     1
 68
     0
279
    -2
289
     1
 69
     0
  7
Standard
140
0.25
170
     5
 62
     0
 63
     7
283
     0
 90
      512
 91
        0
  1

274
    -2
284
     1
 64
     0
275
    -2
285
     1
 65
     0
276
    -2
286
     1
 66
     0
277
    -2
287
     1
 67
     0
278
    -2
288
     1
 68
     0
279
    -2
289
     1
 69
     0
  7
Standard
140
0.18
170
     5
 62
     0
 63
     7
283
     0
 90
      512
 91
        0
  1

274
    -2
284
     1
 64
     0
275
    -2
285
     1
 65
     0
276
    -2
286
     1
 66
     0
277
    -2
287
     1
 67
     0
278
    -2
288
     1
 68
     0
279
    -2
289
     1
 69
     0
  0
VISUALSTYLE
  5
2F
102
{ACAD_XDICTIONARY
360
130
102
}
102
{ACAD_REACTORS
330
29
102
}
330
29
100
AcDbVisualStyle
  2
2dWireframe
 70
     4
177
     2
291
     0
 71
     0
176
     1
 72
     2
176
     1
 73
     0
176
     1
 90
        0
176
     1
 40
0.6
176
     1
 41
30.0
176
     1
 63
     7
421
 16777215
176
     1
 74
     1
176
     1
 91
        4
176
     1
 64
     7
176
     1
 65
   257
176
     1
 75
     1
176
     1
175
     1
176
     1
 42
1.0
176
     1
 92
        0
176
     1
 66
   257
176
     1
 43
1.0
176
     1
 76
     1
176
     1
 77
     6
176
     1
 78
     2
176
     1
 67
     7
176
     1
 79
     5
176
     1
170
     0
176
     1
171
     0
176
     1
290
     0
176
     1
 93
        1
176
     1
 44
0.0
176
     1
173
     0
176
     1
1001
ACAD
1000
AcDbSavedByObjectVersion
1070
     0
  0
VISUALSTYLE
  5
2E
102
{ACAD_XDICTIONARY
360
12E
102
}
102
{ACAD_REACTORS
330
29
102
}
330
29
100
AcDbVisualStyle
  2
Basic
 70
     7
177
     2
291
     1
 71
     1
176
     1
 72
     0
176
     1
 73
     1
176
     1
 90
        0
176
     1
 40
0.6
176
     1
 41
30.0
176
     1
 63
     7
421
 16777215
176
     1
 74
     0
176
     1
 91
        4
176
     1
 64
     7
176
     1
 65
   257
176
     1
 75
     1
176
     1
175
     1
176
     1
 42
1.0
176
     1
 92
        8
176
     1
 66
     7
176
     1
 43
1.0
176
     1
 76
     1
176
     1
 77
     6
176
     1
 78
     2
176
     1
 67
     7
176
     1
 79
     5
176
     1
170
     0
176
     1
171
     0
176
     1
290
     0
176
     1
 93
        1
176
     1
 44
0.0
176
     1
173
     0
176
     1
1001
ACAD
1000
AcDbSavedByObjectVersion
1070
     0
  0
VISUALSTYLE
  5
35
102
{ACAD_XDICTIONARY
360
13C
102
}
102
{ACAD_REACTORS
330
29
102
}
330
29
100
AcDbVisualStyle
  2
Brighten
 70
    12
177
     2
291
     1
 71
     2
176
     1
 72
     2
176
     1
 73
     0
176
     1
 90
        0
176
     1
 40
0.6
176
     1
 41
30.0
176
     1
 63
     7
421
 16777215
176
     1
 74
     1
176
     1
 91
        4
176
     1
 64
     7
176
     1
 65
   257
176
     1
 75
     1
176
     1
175
     1
176
     1
 42
1.0
176
     1
 92
        8
176
     1
 66
     7
176
     1
 43
1.0
176
     1
 76
     1
176
     1
 77
     6
176
     1
 78
     2
176
     1
 67
     7
176
     1
 79
     5
176
     1
170
     0
176
     1
171
     0
176
     1
290
     0
176
     1
 93
        1
176
     1
 44
50.0
176
     1
173
     0
176
     1
1001
ACAD
1000
AcDbSavedByObjectVersion
1070
     0
  0
VISUALSTYLE
  5
39
102
{ACAD_XDICTIONARY
360
144
102
}
102
{ACAD_REACTORS
330
29
102
}
330
29
100
AcDbVisualStyle
  2
ColorChange
 70
    16
177
     2
291
     1
 71
     2
176
     1
 72
     2
176
     1
 73
     3
176
     1
 90
        0
176
     1
 40
0.6
176
     1
 41
30.0
176
     1
 63
     8
421
  8421504
176
     1
 74
     1
176
     1
 91
        4
176
     1
 64
     7
176
     1
 65
   257
176
     1
 75
     1
176
     1
175
     1
176
     1
 42
1.0
176
     1
 92
        8
176
     1
 66
     8
424
  8421504
176
     1
 43
1.0
176
     1
 76
     1
176
     1
 77
     6
176
     1
 78
     2
176
     1
 67
     7
176
     1
 79
     5
176
     1
170
     0
176
     1
171
     0
176
     1
290
     0
176
     1
 93
        1
176
     1
 44
0.0
176
     1
173
     0
176
     1
1001
ACAD
1000
AcDbSavedByObjectVersion
1070
     0
  0
VISUALSTYLE
  5
32
102
{ACAD_XDICTIONARY
360
136
102
}
102
{ACAD_REACTORS
330
29
102
}
330
29
100
AcDbVisualStyle
  2
Conceptual
 70
     9
177
     2
291
     0
 71
     3
176
     1
 72
     2
176
     1
 73
     0
176
     1
 90
        0
176
     1
 40
0.6
176
     1
 41
30.0
176
     1
 63
     7
421
 16777215
176
     1
 74
     2
176
     1
 91
        2
176
     1
 64
     7
176
     1
 65
   257
176
     1
 75
     1
176
     1
175
     1
176
     1
 42
179.0
176
     1
 92
        8
176
     1
 66
     7
176
     1
 43
1.0
176
     1
 76
     1
176
     1
 77
     6
176
     1
 78
     2
176
     1
 67
     7
176
     1
 79
     3
176
     1
170
     0
176
     1
171
     0
176
     1
290
     0
176
     1
 93
        1
176
     1
 44
0.0
176
     1
173
     0
176
     1
1001
ACAD
1000
AcDbSavedByObjectVersion
1070
     0
  0
VISUALSTYLE
  5
34
102
{ACAD_XDICTIONARY
360
13A
102
}
102
{ACAD_REACTORS
330
29
102
}
330
29
100
AcDbVisualStyle
  2
Dim
 70
    11
177
     2
291
     1
 71
     2
176
     1
 72
     2
176
     1
 73
     0
176
     1
 90
        0
176
     1
 40
0.6
176
     1
 41
30.0
176
     1
 63
     7
421
 16777215
176
     1
 74
     1
176
     1
 91
        4
176
     1
 64
     7
176
     1
 65
   257
176
     1
 75
     1
176
     1
175
     1
176
     1
 42
1.0
176
     1
 92
        8
176
     1
 66
     7
176
     1
 43
1.0
176
     1
 76
     1
176
     1
 77
     6
176
     1
 78
     2
176
     1
 67
     7
176
     1
 79
     5
176
     1
170
     0
176
     1
171
     0
176
     1
290
     0
176
     1
 93
        1
176
     1
 44
-50.0
176
     1
173
     0
176
     1
1001
ACAD
1000
AcDbSavedByObjectVersion
1070
     0
  0
VISUALSTYLE
  5
41
102
{ACAD_XDICTIONARY
360
154
102
}
102
{ACAD_REACTORS
330
29
102
}
330
29
100
AcDbVisualStyle
  2
EdgeColorOff
 70
    22
177
     2
291
     1
 71
     2
176
     0
 72
     2
176
     0
 73
     0
176
     0
 90
        0
176
     0
 40
0.6
176
     0
 41
30.0
176
     0
 63
     7
421
 16777215
176
     0
 74
     1
176
     0
 91
        4
176
     0
 64
     7
176
     0
 65
   257
176
     0
 75
     1
176
     0
175
     1
176
     0
 42
1.0
176
     0
 92
        8
176
     2
 66
     7
176
     0
 43
1.0
176
     0
 76
     1
176
     0
 77
     6
176
     0
 78
     2
176
     0
 67
     7
176
     0
 79
     5
176
     0
170
     0
176
     0
171
     0
176
     0
290
     0
176
     0
 93
        1
176
     0
 44
0.0
176
     0
173
     0
176
     0
1001
ACAD
1000
AcDbSavedByObjectVersion
1070
     0
  0
VISUALSTYLE
  5
38
102
{ACAD_XDICTIONARY
360
142
102
}
102
{ACAD_REACTORS
330
29
102
}
330
29
100
AcDbVisualStyle
  2
Facepattern
 70
    15
177
     2
291
     1
 71
     2
176
     1
 72
     2
176
     1
 73
     0
176
     1
 90
        0
176
     1
 40
0.6
176
     1
 41
30.0
176
     1
 63
     7
421
 16777215
176
     1
 74
     1
176
     1
 91
        4
176
     1
 64
     7
176
     1
 65
   257
176
     1
 75
     1
176
     1
175
     1
176
     1
 42
1.0
176
     1
 92
        8
176
     1
 66
     7
176
     1
 43
1.0
176
     1
 76
     1
176
     1
 77
     6
176
     1
 78
     2
176
     1
 67
     7
176
     1
 79
     5
176
     1
170
     0
176
     1
171
     0
176
     1
290
     0
176
     1
 93
        1
176
     1
 44
0.0
176
     1
173
     0
176
     1
1001
ACAD
1000
AcDbSavedByObjectVersion
1070
     0
  0
VISUALSTYLE
  5
2A
102
{ACAD_XDICTIONARY
360
126
102
}
102
{ACAD_REACTORS
330
29
102
}
330
29
100
AcDbVisualStyle
  2
Flat
 70
     0
177
     2
291
     1
 71
     2
176
     1
 72
     1
176
     1
 73
     1
176
     1
 90
        2
176
     1
 40
0.6
176
     1
 41
30.0
176
     1
 63
     7
421
 16777215
176
     1
 74
     0
176
     1
 91
        0
176
     1
 64
     7
176
     1
 65
   257
176
     1
 75
     1
176
     1
175
     1
176
     1
 42
1.0
176
     1
 92
        8
176
     1
 66
     7
176
     1
 43
1.0
176
     1
 76
     1
176
     1
 77
     6
176
     1
 78
     2
176
     1
 67
     7
176
     1
 79
     5
176
     1
170
     0
176
     1
171
     0
176
     1
290
     0
176
     1
 93
       13
176
     1
 44
0.0
176
     1
173
     0
176
     1
1001
ACAD
1000
AcDbSavedByObjectVersion
1070
     0
  0
VISUALSTYLE
  5
2B
102
{ACAD_XDICTIONARY
360
128
102
}
102
{ACAD_REACTORS
330
29
102
}
330
29
100
AcDbVisualStyle
  2
FlatWithEdges
 70
     1
177
     2
291
     1
 71
     2
176
     1
 72
     1
176
     1
 73
     1
176
     1
 90
        2
176
     1
 40
0.6
176
     1
 41
30.0
176
     1
 63
     7
421
 16777215
176
     1
 74
     1
176
     1
 91
        0
176
     1
 64
     7
176
     1
 65
   257
176
     1
 75
     1
176
     1
175
     1
176
     1
 42
1.0
176
     1
 92
        0
176
     1
 66
   257
176
     1
 43
1.0
176
     1
 76
     1
176
     1
 77
     6
176
     1
 78
     2
176
     1
 67
     7
176
     1
 79
     5
176
     1
170
     0
176
     1
171
     0
176
     1
290
     0
176
     1
 93
       13
176
     1
 44
0.0
176
     1
173
     0
176
     1
1001
ACAD
1000
AcDbSavedByObjectVersion
1070
     0
  0
VISUALSTYLE
  5
2C
102
{ACAD_XDICTIONARY
360
12A
102
}
102
{ACAD_REACTORS
330
29
102
}
330
29
100
AcDbVisualStyle
  2
Gouraud
 70
     2
177
     2
291
     1
 71
     2
176
     1
 72
     2
176
     1
 73
     1
176
     1
 90
        2
176
     1
 40
0.6
176
     1
 41
30.0
176
     1
 63
     7
421
 16777215
176
     1
 74
     0
176
     1
 91
        0
176
     1
 64
     7
176
     1
 65
   257
176
     1
 75
     1
176
     1
175
     1
176
     1
 42
1.0
176
     1
 92
        0
176
     1
 66
     7
176
     1
 43
1.0
176
     1
 76
     1
176
     1
 77
     6
176
     1
 78
     2
176
     1
 67
     7
176
     1
 79
     5
176
     1
170
     0
176
     1
171
     0
176
     1
290
     0
176
     1
 93
       13
176
     1
 44
0.0
176
     1
173
     0
176
     1
1001
ACAD
1000
AcDbSavedByObjectVersion
1070
     0
  0
VISUALSTYLE
  5
2D
102
{ACAD_XDICTIONARY
360
12C
102
}
102
{ACAD_REACTORS
330
29
102
}
330
29
100
AcDbVisualStyle
  2
GouraudWithEdges
 70
     3
177
     2
291
     1
 71
     2
176
     1
 72
     2
176
     1
 73
     1
176
     1
 90
        2
176
     1
 40
0.6
176
     1
 41
30.0
176
     1
 63
     7
421
 16777215
176
     1
 74
     1
176
     1
 91
        0
176
     1
 64
     7
176
     1
 65
   257
176
     1
 75
     1
176
     1
175
     1
176
     1
 42
1.0
176
     1
 92
        0
176
     1
 66
   257
176
     1
 43
1.0
176
     1
 76
     1
176
     1
 77
     6
176
     1
 78
     2
176
     1
 67
     7
176
     1
 79
     5
176
     1
170
     0
176
     1
171
     0
176
     1
290
     0
176
     1
 93
       13
176
     1
 44
0.0
176
     1
173
     0
176
     1
1001
ACAD
1000
AcDbSavedByObjectVersion
1070
     0
  0
VISUALSTYLE
  5
31
102
{ACAD_XDICTIONARY
360
134
102
}
102
{ACAD_REACTORS
330
29
102
}
330
29
100
AcDbVisualStyle
  2
Hidden
 70
     6
177
     2
291
     0
 71
     1
176
     1
 72
     2
176
     1
 73
     2
176
     1
 90
        0
176
     1
 40
0.6
176
     1
 41
30.0
176
     1
 63
     7
421
 16777215
176
     1
 74
     2
176
     1
 91
        2
176
     1
 64
     7
176
     1
 65
   257
176
     1
 75
     2
176
     1
175
     1
176
     1
 42
40.0
176
     1
 92
        0
176
     1
 66
   257
176
     1
 43
1.0
176
     1
 76
     1
176
     1
 77
     6
176
     1
 78
     2
176
     1
 67
     7
176
     1
 79
     3
176
     1
170
     0
176
     1
171
     0
176
     1
290
     0
176
     1
 93
        1
176
     1
 44
0.0
176
     1
173
     0
176
     1
1001
ACAD
1000
AcDbSavedByObjectVersion
1070
     0
  0
VISUALSTYLE
  5
3F
102
{ACAD_XDICTIONARY
360
150
102
}
102
{ACAD_REACTORS
330
29
102
}
330
29
100
AcDbVisualStyle
  2
JitterOff
 70
    20
177
     2
291
     1
 71
     2
176
     0
 72
     2
176
     0
 73
     0
176
     0
 90
        0
176
     0
 40
0.6
176
     0
 41
30.0
176
     0
 63
     7
421
 16777215
176
     0
 74
     1
176
     0
 91
        4
176
     0
 64
     7
176
     0
 65
   257
176
     0
 75
     1
176
     0
175
     1
176
     0
 42
1.0
176
     0
 92
       10
176
     2
 66
     7
176
     0
 43
1.0
176
     0
 76
     1
176
     0
 77
     6
176
     0
 78
     2
176
     0
 67
     7
176
     0
 79
     5
176
     0
170
     0
176
     0
171
     0
176
     0
290
     0
176
     0
 93
        1
176
     0
 44
0.0
176
     0
173
     0
176
     0
1001
ACAD
1000
AcDbSavedByObjectVersion
1070
     0
  0
VISUALSTYLE
  5
37
102
{ACAD_XDICTIONARY
360
140
102
}
102
{ACAD_REACTORS
330
29
102
}
330
29
100
AcDbVisualStyle
  2
Linepattern
 70
    14
177
     2
291
     1
 71
     2
176
     1
 72
     2
176
     1
 73
     0
176
     1
 90
        0
176
     1
 40
0.6
176
     1
 41
30.0
176
     1
 63
     7
421
 16777215
176
     1
 74
     1
176
     1
 91
        4
176
     1
 64
     7
176
     1
 65
   257
176
     1
 75
     7
176
     1
175
     7
176
     1
 42
1.0
176
     1
 92
        8
176
     1
 66
     7
176
     1
 43
1.0
176
     1
 76
     1
176
     1
 77
     6
176
     1
 78
     2
176
     1
 67
     7
176
     1
 79
     5
176
     1
170
     0
176
     1
171
     0
176
     1
290
     0
176
     1
 93
        1
176
     1
 44
0.0
176
     1
173
     0
176
     1
1001
ACAD
1000
AcDbSavedByObjectVersion
1070
     0
  0
VISUALSTYLE
  5
40
102
{ACAD_XDICTIONARY
360
152
102
}
102
{ACAD_REACTORS
330
29
102
}
330
29
100
AcDbVisualStyle
  2
OverhangOff
 70
    21
177
     2
291
     1
 71
     2
176
     0
 72
     2
176
     0
 73
     0
176
     0
 90
        0
176
     0
 40
0.6
176
     0
 41
30.0
176
     0
 63
     7
421
 16777215
176
     0
 74
     1
176
     0
 91
        4
176
     0
 64
     7
176
     0
 65
   257
176
     0
 75
     1
176
     0
175
     1
176
     0
 42
1.0
176
     0
 92
        9
176
     2
 66
     7
176
     0
 43
1.0
176
     0
 76
     1
176
     0
 77
     6
176
     0
 78
     2
176
     0
 67
     7
176
     0
 79
     5
176
     0
170
     0
176
     0
171
     0
176
     0
290
     0
176
     0
 93
        1
176
     0
 44
0.0
176
     0
173
     0
176
     0
1001
ACAD
1000
AcDbSavedByObjectVersion
1070
     0
  0
VISUALSTYLE
  5
33
102
{ACAD_XDICTIONARY
360
138
102
}
102
{ACAD_REACTORS
330
29
102
}
330
29
100
AcDbVisualStyle
  2
Realistic
 70
     8
177
     2
291
     0
 71
     2
176
     1
 72
     3
176
     1
 73
     0
176
     1
 90
        2
176
     1
 40
0.6
176
     1
 41
30.0
176
     1
 63
     7
421
 16777215
176
     1
 74
     0
176
     1
 91
        0
176
     1
 64
     7
176
     1
 65
   257
176
     1
 75
     1
176
     1
175
     1
176
     1
 42
1.0
176
     1
 92
        8
176
     1
 66
   257
176
     1
 43
1.0
176
     1
 76
     1
176
     1
 77
     6
176
     1
 78
     2
176
     1
 67
     7
176
     1
 79
     3
176
     1
170
     0
176
     1
171
     0
176
     1
290
     0
176
     1
 93
       13
176
     1
 44
0.0
176
     1
173
     0
176
     1
1001
ACAD
1000
AcDbSavedByObjectVersion
1070
     0
  0
VISUALSTYLE
  5
3E
102
{ACAD_XDICTIONARY
360
14E
102
}
102
{ACAD_REACTORS
330
29
102
}
330
29
100
AcDbVisualStyle
  2
Shaded
 70
    27
177
     2
291
     0
 71
     2
176
     1
 72
     2
176
     1
 73
     1
176
     1
 90
        2
176
     1
 40
0.6
176
     1
 41
30.0
176
     1
 63
     7
421
 16777215
176
     1
 74
     0
176
     1
 91
        4
176
     1
 64
     7
176
     1
 65
   257
176
     1
 75
     1
176
     1
175
     1
176
     1
 42
1.0
176
     1
 92
        8
176
     1
 66
   257
176
     1
 43
1.0
176
     1
 76
     1
176
     1
 77
     6
176
     1
 78
     2
176
     1
 67
     8
425
  7895160
176
     1
 79
     3
176
     1
170
     0
176
     1
171
     0
176
     1
290
     0
176
     1
 93
        5
176
     1
 44
0.0
176
     1
173
     0
176
     1
1001
ACAD
1000
AcDbSavedByObjectVersion
1070
     0
  0
VISUALSTYLE
  5
3D
102
{ACAD_XDICTIONARY
360
14C
102
}
102
{ACAD_REACTORS
330
29
102
}
330
29
100
AcDbVisualStyle
  2
Shaded with edges
 70
    26
177
     2
291
     0
 71
     2
176
     1
 72
     2
176
     1
 73
     1
176
     1
 90
        2
176
     1
 40
0.6
176
     1
 41
30.0
176
     1
 63
     7
421
 16777215
176
     1
 74
     1
176
     1
 91
        2
176
     1
 64
     7
176
     1
 65
   257
176
     1
 75
     2
176
     1
175
     1
176
     1
 42
1.0
176
     1
 92
        8
176
     1
 66
   257
176
     1
 43
1.0
176
     1
 76
     1
176
     1
 77
     6
176
     1
 78
     2
176
     1
 67
     7
176
     1
 79
     3
176
     1
170
     0
176
     1
171
     0
176
     1
290
     0
176
     1
 93
        5
176
     1
 44
0.0
176
     1
173
     0
176
     1
1001
ACAD
1000
AcDbSavedByObjectVersion
1070
     0
  0
VISUALSTYLE
  5
3A
102
{ACAD_XDICTIONARY
360
146
102
}
102
{ACAD_REACTORS
330
29
102
}
330
29
100
AcDbVisualStyle
  2
Shades of Gray
 70
    23
177
     2
291
     0
 71
     2
176
     1
 72
     2
176
     1
 73
     3
176
     1
 90
        0
176
     1
 40
0.6
176
     1
 41
30.0
176
     1
 63
     7
421
 16777215
176
     1
 74
     2
176
     1
 91
        2
176
     1
 64
     7
176
     1
 65
     7
176
     1
 75
     1
176
     1
175
     1
176
     1
 42
40.0
176
     1
 92
        8
176
     1
 66
     7
176
     1
 43
1.0
176
     1
 76
     1
176
     1
 77
     6
176
     1
 78
     2
176
     1
 67
     7
176
     1
 79
     3
176
     1
170
     0
176
     1
171
     0
176
     1
290
     0
176
     1
 93
        1
176
     1
 44
0.0
176
     1
173
     0
176
     1
1001
ACAD
1000
AcDbSavedByObjectVersion
1070
     0
  0
VISUALSTYLE
  5
3B
102
{ACAD_XDICTIONARY
360
148
102
}
102
{ACAD_REACTORS
330
29
102
}
330
29
100
AcDbVisualStyle
  2
Sketchy
 70
    24
177
     2
291
     0
 71
     1
176
     1
 72
     2
176
     1
 73
     2
176
     1
 90
        0
176
     1
 40
0.6
176
     1
 41
30.0
176
     1
 63
     7
421
 16777215
176
     1
 74
     2
176
     1
 91
        2
176
     1
 64
     7
176
     1
 65
     7
176
     1
 75
     1
176
     1
175
     1
176
     1
 42
40.0
176
     1
 92
       11
176
     1
 66
     7
176
     1
 43
1.0
176
     1
 76
     1
176
     1
 77
     6
176
     1
 78
     2
176
     1
 67
     7
176
     1
 79
     6
176
     1
170
     0
176
     1
171
     0
176
     1
290
     0
176
     1
 93
        1
176
     1
 44
0.0
176
     1
173
     0
176
     1
1001
ACAD
1000
AcDbSavedByObjectVersion
1070
     0
  0
VISUALSTYLE
  5
36
102
{ACAD_XDICTIONARY
360
13E
102
}
102
{ACAD_REACTORS
330
29
102
}
330
29
100
AcDbVisualStyle
  2
Thicken
 70
    13
177
     2
291
     1
 71
     2
176
     1
 72
     2
176
     1
 73
     0
176
     1
 90
        0
176
     1
 40
0.6
176
     1
 41
30.0
176
     1
 63
     7
421
 16777215
176
     1
 74
     1
176
     1
 91
        4
176
     1
 64
     7
176
     1
 65
   257
176
     1
 75
     1
176
     1
175
     1
176
     1
 42
1.0
176
     1
 92
       12
176
     1
 66
     7
176
     1
 43
1.0
176
     1
 76
     1
176
     1
 77
     6
176
     1
 78
     2
176
     1
 67
     7
176
     1
 79
     5
176
     1
170
     0
176
     1
171
     0
176
     1
290
     0
176
     1
 93
        1
176
     1
 44
0.0
176
     1
173
     0
176
     1
1001
ACAD
1000
AcDbSavedByObjectVersion
1070
     0
  0
VISUALSTYLE
  5
30
102
{ACAD_XDICTIONARY
360
132
102
}
102
{ACAD_REACTORS
330
29
102
}
330
29
100
AcDbVisualStyle
  2
Wireframe
 70
     5
177
     2
291
     0
 71
     0
176
     1
 72
     2
176
     1
 73
     0
176
     1
 90
        0
176
     1
 40
0.6
176
     1
 41
30.0
176
     1
 63
     7
421
 16777215
176
     1
 74
     1
176
     1
 91
        4
176
     1
 64
     7
176
     1
 65
   257
176
     1
 75
     1
176
     1
175
     1
176
     1
 42
1.0
176
     1
 92
        0
176
     1
 66
   257
176
     1
 43
1.0
176
     1
 76
     1
176
     1
 77
     6
176
     1
 78
     2
176
     1
 67
     7
176
     1
 79
     3
176
     1
170
     0
176
     1
171
     0
176
     1
290
     0
176
     1
 93
        1
176
     1
 44
0.0
176
     1
173
     0
176
     1
1001
ACAD
1000
AcDbSavedByObjectVersion
1070
     0
  0
VISUALSTYLE
  5
3C
102
{ACAD_XDICTIONARY
360
14A
102
}
102
{ACAD_REACTORS
330
29
102
}
330
29
100
AcDbVisualStyle
  2
X-Ray
 70
    25
177
     2
291
     0
 71
     2
176
     1
 72
     2
176
     1
 73
     1
176
     1
 90
        1
176
     1
 40
0.5
176
     1
 41
30.0
176
     1
 63
     7
421
 16777215
176
     1
 74
     1
176
     1
 91
        0
176
     1
 64
     7
176
     1
 65
   257
176
     1
 75
     1
176
     1
175
     1
176
     1
 42
1.0
176
     1
 92
        8
176
     1
 66
     7
176
     1
 43
1.0
176
     1
 76
     1
176
     1
 77
     6
176
     1
 78
     2
176
     1
 67
     7
176
     1
 79
     3
176
     1
170
     0
176
     1
171
     0
176
     1
290
     0
176
     1
 93
       13
176
     1
 44
0.0
176
     1
173
     0
176
     1
1001
ACAD
1000
AcDbSavedByObjectVersion
1070
     0
  0
DICTIONARYVAR
  5
122
102
{ACAD_REACTORS
330
11D
102
}
330
11D
100
DictionaryVariables
280
     0
  1
1:1
  0
DICTIONARYVAR
  5
11F
102
{ACAD_REACTORS
330
11D
102
}
330
11D
100
DictionaryVariables
280
     0
  1
STANDARD
  0
DICTIONARYVAR
  5
11E
102
{ACAD_REACTORS
330
11D
102
}
330
11D
100
DictionaryVariables
280
     0
  1
STANDARD
  0
DICTIONARYVAR
  5
120
102
{ACAD_REACTORS
330
11D
102
}
330
11D
100
DictionaryVariables
280
     0
  1
Imperial24
  0
DICTIONARYVAR
  5
121
102
{ACAD_REACTORS
330
11D
102
}
330
11D
100
DictionaryVariables
280
     0
  1
Imperial24
  0
DICTIONARY
  5
15A
330
6B
100
AcDbDictionary
280
     1
281
     1
  3
ACAD_XREC_ROUNDTRIP
360
15B
  0
DICTIONARY
  5
1A
330
19
100
AcDbDictionary
280
     1
281
     1
  3
BUMPTILE
360
1C
  3
DIFFUSETILE
360
1B
  3
OPACITYTILE
360
1F
  3
REFLECTIONTILE
360
1E
  3
REFRACTIONTILE
360
20
  3
SPECULARTILE
360
1D
  0
DICTIONARY
  5
12
330
11
100
AcDbDictionary
280
     1
281
     1
  3
BUMPTILE
360
14
  3
DIFFUSETILE
360
13
  3
OPACITYTILE
360
17
  3
REFLECTIONTILE
360
16
  3
REFRACTIONTILE
360
18
  3
SPECULARTILE
360
15
  0
DICTIONARY
  5
22
330
21
100
AcDbDictionary
280
     1
281
     1
  3
BUMPTILE
360
24
  3
DIFFUSETILE
360
23
  3
OPACITYTILE
360
27
  3
REFLECTIONTILE
360
26
  3
REFRACTIONTILE
360
28
  3
SPECULARTILE
360
25
  0
DICTIONARY
  5
156
330
67
100
AcDbDictionary
280
     1
281
     1
  3
ACAD_XREC_ROUNDTRIP
360
157
  0
DICTIONARY
  5
158
330
69
100
AcDbDictionary
280
     1
281
     1
  3
ACAD_XREC_ROUNDTRIP
360
159
  0
DICTIONARY
  5
123
330
65
100
AcDbDictionary
280
     1
281
     1
  3
ACAD_ROUNDTRIP_2008_TABLESTYLE_CELLSTYLEMAP
360
124
  0
DICTIONARY
  5
130
330
2F
100
AcDbDictionary
280
     1
281
     1
  3
ACAD_XREC_ROUNDTRIP
360
131
  0
DICTIONARY
  5
12E
330
2E
100
AcDbDictionary
280
     1
281
     1
  3
ACAD_XREC_ROUNDTRIP
360
12F
  0
DICTIONARY
  5
13C
330
35
100
AcDbDictionary
280
     1
281
     1
  3
ACAD_XREC_ROUNDTRIP
360
13D
  0
DICTIONARY
  5
144
330
39
100
AcDbDictionary
280
     1
281
     1
  3
ACAD_XREC_ROUNDTRIP
360
145
  0
DICTIONARY
  5
136
330
32
100
AcDbDictionary
280
     1
281
     1
  3
ACAD_XREC_ROUNDTRIP
360
137
  0
DICTIONARY
  5
13A
330
34
100
AcDbDictionary
280
     1
281
     1
  3
ACAD_XREC_ROUNDTRIP
360
13B
  0
DICTIONARY
  5
154
330
41
100
AcDbDictionary
280
     1
281
     1
  3
ACAD_XREC_ROUNDTRIP
360
155
  0
DICTIONARY
  5
142
330
38
100
AcDbDictionary
280
     1
281
     1
  3
ACAD_XREC_ROUNDTRIP
360
143
  0
DICTIONARY
  5
126
330
2A
100
AcDbDictionary
280
     1
281
     1
  3
ACAD_XREC_ROUNDTRIP
360
127
  0
DICTIONARY
  5
128
330
2B
100
AcDbDictionary
280
     1
281
     1
  3
ACAD_XREC_ROUNDTRIP
360
129
  0
DICTIONARY
  5
12A
330
2C
100
AcDbDictionary
280
     1
281
     1
  3
ACAD_XREC_ROUNDTRIP
360
12B
  0
DICTIONARY
  5
12C
330
2D
100
AcDbDictionary
280
     1
281
     1
  3
ACAD_XREC_ROUNDTRIP
360
12D
  0
DICTIONARY
  5
134
330
31
100
AcDbDictionary
280
     1
281
     1
  3
ACAD_XREC_ROUNDTRIP
360
135
  0
DICTIONARY
  5
150
330
3F
100
AcDbDictionary
280
     1
281
     1
  3
ACAD_XREC_ROUNDTRIP
360
151
  0
DICTIONARY
  5
140
330
37
100
AcDbDictionary
280
     1
281
     1
  3
ACAD_XREC_ROUNDTRIP
360
141
  0
DICTIONARY
  5
152
330
40
100
AcDbDictionary
280
     1
281
     1
  3
ACAD_XREC_ROUNDTRIP
360
153
  0
DICTIONARY
  5
138
330
33
100
AcDbDictionary
280
     1
281
     1
  3
ACAD_XREC_ROUNDTRIP
360
139
  0
DICTIONARY
  5
14E
330
3E
100
AcDbDictionary
280
     1
281
     1
  3
ACAD_XREC_ROUNDTRIP
360
14F
  0
DICTIONARY
  5
14C
330
3D
100
AcDbDictionary
280
     1
281
     1
  3
ACAD_XREC_ROUNDTRIP
360
14D
  0
DICTIONARY
  5
146
330
3A
100
AcDbDictionary
280
     1
281
     1
  3
ACAD_XREC_ROUNDTRIP
360
147
  0
DICTIONARY
  5
148
330
3B
100
AcDbDictionary
280
     1
281
     1
  3
ACAD_XREC_ROUNDTRIP
360
149
  0
DICTIONARY
  5
13E
330
36
100
AcDbDictionary
280
     1
281
     1
  3
ACAD_XREC_ROUNDTRIP
360
13F
  0
DICTIONARY
  5
132
330
30
100
AcDbDictionary
280
     1
281
     1
  3
ACAD_XREC_ROUNDTRIP
360
133
  0
DICTIONARY
  5
14A
330
3C
100
AcDbDictionary
280
     1
281
     1
  3
ACAD_XREC_ROUNDTRIP
360
14B
  0
XRECORD
  5
15B
102
{ACAD_REACTORS
330
15A
102
}
330
15A
100
AcDbXrecord
280
     1
102
DISPLAYNAME
  1
Imperial24
102
FLAGS
 90
        0
  0
XRECORD
  5
1C
102
{ACAD_REACTORS
330
1A
102
}
330
1A
100
AcDbXrecord
280
     1
270
     1
271
     1
  0
XRECORD
  5
1B
102
{ACAD_REACTORS
330
1A
102
}
330
1A
100
AcDbXrecord
280
     1
270
     1
271
     1
  0
XRECORD
  5
1F
102
{ACAD_REACTORS
330
1A
102
}
330
1A
100
AcDbXrecord
280
     1
270
     1
271
     1
  0
XRECORD
  5
1E
102
{ACAD_REACTORS
330
1A
102
}
330
1A
100
AcDbXrecord
280
     1
270
     1
271
     1
  0
XRECORD
  5
20
102
{ACAD_REACTORS
330
1A
102
}
330
1A
100
AcDbXrecord
280
     1
270
     1
271
     1
  0
XRECORD
  5
1D
102
{ACAD_REACTORS
330
1A
102
}
330
1A
100
AcDbXrecord
280
     1
270
     1
271
     1
  0
XRECORD
  5
14
102
{ACAD_REACTORS
330
12
102
}
330
12
100
AcDbXrecord
280
     1
270
     1
271
     1
  0
XRECORD
  5
13
102
{ACAD_REACTORS
330
12
102
}
330
12
100
AcDbXrecord
280
     1
270
     1
271
     1
  0
XRECORD
  5
17
102
{ACAD_REACTORS
330
12
102
}
330
12
100
AcDbXrecord
280
     1
270
     1
271
     1
  0
XRECORD
  5
16
102
{ACAD_REACTORS
330
12
102
}
330
12
100
AcDbXrecord
280
     1
270
     1
271
     1
  0
XRECORD
  5
18
102
{ACAD_REACTORS
330
12
102
}
330
12
100
AcDbXrecord
280
     1
270
     1
271
     1
  0
XRECORD
  5
15
102
{ACAD_REACTORS
330
12
102
}
330
12
100
AcDbXrecord
280
     1
270
     1
271
     1
  0
XRECORD
  5
24
102
{ACAD_REACTORS
330
22
102
}
330
22
100
AcDbXrecord
280
     1
270
     1
271
     1
  0
XRECORD
  5
23
102
{ACAD_REACTORS
330
22
102
}
330
22
100
AcDbXrecord
280
     1
270
     1
271
     1
  0
XRECORD
  5
27
102
{ACAD_REACTORS
330
22
102
}
330
22
100
AcDbXrecord
280
     1
270
     1
271
     1
  0
XRECORD
  5
26
102
{ACAD_REACTORS
330
22
102
}
330
22
100
AcDbXrecord
280
     1
270
     1
271
     1
  0
XRECORD
  5
28
102
{ACAD_REACTORS
330
22
102
}
330
22
100
AcDbXrecord
280
     1
270
     1
271
     1
  0
XRECORD
  5
25
102
{ACAD_REACTORS
330
22
102
}
330
22
100
AcDbXrecord
280
     1
270
     1
271
     1
  0
XRECORD
  5
157
102
{ACAD_REACTORS
330
156
102
}
330
156
100
AcDbXrecord
280
     1
102
ACAD_ROUNDTRIP_2012_MLEADER_STYLE
298
     1
  0
XRECORD
  5
159
102
{ACAD_REACTORS
330
158
102
}
330
158
100
AcDbXrecord
280
     1
102
DISPLAYNAME
  1
Imperial24
102
FLAGS
 90
        0
  0
CELLSTYLEMAP
  5
124
102
{ACAD_REACTORS
330
123
102
}
330
123
100
AcDbCellStyleMap
 90
        3
300
CELLSTYLE
  1
TABLEFORMAT_BEGIN
 90
        5
170
     1
 91
        0
 92
    32768
 62
   257
 93
        1
300
CONTENTFORMAT
  1
CONTENTFORMAT_BEGIN
 90
        0
 91
        0
 92
      512
 93
        0
300

 40
0.0
140
1.0
 94
        5
 62
     0
340
55
144
0.25
309
CONTENTFORMAT_END
171
     0
 94
        0
309
TABLEFORMAT_END
  1
CELLSTYLE_BEGIN
 90
        1
 91
        1
300
_TITLE
309
CELLSTYLE_END
300
CELLSTYLE
  1
TABLEFORMAT_BEGIN
 90
        5
170
     1
 91
        0
 92
        0
 62
   257
 93
        1
300
CONTENTFORMAT
  1
CONTENTFORMAT_BEGIN
 90
        0
 91
        0
 92
      512
 93
        0
300

 40
0.0
140
1.0
 94
        5
 62
     0
340
55
144
0.18
309
CONTENTFORMAT_END
171
     0
 94
        0
309
TABLEFORMAT_END
  1
CELLSTYLE_BEGIN
 90
        2
 91
        1
300
_HEADER
309
CELLSTYLE_END
300
CELLSTYLE
  1
TABLEFORMAT_BEGIN
 90
        5
170
     1
 91
        0
 92
        0
 62
   257
 93
        1
300
CONTENTFORMAT
  1
CONTENTFORMAT_BEGIN
 90
        0
 91
        0
 92
      512
 93
        0
300

 40
0.0
140
1.0
 94
        2
 62
     0
340
55
144
0.18
309
CONTENTFORMAT_END
171
     0
 94
        0
309
TABLEFORMAT_END
  1
CELLSTYLE_BEGIN
 90
        3
 91
        2
300
_DATA
309
CELLSTYLE_END
  0
XRECORD
  5
131
102
{ACAD_REACTORS
330
130
102
}
330
130
100
AcDbXrecord
280
     1
102
RTVSPost2010Prop28
280
     1
102
RTVSPost2010PropOp28
 70
     1
102
RTVSPost2010Prop29
280
     1
102
RTVSPost2010PropOp29
 70
     1
102
RTVSPost2010Prop30
280
     0
102
RTVSPost2010PropOp30
 70
     1
102
RTVSPost2010Prop31
280
     0
102
RTVSPost2010PropOp31
 70
     1
102
RTVSPost2010Prop32
280
     0
102
RTVSPost2010PropOp32
 70
     1
102
RTVSPost2010Prop33
280
     0
102
RTVSPost2010PropOp33
 70
     1
102
RTVSPost2010Prop34
280
     0
102
RTVSPost2010PropOp34
 70
     1
102
RTVSPost2010Prop35
280
     0
102
RTVSPost2010PropOp35
 70
     1
102
RTVSPost2010Prop36
280
     0
102
RTVSPost2010PropOp36
 70
     1
102
RTVSPost2010Prop37
 90
       50
102
RTVSPost2010PropOp37
 70
     1
102
RTVSPost2010Prop38
140
0.0
102
RTVSPost2010PropOp38
 70
     1
102
RTVSPost2010Prop39
140
1.0
102
RTVSPost2010PropOp39
 70
     1
102
RTVSPost2010Prop40
 90
        0
102
RTVSPost2010PropOp40
 70
     1
102
RTVSPost2010Prop41ColorIndex
 90
       18
102
RTVSPost2010Prop41ColorRGB
 90
        0
102
RTVSPost2010PropOp41
 70
     1
102
RTVSPost2010Prop42
 90
       50
102
RTVSPost2010PropOp42
 70
     1
102
RTVSPost2010Prop43
 90
        3
102
RTVSPost2010PropOp43
 70
     1
102
RTVSPost2010Prop44ColorIndex
 90
        5
102
RTVSPost2010Prop44ColorRGB
 90
      255
102
RTVSPost2010PropOp44
 70
     1
102
RTVSPost2010Prop45
280
     0
102
RTVSPost2010PropOp45
 70
     1
102
RTVSPost2010Prop46
 90
       50
102
RTVSPost2010PropOp46
 70
     1
102
RTVSPost2010Prop47
 90
       50
102
RTVSPost2010PropOp47
 70
     1
102
RTVSPost2010Prop48
 90
       50
102
RTVSPost2010PropOp48
 70
     1
102
RTVSPost2010Prop49
280
     0
102
RTVSPost2010PropOp49
 70
     1
102
RTVSPost2010Prop50
 90
       50
102
RTVSPost2010PropOp50
 70
     1
102
RTVSPost2010Prop51ColorIndex
 90
      256
102
RTVSPost2010Prop51ColorRGB
 90
-16777216
102
RTVSPost2010PropOp51
 70
     0
102
RTVSPost2010Prop52
140
1.0
102
RTVSPost2010PropOp52
 70
     0
102
RTVSPost2010Prop53
 90
        2
102
RTVSPost2010PropOp53
 70
     1
102
RTVSPost2010Prop54
  1
strokes_ogs.tif
102
RTVSPost2010PropOp54
 70
     1
102
RTVSPost2010Prop55
280
     0
102
RTVSPost2010PropOp55
 70
     1
102
RTVSPost2010Prop56
140
1.0
102
RTVSPost2010PropOp56
 70
     1
102
RTVSPost2010Prop57
140
1.0
102
RTVSPost2010PropOp57
 70
     1
  0
XRECORD
  5
12F
102
{ACAD_REACTORS
330
12E
102
}
330
12E
100
AcDbXrecord
280
     1
102
RTVSPost2010Prop28
280
     0
102
RTVSPost2010PropOp28
 70
     1
102
RTVSPost2010Prop29
280
     1
102
RTVSPost2010PropOp29
 70
     1
102
RTVSPost2010Prop30
280
     1
102
RTVSPost2010PropOp30
 70
     1
102
RTVSPost2010Prop31
280
     0
102
RTVSPost2010PropOp31
 70
     1
102
RTVSPost2010Prop32
280
     0
102
RTVSPost2010PropOp32
 70
     1
102
RTVSPost2010Prop33
280
     0
102
RTVSPost2010PropOp33
 70
     1
102
RTVSPost2010Prop34
280
     0
102
RTVSPost2010PropOp34
 70
     1
102
RTVSPost2010Prop35
280
     0
102
RTVSPost2010PropOp35
 70
     1
102
RTVSPost2010Prop36
280
     0
102
RTVSPost2010PropOp36
 70
     1
102
RTVSPost2010Prop37
 90
       50
102
RTVSPost2010PropOp37
 70
     1
102
RTVSPost2010Prop38
140
0.0
102
RTVSPost2010PropOp38
 70
     1
102
RTVSPost2010Prop39
140
1.0
102
RTVSPost2010PropOp39
 70
     1
102
RTVSPost2010Prop40
 90
        0
102
RTVSPost2010PropOp40
 70
     1
102
RTVSPost2010Prop41ColorIndex
 90
       18
102
RTVSPost2010Prop41ColorRGB
 90
        0
102
RTVSPost2010PropOp41
 70
     1
102
RTVSPost2010Prop42
 90
       50
102
RTVSPost2010PropOp42
 70
     1
102
RTVSPost2010Prop43
 90
        3
102
RTVSPost2010PropOp43
 70
     1
102
RTVSPost2010Prop44ColorIndex
 90
        5
102
RTVSPost2010Prop44ColorRGB
 90
      255
102
RTVSPost2010PropOp44
 70
     1
102
RTVSPost2010Prop45
280
     0
102
RTVSPost2010PropOp45
 70
     1
102
RTVSPost2010Prop46
 90
       50
102
RTVSPost2010PropOp46
 70
     1
102
RTVSPost2010Prop47
 90
       50
102
RTVSPost2010PropOp47
 70
     1
102
RTVSPost2010Prop48
 90
       50
102
RTVSPost2010PropOp48
 70
     1
102
RTVSPost2010Prop49
280
     0
102
RTVSPost2010PropOp49
 70
     1
102
RTVSPost2010Prop50
 90
       50
102
RTVSPost2010PropOp50
 70
     1
102
RTVSPost2010Prop51ColorIndex
 90
      256
102
RTVSPost2010Prop51ColorRGB
 90
-16777216
102
RTVSPost2010PropOp51
 70
     0
102
RTVSPost2010Prop52
140
1.0
102
RTVSPost2010PropOp52
 70
     0
102
RTVSPost2010Prop53
 90
        2
102
RTVSPost2010PropOp53
 70
     1
102
RTVSPost2010Prop54
  1
strokes_ogs.tif
102
RTVSPost2010PropOp54
 70
     1
102
RTVSPost2010Prop55
280
     0
102
RTVSPost2010PropOp55
 70
     1
102
RTVSPost2010Prop56
140
1.0
102
RTVSPost2010PropOp56
 70
     1
102
RTVSPost2010Prop57
140
1.0
102
RTVSPost2010PropOp57
 70
     1
  0
XRECORD
  5
13D
102
{ACAD_REACTORS
330
13C
102
}
330
13C
100
AcDbXrecord
280
     1
102
RTVSPost2010Prop28
280
     0
102
RTVSPost2010PropOp28
 70
     1
102
RTVSPost2010Prop29
280
     1
102
RTVSPost2010PropOp29
 70
     1
102
RTVSPost2010Prop30
280
     1
102
RTVSPost2010PropOp30
 70
     1
102
RTVSPost2010Prop31
280
     0
102
RTVSPost2010PropOp31
 70
     1
102
RTVSPost2010Prop32
280
     0
102
RTVSPost2010PropOp32
 70
     1
102
RTVSPost2010Prop33
280
     0
102
RTVSPost2010PropOp33
 70
     1
102
RTVSPost2010Prop34
280
     0
102
RTVSPost2010PropOp34
 70
     1
102
RTVSPost2010Prop35
280
     0
102
RTVSPost2010PropOp35
 70
     1
102
RTVSPost2010Prop36
280
     0
102
RTVSPost2010PropOp36
 70
     1
102
RTVSPost2010Prop37
 90
       50
102
RTVSPost2010PropOp37
 70
     1
102
RTVSPost2010Prop38
140
0.0
102
RTVSPost2010PropOp38
 70
     1
102
RTVSPost2010Prop39
140
1.0
102
RTVSPost2010PropOp39
 70
     1
102
RTVSPost2010Prop40
 90
        0
102
RTVSPost2010PropOp40
 70
     1
102
RTVSPost2010Prop41ColorIndex
 90
       18
102
RTVSPost2010Prop41ColorRGB
 90
        0
102
RTVSPost2010PropOp41
 70
     1
102
RTVSPost2010Prop42
 90
       50
102
RTVSPost2010PropOp42
 70
     1
102
RTVSPost2010Prop43
 90
        3
102
RTVSPost2010PropOp43
 70
     1
102
RTVSPost2010Prop44ColorIndex
 90
        5
102
RTVSPost2010Prop44ColorRGB
 90
      255
102
RTVSPost2010PropOp44
 70
     1
102
RTVSPost2010Prop45
280
     0
102
RTVSPost2010PropOp45
 70
     1
102
RTVSPost2010Prop46
 90
       50
102
RTVSPost2010PropOp46
 70
     1
102
RTVSPost2010Prop47
 90
       50
102
RTVSPost2010PropOp47
 70
     1
102
RTVSPost2010Prop48
 90
       50
102
RTVSPost2010PropOp48
 70
     1
102
RTVSPost2010Prop49
280
     0
102
RTVSPost2010PropOp49
 70
     1
102
RTVSPost2010Prop50
 90
       50
102
RTVSPost2010PropOp50
 70
     1
102
RTVSPost2010Prop51ColorIndex
 90
      256
102
RTVSPost2010Prop51ColorRGB
 90
-16777216
102
RTVSPost2010PropOp51
 70
     0
102
RTVSPost2010Prop52
140
1.0
102
RTVSPost2010PropOp52
 70
     0
102
RTVSPost2010Prop53
 90
        2
102
RTVSPost2010PropOp53
 70
     1
102
RTVSPost2010Prop54
  1
strokes_ogs.tif
102
RTVSPost2010PropOp54
 70
     1
102
RTVSPost2010Prop55
280
     0
102
RTVSPost2010PropOp55
 70
     1
102
RTVSPost2010Prop56
140
1.0
102
RTVSPost2010PropOp56
 70
     1
102
RTVSPost2010Prop57
140
1.0
102
RTVSPost2010PropOp57
 70
     1
  0
XRECORD
  5
145
102
{ACAD_REACTORS
330
144
102
}
330
144
100
AcDbXrecord
280
     1
102
RTVSPost2010Prop28
280
     0
102
RTVSPost2010PropOp28
 70
     1
102
RTVSPost2010Prop29
280
     1
102
RTVSPost2010PropOp29
 70
     1
102
RTVSPost2010Prop30
280
     1
102
RTVSPost2010PropOp30
 70
     1
102
RTVSPost2010Prop31
280
     0
102
RTVSPost2010PropOp31
 70
     1
102
RTVSPost2010Prop32
280
     0
102
RTVSPost2010PropOp32
 70
     1
102
RTVSPost2010Prop33
280
     0
102
RTVSPost2010PropOp33
 70
     1
102
RTVSPost2010Prop34
280
     0
102
RTVSPost2010PropOp34
 70
     1
102
RTVSPost2010Prop35
280
     0
102
RTVSPost2010PropOp35
 70
     1
102
RTVSPost2010Prop36
280
     0
102
RTVSPost2010PropOp36
 70
     1
102
RTVSPost2010Prop37
 90
       50
102
RTVSPost2010PropOp37
 70
     1
102
RTVSPost2010Prop38
140
0.0
102
RTVSPost2010PropOp38
 70
     1
102
RTVSPost2010Prop39
140
1.0
102
RTVSPost2010PropOp39
 70
     1
102
RTVSPost2010Prop40
 90
        0
102
RTVSPost2010PropOp40
 70
     1
102
RTVSPost2010Prop41ColorIndex
 90
       18
102
RTVSPost2010Prop41ColorRGB
 90
        0
102
RTVSPost2010PropOp41
 70
     1
102
RTVSPost2010Prop42
 90
       50
102
RTVSPost2010PropOp42
 70
     1
102
RTVSPost2010Prop43
 90
        3
102
RTVSPost2010PropOp43
 70
     1
102
RTVSPost2010Prop44ColorIndex
 90
        5
102
RTVSPost2010Prop44ColorRGB
 90
      255
102
RTVSPost2010PropOp44
 70
     1
102
RTVSPost2010Prop45
280
     0
102
RTVSPost2010PropOp45
 70
     1
102
RTVSPost2010Prop46
 90
       50
102
RTVSPost2010PropOp46
 70
     1
102
RTVSPost2010Prop47
 90
       50
102
RTVSPost2010PropOp47
 70
     1
102
RTVSPost2010Prop48
 90
       50
102
RTVSPost2010PropOp48
 70
     1
102
RTVSPost2010Prop49
280
     0
102
RTVSPost2010PropOp49
 70
     1
102
RTVSPost2010Prop50
 90
       50
102
RTVSPost2010PropOp50
 70
     1
102
RTVSPost2010Prop51ColorIndex
 90
      256
102
RTVSPost2010Prop51ColorRGB
 90
-16777216
102
RTVSPost2010PropOp51
 70
     0
102
RTVSPost2010Prop52
140
1.0
102
RTVSPost2010PropOp52
 70
     0
102
RTVSPost2010Prop53
 90
        2
102
RTVSPost2010PropOp53
 70
     1
102
RTVSPost2010Prop54
  1
strokes_ogs.tif
102
RTVSPost2010PropOp54
 70
     1
102
RTVSPost2010Prop55
280
     0
102
RTVSPost2010PropOp55
 70
     1
102
RTVSPost2010Prop56
140
1.0
102
RTVSPost2010PropOp56
 70
     1
102
RTVSPost2010Prop57
140
1.0
102
RTVSPost2010PropOp57
 70
     1
  0
XRECORD
  5
137
102
{ACAD_REACTORS
330
136
102
}
330
136
100
AcDbXrecord
280
     1
102
RTVSPost2010Prop28
280
     0
102
RTVSPost2010PropOp28
 70
     1
102
RTVSPost2010Prop29
280
     1
102
RTVSPost2010PropOp29
 70
     1
102
RTVSPost2010Prop30
280
     1
102
RTVSPost2010PropOp30
 70
     1
102
RTVSPost2010Prop31
280
     0
102
RTVSPost2010PropOp31
 70
     1
102
RTVSPost2010Prop32
280
     0
102
RTVSPost2010PropOp32
 70
     1
102
RTVSPost2010Prop33
280
     0
102
RTVSPost2010PropOp33
 70
     1
102
RTVSPost2010Prop34
280
     0
102
RTVSPost2010PropOp34
 70
     1
102
RTVSPost2010Prop35
280
     0
102
RTVSPost2010PropOp35
 70
     1
102
RTVSPost2010Prop36
280
     0
102
RTVSPost2010PropOp36
 70
     1
102
RTVSPost2010Prop37
 90
       50
102
RTVSPost2010PropOp37
 70
     1
102
RTVSPost2010Prop38
140
0.0
102
RTVSPost2010PropOp38
 70
     1
102
RTVSPost2010Prop39
140
1.0
102
RTVSPost2010PropOp39
 70
     1
102
RTVSPost2010Prop40
 90
        0
102
RTVSPost2010PropOp40
 70
     1
102
RTVSPost2010Prop41ColorIndex
 90
       18
102
RTVSPost2010Prop41ColorRGB
 90
        0
102
RTVSPost2010PropOp41
 70
     1
102
RTVSPost2010Prop42
 90
       50
102
RTVSPost2010PropOp42
 70
     1
102
RTVSPost2010Prop43
 90
        3
102
RTVSPost2010PropOp43
 70
     1
102
RTVSPost2010Prop44ColorIndex
 90
        5
102
RTVSPost2010Prop44ColorRGB
 90
      255
102
RTVSPost2010PropOp44
 70
     1
102
RTVSPost2010Prop45
280
     0
102
RTVSPost2010PropOp45
 70
     1
102
RTVSPost2010Prop46
 90
       50
102
RTVSPost2010PropOp46
 70
     1
102
RTVSPost2010Prop47
 90
       50
102
RTVSPost2010PropOp47
 70
     1
102
RTVSPost2010Prop48
 90
       50
102
RTVSPost2010PropOp48
 70
     1
102
RTVSPost2010Prop49
280
     0
102
RTVSPost2010PropOp49
 70
     1
102
RTVSPost2010Prop50
 90
       50
102
RTVSPost2010PropOp50
 70
     1
102
RTVSPost2010Prop51ColorIndex
 90
      256
102
RTVSPost2010Prop51ColorRGB
 90
-16777216
102
RTVSPost2010PropOp51
 70
     0
102
RTVSPost2010Prop52
140
1.0
102
RTVSPost2010PropOp52
 70
     0
102
RTVSPost2010Prop53
 90
        2
102
RTVSPost2010PropOp53
 70
     1
102
RTVSPost2010Prop54
  1
strokes_ogs.tif
102
RTVSPost2010PropOp54
 70
     1
102
RTVSPost2010Prop55
280
     0
102
RTVSPost2010PropOp55
 70
     1
102
RTVSPost2010Prop56
140
1.0
102
RTVSPost2010PropOp56
 70
     1
102
RTVSPost2010Prop57
140
1.0
102
RTVSPost2010PropOp57
 70
     1
  0
XRECORD
  5
13B
102
{ACAD_REACTORS
330
13A
102
}
330
13A
100
AcDbXrecord
280
     1
102
RTVSPost2010Prop28
280
     0
102
RTVSPost2010PropOp28
 70
     1
102
RTVSPost2010Prop29
280
     1
102
RTVSPost2010PropOp29
 70
     1
102
RTVSPost2010Prop30
280
     1
102
RTVSPost2010PropOp30
 70
     1
102
RTVSPost2010Prop31
280
     0
102
RTVSPost2010PropOp31
 70
     1
102
RTVSPost2010Prop32
280
     0
102
RTVSPost2010PropOp32
 70
     1
102
RTVSPost2010Prop33
280
     0
102
RTVSPost2010PropOp33
 70
     1
102
RTVSPost2010Prop34
280
     0
102
RTVSPost2010PropOp34
 70
     1
102
RTVSPost2010Prop35
280
     0
102
RTVSPost2010PropOp35
 70
     1
102
RTVSPost2010Prop36
280
     0
102
RTVSPost2010PropOp36
 70
     1
102
RTVSPost2010Prop37
 90
       50
102
RTVSPost2010PropOp37
 70
     1
102
RTVSPost2010Prop38
140
0.0
102
RTVSPost2010PropOp38
 70
     1
102
RTVSPost2010Prop39
140
1.0
102
RTVSPost2010PropOp39
 70
     1
102
RTVSPost2010Prop40
 90
        0
102
RTVSPost2010PropOp40
 70
     1
102
RTVSPost2010Prop41ColorIndex
 90
       18
102
RTVSPost2010Prop41ColorRGB
 90
        0
102
RTVSPost2010PropOp41
 70
     1
102
RTVSPost2010Prop42
 90
       50
102
RTVSPost2010PropOp42
 70
     1
102
RTVSPost2010Prop43
 90
        3
102
RTVSPost2010PropOp43
 70
     1
102
RTVSPost2010Prop44ColorIndex
 90
        5
102
RTVSPost2010Prop44ColorRGB
 90
      255
102
RTVSPost2010PropOp44
 70
     1
102
RTVSPost2010Prop45
280
     0
102
RTVSPost2010PropOp45
 70
     1
102
RTVSPost2010Prop46
 90
       50
102
RTVSPost2010PropOp46
 70
     1
102
RTVSPost2010Prop47
 90
       50
102
RTVSPost2010PropOp47
 70
     1
102
RTVSPost2010Prop48
 90
       50
102
RTVSPost2010PropOp48
 70
     1
102
RTVSPost2010Prop49
280
     0
102
RTVSPost2010PropOp49
 70
     1
102
RTVSPost2010Prop50
 90
       50
102
RTVSPost2010PropOp50
 70
     1
102
RTVSPost2010Prop51ColorIndex
 90
      256
102
RTVSPost2010Prop51ColorRGB
 90
-16777216
102
RTVSPost2010PropOp51
 70
     0
102
RTVSPost2010Prop52
140
1.0
102
RTVSPost2010PropOp52
 70
     0
102
RTVSPost2010Prop53
 90
        2
102
RTVSPost2010PropOp53
 70
     1
102
RTVSPost2010Prop54
  1
strokes_ogs.tif
102
RTVSPost2010PropOp54
 70
     1
102
RTVSPost2010Prop55
280
     0
102
RTVSPost2010PropOp55
 70
     1
102
RTVSPost2010Prop56
140
1.0
102
RTVSPost2010PropOp56
 70
     1
102
RTVSPost2010Prop57
140
1.0
102
RTVSPost2010PropOp57
 70
     1
  0
XRECORD
  5
155
102
{ACAD_REACTORS
330
154
102
}
330
154
100
AcDbXrecord
280
     1
102
RTVSPost2010Prop28
280
     0
102
RTVSPost2010PropOp28
 70
     0
102
RTVSPost2010Prop29
280
     1
102
RTVSPost2010PropOp29
 70
     0
102
RTVSPost2010Prop30
280
     1
102
RTVSPost2010PropOp30
 70
     0
102
RTVSPost2010Prop31
280
     0
102
RTVSPost2010PropOp31
 70
     0
102
RTVSPost2010Prop32
280
     0
102
RTVSPost2010PropOp32
 70
     0
102
RTVSPost2010Prop33
280
     0
102
RTVSPost2010PropOp33
 70
     0
102
RTVSPost2010Prop34
280
     0
102
RTVSPost2010PropOp34
 70
     0
102
RTVSPost2010Prop35
280
     0
102
RTVSPost2010PropOp35
 70
     0
102
RTVSPost2010Prop36
280
     0
102
RTVSPost2010PropOp36
 70
     0
102
RTVSPost2010Prop37
 90
       50
102
RTVSPost2010PropOp37
 70
     0
102
RTVSPost2010Prop38
140
0.0
102
RTVSPost2010PropOp38
 70
     0
102
RTVSPost2010Prop39
140
1.0
102
RTVSPost2010PropOp39
 70
     0
102
RTVSPost2010Prop40
 90
        0
102
RTVSPost2010PropOp40
 70
     0
102
RTVSPost2010Prop41ColorIndex
 90
       18
102
RTVSPost2010Prop41ColorRGB
 90
        0
102
RTVSPost2010PropOp41
 70
     0
102
RTVSPost2010Prop42
 90
       50
102
RTVSPost2010PropOp42
 70
     0
102
RTVSPost2010Prop43
 90
        3
102
RTVSPost2010PropOp43
 70
     0
102
RTVSPost2010Prop44ColorIndex
 90
        5
102
RTVSPost2010Prop44ColorRGB
 90
      255
102
RTVSPost2010PropOp44
 70
     0
102
RTVSPost2010Prop45
280
     0
102
RTVSPost2010PropOp45
 70
     0
102
RTVSPost2010Prop46
 90
       50
102
RTVSPost2010PropOp46
 70
     0
102
RTVSPost2010Prop47
 90
       50
102
RTVSPost2010PropOp47
 70
     0
102
RTVSPost2010Prop48
 90
       50
102
RTVSPost2010PropOp48
 70
     0
102
RTVSPost2010Prop49
280
     0
102
RTVSPost2010PropOp49
 70
     0
102
RTVSPost2010Prop50
 90
       50
102
RTVSPost2010PropOp50
 70
     0
102
RTVSPost2010Prop51ColorIndex
 90
      256
102
RTVSPost2010Prop51ColorRGB
 90
-16777216
102
RTVSPost2010PropOp51
 70
     0
102
RTVSPost2010Prop52
140
1.0
102
RTVSPost2010PropOp52
 70
     0
102
RTVSPost2010Prop53
 90
        2
102
RTVSPost2010PropOp53
 70
     0
102
RTVSPost2010Prop54
  1
strokes_ogs.tif
102
RTVSPost2010PropOp54
 70
     0
102
RTVSPost2010Prop55
280
     0
102
RTVSPost2010PropOp55
 70
     0
102
RTVSPost2010Prop56
140
1.0
102
RTVSPost2010PropOp56
 70
     0
102
RTVSPost2010Prop57
140
1.0
102
RTVSPost2010PropOp57
 70
     0
  0
XRECORD
  5
143
102
{ACAD_REACTORS
330
142
102
}
330
142
100
AcDbXrecord
280
     1
102
RTVSPost2010Prop28
280
     0
102
RTVSPost2010PropOp28
 70
     1
102
RTVSPost2010Prop29
280
     1
102
RTVSPost2010PropOp29
 70
     1
102
RTVSPost2010Prop30
280
     1
102
RTVSPost2010PropOp30
 70
     1
102
RTVSPost2010Prop31
280
     0
102
RTVSPost2010PropOp31
 70
     1
102
RTVSPost2010Prop32
280
     0
102
RTVSPost2010PropOp32
 70
     1
102
RTVSPost2010Prop33
280
     0
102
RTVSPost2010PropOp33
 70
     1
102
RTVSPost2010Prop34
280
     0
102
RTVSPost2010PropOp34
 70
     1
102
RTVSPost2010Prop35
280
     0
102
RTVSPost2010PropOp35
 70
     1
102
RTVSPost2010Prop36
280
     0
102
RTVSPost2010PropOp36
 70
     1
102
RTVSPost2010Prop37
 90
       50
102
RTVSPost2010PropOp37
 70
     1
102
RTVSPost2010Prop38
140
0.0
102
RTVSPost2010PropOp38
 70
     1
102
RTVSPost2010Prop39
140
1.0
102
RTVSPost2010PropOp39
 70
     1
102
RTVSPost2010Prop40
 90
        0
102
RTVSPost2010PropOp40
 70
     1
102
RTVSPost2010Prop41ColorIndex
 90
       18
102
RTVSPost2010Prop41ColorRGB
 90
        0
102
RTVSPost2010PropOp41
 70
     1
102
RTVSPost2010Prop42
 90
       50
102
RTVSPost2010PropOp42
 70
     1
102
RTVSPost2010Prop43
 90
        3
102
RTVSPost2010PropOp43
 70
     1
102
RTVSPost2010Prop44ColorIndex
 90
        5
102
RTVSPost2010Prop44ColorRGB
 90
      255
102
RTVSPost2010PropOp44
 70
     1
102
RTVSPost2010Prop45
280
     0
102
RTVSPost2010PropOp45
 70
     1
102
RTVSPost2010Prop46
 90
       50
102
RTVSPost2010PropOp46
 70
     1
102
RTVSPost2010Prop47
 90
       50
102
RTVSPost2010PropOp47
 70
     1
102
RTVSPost2010Prop48
 90
       50
102
RTVSPost2010PropOp48
 70
     1
102
RTVSPost2010Prop49
280
     0
102
RTVSPost2010PropOp49
 70
     1
102
RTVSPost2010Prop50
 90
       50
102
RTVSPost2010PropOp50
 70
     1
102
RTVSPost2010Prop51ColorIndex
 90
      256
102
RTVSPost2010Prop51ColorRGB
 90
-16777216
102
RTVSPost2010PropOp51
 70
     0
102
RTVSPost2010Prop52
140
1.0
102
RTVSPost2010PropOp52
 70
     0
102
RTVSPost2010Prop53
 90
        2
102
RTVSPost2010PropOp53
 70
     1
102
RTVSPost2010Prop54
  1
strokes_ogs.tif
102
RTVSPost2010PropOp54
 70
     1
102
RTVSPost2010Prop55
280
     0
102
RTVSPost2010PropOp55
 70
     1
102
RTVSPost2010Prop56
140
1.0
102
RTVSPost2010PropOp56
 70
     1
102
RTVSPost2010Prop57
140
1.0
102
RTVSPost2010PropOp57
 70
     1
  0
XRECORD
  5
127
102
{ACAD_REACTORS
330
126
102
}
330
126
100
AcDbXrecord
280
     1
102
RTVSPost2010Prop28
280
     0
102
RTVSPost2010PropOp28
 70
     1
102
RTVSPost2010Prop29
280
     1
102
RTVSPost2010PropOp29
 70
     1
102
RTVSPost2010Prop30
280
     1
102
RTVSPost2010PropOp30
 70
     1
102
RTVSPost2010Prop31
280
     0
102
RTVSPost2010PropOp31
 70
     1
102
RTVSPost2010Prop32
280
     0
102
RTVSPost2010PropOp32
 70
     1
102
RTVSPost2010Prop33
280
     0
102
RTVSPost2010PropOp33
 70
     1
102
RTVSPost2010Prop34
280
     0
102
RTVSPost2010PropOp34
 70
     1
102
RTVSPost2010Prop35
280
     0
102
RTVSPost2010PropOp35
 70
     1
102
RTVSPost2010Prop36
280
     0
102
RTVSPost2010PropOp36
 70
     1
102
RTVSPost2010Prop37
 90
       50
102
RTVSPost2010PropOp37
 70
     1
102
RTVSPost2010Prop38
140
0.0
102
RTVSPost2010PropOp38
 70
     1
102
RTVSPost2010Prop39
140
1.0
102
RTVSPost2010PropOp39
 70
     1
102
RTVSPost2010Prop40
 90
        0
102
RTVSPost2010PropOp40
 70
     1
102
RTVSPost2010Prop41ColorIndex
 90
       18
102
RTVSPost2010Prop41ColorRGB
 90
        0
102
RTVSPost2010PropOp41
 70
     1
102
RTVSPost2010Prop42
 90
       50
102
RTVSPost2010PropOp42
 70
     1
102
RTVSPost2010Prop43
 90
        3
102
RTVSPost2010PropOp43
 70
     1
102
RTVSPost2010Prop44ColorIndex
 90
        5
102
RTVSPost2010Prop44ColorRGB
 90
      255
102
RTVSPost2010PropOp44
 70
     1
102
RTVSPost2010Prop45
280
     0
102
RTVSPost2010PropOp45
 70
     1
102
RTVSPost2010Prop46
 90
       50
102
RTVSPost2010PropOp46
 70
     1
102
RTVSPost2010Prop47
 90
       50
102
RTVSPost2010PropOp47
 70
     1
102
RTVSPost2010Prop48
 90
       50
102
RTVSPost2010PropOp48
 70
     1
102
RTVSPost2010Prop49
280
     0
102
RTVSPost2010PropOp49
 70
     1
102
RTVSPost2010Prop50
 90
       50
102
RTVSPost2010PropOp50
 70
     1
102
RTVSPost2010Prop51ColorIndex
 90
      256
102
RTVSPost2010Prop51ColorRGB
 90
-16777216
102
RTVSPost2010PropOp51
 70
     0
102
RTVSPost2010Prop52
140
1.0
102
RTVSPost2010PropOp52
 70
     0
102
RTVSPost2010Prop53
 90
        2
102
RTVSPost2010PropOp53
 70
     1
102
RTVSPost2010Prop54
  1
strokes_ogs.tif
102
RTVSPost2010PropOp54
 70
     1
102
RTVSPost2010Prop55
280
     0
102
RTVSPost2010PropOp55
 70
     1
102
RTVSPost2010Prop56
140
1.0
102
RTVSPost2010PropOp56
 70
     1
102
RTVSPost2010Prop57
140
1.0
102
RTVSPost2010PropOp57
 70
     1
  0
XRECORD
  5
129
102
{ACAD_REACTORS
330
128
102
}
330
128
100
AcDbXrecord
280
     1
102
RTVSPost2010Prop28
280
     0
102
RTVSPost2010PropOp28
 70
     1
102
RTVSPost2010Prop29
280
     1
102
RTVSPost2010PropOp29
 70
     1
102
RTVSPost2010Prop30
280
     1
102
RTVSPost2010PropOp30
 70
     1
102
RTVSPost2010Prop31
280
     0
102
RTVSPost2010PropOp31
 70
     1
102
RTVSPost2010Prop32
280
     0
102
RTVSPost2010PropOp32
 70
     1
102
RTVSPost2010Prop33
280
     0
102
RTVSPost2010PropOp33
 70
     1
102
RTVSPost2010Prop34
280
     0
102
RTVSPost2010PropOp34
 70
     1
102
RTVSPost2010Prop35
280
     0
102
RTVSPost2010PropOp35
 70
     1
102
RTVSPost2010Prop36
280
     0
102
RTVSPost2010PropOp36
 70
     1
102
RTVSPost2010Prop37
 90
       50
102
RTVSPost2010PropOp37
 70
     1
102
RTVSPost2010Prop38
140
0.0
102
RTVSPost2010PropOp38
 70
     1
102
RTVSPost2010Prop39
140
1.0
102
RTVSPost2010PropOp39
 70
     1
102
RTVSPost2010Prop40
 90
        0
102
RTVSPost2010PropOp40
 70
     1
102
RTVSPost2010Prop41ColorIndex
 90
       18
102
RTVSPost2010Prop41ColorRGB
 90
        0
102
RTVSPost2010PropOp41
 70
     1
102
RTVSPost2010Prop42
 90
       50
102
RTVSPost2010PropOp42
 70
     1
102
RTVSPost2010Prop43
 90
        3
102
RTVSPost2010PropOp43
 70
     1
102
RTVSPost2010Prop44ColorIndex
 90
        5
102
RTVSPost2010Prop44ColorRGB
 90
      255
102
RTVSPost2010PropOp44
 70
     1
102
RTVSPost2010Prop45
280
     0
102
RTVSPost2010PropOp45
 70
     1
102
RTVSPost2010Prop46
 90
       50
102
RTVSPost2010PropOp46
 70
     1
102
RTVSPost2010Prop47
 90
       50
102
RTVSPost2010PropOp47
 70
     1
102
RTVSPost2010Prop48
 90
       50
102
RTVSPost2010PropOp48
 70
     1
102
RTVSPost2010Prop49
280
     0
102
RTVSPost2010PropOp49
 70
     1
102
RTVSPost2010Prop50
 90
       50
102
RTVSPost2010PropOp50
 70
     1
102
RTVSPost2010Prop51ColorIndex
 90
      256
102
RTVSPost2010Prop51ColorRGB
 90
-16777216
102
RTVSPost2010PropOp51
 70
     0
102
RTVSPost2010Prop52
140
1.0
102
RTVSPost2010PropOp52
 70
     0
102
RTVSPost2010Prop53
 90
        2
102
RTVSPost2010PropOp53
 70
     1
102
RTVSPost2010Prop54
  1
strokes_ogs.tif
102
RTVSPost2010PropOp54
 70
     1
102
RTVSPost2010Prop55
280
     0
102
RTVSPost2010PropOp55
 70
     1
102
RTVSPost2010Prop56
140
1.0
102
RTVSPost2010PropOp56
 70
     1
102
RTVSPost2010Prop57
140
1.0
102
RTVSPost2010PropOp57
 70
     1
  0
XRECORD
  5
12B
102
{ACAD_REACTORS
330
12A
102
}
330
12A
100
AcDbXrecord
280
     1
102
RTVSPost2010Prop28
280
     0
102
RTVSPost2010PropOp28
 70
     1
102
RTVSPost2010Prop29
280
     1
102
RTVSPost2010PropOp29
 70
     1
102
RTVSPost2010Prop30
280
     1
102
RTVSPost2010PropOp30
 70
     1
102
RTVSPost2010Prop31
280
     0
102
RTVSPost2010PropOp31
 70
     1
102
RTVSPost2010Prop32
280
     0
102
RTVSPost2010PropOp32
 70
     1
102
RTVSPost2010Prop33
280
     0
102
RTVSPost2010PropOp33
 70
     1
102
RTVSPost2010Prop34
280
     0
102
RTVSPost2010PropOp34
 70
     1
102
RTVSPost2010Prop35
280
     0
102
RTVSPost2010PropOp35
 70
     1
102
RTVSPost2010Prop36
280
     0
102
RTVSPost2010PropOp36
 70
     1
102
RTVSPost2010Prop37
 90
       50
102
RTVSPost2010PropOp37
 70
     1
102
RTVSPost2010Prop38
140
0.0
102
RTVSPost2010PropOp38
 70
     1
102
RTVSPost2010Prop39
140
1.0
102
RTVSPost2010PropOp39
 70
     1
102
RTVSPost2010Prop40
 90
        0
102
RTVSPost2010PropOp40
 70
     1
102
RTVSPost2010Prop41ColorIndex
 90
       18
102
RTVSPost2010Prop41ColorRGB
 90
        0
102
RTVSPost2010PropOp41
 70
     1
102
RTVSPost2010Prop42
 90
       50
102
RTVSPost2010PropOp42
 70
     1
102
RTVSPost2010Prop43
 90
        3
102
RTVSPost2010PropOp43
 70
     1
102
RTVSPost2010Prop44ColorIndex
 90
        5
102
RTVSPost2010Prop44ColorRGB
 90
      255
102
RTVSPost2010PropOp44
 70
     1
102
RTVSPost2010Prop45
280
     0
102
RTVSPost2010PropOp45
 70
     1
102
RTVSPost2010Prop46
 90
       50
102
RTVSPost2010PropOp46
 70
     1
102
RTVSPost2010Prop47
 90
       50
102
RTVSPost2010PropOp47
 70
     1
102
RTVSPost2010Prop48
 90
       50
102
RTVSPost2010PropOp48
 70
     1
102
RTVSPost2010Prop49
280
     0
102
RTVSPost2010PropOp49
 70
     1
102
RTVSPost2010Prop50
 90
       50
102
RTVSPost2010PropOp50
 70
     1
102
RTVSPost2010Prop51ColorIndex
 90
      256
102
RTVSPost2010Prop51ColorRGB
 90
-16777216
102
RTVSPost2010PropOp51
 70
     0
102
RTVSPost2010Prop52
140
1.0
102
RTVSPost2010PropOp52
 70
     0
102
RTVSPost2010Prop53
 90
        2
102
RTVSPost2010PropOp53
 70
     1
102
RTVSPost2010Prop54
  1
strokes_ogs.tif
102
RTVSPost2010PropOp54
 70
     1
102
RTVSPost2010Prop55
280
     0
102
RTVSPost2010PropOp55
 70
     1
102
RTVSPost2010Prop56
140
1.0
102
RTVSPost2010PropOp56
 70
     1
102
RTVSPost2010Prop57
140
1.0
102
RTVSPost2010PropOp57
 70
     1
  0
XRECORD
  5
12D
102
{ACAD_REACTORS
330
12C
102
}
330
12C
100
AcDbXrecord
280
     1
102
RTVSPost2010Prop28
280
     0
102
RTVSPost2010PropOp28
 70
     1
102
RTVSPost2010Prop29
280
     1
102
RTVSPost2010PropOp29
 70
     1
102
RTVSPost2010Prop30
280
     1
102
RTVSPost2010PropOp30
 70
     1
102
RTVSPost2010Prop31
280
     0
102
RTVSPost2010PropOp31
 70
     1
102
RTVSPost2010Prop32
280
     0
102
RTVSPost2010PropOp32
 70
     1
102
RTVSPost2010Prop33
280
     0
102
RTVSPost2010PropOp33
 70
     1
102
RTVSPost2010Prop34
280
     0
102
RTVSPost2010PropOp34
 70
     1
102
RTVSPost2010Prop35
280
     0
102
RTVSPost2010PropOp35
 70
     1
102
RTVSPost2010Prop36
280
     0
102
RTVSPost2010PropOp36
 70
     1
102
RTVSPost2010Prop37
 90
       50
102
RTVSPost2010PropOp37
 70
     1
102
RTVSPost2010Prop38
140
0.0
102
RTVSPost2010PropOp38
 70
     1
102
RTVSPost2010Prop39
140
1.0
102
RTVSPost2010PropOp39
 70
     1
102
RTVSPost2010Prop40
 90
        0
102
RTVSPost2010PropOp40
 70
     1
102
RTVSPost2010Prop41ColorIndex
 90
       18
102
RTVSPost2010Prop41ColorRGB
 90
        0
102
RTVSPost2010PropOp41
 70
     1
102
RTVSPost2010Prop42
 90
       50
102
RTVSPost2010PropOp42
 70
     1
102
RTVSPost2010Prop43
 90
        3
102
RTVSPost2010PropOp43
 70
     1
102
RTVSPost2010Prop44ColorIndex
 90
        5
102
RTVSPost2010Prop44ColorRGB
 90
      255
102
RTVSPost2010PropOp44
 70
     1
102
RTVSPost2010Prop45
280
     0
102
RTVSPost2010PropOp45
 70
     1
102
RTVSPost2010Prop46
 90
       50
102
RTVSPost2010PropOp46
 70
     1
102
RTVSPost2010Prop47
 90
       50
102
RTVSPost2010PropOp47
 70
     1
102
RTVSPost2010Prop48
 90
       50
102
RTVSPost2010PropOp48
 70
     1
102
RTVSPost2010Prop49
280
     0
102
RTVSPost2010PropOp49
 70
     1
102
RTVSPost2010Prop50
 90
       50
102
RTVSPost2010PropOp50
 70
     1
102
RTVSPost2010Prop51ColorIndex
 90
      256
102
RTVSPost2010Prop51ColorRGB
 90
-16777216
102
RTVSPost2010PropOp51
 70
     0
102
RTVSPost2010Prop52
140
1.0
102
RTVSPost2010PropOp52
 70
     0
102
RTVSPost2010Prop53
 90
        2
102
RTVSPost2010PropOp53
 70
     1
102
RTVSPost2010Prop54
  1
strokes_ogs.tif
102
RTVSPost2010PropOp54
 70
     1
102
RTVSPost2010Prop55
280
     0
102
RTVSPost2010PropOp55
 70
     1
102
RTVSPost2010Prop56
140
1.0
102
RTVSPost2010PropOp56
 70
     1
102
RTVSPost2010Prop57
140
1.0
102
RTVSPost2010PropOp57
 70
     1
  0
XRECORD
  5
135
102
{ACAD_REACTORS
330
134
102
}
330
134
100
AcDbXrecord
280
     1
102
RTVSPost2010Prop28
280
     0
102
RTVSPost2010PropOp28
 70
     1
102
RTVSPost2010Prop29
280
     1
102
RTVSPost2010PropOp29
 70
     1
102
RTVSPost2010Prop30
280
     1
102
RTVSPost2010PropOp30
 70
     1
102
RTVSPost2010Prop31
280
     0
102
RTVSPost2010PropOp31
 70
     1
102
RTVSPost2010Prop32
280
     0
102
RTVSPost2010PropOp32
 70
     1
102
RTVSPost2010Prop33
280
     0
102
RTVSPost2010PropOp33
 70
     1
102
RTVSPost2010Prop34
280
     0
102
RTVSPost2010PropOp34
 70
     1
102
RTVSPost2010Prop35
280
     0
102
RTVSPost2010PropOp35
 70
     1
102
RTVSPost2010Prop36
280
     0
102
RTVSPost2010PropOp36
 70
     1
102
RTVSPost2010Prop37
 90
       50
102
RTVSPost2010PropOp37
 70
     1
102
RTVSPost2010Prop38
140
0.0
102
RTVSPost2010PropOp38
 70
     1
102
RTVSPost2010Prop39
140
1.0
102
RTVSPost2010PropOp39
 70
     1
102
RTVSPost2010Prop40
 90
        0
102
RTVSPost2010PropOp40
 70
     1
102
RTVSPost2010Prop41ColorIndex
 90
       18
102
RTVSPost2010Prop41ColorRGB
 90
        0
102
RTVSPost2010PropOp41
 70
     1
102
RTVSPost2010Prop42
 90
       50
102
RTVSPost2010PropOp42
 70
     1
102
RTVSPost2010Prop43
 90
        3
102
RTVSPost2010PropOp43
 70
     1
102
RTVSPost2010Prop44ColorIndex
 90
        5
102
RTVSPost2010Prop44ColorRGB
 90
      255
102
RTVSPost2010PropOp44
 70
     1
102
RTVSPost2010Prop45
280
     0
102
RTVSPost2010PropOp45
 70
     1
102
RTVSPost2010Prop46
 90
       50
102
RTVSPost2010PropOp46
 70
     1
102
RTVSPost2010Prop47
 90
       50
102
RTVSPost2010PropOp47
 70
     1
102
RTVSPost2010Prop48
 90
       50
102
RTVSPost2010PropOp48
 70
     1
102
RTVSPost2010Prop49
280
     0
102
RTVSPost2010PropOp49
 70
     1
102
RTVSPost2010Prop50
 90
       50
102
RTVSPost2010PropOp50
 70
     1
102
RTVSPost2010Prop51ColorIndex
 90
      256
102
RTVSPost2010Prop51ColorRGB
 90
-16777216
102
RTVSPost2010PropOp51
 70
     0
102
RTVSPost2010Prop52
140
1.0
102
RTVSPost2010PropOp52
 70
     0
102
RTVSPost2010Prop53
 90
        2
102
RTVSPost2010PropOp53
 70
     1
102
RTVSPost2010Prop54
  1
strokes_ogs.tif
102
RTVSPost2010PropOp54
 70
     1
102
RTVSPost2010Prop55
280
     0
102
RTVSPost2010PropOp55
 70
     1
102
RTVSPost2010Prop56
140
1.0
102
RTVSPost2010PropOp56
 70
     1
102
RTVSPost2010Prop57
140
1.0
102
RTVSPost2010PropOp57
 70
     1
  0
XRECORD
  5
151
102
{ACAD_REACTORS
330
150
102
}
330
150
100
AcDbXrecord
280
     1
102
RTVSPost2010Prop28
280
     0
102
RTVSPost2010PropOp28
 70
     0
102
RTVSPost2010Prop29
280
     1
102
RTVSPost2010PropOp29
 70
     0
102
RTVSPost2010Prop30
280
     1
102
RTVSPost2010PropOp30
 70
     0
102
RTVSPost2010Prop31
280
     0
102
RTVSPost2010PropOp31
 70
     0
102
RTVSPost2010Prop32
280
     0
102
RTVSPost2010PropOp32
 70
     0
102
RTVSPost2010Prop33
280
     0
102
RTVSPost2010PropOp33
 70
     0
102
RTVSPost2010Prop34
280
     0
102
RTVSPost2010PropOp34
 70
     0
102
RTVSPost2010Prop35
280
     0
102
RTVSPost2010PropOp35
 70
     0
102
RTVSPost2010Prop36
280
     0
102
RTVSPost2010PropOp36
 70
     0
102
RTVSPost2010Prop37
 90
       50
102
RTVSPost2010PropOp37
 70
     0
102
RTVSPost2010Prop38
140
0.0
102
RTVSPost2010PropOp38
 70
     0
102
RTVSPost2010Prop39
140
1.0
102
RTVSPost2010PropOp39
 70
     0
102
RTVSPost2010Prop40
 90
        0
102
RTVSPost2010PropOp40
 70
     0
102
RTVSPost2010Prop41ColorIndex
 90
       18
102
RTVSPost2010Prop41ColorRGB
 90
        0
102
RTVSPost2010PropOp41
 70
     0
102
RTVSPost2010Prop42
 90
       50
102
RTVSPost2010PropOp42
 70
     0
102
RTVSPost2010Prop43
 90
        3
102
RTVSPost2010PropOp43
 70
     0
102
RTVSPost2010Prop44ColorIndex
 90
        5
102
RTVSPost2010Prop44ColorRGB
 90
      255
102
RTVSPost2010PropOp44
 70
     0
102
RTVSPost2010Prop45
280
     0
102
RTVSPost2010PropOp45
 70
     0
102
RTVSPost2010Prop46
 90
       50
102
RTVSPost2010PropOp46
 70
     0
102
RTVSPost2010Prop47
 90
       50
102
RTVSPost2010PropOp47
 70
     0
102
RTVSPost2010Prop48
 90
       50
102
RTVSPost2010PropOp48
 70
     0
102
RTVSPost2010Prop49
280
     0
102
RTVSPost2010PropOp49
 70
     0
102
RTVSPost2010Prop50
 90
       50
102
RTVSPost2010PropOp50
 70
     0
102
RTVSPost2010Prop51ColorIndex
 90
      256
102
RTVSPost2010Prop51ColorRGB
 90
-16777216
102
RTVSPost2010PropOp51
 70
     0
102
RTVSPost2010Prop52
140
1.0
102
RTVSPost2010PropOp52
 70
     0
102
RTVSPost2010Prop53
 90
        2
102
RTVSPost2010PropOp53
 70
     0
102
RTVSPost2010Prop54
  1
strokes_ogs.tif
102
RTVSPost2010PropOp54
 70
     0
102
RTVSPost2010Prop55
280
     0
102
RTVSPost2010PropOp55
 70
     0
102
RTVSPost2010Prop56
140
1.0
102
RTVSPost2010PropOp56
 70
     0
102
RTVSPost2010Prop57
140
1.0
102
RTVSPost2010PropOp57
 70
     0
  0
XRECORD
  5
141
102
{ACAD_REACTORS
330
140
102
}
330
140
100
AcDbXrecord
280
     1
102
RTVSPost2010Prop28
280
     0
102
RTVSPost2010PropOp28
 70
     1
102
RTVSPost2010Prop29
280
     1
102
RTVSPost2010PropOp29
 70
     1
102
RTVSPost2010Prop30
280
     1
102
RTVSPost2010PropOp30
 70
     1
102
RTVSPost2010Prop31
280
     0
102
RTVSPost2010PropOp31
 70
     1
102
RTVSPost2010Prop32
280
     0
102
RTVSPost2010PropOp32
 70
     1
102
RTVSPost2010Prop33
280
     0
102
RTVSPost2010PropOp33
 70
     1
102
RTVSPost2010Prop34
280
     0
102
RTVSPost2010PropOp34
 70
     1
102
RTVSPost2010Prop35
280
     0
102
RTVSPost2010PropOp35
 70
     1
102
RTVSPost2010Prop36
280
     0
102
RTVSPost2010PropOp36
 70
     1
102
RTVSPost2010Prop37
 90
       50
102
RTVSPost2010PropOp37
 70
     1
102
RTVSPost2010Prop38
140
0.0
102
RTVSPost2010PropOp38
 70
     1
102
RTVSPost2010Prop39
140
1.0
102
RTVSPost2010PropOp39
 70
     1
102
RTVSPost2010Prop40
 90
        0
102
RTVSPost2010PropOp40
 70
     1
102
RTVSPost2010Prop41ColorIndex
 90
       18
102
RTVSPost2010Prop41ColorRGB
 90
        0
102
RTVSPost2010PropOp41
 70
     1
102
RTVSPost2010Prop42
 90
       50
102
RTVSPost2010PropOp42
 70
     1
102
RTVSPost2010Prop43
 90
        3
102
RTVSPost2010PropOp43
 70
     1
102
RTVSPost2010Prop44ColorIndex
 90
        5
102
RTVSPost2010Prop44ColorRGB
 90
      255
102
RTVSPost2010PropOp44
 70
     1
102
RTVSPost2010Prop45
280
     0
102
RTVSPost2010PropOp45
 70
     1
102
RTVSPost2010Prop46
 90
       50
102
RTVSPost2010PropOp46
 70
     1
102
RTVSPost2010Prop47
 90
       50
102
RTVSPost2010PropOp47
 70
     1
102
RTVSPost2010Prop48
 90
       50
102
RTVSPost2010PropOp48
 70
     1
102
RTVSPost2010Prop49
280
     0
102
RTVSPost2010PropOp49
 70
     1
102
RTVSPost2010Prop50
 90
       50
102
RTVSPost2010PropOp50
 70
     1
102
RTVSPost2010Prop51ColorIndex
 90
      256
102
RTVSPost2010Prop51ColorRGB
 90
-16777216
102
RTVSPost2010PropOp51
 70
     0
102
RTVSPost2010Prop52
140
1.0
102
RTVSPost2010PropOp52
 70
     0
102
RTVSPost2010Prop53
 90
        2
102
RTVSPost2010PropOp53
 70
     1
102
RTVSPost2010Prop54
  1
strokes_ogs.tif
102
RTVSPost2010PropOp54
 70
     1
102
RTVSPost2010Prop55
280
     0
102
RTVSPost2010PropOp55
 70
     1
102
RTVSPost2010Prop56
140
1.0
102
RTVSPost2010PropOp56
 70
     1
102
RTVSPost2010Prop57
140
1.0
102
RTVSPost2010PropOp57
 70
     1
  0
XRECORD
  5
153
102
{ACAD_REACTORS
330
152
102
}
330
152
100
AcDbXrecord
280
     1
102
RTVSPost2010Prop28
280
     0
102
RTVSPost2010PropOp28
 70
     0
102
RTVSPost2010Prop29
280
     1
102
RTVSPost2010PropOp29
 70
     0
102
RTVSPost2010Prop30
280
     1
102
RTVSPost2010PropOp30
 70
     0
102
RTVSPost2010Prop31
280
     0
102
RTVSPost2010PropOp31
 70
     0
102
RTVSPost2010Prop32
280
     0
102
RTVSPost2010PropOp32
 70
     0
102
RTVSPost2010Prop33
280
     0
102
RTVSPost2010PropOp33
 70
     0
102
RTVSPost2010Prop34
280
     0
102
RTVSPost2010PropOp34
 70
     0
102
RTVSPost2010Prop35
280
     0
102
RTVSPost2010PropOp35
 70
     0
102
RTVSPost2010Prop36
280
     0
102
RTVSPost2010PropOp36
 70
     0
102
RTVSPost2010Prop37
 90
       50
102
RTVSPost2010PropOp37
 70
     0
102
RTVSPost2010Prop38
140
0.0
102
RTVSPost2010PropOp38
 70
     0
102
RTVSPost2010Prop39
140
1.0
102
RTVSPost2010PropOp39
 70
     0
102
RTVSPost2010Prop40
 90
        0
102
RTVSPost2010PropOp40
 70
     0
102
RTVSPost2010Prop41ColorIndex
 90
       18
102
RTVSPost2010Prop41ColorRGB
 90
        0
102
RTVSPost2010PropOp41
 70
     0
102
RTVSPost2010Prop42
 90
       50
102
RTVSPost2010PropOp42
 70
     0
102
RTVSPost2010Prop43
 90
        3
102
RTVSPost2010PropOp43
 70
     0
102
RTVSPost2010Prop44ColorIndex
 90
        5
102
RTVSPost2010Prop44ColorRGB
 90
      255
102
RTVSPost2010PropOp44
 70
     0
102
RTVSPost2010Prop45
280
     0
102
RTVSPost2010PropOp45
 70
     0
102
RTVSPost2010Prop46
 90
       50
102
RTVSPost2010PropOp46
 70
     0
102
RTVSPost2010Prop47
 90
       50
102
RTVSPost2010PropOp47
 70
     0
102
RTVSPost2010Prop48
 90
       50
102
RTVSPost2010PropOp48
 70
     0
102
RTVSPost2010Prop49
280
     0
102
RTVSPost2010PropOp49
 70
     0
102
RTVSPost2010Prop50
 90
       50
102
RTVSPost2010PropOp50
 70
     0
102
RTVSPost2010Prop51ColorIndex
 90
      256
102
RTVSPost2010Prop51ColorRGB
 90
-16777216
102
RTVSPost2010PropOp51
 70
     0
102
RTVSPost2010Prop52
140
1.0
102
RTVSPost2010PropOp52
 70
     0
102
RTVSPost2010Prop53
 90
        2
102
RTVSPost2010PropOp53
 70
     0
102
RTVSPost2010Prop54
  1
strokes_ogs.tif
102
RTVSPost2010PropOp54
 70
     0
102
RTVSPost2010Prop55
280
     0
102
RTVSPost2010PropOp55
 70
     0
102
RTVSPost2010Prop56
140
1.0
102
RTVSPost2010PropOp56
 70
     0
102
RTVSPost2010Prop57
140
1.0
102
RTVSPost2010PropOp57
 70
     0
  0
XRECORD
  5
139
102
{ACAD_REACTORS
330
138
102
}
330
138
100
AcDbXrecord
280
     1
102
RTVSPost2010Prop28
280
     0
102
RTVSPost2010PropOp28
 70
     1
102
RTVSPost2010Prop29
280
     1
102
RTVSPost2010PropOp29
 70
     1
102
RTVSPost2010Prop30
280
     1
102
RTVSPost2010PropOp30
 70
     1
102
RTVSPost2010Prop31
280
     0
102
RTVSPost2010PropOp31
 70
     1
102
RTVSPost2010Prop32
280
     0
102
RTVSPost2010PropOp32
 70
     1
102
RTVSPost2010Prop33
280
     0
102
RTVSPost2010PropOp33
 70
     1
102
RTVSPost2010Prop34
280
     0
102
RTVSPost2010PropOp34
 70
     1
102
RTVSPost2010Prop35
280
     0
102
RTVSPost2010PropOp35
 70
     1
102
RTVSPost2010Prop36
280
     0
102
RTVSPost2010PropOp36
 70
     1
102
RTVSPost2010Prop37
 90
       50
102
RTVSPost2010PropOp37
 70
     1
102
RTVSPost2010Prop38
140
0.0
102
RTVSPost2010PropOp38
 70
     1
102
RTVSPost2010Prop39
140
1.0
102
RTVSPost2010PropOp39
 70
     1
102
RTVSPost2010Prop40
 90
        0
102
RTVSPost2010PropOp40
 70
     1
102
RTVSPost2010Prop41ColorIndex
 90
       18
102
RTVSPost2010Prop41ColorRGB
 90
        0
102
RTVSPost2010PropOp41
 70
     1
102
RTVSPost2010Prop42
 90
       50
102
RTVSPost2010PropOp42
 70
     1
102
RTVSPost2010Prop43
 90
        3
102
RTVSPost2010PropOp43
 70
     1
102
RTVSPost2010Prop44ColorIndex
 90
        5
102
RTVSPost2010Prop44ColorRGB
 90
      255
102
RTVSPost2010PropOp44
 70
     1
102
RTVSPost2010Prop45
280
     0
102
RTVSPost2010PropOp45
 70
     1
102
RTVSPost2010Prop46
 90
       50
102
RTVSPost2010PropOp46
 70
     1
102
RTVSPost2010Prop47
 90
       50
102
RTVSPost2010PropOp47
 70
     1
102
RTVSPost2010Prop48
 90
       50
102
RTVSPost2010PropOp48
 70
     1
102
RTVSPost2010Prop49
280
     0
102
RTVSPost2010PropOp49
 70
     1
102
RTVSPost2010Prop50
 90
       50
102
RTVSPost2010PropOp50
 70
     1
102
RTVSPost2010Prop51ColorIndex
 90
      256
102
RTVSPost2010Prop51ColorRGB
 90
-16777216
102
RTVSPost2010PropOp51
 70
     0
102
RTVSPost2010Prop52
140
1.0
102
RTVSPost2010PropOp52
 70
     0
102
RTVSPost2010Prop53
 90
        2
102
RTVSPost2010PropOp53
 70
     1
102
RTVSPost2010Prop54
  1
strokes_ogs.tif
102
RTVSPost2010PropOp54
 70
     1
102
RTVSPost2010Prop55
280
     0
102
RTVSPost2010PropOp55
 70
     1
102
RTVSPost2010Prop56
140
1.0
102
RTVSPost2010PropOp56
 70
     1
102
RTVSPost2010Prop57
140
1.0
102
RTVSPost2010PropOp57
 70
     1
  0
XRECORD
  5
14F
102
{ACAD_REACTORS
330
14E
102
}
330
14E
100
AcDbXrecord
280
     1
102
RTVSPost2010Prop28
280
     0
102
RTVSPost2010PropOp28
 70
     1
102
RTVSPost2010Prop29
280
     1
102
RTVSPost2010PropOp29
 70
     1
102
RTVSPost2010Prop30
280
     1
102
RTVSPost2010PropOp30
 70
     1
102
RTVSPost2010Prop31
280
     0
102
RTVSPost2010PropOp31
 70
     1
102
RTVSPost2010Prop32
280
     0
102
RTVSPost2010PropOp32
 70
     1
102
RTVSPost2010Prop33
280
     0
102
RTVSPost2010PropOp33
 70
     1
102
RTVSPost2010Prop34
280
     0
102
RTVSPost2010PropOp34
 70
     1
102
RTVSPost2010Prop35
280
     0
102
RTVSPost2010PropOp35
 70
     1
102
RTVSPost2010Prop36
280
     0
102
RTVSPost2010PropOp36
 70
     1
102
RTVSPost2010Prop37
 90
       50
102
RTVSPost2010PropOp37
 70
     1
102
RTVSPost2010Prop38
140
0.0
102
RTVSPost2010PropOp38
 70
     1
102
RTVSPost2010Prop39
140
1.0
102
RTVSPost2010PropOp39
 70
     1
102
RTVSPost2010Prop40
 90
        0
102
RTVSPost2010PropOp40
 70
     1
102
RTVSPost2010Prop41ColorIndex
 90
       18
102
RTVSPost2010Prop41ColorRGB
 90
        0
102
RTVSPost2010PropOp41
 70
     1
102
RTVSPost2010Prop42
 90
       50
102
RTVSPost2010PropOp42
 70
     1
102
RTVSPost2010Prop43
 90
        3
102
RTVSPost2010PropOp43
 70
     1
102
RTVSPost2010Prop44ColorIndex
 90
        5
102
RTVSPost2010Prop44ColorRGB
 90
      255
102
RTVSPost2010PropOp44
 70
     1
102
RTVSPost2010Prop45
280
     0
102
RTVSPost2010PropOp45
 70
     1
102
RTVSPost2010Prop46
 90
       50
102
RTVSPost2010PropOp46
 70
     1
102
RTVSPost2010Prop47
 90
       50
102
RTVSPost2010PropOp47
 70
     1
102
RTVSPost2010Prop48
 90
       50
102
RTVSPost2010PropOp48
 70
     1
102
RTVSPost2010Prop49
280
     0
102
RTVSPost2010PropOp49
 70
     1
102
RTVSPost2010Prop50
 90
       50
102
RTVSPost2010PropOp50
 70
     1
102
RTVSPost2010Prop51ColorIndex
 90
      256
102
RTVSPost2010Prop51ColorRGB
 90
-16777216
102
RTVSPost2010PropOp51
 70
     0
102
RTVSPost2010Prop52
140
1.0
102
RTVSPost2010PropOp52
 70
     0
102
RTVSPost2010Prop53
 90
        2
102
RTVSPost2010PropOp53
 70
     1
102
RTVSPost2010Prop54
  1
strokes_ogs.tif
102
RTVSPost2010PropOp54
 70
     1
102
RTVSPost2010Prop55
280
     0
102
RTVSPost2010PropOp55
 70
     1
102
RTVSPost2010Prop56
140
1.0
102
RTVSPost2010PropOp56
 70
     1
102
RTVSPost2010Prop57
140
1.0
102
RTVSPost2010PropOp57
 70
     1
  0
XRECORD
  5
14D
102
{ACAD_REACTORS
330
14C
102
}
330
14C
100
AcDbXrecord
280
     1
102
RTVSPost2010Prop28
280
     0
102
RTVSPost2010PropOp28
 70
     1
102
RTVSPost2010Prop29
280
     1
102
RTVSPost2010PropOp29
 70
     1
102
RTVSPost2010Prop30
280
     1
102
RTVSPost2010PropOp30
 70
     1
102
RTVSPost2010Prop31
280
     0
102
RTVSPost2010PropOp31
 70
     1
102
RTVSPost2010Prop32
280
     0
102
RTVSPost2010PropOp32
 70
     1
102
RTVSPost2010Prop33
280
     0
102
RTVSPost2010PropOp33
 70
     1
102
RTVSPost2010Prop34
280
     0
102
RTVSPost2010PropOp34
 70
     1
102
RTVSPost2010Prop35
280
     0
102
RTVSPost2010PropOp35
 70
     1
102
RTVSPost2010Prop36
280
     0
102
RTVSPost2010PropOp36
 70
     1
102
RTVSPost2010Prop37
 90
       50
102
RTVSPost2010PropOp37
 70
     1
102
RTVSPost2010Prop38
140
0.0
102
RTVSPost2010PropOp38
 70
     1
102
RTVSPost2010Prop39
140
1.0
102
RTVSPost2010PropOp39
 70
     1
102
RTVSPost2010Prop40
 90
        0
102
RTVSPost2010PropOp40
 70
     1
102
RTVSPost2010Prop41ColorIndex
 90
       18
102
RTVSPost2010Prop41ColorRGB
 90
        0
102
RTVSPost2010PropOp41
 70
     1
102
RTVSPost2010Prop42
 90
       50
102
RTVSPost2010PropOp42
 70
     1
102
RTVSPost2010Prop43
 90
        3
102
RTVSPost2010PropOp43
 70
     1
102
RTVSPost2010Prop44ColorIndex
 90
        5
102
RTVSPost2010Prop44ColorRGB
 90
      255
102
RTVSPost2010PropOp44
 70
     1
102
RTVSPost2010Prop45
280
     0
102
RTVSPost2010PropOp45
 70
     1
102
RTVSPost2010Prop46
 90
       50
102
RTVSPost2010PropOp46
 70
     1
102
RTVSPost2010Prop47
 90
       50
102
RTVSPost2010PropOp47
 70
     1
102
RTVSPost2010Prop48
 90
       50
102
RTVSPost2010PropOp48
 70
     1
102
RTVSPost2010Prop49
280
     0
102
RTVSPost2010PropOp49
 70
     1
102
RTVSPost2010Prop50
 90
       50
102
RTVSPost2010PropOp50
 70
     1
102
RTVSPost2010Prop51ColorIndex
 90
      256
102
RTVSPost2010Prop51ColorRGB
 90
-16777216
102
RTVSPost2010PropOp51
 70
     0
102
RTVSPost2010Prop52
140
1.0
102
RTVSPost2010PropOp52
 70
     0
102
RTVSPost2010Prop53
 90
        2
102
RTVSPost2010PropOp53
 70
     1
102
RTVSPost2010Prop54
  1
strokes_ogs.tif
102
RTVSPost2010PropOp54
 70
     1
102
RTVSPost2010Prop55
280
     0
102
RTVSPost2010PropOp55
 70
     1
102
RTVSPost2010Prop56
140
1.0
102
RTVSPost2010PropOp56
 70
     1
102
RTVSPost2010Prop57
140
1.0
102
RTVSPost2010PropOp57
 70
     1
  0
XRECORD
  5
147
102
{ACAD_REACTORS
330
146
102
}
330
146
100
AcDbXrecord
280
     1
102
RTVSPost2010Prop28
280
     0
102
RTVSPost2010PropOp28
 70
     1
102
RTVSPost2010Prop29
280
     1
102
RTVSPost2010PropOp29
 70
     1
102
RTVSPost2010Prop30
280
     1
102
RTVSPost2010PropOp30
 70
     1
102
RTVSPost2010Prop31
280
     0
102
RTVSPost2010PropOp31
 70
     1
102
RTVSPost2010Prop32
280
     0
102
RTVSPost2010PropOp32
 70
     1
102
RTVSPost2010Prop33
280
     0
102
RTVSPost2010PropOp33
 70
     1
102
RTVSPost2010Prop34
280
     0
102
RTVSPost2010PropOp34
 70
     1
102
RTVSPost2010Prop35
280
     0
102
RTVSPost2010PropOp35
 70
     1
102
RTVSPost2010Prop36
280
     0
102
RTVSPost2010PropOp36
 70
     1
102
RTVSPost2010Prop37
 90
       50
102
RTVSPost2010PropOp37
 70
     1
102
RTVSPost2010Prop38
140
0.0
102
RTVSPost2010PropOp38
 70
     1
102
RTVSPost2010Prop39
140
1.0
102
RTVSPost2010PropOp39
 70
     1
102
RTVSPost2010Prop40
 90
        0
102
RTVSPost2010PropOp40
 70
     1
102
RTVSPost2010Prop41ColorIndex
 90
       18
102
RTVSPost2010Prop41ColorRGB
 90
        0
102
RTVSPost2010PropOp41
 70
     1
102
RTVSPost2010Prop42
 90
       50
102
RTVSPost2010PropOp42
 70
     1
102
RTVSPost2010Prop43
 90
        3
102
RTVSPost2010PropOp43
 70
     1
102
RTVSPost2010Prop44ColorIndex
 90
        5
102
RTVSPost2010Prop44ColorRGB
 90
      255
102
RTVSPost2010PropOp44
 70
     1
102
RTVSPost2010Prop45
280
     0
102
RTVSPost2010PropOp45
 70
     1
102
RTVSPost2010Prop46
 90
       50
102
RTVSPost2010PropOp46
 70
     1
102
RTVSPost2010Prop47
 90
       50
102
RTVSPost2010PropOp47
 70
     1
102
RTVSPost2010Prop48
 90
       50
102
RTVSPost2010PropOp48
 70
     1
102
RTVSPost2010Prop49
280
     0
102
RTVSPost2010PropOp49
 70
     1
102
RTVSPost2010Prop50
 90
       50
102
RTVSPost2010PropOp50
 70
     1
102
RTVSPost2010Prop51ColorIndex
 90
      256
102
RTVSPost2010Prop51ColorRGB
 90
-16777216
102
RTVSPost2010PropOp51
 70
     0
102
RTVSPost2010Prop52
140
1.0
102
RTVSPost2010PropOp52
 70
     0
102
RTVSPost2010Prop53
 90
        2
102
RTVSPost2010PropOp53
 70
     1
102
RTVSPost2010Prop54
  1
strokes_ogs.tif
102
RTVSPost2010PropOp54
 70
     1
102
RTVSPost2010Prop55
280
     0
102
RTVSPost2010PropOp55
 70
     1
102
RTVSPost2010Prop56
140
1.0
102
RTVSPost2010PropOp56
 70
     1
102
RTVSPost2010Prop57
140
1.0
102
RTVSPost2010PropOp57
 70
     1
  0
XRECORD
  5
149
102
{ACAD_REACTORS
330
148
102
}
330
148
100
AcDbXrecord
280
     1
102
RTVSPost2010Prop28
280
     0
102
RTVSPost2010PropOp28
 70
     1
102
RTVSPost2010Prop29
280
     1
102
RTVSPost2010PropOp29
 70
     1
102
RTVSPost2010Prop30
280
     1
102
RTVSPost2010PropOp30
 70
     1
102
RTVSPost2010Prop31
280
     0
102
RTVSPost2010PropOp31
 70
     1
102
RTVSPost2010Prop32
280
     0
102
RTVSPost2010PropOp32
 70
     1
102
RTVSPost2010Prop33
280
     0
102
RTVSPost2010PropOp33
 70
     1
102
RTVSPost2010Prop34
280
     0
102
RTVSPost2010PropOp34
 70
     1
102
RTVSPost2010Prop35
280
     0
102
RTVSPost2010PropOp35
 70
     1
102
RTVSPost2010Prop36
280
     0
102
RTVSPost2010PropOp36
 70
     1
102
RTVSPost2010Prop37
 90
       50
102
RTVSPost2010PropOp37
 70
     1
102
RTVSPost2010Prop38
140
0.0
102
RTVSPost2010PropOp38
 70
     1
102
RTVSPost2010Prop39
140
1.0
102
RTVSPost2010PropOp39
 70
     1
102
RTVSPost2010Prop40
 90
        0
102
RTVSPost2010PropOp40
 70
     1
102
RTVSPost2010Prop41ColorIndex
 90
       18
102
RTVSPost2010Prop41ColorRGB
 90
        0
102
RTVSPost2010PropOp41
 70
     1
102
RTVSPost2010Prop42
 90
       50
102
RTVSPost2010PropOp42
 70
     1
102
RTVSPost2010Prop43
 90
        3
102
RTVSPost2010PropOp43
 70
     1
102
RTVSPost2010Prop44ColorIndex
 90
        5
102
RTVSPost2010Prop44ColorRGB
 90
      255
102
RTVSPost2010PropOp44
 70
     1
102
RTVSPost2010Prop45
280
     0
102
RTVSPost2010PropOp45
 70
     1
102
RTVSPost2010Prop46
 90
       50
102
RTVSPost2010PropOp46
 70
     1
102
RTVSPost2010Prop47
 90
       50
102
RTVSPost2010PropOp47
 70
     1
102
RTVSPost2010Prop48
 90
       50
102
RTVSPost2010PropOp48
 70
     1
102
RTVSPost2010Prop49
280
     0
102
RTVSPost2010PropOp49
 70
     1
102
RTVSPost2010Prop50
 90
       50
102
RTVSPost2010PropOp50
 70
     1
102
RTVSPost2010Prop51ColorIndex
 90
      256
102
RTVSPost2010Prop51ColorRGB
 90
-16777216
102
RTVSPost2010PropOp51
 70
     0
102
RTVSPost2010Prop52
140
1.0
102
RTVSPost2010PropOp52
 70
     0
102
RTVSPost2010Prop53
 90
        2
102
RTVSPost2010PropOp53
 70
     1
102
RTVSPost2010Prop54
  1
strokes_ogs.tif
102
RTVSPost2010PropOp54
 70
     1
102
RTVSPost2010Prop55
280
     0
102
RTVSPost2010PropOp55
 70
     1
102
RTVSPost2010Prop56
140
1.0
102
RTVSPost2010PropOp56
 70
     1
102
RTVSPost2010Prop57
140
1.0
102
RTVSPost2010PropOp57
 70
     1
  0
XRECORD
  5
13F
102
{ACAD_REACTORS
330
13E
102
}
330
13E
100
AcDbXrecord
280
     1
102
RTVSPost2010Prop28
280
     0
102
RTVSPost2010PropOp28
 70
     1
102
RTVSPost2010Prop29
280
     1
102
RTVSPost2010PropOp29
 70
     1
102
RTVSPost2010Prop30
280
     1
102
RTVSPost2010PropOp30
 70
     1
102
RTVSPost2010Prop31
280
     0
102
RTVSPost2010PropOp31
 70
     1
102
RTVSPost2010Prop32
280
     0
102
RTVSPost2010PropOp32
 70
     1
102
RTVSPost2010Prop33
280
     0
102
RTVSPost2010PropOp33
 70
     1
102
RTVSPost2010Prop34
280
     0
102
RTVSPost2010PropOp34
 70
     1
102
RTVSPost2010Prop35
280
     0
102
RTVSPost2010PropOp35
 70
     1
102
RTVSPost2010Prop36
280
     0
102
RTVSPost2010PropOp36
 70
     1
102
RTVSPost2010Prop37
 90
       50
102
RTVSPost2010PropOp37
 70
     1
102
RTVSPost2010Prop38
140
0.0
102
RTVSPost2010PropOp38
 70
     1
102
RTVSPost2010Prop39
140
1.0
102
RTVSPost2010PropOp39
 70
     1
102
RTVSPost2010Prop40
 90
        0
102
RTVSPost2010PropOp40
 70
     1
102
RTVSPost2010Prop41ColorIndex
 90
       18
102
RTVSPost2010Prop41ColorRGB
 90
        0
102
RTVSPost2010PropOp41
 70
     1
102
RTVSPost2010Prop42
 90
       50
102
RTVSPost2010PropOp42
 70
     1
102
RTVSPost2010Prop43
 90
        3
102
RTVSPost2010PropOp43
 70
     1
102
RTVSPost2010Prop44ColorIndex
 90
        5
102
RTVSPost2010Prop44ColorRGB
 90
      255
102
RTVSPost2010PropOp44
 70
     1
102
RTVSPost2010Prop45
280
     0
102
RTVSPost2010PropOp45
 70
     1
102
RTVSPost2010Prop46
 90
       50
102
RTVSPost2010PropOp46
 70
     1
102
RTVSPost2010Prop47
 90
       50
102
RTVSPost2010PropOp47
 70
     1
102
RTVSPost2010Prop48
 90
       50
102
RTVSPost2010PropOp48
 70
     1
102
RTVSPost2010Prop49
280
     0
102
RTVSPost2010PropOp49
 70
     1
102
RTVSPost2010Prop50
 90
       50
102
RTVSPost2010PropOp50
 70
     1
102
RTVSPost2010Prop51ColorIndex
 90
      256
102
RTVSPost2010Prop51ColorRGB
 90
-16777216
102
RTVSPost2010PropOp51
 70
     0
102
RTVSPost2010Prop52
140
1.0
102
RTVSPost2010PropOp52
 70
     0
102
RTVSPost2010Prop53
 90
        2
102
RTVSPost2010PropOp53
 70
     1
102
RTVSPost2010Prop54
  1
strokes_ogs.tif
102
RTVSPost2010PropOp54
 70
     1
102
RTVSPost2010Prop55
280
     0
102
RTVSPost2010PropOp55
 70
     1
102
RTVSPost2010Prop56
140
1.0
102
RTVSPost2010PropOp56
 70
     1
102
RTVSPost2010Prop57
140
1.0
102
RTVSPost2010PropOp57
 70
     1
  0
XRECORD
  5
133
102
{ACAD_REACTORS
330
132
102
}
330
132
100
AcDbXrecord
280
     1
102
RTVSPost2010Prop28
280
     0
102
RTVSPost2010PropOp28
 70
     1
102
RTVSPost2010Prop29
280
     1
102
RTVSPost2010PropOp29
 70
     1
102
RTVSPost2010Prop30
280
     1
102
RTVSPost2010PropOp30
 70
     1
102
RTVSPost2010Prop31
280
     0
102
RTVSPost2010PropOp31
 70
     1
102
RTVSPost2010Prop32
280
     0
102
RTVSPost2010PropOp32
 70
     1
102
RTVSPost2010Prop33
280
     0
102
RTVSPost2010PropOp33
 70
     1
102
RTVSPost2010Prop34
280
     0
102
RTVSPost2010PropOp34
 70
     1
102
RTVSPost2010Prop35
280
     0
102
RTVSPost2010PropOp35
 70
     1
102
RTVSPost2010Prop36
280
     0
102
RTVSPost2010PropOp36
 70
     1
102
RTVSPost2010Prop37
 90
       50
102
RTVSPost2010PropOp37
 70
     1
102
RTVSPost2010Prop38
140
0.0
102
RTVSPost2010PropOp38
 70
     1
102
RTVSPost2010Prop39
140
1.0
102
RTVSPost2010PropOp39
 70
     1
102
RTVSPost2010Prop40
 90
        0
102
RTVSPost2010PropOp40
 70
     1
102
RTVSPost2010Prop41ColorIndex
 90
       18
102
RTVSPost2010Prop41ColorRGB
 90
        0
102
RTVSPost2010PropOp41
 70
     1
102
RTVSPost2010Prop42
 90
       50
102
RTVSPost2010PropOp42
 70
     1
102
RTVSPost2010Prop43
 90
        3
102
RTVSPost2010PropOp43
 70
     1
102
RTVSPost2010Prop44ColorIndex
 90
        5
102
RTVSPost2010Prop44ColorRGB
 90
      255
102
RTVSPost2010PropOp44
 70
     1
102
RTVSPost2010Prop45
280
     0
102
RTVSPost2010PropOp45
 70
     1
102
RTVSPost2010Prop46
 90
       50
102
RTVSPost2010PropOp46
 70
     1
102
RTVSPost2010Prop47
 90
       50
102
RTVSPost2010PropOp47
 70
     1
102
RTVSPost2010Prop48
 90
       50
102
RTVSPost2010PropOp48
 70
     1
102
RTVSPost2010Prop49
280
     0
102
RTVSPost2010PropOp49
 70
     1
102
RTVSPost2010Prop50
 90
       50
102
RTVSPost2010PropOp50
 70
     1
102
RTVSPost2010Prop51ColorIndex
 90
      256
102
RTVSPost2010Prop51ColorRGB
 90
-16777216
102
RTVSPost2010PropOp51
 70
     0
102
RTVSPost2010Prop52
140
1.0
102
RTVSPost2010PropOp52
 70
     0
102
RTVSPost2010Prop53
 90
        2
102
RTVSPost2010PropOp53
 70
     1
102
RTVSPost2010Prop54
  1
strokes_ogs.tif
102
RTVSPost2010PropOp54
 70
     1
102
RTVSPost2010Prop55
280
     0
102
RTVSPost2010PropOp55
 70
     1
102
RTVSPost2010Prop56
140
1.0
102
RTVSPost2010PropOp56
 70
     1
102
RTVSPost2010Prop57
140
1.0
102
RTVSPost2010PropOp57
 70
     1
  0
XRECORD
  5
14B
102
{ACAD_REACTORS
330
14A
102
}
330
14A
100
AcDbXrecord
280
     1
102
RTVSPost2010Prop28
280
     0
102
RTVSPost2010PropOp28
 70
     1
102
RTVSPost2010Prop29
280
     1
102
RTVSPost2010PropOp29
 70
     1
102
RTVSPost2010Prop30
280
     1
102
RTVSPost2010PropOp30
 70
     1
102
RTVSPost2010Prop31
280
     0
102
RTVSPost2010PropOp31
 70
     1
102
RTVSPost2010Prop32
280
     0
102
RTVSPost2010PropOp32
 70
     1
102
RTVSPost2010Prop33
280
     0
102
RTVSPost2010PropOp33
 70
     1
102
RTVSPost2010Prop34
280
     0
102
RTVSPost2010PropOp34
 70
     1
102
RTVSPost2010Prop35
280
     0
102
RTVSPost2010PropOp35
 70
     1
102
RTVSPost2010Prop36
280
     0
102
RTVSPost2010PropOp36
 70
     1
102
RTVSPost2010Prop37
 90
       50
102
RTVSPost2010PropOp37
 70
     1
102
RTVSPost2010Prop38
140
0.0
102
RTVSPost2010PropOp38
 70
     1
102
RTVSPost2010Prop39
140
1.0
102
RTVSPost2010PropOp39
 70
     1
102
RTVSPost2010Prop40
 90
        0
102
RTVSPost2010PropOp40
 70
     1
102
RTVSPost2010Prop41ColorIndex
 90
       18
102
RTVSPost2010Prop41ColorRGB
 90
        0
102
RTVSPost2010PropOp41
 70
     1
102
RTVSPost2010Prop42
 90
       50
102
RTVSPost2010PropOp42
 70
     1
102
RTVSPost2010Prop43
 90
        3
102
RTVSPost2010PropOp43
 70
     1
102
RTVSPost2010Prop44ColorIndex
 90
        5
102
RTVSPost2010Prop44ColorRGB
 90
      255
102
RTVSPost2010PropOp44
 70
     1
102
RTVSPost2010Prop45
280
     0
102
RTVSPost2010PropOp45
 70
     1
102
RTVSPost2010Prop46
 90
       50
102
RTVSPost2010PropOp46
 70
     1
102
RTVSPost2010Prop47
 90
       50
102
RTVSPost2010PropOp47
 70
     1
102
RTVSPost2010Prop48
 90
       50
102
RTVSPost2010PropOp48
 70
     1
102
RTVSPost2010Prop49
280
     0
102
RTVSPost2010PropOp49
 70
     1
102
RTVSPost2010Prop50
 90
       50
102
RTVSPost2010PropOp50
 70
     1
102
RTVSPost2010Prop51ColorIndex
 90
      256
102
RTVSPost2010Prop51ColorRGB
 90
-16777216
102
RTVSPost2010PropOp51
 70
     0
102
RTVSPost2010Prop52
140
1.0
102
RTVSPost2010PropOp52
 70
     0
102
RTVSPost2010Prop53
 90
        2
102
RTVSPost2010PropOp53
 70
     1
102
RTVSPost2010Prop54
  1
strokes_ogs.tif
102
RTVSPost2010PropOp54
 70
     1
102
RTVSPost2010Prop55
280
     0
102
RTVSPost2010PropOp55
 70
     1
102
RTVSPost2010Prop56
140
1.0
102
RTVSPost2010PropOp56
 70
     1
102
RTVSPost2010Prop57
140
1.0
102
RTVSPost2010PropOp57
 70
     1
  0
ENDSEC
  0
EOF
