  0
SECTION
  2
HEADER
  9
$ACADVER
  1
AC1024
  9
$ACADMAINTVER
 70
   226
  9
$DWGCODEPAGE
  3
ANSI_932
  9
$INSBASE
 10
0.0
 20
0.0
 30
0.0
  9
$EXTMIN
 10
1.000000000000000E+20
 20
1.000000000000000E+20
 30
1.000000000000000E+20
  9
$EXTMAX
 10
-1.000000000000000E+20
 20
-1.000000000000000E+20
 30
-1.000000000000000E+20
  9
$LIMMIN
 10
0.0
 20
0.0
  9
$LIMMAX
 10
12.0
 20
9.0
  9
$ORTHOMODE
 70
     0
  9
$REGENMODE
 70
     1
  9
$FILLMODE
 70
     1
  9
$QTEXTMODE
 70
     0
  9
$MIRRTEXT
 70
     0
  9
$LTSCALE
 40
1.0
  9
$ATTMODE
 70
     1
  9
$TEXTSIZE
 40
0.2
  9
$TRACEWID
 40
0.05
  9
$TEXTSTYLE
  7
Standard
  9
$CLAYER
  8
0
  9
$CELTYPE
  6
ByLayer
  9
$CECOLOR
 62
   256
  9
$CELTSCALE
 40
1.0
  9
$DISPSILH
 70
     0
  9
$DIMSCALE
 40
1.0
  9
$DIMASZ
 40
0.18
  9
$DIMEXO
 40
0.0625
  9
$DIMDLI
 40
0.38
  9
$DIMRND
 40
0.0
  9
$DIMDLE
 40
0.0
  9
$DIMEXE
 40
0.18
  9
$DIMTP
 40
0.0
  9
$DIMTM
 40
0.0
  9
$DIMTXT
 40
0.18
  9
$DIMCEN
 40
0.09
  9
$DIMTSZ
 40
0.0
  9
$DIMTOL
 70
     0
  9
$DIMLIM
 70
     0
  9
$DIMTIH
 70
     1
  9
$DIMTOH
 70
     1
  9
$DIMSE1
 70
     0
  9
$DIMSE2
 70
     0
  9
$DIMTAD
 70
     0
  9
$DIMZIN
 70
     0
  9
$DIMBLK
  1

  9
$DIMASO
 70
     1
  9
$DIMSHO
 70
     1
  9
$DIMPOST
  1

  9
$DIMAPOST
  1

  9
$DIMALT
 70
     0
  9
$DIMALTD
 70
     2
  9
$DIMALTF
 40
25.4
  9
$DIMLFAC
 40
1.0
  9
$DIMTOFL
 70
     0
  9
$DIMTVP
 40
0.0
  9
$DIMTIX
 70
     0
  9
$DIMSOXD
 70
     0
  9
$DIMSAH
 70
     0
  9
$DIMBLK1
  1

  9
$DIMBLK2
  1

  9
$DIMSTYLE
  2
Standard
  9
$DIMCLRD
 70
     0
  9
$DIMCLRE
 70
     0
  9
$DIMCLRT
 70
     0
  9
$DIMTFAC
 40
1.0
  9
$DIMGAP
 40
0.09
  9
$DIMJUST
 70
     0
  9
$DIMSD1
 70
     0
  9
$DIMSD2
 70
     0
  9
$DIMTOLJ
 70
     1
  9
$DIMTZIN
 70
     0
  9
$DIMALTZ
 70
     0
  9
$DIMALTTZ
 70
     0
  9
$DIMUPT
 70
     0
  9
$DIMDEC
 70
     4
  9
$DIMTDEC
 70
     4
  9
$DIMALTU
 70
     2
  9
$DIMALTTD
 70
     2
  9
$DIMTXSTY
  7
Standard
  9
$DIMAUNIT
 70
     0
  9
$DIMADEC
 70
     0
  9
$DIMALTRND
 40
0.0
  9
$DIMAZIN
 70
     0
  9
$DIMDSEP
 70
    46
  9
$DIMATFIT
 70
     3
  9
$DIMFRAC
 70
     0
  9
$DIMLDRBLK
  1

  9
$DIMLUNIT
 70
     2
  9
$DIMLWD
 70
    -2
  9
$DIMLWE
 70
    -2
  9
$DIMTMOVE
 70
     0
  9
$DIMFXL
 40
1.0
  9
$DIMFXLON
 70
     0
  9
$DIMJOGANG
 40
0.7853981633974483
  9
$DIMTFILL
 70
     0
  9
$DIMTFILLCLR
 70
     0
  9
$DIMARCSYM
 70
     0
  9
$DIMLTYPE
  6

  9
$DIMLTEX1
  6

  9
$DIMLTEX2
  6

  9
$DIMTXTDIRECTION
 70
     0
  9
$LUNITS
 70
     2
  9
$LUPREC
 70
     4
  9
$SKETCHINC
 40
0.1
  9
$FILLETRAD
 40
0.0
  9
$AUNITS
 70
     0
  9
$AUPREC
 70
     0
  9
$MENU
  1
.
  9
$ELEVATION
 40
0.0
  9
$PELEVATION
 40
0.0
  9
$THICKNESS
 40
0.0
  9
$LIMCHECK
 70
     0
  9
$CHAMFERA
 40
0.0
  9
$CHAMFERB
 40
0.0
  9
$CHAMFERC
 40
0.0
  9
$CHAMFERD
 40
0.0
  9
$SKPOLY
 70
     0
  9
$TDCREATE
 40
2459569.490196760
  9
$TDUCREATE
 40
2459569.115196759
  9
$TDUPDATE
 40
2459569.490196760
  9
$TDUUPDATE
 40
2459569.115196759
  9
$TDINDWG
 40
0.0000000000
  9
$TDUSRTIMER
 40
0.0000000000
  9
$USRTIMER
 70
     1
  9
$ANGBASE
 50
0.0
  9
$ANGDIR
 70
     0
  9
$PDMODE
 70
     0
  9
$PDSIZE
 40
0.0
  9
$PLINEWID
 40
0.0
  9
$SPLFRAME
 70
     0
  9
$SPLINETYPE
 70
     6
  9
$SPLINESEGS
 70
     8
  9
$HANDSEED
  5
155
  9
$SURFTAB1
 70
     6
  9
$SURFTAB2
 70
     6
  9
$SURFTYPE
 70
     6
  9
$SURFU
 70
     6
  9
$SURFV
 70
     6
  9
$UCSBASE
  2

  9
$UCSNAME
  2

  9
$UCSORG
 10
0.0
 20
0.0
 30
0.0
  9
$UCSXDIR
 10
1.0
 20
0.0
 30
0.0
  9
$UCSYDIR
 10
0.0
 20
1.0
 30
0.0
  9
$UCSORTHOREF
  2

  9
$UCSORTHOVIEW
 70
     0
  9
$UCSORGTOP
 10
0.0
 20
0.0
 30
0.0
  9
$UCSORGBOTTOM
 10
0.0
 20
0.0
 30
0.0
  9
$UCSORGLEFT
 10
0.0
 20
0.0
 30
0.0
  9
$UCSORGRIGHT
 10
0.0
 20
0.0
 30
0.0
  9
$UCSORGFRONT
 10
0.0
 20
0.0
 30
0.0
  9
$UCSORGBACK
 10
0.0
 20
0.0
 30
0.0
  9
$PUCSBASE
  2

  9
$PUCSNAME
  2

  9
$PUCSORG
 10
0.0
 20
0.0
 30
0.0
  9
$PUCSXDIR
 10
1.0
 20
0.0
 30
0.0
  9
$PUCSYDIR
 10
0.0
 20
1.0
 30
0.0
  9
$PUCSORTHOREF
  2

  9
$PUCSORTHOVIEW
 70
     0
  9
$PUCSORGTOP
 10
0.0
 20
0.0
 30
0.0
  9
$PUCSORGBOTTOM
 10
0.0
 20
0.0
 30
0.0
  9
$PUCSORGLEFT
 10
0.0
 20
0.0
 30
0.0
  9
$PUCSORGRIGHT
 10
0.0
 20
0.0
 30
0.0
  9
$PUCSORGFRONT
 10
0.0
 20
0.0
 30
0.0
  9
$PUCSORGBACK
 10
0.0
 20
0.0
 30
0.0
  9
$USERI1
 70
     0
  9
$USERI2
 70
     0
  9
$USERI3
 70
     0
  9
$USERI4
 70
     0
  9
$USERI5
 70
     0
  9
$USERR1
 40
0.0
  9
$USERR2
 40
0.0
  9
$USERR3
 40
0.0
  9
$USERR4
 40
0.0
  9
$USERR5
 40
0.0
  9
$WORLDVIEW
 70
     1
  9
$SHADEDGE
 70
     3
  9
$SHADEDIF
 70
    70
  9
$TILEMODE
 70
     1
  9
$MAXACTVP
 70
    64
  9
$PINSBASE
 10
0.0
 20
0.0
 30
0.0
  9
$PLIMCHECK
 70
     0
  9
$PEXTMIN
 10
1.000000000000000E+20
 20
1.000000000000000E+20
 30
1.000000000000000E+20
  9
$PEXTMAX
 10
-1.000000000000000E+20
 20
-1.000000000000000E+20
 30
-1.000000000000000E+20
  9
$PLIMMIN
 10
0.0
 20
0.0
  9
$PLIMMAX
 10
12.0
 20
9.0
  9
$UNITMODE
 70
     0
  9
$VISRETAIN
 70
     1
  9
$PLINEGEN
 70
     0
  9
$PSLTSCALE
 70
     1
  9
$TREEDEPTH
 70
  3020
  9
$CMLSTYLE
  2
Standard
  9
$CMLJUST
 70
     0
  9
$CMLSCALE
 40
1.0
  9
$PROXYGRAPHICS
 70
     1
  9
$MEASUREMENT
 70
     0
  9
$CELWEIGHT
370
    -1
  9
$ENDCAPS
280
     0
  9
$JOINSTYLE
280
     0
  9
$LWDISPLAY
290
     1
  9
$INSUNITS
 70
     4
  9
$HYPERLINKBASE
  1

  9
$STYLESHEET
  1

  9
$XEDIT
290
     1
  9
$CEPSNTYPE
380
     0
  9
$PSTYLEMODE
290
     1
  9
$FINGERPRINTGUID
  2
{E8BB59CE-4F15-1F45-BEF3-722DBF2D2ED9}
  9
$VERSIONGUID
  2
{F28A6FBC-C5C1-FC4F-81B4-933B2E99CEE9}
  9
$EXTNAMES
290
     1
  9
$PSVPSCALE
 40
0.0
  9
$OLESTARTUP
290
     0
  9
$SORTENTS
280
   127
  9
$INDEXCTL
280
     0
  9
$HIDETEXT
280
     1
  9
$XCLIPFRAME
280
     2
  9
$HALOGAP
280
     0
  9
$OBSCOLOR
 70
   257
  9
$OBSLTYPE
280
     0
  9
$INTERSECTIONDISPLAY
280
     0
  9
$INTERSECTIONCOLOR
 70
   257
  9
$DIMASSOC
280
     2
  9
$PROJECTNAME
  1

  9
$CAMERADISPLAY
290
     0
  9
$LENSLENGTH
 40
50.0
  9
$CAMERAHEIGHT
 40
0.0
  9
$STEPSPERSEC
 40
2.0
  9
$STEPSIZE
 40
6.0
  9
$3DDWFPREC
 40
2.0
  9
$PSOLWIDTH
 40
0.25
  9
$PSOLHEIGHT
 40
4.0
  9
$LOFTANG1
 40
1.570796326794896
  9
$LOFTANG2
 40
1.570796326794896
  9
$LOFTMAG1
 40
0.0
  9
$LOFTMAG2
 40
0.0
  9
$LOFTPARAM
 70
     7
  9
$LOFTNORMALS
280
     1
  9
$LATITUDE
 40
37.795
  9
$LONGITUDE
 40
-122.394
  9
$NORTHDIRECTION
 40
0.0
  9
$TIMEZONE
 70
 -8000
  9
$LIGHTGLYPHDISPLAY
280
     1
  9
$TILEMODELIGHTSYNCH
280
     1
  9
$CMATERIAL
347
11
  9
$SOLIDHIST
280
     0
  9
$SHOWHIST
280
     1
  9
$DWFFRAME
280
     2
  9
$DGNFRAME
280
     0
  9
$REALWORLDSCALE
290
     1
  9
$INTERFERECOLOR
 62
     1
  9
$INTERFEREOBJVS
345
33
  9
$INTERFEREVPVS
346
30
  9
$CSHADOW
280
     0
  9
$SHADOWPLANELOCATION
 40
0.0
  0
ENDSEC
  0
SECTION
  2
CLASSES
  0
CLASS
  1
ACDBDICTIONARYWDFLT
  2
AcDbDictionaryWithDefault
  3
ObjectDBX Classes
 90
        0
 91
        1
280
     0
281
     0
  0
CLASS
  1
MATERIAL
  2
AcDbMaterial
  3
ObjectDBX Classes
 90
     1153
 91
        3
280
     0
281
     0
  0
CLASS
  1
VISUALSTYLE
  2
AcDbVisualStyle
  3
ObjectDBX Classes
 90
     4095
 91
       24
280
     0
281
     0
  0
CLASS
  1
SCALE
  2
AcDbScale
  3
ObjectDBX Classes
 90
     1153
 91
       17
280
     0
281
     0
  0
CLASS
  1
TABLESTYLE
  2
AcDbTableStyle
  3
ObjectDBX Classes
 90
     4095
 91
        1
280
     0
281
     0
  0
CLASS
  1
MLEADERSTYLE
  2
AcDbMLeaderStyle
  3
ACDB_MLEADERSTYLE_CLASS
 90
     4095
 91
        1
280
     0
281
     0
  0
CLASS
  1
ACDBSECTIONVIEWSTYLE
  2
AcDbSectionViewStyle
  3
ObjectDBX Classes
 90
     1025
 91
        1
280
     0
281
     0
  0
CLASS
  1
ACDBDETAILVIEWSTYLE
  2
AcDbDetailViewStyle
  3
ObjectDBX Classes
 90
     1025
 91
        1
280
     0
281
     0
  0
CLASS
  1
DICTIONARYVAR
  2
AcDbDictionaryVar
  3
ObjectDBX Classes
 90
        0
 91
        5
280
     0
281
     0
  0
CLASS
  1
CELLSTYLEMAP
  2
AcDbCellStyleMap
  3
ObjectDBX Classes
 90
     1152
 91
        1
280
     0
281
     0
  0
ENDSEC
  0
SECTION
  2
TABLES
  0
TABLE
  2
VPORT
  5
8
330
0
100
AcDbSymbolTable
 70
     1
  0
VPORT
  5
57
330
8
100
AcDbSymbolTableRecord
100
AcDbViewportTableRecord
  2
*Active
 70
     0
 10
0.0
 20
0.0
 11
1.0
 21
1.0
 12
0.0
 22
0.0
 13
0.0
 23
0.0
 14
1.0
 24
1.0
 15
0.0
 25
0.0
 16
0.0
 26
0.0
 36
1.0
 17
104.9999999737534
 27
-148.4999999628701
 37
0.0
 40
302.939999924255
 41
0.7070707070707534
 42
50.0
 43
0.0
 44
0.0
 50
0.0
 51
0.0
 71
     0
 72
   100
 73
     1
 74
     0
 75
     1
 76
     0
 77
     0
 78
     0
281
     0
 65
     1
110
0.0
120
0.0
130
0.0
111
1.0
121
0.0
131
0.0
112
0.0
122
1.0
132
0.0
 79
     0
146
0.0
 60
     3
 61
     5
292
     1
282
     1
141
0.0
142
0.0
 63
   250
421
  3355443
  0
ENDTAB
  0
TABLE
  2
LTYPE
  5
5
330
0
100
AcDbSymbolTable
 70
     1
  0
LTYPE
  5
5B
330
5
100
AcDbSymbolTableRecord
100
AcDbLinetypeTableRecord
  2
ByBlock
 70
     0
  3

 72
    65
 73
     0
 40
0.0
  0
LTYPE
  5
5C
330
5
100
AcDbSymbolTableRecord
100
AcDbLinetypeTableRecord
  2
ByLayer
 70
     0
  3

 72
    65
 73
     0
 40
0.0
  0
LTYPE
  5
5D
330
5
100
AcDbSymbolTableRecord
100
AcDbLinetypeTableRecord
  2
Continuous
 70
     0
  3
Solid line
 72
    65
 73
     0
 40
0.0
  0
ENDTAB
  0
TABLE
  2
LAYER
  5
2
330
0
100
AcDbSymbolTable
 70
     2
  0
LAYER
  5
54
330
2
100
AcDbSymbolTableRecord
100
AcDbLayerTableRecord
  2
0
 70
     0
 62
     7
  6
Continuous
370
    -3
390
F
347
21
  0
LAYER
  5
78
330
2
100
AcDbSymbolTableRecord
100
AcDbLayerTableRecord
  2
レイヤー 1
 70
     0
 62
     7
  6
Continuous
370
     0
390
F
347
21
  0
ENDTAB
  0
TABLE
  2
STYLE
  5
3
330
0
100
AcDbSymbolTable
 70
     2
  0
STYLE
  5
55
330
3
100
AcDbSymbolTableRecord
100
AcDbTextStyleTableRecord
  2
Standard
 70
     0
 40
0.0
 41
1.0
 50
0.0
 71
     0
 42
0.2
  3
txt
  4

  0
STYLE
  5
5A
330
3
100
AcDbSymbolTableRecord
100
AcDbTextStyleTableRecord
  2
Annotative
 70
     0
 40
0.0
 41
1.0
 50
0.0
 71
     0
 42
0.2
  3
txt
  4

1001
AcadAnnotative
1000
AnnotativeData
1002
{
1070
     1
1070
     1
1002
}
  0
ENDTAB
  0
TABLE
  2
VIEW
  5
6
330
0
100
AcDbSymbolTable
 70
     0
  0
ENDTAB
  0
TABLE
  2
UCS
  5
7
330
0
100
AcDbSymbolTable
 70
     0
  0
ENDTAB
  0
TABLE
  2
APPID
  5
9
330
0
100
AcDbSymbolTable
 70
     2
  0
APPID
  5
56
330
9
100
AcDbSymbolTableRecord
100
AcDbRegAppTableRecord
  2
ACAD
 70
     0
  0
APPID
  5
5E
330
9
100
AcDbSymbolTableRecord
100
AcDbRegAppTableRecord
  2
AcadAnnotative
 70
     0
  0
ENDTAB
  0
TABLE
  2
DIMSTYLE
  5
A
330
0
100
AcDbSymbolTable
 70
     2
100
AcDbDimStyleTable
 71
     0
  0
DIMSTYLE
105
58
330
A
100
AcDbSymbolTableRecord
100
AcDbDimStyleTableRecord
  2
Standard
 70
     0
340
55
  0
DIMSTYLE
105
59
330
A
100
AcDbSymbolTableRecord
100
AcDbDimStyleTableRecord
  2
Annotative
 70
     0
340
55
1001
AcadAnnotative
1000
AnnotativeData
1002
{
1070
     1
1070
     1
1002
}
  0
ENDTAB
  0
TABLE
  2
BLOCK_RECORD
  5
1
330
0
100
AcDbSymbolTable
 70
    19
  0
BLOCK_RECORD
  5
70
330
1
100
AcDbSymbolTableRecord
100
AcDbBlockTableRecord
  2
*Model_Space
340
73
 70
     0
280
     1
281
     0
  0
BLOCK_RECORD
  5
6C
330
1
100
AcDbSymbolTableRecord
100
AcDbBlockTableRecord
  2
*Paper_Space
340
6F
 70
     0
280
     1
281
     0
  0
BLOCK_RECORD
  5
74
330
1
100
AcDbSymbolTableRecord
100
AcDbBlockTableRecord
  2
*Paper_Space0
340
77
 70
     0
280
     1
281
     0
  0
BLOCK_RECORD
  5
7F
330
1
100
AcDbSymbolTableRecord
100
AcDbBlockTableRecord
  2
Block_0
340
0
102
{BLKREFS
331
80
102
}
 70
     0
280
     1
281
     0
  0
BLOCK_RECORD
  5
86
330
1
100
AcDbSymbolTableRecord
100
AcDbBlockTableRecord
  2
Block_1
340
0
102
{BLKREFS
331
87
102
}
 70
     0
280
     1
281
     0
  0
BLOCK_RECORD
  5
8A
330
1
100
AcDbSymbolTableRecord
100
AcDbBlockTableRecord
  2
Block_2
340
0
102
{BLKREFS
331
8B
102
}
 70
     0
280
     1
281
     0
  0
BLOCK_RECORD
  5
96
330
1
100
AcDbSymbolTableRecord
100
AcDbBlockTableRecord
  2
Block_3
340
0
102
{BLKREFS
331
97
102
}
 70
     0
280
     1
281
     0
  0
BLOCK_RECORD
  5
9E
330
1
100
AcDbSymbolTableRecord
100
AcDbBlockTableRecord
  2
Block_4
340
0
102
{BLKREFS
331
9F
102
}
 70
     0
280
     1
281
     0
  0
BLOCK_RECORD
  5
A2
330
1
100
AcDbSymbolTableRecord
100
AcDbBlockTableRecord
  2
Block_5
340
0
102
{BLKREFS
331
A3
102
}
 70
     0
280
     1
281
     0
  0
BLOCK_RECORD
  5
AA
330
1
100
AcDbSymbolTableRecord
100
AcDbBlockTableRecord
  2
Block_6
340
0
102
{BLKREFS
331
AB
102
}
 70
     0
280
     1
281
     0
  0
BLOCK_RECORD
  5
AE
330
1
100
AcDbSymbolTableRecord
100
AcDbBlockTableRecord
  2
Block_7
340
0
102
{BLKREFS
331
AF
102
}
 70
     0
280
     1
281
     0
  0
BLOCK_RECORD
  5
B9
330
1
100
AcDbSymbolTableRecord
100
AcDbBlockTableRecord
  2
Block_8
340
0
102
{BLKREFS
331
BA
102
}
 70
     0
280
     1
281
     0
  0
BLOCK_RECORD
  5
C0
330
1
100
AcDbSymbolTableRecord
100
AcDbBlockTableRecord
  2
Block_9
340
0
102
{BLKREFS
331
C1
102
}
 70
     0
280
     1
281
     0
  0
BLOCK_RECORD
  5
D0
330
1
100
AcDbSymbolTableRecord
100
AcDbBlockTableRecord
  2
Block_10
340
0
102
{BLKREFS
331
D1
102
}
 70
     0
280
     1
281
     0
  0
BLOCK_RECORD
  5
D6
330
1
100
AcDbSymbolTableRecord
100
AcDbBlockTableRecord
  2
Block_11
340
0
102
{BLKREFS
331
D7
102
}
 70
     0
280
     1
281
     0
  0
BLOCK_RECORD
  5
DC
330
1
100
AcDbSymbolTableRecord
100
AcDbBlockTableRecord
  2
Block_12
340
0
102
{BLKREFS
331
DD
102
}
 70
     0
280
     1
281
     0
  0
BLOCK_RECORD
  5
E9
330
1
100
AcDbSymbolTableRecord
100
AcDbBlockTableRecord
  2
Block_13
340
0
102
{BLKREFS
331
EA
102
}
 70
     0
280
     1
281
     0
  0
BLOCK_RECORD
  5
EF
330
1
100
AcDbSymbolTableRecord
100
AcDbBlockTableRecord
  2
Block_14
340
0
102
{BLKREFS
331
F0
102
}
 70
     0
280
     1
281
     0
  0
BLOCK_RECORD
  5
F6
330
1
100
AcDbSymbolTableRecord
100
AcDbBlockTableRecord
  2
Block_15
340
0
102
{BLKREFS
331
F7
102
}
 70
     0
280
     1
281
     0
  0
BLOCK_RECORD
  5
FD
330
1
100
AcDbSymbolTableRecord
100
AcDbBlockTableRecord
  2
Block_16
340
0
102
{BLKREFS
331
FE
102
}
 70
     0
280
     1
281
     0
  0
BLOCK_RECORD
  5
101
330
1
100
AcDbSymbolTableRecord
100
AcDbBlockTableRecord
  2
Block_17
340
0
102
{BLKREFS
331
102
102
}
 70
     0
280
     1
281
     0
  0
ENDTAB
  0
ENDSEC
  0
SECTION
  2
BLOCKS
  0
BLOCK
  5
71
330
70
100
AcDbEntity
  8
0
100
AcDbBlockBegin
  2
*Model_Space
 70
     0
 10
0.0
 20
0.0
 30
0.0
  3
*Model_Space
  1

  0
ENDBLK
  5
72
330
70
100
AcDbEntity
  8
0
100
AcDbBlockEnd
  0
BLOCK
  5
6D
330
6C
100
AcDbEntity
 67
     1
  8
0
100
AcDbBlockBegin
  2
*Paper_Space
 70
     0
 10
0.0
 20
0.0
 30
0.0
  3
*Paper_Space
  1

  0
ENDBLK
  5
6E
330
6C
100
AcDbEntity
 67
     1
  8
0
100
AcDbBlockEnd
  0
BLOCK
  5
75
330
74
100
AcDbEntity
 67
     1
  8
0
100
AcDbBlockBegin
  2
*Paper_Space0
 70
     0
 10
0.0
 20
0.0
 30
0.0
  3
*Paper_Space0
  1

  0
ENDBLK
  5
76
330
74
100
AcDbEntity
 67
     1
  8
0
100
AcDbBlockEnd
  0
BLOCK
  5
81
330
7F
100
AcDbEntity
  8
0
100
AcDbBlockBegin
  2
Block_0
 70
     0
 10
0.0
 20
0.0
 30
0.0
  3
Block_0
  1

  0
LINE
  5
83
330
7F
100
AcDbEntity
  8
レイヤー 1
 62
    18
420
        0
370
     9
100
AcDbLine
 10
102.8765459581245
 20
-141.2131189057588
 30
0.0
 11
122.8651861866938
 21
-141.2131189057588
 31
0.0
  0
LINE
  5
84
330
7F
100
AcDbEntity
  8
レイヤー 1
 62
    18
420
        0
370
     9
100
AcDbLine
 10
102.8765459581245
 20
-142.6731602573986
 30
0.0
 11
102.8765459581245
 21
-140.2129939312738
 31
0.0
  0
LINE
  5
85
330
7F
100
AcDbEntity
  8
レイヤー 1
 62
    18
420
        0
370
     9
100
AcDbLine
 10
122.8651860719862
 20
-142.6731602573986
 30
0.0
 11
122.8651860719862
 21
-140.2129939312738
 31
0.0
  0
INSERT
  5
87
330
7F
100
AcDbEntity
  8
レイヤー 1
100
AcDbBlockReference
  2
Block_1
 10
0.0
 20
0.0
 30
0.0
  0
ENDBLK
  5
82
330
7F
100
AcDbEntity
  8
0
100
AcDbBlockEnd
  0
BLOCK
  5
88
330
86
100
AcDbEntity
  8
0
100
AcDbBlockBegin
  2
Block_1
 70
     0
 10
0.0
 20
0.0
 30
0.0
  3
Block_1
  1

  0
INSERT
  5
8B
330
86
100
AcDbEntity
  8
レイヤー 1
100
AcDbBlockReference
  2
Block_2
 10
0.0
 20
0.0
 30
0.0
  0
ENDBLK
  5
89
330
86
100
AcDbEntity
  8
0
100
AcDbBlockEnd
  0
BLOCK
  5
8C
330
8A
100
AcDbEntity
  8
0
100
AcDbBlockBegin
  2
Block_2
 70
     0
 10
0.0
 20
0.0
 30
0.0
  3
Block_2
  1

  0
SPLINE
  5
8E
330
8A
100
AcDbEntity
  8
レイヤー 1
100
AcDbSpline
210
0.0
220
0.0
230
1.0
 70
     9
 71
     3
 72
    44
 73
    40
 74
     0
 42
0.0000000001
 43
0.0000000001
 40
0.0
 40
0.0
 40
0.0
 40
0.0
 40
1.0
 40
1.0
 40
1.0
 40
2.0
 40
2.0
 40
2.0
 40
3.0
 40
3.0
 40
3.0
 40
4.0
 40
4.0
 40
4.0
 40
5.0
 40
5.0
 40
5.0
 40
6.0
 40
6.0
 40
6.0
 40
7.0
 40
7.0
 40
7.0
 40
8.0
 40
8.0
 40
8.0
 40
9.0
 40
9.0
 40
9.0
 40
10.0
 40
10.0
 40
10.0
 40
11.0
 40
11.0
 40
11.0
 40
12.0
 40
12.0
 40
12.0
 40
13.0
 40
13.0
 40
13.0
 40
13.0
 10
112.3690239519424
 20
-139.2791815515517
 30
0.0
 10
112.1512939172747
 20
-139.4378281986474
 30
0.0
 10
112.0582763391729
 20
-139.5118977515803
 30
0.0
 10
112.0093559832824
 20
-139.6557304880895
 30
0.0
 10
112.0093559832824
 20
-139.6557304880895
 30
0.0
 10
112.7879475629488
 20
-139.6557304880895
 30
0.0
 10
112.7879475629488
 20
-139.6557304880895
 30
0.0
 10
112.7879475629488
 20
-139.6557304880895
 30
0.0
 10
112.7879475629488
 20
-139.8608859242362
 30
0.0
 10
112.7879475629488
 20
-139.8608859242362
 30
0.0
 10
112.7879475629488
 20
-139.8608859242362
 30
0.0
 10
111.7599310701503
 20
-139.8608859242362
 30
0.0
 10
111.7599310701503
 20
-139.8608859242362
 30
0.0
 10
111.7916259486146
 20
-139.5032850128672
 30
0.0
 10
111.8570827628343
 20
-139.425081345352
 30
0.0
 10
112.2422444380853
 20
-139.1267360763294
 30
0.0
 10
112.4982150326393
 20
-138.9279540668305
 30
0.0
 10
112.5636718468591
 20
-138.8602579405453
 30
0.0
 10
112.5636718468591
 20
-138.7227986306839
 30
0.0
 10
112.5636718468591
 20
-138.6042873459913
 30
0.0
 10
112.4916693512173
 20
-138.4732014627775
 30
0.0
 10
112.2949543990096
 20
-138.4732014627775
 30
0.0
 10
112.0348496898732
 20
-138.4732014627775
 30
0.0
 10
112.0265814607086
 20
-138.7036783507407
 30
0.0
 10
112.0221028365778
 20
-138.8201225781422
 30
0.0
 10
112.0221028365778
 20
-138.8201225781422
 30
0.0
 10
111.797827120488
 20
-138.8201225781422
 30
0.0
 10
111.797827120488
 20
-138.8201225781422
 30
0.0
 10
111.8064398592012
 20
-138.6931708095107
 30
0.0
 10
111.8171196552054
 20
-138.5810329514658
 30
0.0
 10
111.8973903800117
 20
-138.4625216667732
 30
0.0
 10
112.0072889259912
 20
-138.3018079623863
 30
0.0
 10
112.1936685917432
 20
-138.2678737718566
 30
0.0
 10
112.3097683095962
 20
-138.2678737718566
 30
0.0
 10
112.5870984961588
 20
-138.2678737718566
 30
0.0
 10
112.7944932443708
 20
-138.4520141255432
 30
0.0
 10
112.7944932443708
 20
-138.724865687975
 30
0.0
 10
112.7944932443708
 20
-138.9532755186471
 30
0.0
 10
112.6780490169694
 20
-139.0528387781708
 30
0.0
 10
112.3690239519424
 20
-139.2791815515517
 30
0.0
  0
HATCH
  5
8F
330
8A
100
AcDbEntity
  8
レイヤー 1
 62
    18
420
        0
440
 33554687
100
AcDbHatch
 10
0.0
 20
0.0
 30
0.0
210
0.0
220
0.0
230
1.0
  2
SOLID
 70
     1
 71
     1
 91
        1
 92
        1
 93
        1
 72
     4
 94
        3
 73
     0
 74
     0
 95
       44
 96
       40
 40
0.0
 40
0.0
 40
0.0
 40
0.0
 40
1.0
 40
1.0
 40
1.0
 40
2.0
 40
2.0
 40
2.0
 40
3.0
 40
3.0
 40
3.0
 40
4.0
 40
4.0
 40
4.0
 40
5.0
 40
5.0
 40
5.0
 40
6.0
 40
6.0
 40
6.0
 40
7.0
 40
7.0
 40
7.0
 40
8.0
 40
8.0
 40
8.0
 40
9.0
 40
9.0
 40
9.0
 40
10.0
 40
10.0
 40
10.0
 40
11.0
 40
11.0
 40
11.0
 40
12.0
 40
12.0
 40
12.0
 40
13.0
 40
13.0
 40
13.0
 40
13.0
 10
112.3690239519424
 20
-139.2791815515517
 10
112.1512939172747
 20
-139.4378281986474
 10
112.0582763391729
 20
-139.5118977515803
 10
112.0093559832824
 20
-139.6557304880895
 10
112.0093559832824
 20
-139.6557304880895
 10
112.7879475629488
 20
-139.6557304880895
 10
112.7879475629488
 20
-139.6557304880895
 10
112.7879475629488
 20
-139.6557304880895
 10
112.7879475629488
 20
-139.8608859242362
 10
112.7879475629488
 20
-139.8608859242362
 10
112.7879475629488
 20
-139.8608859242362
 10
111.7599310701503
 20
-139.8608859242362
 10
111.7599310701503
 20
-139.8608859242362
 10
111.7916259486146
 20
-139.5032850128672
 10
111.8570827628343
 20
-139.425081345352
 10
112.2422444380853
 20
-139.1267360763294
 10
112.4982150326393
 20
-138.9279540668305
 10
112.5636718468591
 20
-138.8602579405453
 10
112.5636718468591
 20
-138.7227986306839
 10
112.5636718468591
 20
-138.6042873459913
 10
112.4916693512173
 20
-138.4732014627775
 10
112.2949543990096
 20
-138.4732014627775
 10
112.0348496898732
 20
-138.4732014627775
 10
112.0265814607086
 20
-138.7036783507407
 10
112.0221028365778
 20
-138.8201225781422
 10
112.0221028365778
 20
-138.8201225781422
 10
111.797827120488
 20
-138.8201225781422
 10
111.797827120488
 20
-138.8201225781422
 10
111.8064398592012
 20
-138.6931708095107
 10
111.8171196552054
 20
-138.5810329514658
 10
111.8973903800117
 20
-138.4625216667732
 10
112.0072889259912
 20
-138.3018079623863
 10
112.1936685917432
 20
-138.2678737718566
 10
112.3097683095962
 20
-138.2678737718566
 10
112.5870984961588
 20
-138.2678737718566
 10
112.7944932443708
 20
-138.4520141255432
 10
112.7944932443708
 20
-138.724865687975
 10
112.7944932443708
 20
-138.9532755186471
 10
112.6780490169694
 20
-139.0528387781708
 10
112.3690239519424
 20
-139.2791815515517
 97
        0
 97
        1
330
8E
 75
     2
 76
     1
 98
        1
 10
0.0
 20
0.0
450
        0
451
        0
460
0.0
461
0.0
452
        0
462
0.0
453
        0
470

  0
SPLINE
  5
90
330
8A
100
AcDbEntity
  8
レイヤー 1
100
AcDbSpline
210
0.0
220
0.0
230
1.0
 70
     9
 71
     3
 72
    17
 73
    13
 74
     0
 42
0.0000000001
 43
0.0000000001
 40
0.0
 40
0.0
 40
0.0
 40
0.0
 40
1.0
 40
1.0
 40
1.0
 40
2.0
 40
2.0
 40
2.0
 40
3.0
 40
3.0
 40
3.0
 40
4.0
 40
4.0
 40
4.0
 40
4.0
 10
113.452850991602
 20
-138.4604546094821
 30
0.0
 10
113.20342607847
 20
-138.4604546094821
 30
0.0
 10
113.1565727798706
 20
-138.7439859679181
 30
0.0
 10
113.1565727798706
 20
-139.0886677712174
 30
0.0
 10
113.1565727798706
 20
-139.4082003774743
 30
0.0
 10
113.1927462824657
 20
-139.717053187727
 30
0.0
 10
113.452850991602
 20
-139.717053187727
 30
0.0
 10
113.7005533569915
 20
-139.717053187727
 30
0.0
 10
113.7491292033335
 20
-139.435588886582
 30
0.0
 10
113.7491292033335
 20
-139.0886677712174
 30
0.0
 10
113.7491292033335
 20
-138.7693074197347
 30
0.0
 10
113.7108886434472
 20
-138.4604546094821
 30
0.0
 10
113.452850991602
 20
-138.4604546094821
 30
0.0
  0
SPLINE
  5
91
330
8A
100
AcDbEntity
  8
レイヤー 1
100
AcDbSpline
210
0.0
220
0.0
230
1.0
 70
     9
 71
     3
 72
    29
 73
    25
 74
     0
 42
0.0000000001
 43
0.0000000001
 40
0.0
 40
0.0
 40
0.0
 40
0.0
 40
1.0
 40
1.0
 40
1.0
 40
2.0
 40
2.0
 40
2.0
 40
3.0
 40
3.0
 40
3.0
 40
4.0
 40
4.0
 40
4.0
 40
5.0
 40
5.0
 40
5.0
 40
6.0
 40
6.0
 40
6.0
 40
7.0
 40
7.0
 40
7.0
 40
8.0
 40
8.0
 40
8.0
 40
8.0
 10
113.8507595201484
 20
-139.6831189971972
 30
0.0
 10
113.7425835219115
 20
-139.8925808027005
 30
0.0
 10
113.5692952190035
 20
-139.9117010826436
 30
0.0
 10
113.452850991602
 20
-139.9117010826436
 30
0.0
 10
113.2919650324409
 20
-139.9117010826436
 30
0.0
 10
113.1503716079971
 20
-139.8651922935927
 30
0.0
 10
113.0552869726042
 20
-139.6831189971972
 30
0.0
 10
112.9515895984982
 20
-139.4884711022806
 30
0.0
 10
112.9326415733293
 20
-139.2516207876697
 30
0.0
 10
112.9326415733293
 20
-139.0886677712174
 30
0.0
 10
112.9326415733293
 20
-138.9448350347082
 30
0.0
 10
112.949522541207
 20
-138.6931708095107
 30
0.0
 10
113.0552869726042
 20
-138.4942165452375
 30
0.0
 10
113.1631184612925
 20
-138.2911281663821
 30
0.0
 10
113.3240044204537
 20
-138.2678737718566
 30
0.0
 10
113.452850991602
 20
-138.2678737718566
 30
0.0
 10
113.6116698934721
 20
-138.2678737718566
 30
0.0
 10
113.755330375207
 20
-138.3123155036163
 30
0.0
 10
113.8507595201484
 20
-138.4942165452375
 30
0.0
 10
113.9499782701236
 20
-138.686797382863
 30
0.0
 10
113.9734049194233
 20
-138.9152072135351
 30
0.0
 10
113.9734049194233
 20
-139.0886677712174
 30
0.0
 10
113.9734049194233
 20
-139.2600612716086
 30
0.0
 10
113.9520453274147
 20
-139.490710414346
 30
0.0
 10
113.8507595201484
 20
-139.6831189971972
 30
0.0
  0
HATCH
  5
92
330
8A
100
AcDbEntity
  8
レイヤー 1
 62
    18
420
        0
440
 33554687
100
AcDbHatch
 10
0.0
 20
0.0
 30
0.0
210
0.0
220
0.0
230
1.0
  2
SOLID
 70
     1
 71
     1
 91
        2
 92
        1
 93
        1
 72
     4
 94
        3
 73
     0
 74
     0
 95
       17
 96
       13
 40
0.0
 40
0.0
 40
0.0
 40
0.0
 40
1.0
 40
1.0
 40
1.0
 40
2.0
 40
2.0
 40
2.0
 40
3.0
 40
3.0
 40
3.0
 40
4.0
 40
4.0
 40
4.0
 40
4.0
 10
113.452850991602
 20
-138.4604546094821
 10
113.20342607847
 20
-138.4604546094821
 10
113.1565727798706
 20
-138.7439859679181
 10
113.1565727798706
 20
-139.0886677712174
 10
113.1565727798706
 20
-139.4082003774743
 10
113.1927462824657
 20
-139.717053187727
 10
113.452850991602
 20
-139.717053187727
 10
113.7005533569915
 20
-139.717053187727
 10
113.7491292033335
 20
-139.435588886582
 10
113.7491292033335
 20
-139.0886677712174
 10
113.7491292033335
 20
-138.7693074197347
 10
113.7108886434472
 20
-138.4604546094821
 10
113.452850991602
 20
-138.4604546094821
 97
        0
 97
        1
330
90
 92
        1
 93
        1
 72
     4
 94
        3
 73
     0
 74
     0
 95
       29
 96
       25
 40
0.0
 40
0.0
 40
0.0
 40
0.0
 40
1.0
 40
1.0
 40
1.0
 40
2.0
 40
2.0
 40
2.0
 40
3.0
 40
3.0
 40
3.0
 40
4.0
 40
4.0
 40
4.0
 40
5.0
 40
5.0
 40
5.0
 40
6.0
 40
6.0
 40
6.0
 40
7.0
 40
7.0
 40
7.0
 40
8.0
 40
8.0
 40
8.0
 40
8.0
 10
113.8507595201484
 20
-139.6831189971972
 10
113.7425835219115
 20
-139.8925808027005
 10
113.5692952190035
 20
-139.9117010826436
 10
113.452850991602
 20
-139.9117010826436
 10
113.2919650324409
 20
-139.9117010826436
 10
113.1503716079971
 20
-139.8651922935927
 10
113.0552869726042
 20
-139.6831189971972
 10
112.9515895984982
 20
-139.4884711022806
 10
112.9326415733293
 20
-139.2516207876697
 10
112.9326415733293
 20
-139.0886677712174
 10
112.9326415733293
 20
-138.9448350347082
 10
112.949522541207
 20
-138.6931708095107
 10
113.0552869726042
 20
-138.4942165452375
 10
113.1631184612925
 20
-138.2911281663821
 10
113.3240044204537
 20
-138.2678737718566
 10
113.452850991602
 20
-138.2678737718566
 10
113.6116698934721
 20
-138.2678737718566
 10
113.755330375207
 20
-138.3123155036163
 10
113.8507595201484
 20
-138.4942165452375
 10
113.9499782701236
 20
-138.686797382863
 10
113.9734049194233
 20
-138.9152072135351
 10
113.9734049194233
 20
-139.0886677712174
 10
113.9734049194233
 20
-139.2600612716086
 10
113.9520453274147
 20
-139.490710414346
 10
113.8507595201484
 20
-139.6831189971972
 97
        0
 97
        1
330
91
 75
     2
 76
     1
 98
        1
 10
0.0
 20
0.0
450
        0
451
        0
460
0.0
461
0.0
452
        0
462
0.0
453
        0
470

  0
ENDBLK
  5
8D
330
8A
100
AcDbEntity
  8
0
100
AcDbBlockEnd
  0
BLOCK
  5
98
330
96
100
AcDbEntity
  8
0
100
AcDbBlockBegin
  2
Block_3
 70
     0
 10
0.0
 20
0.0
 30
0.0
  3
Block_3
  1

  0
LINE
  5
9A
330
96
100
AcDbEntity
  8
レイヤー 1
 62
    18
420
        0
370
     9
100
AcDbLine
 10
88.69828075375554
 20
-159.8961050400147
 30
0.0
 11
113.6759500778798
 21
-159.8961050400147
 31
0.0
  0
LINE
  5
9B
330
96
100
AcDbEntity
  8
レイヤー 1
 62
    18
420
        0
370
     9
100
AcDbLine
 10
98.68730984806074
 20
-161.3561463916548
 30
0.0
 11
98.68730984806074
 21
-158.89598006553
 31
0.0
  0
LINE
  5
9C
330
96
100
AcDbEntity
  8
レイヤー 1
 62
    18
420
        0
370
     9
100
AcDbLine
 10
88.68730990884083
 20
-161.3561463916548
 30
0.0
 11
88.68730990884083
 21
-158.89598006553
 31
0.0
  0
LINE
  5
9D
330
96
100
AcDbEntity
  8
レイヤー 1
 62
    18
420
        0
370
     9
100
AcDbLine
 10
113.6759498240943
 20
-161.3561463916548
 30
0.0
 11
113.6759498240943
 21
-158.89598006553
 31
0.0
  0
INSERT
  5
9F
330
96
100
AcDbEntity
  8
レイヤー 1
100
AcDbBlockReference
  2
Block_4
 10
0.0
 20
0.0
 30
0.0
  0
INSERT
  5
AB
330
96
100
AcDbEntity
  8
レイヤー 1
100
AcDbBlockReference
  2
Block_6
 10
0.0
 20
0.0
 30
0.0
  0
ENDBLK
  5
99
330
96
100
AcDbEntity
  8
0
100
AcDbBlockEnd
  0
BLOCK
  5
A0
330
9E
100
AcDbEntity
  8
0
100
AcDbBlockBegin
  2
Block_4
 70
     0
 10
0.0
 20
0.0
 30
0.0
  3
Block_4
  1

  0
INSERT
  5
A3
330
9E
100
AcDbEntity
  8
レイヤー 1
100
AcDbBlockReference
  2
Block_5
 10
0.0
 20
0.0
 30
0.0
  0
ENDBLK
  5
A1
330
9E
100
AcDbEntity
  8
0
100
AcDbBlockEnd
  0
BLOCK
  5
A4
330
A2
100
AcDbEntity
  8
0
100
AcDbBlockBegin
  2
Block_5
 70
     0
 10
0.0
 20
0.0
 30
0.0
  3
Block_5
  1

  0
SPLINE
  5
A6
330
A2
100
AcDbEntity
  8
レイヤー 1
100
AcDbSpline
210
0.0
220
0.0
230
1.0
 70
    11
 71
     3
 72
    26
 73
    22
 74
     0
 42
0.0000000001
 43
0.0000000001
 40
0.0
 40
0.0
 40
0.0
 40
0.0
 40
1.0
 40
1.0
 40
1.0
 40
2.0
 40
2.0
 40
2.0
 40
3.0
 40
3.0
 40
3.0
 40
4.0
 40
4.0
 40
4.0
 40
5.0
 40
5.0
 40
5.0
 40
6.0
 40
6.0
 40
6.0
 40
7.0
 40
7.0
 40
7.0
 40
7.0
 10
105.5384331333376
 20
-158.5439832502945
 30
0.0
 10
105.5384331333376
 20
-158.5439832502945
 30
0.0
 10
105.5384331333376
 20
-157.4394856377234
 30
0.0
 10
105.5384331333376
 20
-157.4394856377234
 30
0.0
 10
105.5384331333376
 20
-157.4394856377234
 30
0.0
 10
105.2085652406249
 20
-157.4394856377234
 30
0.0
 10
105.2085652406249
 20
-157.4394856377234
 30
0.0
 10
105.2085652406249
 20
-157.4394856377234
 30
0.0
 10
105.2085652406249
 20
-157.2916910414062
 30
0.0
 10
105.2085652406249
 20
-157.2916910414062
 30
0.0
 10
105.5405001906287
 20
-157.2768771308196
 30
0.0
 10
105.5870089796796
 20
-157.1139241143673
 30
0.0
 10
105.6166368008528
 20
-156.9995469442571
 30
0.0
 10
105.6166368008528
 20
-156.9995469442571
 30
0.0
 10
105.7627088494274
 20
-156.9995469442571
 30
0.0
 10
105.7627088494274
 20
-156.9995469442571
 30
0.0
 10
105.7627088494274
 20
-156.9995469442571
 30
0.0
 10
105.7627088494274
 20
-158.5439832502945
 30
0.0
 10
105.7627088494274
 20
-158.5439832502945
 30
0.0
 10
105.7627088494274
 20
-158.5439832502945
 30
0.0
 10
105.5384331333376
 20
-158.5439832502945
 30
0.0
 10
105.5384331333376
 20
-158.5439832502945
 30
0.0
  0
HATCH
  5
A7
330
A2
100
AcDbEntity
  8
レイヤー 1
 62
    18
420
        0
440
 33554687
100
AcDbHatch
 10
0.0
 20
0.0
 30
0.0
210
0.0
220
0.0
230
1.0
  2
SOLID
 70
     1
 71
     1
 91
        1
 92
        1
 93
        1
 72
     4
 94
        3
 73
     0
 74
     0
 95
       26
 96
       22
 40
0.0
 40
0.0
 40
0.0
 40
0.0
 40
1.0
 40
1.0
 40
1.0
 40
2.0
 40
2.0
 40
2.0
 40
3.0
 40
3.0
 40
3.0
 40
4.0
 40
4.0
 40
4.0
 40
5.0
 40
5.0
 40
5.0
 40
6.0
 40
6.0
 40
6.0
 40
7.0
 40
7.0
 40
7.0
 40
7.0
 10
105.5384331333376
 20
-158.5439832502945
 10
105.5384331333376
 20
-158.5439832502945
 10
105.5384331333376
 20
-157.4394856377234
 10
105.5384331333376
 20
-157.4394856377234
 10
105.5384331333376
 20
-157.4394856377234
 10
105.2085652406249
 20
-157.4394856377234
 10
105.2085652406249
 20
-157.4394856377234
 10
105.2085652406249
 20
-157.4394856377234
 10
105.2085652406249
 20
-157.2916910414062
 10
105.2085652406249
 20
-157.2916910414062
 10
105.5405001906287
 20
-157.2768771308196
 10
105.5870089796796
 20
-157.1139241143673
 10
105.6166368008528
 20
-156.9995469442571
 10
105.6166368008528
 20
-156.9995469442571
 10
105.7627088494274
 20
-156.9995469442571
 10
105.7627088494274
 20
-156.9995469442571
 10
105.7627088494274
 20
-156.9995469442571
 10
105.7627088494274
 20
-158.5439832502945
 10
105.7627088494274
 20
-158.5439832502945
 10
105.7627088494274
 20
-158.5439832502945
 10
105.5384331333376
 20
-158.5439832502945
 10
105.5384331333376
 20
-158.5439832502945
 97
        0
 97
        1
330
A6
 75
     2
 76
     1
 98
        1
 10
0.0
 20
0.0
450
        0
451
        0
460
0.0
461
0.0
452
        0
462
0.0
453
        0
470

  0
SPLINE
  5
A8
330
A2
100
AcDbEntity
  8
レイヤー 1
100
AcDbSpline
210
0.0
220
0.0
230
1.0
 70
     9
 71
     3
 72
    53
 73
    49
 74
     0
 42
0.0000000001
 43
0.0000000001
 40
0.0
 40
0.0
 40
0.0
 40
0.0
 40
1.0
 40
1.0
 40
1.0
 40
2.0
 40
2.0
 40
2.0
 40
3.0
 40
3.0
 40
3.0
 40
4.0
 40
4.0
 40
4.0
 40
5.0
 40
5.0
 40
5.0
 40
6.0
 40
6.0
 40
6.0
 40
7.0
 40
7.0
 40
7.0
 40
8.0
 40
8.0
 40
8.0
 40
9.0
 40
9.0
 40
9.0
 40
10.0
 40
10.0
 40
10.0
 40
11.0
 40
11.0
 40
11.0
 40
12.0
 40
12.0
 40
12.0
 40
13.0
 40
13.0
 40
13.0
 40
14.0
 40
14.0
 40
14.0
 40
15.0
 40
15.0
 40
15.0
 40
16.0
 40
16.0
 40
16.0
 40
16.0
 10
106.7449055722721
 20
-158.5946261539277
 30
0.0
 10
106.6667019047569
 20
-158.5946261539277
 30
0.0
 10
106.5650715879421
 20
-158.57774518605
 30
0.0
 10
106.4634412711272
 20
-158.5143554291214
 30
0.0
 10
106.2901529682191
 20
-158.4041123735934
 30
0.0
 10
106.2687933762106
 20
-158.2731987451539
 30
0.0
 10
106.2498453510417
 20
-158.1653672564656
 30
0.0
 10
106.2498453510417
 20
-158.1653672564656
 30
0.0
 10
106.4720540098403
 20
-158.1653672564656
 30
0.0
 10
106.4720540098403
 20
-158.1653672564656
 30
0.0
 10
106.5268310280558
 20
-158.3641492659645
 30
0.0
 10
106.6539550514615
 20
-158.3937770871376
 30
0.0
 10
106.7469726295632
 20
-158.3937770871376
 30
0.0
 10
106.8864989967159
 20
-158.3937770871376
 30
0.0
 10
107.0387722171639
 20
-158.2942138276139
 30
0.0
 10
107.0387722171639
 20
-158.0616698823596
 30
0.0
 10
107.0387722171639
 20
-157.8056992878055
 30
0.0
 10
106.8589382328338
 20
-157.7357638494549
 30
0.0
 10
106.7383598908501
 20
-157.7357638494549
 30
0.0
 10
106.7066650123858
 20
-157.7357638494549
 30
0.0
 10
106.5650715879421
 20
-157.7357638494549
 30
0.0
 10
106.4761881244226
 20
-157.8649549301518
 30
0.0
 10
106.4761881244226
 20
-157.8649549301518
 30
0.0
 10
106.3004882546749
 20
-157.8456623954344
 30
0.0
 10
106.3004882546749
 20
-157.8456623954344
 30
0.0
 10
106.3004882546749
 20
-157.8456623954344
 30
0.0
 10
106.4210665966586
 20
-156.9995469442571
 30
0.0
 10
106.4210665966586
 20
-156.9995469442571
 30
0.0
 10
106.4210665966586
 20
-156.9995469442571
 30
0.0
 10
107.1996581763251
 20
-156.9995469442571
 30
0.0
 10
107.1996581763251
 20
-156.9995469442571
 30
0.0
 10
107.1996581763251
 20
-156.9995469442571
 30
0.0
 10
107.1996581763251
 20
-157.1941948391737
 30
0.0
 10
107.1996581763251
 20
-157.1941948391737
 30
0.0
 10
107.1996581763251
 20
-157.1941948391737
 30
0.0
 10
106.5840196131109
 20
-157.1941948391737
 30
0.0
 10
106.5840196131109
 20
-157.1941948391737
 30
0.0
 10
106.5840196131109
 20
-157.1941948391737
 30
0.0
 10
106.5185627988912
 20
-157.6172525647623
 30
0.0
 10
106.5185627988912
 20
-157.6172525647623
 30
0.0
 10
106.5798854985286
 20
-157.5834906290069
 30
0.0
 10
106.6622232806261
 20
-157.5431830118295
 30
0.0
 10
106.7807345653187
 20
-157.5431830118295
 30
0.0
 10
107.0346381025816
 20
-157.5431830118295
 30
0.0
 10
107.2716606719668
 20
-157.7295626775815
 30
0.0
 10
107.2716606719668
 20
-158.0423773476422
 30
0.0
 10
107.2716606719668
 20
-158.3600151513822
 30
0.0
 10
107.047384955877
 20
-158.5946261539277
 30
0.0
 10
106.7449055722721
 20
-158.5946261539277
 30
0.0
  0
HATCH
  5
A9
330
A2
100
AcDbEntity
  8
レイヤー 1
 62
    18
420
        0
440
 33554687
100
AcDbHatch
 10
0.0
 20
0.0
 30
0.0
210
0.0
220
0.0
230
1.0
  2
SOLID
 70
     1
 71
     1
 91
        1
 92
        1
 93
        1
 72
     4
 94
        3
 73
     0
 74
     0
 95
       53
 96
       49
 40
0.0
 40
0.0
 40
0.0
 40
0.0
 40
1.0
 40
1.0
 40
1.0
 40
2.0
 40
2.0
 40
2.0
 40
3.0
 40
3.0
 40
3.0
 40
4.0
 40
4.0
 40
4.0
 40
5.0
 40
5.0
 40
5.0
 40
6.0
 40
6.0
 40
6.0
 40
7.0
 40
7.0
 40
7.0
 40
8.0
 40
8.0
 40
8.0
 40
9.0
 40
9.0
 40
9.0
 40
10.0
 40
10.0
 40
10.0
 40
11.0
 40
11.0
 40
11.0
 40
12.0
 40
12.0
 40
12.0
 40
13.0
 40
13.0
 40
13.0
 40
14.0
 40
14.0
 40
14.0
 40
15.0
 40
15.0
 40
15.0
 40
16.0
 40
16.0
 40
16.0
 40
16.0
 10
106.7449055722721
 20
-158.5946261539277
 10
106.6667019047569
 20
-158.5946261539277
 10
106.5650715879421
 20
-158.57774518605
 10
106.4634412711272
 20
-158.5143554291214
 10
106.2901529682191
 20
-158.4041123735934
 10
106.2687933762106
 20
-158.2731987451539
 10
106.2498453510417
 20
-158.1653672564656
 10
106.2498453510417
 20
-158.1653672564656
 10
106.4720540098403
 20
-158.1653672564656
 10
106.4720540098403
 20
-158.1653672564656
 10
106.5268310280558
 20
-158.3641492659645
 10
106.6539550514615
 20
-158.3937770871376
 10
106.7469726295632
 20
-158.3937770871376
 10
106.8864989967159
 20
-158.3937770871376
 10
107.0387722171639
 20
-158.2942138276139
 10
107.0387722171639
 20
-158.0616698823596
 10
107.0387722171639
 20
-157.8056992878055
 10
106.8589382328338
 20
-157.7357638494549
 10
106.7383598908501
 20
-157.7357638494549
 10
106.7066650123858
 20
-157.7357638494549
 10
106.5650715879421
 20
-157.7357638494549
 10
106.4761881244226
 20
-157.8649549301518
 10
106.4761881244226
 20
-157.8649549301518
 10
106.3004882546749
 20
-157.8456623954344
 10
106.3004882546749
 20
-157.8456623954344
 10
106.3004882546749
 20
-157.8456623954344
 10
106.4210665966586
 20
-156.9995469442571
 10
106.4210665966586
 20
-156.9995469442571
 10
106.4210665966586
 20
-156.9995469442571
 10
107.1996581763251
 20
-156.9995469442571
 10
107.1996581763251
 20
-156.9995469442571
 10
107.1996581763251
 20
-156.9995469442571
 10
107.1996581763251
 20
-157.1941948391737
 10
107.1996581763251
 20
-157.1941948391737
 10
107.1996581763251
 20
-157.1941948391737
 10
106.5840196131109
 20
-157.1941948391737
 10
106.5840196131109
 20
-157.1941948391737
 10
106.5840196131109
 20
-157.1941948391737
 10
106.5185627988912
 20
-157.6172525647623
 10
106.5185627988912
 20
-157.6172525647623
 10
106.5798854985286
 20
-157.5834906290069
 10
106.6622232806261
 20
-157.5431830118295
 10
106.7807345653187
 20
-157.5431830118295
 10
107.0346381025816
 20
-157.5431830118295
 10
107.2716606719668
 20
-157.7295626775815
 10
107.2716606719668
 20
-158.0423773476422
 10
107.2716606719668
 20
-158.3600151513822
 10
107.047384955877
 20
-158.5946261539277
 10
106.7449055722721
 20
-158.5946261539277
 97
        0
 97
        1
330
A8
 75
     2
 76
     1
 98
        1
 10
0.0
 20
0.0
450
        0
451
        0
460
0.0
461
0.0
452
        0
462
0.0
453
        0
470

  0
ENDBLK
  5
A5
330
A2
100
AcDbEntity
  8
0
100
AcDbBlockEnd
  0
BLOCK
  5
AC
330
AA
100
AcDbEntity
  8
0
100
AcDbBlockBegin
  2
Block_6
 70
     0
 10
0.0
 20
0.0
 30
0.0
  3
Block_6
  1

  0
INSERT
  5
AF
330
AA
100
AcDbEntity
  8
レイヤー 1
100
AcDbBlockReference
  2
Block_7
 10
0.0
 20
0.0
 30
0.0
  0
ENDBLK
  5
AD
330
AA
100
AcDbEntity
  8
0
100
AcDbBlockEnd
  0
BLOCK
  5
B0
330
AE
100
AcDbEntity
  8
0
100
AcDbBlockBegin
  2
Block_7
 70
     0
 10
0.0
 20
0.0
 30
0.0
  3
Block_7
  1

  0
SPLINE
  5
B2
330
AE
100
AcDbEntity
  8
レイヤー 1
100
AcDbSpline
210
0.0
220
0.0
230
1.0
 70
    11
 71
     3
 72
    26
 73
    22
 74
     0
 42
0.0000000001
 43
0.0000000001
 40
0.0
 40
0.0
 40
0.0
 40
0.0
 40
1.0
 40
1.0
 40
1.0
 40
2.0
 40
2.0
 40
2.0
 40
3.0
 40
3.0
 40
3.0
 40
4.0
 40
4.0
 40
4.0
 40
5.0
 40
5.0
 40
5.0
 40
6.0
 40
6.0
 40
6.0
 40
7.0
 40
7.0
 40
7.0
 40
7.0
 10
93.04548337517614
 20
-158.5439832502945
 30
0.0
 10
93.04548337517614
 20
-158.5439832502945
 30
0.0
 10
93.04548337517614
 20
-157.4394856377234
 30
0.0
 10
93.04548337517614
 20
-157.4394856377234
 30
0.0
 10
93.04548337517614
 20
-157.4394856377234
 30
0.0
 10
92.71544322768919
 20
-157.4394856377234
 30
0.0
 10
92.71544322768919
 20
-157.4394856377234
 30
0.0
 10
92.71544322768919
 20
-157.4394856377234
 30
0.0
 10
92.71544322768919
 20
-157.2916910414062
 30
0.0
 10
92.71544322768919
 20
-157.2916910414062
 30
0.0
 10
93.04755043246728
 20
-157.2768771308196
 30
0.0
 10
93.09405922151816
 20
-157.1139241143673
 30
0.0
 10
93.12368704269131
 20
-156.9995469442571
 30
0.0
 10
93.12368704269131
 20
-156.9995469442571
 30
0.0
 10
93.2697590912659
 20
-156.9995469442571
 30
0.0
 10
93.2697590912659
 20
-156.9995469442571
 30
0.0
 10
93.2697590912659
 20
-156.9995469442571
 30
0.0
 10
93.2697590912659
 20
-158.5439832502945
 30
0.0
 10
93.2697590912659
 20
-158.5439832502945
 30
0.0
 10
93.2697590912659
 20
-158.5439832502945
 30
0.0
 10
93.04548337517614
 20
-158.5439832502945
 30
0.0
 10
93.04548337517614
 20
-158.5439832502945
 30
0.0
  0
HATCH
  5
B3
330
AE
100
AcDbEntity
  8
レイヤー 1
 62
    18
420
        0
440
 33554687
100
AcDbHatch
 10
0.0
 20
0.0
 30
0.0
210
0.0
220
0.0
230
1.0
  2
SOLID
 70
     1
 71
     1
 91
        1
 92
        1
 93
        1
 72
     4
 94
        3
 73
     0
 74
     0
 95
       26
 96
       22
 40
0.0
 40
0.0
 40
0.0
 40
0.0
 40
1.0
 40
1.0
 40
1.0
 40
2.0
 40
2.0
 40
2.0
 40
3.0
 40
3.0
 40
3.0
 40
4.0
 40
4.0
 40
4.0
 40
5.0
 40
5.0
 40
5.0
 40
6.0
 40
6.0
 40
6.0
 40
7.0
 40
7.0
 40
7.0
 40
7.0
 10
93.04548337517614
 20
-158.5439832502945
 10
93.04548337517614
 20
-158.5439832502945
 10
93.04548337517614
 20
-157.4394856377234
 10
93.04548337517614
 20
-157.4394856377234
 10
93.04548337517614
 20
-157.4394856377234
 10
92.71544322768919
 20
-157.4394856377234
 10
92.71544322768919
 20
-157.4394856377234
 10
92.71544322768919
 20
-157.4394856377234
 10
92.71544322768919
 20
-157.2916910414062
 10
92.71544322768919
 20
-157.2916910414062
 10
93.04755043246728
 20
-157.2768771308196
 10
93.09405922151816
 20
-157.1139241143673
 10
93.12368704269131
 20
-156.9995469442571
 10
93.12368704269131
 20
-156.9995469442571
 10
93.2697590912659
 20
-156.9995469442571
 10
93.2697590912659
 20
-156.9995469442571
 10
93.2697590912659
 20
-156.9995469442571
 10
93.2697590912659
 20
-158.5439832502945
 10
93.2697590912659
 20
-158.5439832502945
 10
93.2697590912659
 20
-158.5439832502945
 10
93.04548337517614
 20
-158.5439832502945
 10
93.04548337517614
 20
-158.5439832502945
 97
        0
 97
        1
330
B2
 75
     2
 76
     1
 98
        1
 10
0.0
 20
0.0
450
        0
451
        0
460
0.0
461
0.0
452
        0
462
0.0
453
        0
470

  0
SPLINE
  5
B4
330
AE
100
AcDbEntity
  8
レイヤー 1
100
AcDbSpline
210
0.0
220
0.0
230
1.0
 70
     9
 71
     3
 72
    17
 73
    13
 74
     0
 42
0.0000000001
 43
0.0000000001
 40
0.0
 40
0.0
 40
0.0
 40
0.0
 40
1.0
 40
1.0
 40
1.0
 40
2.0
 40
2.0
 40
2.0
 40
3.0
 40
3.0
 40
3.0
 40
4.0
 40
4.0
 40
4.0
 40
4.0
 10
94.2709038392795
 20
-157.1435519355405
 30
0.0
 10
94.0214789261474
 20
-157.1435519355405
 30
0.0
 10
93.97462562754801
 20
-157.4270832939766
 30
0.0
 10
93.97462562754801
 20
-157.7715928425015
 30
0.0
 10
93.97462562754801
 20
-158.0912977035327
 30
0.0
 10
94.01079913014314
 20
-158.3999782590111
 30
0.0
 10
94.2709038392795
 20
-158.3999782590111
 30
0.0
 10
94.51860620466897
 20
-158.3999782590111
 30
0.0
 10
94.56718205101099
 20
-158.1185139578662
 30
0.0
 10
94.56718205101099
 20
-157.7715928425015
 30
0.0
 10
94.56718205101099
 20
-157.4522324910189
 30
0.0
 10
94.52894149112472
 20
-157.1435519355405
 30
0.0
 10
94.2709038392795
 20
-157.1435519355405
 30
0.0
  0
SPLINE
  5
B5
330
AE
100
AcDbEntity
  8
レイヤー 1
100
AcDbSpline
210
0.0
220
0.0
230
1.0
 70
     9
 71
     3
 72
    29
 73
    25
 74
     0
 42
0.0000000001
 43
0.0000000001
 40
0.0
 40
0.0
 40
0.0
 40
0.0
 40
1.0
 40
1.0
 40
1.0
 40
2.0
 40
2.0
 40
2.0
 40
3.0
 40
3.0
 40
3.0
 40
4.0
 40
4.0
 40
4.0
 40
5.0
 40
5.0
 40
5.0
 40
6.0
 40
6.0
 40
6.0
 40
7.0
 40
7.0
 40
7.0
 40
8.0
 40
8.0
 40
8.0
 40
8.0
 10
94.66881236782585
 20
-158.3662163232557
 30
0.0
 10
94.560636369589
 20
-158.5756781287588
 30
0.0
 10
94.38734806668094
 20
-158.5946261539277
 30
0.0
 10
94.2709038392795
 20
-158.5946261539277
 30
0.0
 10
94.11001788011834
 20
-158.5946261539277
 30
0.0
 10
93.96842445567456
 20
-158.5481173648769
 30
0.0
 10
93.87333982028167
 20
-158.3662163232557
 30
0.0
 10
93.76964244617566
 20
-158.171568428339
 30
0.0
 10
93.75069442100677
 20
-157.9345458589538
 30
0.0
 10
93.75069442100677
 20
-157.7715928425015
 30
0.0
 10
93.75069442100677
 20
-157.6279323607666
 30
0.0
 10
93.76757538888449
 20
-157.3760958807949
 30
0.0
 10
93.87333982028167
 20
-157.1773138712959
 30
0.0
 10
93.98117130896999
 20
-156.9740532376662
 30
0.0
 10
94.14205726813115
 20
-156.950971097915
 30
0.0
 10
94.2709038392795
 20
-156.950971097915
 30
0.0
 10
94.42972274114952
 20
-156.950971097915
 30
0.0
 10
94.57338322288443
 20
-156.9954128296747
 30
0.0
 10
94.66881236782585
 20
-157.1773138712959
 30
0.0
 10
94.76803111780105
 20
-157.3698947089214
 30
0.0
 10
94.79145776710074
 20
-157.5983045395935
 30
0.0
 10
94.79145776710074
 20
-157.7715928425015
 30
0.0
 10
94.79145776710074
 20
-157.943158597667
 30
0.0
 10
94.7700981750922
 20
-158.1736354856302
 30
0.0
 10
94.66881236782585
 20
-158.3662163232557
 30
0.0
  0
HATCH
  5
B6
330
AE
100
AcDbEntity
  8
レイヤー 1
 62
    18
420
        0
440
 33554687
100
AcDbHatch
 10
0.0
 20
0.0
 30
0.0
210
0.0
220
0.0
230
1.0
  2
SOLID
 70
     1
 71
     1
 91
        2
 92
        1
 93
        1
 72
     4
 94
        3
 73
     0
 74
     0
 95
       17
 96
       13
 40
0.0
 40
0.0
 40
0.0
 40
0.0
 40
1.0
 40
1.0
 40
1.0
 40
2.0
 40
2.0
 40
2.0
 40
3.0
 40
3.0
 40
3.0
 40
4.0
 40
4.0
 40
4.0
 40
4.0
 10
94.2709038392795
 20
-157.1435519355405
 10
94.0214789261474
 20
-157.1435519355405
 10
93.97462562754801
 20
-157.4270832939766
 10
93.97462562754801
 20
-157.7715928425015
 10
93.97462562754801
 20
-158.0912977035327
 10
94.01079913014314
 20
-158.3999782590111
 10
94.2709038392795
 20
-158.3999782590111
 10
94.51860620466897
 20
-158.3999782590111
 10
94.56718205101099
 20
-158.1185139578662
 10
94.56718205101099
 20
-157.7715928425015
 10
94.56718205101099
 20
-157.4522324910189
 10
94.52894149112472
 20
-157.1435519355405
 10
94.2709038392795
 20
-157.1435519355405
 97
        0
 97
        1
330
B4
 92
        1
 93
        1
 72
     4
 94
        3
 73
     0
 74
     0
 95
       29
 96
       25
 40
0.0
 40
0.0
 40
0.0
 40
0.0
 40
1.0
 40
1.0
 40
1.0
 40
2.0
 40
2.0
 40
2.0
 40
3.0
 40
3.0
 40
3.0
 40
4.0
 40
4.0
 40
4.0
 40
5.0
 40
5.0
 40
5.0
 40
6.0
 40
6.0
 40
6.0
 40
7.0
 40
7.0
 40
7.0
 40
8.0
 40
8.0
 40
8.0
 40
8.0
 10
94.66881236782585
 20
-158.3662163232557
 10
94.560636369589
 20
-158.5756781287588
 10
94.38734806668094
 20
-158.5946261539277
 10
94.2709038392795
 20
-158.5946261539277
 10
94.11001788011834
 20
-158.5946261539277
 10
93.96842445567456
 20
-158.5481173648769
 10
93.87333982028167
 20
-158.3662163232557
 10
93.76964244617566
 20
-158.171568428339
 10
93.75069442100677
 20
-157.9345458589538
 10
93.75069442100677
 20
-157.7715928425015
 10
93.75069442100677
 20
-157.6279323607666
 10
93.76757538888449
 20
-157.3760958807949
 10
93.87333982028167
 20
-157.1773138712959
 10
93.98117130896999
 20
-156.9740532376662
 10
94.14205726813115
 20
-156.950971097915
 10
94.2709038392795
 20
-156.950971097915
 10
94.42972274114952
 20
-156.950971097915
 10
94.57338322288443
 20
-156.9954128296747
 10
94.66881236782585
 20
-157.1773138712959
 10
94.76803111780105
 20
-157.3698947089214
 10
94.79145776710074
 20
-157.5983045395935
 10
94.79145776710074
 20
-157.7715928425015
 10
94.79145776710074
 20
-157.943158597667
 10
94.7700981750922
 20
-158.1736354856302
 10
94.66881236782585
 20
-158.3662163232557
 97
        0
 97
        1
330
B5
 75
     2
 76
     1
 98
        1
 10
0.0
 20
0.0
450
        0
451
        0
460
0.0
461
0.0
452
        0
462
0.0
453
        0
470

  0
ENDBLK
  5
B1
330
AE
100
AcDbEntity
  8
0
100
AcDbBlockEnd
  0
BLOCK
  5
BB
330
B9
100
AcDbEntity
  8
0
100
AcDbBlockBegin
  2
Block_8
 70
     0
 10
0.0
 20
0.0
 30
0.0
  3
Block_8
  1

  0
LINE
  5
BD
330
B9
100
AcDbEntity
  8
レイヤー 1
 62
    18
420
        0
370
     9
100
AcDbLine
 10
106.8660567997882
 20
-150.746504968938
 30
0.0
 11
113.8546970316066
 21
-150.746504968938
 31
0.0
  0
LINE
  5
BE
330
B9
100
AcDbEntity
  8
レイヤー 1
 62
    18
420
        0
370
     9
100
AcDbLine
 10
106.8660567997882
 20
-152.2065463205782
 30
0.0
 11
106.8660567997882
 21
-149.7463799944533
 31
0.0
  0
LINE
  5
BF
330
B9
100
AcDbEntity
  8
レイヤー 1
 62
    18
420
        0
370
     9
100
AcDbLine
 10
113.8546965552978
 20
-152.2065463205782
 30
0.0
 11
113.8546965552978
 21
-149.7463799944533
 31
0.0
  0
INSERT
  5
C1
330
B9
100
AcDbEntity
  8
レイヤー 1
100
AcDbBlockReference
  2
Block_9
 10
0.0
 20
0.0
 30
0.0
  0
ENDBLK
  5
BC
330
B9
100
AcDbEntity
  8
0
100
AcDbBlockEnd
  0
BLOCK
  5
C2
330
C0
100
AcDbEntity
  8
0
100
AcDbBlockBegin
  2
Block_9
 70
     0
 10
0.0
 20
0.0
 30
0.0
  3
Block_9
  1

  0
SPLINE
  5
C4
330
C0
100
AcDbEntity
  8
レイヤー 1
100
AcDbSpline
210
0.0
220
0.0
230
1.0
 70
     9
 71
     3
 72
    26
 73
    22
 74
     0
 42
0.0000000001
 43
0.0000000001
 40
0.0
 40
0.0
 40
0.0
 40
0.0
 40
1.0
 40
1.0
 40
1.0
 40
2.0
 40
2.0
 40
2.0
 40
3.0
 40
3.0
 40
3.0
 40
4.0
 40
4.0
 40
4.0
 40
5.0
 40
5.0
 40
5.0
 40
6.0
 40
6.0
 40
6.0
 40
7.0
 40
7.0
 40
7.0
 40
7.0
 10
110.2723388396194
 20
-149.8940375059293
 30
0.0
 10
110.2723388396194
 20
-149.8940375059293
 30
0.0
 10
110.0353162702342
 20
-149.8940375059293
 30
0.0
 10
110.0353162702342
 20
-149.8940375059293
 30
0.0
 10
110.0608099768251
 20
-149.5853569504509
 30
0.0
 10
110.2533908144505
 20
-149.0668700799208
 30
0.0
 10
110.6595675721615
 20
-148.5614745722346
 30
0.0
 10
110.6595675721615
 20
-148.5614745722346
 30
0.0
 10
109.8217203501487
 20
-148.5614745722346
 30
0.0
 10
109.8217203501487
 20
-148.5614745722346
 30
0.0
 10
109.8217203501487
 20
-148.5614745722346
 30
0.0
 10
109.8217203501487
 20
-148.3499457094403
 30
0.0
 10
109.8217203501487
 20
-148.3499457094403
 30
0.0
 10
109.8217203501487
 20
-148.3499457094403
 30
0.0
 10
110.8965901415467
 20
-148.3499457094403
 30
0.0
 10
110.8965901415467
 20
-148.3499457094403
 30
0.0
 10
110.8965901415467
 20
-148.3499457094403
 30
0.0
 10
110.8965901415467
 20
-148.5614745722346
 30
0.0
 10
110.8965901415467
 20
-148.5614745722346
 30
0.0
 10
110.5727511659332
 20
-148.8512071025441
 30
0.0
 10
110.3061007753749
 20
-149.4434190164586
 30
0.0
 10
110.2723388396194
 20
-149.8940375059293
 30
0.0
  0
HATCH
  5
C5
330
C0
100
AcDbEntity
  8
レイヤー 1
 62
    18
420
        0
440
 33554687
100
AcDbHatch
 10
0.0
 20
0.0
 30
0.0
210
0.0
220
0.0
230
1.0
  2
SOLID
 70
     1
 71
     1
 91
        1
 92
        1
 93
        1
 72
     4
 94
        3
 73
     0
 74
     0
 95
       26
 96
       22
 40
0.0
 40
0.0
 40
0.0
 40
0.0
 40
1.0
 40
1.0
 40
1.0
 40
2.0
 40
2.0
 40
2.0
 40
3.0
 40
3.0
 40
3.0
 40
4.0
 40
4.0
 40
4.0
 40
5.0
 40
5.0
 40
5.0
 40
6.0
 40
6.0
 40
6.0
 40
7.0
 40
7.0
 40
7.0
 40
7.0
 10
110.2723388396194
 20
-149.8940375059293
 10
110.2723388396194
 20
-149.8940375059293
 10
110.0353162702342
 20
-149.8940375059293
 10
110.0353162702342
 20
-149.8940375059293
 10
110.0608099768251
 20
-149.5853569504509
 10
110.2533908144505
 20
-149.0668700799208
 10
110.6595675721615
 20
-148.5614745722346
 10
110.6595675721615
 20
-148.5614745722346
 10
109.8217203501487
 20
-148.5614745722346
 10
109.8217203501487
 20
-148.5614745722346
 10
109.8217203501487
 20
-148.5614745722346
 10
109.8217203501487
 20
-148.3499457094403
 10
109.8217203501487
 20
-148.3499457094403
 10
109.8217203501487
 20
-148.3499457094403
 10
110.8965901415467
 20
-148.3499457094403
 10
110.8965901415467
 20
-148.3499457094403
 10
110.8965901415467
 20
-148.3499457094403
 10
110.8965901415467
 20
-148.5614745722346
 10
110.8965901415467
 20
-148.5614745722346
 10
110.5727511659332
 20
-148.8512071025441
 10
110.3061007753749
 20
-149.4434190164586
 10
110.2723388396194
 20
-149.8940375059293
 97
        0
 97
        1
330
C4
 75
     2
 76
     1
 98
        1
 10
0.0
 20
0.0
450
        0
451
        0
460
0.0
461
0.0
452
        0
462
0.0
453
        0
470

  0
ENDBLK
  5
C3
330
C0
100
AcDbEntity
  8
0
100
AcDbBlockEnd
  0
BLOCK
  5
D2
330
D0
100
AcDbEntity
  8
0
100
AcDbBlockBegin
  2
Block_10
 70
     0
 10
0.0
 20
0.0
 30
0.0
  3
Block_10
  1

  0
SPLINE
  5
D4
330
D0
100
AcDbEntity
  8
レイヤー 1
100
AcDbSpline
210
0.0
220
0.0
230
1.0
 70
     9
 71
     3
 72
    62
 73
    58
 74
     0
 42
0.0000000001
 43
0.0000000001
 40
0.0
 40
0.0
 40
0.0
 40
0.0
 40
1.0
 40
1.0
 40
1.0
 40
2.0
 40
2.0
 40
2.0
 40
3.0
 40
3.0
 40
3.0
 40
4.0
 40
4.0
 40
4.0
 40
5.0
 40
5.0
 40
5.0
 40
6.0
 40
6.0
 40
6.0
 40
7.0
 40
7.0
 40
7.0
 40
8.0
 40
8.0
 40
8.0
 40
9.0
 40
9.0
 40
9.0
 40
10.0
 40
10.0
 40
10.0
 40
11.0
 40
11.0
 40
11.0
 40
12.0
 40
12.0
 40
12.0
 40
13.0
 40
13.0
 40
13.0
 40
14.0
 40
14.0
 40
14.0
 40
15.0
 40
15.0
 40
15.0
 40
16.0
 40
16.0
 40
16.0
 40
17.0
 40
17.0
 40
17.0
 40
18.0
 40
18.0
 40
18.0
 40
19.0
 40
19.0
 40
19.0
 40
19.0
 10
125.4982828462296
 20
-154.3981553433449
 30
0.0
 10
125.4982828462296
 20
-154.4935844882863
 30
0.0
 10
125.4772677637695
 20
-154.7113145229541
 30
0.0
 10
125.2912326075661
 20
-154.8363714890687
 30
0.0
 10
125.1789224947469
 20
-154.910096532453
 30
0.0
 10
125.0797037447717
 20
-154.9145751565838
 30
0.0
 10
124.9949543958346
 20
-154.9187092711662
 30
0.0
 10
124.9949543958346
 20
-154.9187092711662
 30
0.0
 10
124.9949543958346
 20
-154.6985676696587
 30
0.0
 10
124.9949543958346
 20
-154.6985676696587
 30
0.0
 10
125.0690239487674
 20
-154.6965006123675
 30
0.0
 10
125.303634951313
 20
-154.6861653259118
 30
0.0
 10
125.303634951313
 20
-154.4026339674757
 30
0.0
 10
125.303634951313
 20
-154.2651746576142
 30
0.0
 10
125.2340440225109
 20
-154.1125569276177
 30
0.0
 10
125.0056341918388
 20
-154.1125569276177
 30
0.0
 10
124.8891899644374
 20
-154.1125569276177
 30
0.0
 10
124.8406141180954
 20
-154.1507974875039
 30
0.0
 10
124.8089192396311
 20
-154.1824923659683
 30
0.0
 10
124.7348496866982
 20
-154.2565619189011
 30
0.0
 10
124.7221028334028
 20
-154.3730061463026
 30
0.0
 10
124.7221028334028
 20
-154.4277831645181
 30
0.0
 10
124.7221028334028
 20
-154.4470756992354
 30
0.0
 10
124.7241698906939
 20
-154.4829046922821
 30
0.0
 10
124.7283040052762
 20
-154.510465456164
 30
0.0
 10
124.7283040052762
 20
-154.510465456164
 30
0.0
 10
124.5336561103596
 20
-154.510465456164
 30
0.0
 10
124.5336561103596
 20
-154.510465456164
 30
0.0
 10
124.5402017917816
 20
-154.4722248962778
 30
0.0
 10
124.5422688490728
 20
-154.4301947313577
 30
0.0
 10
124.5422688490728
 20
-154.4236490499358
 30
0.0
 10
124.5422688490728
 20
-154.358192235716
 30
0.0
 10
124.5209092570642
 20
-154.1594102262171
 30
0.0
 10
124.2842311972275
 20
-154.1594102262171
 30
0.0
 10
124.1064642701886
 20
-154.1594102262171
 30
0.0
 10
124.0513427424246
 20
-154.2903238546566
 30
0.0
 10
124.0513427424246
 20
-154.4005669101846
 30
0.0
 10
124.0513427424246
 20
-154.6648057339032
 30
0.0
 10
124.2842311972275
 20
-154.6734184726163
 30
0.0
 10
124.3558891833207
 20
-154.6775525871987
 30
0.0
 10
124.3558891833207
 20
-154.6775525871987
 30
0.0
 10
124.3558891833207
 20
-154.8808132208284
 30
0.0
 10
124.3558891833207
 20
-154.8808132208284
 30
0.0
 10
124.2311767267547
 20
-154.8722004821153
 30
0.0
 10
123.8546277902169
 20
-154.8446397182333
 30
0.0
 10
123.8546277902169
 20
-154.3878200568891
 30
0.0
 10
123.8546277902169
 20
-154.1635443407994
 30
0.0
 10
123.9817518136226
 20
-153.9223876568319
 30
0.0
 10
124.2776855158056
 20
-153.9223876568319
 30
0.0
 10
124.4640651815576
 20
-153.9223876568319
 30
0.0
 10
124.546402963655
 20
-154.0174722922248
 30
0.0
 10
124.6077256632925
 20
-154.1170355517485
 30
0.0
 10
124.6352864271745
 20
-154.055712852111
 30
0.0
 10
124.7155571519808
 20
-153.8738118104899
 30
0.0
 10
124.9928873385434
 20
-153.8738118104899
 30
0.0
 10
125.3311957151949
 20
-153.8738118104899
 30
0.0
 10
125.4982828462296
 20
-154.1211696663308
 30
0.0
 10
125.4982828462296
 20
-154.3981553433449
 30
0.0
  0
HATCH
  5
D5
330
D0
100
AcDbEntity
  8
レイヤー 1
 62
    18
420
        0
440
 33554687
100
AcDbHatch
 10
0.0
 20
0.0
 30
0.0
210
0.0
220
0.0
230
1.0
  2
SOLID
 70
     1
 71
     1
 91
        1
 92
        1
 93
        1
 72
     4
 94
        3
 73
     0
 74
     0
 95
       62
 96
       58
 40
0.0
 40
0.0
 40
0.0
 40
0.0
 40
1.0
 40
1.0
 40
1.0
 40
2.0
 40
2.0
 40
2.0
 40
3.0
 40
3.0
 40
3.0
 40
4.0
 40
4.0
 40
4.0
 40
5.0
 40
5.0
 40
5.0
 40
6.0
 40
6.0
 40
6.0
 40
7.0
 40
7.0
 40
7.0
 40
8.0
 40
8.0
 40
8.0
 40
9.0
 40
9.0
 40
9.0
 40
10.0
 40
10.0
 40
10.0
 40
11.0
 40
11.0
 40
11.0
 40
12.0
 40
12.0
 40
12.0
 40
13.0
 40
13.0
 40
13.0
 40
14.0
 40
14.0
 40
14.0
 40
15.0
 40
15.0
 40
15.0
 40
16.0
 40
16.0
 40
16.0
 40
17.0
 40
17.0
 40
17.0
 40
18.0
 40
18.0
 40
18.0
 40
19.0
 40
19.0
 40
19.0
 40
19.0
 10
125.4982828462296
 20
-154.3981553433449
 10
125.4982828462296
 20
-154.4935844882863
 10
125.4772677637695
 20
-154.7113145229541
 10
125.2912326075661
 20
-154.8363714890687
 10
125.1789224947469
 20
-154.910096532453
 10
125.0797037447717
 20
-154.9145751565838
 10
124.9949543958346
 20
-154.9187092711662
 10
124.9949543958346
 20
-154.9187092711662
 10
124.9949543958346
 20
-154.6985676696587
 10
124.9949543958346
 20
-154.6985676696587
 10
125.0690239487674
 20
-154.6965006123675
 10
125.303634951313
 20
-154.6861653259118
 10
125.303634951313
 20
-154.4026339674757
 10
125.303634951313
 20
-154.2651746576142
 10
125.2340440225109
 20
-154.1125569276177
 10
125.0056341918388
 20
-154.1125569276177
 10
124.8891899644374
 20
-154.1125569276177
 10
124.8406141180954
 20
-154.1507974875039
 10
124.8089192396311
 20
-154.1824923659683
 10
124.7348496866982
 20
-154.2565619189011
 10
124.7221028334028
 20
-154.3730061463026
 10
124.7221028334028
 20
-154.4277831645181
 10
124.7221028334028
 20
-154.4470756992354
 10
124.7241698906939
 20
-154.4829046922821
 10
124.7283040052762
 20
-154.510465456164
 10
124.7283040052762
 20
-154.510465456164
 10
124.5336561103596
 20
-154.510465456164
 10
124.5336561103596
 20
-154.510465456164
 10
124.5402017917816
 20
-154.4722248962778
 10
124.5422688490728
 20
-154.4301947313577
 10
124.5422688490728
 20
-154.4236490499358
 10
124.5422688490728
 20
-154.358192235716
 10
124.5209092570642
 20
-154.1594102262171
 10
124.2842311972275
 20
-154.1594102262171
 10
124.1064642701886
 20
-154.1594102262171
 10
124.0513427424246
 20
-154.2903238546566
 10
124.0513427424246
 20
-154.4005669101846
 10
124.0513427424246
 20
-154.6648057339032
 10
124.2842311972275
 20
-154.6734184726163
 10
124.3558891833207
 20
-154.6775525871987
 10
124.3558891833207
 20
-154.6775525871987
 10
124.3558891833207
 20
-154.8808132208284
 10
124.3558891833207
 20
-154.8808132208284
 10
124.2311767267547
 20
-154.8722004821153
 10
123.8546277902169
 20
-154.8446397182333
 10
123.8546277902169
 20
-154.3878200568891
 10
123.8546277902169
 20
-154.1635443407994
 10
123.9817518136226
 20
-153.9223876568319
 10
124.2776855158056
 20
-153.9223876568319
 10
124.4640651815576
 20
-153.9223876568319
 10
124.546402963655
 20
-154.0174722922248
 10
124.6077256632925
 20
-154.1170355517485
 10
124.6352864271745
 20
-154.055712852111
 10
124.7155571519808
 20
-153.8738118104899
 10
124.9928873385434
 20
-153.8738118104899
 10
125.3311957151949
 20
-153.8738118104899
 10
125.4982828462296
 20
-154.1211696663308
 10
125.4982828462296
 20
-154.3981553433449
 97
        0
 97
        1
330
D4
 75
     2
 76
     1
 98
        1
 10
0.0
 20
0.0
450
        0
451
        0
460
0.0
461
0.0
452
        0
462
0.0
453
        0
470

  0
ENDBLK
  5
D3
330
D0
100
AcDbEntity
  8
0
100
AcDbBlockEnd
  0
BLOCK
  5
D8
330
D6
100
AcDbEntity
  8
0
100
AcDbBlockBegin
  2
Block_11
 70
     0
 10
0.0
 20
0.0
 30
0.0
  3
Block_11
  1

  0
SPLINE
  5
DA
330
D6
100
AcDbEntity
  8
レイヤー 1
100
AcDbSpline
210
0.0
220
0.0
230
1.0
 70
     9
 71
     3
 72
    26
 73
    22
 74
     0
 42
0.0000000001
 43
0.0000000001
 40
0.0
 40
0.0
 40
0.0
 40
0.0
 40
1.0
 40
1.0
 40
1.0
 40
2.0
 40
2.0
 40
2.0
 40
3.0
 40
3.0
 40
3.0
 40
4.0
 40
4.0
 40
4.0
 40
5.0
 40
5.0
 40
5.0
 40
6.0
 40
6.0
 40
6.0
 40
7.0
 40
7.0
 40
7.0
 40
7.0
 10
125.4476399425964
 20
-149.4134466857369
 30
0.0
 10
125.4476399425964
 20
-149.4134466857369
 30
0.0
 10
125.4476399425964
 20
-149.6504692551221
 30
0.0
 10
125.4476399425964
 20
-149.6504692551221
 30
0.0
 10
125.1386148775695
 20
-149.6249755485312
 30
0.0
 10
124.6204725165879
 20
-149.4323947109058
 30
0.0
 10
124.1147324993532
 20
-149.0262179531948
 30
0.0
 10
124.1147324993532
 20
-149.0262179531948
 30
0.0
 10
124.1147324993532
 20
-149.8640651752076
 30
0.0
 10
124.1147324993532
 20
-149.8640651752076
 30
0.0
 10
124.1147324993532
 20
-149.8640651752076
 30
0.0
 10
123.9032036365589
 20
-149.8640651752076
 30
0.0
 10
123.9032036365589
 20
-149.8640651752076
 30
0.0
 10
123.9032036365589
 20
-149.8640651752076
 30
0.0
 10
123.9032036365589
 20
-148.7891953838096
 30
0.0
 10
123.9032036365589
 20
-148.7891953838096
 30
0.0
 10
123.9032036365589
 20
-148.7891953838096
 30
0.0
 10
124.1147324993532
 20
-148.7891953838096
 30
0.0
 10
124.1147324993532
 20
-148.7891953838096
 30
0.0
 10
124.4048095392113
 20
-149.1130343594231
 30
0.0
 10
124.9970214531257
 20
-149.3796847499814
 30
0.0
 10
125.4476399425964
 20
-149.4134466857369
 30
0.0
  0
HATCH
  5
DB
330
D6
100
AcDbEntity
  8
レイヤー 1
 62
    18
420
        0
440
 33554687
100
AcDbHatch
 10
0.0
 20
0.0
 30
0.0
210
0.0
220
0.0
230
1.0
  2
SOLID
 70
     1
 71
     1
 91
        1
 92
        1
 93
        1
 72
     4
 94
        3
 73
     0
 74
     0
 95
       26
 96
       22
 40
0.0
 40
0.0
 40
0.0
 40
0.0
 40
1.0
 40
1.0
 40
1.0
 40
2.0
 40
2.0
 40
2.0
 40
3.0
 40
3.0
 40
3.0
 40
4.0
 40
4.0
 40
4.0
 40
5.0
 40
5.0
 40
5.0
 40
6.0
 40
6.0
 40
6.0
 40
7.0
 40
7.0
 40
7.0
 40
7.0
 10
125.4476399425964
 20
-149.4134466857369
 10
125.4476399425964
 20
-149.4134466857369
 10
125.4476399425964
 20
-149.6504692551221
 10
125.4476399425964
 20
-149.6504692551221
 10
125.1386148775695
 20
-149.6249755485312
 10
124.6204725165879
 20
-149.4323947109058
 10
124.1147324993532
 20
-149.0262179531948
 10
124.1147324993532
 20
-149.0262179531948
 10
124.1147324993532
 20
-149.8640651752076
 10
124.1147324993532
 20
-149.8640651752076
 10
124.1147324993532
 20
-149.8640651752076
 10
123.9032036365589
 20
-149.8640651752076
 10
123.9032036365589
 20
-149.8640651752076
 10
123.9032036365589
 20
-149.8640651752076
 10
123.9032036365589
 20
-148.7891953838096
 10
123.9032036365589
 20
-148.7891953838096
 10
123.9032036365589
 20
-148.7891953838096
 10
124.1147324993532
 20
-148.7891953838096
 10
124.1147324993532
 20
-148.7891953838096
 10
124.4048095392113
 20
-149.1130343594231
 10
124.9970214531257
 20
-149.3796847499814
 10
125.4476399425964
 20
-149.4134466857369
 97
        0
 97
        1
330
DA
 75
     2
 76
     1
 98
        1
 10
0.0
 20
0.0
450
        0
451
        0
460
0.0
461
0.0
452
        0
462
0.0
453
        0
470

  0
ENDBLK
  5
D9
330
D6
100
AcDbEntity
  8
0
100
AcDbBlockEnd
  0
BLOCK
  5
DE
330
DC
100
AcDbEntity
  8
0
100
AcDbBlockBegin
  2
Block_12
 70
     0
 10
0.0
 20
0.0
 30
0.0
  3
Block_12
  1

  0
SPLINE
  5
E0
330
DC
100
AcDbEntity
  8
レイヤー 1
100
AcDbSpline
210
0.0
220
0.0
230
1.0
 70
    11
 71
     3
 72
    26
 73
    22
 74
     0
 42
0.0000000001
 43
0.0000000001
 40
0.0
 40
0.0
 40
0.0
 40
0.0
 40
1.0
 40
1.0
 40
1.0
 40
2.0
 40
2.0
 40
2.0
 40
3.0
 40
3.0
 40
3.0
 40
4.0
 40
4.0
 40
4.0
 40
5.0
 40
5.0
 40
5.0
 40
6.0
 40
6.0
 40
6.0
 40
7.0
 40
7.0
 40
7.0
 40
7.0
 10
125.4476399425964
 20
-143.1189127246369
 30
0.0
 10
125.4476399425964
 20
-143.1189127246369
 30
0.0
 10
124.3434868395738
 20
-143.1189127246369
 30
0.0
 10
124.3434868395738
 20
-143.1189127246369
 30
0.0
 10
124.3434868395738
 20
-143.1189127246369
 30
0.0
 10
124.3434868395738
 20
-143.4489528721238
 30
0.0
 10
124.3434868395738
 20
-143.4489528721238
 30
0.0
 10
124.3434868395738
 20
-143.4489528721238
 30
0.0
 10
124.1953477337081
 20
-143.4489528721238
 30
0.0
 10
124.1953477337081
 20
-143.4489528721238
 30
0.0
 10
124.1805338231215
 20
-143.1168456673458
 30
0.0
 10
124.0175808066692
 20
-143.0703368782949
 30
0.0
 10
123.9032036365589
 20
-143.0407090571218
 30
0.0
 10
123.9032036365589
 20
-143.0407090571218
 30
0.0
 10
123.9032036365589
 20
-142.8946370085472
 30
0.0
 10
123.9032036365589
 20
-142.8946370085472
 30
0.0
 10
123.9032036365589
 20
-142.8946370085472
 30
0.0
 10
125.4476399425964
 20
-142.8946370085472
 30
0.0
 10
125.4476399425964
 20
-142.8946370085472
 30
0.0
 10
125.4476399425964
 20
-142.8946370085472
 30
0.0
 10
125.4476399425964
 20
-143.1189127246369
 30
0.0
 10
125.4476399425964
 20
-143.1189127246369
 30
0.0
  0
HATCH
  5
E1
330
DC
100
AcDbEntity
  8
レイヤー 1
 62
    18
420
        0
440
 33554687
100
AcDbHatch
 10
0.0
 20
0.0
 30
0.0
210
0.0
220
0.0
230
1.0
  2
SOLID
 70
     1
 71
     1
 91
        1
 92
        1
 93
        1
 72
     4
 94
        3
 73
     0
 74
     0
 95
       26
 96
       22
 40
0.0
 40
0.0
 40
0.0
 40
0.0
 40
1.0
 40
1.0
 40
1.0
 40
2.0
 40
2.0
 40
2.0
 40
3.0
 40
3.0
 40
3.0
 40
4.0
 40
4.0
 40
4.0
 40
5.0
 40
5.0
 40
5.0
 40
6.0
 40
6.0
 40
6.0
 40
7.0
 40
7.0
 40
7.0
 40
7.0
 10
125.4476399425964
 20
-143.1189127246369
 10
125.4476399425964
 20
-143.1189127246369
 10
124.3434868395738
 20
-143.1189127246369
 10
124.3434868395738
 20
-143.1189127246369
 10
124.3434868395738
 20
-143.1189127246369
 10
124.3434868395738
 20
-143.4489528721238
 10
124.3434868395738
 20
-143.4489528721238
 10
124.3434868395738
 20
-143.4489528721238
 10
124.1953477337081
 20
-143.4489528721238
 10
124.1953477337081
 20
-143.4489528721238
 10
124.1805338231215
 20
-143.1168456673458
 10
124.0175808066692
 20
-143.0703368782949
 10
123.9032036365589
 20
-143.0407090571218
 10
123.9032036365589
 20
-143.0407090571218
 10
123.9032036365589
 20
-142.8946370085472
 10
123.9032036365589
 20
-142.8946370085472
 10
123.9032036365589
 20
-142.8946370085472
 10
125.4476399425964
 20
-142.8946370085472
 10
125.4476399425964
 20
-142.8946370085472
 10
125.4476399425964
 20
-142.8946370085472
 10
125.4476399425964
 20
-143.1189127246369
 10
125.4476399425964
 20
-143.1189127246369
 97
        0
 97
        1
330
E0
 75
     2
 76
     1
 98
        1
 10
0.0
 20
0.0
450
        0
451
        0
460
0.0
461
0.0
452
        0
462
0.0
453
        0
470

  0
ENDBLK
  5
DF
330
DC
100
AcDbEntity
  8
0
100
AcDbBlockEnd
  0
BLOCK
  5
EB
330
E9
100
AcDbEntity
  8
0
100
AcDbBlockBegin
  2
Block_13
 70
     0
 10
0.0
 20
0.0
 30
0.0
  3
Block_13
  1

  0
SPLINE
  5
ED
330
E9
100
AcDbEntity
  8
レイヤー 1
100
AcDbSpline
210
0.0
220
0.0
230
1.0
 70
     9
 71
     3
 72
    53
 73
    49
 74
     0
 42
0.0000000001
 43
0.0000000001
 40
0.0
 40
0.0
 40
0.0
 40
0.0
 40
1.0
 40
1.0
 40
1.0
 40
2.0
 40
2.0
 40
2.0
 40
3.0
 40
3.0
 40
3.0
 40
4.0
 40
4.0
 40
4.0
 40
5.0
 40
5.0
 40
5.0
 40
6.0
 40
6.0
 40
6.0
 40
7.0
 40
7.0
 40
7.0
 40
8.0
 40
8.0
 40
8.0
 40
9.0
 40
9.0
 40
9.0
 40
10.0
 40
10.0
 40
10.0
 40
11.0
 40
11.0
 40
11.0
 40
12.0
 40
12.0
 40
12.0
 40
13.0
 40
13.0
 40
13.0
 40
14.0
 40
14.0
 40
14.0
 40
15.0
 40
15.0
 40
15.0
 40
16.0
 40
16.0
 40
16.0
 40
16.0
 10
85.94962020420704
 20
-147.4177028711317
 30
0.0
 10
85.94962020420704
 20
-147.4959065386468
 30
0.0
 10
85.93273923632933
 20
-147.5975368554617
 30
0.0
 10
85.86934947940072
 20
-147.6991671722766
 30
0.0
 10
85.75945093342125
 20
-147.8724554751846
 30
0.0
 10
85.62819279543324
 20
-147.8938150671932
 30
0.0
 10
85.52036130674492
 20
-147.9127630923621
 30
0.0
 10
85.52036130674492
 20
-147.9127630923621
 30
0.0
 10
85.52036130674492
 20
-147.6905544335634
 30
0.0
 10
85.52036130674492
 20
-147.6905544335634
 30
0.0
 10
85.71914331624382
 20
-147.635777415348
 30
0.0
 10
85.74877113741697
 20
-147.5086533919423
 30
0.0
 10
85.74877113741697
 20
-147.4156358138405
 30
0.0
 10
85.74877113741697
 20
-147.2761094466879
 30
0.0
 10
85.64920787789326
 20
-147.1238362262399
 30
0.0
 10
85.4166639326389
 20
-147.1238362262399
 30
0.0
 10
85.16069333808482
 20
-147.1238362262399
 30
0.0
 10
85.09075789973426
 20
-147.3036702105699
 30
0.0
 10
85.09075789973426
 20
-147.4242485525536
 30
0.0
 10
85.09075789973426
 20
-147.4559434310179
 30
0.0
 10
85.09075789973426
 20
-147.5975368554617
 30
0.0
 10
85.21994898043113
 20
-147.6864203189812
 30
0.0
 10
85.21994898043113
 20
-147.6864203189812
 30
0.0
 10
85.20100095526226
 20
-147.8621201887289
 30
0.0
 10
85.20100095526226
 20
-147.8621201887289
 30
0.0
 10
85.20100095526226
 20
-147.8621201887289
 30
0.0
 10
84.35454099453636
 20
-147.7415418467451
 30
0.0
 10
84.35454099453636
 20
-147.7415418467451
 30
0.0
 10
84.35454099453636
 20
-147.7415418467451
 30
0.0
 10
84.35454099453636
 20
-146.9629502670787
 30
0.0
 10
84.35454099453636
 20
-146.9629502670787
 30
0.0
 10
84.35454099453636
 20
-146.9629502670787
 30
0.0
 10
84.54918888945298
 20
-146.9629502670787
 30
0.0
 10
84.54918888945298
 20
-146.9629502670787
 30
0.0
 10
84.54918888945298
 20
-146.9629502670787
 30
0.0
 10
84.54918888945298
 20
-147.5785888302928
 30
0.0
 10
84.54918888945298
 20
-147.5785888302928
 30
0.0
 10
84.54918888945298
 20
-147.5785888302928
 30
0.0
 10
84.97224661504167
 20
-147.6440456445126
 30
0.0
 10
84.97224661504167
 20
-147.6440456445126
 30
0.0
 10
84.93848467928621
 20
-147.5827229448752
 30
0.0
 10
84.89817706210878
 20
-147.5003851627777
 30
0.0
 10
84.89817706210878
 20
-147.3818738780851
 30
0.0
 10
84.89817706210878
 20
-147.1279703408221
 30
0.0
 10
85.08455672786082
 20
-146.890947771437
 30
0.0
 10
85.39771590747001
 20
-146.890947771437
 30
0.0
 10
85.71500920166153
 20
-146.890947771437
 30
0.0
 10
85.94962020420704
 20
-147.1152234875267
 30
0.0
 10
85.94962020420704
 20
-147.4177028711317
 30
0.0
  0
HATCH
  5
EE
330
E9
100
AcDbEntity
  8
レイヤー 1
 62
    18
420
        0
440
 33554687
100
AcDbHatch
 10
0.0
 20
0.0
 30
0.0
210
0.0
220
0.0
230
1.0
  2
SOLID
 70
     1
 71
     1
 91
        1
 92
        1
 93
        1
 72
     4
 94
        3
 73
     0
 74
     0
 95
       53
 96
       49
 40
0.0
 40
0.0
 40
0.0
 40
0.0
 40
1.0
 40
1.0
 40
1.0
 40
2.0
 40
2.0
 40
2.0
 40
3.0
 40
3.0
 40
3.0
 40
4.0
 40
4.0
 40
4.0
 40
5.0
 40
5.0
 40
5.0
 40
6.0
 40
6.0
 40
6.0
 40
7.0
 40
7.0
 40
7.0
 40
8.0
 40
8.0
 40
8.0
 40
9.0
 40
9.0
 40
9.0
 40
10.0
 40
10.0
 40
10.0
 40
11.0
 40
11.0
 40
11.0
 40
12.0
 40
12.0
 40
12.0
 40
13.0
 40
13.0
 40
13.0
 40
14.0
 40
14.0
 40
14.0
 40
15.0
 40
15.0
 40
15.0
 40
16.0
 40
16.0
 40
16.0
 40
16.0
 10
85.94962020420704
 20
-147.4177028711317
 10
85.94962020420704
 20
-147.4959065386468
 10
85.93273923632933
 20
-147.5975368554617
 10
85.86934947940072
 20
-147.6991671722766
 10
85.75945093342125
 20
-147.8724554751846
 10
85.62819279543324
 20
-147.8938150671932
 10
85.52036130674492
 20
-147.9127630923621
 10
85.52036130674492
 20
-147.9127630923621
 10
85.52036130674492
 20
-147.6905544335634
 10
85.52036130674492
 20
-147.6905544335634
 10
85.71914331624382
 20
-147.635777415348
 10
85.74877113741697
 20
-147.5086533919423
 10
85.74877113741697
 20
-147.4156358138405
 10
85.74877113741697
 20
-147.2761094466879
 10
85.64920787789326
 20
-147.1238362262399
 10
85.4166639326389
 20
-147.1238362262399
 10
85.16069333808482
 20
-147.1238362262399
 10
85.09075789973426
 20
-147.3036702105699
 10
85.09075789973426
 20
-147.4242485525536
 10
85.09075789973426
 20
-147.4559434310179
 10
85.09075789973426
 20
-147.5975368554617
 10
85.21994898043113
 20
-147.6864203189812
 10
85.21994898043113
 20
-147.6864203189812
 10
85.20100095526226
 20
-147.8621201887289
 10
85.20100095526226
 20
-147.8621201887289
 10
85.20100095526226
 20
-147.8621201887289
 10
84.35454099453636
 20
-147.7415418467451
 10
84.35454099453636
 20
-147.7415418467451
 10
84.35454099453636
 20
-147.7415418467451
 10
84.35454099453636
 20
-146.9629502670787
 10
84.35454099453636
 20
-146.9629502670787
 10
84.35454099453636
 20
-146.9629502670787
 10
84.54918888945298
 20
-146.9629502670787
 10
84.54918888945298
 20
-146.9629502670787
 10
84.54918888945298
 20
-146.9629502670787
 10
84.54918888945298
 20
-147.5785888302928
 10
84.54918888945298
 20
-147.5785888302928
 10
84.54918888945298
 20
-147.5785888302928
 10
84.97224661504167
 20
-147.6440456445126
 10
84.97224661504167
 20
-147.6440456445126
 10
84.93848467928621
 20
-147.5827229448752
 10
84.89817706210878
 20
-147.5003851627777
 10
84.89817706210878
 20
-147.3818738780851
 10
84.89817706210878
 20
-147.1279703408221
 10
85.08455672786082
 20
-146.890947771437
 10
85.39771590747001
 20
-146.890947771437
 10
85.71500920166153
 20
-146.890947771437
 10
85.94962020420704
 20
-147.1152234875267
 10
85.94962020420704
 20
-147.4177028711317
 97
        0
 97
        1
330
ED
 75
     2
 76
     1
 98
        1
 10
0.0
 20
0.0
450
        0
451
        0
460
0.0
461
0.0
452
        0
462
0.0
453
        0
470

  0
ENDBLK
  5
EC
330
E9
100
AcDbEntity
  8
0
100
AcDbBlockEnd
  0
BLOCK
  5
F1
330
EF
100
AcDbEntity
  8
0
100
AcDbBlockBegin
  2
Block_14
 70
     0
 10
0.0
 20
0.0
 30
0.0
  3
Block_14
  1

  0
SPLINE
  5
F3
330
EF
100
AcDbEntity
  8
レイヤー 1
100
AcDbSpline
210
0.0
220
0.0
230
1.0
 70
     9
 71
     3
 72
    17
 73
    13
 74
     0
 42
0.0000000001
 43
0.0000000001
 40
0.0
 40
0.0
 40
0.0
 40
0.0
 40
1.0
 40
1.0
 40
1.0
 40
2.0
 40
2.0
 40
2.0
 40
3.0
 40
3.0
 40
3.0
 40
4.0
 40
4.0
 40
4.0
 40
4.0
 10
85.09075789973426
 20
-152.8781792152527
 30
0.0
 10
85.09075789973426
 20
-153.1403509816802
 30
0.0
 10
85.30228676252859
 20
-153.1782470320179
 30
0.0
 10
85.41873098993004
 20
-153.1782470320179
 30
0.0
 10
85.59443085967778
 20
-153.1782470320179
 30
0.0
 10
85.75738387613011
 20
-153.083162396625
 30
0.0
 10
85.75738387613011
 20
-152.8991942977127
 30
0.0
 10
85.75738387613011
 20
-152.7786159557289
 30
0.0
 10
85.69812823378381
 20
-152.6029160859812
 30
0.0
 10
85.4125298180566
 20
-152.6029160859812
 30
0.0
 10
85.18825410196683
 20
-152.6029160859812
 30
0.0
 10
85.09075789973426
 20
-152.7424424531338
 30
0.0
 10
85.09075789973426
 20
-152.8781792152527
 30
0.0
  0
SPLINE
  5
F4
330
EF
100
AcDbEntity
  8
レイヤー 1
100
AcDbSpline
210
0.0
220
0.0
230
1.0
 70
     9
 71
     3
 72
    32
 73
    28
 74
     0
 42
0.0000000001
 43
0.0000000001
 40
0.0
 40
0.0
 40
0.0
 40
0.0
 40
1.0
 40
1.0
 40
1.0
 40
2.0
 40
2.0
 40
2.0
 40
3.0
 40
3.0
 40
3.0
 40
4.0
 40
4.0
 40
4.0
 40
5.0
 40
5.0
 40
5.0
 40
6.0
 40
6.0
 40
6.0
 40
7.0
 40
7.0
 40
7.0
 40
8.0
 40
8.0
 40
8.0
 40
9.0
 40
9.0
 40
9.0
 40
9.0
 10
85.94962020420704
 20
-152.8950601831304
 30
0.0
 10
85.94962020420704
 20
-153.4111354868208
 30
0.0
 10
85.39564885017886
 20
-153.4197482255339
 30
0.0
 10
85.18170842054486
 20
-153.4197482255339
 30
0.0
 10
84.95123153258164
 20
-153.4197482255339
 30
0.0
 10
84.30389809090319
 20
-153.4004556908165
 30
0.0
 10
84.30389809090319
 20
-152.8568196232441
 30
0.0
 10
84.30389809090319
 20
-152.6835313203361
 30
0.0
 10
84.37383352925378
 20
-152.4378960122377
 30
0.0
 10
84.70594073403185
 20
-152.3999999619
 30
0.0
 10
84.70594073403185
 20
-152.3999999619
 30
0.0
 10
84.70594073403185
 20
-152.6135958819855
 30
0.0
 10
84.70594073403185
 20
-152.6135958819855
 30
0.0
 10
84.6487521489767
 20
-152.6242756779898
 30
0.0
 10
84.50061304311097
 20
-152.655970556454
 30
0.0
 10
84.50061304311097
 20
-152.8588866805353
 30
0.0
 10
84.50061304311097
 20
-153.1510307776845
 30
0.0
 10
84.82858613330675
 20
-153.1909938853133
 30
0.0
 10
85.0335693146791
 20
-153.2037407386088
 30
0.0
 10
84.95536564716394
 20
-153.110723160507
 30
0.0
 10
84.89611000481763
 20
-153.0428547794476
 30
0.0
 10
84.89611000481763
 20
-152.8609537378264
 30
0.0
 10
84.89611000481763
 20
-152.6811197534964
 30
0.0
 10
85.00428600305449
 20
-152.3786403698914
 30
0.0
 10
85.41046276076544
 20
-152.3786403698914
 30
0.0
 10
85.7298231122481
 20
-152.3786403698914
 30
0.0
 10
85.94962020420704
 20
-152.5777668889389
 30
0.0
 10
85.94962020420704
 20
-152.8950601831304
 30
0.0
  0
HATCH
  5
F5
330
EF
100
AcDbEntity
  8
レイヤー 1
 62
    18
420
        0
440
 33554687
100
AcDbHatch
 10
0.0
 20
0.0
 30
0.0
210
0.0
220
0.0
230
1.0
  2
SOLID
 70
     1
 71
     1
 91
        2
 92
        1
 93
        1
 72
     4
 94
        3
 73
     0
 74
     0
 95
       17
 96
       13
 40
0.0
 40
0.0
 40
0.0
 40
0.0
 40
1.0
 40
1.0
 40
1.0
 40
2.0
 40
2.0
 40
2.0
 40
3.0
 40
3.0
 40
3.0
 40
4.0
 40
4.0
 40
4.0
 40
4.0
 10
85.09075789973426
 20
-152.8781792152527
 10
85.09075789973426
 20
-153.1403509816802
 10
85.30228676252859
 20
-153.1782470320179
 10
85.41873098993004
 20
-153.1782470320179
 10
85.59443085967778
 20
-153.1782470320179
 10
85.75738387613011
 20
-153.083162396625
 10
85.75738387613011
 20
-152.8991942977127
 10
85.75738387613011
 20
-152.7786159557289
 10
85.69812823378381
 20
-152.6029160859812
 10
85.4125298180566
 20
-152.6029160859812
 10
85.18825410196683
 20
-152.6029160859812
 10
85.09075789973426
 20
-152.7424424531338
 10
85.09075789973426
 20
-152.8781792152527
 97
        0
 97
        1
330
F3
 92
        1
 93
        1
 72
     4
 94
        3
 73
     0
 74
     0
 95
       32
 96
       28
 40
0.0
 40
0.0
 40
0.0
 40
0.0
 40
1.0
 40
1.0
 40
1.0
 40
2.0
 40
2.0
 40
2.0
 40
3.0
 40
3.0
 40
3.0
 40
4.0
 40
4.0
 40
4.0
 40
5.0
 40
5.0
 40
5.0
 40
6.0
 40
6.0
 40
6.0
 40
7.0
 40
7.0
 40
7.0
 40
8.0
 40
8.0
 40
8.0
 40
9.0
 40
9.0
 40
9.0
 40
9.0
 10
85.94962020420704
 20
-152.8950601831304
 10
85.94962020420704
 20
-153.4111354868208
 10
85.39564885017886
 20
-153.4197482255339
 10
85.18170842054486
 20
-153.4197482255339
 10
84.95123153258164
 20
-153.4197482255339
 10
84.30389809090319
 20
-153.4004556908165
 10
84.30389809090319
 20
-152.8568196232441
 10
84.30389809090319
 20
-152.6835313203361
 10
84.37383352925378
 20
-152.4378960122377
 10
84.70594073403185
 20
-152.3999999619
 10
84.70594073403185
 20
-152.3999999619
 10
84.70594073403185
 20
-152.6135958819855
 10
84.70594073403185
 20
-152.6135958819855
 10
84.6487521489767
 20
-152.6242756779898
 10
84.50061304311097
 20
-152.655970556454
 10
84.50061304311097
 20
-152.8588866805353
 10
84.50061304311097
 20
-153.1510307776845
 10
84.82858613330675
 20
-153.1909938853133
 10
85.0335693146791
 20
-153.2037407386088
 10
84.95536564716394
 20
-153.110723160507
 10
84.89611000481763
 20
-153.0428547794476
 10
84.89611000481763
 20
-152.8609537378264
 10
84.89611000481763
 20
-152.6811197534964
 10
85.00428600305449
 20
-152.3786403698914
 10
85.41046276076544
 20
-152.3786403698914
 10
85.7298231122481
 20
-152.3786403698914
 10
85.94962020420704
 20
-152.5777668889389
 10
85.94962020420704
 20
-152.8950601831304
 97
        0
 97
        1
330
F4
 75
     2
 76
     1
 98
        1
 10
0.0
 20
0.0
450
        0
451
        0
460
0.0
461
0.0
452
        0
462
0.0
453
        0
470

  0
ENDBLK
  5
F2
330
EF
100
AcDbEntity
  8
0
100
AcDbBlockEnd
  0
BLOCK
  5
F8
330
F6
100
AcDbEntity
  8
0
100
AcDbBlockBegin
  2
Block_15
 70
     0
 10
0.0
 20
0.0
 30
0.0
  3
Block_15
  1

  0
LINE
  5
FA
330
F6
100
AcDbEntity
  8
レイヤー 1
 62
   250
420
  2299925
370
     9
100
AcDbLine
 10
100.819421943369
 20
-145.787028616519
 30
0.0
 11
101.3764933321186
 21
-146.6178202619901
 31
0.0
  0
LINE
  5
FB
330
F6
100
AcDbEntity
  8
レイヤー 1
 62
   250
420
  2299925
370
     9
100
AcDbLine
 10
101.3096772210242
 20
-145.6202705652178
 30
0.0
 11
101.3764933321186
 21
-146.6178202619901
 31
0.0
  0
LINE
  5
FC
330
F6
100
AcDbEntity
  8
レイヤー 1
 62
   250
420
  2299925
370
     9
100
AcDbLine
 10
99.95937564718568
 20
-142.4738906017156
 30
0.0
 11
101.3764933523947
 21
-146.6178203335507
 31
0.0
  0
ENDBLK
  5
F9
330
F6
100
AcDbEntity
  8
0
100
AcDbBlockEnd
  0
BLOCK
  5
FF
330
FD
100
AcDbEntity
  8
0
100
AcDbBlockBegin
  2
Block_16
 70
     0
 10
0.0
 20
0.0
 30
0.0
  3
Block_16
  1

  0
INSERT
  5
102
330
FD
100
AcDbEntity
  8
レイヤー 1
100
AcDbBlockReference
  2
Block_17
 10
0.0
 20
0.0
 30
0.0
  0
ENDBLK
  5
100
330
FD
100
AcDbEntity
  8
0
100
AcDbBlockEnd
  0
BLOCK
  5
103
330
101
100
AcDbEntity
  8
0
100
AcDbBlockBegin
  2
Block_17
 70
     0
 10
0.0
 20
0.0
 30
0.0
  3
Block_17
  1

  0
SPLINE
  5
105
330
101
100
AcDbEntity
  8
レイヤー 1
100
AcDbSpline
210
0.0
220
0.0
230
1.0
 70
     9
 71
     3
 72
    38
 73
    34
 74
     0
 42
0.0000000001
 43
0.0000000001
 40
0.0
 40
0.0
 40
0.0
 40
0.0
 40
1.0
 40
1.0
 40
1.0
 40
2.0
 40
2.0
 40
2.0
 40
3.0
 40
3.0
 40
3.0
 40
4.0
 40
4.0
 40
4.0
 40
5.0
 40
5.0
 40
5.0
 40
6.0
 40
6.0
 40
6.0
 40
7.0
 40
7.0
 40
7.0
 40
8.0
 40
8.0
 40
8.0
 40
9.0
 40
9.0
 40
9.0
 40
10.0
 40
10.0
 40
10.0
 40
11.0
 40
11.0
 40
11.0
 40
11.0
 10
98.37073972150108
 20
-140.8415323541125
 30
0.0
 10
98.46392955437707
 20
-140.7188869548376
 30
0.0
 10
98.58864201094313
 20
-140.5390529705076
 30
0.0
 10
98.68389890111028
 20
-140.0905015383281
 30
0.0
 10
98.68389890111028
 20
-140.0905015383281
 30
0.0
 10
98.8509860321449
 20
-140.1097940730454
 30
0.0
 10
98.8509860321449
 20
-140.1097940730454
 30
0.0
 10
98.82566458032831
 20
-140.2303724150292
 30
0.0
 10
98.80241018580287
 20
-140.3213229358398
 30
0.0
 10
98.7641696259166
 20
-140.4291544245281
 30
0.0
 10
98.7641696259166
 20
-140.4291544245281
 30
0.0
 10
99.39255504242616
 20
-140.4291544245281
 30
0.0
 10
99.39255504242616
 20
-140.4291544245281
 30
0.0
 10
99.39255504242616
 20
-140.4291544245281
 30
0.0
 10
99.39255504242616
 20
-140.5814276449762
 30
0.0
 10
99.39255504242616
 20
-140.5814276449762
 30
0.0
 10
99.35879310667072
 20
-140.7230210694199
 30
0.0
 10
99.26353621650356
 20
-140.9814032308137
 30
0.0
 10
99.1894666635707
 20
-141.0999145155062
 30
0.0
 10
99.1894666635707
 20
-141.0999145155062
 30
0.0
 10
99.03719344312264
 20
-141.0213663384426
 30
0.0
 10
99.03719344312264
 20
-141.0213663384426
 30
0.0
 10
99.13227807851555
 20
-140.8859740858722
 30
0.0
 10
99.19790714750956
 20
-140.6978718723776
 30
0.0
 10
99.22546791139154
 20
-140.5879733263981
 30
0.0
 10
99.22546791139154
 20
-140.5879733263981
 30
0.0
 10
98.70715329563573
 20
-140.5879733263981
 30
0.0
 10
98.70715329563573
 20
-140.5879733263981
 30
0.0
 10
98.60776229088626
 20
-140.8291300103656
 30
0.0
 10
98.53369273795339
 20
-140.9176689643365
 30
0.0
 10
98.49562443284138
 20
-140.9621106960963
 30
0.0
 10
98.49562443284138
 20
-140.9621106960963
 30
0.0
 10
98.37073972150108
 20
-140.8415323541125
 30
0.0
 10
98.37073972150108
 20
-140.8415323541125
 30
0.0
  0
SPLINE
  5
106
330
101
100
AcDbEntity
  8
レイヤー 1
100
AcDbSpline
210
0.0
220
0.0
230
1.0
 70
     9
 71
     3
 72
    38
 73
    34
 74
     0
 42
0.0000000001
 43
0.0000000001
 40
0.0
 40
0.0
 40
0.0
 40
0.0
 40
1.0
 40
1.0
 40
1.0
 40
2.0
 40
2.0
 40
2.0
 40
3.0
 40
3.0
 40
3.0
 40
4.0
 40
4.0
 40
4.0
 40
5.0
 40
5.0
 40
5.0
 40
6.0
 40
6.0
 40
6.0
 40
7.0
 40
7.0
 40
7.0
 40
8.0
 40
8.0
 40
8.0
 40
9.0
 40
9.0
 40
9.0
 40
10.0
 40
10.0
 40
10.0
 40
11.0
 40
11.0
 40
11.0
 40
11.0
 10
98.25653480616503
 20
-141.9143350882193
 30
0.0
 10
98.33904484303678
 20
-141.8612806177465
 30
0.0
 10
98.50406491678024
 20
-141.7534491290581
 30
0.0
 10
98.60982934817741
 20
-141.5460543808461
 30
0.0
 10
98.75796845404316
 20
-141.2542547932455
 30
0.0
 10
98.75796845404316
 20
-141.0279120198645
 30
0.0
 10
98.75796845404316
 20
-140.9431626709274
 30
0.0
 10
98.75796845404316
 20
-140.9431626709274
 30
0.0
 10
98.75796845404316
 20
-140.7085516683819
 30
0.0
 10
98.75796845404316
 20
-140.7085516683819
 30
0.0
 10
98.75796845404316
 20
-140.7085516683819
 30
0.0
 10
98.92298852778662
 20
-140.7085516683819
 30
0.0
 10
98.92298852778662
 20
-140.7085516683819
 30
0.0
 10
98.92298852778662
 20
-140.7085516683819
 30
0.0
 10
98.92298852778662
 20
-140.9348944417628
 30
0.0
 10
98.92298852778662
 20
-140.9348944417628
 30
0.0
 10
98.92298852778662
 20
-141.1336764512617
 30
0.0
 10
98.98844534200637
 20
-141.3706990206469
 30
0.0
 10
99.09007565882124
 20
-141.5439873235549
 30
0.0
 10
99.20634763144843
 20
-141.7427693330539
 30
0.0
 10
99.33536645737103
 20
-141.8423325925776
 30
0.0
 10
99.42011580630818
 20
-141.903655292215
 30
0.0
 10
99.42011580630818
 20
-141.903655292215
 30
0.0
 10
99.31211206284558
 20
-142.0538614553719
 30
0.0
 10
99.31211206284558
 20
-142.0538614553719
 30
0.0
 10
99.13451739058096
 20
-141.9246703746751
 30
0.0
 10
98.93556312630778
 20
-141.6855807479987
 30
0.0
 10
98.85735945879261
 20
-141.3324584607606
 30
0.0
 10
98.7917303897986
 20
-141.571548087437
 30
0.0
 10
98.69027232775799
 20
-141.8402655352864
 30
0.0
 10
98.38141951750536
 20
-142.0497273407896
 30
0.0
 10
98.38141951750536
 20
-142.0497273407896
 30
0.0
 10
98.25653480616503
 20
-141.9143350882193
 30
0.0
 10
98.25653480616503
 20
-141.9143350882193
 30
0.0
  0
SPLINE
  5
107
330
101
100
AcDbEntity
  8
レイヤー 1
100
AcDbSpline
210
0.0
220
0.0
230
1.0
 70
    11
 71
     3
 72
    17
 73
    13
 74
     0
 42
0.0000000001
 43
0.0000000001
 40
0.0
 40
0.0
 40
0.0
 40
0.0
 40
1.0
 40
1.0
 40
1.0
 40
2.0
 40
2.0
 40
2.0
 40
3.0
 40
3.0
 40
3.0
 40
4.0
 40
4.0
 40
4.0
 40
4.0
 10
98.21416013169645
 20
-141.0258449625734
 30
0.0
 10
98.21416013169645
 20
-141.0258449625734
 30
0.0
 10
98.00263126890213
 20
-141.0258449625734
 30
0.0
 10
98.00263126890213
 20
-141.0258449625734
 30
0.0
 10
98.00263126890213
 20
-141.0258449625734
 30
0.0
 10
98.00263126890213
 20
-141.2328952012369
 30
0.0
 10
98.00263126890213
 20
-141.2328952012369
 30
0.0
 10
98.00263126890213
 20
-141.2328952012369
 30
0.0
 10
98.21416013169645
 20
-141.2328952012369
 30
0.0
 10
98.21416013169645
 20
-141.2328952012369
 30
0.0
 10
98.21416013169645
 20
-141.2328952012369
 30
0.0
 10
98.21416013169645
 20
-141.0258449625734
 30
0.0
 10
98.21416013169645
 20
-141.0258449625734
 30
0.0
  0
SPLINE
  5
108
330
101
100
AcDbEntity
  8
レイヤー 1
100
AcDbSpline
210
0.0
220
0.0
230
1.0
 70
    11
 71
     3
 72
    17
 73
    13
 74
     0
 42
0.0000000001
 43
0.0000000001
 40
0.0
 40
0.0
 40
0.0
 40
0.0
 40
1.0
 40
1.0
 40
1.0
 40
2.0
 40
2.0
 40
2.0
 40
3.0
 40
3.0
 40
3.0
 40
4.0
 40
4.0
 40
4.0
 40
4.0
 10
98.21416013169645
 20
-140.6999389296688
 30
0.0
 10
98.21416013169645
 20
-140.6999389296688
 30
0.0
 10
98.00263126890213
 20
-140.6999389296688
 30
0.0
 10
98.00263126890213
 20
-140.6999389296688
 30
0.0
 10
98.00263126890213
 20
-140.6999389296688
 30
0.0
 10
98.00263126890213
 20
-140.90285505375
 30
0.0
 10
98.00263126890213
 20
-140.90285505375
 30
0.0
 10
98.00263126890213
 20
-140.90285505375
 30
0.0
 10
98.21416013169645
 20
-140.90285505375
 30
0.0
 10
98.21416013169645
 20
-140.90285505375
 30
0.0
 10
98.21416013169645
 20
-140.90285505375
 30
0.0
 10
98.21416013169645
 20
-140.6999389296688
 30
0.0
 10
98.21416013169645
 20
-140.6999389296688
 30
0.0
  0
SPLINE
  5
109
330
101
100
AcDbEntity
  8
レイヤー 1
100
AcDbSpline
210
0.0
220
0.0
230
1.0
 70
    11
 71
     3
 72
    17
 73
    13
 74
     0
 42
0.0000000001
 43
0.0000000001
 40
0.0
 40
0.0
 40
0.0
 40
0.0
 40
1.0
 40
1.0
 40
1.0
 40
2.0
 40
2.0
 40
2.0
 40
3.0
 40
3.0
 40
3.0
 40
4.0
 40
4.0
 40
4.0
 40
4.0
 10
97.84829099116294
 20
-141.0258449625734
 30
0.0
 10
97.84829099116294
 20
-141.0258449625734
 30
0.0
 10
97.64089624295088
 20
-141.0258449625734
 30
0.0
 10
97.64089624295088
 20
-141.0258449625734
 30
0.0
 10
97.64089624295088
 20
-141.0258449625734
 30
0.0
 10
97.64089624295088
 20
-141.2328952012369
 30
0.0
 10
97.64089624295088
 20
-141.2328952012369
 30
0.0
 10
97.64089624295088
 20
-141.2328952012369
 30
0.0
 10
97.84829099116294
 20
-141.2328952012369
 30
0.0
 10
97.84829099116294
 20
-141.2328952012369
 30
0.0
 10
97.84829099116294
 20
-141.2328952012369
 30
0.0
 10
97.84829099116294
 20
-141.0258449625734
 30
0.0
 10
97.84829099116294
 20
-141.0258449625734
 30
0.0
  0
SPLINE
  5
10A
330
101
100
AcDbEntity
  8
レイヤー 1
100
AcDbSpline
210
0.0
220
0.0
230
1.0
 70
    11
 71
     3
 72
    17
 73
    13
 74
     0
 42
0.0000000001
 43
0.0000000001
 40
0.0
 40
0.0
 40
0.0
 40
0.0
 40
1.0
 40
1.0
 40
1.0
 40
2.0
 40
2.0
 40
2.0
 40
3.0
 40
3.0
 40
3.0
 40
4.0
 40
4.0
 40
4.0
 40
4.0
 10
97.84829099116294
 20
-140.6999389296688
 30
0.0
 10
97.84829099116294
 20
-140.6999389296688
 30
0.0
 10
97.64089624295088
 20
-140.6999389296688
 30
0.0
 10
97.64089624295088
 20
-140.6999389296688
 30
0.0
 10
97.64089624295088
 20
-140.6999389296688
 30
0.0
 10
97.64089624295088
 20
-140.90285505375
 30
0.0
 10
97.64089624295088
 20
-140.90285505375
 30
0.0
 10
97.64089624295088
 20
-140.90285505375
 30
0.0
 10
97.84829099116294
 20
-140.90285505375
 30
0.0
 10
97.84829099116294
 20
-140.90285505375
 30
0.0
 10
97.84829099116294
 20
-140.90285505375
 30
0.0
 10
97.84829099116294
 20
-140.6999389296688
 30
0.0
 10
97.84829099116294
 20
-140.6999389296688
 30
0.0
  0
SPLINE
  5
10B
330
101
100
AcDbEntity
  8
レイヤー 1
100
AcDbSpline
210
0.0
220
0.0
230
1.0
 70
    11
 71
     3
 72
    89
 73
    85
 74
     0
 42
0.0000000001
 43
0.0000000001
 40
0.0
 40
0.0
 40
0.0
 40
0.0
 40
1.0
 40
1.0
 40
1.0
 40
2.0
 40
2.0
 40
2.0
 40
3.0
 40
3.0
 40
3.0
 40
4.0
 40
4.0
 40
4.0
 40
5.0
 40
5.0
 40
5.0
 40
6.0
 40
6.0
 40
6.0
 40
7.0
 40
7.0
 40
7.0
 40
8.0
 40
8.0
 40
8.0
 40
9.0
 40
9.0
 40
9.0
 40
10.0
 40
10.0
 40
10.0
 40
11.0
 40
11.0
 40
11.0
 40
12.0
 40
12.0
 40
12.0
 40
13.0
 40
13.0
 40
13.0
 40
14.0
 40
14.0
 40
14.0
 40
15.0
 40
15.0
 40
15.0
 40
16.0
 40
16.0
 40
16.0
 40
17.0
 40
17.0
 40
17.0
 40
18.0
 40
18.0
 40
18.0
 40
19.0
 40
19.0
 40
19.0
 40
20.0
 40
20.0
 40
20.0
 40
21.0
 40
21.0
 40
21.0
 40
22.0
 40
22.0
 40
22.0
 40
23.0
 40
23.0
 40
23.0
 40
24.0
 40
24.0
 40
24.0
 40
25.0
 40
25.0
 40
25.0
 40
26.0
 40
26.0
 40
26.0
 40
27.0
 40
27.0
 40
27.0
 40
28.0
 40
28.0
 40
28.0
 40
28.0
 10
97.84829099116294
 20
-140.2513874974892
 30
0.0
 10
97.84829099116294
 20
-140.2513874974892
 30
0.0
 10
97.84829099116294
 20
-140.0905015383281
 30
0.0
 10
97.84829099116294
 20
-140.0905015383281
 30
0.0
 10
97.84829099116294
 20
-140.0905015383281
 30
0.0
 10
98.00263126890213
 20
-140.0905015383281
 30
0.0
 10
98.00263126890213
 20
-140.0905015383281
 30
0.0
 10
98.00263126890213
 20
-140.0905015383281
 30
0.0
 10
98.00263126890213
 20
-140.2513874974892
 30
0.0
 10
98.00263126890213
 20
-140.2513874974892
 30
0.0
 10
98.00263126890213
 20
-140.2513874974892
 30
0.0
 10
98.39623342809192
 20
-140.2513874974892
 30
0.0
 10
98.39623342809192
 20
-140.2513874974892
 30
0.0
 10
98.39623342809192
 20
-140.2513874974892
 30
0.0
 10
98.39623342809192
 20
-140.4057277752284
 30
0.0
 10
98.39623342809192
 20
-140.4057277752284
 30
0.0
 10
98.39623342809192
 20
-140.4057277752284
 30
0.0
 10
98.00263126890213
 20
-140.4057277752284
 30
0.0
 10
98.00263126890213
 20
-140.4057277752284
 30
0.0
 10
98.00263126890213
 20
-140.4057277752284
 30
0.0
 10
98.00263126890213
 20
-140.5604125625161
 30
0.0
 10
98.00263126890213
 20
-140.5604125625161
 30
0.0
 10
98.00263126890213
 20
-140.5604125625161
 30
0.0
 10
98.35799286820565
 20
-140.5604125625161
 30
0.0
 10
98.35799286820565
 20
-140.5604125625161
 30
0.0
 10
98.35799286820565
 20
-140.5604125625161
 30
0.0
 10
98.35799286820565
 20
-141.372766077938
 30
0.0
 10
98.35799286820565
 20
-141.372766077938
 30
0.0
 10
98.35799286820565
 20
-141.372766077938
 30
0.0
 10
98.00263126890213
 20
-141.372766077938
 30
0.0
 10
98.00263126890213
 20
-141.372766077938
 30
0.0
 10
98.00263126890213
 20
-141.372766077938
 30
0.0
 10
98.00263126890213
 20
-141.5419202662638
 30
0.0
 10
98.00263126890213
 20
-141.5419202662638
 30
0.0
 10
98.00263126890213
 20
-141.5419202662638
 30
0.0
 10
98.41104733867849
 20
-141.5419202662638
 30
0.0
 10
98.41104733867849
 20
-141.5419202662638
 30
0.0
 10
98.41104733867849
 20
-141.5419202662638
 30
0.0
 10
98.41104733867849
 20
-141.696260544003
 30
0.0
 10
98.41104733867849
 20
-141.696260544003
 30
0.0
 10
98.41104733867849
 20
-141.696260544003
 30
0.0
 10
98.00263126890213
 20
-141.696260544003
 30
0.0
 10
98.00263126890213
 20
-141.696260544003
 30
0.0
 10
98.00263126890213
 20
-141.696260544003
 30
0.0
 10
98.00263126890213
 20
-142.0497273407896
 30
0.0
 10
98.00263126890213
 20
-142.0497273407896
 30
0.0
 10
98.00263126890213
 20
-142.0497273407896
 30
0.0
 10
97.84829099116294
 20
-142.0497273407896
 30
0.0
 10
97.84829099116294
 20
-142.0497273407896
 30
0.0
 10
97.84829099116294
 20
-142.0497273407896
 30
0.0
 10
97.84829099116294
 20
-141.696260544003
 30
0.0
 10
97.84829099116294
 20
-141.696260544003
 30
0.0
 10
97.84829099116294
 20
-141.696260544003
 30
0.0
 10
97.43780786409542
 20
-141.696260544003
 30
0.0
 10
97.43780786409542
 20
-141.696260544003
 30
0.0
 10
97.43780786409542
 20
-141.696260544003
 30
0.0
 10
97.43780786409542
 20
-141.5419202662638
 30
0.0
 10
97.43780786409542
 20
-141.5419202662638
 30
0.0
 10
97.43780786409542
 20
-141.5419202662638
 30
0.0
 10
97.84829099116294
 20
-141.5419202662638
 30
0.0
 10
97.84829099116294
 20
-141.5419202662638
 30
0.0
 10
97.84829099116294
 20
-141.5419202662638
 30
0.0
 10
97.84829099116294
 20
-141.372766077938
 30
0.0
 10
97.84829099116294
 20
-141.372766077938
 30
0.0
 10
97.84829099116294
 20
-141.372766077938
 30
0.0
 10
97.49913056373287
 20
-141.372766077938
 30
0.0
 10
97.49913056373287
 20
-141.372766077938
 30
0.0
 10
97.49913056373287
 20
-141.372766077938
 30
0.0
 10
97.49913056373287
 20
-140.5604125625161
 30
0.0
 10
97.49913056373287
 20
-140.5604125625161
 30
0.0
 10
97.49913056373287
 20
-140.5604125625161
 30
0.0
 10
97.84829099116294
 20
-140.5604125625161
 30
0.0
 10
97.84829099116294
 20
-140.5604125625161
 30
0.0
 10
97.84829099116294
 20
-140.5604125625161
 30
0.0
 10
97.84829099116294
 20
-140.4057277752284
 30
0.0
 10
97.84829099116294
 20
-140.4057277752284
 30
0.0
 10
97.84829099116294
 20
-140.4057277752284
 30
0.0
 10
97.45899520132971
 20
-140.4057277752284
 30
0.0
 10
97.45899520132971
 20
-140.4057277752284
 30
0.0
 10
97.45899520132971
 20
-140.4057277752284
 30
0.0
 10
97.45899520132971
 20
-140.2513874974892
 30
0.0
 10
97.45899520132971
 20
-140.2513874974892
 30
0.0
 10
97.45899520132971
 20
-140.2513874974892
 30
0.0
 10
97.84829099116294
 20
-140.2513874974892
 30
0.0
 10
97.84829099116294
 20
-140.2513874974892
 30
0.0
  0
HATCH
  5
10C
330
101
100
AcDbEntity
  8
レイヤー 1
 62
    12
420
 15007762
440
 33554687
100
AcDbHatch
 10
0.0
 20
0.0
 30
0.0
210
0.0
220
0.0
230
1.0
  2
SOLID
 70
     1
 71
     1
 91
        7
 92
        1
 93
        1
 72
     4
 94
        3
 73
     0
 74
     0
 95
       38
 96
       34
 40
0.0
 40
0.0
 40
0.0
 40
0.0
 40
1.0
 40
1.0
 40
1.0
 40
2.0
 40
2.0
 40
2.0
 40
3.0
 40
3.0
 40
3.0
 40
4.0
 40
4.0
 40
4.0
 40
5.0
 40
5.0
 40
5.0
 40
6.0
 40
6.0
 40
6.0
 40
7.0
 40
7.0
 40
7.0
 40
8.0
 40
8.0
 40
8.0
 40
9.0
 40
9.0
 40
9.0
 40
10.0
 40
10.0
 40
10.0
 40
11.0
 40
11.0
 40
11.0
 40
11.0
 10
98.37073972150108
 20
-140.8415323541125
 10
98.46392955437707
 20
-140.7188869548376
 10
98.58864201094313
 20
-140.5390529705076
 10
98.68389890111028
 20
-140.0905015383281
 10
98.68389890111028
 20
-140.0905015383281
 10
98.8509860321449
 20
-140.1097940730454
 10
98.8509860321449
 20
-140.1097940730454
 10
98.82566458032831
 20
-140.2303724150292
 10
98.80241018580287
 20
-140.3213229358398
 10
98.7641696259166
 20
-140.4291544245281
 10
98.7641696259166
 20
-140.4291544245281
 10
99.39255504242616
 20
-140.4291544245281
 10
99.39255504242616
 20
-140.4291544245281
 10
99.39255504242616
 20
-140.4291544245281
 10
99.39255504242616
 20
-140.5814276449762
 10
99.39255504242616
 20
-140.5814276449762
 10
99.35879310667072
 20
-140.7230210694199
 10
99.26353621650356
 20
-140.9814032308137
 10
99.1894666635707
 20
-141.0999145155062
 10
99.1894666635707
 20
-141.0999145155062
 10
99.03719344312264
 20
-141.0213663384426
 10
99.03719344312264
 20
-141.0213663384426
 10
99.13227807851555
 20
-140.8859740858722
 10
99.19790714750956
 20
-140.6978718723776
 10
99.22546791139154
 20
-140.5879733263981
 10
99.22546791139154
 20
-140.5879733263981
 10
98.70715329563573
 20
-140.5879733263981
 10
98.70715329563573
 20
-140.5879733263981
 10
98.60776229088626
 20
-140.8291300103656
 10
98.53369273795339
 20
-140.9176689643365
 10
98.49562443284138
 20
-140.9621106960963
 10
98.49562443284138
 20
-140.9621106960963
 10
98.37073972150108
 20
-140.8415323541125
 10
98.37073972150108
 20
-140.8415323541125
 97
        0
 97
        1
330
105
 92
        1
 93
        1
 72
     4
 94
        3
 73
     0
 74
     0
 95
       38
 96
       34
 40
0.0
 40
0.0
 40
0.0
 40
0.0
 40
1.0
 40
1.0
 40
1.0
 40
2.0
 40
2.0
 40
2.0
 40
3.0
 40
3.0
 40
3.0
 40
4.0
 40
4.0
 40
4.0
 40
5.0
 40
5.0
 40
5.0
 40
6.0
 40
6.0
 40
6.0
 40
7.0
 40
7.0
 40
7.0
 40
8.0
 40
8.0
 40
8.0
 40
9.0
 40
9.0
 40
9.0
 40
10.0
 40
10.0
 40
10.0
 40
11.0
 40
11.0
 40
11.0
 40
11.0
 10
98.25653480616503
 20
-141.9143350882193
 10
98.33904484303678
 20
-141.8612806177465
 10
98.50406491678024
 20
-141.7534491290581
 10
98.60982934817741
 20
-141.5460543808461
 10
98.75796845404316
 20
-141.2542547932455
 10
98.75796845404316
 20
-141.0279120198645
 10
98.75796845404316
 20
-140.9431626709274
 10
98.75796845404316
 20
-140.9431626709274
 10
98.75796845404316
 20
-140.7085516683819
 10
98.75796845404316
 20
-140.7085516683819
 10
98.75796845404316
 20
-140.7085516683819
 10
98.92298852778662
 20
-140.7085516683819
 10
98.92298852778662
 20
-140.7085516683819
 10
98.92298852778662
 20
-140.7085516683819
 10
98.92298852778662
 20
-140.9348944417628
 10
98.92298852778662
 20
-140.9348944417628
 10
98.92298852778662
 20
-141.1336764512617
 10
98.98844534200637
 20
-141.3706990206469
 10
99.09007565882124
 20
-141.5439873235549
 10
99.20634763144843
 20
-141.7427693330539
 10
99.33536645737103
 20
-141.8423325925776
 10
99.42011580630818
 20
-141.903655292215
 10
99.42011580630818
 20
-141.903655292215
 10
99.31211206284558
 20
-142.0538614553719
 10
99.31211206284558
 20
-142.0538614553719
 10
99.13451739058096
 20
-141.9246703746751
 10
98.93556312630778
 20
-141.6855807479987
 10
98.85735945879261
 20
-141.3324584607606
 10
98.7917303897986
 20
-141.571548087437
 10
98.69027232775799
 20
-141.8402655352864
 10
98.38141951750536
 20
-142.0497273407896
 10
98.38141951750536
 20
-142.0497273407896
 10
98.25653480616503
 20
-141.9143350882193
 10
98.25653480616503
 20
-141.9143350882193
 97
        0
 97
        1
330
106
 92
        1
 93
        1
 72
     4
 94
        3
 73
     0
 74
     0
 95
       17
 96
       13
 40
0.0
 40
0.0
 40
0.0
 40
0.0
 40
1.0
 40
1.0
 40
1.0
 40
2.0
 40
2.0
 40
2.0
 40
3.0
 40
3.0
 40
3.0
 40
4.0
 40
4.0
 40
4.0
 40
4.0
 10
98.21416013169645
 20
-141.0258449625734
 10
98.21416013169645
 20
-141.0258449625734
 10
98.00263126890213
 20
-141.0258449625734
 10
98.00263126890213
 20
-141.0258449625734
 10
98.00263126890213
 20
-141.0258449625734
 10
98.00263126890213
 20
-141.2328952012369
 10
98.00263126890213
 20
-141.2328952012369
 10
98.00263126890213
 20
-141.2328952012369
 10
98.21416013169645
 20
-141.2328952012369
 10
98.21416013169645
 20
-141.2328952012369
 10
98.21416013169645
 20
-141.2328952012369
 10
98.21416013169645
 20
-141.0258449625734
 10
98.21416013169645
 20
-141.0258449625734
 97
        0
 97
        1
330
107
 92
        1
 93
        1
 72
     4
 94
        3
 73
     0
 74
     0
 95
       17
 96
       13
 40
0.0
 40
0.0
 40
0.0
 40
0.0
 40
1.0
 40
1.0
 40
1.0
 40
2.0
 40
2.0
 40
2.0
 40
3.0
 40
3.0
 40
3.0
 40
4.0
 40
4.0
 40
4.0
 40
4.0
 10
98.21416013169645
 20
-140.6999389296688
 10
98.21416013169645
 20
-140.6999389296688
 10
98.00263126890213
 20
-140.6999389296688
 10
98.00263126890213
 20
-140.6999389296688
 10
98.00263126890213
 20
-140.6999389296688
 10
98.00263126890213
 20
-140.90285505375
 10
98.00263126890213
 20
-140.90285505375
 10
98.00263126890213
 20
-140.90285505375
 10
98.21416013169645
 20
-140.90285505375
 10
98.21416013169645
 20
-140.90285505375
 10
98.21416013169645
 20
-140.90285505375
 10
98.21416013169645
 20
-140.6999389296688
 10
98.21416013169645
 20
-140.6999389296688
 97
        0
 97
        1
330
108
 92
        1
 93
        1
 72
     4
 94
        3
 73
     0
 74
     0
 95
       17
 96
       13
 40
0.0
 40
0.0
 40
0.0
 40
0.0
 40
1.0
 40
1.0
 40
1.0
 40
2.0
 40
2.0
 40
2.0
 40
3.0
 40
3.0
 40
3.0
 40
4.0
 40
4.0
 40
4.0
 40
4.0
 10
97.84829099116294
 20
-141.0258449625734
 10
97.84829099116294
 20
-141.0258449625734
 10
97.64089624295088
 20
-141.0258449625734
 10
97.64089624295088
 20
-141.0258449625734
 10
97.64089624295088
 20
-141.0258449625734
 10
97.64089624295088
 20
-141.2328952012369
 10
97.64089624295088
 20
-141.2328952012369
 10
97.64089624295088
 20
-141.2328952012369
 10
97.84829099116294
 20
-141.2328952012369
 10
97.84829099116294
 20
-141.2328952012369
 10
97.84829099116294
 20
-141.2328952012369
 10
97.84829099116294
 20
-141.0258449625734
 10
97.84829099116294
 20
-141.0258449625734
 97
        0
 97
        1
330
109
 92
        1
 93
        1
 72
     4
 94
        3
 73
     0
 74
     0
 95
       17
 96
       13
 40
0.0
 40
0.0
 40
0.0
 40
0.0
 40
1.0
 40
1.0
 40
1.0
 40
2.0
 40
2.0
 40
2.0
 40
3.0
 40
3.0
 40
3.0
 40
4.0
 40
4.0
 40
4.0
 40
4.0
 10
97.84829099116294
 20
-140.6999389296688
 10
97.84829099116294
 20
-140.6999389296688
 10
97.64089624295088
 20
-140.6999389296688
 10
97.64089624295088
 20
-140.6999389296688
 10
97.64089624295088
 20
-140.6999389296688
 10
97.64089624295088
 20
-140.90285505375
 10
97.64089624295088
 20
-140.90285505375
 10
97.64089624295088
 20
-140.90285505375
 10
97.84829099116294
 20
-140.90285505375
 10
97.84829099116294
 20
-140.90285505375
 10
97.84829099116294
 20
-140.90285505375
 10
97.84829099116294
 20
-140.6999389296688
 10
97.84829099116294
 20
-140.6999389296688
 97
        0
 97
        1
330
10A
 92
        1
 93
        1
 72
     4
 94
        3
 73
     0
 74
     0
 95
       89
 96
       85
 40
0.0
 40
0.0
 40
0.0
 40
0.0
 40
1.0
 40
1.0
 40
1.0
 40
2.0
 40
2.0
 40
2.0
 40
3.0
 40
3.0
 40
3.0
 40
4.0
 40
4.0
 40
4.0
 40
5.0
 40
5.0
 40
5.0
 40
6.0
 40
6.0
 40
6.0
 40
7.0
 40
7.0
 40
7.0
 40
8.0
 40
8.0
 40
8.0
 40
9.0
 40
9.0
 40
9.0
 40
10.0
 40
10.0
 40
10.0
 40
11.0
 40
11.0
 40
11.0
 40
12.0
 40
12.0
 40
12.0
 40
13.0
 40
13.0
 40
13.0
 40
14.0
 40
14.0
 40
14.0
 40
15.0
 40
15.0
 40
15.0
 40
16.0
 40
16.0
 40
16.0
 40
17.0
 40
17.0
 40
17.0
 40
18.0
 40
18.0
 40
18.0
 40
19.0
 40
19.0
 40
19.0
 40
20.0
 40
20.0
 40
20.0
 40
21.0
 40
21.0
 40
21.0
 40
22.0
 40
22.0
 40
22.0
 40
23.0
 40
23.0
 40
23.0
 40
24.0
 40
24.0
 40
24.0
 40
25.0
 40
25.0
 40
25.0
 40
26.0
 40
26.0
 40
26.0
 40
27.0
 40
27.0
 40
27.0
 40
28.0
 40
28.0
 40
28.0
 40
28.0
 10
97.84829099116294
 20
-140.2513874974892
 10
97.84829099116294
 20
-140.2513874974892
 10
97.84829099116294
 20
-140.0905015383281
 10
97.84829099116294
 20
-140.0905015383281
 10
97.84829099116294
 20
-140.0905015383281
 10
98.00263126890213
 20
-140.0905015383281
 10
98.00263126890213
 20
-140.0905015383281
 10
98.00263126890213
 20
-140.0905015383281
 10
98.00263126890213
 20
-140.2513874974892
 10
98.00263126890213
 20
-140.2513874974892
 10
98.00263126890213
 20
-140.2513874974892
 10
98.39623342809192
 20
-140.2513874974892
 10
98.39623342809192
 20
-140.2513874974892
 10
98.39623342809192
 20
-140.2513874974892
 10
98.39623342809192
 20
-140.4057277752284
 10
98.39623342809192
 20
-140.4057277752284
 10
98.39623342809192
 20
-140.4057277752284
 10
98.00263126890213
 20
-140.4057277752284
 10
98.00263126890213
 20
-140.4057277752284
 10
98.00263126890213
 20
-140.4057277752284
 10
98.00263126890213
 20
-140.5604125625161
 10
98.00263126890213
 20
-140.5604125625161
 10
98.00263126890213
 20
-140.5604125625161
 10
98.35799286820565
 20
-140.5604125625161
 10
98.35799286820565
 20
-140.5604125625161
 10
98.35799286820565
 20
-140.5604125625161
 10
98.35799286820565
 20
-141.372766077938
 10
98.35799286820565
 20
-141.372766077938
 10
98.35799286820565
 20
-141.372766077938
 10
98.00263126890213
 20
-141.372766077938
 10
98.00263126890213
 20
-141.372766077938
 10
98.00263126890213
 20
-141.372766077938
 10
98.00263126890213
 20
-141.5419202662638
 10
98.00263126890213
 20
-141.5419202662638
 10
98.00263126890213
 20
-141.5419202662638
 10
98.41104733867849
 20
-141.5419202662638
 10
98.41104733867849
 20
-141.5419202662638
 10
98.41104733867849
 20
-141.5419202662638
 10
98.41104733867849
 20
-141.696260544003
 10
98.41104733867849
 20
-141.696260544003
 10
98.41104733867849
 20
-141.696260544003
 10
98.00263126890213
 20
-141.696260544003
 10
98.00263126890213
 20
-141.696260544003
 10
98.00263126890213
 20
-141.696260544003
 10
98.00263126890213
 20
-142.0497273407896
 10
98.00263126890213
 20
-142.0497273407896
 10
98.00263126890213
 20
-142.0497273407896
 10
97.84829099116294
 20
-142.0497273407896
 10
97.84829099116294
 20
-142.0497273407896
 10
97.84829099116294
 20
-142.0497273407896
 10
97.84829099116294
 20
-141.696260544003
 10
97.84829099116294
 20
-141.696260544003
 10
97.84829099116294
 20
-141.696260544003
 10
97.43780786409542
 20
-141.696260544003
 10
97.43780786409542
 20
-141.696260544003
 10
97.43780786409542
 20
-141.696260544003
 10
97.43780786409542
 20
-141.5419202662638
 10
97.43780786409542
 20
-141.5419202662638
 10
97.43780786409542
 20
-141.5419202662638
 10
97.84829099116294
 20
-141.5419202662638
 10
97.84829099116294
 20
-141.5419202662638
 10
97.84829099116294
 20
-141.5419202662638
 10
97.84829099116294
 20
-141.372766077938
 10
97.84829099116294
 20
-141.372766077938
 10
97.84829099116294
 20
-141.372766077938
 10
97.49913056373287
 20
-141.372766077938
 10
97.49913056373287
 20
-141.372766077938
 10
97.49913056373287
 20
-141.372766077938
 10
97.49913056373287
 20
-140.5604125625161
 10
97.49913056373287
 20
-140.5604125625161
 10
97.49913056373287
 20
-140.5604125625161
 10
97.84829099116294
 20
-140.5604125625161
 10
97.84829099116294
 20
-140.5604125625161
 10
97.84829099116294
 20
-140.5604125625161
 10
97.84829099116294
 20
-140.4057277752284
 10
97.84829099116294
 20
-140.4057277752284
 10
97.84829099116294
 20
-140.4057277752284
 10
97.45899520132971
 20
-140.4057277752284
 10
97.45899520132971
 20
-140.4057277752284
 10
97.45899520132971
 20
-140.4057277752284
 10
97.45899520132971
 20
-140.2513874974892
 10
97.45899520132971
 20
-140.2513874974892
 10
97.45899520132971
 20
-140.2513874974892
 10
97.84829099116294
 20
-140.2513874974892
 10
97.84829099116294
 20
-140.2513874974892
 97
        0
 97
        1
330
10B
 75
     2
 76
     1
 98
        1
 10
0.0
 20
0.0
450
        0
451
        0
460
0.0
461
0.0
452
        0
462
0.0
453
        0
470

  0
SPLINE
  5
10D
330
101
100
AcDbEntity
  8
レイヤー 1
100
AcDbSpline
210
0.0
220
0.0
230
1.0
 70
     9
 71
     3
 72
    17
 73
    13
 74
     0
 42
0.0000000001
 43
0.0000000001
 40
0.0
 40
0.0
 40
0.0
 40
0.0
 40
1.0
 40
1.0
 40
1.0
 40
2.0
 40
2.0
 40
2.0
 40
3.0
 40
3.0
 40
3.0
 40
4.0
 40
4.0
 40
4.0
 40
4.0
 10
100.8851426614106
 20
-141.7407022757627
 30
0.0
 10
101.1051120081438
 20
-141.8530123885819
 30
0.0
 10
101.3717623987022
 20
-141.8909084389196
 30
0.0
 10
101.5007812246248
 20
-141.9015882349239
 30
0.0
 10
101.5007812246248
 20
-141.9015882349239
 30
0.0
 10
101.4310180410485
 20
-142.0559285126631
 30
0.0
 10
101.4310180410485
 20
-142.0559285126631
 30
0.0
 10
101.3104396990647
 20
-142.0411146020765
 30
0.0
 10
101.0480956778629
 20
-142.0008069848991
 30
0.0
 10
100.78368459937
 20
-141.855079445873
 30
0.0
 10
100.78368459937
 20
-141.855079445873
 30
0.0
 10
100.8851426614106
 20
-141.7407022757627
 30
0.0
 10
100.8851426614106
 20
-141.7407022757627
 30
0.0
  0
SPLINE
  5
10E
330
101
100
AcDbEntity
  8
レイヤー 1
100
AcDbSpline
210
0.0
220
0.0
230
1.0
 70
    11
 71
     3
 72
    50
 73
    46
 74
     0
 42
0.0000000001
 43
0.0000000001
 40
0.0
 40
0.0
 40
0.0
 40
0.0
 40
1.0
 40
1.0
 40
1.0
 40
2.0
 40
2.0
 40
2.0
 40
3.0
 40
3.0
 40
3.0
 40
4.0
 40
4.0
 40
4.0
 40
5.0
 40
5.0
 40
5.0
 40
6.0
 40
6.0
 40
6.0
 40
7.0
 40
7.0
 40
7.0
 40
8.0
 40
8.0
 40
8.0
 40
9.0
 40
9.0
 40
9.0
 40
10.0
 40
10.0
 40
10.0
 40
11.0
 40
11.0
 40
11.0
 40
12.0
 40
12.0
 40
12.0
 40
13.0
 40
13.0
 40
13.0
 40
14.0
 40
14.0
 40
14.0
 40
15.0
 40
15.0
 40
15.0
 40
15.0
 10
100.7730048033657
 20
-140.3888468073507
 30
0.0
 10
100.7730048033657
 20
-140.3888468073507
 30
0.0
 10
101.5092217085636
 20
-140.3888468073507
 30
0.0
 10
101.5092217085636
 20
-140.3888468073507
 30
0.0
 10
101.5092217085636
 20
-140.3888468073507
 30
0.0
 10
101.5092217085636
 20
-140.5139037734652
 30
0.0
 10
101.5092217085636
 20
-140.5139037734652
 30
0.0
 10
101.5092217085636
 20
-140.5139037734652
 30
0.0
 10
101.1791815610767
 20
-140.5139037734652
 30
0.0
 10
101.1791815610767
 20
-140.5139037734652
 30
0.0
 10
101.1791815610767
 20
-140.5139037734652
 30
0.0
 10
101.1791815610767
 20
-140.7888223931882
 30
0.0
 10
101.1791815610767
 20
-140.7888223931882
 30
0.0
 10
101.1791815610767
 20
-140.7888223931882
 30
0.0
 10
101.0226019712721
 20
-140.7888223931882
 30
0.0
 10
101.0226019712721
 20
-140.7888223931882
 30
0.0
 10
101.0226019712721
 20
-140.7888223931882
 30
0.0
 10
101.0226019712721
 20
-140.5139037734652
 30
0.0
 10
101.0226019712721
 20
-140.5139037734652
 30
0.0
 10
101.0226019712721
 20
-140.5139037734652
 30
0.0
 10
100.7581908927792
 20
-140.5139037734652
 30
0.0
 10
100.7581908927792
 20
-140.5139037734652
 30
0.0
 10
100.7328694409626
 20
-140.6427503446136
 30
0.0
 10
100.6820542825552
 20
-140.7337008654242
 30
0.0
 10
100.5847303350968
 20
-140.8163831570702
 30
0.0
 10
100.5847303350968
 20
-140.8163831570702
 30
0.0
 10
100.462084935822
 20
-140.7085516683819
 30
0.0
 10
100.462084935822
 20
-140.7085516683819
 30
0.0
 10
100.5974771883923
 20
-140.5983086128539
 30
0.0
 10
100.6207315829177
 20
-140.4608493029924
 30
0.0
 10
100.6207315829177
 20
-140.3867797500595
 30
0.0
 10
100.6207315829177
 20
-140.3867797500595
 30
0.0
 10
100.6207315829177
 20
-140.1435560088009
 30
0.0
 10
100.6207315829177
 20
-140.1435560088009
 30
0.0
 10
101.0902980975573
 20
-140.1435560088009
 30
0.0
 10
101.2575574833662
 20
-140.1032483916235
 30
0.0
 10
101.4013902198753
 20
-140.0608737171549
 30
0.0
 10
101.4013902198753
 20
-140.0608737171549
 30
0.0
 10
101.4606458622216
 20
-140.1986775365649
 30
0.0
 10
101.4606458622216
 20
-140.1986775365649
 30
0.0
 10
101.189861357081
 20
-140.2682684653669
 30
0.0
 10
100.8746351201806
 20
-140.2727470894978
 30
0.0
 10
100.7730048033657
 20
-140.2727470894978
 30
0.0
 10
100.7730048033657
 20
-140.2727470894978
 30
0.0
 10
100.7730048033657
 20
-140.3888468073507
 30
0.0
 10
100.7730048033657
 20
-140.3888468073507
 30
0.0
  0
SPLINE
  5
10F
330
101
100
AcDbEntity
  8
レイヤー 1
100
AcDbSpline
210
0.0
220
0.0
230
1.0
 70
    11
 71
     3
 72
    17
 73
    13
 74
     0
 42
0.0000000001
 43
0.0000000001
 40
0.0
 40
0.0
 40
0.0
 40
0.0
 40
1.0
 40
1.0
 40
1.0
 40
2.0
 40
2.0
 40
2.0
 40
3.0
 40
3.0
 40
3.0
 40
4.0
 40
4.0
 40
4.0
 40
4.0
 10
101.1094183775004
 20
-141.4592379746178
 30
0.0
 10
101.1094183775004
 20
-141.4592379746178
 30
0.0
 10
99.95014374671386
 20
-141.4592379746178
 30
0.0
 10
99.95014374671386
 20
-141.4592379746178
 30
0.0
 10
99.95014374671386
 20
-141.4592379746178
 30
0.0
 10
99.95014374671386
 20
-141.599108851319
 30
0.0
 10
99.95014374671386
 20
-141.599108851319
 30
0.0
 10
99.95014374671386
 20
-141.599108851319
 30
0.0
 10
101.1094183775004
 20
-141.599108851319
 30
0.0
 10
101.1094183775004
 20
-141.599108851319
 30
0.0
 10
101.1094183775004
 20
-141.599108851319
 30
0.0
 10
101.1094183775004
 20
-141.4592379746178
 30
0.0
 10
101.1094183775004
 20
-141.4592379746178
 30
0.0
  0
SPLINE
  5
110
330
101
100
AcDbEntity
  8
レイヤー 1
100
AcDbSpline
210
0.0
220
0.0
230
1.0
 70
    11
 71
     3
 72
    17
 73
    13
 74
     0
 42
0.0000000001
 43
0.0000000001
 40
0.0
 40
0.0
 40
0.0
 40
0.0
 40
1.0
 40
1.0
 40
1.0
 40
2.0
 40
2.0
 40
2.0
 40
3.0
 40
3.0
 40
3.0
 40
4.0
 40
4.0
 40
4.0
 40
4.0
 10
101.1094183775004
 20
-141.2077460041946
 30
0.0
 10
101.1094183775004
 20
-141.2077460041946
 30
0.0
 10
99.95014374671386
 20
-141.2077460041946
 30
0.0
 10
99.95014374671386
 20
-141.2077460041946
 30
0.0
 10
99.95014374671386
 20
-141.2077460041946
 30
0.0
 10
99.95014374671386
 20
-141.3493394286383
 30
0.0
 10
99.95014374671386
 20
-141.3493394286383
 30
0.0
 10
99.95014374671386
 20
-141.3493394286383
 30
0.0
 10
101.1094183775004
 20
-141.3493394286383
 30
0.0
 10
101.1094183775004
 20
-141.3493394286383
 30
0.0
 10
101.1094183775004
 20
-141.3493394286383
 30
0.0
 10
101.1094183775004
 20
-141.2077460041946
 30
0.0
 10
101.1094183775004
 20
-141.2077460041946
 30
0.0
  0
SPLINE
  5
111
330
101
100
AcDbEntity
  8
レイヤー 1
100
AcDbSpline
210
0.0
220
0.0
230
1.0
 70
    11
 71
     3
 72
    17
 73
    13
 74
     0
 42
0.0000000001
 43
0.0000000001
 40
0.0
 40
0.0
 40
0.0
 40
0.0
 40
1.0
 40
1.0
 40
1.0
 40
2.0
 40
2.0
 40
2.0
 40
3.0
 40
3.0
 40
3.0
 40
4.0
 40
4.0
 40
4.0
 40
4.0
 10
101.1094183775004
 20
-140.9686563775182
 30
0.0
 10
101.1094183775004
 20
-140.9686563775182
 30
0.0
 10
99.95014374671386
 20
-140.9686563775182
 30
0.0
 10
99.95014374671386
 20
-140.9686563775182
 30
0.0
 10
99.95014374671386
 20
-140.9686563775182
 30
0.0
 10
99.95014374671386
 20
-141.0975029486666
 30
0.0
 10
99.95014374671386
 20
-141.0975029486666
 30
0.0
 10
99.95014374671386
 20
-141.0975029486666
 30
0.0
 10
101.1094183775004
 20
-141.0975029486666
 30
0.0
 10
101.1094183775004
 20
-141.0975029486666
 30
0.0
 10
101.1094183775004
 20
-141.0975029486666
 30
0.0
 10
101.1094183775004
 20
-140.9686563775182
 30
0.0
 10
101.1094183775004
 20
-140.9686563775182
 30
0.0
  0
SPLINE
  5
112
330
101
100
AcDbEntity
  8
レイヤー 1
100
AcDbSpline
210
0.0
220
0.0
230
1.0
 70
    11
 71
     3
 72
    32
 73
    28
 74
     0
 42
0.0000000001
 43
0.0000000001
 40
0.0
 40
0.0
 40
0.0
 40
0.0
 40
1.0
 40
1.0
 40
1.0
 40
2.0
 40
2.0
 40
2.0
 40
3.0
 40
3.0
 40
3.0
 40
4.0
 40
4.0
 40
4.0
 40
5.0
 40
5.0
 40
5.0
 40
6.0
 40
6.0
 40
6.0
 40
7.0
 40
7.0
 40
7.0
 40
8.0
 40
8.0
 40
8.0
 40
9.0
 40
9.0
 40
9.0
 40
9.0
 10
99.78081730361383
 20
-141.7345011038893
 30
0.0
 10
99.78081730361383
 20
-141.7345011038893
 30
0.0
 10
99.78081730361383
 20
-140.8353311822391
 30
0.0
 10
99.78081730361383
 20
-140.8353311822391
 30
0.0
 10
99.78081730361383
 20
-140.8353311822391
 30
0.0
 10
101.2785725658262
 20
-140.8353311822391
 30
0.0
 10
101.2785725658262
 20
-140.8353311822391
 30
0.0
 10
101.2785725658262
 20
-140.8353311822391
 30
0.0
 10
101.2785725658262
 20
-141.7345011038893
 30
0.0
 10
101.2785725658262
 20
-141.7345011038893
 30
0.0
 10
101.2785725658262
 20
-141.7345011038893
 30
0.0
 10
100.1341118456262
 20
-141.7345011038893
 30
0.0
 10
100.1341118456262
 20
-141.7345011038893
 30
0.0
 10
100.1341118456262
 20
-141.7345011038893
 30
0.0
 10
100.2398762770233
 20
-141.8443996498687
 30
0.0
 10
100.2398762770233
 20
-141.8443996498687
 30
0.0
 10
100.0748562032799
 20
-141.9394842852616
 30
0.0
 10
99.90983612953643
 20
-142.0008069848991
 30
0.0
 10
99.61373017257921
 20
-142.0517943980808
 30
0.0
 10
99.61373017257921
 20
-142.0517943980808
 30
0.0
 10
99.5481011035852
 20
-141.8995211776327
 30
0.0
 10
99.5481011035852
 20
-141.8995211776327
 30
0.0
 10
99.92688935218843
 20
-141.8464667071599
 30
0.0
 10
100.0495347514633
 20
-141.778942835649
 30
0.0
 10
100.1299777310439
 20
-141.7345011038893
 30
0.0
 10
100.1299777310439
 20
-141.7345011038893
 30
0.0
 10
99.78081730361383
 20
-141.7345011038893
 30
0.0
 10
99.78081730361383
 20
-141.7345011038893
 30
0.0
  0
SPLINE
  5
113
330
101
100
AcDbEntity
  8
レイヤー 1
100
AcDbSpline
210
0.0
220
0.0
230
1.0
 70
    11
 71
     3
 72
    50
 73
    46
 74
     0
 42
0.0000000001
 43
0.0000000001
 40
0.0
 40
0.0
 40
0.0
 40
0.0
 40
1.0
 40
1.0
 40
1.0
 40
2.0
 40
2.0
 40
2.0
 40
3.0
 40
3.0
 40
3.0
 40
4.0
 40
4.0
 40
4.0
 40
5.0
 40
5.0
 40
5.0
 40
6.0
 40
6.0
 40
6.0
 40
7.0
 40
7.0
 40
7.0
 40
8.0
 40
8.0
 40
8.0
 40
9.0
 40
9.0
 40
9.0
 40
10.0
 40
10.0
 40
10.0
 40
11.0
 40
11.0
 40
11.0
 40
12.0
 40
12.0
 40
12.0
 40
13.0
 40
13.0
 40
13.0
 40
14.0
 40
14.0
 40
14.0
 40
15.0
 40
15.0
 40
15.0
 40
15.0
 10
99.86539439777672
 20
-140.3888468073507
 30
0.0
 10
99.86539439777672
 20
-140.3888468073507
 30
0.0
 10
100.5170342088117
 20
-140.3888468073507
 30
0.0
 10
100.5170342088117
 20
-140.3888468073507
 30
0.0
 10
100.5170342088117
 20
-140.3888468073507
 30
0.0
 10
100.5170342088117
 20
-140.5139037734652
 30
0.0
 10
100.5170342088117
 20
-140.5139037734652
 30
0.0
 10
100.5170342088117
 20
-140.5139037734652
 30
0.0
 10
100.2398762770233
 20
-140.5139037734652
 30
0.0
 10
100.2398762770233
 20
-140.5139037734652
 30
0.0
 10
100.2398762770233
 20
-140.5139037734652
 30
0.0
 10
100.2398762770233
 20
-140.7888223931882
 30
0.0
 10
100.2398762770233
 20
-140.7888223931882
 30
0.0
 10
100.2398762770233
 20
-140.7888223931882
 30
0.0
 10
100.0791625726364
 20
-140.7888223931882
 30
0.0
 10
100.0791625726364
 20
-140.7888223931882
 30
0.0
 10
100.0791625726364
 20
-140.7888223931882
 30
0.0
 10
100.0791625726364
 20
-140.5139037734652
 30
0.0
 10
100.0791625726364
 20
-140.5139037734652
 30
0.0
 10
100.0791625726364
 20
-140.5139037734652
 30
0.0
 10
99.85919322590326
 20
-140.5139037734652
 30
0.0
 10
99.85919322590326
 20
-140.5139037734652
 30
0.0
 10
99.84851342989898
 20
-140.5834947022673
 30
0.0
 10
99.82319197808241
 20
-140.7781425971839
 30
0.0
 10
99.66867944556895
 20
-140.9283487603408
 30
0.0
 10
99.66867944556895
 20
-140.9283487603408
 30
0.0
 10
99.54603404629406
 20
-140.8184502143614
 30
0.0
 10
99.54603404629406
 20
-140.8184502143614
 30
0.0
 10
99.6666123882778
 20
-140.7188869548376
 30
0.0
 10
99.70898706274638
 20
-140.5139037734652
 30
0.0
 10
99.70898706274638
 20
-140.4312214818193
 30
0.0
 10
99.70898706274638
 20
-140.4312214818193
 30
0.0
 10
99.70898706274638
 20
-140.1456230660921
 30
0.0
 10
99.70898706274638
 20
-140.1456230660921
 30
0.0
 10
100.1933674879725
 20
-140.1456230660921
 30
0.0
 10
100.3478800204859
 20
-140.0991142770412
 30
0.0
 10
100.4429646558788
 20
-140.0715535131592
 30
0.0
 10
100.4429646558788
 20
-140.0715535131592
 30
0.0
 10
100.4958468715774
 20
-140.2110798803118
 30
0.0
 10
100.4958468715774
 20
-140.2110798803118
 30
0.0
 10
100.2863850660742
 20
-140.2600002362023
 30
0.0
 10
100.1236043043961
 20
-140.2703355226581
 30
0.0
 10
99.86539439777672
 20
-140.2748141467889
 30
0.0
 10
99.86539439777672
 20
-140.2748141467889
 30
0.0
 10
99.86539439777672
 20
-140.3888468073507
 30
0.0
 10
99.86539439777672
 20
-140.3888468073507
 30
0.0
  0
HATCH
  5
114
330
101
100
AcDbEntity
  8
レイヤー 1
 62
    12
420
 15007762
440
 33554687
100
AcDbHatch
 10
0.0
 20
0.0
 30
0.0
210
0.0
220
0.0
230
1.0
  2
SOLID
 70
     1
 71
     1
 91
        7
 92
        1
 93
        1
 72
     4
 94
        3
 73
     0
 74
     0
 95
       17
 96
       13
 40
0.0
 40
0.0
 40
0.0
 40
0.0
 40
1.0
 40
1.0
 40
1.0
 40
2.0
 40
2.0
 40
2.0
 40
3.0
 40
3.0
 40
3.0
 40
4.0
 40
4.0
 40
4.0
 40
4.0
 10
100.8851426614106
 20
-141.7407022757627
 10
101.1051120081438
 20
-141.8530123885819
 10
101.3717623987022
 20
-141.8909084389196
 10
101.5007812246248
 20
-141.9015882349239
 10
101.5007812246248
 20
-141.9015882349239
 10
101.4310180410485
 20
-142.0559285126631
 10
101.4310180410485
 20
-142.0559285126631
 10
101.3104396990647
 20
-142.0411146020765
 10
101.0480956778629
 20
-142.0008069848991
 10
100.78368459937
 20
-141.855079445873
 10
100.78368459937
 20
-141.855079445873
 10
100.8851426614106
 20
-141.7407022757627
 10
100.8851426614106
 20
-141.7407022757627
 97
        0
 97
        1
330
10D
 92
        1
 93
        1
 72
     4
 94
        3
 73
     0
 74
     0
 95
       50
 96
       46
 40
0.0
 40
0.0
 40
0.0
 40
0.0
 40
1.0
 40
1.0
 40
1.0
 40
2.0
 40
2.0
 40
2.0
 40
3.0
 40
3.0
 40
3.0
 40
4.0
 40
4.0
 40
4.0
 40
5.0
 40
5.0
 40
5.0
 40
6.0
 40
6.0
 40
6.0
 40
7.0
 40
7.0
 40
7.0
 40
8.0
 40
8.0
 40
8.0
 40
9.0
 40
9.0
 40
9.0
 40
10.0
 40
10.0
 40
10.0
 40
11.0
 40
11.0
 40
11.0
 40
12.0
 40
12.0
 40
12.0
 40
13.0
 40
13.0
 40
13.0
 40
14.0
 40
14.0
 40
14.0
 40
15.0
 40
15.0
 40
15.0
 40
15.0
 10
100.7730048033657
 20
-140.3888468073507
 10
100.7730048033657
 20
-140.3888468073507
 10
101.5092217085636
 20
-140.3888468073507
 10
101.5092217085636
 20
-140.3888468073507
 10
101.5092217085636
 20
-140.3888468073507
 10
101.5092217085636
 20
-140.5139037734652
 10
101.5092217085636
 20
-140.5139037734652
 10
101.5092217085636
 20
-140.5139037734652
 10
101.1791815610767
 20
-140.5139037734652
 10
101.1791815610767
 20
-140.5139037734652
 10
101.1791815610767
 20
-140.5139037734652
 10
101.1791815610767
 20
-140.7888223931882
 10
101.1791815610767
 20
-140.7888223931882
 10
101.1791815610767
 20
-140.7888223931882
 10
101.0226019712721
 20
-140.7888223931882
 10
101.0226019712721
 20
-140.7888223931882
 10
101.0226019712721
 20
-140.7888223931882
 10
101.0226019712721
 20
-140.5139037734652
 10
101.0226019712721
 20
-140.5139037734652
 10
101.0226019712721
 20
-140.5139037734652
 10
100.7581908927792
 20
-140.5139037734652
 10
100.7581908927792
 20
-140.5139037734652
 10
100.7328694409626
 20
-140.6427503446136
 10
100.6820542825552
 20
-140.7337008654242
 10
100.5847303350968
 20
-140.8163831570702
 10
100.5847303350968
 20
-140.8163831570702
 10
100.462084935822
 20
-140.7085516683819
 10
100.462084935822
 20
-140.7085516683819
 10
100.5974771883923
 20
-140.5983086128539
 10
100.6207315829177
 20
-140.4608493029924
 10
100.6207315829177
 20
-140.3867797500595
 10
100.6207315829177
 20
-140.3867797500595
 10
100.6207315829177
 20
-140.1435560088009
 10
100.6207315829177
 20
-140.1435560088009
 10
101.0902980975573
 20
-140.1435560088009
 10
101.2575574833662
 20
-140.1032483916235
 10
101.4013902198753
 20
-140.0608737171549
 10
101.4013902198753
 20
-140.0608737171549
 10
101.4606458622216
 20
-140.1986775365649
 10
101.4606458622216
 20
-140.1986775365649
 10
101.189861357081
 20
-140.2682684653669
 10
100.8746351201806
 20
-140.2727470894978
 10
100.7730048033657
 20
-140.2727470894978
 10
100.7730048033657
 20
-140.2727470894978
 10
100.7730048033657
 20
-140.3888468073507
 10
100.7730048033657
 20
-140.3888468073507
 97
        0
 97
        1
330
10E
 92
        1
 93
        1
 72
     4
 94
        3
 73
     0
 74
     0
 95
       17
 96
       13
 40
0.0
 40
0.0
 40
0.0
 40
0.0
 40
1.0
 40
1.0
 40
1.0
 40
2.0
 40
2.0
 40
2.0
 40
3.0
 40
3.0
 40
3.0
 40
4.0
 40
4.0
 40
4.0
 40
4.0
 10
101.1094183775004
 20
-141.4592379746178
 10
101.1094183775004
 20
-141.4592379746178
 10
99.95014374671386
 20
-141.4592379746178
 10
99.95014374671386
 20
-141.4592379746178
 10
99.95014374671386
 20
-141.4592379746178
 10
99.95014374671386
 20
-141.599108851319
 10
99.95014374671386
 20
-141.599108851319
 10
99.95014374671386
 20
-141.599108851319
 10
101.1094183775004
 20
-141.599108851319
 10
101.1094183775004
 20
-141.599108851319
 10
101.1094183775004
 20
-141.599108851319
 10
101.1094183775004
 20
-141.4592379746178
 10
101.1094183775004
 20
-141.4592379746178
 97
        0
 97
        1
330
10F
 92
        1
 93
        1
 72
     4
 94
        3
 73
     0
 74
     0
 95
       17
 96
       13
 40
0.0
 40
0.0
 40
0.0
 40
0.0
 40
1.0
 40
1.0
 40
1.0
 40
2.0
 40
2.0
 40
2.0
 40
3.0
 40
3.0
 40
3.0
 40
4.0
 40
4.0
 40
4.0
 40
4.0
 10
101.1094183775004
 20
-141.2077460041946
 10
101.1094183775004
 20
-141.2077460041946
 10
99.95014374671386
 20
-141.2077460041946
 10
99.95014374671386
 20
-141.2077460041946
 10
99.95014374671386
 20
-141.2077460041946
 10
99.95014374671386
 20
-141.3493394286383
 10
99.95014374671386
 20
-141.3493394286383
 10
99.95014374671386
 20
-141.3493394286383
 10
101.1094183775004
 20
-141.3493394286383
 10
101.1094183775004
 20
-141.3493394286383
 10
101.1094183775004
 20
-141.3493394286383
 10
101.1094183775004
 20
-141.2077460041946
 10
101.1094183775004
 20
-141.2077460041946
 97
        0
 97
        1
330
110
 92
        1
 93
        1
 72
     4
 94
        3
 73
     0
 74
     0
 95
       17
 96
       13
 40
0.0
 40
0.0
 40
0.0
 40
0.0
 40
1.0
 40
1.0
 40
1.0
 40
2.0
 40
2.0
 40
2.0
 40
3.0
 40
3.0
 40
3.0
 40
4.0
 40
4.0
 40
4.0
 40
4.0
 10
101.1094183775004
 20
-140.9686563775182
 10
101.1094183775004
 20
-140.9686563775182
 10
99.95014374671386
 20
-140.9686563775182
 10
99.95014374671386
 20
-140.9686563775182
 10
99.95014374671386
 20
-140.9686563775182
 10
99.95014374671386
 20
-141.0975029486666
 10
99.95014374671386
 20
-141.0975029486666
 10
99.95014374671386
 20
-141.0975029486666
 10
101.1094183775004
 20
-141.0975029486666
 10
101.1094183775004
 20
-141.0975029486666
 10
101.1094183775004
 20
-141.0975029486666
 10
101.1094183775004
 20
-140.9686563775182
 10
101.1094183775004
 20
-140.9686563775182
 97
        0
 97
        1
330
111
 92
        1
 93
        1
 72
     4
 94
        3
 73
     0
 74
     0
 95
       32
 96
       28
 40
0.0
 40
0.0
 40
0.0
 40
0.0
 40
1.0
 40
1.0
 40
1.0
 40
2.0
 40
2.0
 40
2.0
 40
3.0
 40
3.0
 40
3.0
 40
4.0
 40
4.0
 40
4.0
 40
5.0
 40
5.0
 40
5.0
 40
6.0
 40
6.0
 40
6.0
 40
7.0
 40
7.0
 40
7.0
 40
8.0
 40
8.0
 40
8.0
 40
9.0
 40
9.0
 40
9.0
 40
9.0
 10
99.78081730361383
 20
-141.7345011038893
 10
99.78081730361383
 20
-141.7345011038893
 10
99.78081730361383
 20
-140.8353311822391
 10
99.78081730361383
 20
-140.8353311822391
 10
99.78081730361383
 20
-140.8353311822391
 10
101.2785725658262
 20
-140.8353311822391
 10
101.2785725658262
 20
-140.8353311822391
 10
101.2785725658262
 20
-140.8353311822391
 10
101.2785725658262
 20
-141.7345011038893
 10
101.2785725658262
 20
-141.7345011038893
 10
101.2785725658262
 20
-141.7345011038893
 10
100.1341118456262
 20
-141.7345011038893
 10
100.1341118456262
 20
-141.7345011038893
 10
100.1341118456262
 20
-141.7345011038893
 10
100.2398762770233
 20
-141.8443996498687
 10
100.2398762770233
 20
-141.8443996498687
 10
100.0748562032799
 20
-141.9394842852616
 10
99.90983612953643
 20
-142.0008069848991
 10
99.61373017257921
 20
-142.0517943980808
 10
99.61373017257921
 20
-142.0517943980808
 10
99.5481011035852
 20
-141.8995211776327
 10
99.5481011035852
 20
-141.8995211776327
 10
99.92688935218843
 20
-141.8464667071599
 10
100.0495347514633
 20
-141.778942835649
 10
100.1299777310439
 20
-141.7345011038893
 10
100.1299777310439
 20
-141.7345011038893
 10
99.78081730361383
 20
-141.7345011038893
 10
99.78081730361383
 20
-141.7345011038893
 97
        0
 97
        1
330
112
 92
        1
 93
        1
 72
     4
 94
        3
 73
     0
 74
     0
 95
       50
 96
       46
 40
0.0
 40
0.0
 40
0.0
 40
0.0
 40
1.0
 40
1.0
 40
1.0
 40
2.0
 40
2.0
 40
2.0
 40
3.0
 40
3.0
 40
3.0
 40
4.0
 40
4.0
 40
4.0
 40
5.0
 40
5.0
 40
5.0
 40
6.0
 40
6.0
 40
6.0
 40
7.0
 40
7.0
 40
7.0
 40
8.0
 40
8.0
 40
8.0
 40
9.0
 40
9.0
 40
9.0
 40
10.0
 40
10.0
 40
10.0
 40
11.0
 40
11.0
 40
11.0
 40
12.0
 40
12.0
 40
12.0
 40
13.0
 40
13.0
 40
13.0
 40
14.0
 40
14.0
 40
14.0
 40
15.0
 40
15.0
 40
15.0
 40
15.0
 10
99.86539439777672
 20
-140.3888468073507
 10
99.86539439777672
 20
-140.3888468073507
 10
100.5170342088117
 20
-140.3888468073507
 10
100.5170342088117
 20
-140.3888468073507
 10
100.5170342088117
 20
-140.3888468073507
 10
100.5170342088117
 20
-140.5139037734652
 10
100.5170342088117
 20
-140.5139037734652
 10
100.5170342088117
 20
-140.5139037734652
 10
100.2398762770233
 20
-140.5139037734652
 10
100.2398762770233
 20
-140.5139037734652
 10
100.2398762770233
 20
-140.5139037734652
 10
100.2398762770233
 20
-140.7888223931882
 10
100.2398762770233
 20
-140.7888223931882
 10
100.2398762770233
 20
-140.7888223931882
 10
100.0791625726364
 20
-140.7888223931882
 10
100.0791625726364
 20
-140.7888223931882
 10
100.0791625726364
 20
-140.7888223931882
 10
100.0791625726364
 20
-140.5139037734652
 10
100.0791625726364
 20
-140.5139037734652
 10
100.0791625726364
 20
-140.5139037734652
 10
99.85919322590326
 20
-140.5139037734652
 10
99.85919322590326
 20
-140.5139037734652
 10
99.84851342989898
 20
-140.5834947022673
 10
99.82319197808241
 20
-140.7781425971839
 10
99.66867944556895
 20
-140.9283487603408
 10
99.66867944556895
 20
-140.9283487603408
 10
99.54603404629406
 20
-140.8184502143614
 10
99.54603404629406
 20
-140.8184502143614
 10
99.6666123882778
 20
-140.7188869548376
 10
99.70898706274638
 20
-140.5139037734652
 10
99.70898706274638
 20
-140.4312214818193
 10
99.70898706274638
 20
-140.4312214818193
 10
99.70898706274638
 20
-140.1456230660921
 10
99.70898706274638
 20
-140.1456230660921
 10
100.1933674879725
 20
-140.1456230660921
 10
100.3478800204859
 20
-140.0991142770412
 10
100.4429646558788
 20
-140.0715535131592
 10
100.4429646558788
 20
-140.0715535131592
 10
100.4958468715774
 20
-140.2110798803118
 10
100.4958468715774
 20
-140.2110798803118
 10
100.2863850660742
 20
-140.2600002362023
 10
100.1236043043961
 20
-140.2703355226581
 10
99.86539439777672
 20
-140.2748141467889
 10
99.86539439777672
 20
-140.2748141467889
 10
99.86539439777672
 20
-140.3888468073507
 10
99.86539439777672
 20
-140.3888468073507
 97
        0
 97
        1
330
113
 75
     2
 76
     1
 98
        1
 10
0.0
 20
0.0
450
        0
451
        0
460
0.0
461
0.0
452
        0
462
0.0
453
        0
470

  0
ENDBLK
  5
104
330
101
100
AcDbEntity
  8
0
100
AcDbBlockEnd
  0
ENDSEC
  0
SECTION
  2
ENTITIES
  0
LWPOLYLINE
  5
79
330
70
100
AcDbEntity
  8
レイヤー 1
 62
    18
420
        0
370
    25
100
AcDbPolyline
 90
       12
 70
     1
 43
0.0
 10
102.8651861916942
 20
-154.8936398092273
 10
109.8651861899442
 20
-154.8936398092273
 10
109.8651861899442
 20
-153.8991519622532
 10
103.8651861914443
 20
-153.8991519622532
 10
103.8651861914443
 20
-145.7826158450323
 10
122.8651861866938
 20
-145.7826158450323
 10
122.8651861866938
 20
-144.7826158452826
 10
102.8651861916942
 20
-144.7826158452826
 10
102.8651861916942
 20
-146.7826158156432
 10
99.86518610899736
 20
-146.7826158156432
 10
99.86518610899736
 20
-152.7826156446014
 10
102.8651861916942
 20
-152.7826156446014
  0
LWPOLYLINE
  5
7A
330
70
100
AcDbEntity
  8
レイヤー 1
 62
    18
420
        0
370
    25
100
AcDbPolyline
 90
        4
 70
     1
 43
0.0
 10
102.8651863042806
 20
-151.7826158422081
 10
100.8651863047807
 20
-151.7826158422081
 10
100.8651863047807
 20
-147.7826158432087
 10
102.8651863042806
 20
-147.7826158432087
  0
LINE
  5
7B
330
70
100
AcDbEntity
  8
レイヤー 1
 62
    18
420
        0
370
    25
100
AcDbLine
 10
102.8651861916942
 20
-144.7826158161436
 30
0.0
 11
102.8651861916942
 21
-147.7826158432087
 31
0.0
  0
LINE
  5
7C
330
70
100
AcDbEntity
  8
レイヤー 1
 62
    18
420
        0
370
    25
100
AcDbLine
 10
102.8651863042806
 20
-151.7826158422081
 30
0.0
 11
102.8651861916942
 21
-152.7826156446014
 31
0.0
  0
SPLINE
  5
7D
330
70
100
AcDbEntity
  8
レイヤー 1
 62
    18
420
        0
370
     9
100
AcDbSpline
210
0.0
220
0.0
230
1.0
 70
     9
 71
     3
 72
    17
 73
    13
 74
     0
 42
0.0000000001
 43
0.0000000001
 40
0.0
 40
0.0
 40
0.0
 40
0.0
 40
1.0
 40
1.0
 40
1.0
 40
2.0
 40
2.0
 40
2.0
 40
3.0
 40
3.0
 40
3.0
 40
4.0
 40
4.0
 40
4.0
 40
4.0
 10
122.9650904498408
 20
-141.2131189057588
 30
0.0
 10
122.9650904498408
 20
-141.1580150182758
 30
0.0
 10
122.9203229509829
 20
-141.1132122416407
 30
0.0
 10
122.8651860719862
 20
-141.1132122416407
 30
0.0
 10
122.8100798982405
 20
-141.1132122416407
 30
0.0
 10
122.7652771216051
 20
-141.1580150182758
 30
0.0
 10
122.7652771216051
 20
-141.2131189057588
 30
0.0
 10
122.7652771216051
 20
-141.2682545162958
 30
0.0
 10
122.8100798982405
 20
-141.3130255698763
 30
0.0
 10
122.8651860719862
 20
-141.3130255698763
 30
0.0
 10
122.9203229509829
 20
-141.3130255698763
 30
0.0
 10
122.9650904498408
 20
-141.2682545162958
 30
0.0
 10
122.9650904498408
 20
-141.2131189057588
 30
0.0
  0
CIRCLE
  5
7E
330
70
100
AcDbEntity
  8
レイヤー 1
 62
    18
420
        0
370
     9
100
AcDbCircle
 10
102.8765459581245
 20
-141.2131189057586
 30
0.0
 40
0.0999066641179156
  0
INSERT
  5
80
330
70
100
AcDbEntity
  8
レイヤー 1
100
AcDbBlockReference
  2
Block_0
 10
0.0
 20
0.0
 30
0.0
  0
SPLINE
  5
93
330
70
100
AcDbEntity
  8
レイヤー 1
 62
    18
420
        0
370
     9
100
AcDbSpline
210
0.0
220
0.0
230
1.0
 70
     9
 71
     3
 72
    17
 73
    13
 74
     0
 42
0.0000000001
 43
0.0000000001
 40
0.0
 40
0.0
 40
0.0
 40
0.0
 40
1.0
 40
1.0
 40
1.0
 40
2.0
 40
2.0
 40
2.0
 40
3.0
 40
3.0
 40
3.0
 40
4.0
 40
4.0
 40
4.0
 40
4.0
 10
113.7758542019495
 20
-159.8961050400147
 30
0.0
 10
113.7758542019495
 20
-159.8410011525316
 30
0.0
 10
113.7310867030916
 20
-159.7961983758969
 30
0.0
 10
113.6759498240943
 20
-159.7961983758969
 30
0.0
 10
113.6208436503485
 20
-159.7961983758969
 30
0.0
 10
113.5760408737132
 20
-159.8410011525316
 30
0.0
 10
113.5760408737132
 20
-159.8961050400147
 30
0.0
 10
113.5760408737132
 20
-159.951240650552
 30
0.0
 10
113.6208436503485
 20
-159.9960117041325
 30
0.0
 10
113.6759498240943
 20
-159.9960117041325
 30
0.0
 10
113.7310867030916
 20
-159.9960117041325
 30
0.0
 10
113.7758542019495
 20
-159.951240650552
 30
0.0
 10
113.7758542019495
 20
-159.8961050400147
 30
0.0
  0
CIRCLE
  5
94
330
70
100
AcDbEntity
  8
レイヤー 1
 62
    18
420
        0
370
     9
100
AcDbCircle
 10
98.68730984806074
 20
-159.8961050400147
 30
0.0
 40
0.0999066641178353
  0
CIRCLE
  5
95
330
70
100
AcDbEntity
  8
レイヤー 1
 62
    18
420
        0
370
     9
100
AcDbCircle
 10
88.6873099088409
 20
-159.8961050400147
 30
0.0
 40
0.0999066641178754
  0
INSERT
  5
97
330
70
100
AcDbEntity
  8
レイヤー 1
100
AcDbBlockReference
  2
Block_3
 10
0.0
 20
0.0
 30
0.0
  0
SPLINE
  5
B7
330
70
100
AcDbEntity
  8
レイヤー 1
 62
    18
420
        0
370
     9
100
AcDbSpline
210
0.0
220
0.0
230
1.0
 70
     9
 71
     3
 72
    17
 73
    13
 74
     0
 42
0.0000000001
 43
0.0000000001
 40
0.0
 40
0.0
 40
0.0
 40
0.0
 40
1.0
 40
1.0
 40
1.0
 40
2.0
 40
2.0
 40
2.0
 40
3.0
 40
3.0
 40
3.0
 40
4.0
 40
4.0
 40
4.0
 40
4.0
 10
113.9546009331529
 20
-150.746504968938
 30
0.0
 10
113.9546009331529
 20
-150.691401081455
 30
0.0
 10
113.9098334342951
 20
-150.6465983048202
 30
0.0
 10
113.8546965552978
 20
-150.6465983048202
 30
0.0
 10
113.799590381552
 20
-150.6465983048202
 30
0.0
 10
113.7547876049173
 20
-150.691401081455
 30
0.0
 10
113.7547876049173
 20
-150.746504968938
 30
0.0
 10
113.7547876049173
 20
-150.8016405794754
 30
0.0
 10
113.799590381552
 20
-150.8464116330559
 30
0.0
 10
113.8546965552978
 20
-150.8464116330559
 30
0.0
 10
113.9098334342951
 20
-150.8464116330559
 30
0.0
 10
113.9546009331529
 20
-150.8016405794754
 30
0.0
 10
113.9546009331529
 20
-150.746504968938
 30
0.0
  0
CIRCLE
  5
B8
330
70
100
AcDbEntity
  8
レイヤー 1
 62
    18
420
        0
370
     9
100
AcDbCircle
 10
106.8660567997882
 20
-150.746504968938
 30
0.0
 40
0.0999066641178353
  0
INSERT
  5
BA
330
70
100
AcDbEntity
  8
レイヤー 1
100
AcDbBlockReference
  2
Block_8
 10
0.0
 20
0.0
 30
0.0
  0
SPLINE
  5
C6
330
70
100
AcDbEntity
  8
レイヤー 1
 62
    18
420
        0
370
     9
100
AcDbSpline
210
0.0
220
0.0
230
1.0
 70
     9
 71
     3
 72
    17
 73
    13
 74
     0
 42
0.0000000001
 43
0.0000000001
 40
0.0
 40
0.0
 40
0.0
 40
0.0
 40
1.0
 40
1.0
 40
1.0
 40
2.0
 40
2.0
 40
2.0
 40
3.0
 40
3.0
 40
3.0
 40
4.0
 40
4.0
 40
4.0
 40
4.0
 10
126.8994630407426
 20
-152.8891927287316
 30
0.0
 10
126.8994630407426
 20
-152.8340888412485
 30
0.0
 10
126.8546955418847
 20
-152.7892860646137
 30
0.0
 10
126.7995563766248
 20
-152.7892860646137
 30
0.0
 10
126.744099711373
 20
-152.7892860646137
 30
0.0
 10
126.6992969347382
 20
-152.8340888412485
 30
0.0
 10
126.6992969347382
 20
-152.8891927287316
 30
0.0
 10
126.6992969347382
 20
-152.9443318939915
 30
0.0
 10
126.744099711373
 20
-152.9890993928494
 30
0.0
 10
126.7995563766248
 20
-152.9890993928494
 30
0.0
 10
126.8546955418847
 20
-152.9890993928494
 30
0.0
 10
126.8994630407426
 20
-152.9443318939915
 30
0.0
 10
126.8994630407426
 20
-152.8891927287316
 30
0.0
  0
SPLINE
  5
C7
330
70
100
AcDbEntity
  8
レイヤー 1
 62
    18
420
        0
370
     9
100
AcDbSpline
210
0.0
220
0.0
230
1.0
 70
     9
 71
     3
 72
    17
 73
    13
 74
     0
 42
0.0000000001
 43
0.0000000001
 40
0.0
 40
0.0
 40
0.0
 40
0.0
 40
1.0
 40
1.0
 40
1.0
 40
2.0
 40
2.0
 40
2.0
 40
3.0
 40
3.0
 40
3.0
 40
4.0
 40
4.0
 40
4.0
 40
4.0
 10
126.8994630407426
 20
-155.8892148744162
 30
0.0
 10
126.8994630407426
 20
-155.8340757091569
 30
0.0
 10
126.8546955418847
 20
-155.7892729325221
 30
0.0
 10
126.7995563766248
 20
-155.7892729325221
 30
0.0
 10
126.744099711373
 20
-155.7892729325221
 30
0.0
 10
126.6992969347382
 20
-155.8340757091569
 30
0.0
 10
126.6992969347382
 20
-155.8892148744162
 30
0.0
 10
126.6992969347382
 20
-155.9443187618999
 30
0.0
 10
126.744099711373
 20
-155.9891215385347
 30
0.0
 10
126.7995563766248
 20
-155.9891215385347
 30
0.0
 10
126.8546955418847
 20
-155.9891215385347
 30
0.0
 10
126.8994630407426
 20
-155.9443187618999
 30
0.0
 10
126.8994630407426
 20
-155.8892148744162
 30
0.0
  0
LINE
  5
C8
330
70
100
AcDbEntity
  8
レイヤー 1
 62
    18
420
        0
370
     9
100
AcDbLine
 10
126.7995563766248
 20
-152.8891927287316
 30
0.0
 11
126.7995563766248
 21
-155.8892148744162
 31
0.0
  0
LINE
  5
C9
330
70
100
AcDbEntity
  8
レイヤー 1
 62
    18
420
        0
370
     9
100
AcDbLine
 10
125.3395150249847
 20
-152.8891927287316
 30
0.0
 11
127.7993285733407
 21
-152.8891927287316
 31
0.0
  0
SPLINE
  5
CA
330
70
100
AcDbEntity
  8
レイヤー 1
 62
    18
420
        0
370
     9
100
AcDbSpline
210
0.0
220
0.0
230
1.0
 70
     9
 71
     3
 72
    17
 73
    13
 74
     0
 42
0.0000000001
 43
0.0000000001
 40
0.0
 40
0.0
 40
0.0
 40
0.0
 40
1.0
 40
1.0
 40
1.0
 40
2.0
 40
2.0
 40
2.0
 40
3.0
 40
3.0
 40
3.0
 40
4.0
 40
4.0
 40
4.0
 40
4.0
 10
126.8994630407426
 20
-144.7735278009463
 30
0.0
 10
126.8994630407426
 20
-144.7184239134633
 30
0.0
 10
126.8546955418847
 20
-144.6736211368282
 30
0.0
 10
126.7995563766248
 20
-144.6736211368282
 30
0.0
 10
126.744099711373
 20
-144.6736211368282
 30
0.0
 10
126.6992969347382
 20
-144.7184239134633
 30
0.0
 10
126.6992969347382
 20
-144.7735278009463
 30
0.0
 10
126.6992969347382
 20
-144.8286669662063
 30
0.0
 10
126.744099711373
 20
-144.8734344650642
 30
0.0
 10
126.7995563766248
 20
-144.8734344650642
 30
0.0
 10
126.8546955418847
 20
-144.8734344650642
 30
0.0
 10
126.8994630407426
 20
-144.8286669662063
 30
0.0
 10
126.8994630407426
 20
-144.7735278009463
 30
0.0
  0
LINE
  5
CB
330
70
100
AcDbEntity
  8
レイヤー 1
 62
    18
420
        0
370
     9
100
AcDbLine
 10
126.7995563766248
 20
-141.7735274197064
 30
0.0
 11
126.7995563766248
 21
-155.8892148744162
 31
0.0
  0
LINE
  5
CC
330
70
100
AcDbEntity
  8
レイヤー 1
 62
    18
420
        0
370
     9
100
AcDbLine
 10
125.3395150249847
 20
-144.7735278009463
 30
0.0
 11
127.7993285733407
 21
-144.7735278009463
 31
0.0
  0
SPLINE
  5
CD
330
70
100
AcDbEntity
  8
レイヤー 1
 62
    18
420
        0
370
     9
100
AcDbSpline
210
0.0
220
0.0
230
1.0
 70
     9
 71
     3
 72
    17
 73
    13
 74
     0
 42
0.0000000001
 43
0.0000000001
 40
0.0
 40
0.0
 40
0.0
 40
0.0
 40
1.0
 40
1.0
 40
1.0
 40
2.0
 40
2.0
 40
2.0
 40
3.0
 40
3.0
 40
3.0
 40
4.0
 40
4.0
 40
4.0
 40
4.0
 10
126.8994630407426
 20
-145.7735278285118
 30
0.0
 10
126.8994630407426
 20
-145.7184239410291
 30
0.0
 10
126.8546955418847
 20
-145.673621164394
 30
0.0
 10
126.7995563766248
 20
-145.673621164394
 30
0.0
 10
126.744099711373
 20
-145.673621164394
 30
0.0
 10
126.6992969347382
 20
-145.7184239410291
 30
0.0
 10
126.6992969347382
 20
-145.7735278285118
 30
0.0
 10
126.6992969347382
 20
-145.8286669937718
 30
0.0
 10
126.744099711373
 20
-145.8734344926297
 30
0.0
 10
126.7995563766248
 20
-145.8734344926297
 30
0.0
 10
126.8546955418847
 20
-145.8734344926297
 30
0.0
 10
126.8994630407426
 20
-145.8286669937718
 30
0.0
 10
126.8994630407426
 20
-145.7735278285118
 30
0.0
  0
LINE
  5
CE
330
70
100
AcDbEntity
  8
レイヤー 1
 62
    18
420
        0
370
     9
100
AcDbLine
 10
125.3395150249847
 20
-145.7735278285118
 30
0.0
 11
127.7993285733407
 21
-145.7735278285118
 31
0.0
  0
LINE
  5
CF
330
70
100
AcDbEntity
  8
レイヤー 1
 62
    18
420
        0
370
     9
100
AcDbLine
 10
125.3395150249847
 20
-155.8892148744162
 30
0.0
 11
127.7993285733407
 21
-155.8892148744162
 31
0.0
  0
INSERT
  5
D1
330
70
100
AcDbEntity
  8
レイヤー 1
100
AcDbBlockReference
  2
Block_10
 10
0.0
 20
0.0
 30
0.0
  0
INSERT
  5
D7
330
70
100
AcDbEntity
  8
レイヤー 1
100
AcDbBlockReference
  2
Block_11
 10
0.0
 20
0.0
 30
0.0
  0
INSERT
  5
DD
330
70
100
AcDbEntity
  8
レイヤー 1
100
AcDbBlockReference
  2
Block_12
 10
0.0
 20
0.0
 30
0.0
  0
SPLINE
  5
E2
330
70
100
AcDbEntity
  8
レイヤー 1
 62
    18
420
        0
370
     9
100
AcDbSpline
210
0.0
220
0.0
230
1.0
 70
     9
 71
     3
 72
    17
 73
    13
 74
     0
 42
0.0000000001
 43
0.0000000001
 40
0.0
 40
0.0
 40
0.0
 40
0.0
 40
1.0
 40
1.0
 40
1.0
 40
2.0
 40
2.0
 40
2.0
 40
3.0
 40
3.0
 40
3.0
 40
4.0
 40
4.0
 40
4.0
 40
4.0
 10
87.35076725986216
 20
-155.8892148744162
 30
0.0
 10
87.35076725986216
 20
-155.8340757091569
 30
0.0
 10
87.30599976100428
 20
-155.7892729325221
 30
0.0
 10
87.25086059574433
 20
-155.7892729325221
 30
0.0
 10
87.1954039304928
 20
-155.7892729325221
 30
0.0
 10
87.15060115385773
 20
-155.8340757091569
 30
0.0
 10
87.15060115385773
 20
-155.8892148744162
 30
0.0
 10
87.15060115385773
 20
-155.9443187618999
 30
0.0
 10
87.1954039304928
 20
-155.9891215385347
 30
0.0
 10
87.25086059574433
 20
-155.9891215385347
 30
0.0
 10
87.30599976100428
 20
-155.9891215385347
 30
0.0
 10
87.35076725986216
 20
-155.9443187618999
 30
0.0
 10
87.35076725986216
 20
-155.8892148744162
 30
0.0
  0
SPLINE
  5
E3
330
70
100
AcDbEntity
  8
レイヤー 1
 62
    18
420
        0
370
     9
100
AcDbSpline
210
0.0
220
0.0
230
1.0
 70
     9
 71
     3
 72
    17
 73
    13
 74
     0
 42
0.0000000001
 43
0.0000000001
 40
0.0
 40
0.0
 40
0.0
 40
0.0
 40
1.0
 40
1.0
 40
1.0
 40
2.0
 40
2.0
 40
2.0
 40
3.0
 40
3.0
 40
3.0
 40
4.0
 40
4.0
 40
4.0
 40
4.0
 10
87.35076725986216
 20
-149.8892147090232
 30
0.0
 10
87.35076725986216
 20
-149.8340755437639
 30
0.0
 10
87.30599976100428
 20
-149.7892727671291
 30
0.0
 10
87.25086059574433
 20
-149.7892727671291
 30
0.0
 10
87.1954039304928
 20
-149.7892727671291
 30
0.0
 10
87.15060115385773
 20
-149.8340755437639
 30
0.0
 10
87.15060115385773
 20
-149.8892147090232
 30
0.0
 10
87.15060115385773
 20
-149.9443185965069
 30
0.0
 10
87.1954039304928
 20
-149.9891213731416
 30
0.0
 10
87.25086059574433
 20
-149.9891213731416
 30
0.0
 10
87.30599976100428
 20
-149.9891213731416
 30
0.0
 10
87.35076725986216
 20
-149.9443185965069
 30
0.0
 10
87.35076725986216
 20
-149.8892147090232
 30
0.0
  0
LINE
  5
E4
330
70
100
AcDbEntity
  8
レイヤー 1
 62
    18
420
        0
370
     9
100
AcDbLine
 10
87.25086059574433
 20
-144.8844359656845
 30
0.0
 11
87.25086059574433
 21
-155.8892148744162
 31
0.0
  0
SPLINE
  5
E5
330
70
100
AcDbEntity
  8
レイヤー 1
 62
    18
420
        0
370
     9
100
AcDbSpline
210
0.0
220
0.0
230
1.0
 70
     9
 71
     3
 72
    17
 73
    13
 74
     0
 42
0.0000000001
 43
0.0000000001
 40
0.0
 40
0.0
 40
0.0
 40
0.0
 40
1.0
 40
1.0
 40
1.0
 40
2.0
 40
2.0
 40
2.0
 40
3.0
 40
3.0
 40
3.0
 40
4.0
 40
4.0
 40
4.0
 40
4.0
 10
87.35076725986216
 20
-144.8865036031907
 30
0.0
 10
87.35076725986216
 20
-144.8313997157076
 30
0.0
 10
87.30599976100428
 20
-144.7865969390728
 30
0.0
 10
87.25086059574433
 20
-144.7865969390728
 30
0.0
 10
87.1954039304928
 20
-144.7865969390728
 30
0.0
 10
87.15060115385773
 20
-144.8313997157076
 30
0.0
 10
87.15060115385773
 20
-144.8865036031907
 30
0.0
 10
87.15060115385773
 20
-144.9416427684506
 30
0.0
 10
87.1954039304928
 20
-144.9864102673085
 30
0.0
 10
87.25086059574433
 20
-144.9864102673085
 30
0.0
 10
87.30599976100428
 20
-144.9864102673085
 30
0.0
 10
87.35076725986216
 20
-144.9416427684506
 30
0.0
 10
87.35076725986216
 20
-144.8865036031907
 30
0.0
  0
LINE
  5
E6
330
70
100
AcDbEntity
  8
レイヤー 1
 62
    18
420
        0
370
     9
100
AcDbLine
 10
85.7908192441042
 20
-144.8865036031907
 30
0.0
 11
88.25063279246023
 21
-144.8865036031907
 31
0.0
  0
LINE
  5
E7
330
70
100
AcDbEntity
  8
レイヤー 1
 62
    18
420
        0
370
     9
100
AcDbLine
 10
85.7908192441042
 20
-155.8857489039793
 30
0.0
 11
88.25063279246023
 21
-155.8857489039793
 31
0.0
  0
LINE
  5
E8
330
70
100
AcDbEntity
  8
レイヤー 1
 62
    18
420
        0
370
     9
100
AcDbLine
 10
85.7908192441042
 20
-149.8857487385863
 30
0.0
 11
88.25063279246023
 21
-149.8857487385863
 31
0.0
  0
INSERT
  5
EA
330
70
100
AcDbEntity
  8
レイヤー 1
100
AcDbBlockReference
  2
Block_13
 10
0.0
 20
0.0
 30
0.0
  0
INSERT
  5
F0
330
70
100
AcDbEntity
  8
レイヤー 1
100
AcDbBlockReference
  2
Block_14
 10
0.0
 20
0.0
 30
0.0
  0
INSERT
  5
F7
330
70
100
AcDbEntity
  8
レイヤー 1
100
AcDbBlockReference
  2
Block_15
 10
0.0
 20
0.0
 30
0.0
  0
INSERT
  5
FE
330
70
100
AcDbEntity
  8
レイヤー 1
100
AcDbBlockReference
  2
Block_16
 10
0.0
 20
0.0
 30
0.0
  0
LWPOLYLINE
  5
115
330
70
100
AcDbEntity
  8
レイヤー 1
 62
    18
420
        0
370
    25
100
AcDbPolyline
 90
       22
 70
     0
 43
0.0
 10
88.85074122340402
 20
-148.3779397319909
 10
89.15074122335107
 20
-147.8779397321292
 10
88.85074122344892
 20
-147.3779397044254
 10
89.150741223396
 20
-146.877939704564
 10
88.85074122349385
 20
-146.3779396768599
 10
89.15074122344092
 20
-145.8779396769982
 10
88.85074122353875
 20
-145.3779396492944
 10
89.14317540978926
 20
-144.8905493389257
 10
89.85129200487182
 20
-144.8901238805674
 10
89.85129200487182
 20
-148.880557156793
 10
99.86230567018605
 20
-148.880557156793
 10
99.85857647818363
 20
-154.8936398092273
 10
112.8681208226433
 20
-154.8936398092273
 10
112.8681208226433
 20
-153.8991519622532
 10
106.8635302393712
 20
-153.8991519622532
 10
106.8635302393712
 20
-152.8977912086725
 10
113.8681208223931
 20
-152.8977912086725
 10
113.8681208223931
 20
-155.8931214810653
 10
98.85857647843321
 20
-155.8931214810653
 10
98.85857647843321
 20
-149.8805571565422
 10
88.85129197730664
 20
-149.8805571565422
 10
88.85129197730664
 20
-148.380557199303
  0
ENDSEC
  0
SECTION
  2
OBJECTS
  0
DICTIONARY
  5
C
330
0
100
AcDbDictionary
281
     1
  3
ACAD_COLOR
350
63
  3
ACAD_DETAILVIEWSTYLE
350
6A
  3
ACAD_GROUP
350
D
  3
ACAD_LAYOUT
350
62
  3
ACAD_MATERIAL
350
10
  3
ACAD_MLEADERSTYLE
350
66
  3
ACAD_MLINESTYLE
350
5F
  3
ACAD_PLOTSETTINGS
350
61
  3
ACAD_PLOTSTYLENAME
350
E
  3
ACAD_SCALELIST
350
42
  3
ACAD_SECTIONVIEWSTYLE
350
68
  3
ACAD_TABLESTYLE
350
64
  3
ACAD_VISUALSTYLE
350
29
  3
ACDB_RECOMPOSE_DATA
350
11E
  3
AcDbVariableDictionary
350
116
  0
DICTIONARY
  5
63
102
{ACAD_REACTORS
330
C
102
}
330
C
100
AcDbDictionary
281
     1
  0
DICTIONARY
  5
6A
102
{ACAD_REACTORS
330
C
102
}
330
C
100
AcDbDictionary
281
     1
  3
Imperial24
350
6B
  0
DICTIONARY
  5
D
102
{ACAD_REACTORS
330
C
102
}
330
C
100
AcDbDictionary
281
     1
  0
DICTIONARY
  5
62
102
{ACAD_REACTORS
330
C
102
}
330
C
100
AcDbDictionary
281
     1
  3
Layout1
350
6F
  3
Layout2
350
77
  3
Model
350
73
  0
DICTIONARY
  5
10
102
{ACAD_REACTORS
330
C
102
}
330
C
100
AcDbDictionary
281
     1
  3
ByBlock
350
19
  3
ByLayer
350
11
  3
Global
350
21
  0
DICTIONARY
  5
66
102
{ACAD_REACTORS
330
C
102
}
330
C
100
AcDbDictionary
281
     1
  3
Standard
350
67
  0
DICTIONARY
  5
5F
102
{ACAD_REACTORS
330
C
102
}
330
C
100
AcDbDictionary
281
     1
  3
Standard
350
60
  0
DICTIONARY
  5
61
102
{ACAD_REACTORS
330
C
102
}
330
C
100
AcDbDictionary
281
     1
  0
ACDBDICTIONARYWDFLT
  5
E
102
{ACAD_REACTORS
330
C
102
}
330
C
100
AcDbDictionary
281
     1
  3
Normal
350
F
100
AcDbDictionaryWithDefault
340
F
  0
DICTIONARY
  5
42
102
{ACAD_REACTORS
330
C
102
}
330
C
100
AcDbDictionary
281
     1
  3
A0
350
43
  3
A1
350
44
  3
A2
350
45
  3
A3
350
46
  3
A4
350
47
  3
A5
350
48
  3
A6
350
49
  3
A7
350
4A
  3
A8
350
4B
  3
A9
350
4C
  3
B0
350
4D
  3
B1
350
4E
  3
B2
350
4F
  3
B3
350
50
  3
B4
350
51
  3
B5
350
52
  3
B6
350
53
  0
DICTIONARY
  5
68
102
{ACAD_REACTORS
330
C
102
}
330
C
100
AcDbDictionary
281
     1
  3
Imperial24
350
69
  0
DICTIONARY
  5
64
102
{ACAD_REACTORS
330
C
102
}
330
C
100
AcDbDictionary
281
     1
  3
Standard
350
65
  0
DICTIONARY
  5
29
102
{ACAD_REACTORS
330
C
102
}
330
C
100
AcDbDictionary
281
     1
  3
2dWireframe
350
2F
  3
Basic
350
2E
  3
Brighten
350
35
  3
ColorChange
350
39
  3
Conceptual
350
32
  3
Dim
350
34
  3
EdgeColorOff
350
41
  3
Facepattern
350
38
  3
Flat
350
2A
  3
FlatWithEdges
350
2B
  3
Gouraud
350
2C
  3
GouraudWithEdges
350
2D
  3
Hidden
350
31
  3
JitterOff
350
3F
  3
Linepattern
350
37
  3
OverhangOff
350
40
  3
Realistic
350
33
  3
Shaded
350
3E
  3
Shaded with edges
350
3D
  3
Shades of Gray
350
3A
  3
Sketchy
350
3B
  3
Thicken
350
36
  3
Wireframe
350
30
  3
X-Ray
350
3C
  0
XRECORD
  5
11E
102
{ACAD_REACTORS
330
C
102
}
330
C
100
AcDbXrecord
280
     1
 90
        1
330
65
  0
DICTIONARY
  5
116
102
{ACAD_REACTORS
330
C
102
}
330
C
100
AcDbDictionary
281
     1
  3
CANNOSCALE
350
11B
  3
CMLEADERSTYLE
350
118
  3
CTABLESTYLE
350
117
  3
CVIEWDETAILSTYLE
350
119
  3
CVIEWSECTIONSTYLE
350
11A
  0
ACDBDETAILVIEWSTYLE
  5
6B
102
{ACAD_XDICTIONARY
360
153
102
}
102
{ACAD_REACTORS
330
6A
102
}
330
6A
100
AcDbModelDocViewStyle
 70
     0
  3
Imperial24
290
     0
100
AcDbDetailViewStyle
 70
     0
 71
     0
 90
        3
 71
     1
340
55
 62
   256
 40
0.24
340
0
 62
   256
 40
0.24
300

 40
0.36
280
     3
 71
     2
340
5D
 90
       25
 62
   256
 71
     3
340
55
 62
   256
 40
0.24
 90
        1
 40
0.75
 90
        1
300
%<\AcVar ViewType \f "%tc1">% %<\AcVar ViewDetailId>%\PSCALE %<\AcVar ViewScale \f "%sn">%
 71
     4
340
5D
 90
       25
 62
   256
340
5D
 90
       25
 62
   256
280
     0
  0
LAYOUT
  5
6F
102
{ACAD_REACTORS
330
62
102
}
330
62
100
AcDbPlotSettings
  1

  2

  4

  6

 40
0.0
 41
0.0
 42
0.0
 43
0.0
 44
0.0
 45
0.0
 46
0.0
 47
0.0
 48
0.0
 49
0.0
140
0.0
141
0.0
142
1.0
143
1.0
 70
   688
 72
     0
 73
     0
 74
     5
  7

 75
    16
147
1.0
 76
     0
 77
     2
 78
   300
148
0.0
149
0.0
100
AcDbLayout
  1
Layout1
 70
     1
 71
     1
 10
0.0
 20
0.0
 11
12.0
 21
9.0
 12
0.0
 22
0.0
 32
0.0
 14
0.0
 24
0.0
 34
0.0
 15
0.0
 25
0.0
 35
0.0
146
0.0
 13
0.0
 23
0.0
 33
0.0
 16
1.0
 26
0.0
 36
0.0
 17
0.0
 27
1.0
 37
0.0
 76
     0
330
6C
  0
LAYOUT
  5
77
102
{ACAD_REACTORS
330
62
102
}
330
62
100
AcDbPlotSettings
  1

  2

  4

  6

 40
0.0
 41
0.0
 42
0.0
 43
0.0
 44
0.0
 45
0.0
 46
0.0
 47
0.0
 48
0.0
 49
0.0
140
0.0
141
0.0
142
1.0
143
1.0
 70
   688
 72
     0
 73
     0
 74
     5
  7

 75
    16
147
1.0
 76
     0
 77
     2
 78
   300
148
0.0
149
0.0
100
AcDbLayout
  1
Layout2
 70
     1
 71
     2
 10
0.0
 20
0.0
 11
12.0
 21
9.0
 12
0.0
 22
0.0
 32
0.0
 14
0.0
 24
0.0
 34
0.0
 15
0.0
 25
0.0
 35
0.0
146
0.0
 13
0.0
 23
0.0
 33
0.0
 16
1.0
 26
0.0
 36
0.0
 17
0.0
 27
1.0
 37
0.0
 76
     0
330
74
  0
LAYOUT
  5
73
102
{ACAD_REACTORS
330
62
102
}
330
62
100
AcDbPlotSettings
  1

  2

  4

  6

 40
0.0
 41
0.0
 42
0.0
 43
0.0
 44
0.0
 45
0.0
 46
0.0
 47
0.0
 48
0.0
 49
0.0
140
0.0
141
0.0
142
1.0
143
1.0
 70
  1712
 72
     0
 73
     0
 74
     0
  7

 75
     0
147
1.0
 76
     0
 77
     2
 78
   300
148
0.0
149
0.0
100
AcDbLayout
  1
Model
 70
     1
 71
     0
 10
0.0
 20
0.0
 11
12.0
 21
9.0
 12
0.0
 22
0.0
 32
0.0
 14
0.0
 24
0.0
 34
0.0
 15
0.0
 25
0.0
 35
0.0
146
0.0
 13
0.0
 23
0.0
 33
0.0
 16
1.0
 26
0.0
 36
0.0
 17
0.0
 27
1.0
 37
0.0
 76
     0
330
70
  0
MATERIAL
  5
19
102
{ACAD_XDICTIONARY
360
1A
102
}
102
{ACAD_REACTORS
330
10
102
}
330
10
100
AcDbMaterial
  1
ByBlock
 72
     0
 43
0.0208333333333333
 43
0.0
 43
0.0
 43
0.0
 43
0.0
 43
0.0208333333333333
 43
0.0
 43
0.0
 43
0.0
 43
0.0
 43
1.0
 43
0.0
 43
0.0
 43
0.0
 43
0.0
 43
1.0
 77
     0
 47
0.0208333333333333
 47
0.0
 47
0.0
 47
0.0
 47
0.0
 47
0.0208333333333333
 47
0.0
 47
0.0
 47
0.0
 47
0.0
 47
1.0
 47
0.0
 47
0.0
 47
0.0
 47
0.0
 47
1.0
171
     0
 49
0.0208333333333333
 49
0.0
 49
0.0
 49
0.0
 49
0.0
 49
0.0208333333333333
 49
0.0
 49
0.0
 49
0.0
 49
0.0
 49
1.0
 49
0.0
 49
0.0
 49
0.0
 49
0.0
 49
1.0
175
     0
142
0.0208333333333333
142
0.0
142
0.0
142
0.0
142
0.0
142
0.0208333333333333
142
0.0
142
0.0
142
0.0
142
0.0
142
1.0
142
0.0
142
0.0
142
0.0
142
0.0
142
1.0
179
     0
144
0.0208333333333333
144
0.0
144
0.0
144
0.0
144
0.0
144
0.0208333333333333
144
0.0
144
0.0
144
0.0
144
0.0
144
1.0
144
0.0
144
0.0
144
0.0
144
0.0
144
1.0
147
0.0208333333333333
147
0.0
147
0.0
147
0.0
147
0.0
147
0.0208333333333333
147
0.0
147
0.0
147
0.0
147
0.0
147
1.0
147
0.0
147
0.0
147
0.0
147
0.0
147
1.0
  0
MATERIAL
  5
11
102
{ACAD_XDICTIONARY
360
12
102
}
102
{ACAD_REACTORS
330
10
102
}
330
10
100
AcDbMaterial
  1
ByLayer
 72
     0
 43
0.0208333333333333
 43
0.0
 43
0.0
 43
0.0
 43
0.0
 43
0.0208333333333333
 43
0.0
 43
0.0
 43
0.0
 43
0.0
 43
1.0
 43
0.0
 43
0.0
 43
0.0
 43
0.0
 43
1.0
 77
     0
 47
0.0208333333333333
 47
0.0
 47
0.0
 47
0.0
 47
0.0
 47
0.0208333333333333
 47
0.0
 47
0.0
 47
0.0
 47
0.0
 47
1.0
 47
0.0
 47
0.0
 47
0.0
 47
0.0
 47
1.0
171
     0
 49
0.0208333333333333
 49
0.0
 49
0.0
 49
0.0
 49
0.0
 49
0.0208333333333333
 49
0.0
 49
0.0
 49
0.0
 49
0.0
 49
1.0
 49
0.0
 49
0.0
 49
0.0
 49
0.0
 49
1.0
175
     0
142
0.0208333333333333
142
0.0
142
0.0
142
0.0
142
0.0
142
0.0208333333333333
142
0.0
142
0.0
142
0.0
142
0.0
142
1.0
142
0.0
142
0.0
142
0.0
142
0.0
142
1.0
179
     0
144
0.0208333333333333
144
0.0
144
0.0
144
0.0
144
0.0
144
0.0208333333333333
144
0.0
144
0.0
144
0.0
144
0.0
144
1.0
144
0.0
144
0.0
144
0.0
144
0.0
144
1.0
147
0.0208333333333333
147
0.0
147
0.0
147
0.0
147
0.0
147
0.0208333333333333
147
0.0
147
0.0
147
0.0
147
0.0
147
1.0
147
0.0
147
0.0
147
0.0
147
0.0
147
1.0
  0
MATERIAL
  5
21
102
{ACAD_XDICTIONARY
360
22
102
}
102
{ACAD_REACTORS
330
10
102
}
330
10
100
AcDbMaterial
  1
Global
 72
     0
 43
0.0208333333333333
 43
0.0
 43
0.0
 43
0.0
 43
0.0
 43
0.0208333333333333
 43
0.0
 43
0.0
 43
0.0
 43
0.0
 43
1.0
 43
0.0
 43
0.0
 43
0.0
 43
0.0
 43
1.0
 77
     0
 47
0.0208333333333333
 47
0.0
 47
0.0
 47
0.0
 47
0.0
 47
0.0208333333333333
 47
0.0
 47
0.0
 47
0.0
 47
0.0
 47
1.0
 47
0.0
 47
0.0
 47
0.0
 47
0.0
 47
1.0
171
     0
 49
0.0208333333333333
 49
0.0
 49
0.0
 49
0.0
 49
0.0
 49
0.0208333333333333
 49
0.0
 49
0.0
 49
0.0
 49
0.0
 49
1.0
 49
0.0
 49
0.0
 49
0.0
 49
0.0
 49
1.0
175
     0
142
0.0208333333333333
142
0.0
142
0.0
142
0.0
142
0.0
142
0.0208333333333333
142
0.0
142
0.0
142
0.0
142
0.0
142
1.0
142
0.0
142
0.0
142
0.0
142
0.0
142
1.0
179
     0
144
0.0208333333333333
144
0.0
144
0.0
144
0.0
144
0.0
144
0.0208333333333333
144
0.0
144
0.0
144
0.0
144
0.0
144
1.0
144
0.0
144
0.0
144
0.0
144
0.0
144
1.0
147
0.0208333333333333
147
0.0
147
0.0
147
0.0
147
0.0
147
0.0208333333333333
147
0.0
147
0.0
147
0.0
147
0.0
147
1.0
147
0.0
147
0.0
147
0.0
147
0.0
147
1.0
  0
MLEADERSTYLE
  5
67
102
{ACAD_XDICTIONARY
360
14F
102
}
102
{ACAD_REACTORS
330
66
102
}
330
66
100
AcDbMLeaderStyle
179
     2
170
     2
171
     1
172
     0
 90
        2
 40
0.0
 41
0.0
173
     1
 91
-1056964608
340
5B
 92
       -2
290
     1
 42
0.09
291
     1
 43
0.36
  3
Standard
 44
0.18
300

342
55
174
     1
178
     6
175
     1
176
     0
 93
-1056964608
 45
0.18
292
     0
297
     0
 46
0.18
 94
-1056964608
 47
1.0
 49
1.0
140
1.0
293
     1
141
0.0
294
     1
177
     0
142
1.0
295
     0
296
     0
143
0.125
271
     0
272
     9
273
     9
  0
MLINESTYLE
  5
60
102
{ACAD_REACTORS
330
5F
102
}
330
5F
100
AcDbMlineStyle
  2
STANDARD
 70
     0
  3

 62
   256
 51
90.0
 52
90.0
 71
     2
 49
0.5
 62
   256
  6
BYLAYER
 49
-0.5
 62
   256
  6
BYLAYER
  0
ACDBPLACEHOLDER
  5
F
102
{ACAD_REACTORS
330
E
102
}
330
E
  0
SCALE
  5
43
102
{ACAD_REACTORS
330
42
102
}
330
42
100
AcDbScale
 70
     0
300
1:1
140
1.0
141
1.0
290
     1
  0
SCALE
  5
44
102
{ACAD_REACTORS
330
42
102
}
330
42
100
AcDbScale
 70
     0
300
1/128" = 1'-0"
140
0.0078125
141
12.0
290
     0
  0
SCALE
  5
45
102
{ACAD_REACTORS
330
42
102
}
330
42
100
AcDbScale
 70
     0
300
1/64" = 1'-0"
140
0.015625
141
12.0
290
     0
  0
SCALE
  5
46
102
{ACAD_REACTORS
330
42
102
}
330
42
100
AcDbScale
 70
     0
300
1/32" = 1'-0"
140
0.03125
141
12.0
290
     0
  0
SCALE
  5
47
102
{ACAD_REACTORS
330
42
102
}
330
42
100
AcDbScale
 70
     0
300
1/16" = 1'-0"
140
0.0625
141
12.0
290
     0
  0
SCALE
  5
48
102
{ACAD_REACTORS
330
42
102
}
330
42
100
AcDbScale
 70
     0
300
3/32" = 1'-0"
140
0.09375
141
12.0
290
     0
  0
SCALE
  5
49
102
{ACAD_REACTORS
330
42
102
}
330
42
100
AcDbScale
 70
     0
300
1/8" = 1'-0"
140
0.125
141
12.0
290
     0
  0
SCALE
  5
4A
102
{ACAD_REACTORS
330
42
102
}
330
42
100
AcDbScale
 70
     0
300
3/16" = 1'-0"
140
0.1875
141
12.0
290
     0
  0
SCALE
  5
4B
102
{ACAD_REACTORS
330
42
102
}
330
42
100
AcDbScale
 70
     0
300
1/4" = 1'-0"
140
0.25
141
12.0
290
     0
  0
SCALE
  5
4C
102
{ACAD_REACTORS
330
42
102
}
330
42
100
AcDbScale
 70
     0
300
3/8" = 1'-0"
140
0.375
141
12.0
290
     0
  0
SCALE
  5
4D
102
{ACAD_REACTORS
330
42
102
}
330
42
100
AcDbScale
 70
     0
300
1/2" = 1'-0"
140
0.5
141
12.0
290
     0
  0
SCALE
  5
4E
102
{ACAD_REACTORS
330
42
102
}
330
42
100
AcDbScale
 70
     0
300
3/4" = 1'-0"
140
0.75
141
12.0
290
     0
  0
SCALE
  5
4F
102
{ACAD_REACTORS
330
42
102
}
330
42
100
AcDbScale
 70
     0
300
1" = 1'-0"
140
1.0
141
12.0
290
     0
  0
SCALE
  5
50
102
{ACAD_REACTORS
330
42
102
}
330
42
100
AcDbScale
 70
     0
300
1-1/2" = 1'-0"
140
1.5
141
12.0
290
     0
  0
SCALE
  5
51
102
{ACAD_REACTORS
330
42
102
}
330
42
100
AcDbScale
 70
     0
300
3" = 1'-0"
140
3.0
141
12.0
290
     0
  0
SCALE
  5
52
102
{ACAD_REACTORS
330
42
102
}
330
42
100
AcDbScale
 70
     0
300
6" = 1'-0"
140
6.0
141
12.0
290
     0
  0
SCALE
  5
53
102
{ACAD_REACTORS
330
42
102
}
330
42
100
AcDbScale
 70
     0
300
1'-0" = 1'-0"
140
12.0
141
12.0
290
     0
  0
ACDBSECTIONVIEWSTYLE
  5
69
102
{ACAD_XDICTIONARY
360
151
102
}
102
{ACAD_REACTORS
330
68
102
}
330
68
100
AcDbModelDocViewStyle
 70
     0
  3
Imperial24
290
     0
100
AcDbSectionViewStyle
 70
     0
 71
     0
 90
       78
 71
     1
340
55
 62
   256
 40
0.24
340
0
340
0
 62
   256
 40
0.24
300
I, O, Q, S, X, Z
 40
0.48
 90
        3
 40
0.18
 90
        1
 71
     2
340
5D
 90
       25
 62
   256
340
5D
 90
       50
 62
   256
 40
0.24
 40
0.0
 40
0.24
 71
     3
340
55
 62
   256
 40
0.24
 90
        1
 40
0.75
 90
        1
300
%<\AcVar ViewType \f "%tc1">% %<\AcVar ViewSectionStartId>%-%<\AcVar ViewSectionEndId>%\PSCALE %<\AcVar ViewScale \f "%sn">%
 71
     4
 62
   256
 62
   257
300
ANSI31
 40
1.0
 90
        0
290
     0
290
     0
 90
        6
 40
0.0
 40
1.570796326794896
 40
0.2617993877991494
 40
1.308996938995747
 40
-0.2617993877991494
 40
1.832595714594046
  0
TABLESTYLE
  5
65
102
{ACAD_XDICTIONARY
360
11C
102
}
102
{ACAD_REACTORS
330
64
102
}
330
64
100
AcDbTableStyle
280
     0
  3
Standard
 70
     0
 71
     0
 40
0.06
 41
0.06
280
     0
281
     0
  7
Standard
140
0.18
170
     2
 62
     0
 63
     7
283
     0
 90
      512
 91
        0
  1

274
    -2
284
     1
 64
     0
275
    -2
285
     1
 65
     0
276
    -2
286
     1
 66
     0
277
    -2
287
     1
 67
     0
278
    -2
288
     1
 68
     0
279
    -2
289
     1
 69
     0
  7
Standard
140
0.25
170
     5
 62
     0
 63
     7
283
     0
 90
      512
 91
        0
  1

274
    -2
284
     1
 64
     0
275
    -2
285
     1
 65
     0
276
    -2
286
     1
 66
     0
277
    -2
287
     1
 67
     0
278
    -2
288
     1
 68
     0
279
    -2
289
     1
 69
     0
  7
Standard
140
0.18
170
     5
 62
     0
 63
     7
283
     0
 90
      512
 91
        0
  1

274
    -2
284
     1
 64
     0
275
    -2
285
     1
 65
     0
276
    -2
286
     1
 66
     0
277
    -2
287
     1
 67
     0
278
    -2
288
     1
 68
     0
279
    -2
289
     1
 69
     0
  0
VISUALSTYLE
  5
2F
102
{ACAD_XDICTIONARY
360
129
102
}
102
{ACAD_REACTORS
330
29
102
}
330
29
100
AcDbVisualStyle
  2
2dWireframe
 70
     4
177
     2
291
     0
 71
     0
176
     1
 72
     2
176
     1
 73
     0
176
     1
 90
        0
176
     1
 40
0.6
176
     1
 41
30.0
176
     1
 63
     7
421
 16777215
176
     1
 74
     1
176
     1
 91
        4
176
     1
 64
     7
176
     1
 65
   257
176
     1
 75
     1
176
     1
175
     1
176
     1
 42
1.0
176
     1
 92
        0
176
     1
 66
   257
176
     1
 43
1.0
176
     1
 76
     1
176
     1
 77
     6
176
     1
 78
     2
176
     1
 67
     7
176
     1
 79
     5
176
     1
170
     0
176
     1
171
     0
176
     1
290
     0
176
     1
 93
        1
176
     1
 44
0.0
176
     1
173
     0
176
     1
1001
ACAD
1000
AcDbSavedByObjectVersion
1070
     0
  0
VISUALSTYLE
  5
2E
102
{ACAD_XDICTIONARY
360
127
102
}
102
{ACAD_REACTORS
330
29
102
}
330
29
100
AcDbVisualStyle
  2
Basic
 70
     7
177
     2
291
     1
 71
     1
176
     1
 72
     0
176
     1
 73
     1
176
     1
 90
        0
176
     1
 40
0.6
176
     1
 41
30.0
176
     1
 63
     7
421
 16777215
176
     1
 74
     0
176
     1
 91
        4
176
     1
 64
     7
176
     1
 65
   257
176
     1
 75
     1
176
     1
175
     1
176
     1
 42
1.0
176
     1
 92
        8
176
     1
 66
     7
176
     1
 43
1.0
176
     1
 76
     1
176
     1
 77
     6
176
     1
 78
     2
176
     1
 67
     7
176
     1
 79
     5
176
     1
170
     0
176
     1
171
     0
176
     1
290
     0
176
     1
 93
        1
176
     1
 44
0.0
176
     1
173
     0
176
     1
1001
ACAD
1000
AcDbSavedByObjectVersion
1070
     0
  0
VISUALSTYLE
  5
35
102
{ACAD_XDICTIONARY
360
135
102
}
102
{ACAD_REACTORS
330
29
102
}
330
29
100
AcDbVisualStyle
  2
Brighten
 70
    12
177
     2
291
     1
 71
     2
176
     1
 72
     2
176
     1
 73
     0
176
     1
 90
        0
176
     1
 40
0.6
176
     1
 41
30.0
176
     1
 63
     7
421
 16777215
176
     1
 74
     1
176
     1
 91
        4
176
     1
 64
     7
176
     1
 65
   257
176
     1
 75
     1
176
     1
175
     1
176
     1
 42
1.0
176
     1
 92
        8
176
     1
 66
     7
176
     1
 43
1.0
176
     1
 76
     1
176
     1
 77
     6
176
     1
 78
     2
176
     1
 67
     7
176
     1
 79
     5
176
     1
170
     0
176
     1
171
     0
176
     1
290
     0
176
     1
 93
        1
176
     1
 44
50.0
176
     1
173
     0
176
     1
1001
ACAD
1000
AcDbSavedByObjectVersion
1070
     0
  0
VISUALSTYLE
  5
39
102
{ACAD_XDICTIONARY
360
13D
102
}
102
{ACAD_REACTORS
330
29
102
}
330
29
100
AcDbVisualStyle
  2
ColorChange
 70
    16
177
     2
291
     1
 71
     2
176
     1
 72
     2
176
     1
 73
     3
176
     1
 90
        0
176
     1
 40
0.6
176
     1
 41
30.0
176
     1
 63
     8
421
  8421504
176
     1
 74
     1
176
     1
 91
        4
176
     1
 64
     7
176
     1
 65
   257
176
     1
 75
     1
176
     1
175
     1
176
     1
 42
1.0
176
     1
 92
        8
176
     1
 66
     8
424
  8421504
176
     1
 43
1.0
176
     1
 76
     1
176
     1
 77
     6
176
     1
 78
     2
176
     1
 67
     7
176
     1
 79
     5
176
     1
170
     0
176
     1
171
     0
176
     1
290
     0
176
     1
 93
        1
176
     1
 44
0.0
176
     1
173
     0
176
     1
1001
ACAD
1000
AcDbSavedByObjectVersion
1070
     0
  0
VISUALSTYLE
  5
32
102
{ACAD_XDICTIONARY
360
12F
102
}
102
{ACAD_REACTORS
330
29
102
}
330
29
100
AcDbVisualStyle
  2
Conceptual
 70
     9
177
     2
291
     0
 71
     3
176
     1
 72
     2
176
     1
 73
     0
176
     1
 90
        0
176
     1
 40
0.6
176
     1
 41
30.0
176
     1
 63
     7
421
 16777215
176
     1
 74
     2
176
     1
 91
        2
176
     1
 64
     7
176
     1
 65
   257
176
     1
 75
     1
176
     1
175
     1
176
     1
 42
179.0
176
     1
 92
        8
176
     1
 66
     7
176
     1
 43
1.0
176
     1
 76
     1
176
     1
 77
     6
176
     1
 78
     2
176
     1
 67
     7
176
     1
 79
     3
176
     1
170
     0
176
     1
171
     0
176
     1
290
     0
176
     1
 93
        1
176
     1
 44
0.0
176
     1
173
     0
176
     1
1001
ACAD
1000
AcDbSavedByObjectVersion
1070
     0
  0
VISUALSTYLE
  5
34
102
{ACAD_XDICTIONARY
360
133
102
}
102
{ACAD_REACTORS
330
29
102
}
330
29
100
AcDbVisualStyle
  2
Dim
 70
    11
177
     2
291
     1
 71
     2
176
     1
 72
     2
176
     1
 73
     0
176
     1
 90
        0
176
     1
 40
0.6
176
     1
 41
30.0
176
     1
 63
     7
421
 16777215
176
     1
 74
     1
176
     1
 91
        4
176
     1
 64
     7
176
     1
 65
   257
176
     1
 75
     1
176
     1
175
     1
176
     1
 42
1.0
176
     1
 92
        8
176
     1
 66
     7
176
     1
 43
1.0
176
     1
 76
     1
176
     1
 77
     6
176
     1
 78
     2
176
     1
 67
     7
176
     1
 79
     5
176
     1
170
     0
176
     1
171
     0
176
     1
290
     0
176
     1
 93
        1
176
     1
 44
-50.0
176
     1
173
     0
176
     1
1001
ACAD
1000
AcDbSavedByObjectVersion
1070
     0
  0
VISUALSTYLE
  5
41
102
{ACAD_XDICTIONARY
360
14D
102
}
102
{ACAD_REACTORS
330
29
102
}
330
29
100
AcDbVisualStyle
  2
EdgeColorOff
 70
    22
177
     2
291
     1
 71
     2
176
     0
 72
     2
176
     0
 73
     0
176
     0
 90
        0
176
     0
 40
0.6
176
     0
 41
30.0
176
     0
 63
     7
421
 16777215
176
     0
 74
     1
176
     0
 91
        4
176
     0
 64
     7
176
     0
 65
   257
176
     0
 75
     1
176
     0
175
     1
176
     0
 42
1.0
176
     0
 92
        8
176
     2
 66
     7
176
     0
 43
1.0
176
     0
 76
     1
176
     0
 77
     6
176
     0
 78
     2
176
     0
 67
     7
176
     0
 79
     5
176
     0
170
     0
176
     0
171
     0
176
     0
290
     0
176
     0
 93
        1
176
     0
 44
0.0
176
     0
173
     0
176
     0
1001
ACAD
1000
AcDbSavedByObjectVersion
1070
     0
  0
VISUALSTYLE
  5
38
102
{ACAD_XDICTIONARY
360
13B
102
}
102
{ACAD_REACTORS
330
29
102
}
330
29
100
AcDbVisualStyle
  2
Facepattern
 70
    15
177
     2
291
     1
 71
     2
176
     1
 72
     2
176
     1
 73
     0
176
     1
 90
        0
176
     1
 40
0.6
176
     1
 41
30.0
176
     1
 63
     7
421
 16777215
176
     1
 74
     1
176
     1
 91
        4
176
     1
 64
     7
176
     1
 65
   257
176
     1
 75
     1
176
     1
175
     1
176
     1
 42
1.0
176
     1
 92
        8
176
     1
 66
     7
176
     1
 43
1.0
176
     1
 76
     1
176
     1
 77
     6
176
     1
 78
     2
176
     1
 67
     7
176
     1
 79
     5
176
     1
170
     0
176
     1
171
     0
176
     1
290
     0
176
     1
 93
        1
176
     1
 44
0.0
176
     1
173
     0
176
     1
1001
ACAD
1000
AcDbSavedByObjectVersion
1070
     0
  0
VISUALSTYLE
  5
2A
102
{ACAD_XDICTIONARY
360
11F
102
}
102
{ACAD_REACTORS
330
29
102
}
330
29
100
AcDbVisualStyle
  2
Flat
 70
     0
177
     2
291
     1
 71
     2
176
     1
 72
     1
176
     1
 73
     1
176
     1
 90
        2
176
     1
 40
0.6
176
     1
 41
30.0
176
     1
 63
     7
421
 16777215
176
     1
 74
     0
176
     1
 91
        0
176
     1
 64
     7
176
     1
 65
   257
176
     1
 75
     1
176
     1
175
     1
176
     1
 42
1.0
176
     1
 92
        8
176
     1
 66
     7
176
     1
 43
1.0
176
     1
 76
     1
176
     1
 77
     6
176
     1
 78
     2
176
     1
 67
     7
176
     1
 79
     5
176
     1
170
     0
176
     1
171
     0
176
     1
290
     0
176
     1
 93
       13
176
     1
 44
0.0
176
     1
173
     0
176
     1
1001
ACAD
1000
AcDbSavedByObjectVersion
1070
     0
  0
VISUALSTYLE
  5
2B
102
{ACAD_XDICTIONARY
360
121
102
}
102
{ACAD_REACTORS
330
29
102
}
330
29
100
AcDbVisualStyle
  2
FlatWithEdges
 70
     1
177
     2
291
     1
 71
     2
176
     1
 72
     1
176
     1
 73
     1
176
     1
 90
        2
176
     1
 40
0.6
176
     1
 41
30.0
176
     1
 63
     7
421
 16777215
176
     1
 74
     1
176
     1
 91
        0
176
     1
 64
     7
176
     1
 65
   257
176
     1
 75
     1
176
     1
175
     1
176
     1
 42
1.0
176
     1
 92
        0
176
     1
 66
   257
176
     1
 43
1.0
176
     1
 76
     1
176
     1
 77
     6
176
     1
 78
     2
176
     1
 67
     7
176
     1
 79
     5
176
     1
170
     0
176
     1
171
     0
176
     1
290
     0
176
     1
 93
       13
176
     1
 44
0.0
176
     1
173
     0
176
     1
1001
ACAD
1000
AcDbSavedByObjectVersion
1070
     0
  0
VISUALSTYLE
  5
2C
102
{ACAD_XDICTIONARY
360
123
102
}
102
{ACAD_REACTORS
330
29
102
}
330
29
100
AcDbVisualStyle
  2
Gouraud
 70
     2
177
     2
291
     1
 71
     2
176
     1
 72
     2
176
     1
 73
     1
176
     1
 90
        2
176
     1
 40
0.6
176
     1
 41
30.0
176
     1
 63
     7
421
 16777215
176
     1
 74
     0
176
     1
 91
        0
176
     1
 64
     7
176
     1
 65
   257
176
     1
 75
     1
176
     1
175
     1
176
     1
 42
1.0
176
     1
 92
        0
176
     1
 66
     7
176
     1
 43
1.0
176
     1
 76
     1
176
     1
 77
     6
176
     1
 78
     2
176
     1
 67
     7
176
     1
 79
     5
176
     1
170
     0
176
     1
171
     0
176
     1
290
     0
176
     1
 93
       13
176
     1
 44
0.0
176
     1
173
     0
176
     1
1001
ACAD
1000
AcDbSavedByObjectVersion
1070
     0
  0
VISUALSTYLE
  5
2D
102
{ACAD_XDICTIONARY
360
125
102
}
102
{ACAD_REACTORS
330
29
102
}
330
29
100
AcDbVisualStyle
  2
GouraudWithEdges
 70
     3
177
     2
291
     1
 71
     2
176
     1
 72
     2
176
     1
 73
     1
176
     1
 90
        2
176
     1
 40
0.6
176
     1
 41
30.0
176
     1
 63
     7
421
 16777215
176
     1
 74
     1
176
     1
 91
        0
176
     1
 64
     7
176
     1
 65
   257
176
     1
 75
     1
176
     1
175
     1
176
     1
 42
1.0
176
     1
 92
        0
176
     1
 66
   257
176
     1
 43
1.0
176
     1
 76
     1
176
     1
 77
     6
176
     1
 78
     2
176
     1
 67
     7
176
     1
 79
     5
176
     1
170
     0
176
     1
171
     0
176
     1
290
     0
176
     1
 93
       13
176
     1
 44
0.0
176
     1
173
     0
176
     1
1001
ACAD
1000
AcDbSavedByObjectVersion
1070
     0
  0
VISUALSTYLE
  5
31
102
{ACAD_XDICTIONARY
360
12D
102
}
102
{ACAD_REACTORS
330
29
102
}
330
29
100
AcDbVisualStyle
  2
Hidden
 70
     6
177
     2
291
     0
 71
     1
176
     1
 72
     2
176
     1
 73
     2
176
     1
 90
        0
176
     1
 40
0.6
176
     1
 41
30.0
176
     1
 63
     7
421
 16777215
176
     1
 74
     2
176
     1
 91
        2
176
     1
 64
     7
176
     1
 65
   257
176
     1
 75
     2
176
     1
175
     1
176
     1
 42
40.0
176
     1
 92
        0
176
     1
 66
   257
176
     1
 43
1.0
176
     1
 76
     1
176
     1
 77
     6
176
     1
 78
     2
176
     1
 67
     7
176
     1
 79
     3
176
     1
170
     0
176
     1
171
     0
176
     1
290
     0
176
     1
 93
        1
176
     1
 44
0.0
176
     1
173
     0
176
     1
1001
ACAD
1000
AcDbSavedByObjectVersion
1070
     0
  0
VISUALSTYLE
  5
3F
102
{ACAD_XDICTIONARY
360
149
102
}
102
{ACAD_REACTORS
330
29
102
}
330
29
100
AcDbVisualStyle
  2
JitterOff
 70
    20
177
     2
291
     1
 71
     2
176
     0
 72
     2
176
     0
 73
     0
176
     0
 90
        0
176
     0
 40
0.6
176
     0
 41
30.0
176
     0
 63
     7
421
 16777215
176
     0
 74
     1
176
     0
 91
        4
176
     0
 64
     7
176
     0
 65
   257
176
     0
 75
     1
176
     0
175
     1
176
     0
 42
1.0
176
     0
 92
       10
176
     2
 66
     7
176
     0
 43
1.0
176
     0
 76
     1
176
     0
 77
     6
176
     0
 78
     2
176
     0
 67
     7
176
     0
 79
     5
176
     0
170
     0
176
     0
171
     0
176
     0
290
     0
176
     0
 93
        1
176
     0
 44
0.0
176
     0
173
     0
176
     0
1001
ACAD
1000
AcDbSavedByObjectVersion
1070
     0
  0
VISUALSTYLE
  5
37
102
{ACAD_XDICTIONARY
360
139
102
}
102
{ACAD_REACTORS
330
29
102
}
330
29
100
AcDbVisualStyle
  2
Linepattern
 70
    14
177
     2
291
     1
 71
     2
176
     1
 72
     2
176
     1
 73
     0
176
     1
 90
        0
176
     1
 40
0.6
176
     1
 41
30.0
176
     1
 63
     7
421
 16777215
176
     1
 74
     1
176
     1
 91
        4
176
     1
 64
     7
176
     1
 65
   257
176
     1
 75
     7
176
     1
175
     7
176
     1
 42
1.0
176
     1
 92
        8
176
     1
 66
     7
176
     1
 43
1.0
176
     1
 76
     1
176
     1
 77
     6
176
     1
 78
     2
176
     1
 67
     7
176
     1
 79
     5
176
     1
170
     0
176
     1
171
     0
176
     1
290
     0
176
     1
 93
        1
176
     1
 44
0.0
176
     1
173
     0
176
     1
1001
ACAD
1000
AcDbSavedByObjectVersion
1070
     0
  0
VISUALSTYLE
  5
40
102
{ACAD_XDICTIONARY
360
14B
102
}
102
{ACAD_REACTORS
330
29
102
}
330
29
100
AcDbVisualStyle
  2
OverhangOff
 70
    21
177
     2
291
     1
 71
     2
176
     0
 72
     2
176
     0
 73
     0
176
     0
 90
        0
176
     0
 40
0.6
176
     0
 41
30.0
176
     0
 63
     7
421
 16777215
176
     0
 74
     1
176
     0
 91
        4
176
     0
 64
     7
176
     0
 65
   257
176
     0
 75
     1
176
     0
175
     1
176
     0
 42
1.0
176
     0
 92
        9
176
     2
 66
     7
176
     0
 43
1.0
176
     0
 76
     1
176
     0
 77
     6
176
     0
 78
     2
176
     0
 67
     7
176
     0
 79
     5
176
     0
170
     0
176
     0
171
     0
176
     0
290
     0
176
     0
 93
        1
176
     0
 44
0.0
176
     0
173
     0
176
     0
1001
ACAD
1000
AcDbSavedByObjectVersion
1070
     0
  0
VISUALSTYLE
  5
33
102
{ACAD_XDICTIONARY
360
131
102
}
102
{ACAD_REACTORS
330
29
102
}
330
29
100
AcDbVisualStyle
  2
Realistic
 70
     8
177
     2
291
     0
 71
     2
176
     1
 72
     3
176
     1
 73
     0
176
     1
 90
        2
176
     1
 40
0.6
176
     1
 41
30.0
176
     1
 63
     7
421
 16777215
176
     1
 74
     0
176
     1
 91
        0
176
     1
 64
     7
176
     1
 65
   257
176
     1
 75
     1
176
     1
175
     1
176
     1
 42
1.0
176
     1
 92
        8
176
     1
 66
   257
176
     1
 43
1.0
176
     1
 76
     1
176
     1
 77
     6
176
     1
 78
     2
176
     1
 67
     7
176
     1
 79
     3
176
     1
170
     0
176
     1
171
     0
176
     1
290
     0
176
     1
 93
       13
176
     1
 44
0.0
176
     1
173
     0
176
     1
1001
ACAD
1000
AcDbSavedByObjectVersion
1070
     0
  0
VISUALSTYLE
  5
3E
102
{ACAD_XDICTIONARY
360
147
102
}
102
{ACAD_REACTORS
330
29
102
}
330
29
100
AcDbVisualStyle
  2
Shaded
 70
    27
177
     2
291
     0
 71
     2
176
     1
 72
     2
176
     1
 73
     1
176
     1
 90
        2
176
     1
 40
0.6
176
     1
 41
30.0
176
     1
 63
     7
421
 16777215
176
     1
 74
     0
176
     1
 91
        4
176
     1
 64
     7
176
     1
 65
   257
176
     1
 75
     1
176
     1
175
     1
176
     1
 42
1.0
176
     1
 92
        8
176
     1
 66
   257
176
     1
 43
1.0
176
     1
 76
     1
176
     1
 77
     6
176
     1
 78
     2
176
     1
 67
     8
425
  7895160
176
     1
 79
     3
176
     1
170
     0
176
     1
171
     0
176
     1
290
     0
176
     1
 93
        5
176
     1
 44
0.0
176
     1
173
     0
176
     1
1001
ACAD
1000
AcDbSavedByObjectVersion
1070
     0
  0
VISUALSTYLE
  5
3D
102
{ACAD_XDICTIONARY
360
145
102
}
102
{ACAD_REACTORS
330
29
102
}
330
29
100
AcDbVisualStyle
  2
Shaded with edges
 70
    26
177
     2
291
     0
 71
     2
176
     1
 72
     2
176
     1
 73
     1
176
     1
 90
        2
176
     1
 40
0.6
176
     1
 41
30.0
176
     1
 63
     7
421
 16777215
176
     1
 74
     1
176
     1
 91
        2
176
     1
 64
     7
176
     1
 65
   257
176
     1
 75
     2
176
     1
175
     1
176
     1
 42
1.0
176
     1
 92
        8
176
     1
 66
   257
176
     1
 43
1.0
176
     1
 76
     1
176
     1
 77
     6
176
     1
 78
     2
176
     1
 67
     7
176
     1
 79
     3
176
     1
170
     0
176
     1
171
     0
176
     1
290
     0
176
     1
 93
        5
176
     1
 44
0.0
176
     1
173
     0
176
     1
1001
ACAD
1000
AcDbSavedByObjectVersion
1070
     0
  0
VISUALSTYLE
  5
3A
102
{ACAD_XDICTIONARY
360
13F
102
}
102
{ACAD_REACTORS
330
29
102
}
330
29
100
AcDbVisualStyle
  2
Shades of Gray
 70
    23
177
     2
291
     0
 71
     2
176
     1
 72
     2
176
     1
 73
     3
176
     1
 90
        0
176
     1
 40
0.6
176
     1
 41
30.0
176
     1
 63
     7
421
 16777215
176
     1
 74
     2
176
     1
 91
        2
176
     1
 64
     7
176
     1
 65
     7
176
     1
 75
     1
176
     1
175
     1
176
     1
 42
40.0
176
     1
 92
        8
176
     1
 66
     7
176
     1
 43
1.0
176
     1
 76
     1
176
     1
 77
     6
176
     1
 78
     2
176
     1
 67
     7
176
     1
 79
     3
176
     1
170
     0
176
     1
171
     0
176
     1
290
     0
176
     1
 93
        1
176
     1
 44
0.0
176
     1
173
     0
176
     1
1001
ACAD
1000
AcDbSavedByObjectVersion
1070
     0
  0
VISUALSTYLE
  5
3B
102
{ACAD_XDICTIONARY
360
141
102
}
102
{ACAD_REACTORS
330
29
102
}
330
29
100
AcDbVisualStyle
  2
Sketchy
 70
    24
177
     2
291
     0
 71
     1
176
     1
 72
     2
176
     1
 73
     2
176
     1
 90
        0
176
     1
 40
0.6
176
     1
 41
30.0
176
     1
 63
     7
421
 16777215
176
     1
 74
     2
176
     1
 91
        2
176
     1
 64
     7
176
     1
 65
     7
176
     1
 75
     1
176
     1
175
     1
176
     1
 42
40.0
176
     1
 92
       11
176
     1
 66
     7
176
     1
 43
1.0
176
     1
 76
     1
176
     1
 77
     6
176
     1
 78
     2
176
     1
 67
     7
176
     1
 79
     6
176
     1
170
     0
176
     1
171
     0
176
     1
290
     0
176
     1
 93
        1
176
     1
 44
0.0
176
     1
173
     0
176
     1
1001
ACAD
1000
AcDbSavedByObjectVersion
1070
     0
  0
VISUALSTYLE
  5
36
102
{ACAD_XDICTIONARY
360
137
102
}
102
{ACAD_REACTORS
330
29
102
}
330
29
100
AcDbVisualStyle
  2
Thicken
 70
    13
177
     2
291
     1
 71
     2
176
     1
 72
     2
176
     1
 73
     0
176
     1
 90
        0
176
     1
 40
0.6
176
     1
 41
30.0
176
     1
 63
     7
421
 16777215
176
     1
 74
     1
176
     1
 91
        4
176
     1
 64
     7
176
     1
 65
   257
176
     1
 75
     1
176
     1
175
     1
176
     1
 42
1.0
176
     1
 92
       12
176
     1
 66
     7
176
     1
 43
1.0
176
     1
 76
     1
176
     1
 77
     6
176
     1
 78
     2
176
     1
 67
     7
176
     1
 79
     5
176
     1
170
     0
176
     1
171
     0
176
     1
290
     0
176
     1
 93
        1
176
     1
 44
0.0
176
     1
173
     0
176
     1
1001
ACAD
1000
AcDbSavedByObjectVersion
1070
     0
  0
VISUALSTYLE
  5
30
102
{ACAD_XDICTIONARY
360
12B
102
}
102
{ACAD_REACTORS
330
29
102
}
330
29
100
AcDbVisualStyle
  2
Wireframe
 70
     5
177
     2
291
     0
 71
     0
176
     1
 72
     2
176
     1
 73
     0
176
     1
 90
        0
176
     1
 40
0.6
176
     1
 41
30.0
176
     1
 63
     7
421
 16777215
176
     1
 74
     1
176
     1
 91
        4
176
     1
 64
     7
176
     1
 65
   257
176
     1
 75
     1
176
     1
175
     1
176
     1
 42
1.0
176
     1
 92
        0
176
     1
 66
   257
176
     1
 43
1.0
176
     1
 76
     1
176
     1
 77
     6
176
     1
 78
     2
176
     1
 67
     7
176
     1
 79
     3
176
     1
170
     0
176
     1
171
     0
176
     1
290
     0
176
     1
 93
        1
176
     1
 44
0.0
176
     1
173
     0
176
     1
1001
ACAD
1000
AcDbSavedByObjectVersion
1070
     0
  0
VISUALSTYLE
  5
3C
102
{ACAD_XDICTIONARY
360
143
102
}
102
{ACAD_REACTORS
330
29
102
}
330
29
100
AcDbVisualStyle
  2
X-Ray
 70
    25
177
     2
291
     0
 71
     2
176
     1
 72
     2
176
     1
 73
     1
176
     1
 90
        1
176
     1
 40
0.5
176
     1
 41
30.0
176
     1
 63
     7
421
 16777215
176
     1
 74
     1
176
     1
 91
        0
176
     1
 64
     7
176
     1
 65
   257
176
     1
 75
     1
176
     1
175
     1
176
     1
 42
1.0
176
     1
 92
        8
176
     1
 66
     7
176
     1
 43
1.0
176
     1
 76
     1
176
     1
 77
     6
176
     1
 78
     2
176
     1
 67
     7
176
     1
 79
     3
176
     1
170
     0
176
     1
171
     0
176
     1
290
     0
176
     1
 93
       13
176
     1
 44
0.0
176
     1
173
     0
176
     1
1001
ACAD
1000
AcDbSavedByObjectVersion
1070
     0
  0
DICTIONARYVAR
  5
11B
102
{ACAD_REACTORS
330
116
102
}
330
116
100
DictionaryVariables
280
     0
  1
1:1
  0
DICTIONARYVAR
  5
118
102
{ACAD_REACTORS
330
116
102
}
330
116
100
DictionaryVariables
280
     0
  1
STANDARD
  0
DICTIONARYVAR
  5
117
102
{ACAD_REACTORS
330
116
102
}
330
116
100
DictionaryVariables
280
     0
  1
STANDARD
  0
DICTIONARYVAR
  5
119
102
{ACAD_REACTORS
330
116
102
}
330
116
100
DictionaryVariables
280
     0
  1
Imperial24
  0
DICTIONARYVAR
  5
11A
102
{ACAD_REACTORS
330
116
102
}
330
116
100
DictionaryVariables
280
     0
  1
Imperial24
  0
DICTIONARY
  5
153
330
6B
100
AcDbDictionary
280
     1
281
     1
  3
ACAD_XREC_ROUNDTRIP
360
154
  0
DICTIONARY
  5
1A
330
19
100
AcDbDictionary
280
     1
281
     1
  3
BUMPTILE
360
1C
  3
DIFFUSETILE
360
1B
  3
OPACITYTILE
360
1F
  3
REFLECTIONTILE
360
1E
  3
REFRACTIONTILE
360
20
  3
SPECULARTILE
360
1D
  0
DICTIONARY
  5
12
330
11
100
AcDbDictionary
280
     1
281
     1
  3
BUMPTILE
360
14
  3
DIFFUSETILE
360
13
  3
OPACITYTILE
360
17
  3
REFLECTIONTILE
360
16
  3
REFRACTIONTILE
360
18
  3
SPECULARTILE
360
15
  0
DICTIONARY
  5
22
330
21
100
AcDbDictionary
280
     1
281
     1
  3
BUMPTILE
360
24
  3
DIFFUSETILE
360
23
  3
OPACITYTILE
360
27
  3
REFLECTIONTILE
360
26
  3
REFRACTIONTILE
360
28
  3
SPECULARTILE
360
25
  0
DICTIONARY
  5
14F
330
67
100
AcDbDictionary
280
     1
281
     1
  3
ACAD_XREC_ROUNDTRIP
360
150
  0
DICTIONARY
  5
151
330
69
100
AcDbDictionary
280
     1
281
     1
  3
ACAD_XREC_ROUNDTRIP
360
152
  0
DICTIONARY
  5
11C
330
65
100
AcDbDictionary
280
     1
281
     1
  3
ACAD_ROUNDTRIP_2008_TABLESTYLE_CELLSTYLEMAP
360
11D
  0
DICTIONARY
  5
129
330
2F
100
AcDbDictionary
280
     1
281
     1
  3
ACAD_XREC_ROUNDTRIP
360
12A
  0
DICTIONARY
  5
127
330
2E
100
AcDbDictionary
280
     1
281
     1
  3
ACAD_XREC_ROUNDTRIP
360
128
  0
DICTIONARY
  5
135
330
35
100
AcDbDictionary
280
     1
281
     1
  3
ACAD_XREC_ROUNDTRIP
360
136
  0
DICTIONARY
  5
13D
330
39
100
AcDbDictionary
280
     1
281
     1
  3
ACAD_XREC_ROUNDTRIP
360
13E
  0
DICTIONARY
  5
12F
330
32
100
AcDbDictionary
280
     1
281
     1
  3
ACAD_XREC_ROUNDTRIP
360
130
  0
DICTIONARY
  5
133
330
34
100
AcDbDictionary
280
     1
281
     1
  3
ACAD_XREC_ROUNDTRIP
360
134
  0
DICTIONARY
  5
14D
330
41
100
AcDbDictionary
280
     1
281
     1
  3
ACAD_XREC_ROUNDTRIP
360
14E
  0
DICTIONARY
  5
13B
330
38
100
AcDbDictionary
280
     1
281
     1
  3
ACAD_XREC_ROUNDTRIP
360
13C
  0
DICTIONARY
  5
11F
330
2A
100
AcDbDictionary
280
     1
281
     1
  3
ACAD_XREC_ROUNDTRIP
360
120
  0
DICTIONARY
  5
121
330
2B
100
AcDbDictionary
280
     1
281
     1
  3
ACAD_XREC_ROUNDTRIP
360
122
  0
DICTIONARY
  5
123
330
2C
100
AcDbDictionary
280
     1
281
     1
  3
ACAD_XREC_ROUNDTRIP
360
124
  0
DICTIONARY
  5
125
330
2D
100
AcDbDictionary
280
     1
281
     1
  3
ACAD_XREC_ROUNDTRIP
360
126
  0
DICTIONARY
  5
12D
330
31
100
AcDbDictionary
280
     1
281
     1
  3
ACAD_XREC_ROUNDTRIP
360
12E
  0
DICTIONARY
  5
149
330
3F
100
AcDbDictionary
280
     1
281
     1
  3
ACAD_XREC_ROUNDTRIP
360
14A
  0
DICTIONARY
  5
139
330
37
100
AcDbDictionary
280
     1
281
     1
  3
ACAD_XREC_ROUNDTRIP
360
13A
  0
DICTIONARY
  5
14B
330
40
100
AcDbDictionary
280
     1
281
     1
  3
ACAD_XREC_ROUNDTRIP
360
14C
  0
DICTIONARY
  5
131
330
33
100
AcDbDictionary
280
     1
281
     1
  3
ACAD_XREC_ROUNDTRIP
360
132
  0
DICTIONARY
  5
147
330
3E
100
AcDbDictionary
280
     1
281
     1
  3
ACAD_XREC_ROUNDTRIP
360
148
  0
DICTIONARY
  5
145
330
3D
100
AcDbDictionary
280
     1
281
     1
  3
ACAD_XREC_ROUNDTRIP
360
146
  0
DICTIONARY
  5
13F
330
3A
100
AcDbDictionary
280
     1
281
     1
  3
ACAD_XREC_ROUNDTRIP
360
140
  0
DICTIONARY
  5
141
330
3B
100
AcDbDictionary
280
     1
281
     1
  3
ACAD_XREC_ROUNDTRIP
360
142
  0
DICTIONARY
  5
137
330
36
100
AcDbDictionary
280
     1
281
     1
  3
ACAD_XREC_ROUNDTRIP
360
138
  0
DICTIONARY
  5
12B
330
30
100
AcDbDictionary
280
     1
281
     1
  3
ACAD_XREC_ROUNDTRIP
360
12C
  0
DICTIONARY
  5
143
330
3C
100
AcDbDictionary
280
     1
281
     1
  3
ACAD_XREC_ROUNDTRIP
360
144
  0
XRECORD
  5
154
102
{ACAD_REACTORS
330
153
102
}
330
153
100
AcDbXrecord
280
     1
102
DISPLAYNAME
  1
Imperial24
102
FLAGS
 90
        0
  0
XRECORD
  5
1C
102
{ACAD_REACTORS
330
1A
102
}
330
1A
100
AcDbXrecord
280
     1
270
     1
271
     1
  0
XRECORD
  5
1B
102
{ACAD_REACTORS
330
1A
102
}
330
1A
100
AcDbXrecord
280
     1
270
     1
271
     1
  0
XRECORD
  5
1F
102
{ACAD_REACTORS
330
1A
102
}
330
1A
100
AcDbXrecord
280
     1
270
     1
271
     1
  0
XRECORD
  5
1E
102
{ACAD_REACTORS
330
1A
102
}
330
1A
100
AcDbXrecord
280
     1
270
     1
271
     1
  0
XRECORD
  5
20
102
{ACAD_REACTORS
330
1A
102
}
330
1A
100
AcDbXrecord
280
     1
270
     1
271
     1
  0
XRECORD
  5
1D
102
{ACAD_REACTORS
330
1A
102
}
330
1A
100
AcDbXrecord
280
     1
270
     1
271
     1
  0
XRECORD
  5
14
102
{ACAD_REACTORS
330
12
102
}
330
12
100
AcDbXrecord
280
     1
270
     1
271
     1
  0
XRECORD
  5
13
102
{ACAD_REACTORS
330
12
102
}
330
12
100
AcDbXrecord
280
     1
270
     1
271
     1
  0
XRECORD
  5
17
102
{ACAD_REACTORS
330
12
102
}
330
12
100
AcDbXrecord
280
     1
270
     1
271
     1
  0
XRECORD
  5
16
102
{ACAD_REACTORS
330
12
102
}
330
12
100
AcDbXrecord
280
     1
270
     1
271
     1
  0
XRECORD
  5
18
102
{ACAD_REACTORS
330
12
102
}
330
12
100
AcDbXrecord
280
     1
270
     1
271
     1
  0
XRECORD
  5
15
102
{ACAD_REACTORS
330
12
102
}
330
12
100
AcDbXrecord
280
     1
270
     1
271
     1
  0
XRECORD
  5
24
102
{ACAD_REACTORS
330
22
102
}
330
22
100
AcDbXrecord
280
     1
270
     1
271
     1
  0
XRECORD
  5
23
102
{ACAD_REACTORS
330
22
102
}
330
22
100
AcDbXrecord
280
     1
270
     1
271
     1
  0
XRECORD
  5
27
102
{ACAD_REACTORS
330
22
102
}
330
22
100
AcDbXrecord
280
     1
270
     1
271
     1
  0
XRECORD
  5
26
102
{ACAD_REACTORS
330
22
102
}
330
22
100
AcDbXrecord
280
     1
270
     1
271
     1
  0
XRECORD
  5
28
102
{ACAD_REACTORS
330
22
102
}
330
22
100
AcDbXrecord
280
     1
270
     1
271
     1
  0
XRECORD
  5
25
102
{ACAD_REACTORS
330
22
102
}
330
22
100
AcDbXrecord
280
     1
270
     1
271
     1
  0
XRECORD
  5
150
102
{ACAD_REACTORS
330
14F
102
}
330
14F
100
AcDbXrecord
280
     1
102
ACAD_ROUNDTRIP_2012_MLEADER_STYLE
298
     1
  0
XRECORD
  5
152
102
{ACAD_REACTORS
330
151
102
}
330
151
100
AcDbXrecord
280
     1
102
DISPLAYNAME
  1
Imperial24
102
FLAGS
 90
        0
  0
CELLSTYLEMAP
  5
11D
102
{ACAD_REACTORS
330
11C
102
}
330
11C
100
AcDbCellStyleMap
 90
        3
300
CELLSTYLE
  1
TABLEFORMAT_BEGIN
 90
        5
170
     1
 91
        0
 92
    32768
 62
   257
 93
        1
300
CONTENTFORMAT
  1
CONTENTFORMAT_BEGIN
 90
        0
 91
        0
 92
      512
 93
        0
300

 40
0.0
140
1.0
 94
        5
 62
     0
340
55
144
0.25
309
CONTENTFORMAT_END
171
     0
 94
        0
309
TABLEFORMAT_END
  1
CELLSTYLE_BEGIN
 90
        1
 91
        1
300
_TITLE
309
CELLSTYLE_END
300
CELLSTYLE
  1
TABLEFORMAT_BEGIN
 90
        5
170
     1
 91
        0
 92
        0
 62
   257
 93
        1
300
CONTENTFORMAT
  1
CONTENTFORMAT_BEGIN
 90
        0
 91
        0
 92
      512
 93
        0
300

 40
0.0
140
1.0
 94
        5
 62
     0
340
55
144
0.18
309
CONTENTFORMAT_END
171
     0
 94
        0
309
TABLEFORMAT_END
  1
CELLSTYLE_BEGIN
 90
        2
 91
        1
300
_HEADER
309
CELLSTYLE_END
300
CELLSTYLE
  1
TABLEFORMAT_BEGIN
 90
        5
170
     1
 91
        0
 92
        0
 62
   257
 93
        1
300
CONTENTFORMAT
  1
CONTENTFORMAT_BEGIN
 90
        0
 91
        0
 92
      512
 93
        0
300

 40
0.0
140
1.0
 94
        2
 62
     0
340
55
144
0.18
309
CONTENTFORMAT_END
171
     0
 94
        0
309
TABLEFORMAT_END
  1
CELLSTYLE_BEGIN
 90
        3
 91
        2
300
_DATA
309
CELLSTYLE_END
  0
XRECORD
  5
12A
102
{ACAD_REACTORS
330
129
102
}
330
129
100
AcDbXrecord
280
     1
102
RTVSPost2010Prop28
280
     1
102
RTVSPost2010PropOp28
 70
     1
102
RTVSPost2010Prop29
280
     1
102
RTVSPost2010PropOp29
 70
     1
102
RTVSPost2010Prop30
280
     0
102
RTVSPost2010PropOp30
 70
     1
102
RTVSPost2010Prop31
280
     0
102
RTVSPost2010PropOp31
 70
     1
102
RTVSPost2010Prop32
280
     0
102
RTVSPost2010PropOp32
 70
     1
102
RTVSPost2010Prop33
280
     0
102
RTVSPost2010PropOp33
 70
     1
102
RTVSPost2010Prop34
280
     0
102
RTVSPost2010PropOp34
 70
     1
102
RTVSPost2010Prop35
280
     0
102
RTVSPost2010PropOp35
 70
     1
102
RTVSPost2010Prop36
280
     0
102
RTVSPost2010PropOp36
 70
     1
102
RTVSPost2010Prop37
 90
       50
102
RTVSPost2010PropOp37
 70
     1
102
RTVSPost2010Prop38
140
0.0
102
RTVSPost2010PropOp38
 70
     1
102
RTVSPost2010Prop39
140
1.0
102
RTVSPost2010PropOp39
 70
     1
102
RTVSPost2010Prop40
 90
        0
102
RTVSPost2010PropOp40
 70
     1
102
RTVSPost2010Prop41ColorIndex
 90
       18
102
RTVSPost2010Prop41ColorRGB
 90
        0
102
RTVSPost2010PropOp41
 70
     1
102
RTVSPost2010Prop42
 90
       50
102
RTVSPost2010PropOp42
 70
     1
102
RTVSPost2010Prop43
 90
        3
102
RTVSPost2010PropOp43
 70
     1
102
RTVSPost2010Prop44ColorIndex
 90
        5
102
RTVSPost2010Prop44ColorRGB
 90
      255
102
RTVSPost2010PropOp44
 70
     1
102
RTVSPost2010Prop45
280
     0
102
RTVSPost2010PropOp45
 70
     1
102
RTVSPost2010Prop46
 90
       50
102
RTVSPost2010PropOp46
 70
     1
102
RTVSPost2010Prop47
 90
       50
102
RTVSPost2010PropOp47
 70
     1
102
RTVSPost2010Prop48
 90
       50
102
RTVSPost2010PropOp48
 70
     1
102
RTVSPost2010Prop49
280
     0
102
RTVSPost2010PropOp49
 70
     1
102
RTVSPost2010Prop50
 90
       50
102
RTVSPost2010PropOp50
 70
     1
102
RTVSPost2010Prop51ColorIndex
 90
      256
102
RTVSPost2010Prop51ColorRGB
 90
-16777216
102
RTVSPost2010PropOp51
 70
     0
102
RTVSPost2010Prop52
140
1.0
102
RTVSPost2010PropOp52
 70
     0
102
RTVSPost2010Prop53
 90
        2
102
RTVSPost2010PropOp53
 70
     1
102
RTVSPost2010Prop54
  1
strokes_ogs.tif
102
RTVSPost2010PropOp54
 70
     1
102
RTVSPost2010Prop55
280
     0
102
RTVSPost2010PropOp55
 70
     1
102
RTVSPost2010Prop56
140
1.0
102
RTVSPost2010PropOp56
 70
     1
102
RTVSPost2010Prop57
140
1.0
102
RTVSPost2010PropOp57
 70
     1
  0
XRECORD
  5
128
102
{ACAD_REACTORS
330
127
102
}
330
127
100
AcDbXrecord
280
     1
102
RTVSPost2010Prop28
280
     0
102
RTVSPost2010PropOp28
 70
     1
102
RTVSPost2010Prop29
280
     1
102
RTVSPost2010PropOp29
 70
     1
102
RTVSPost2010Prop30
280
     1
102
RTVSPost2010PropOp30
 70
     1
102
RTVSPost2010Prop31
280
     0
102
RTVSPost2010PropOp31
 70
     1
102
RTVSPost2010Prop32
280
     0
102
RTVSPost2010PropOp32
 70
     1
102
RTVSPost2010Prop33
280
     0
102
RTVSPost2010PropOp33
 70
     1
102
RTVSPost2010Prop34
280
     0
102
RTVSPost2010PropOp34
 70
     1
102
RTVSPost2010Prop35
280
     0
102
RTVSPost2010PropOp35
 70
     1
102
RTVSPost2010Prop36
280
     0
102
RTVSPost2010PropOp36
 70
     1
102
RTVSPost2010Prop37
 90
       50
102
RTVSPost2010PropOp37
 70
     1
102
RTVSPost2010Prop38
140
0.0
102
RTVSPost2010PropOp38
 70
     1
102
RTVSPost2010Prop39
140
1.0
102
RTVSPost2010PropOp39
 70
     1
102
RTVSPost2010Prop40
 90
        0
102
RTVSPost2010PropOp40
 70
     1
102
RTVSPost2010Prop41ColorIndex
 90
       18
102
RTVSPost2010Prop41ColorRGB
 90
        0
102
RTVSPost2010PropOp41
 70
     1
102
RTVSPost2010Prop42
 90
       50
102
RTVSPost2010PropOp42
 70
     1
102
RTVSPost2010Prop43
 90
        3
102
RTVSPost2010PropOp43
 70
     1
102
RTVSPost2010Prop44ColorIndex
 90
        5
102
RTVSPost2010Prop44ColorRGB
 90
      255
102
RTVSPost2010PropOp44
 70
     1
102
RTVSPost2010Prop45
280
     0
102
RTVSPost2010PropOp45
 70
     1
102
RTVSPost2010Prop46
 90
       50
102
RTVSPost2010PropOp46
 70
     1
102
RTVSPost2010Prop47
 90
       50
102
RTVSPost2010PropOp47
 70
     1
102
RTVSPost2010Prop48
 90
       50
102
RTVSPost2010PropOp48
 70
     1
102
RTVSPost2010Prop49
280
     0
102
RTVSPost2010PropOp49
 70
     1
102
RTVSPost2010Prop50
 90
       50
102
RTVSPost2010PropOp50
 70
     1
102
RTVSPost2010Prop51ColorIndex
 90
      256
102
RTVSPost2010Prop51ColorRGB
 90
-16777216
102
RTVSPost2010PropOp51
 70
     0
102
RTVSPost2010Prop52
140
1.0
102
RTVSPost2010PropOp52
 70
     0
102
RTVSPost2010Prop53
 90
        2
102
RTVSPost2010PropOp53
 70
     1
102
RTVSPost2010Prop54
  1
strokes_ogs.tif
102
RTVSPost2010PropOp54
 70
     1
102
RTVSPost2010Prop55
280
     0
102
RTVSPost2010PropOp55
 70
     1
102
RTVSPost2010Prop56
140
1.0
102
RTVSPost2010PropOp56
 70
     1
102
RTVSPost2010Prop57
140
1.0
102
RTVSPost2010PropOp57
 70
     1
  0
XRECORD
  5
136
102
{ACAD_REACTORS
330
135
102
}
330
135
100
AcDbXrecord
280
     1
102
RTVSPost2010Prop28
280
     0
102
RTVSPost2010PropOp28
 70
     1
102
RTVSPost2010Prop29
280
     1
102
RTVSPost2010PropOp29
 70
     1
102
RTVSPost2010Prop30
280
     1
102
RTVSPost2010PropOp30
 70
     1
102
RTVSPost2010Prop31
280
     0
102
RTVSPost2010PropOp31
 70
     1
102
RTVSPost2010Prop32
280
     0
102
RTVSPost2010PropOp32
 70
     1
102
RTVSPost2010Prop33
280
     0
102
RTVSPost2010PropOp33
 70
     1
102
RTVSPost2010Prop34
280
     0
102
RTVSPost2010PropOp34
 70
     1
102
RTVSPost2010Prop35
280
     0
102
RTVSPost2010PropOp35
 70
     1
102
RTVSPost2010Prop36
280
     0
102
RTVSPost2010PropOp36
 70
     1
102
RTVSPost2010Prop37
 90
       50
102
RTVSPost2010PropOp37
 70
     1
102
RTVSPost2010Prop38
140
0.0
102
RTVSPost2010PropOp38
 70
     1
102
RTVSPost2010Prop39
140
1.0
102
RTVSPost2010PropOp39
 70
     1
102
RTVSPost2010Prop40
 90
        0
102
RTVSPost2010PropOp40
 70
     1
102
RTVSPost2010Prop41ColorIndex
 90
       18
102
RTVSPost2010Prop41ColorRGB
 90
        0
102
RTVSPost2010PropOp41
 70
     1
102
RTVSPost2010Prop42
 90
       50
102
RTVSPost2010PropOp42
 70
     1
102
RTVSPost2010Prop43
 90
        3
102
RTVSPost2010PropOp43
 70
     1
102
RTVSPost2010Prop44ColorIndex
 90
        5
102
RTVSPost2010Prop44ColorRGB
 90
      255
102
RTVSPost2010PropOp44
 70
     1
102
RTVSPost2010Prop45
280
     0
102
RTVSPost2010PropOp45
 70
     1
102
RTVSPost2010Prop46
 90
       50
102
RTVSPost2010PropOp46
 70
     1
102
RTVSPost2010Prop47
 90
       50
102
RTVSPost2010PropOp47
 70
     1
102
RTVSPost2010Prop48
 90
       50
102
RTVSPost2010PropOp48
 70
     1
102
RTVSPost2010Prop49
280
     0
102
RTVSPost2010PropOp49
 70
     1
102
RTVSPost2010Prop50
 90
       50
102
RTVSPost2010PropOp50
 70
     1
102
RTVSPost2010Prop51ColorIndex
 90
      256
102
RTVSPost2010Prop51ColorRGB
 90
-16777216
102
RTVSPost2010PropOp51
 70
     0
102
RTVSPost2010Prop52
140
1.0
102
RTVSPost2010PropOp52
 70
     0
102
RTVSPost2010Prop53
 90
        2
102
RTVSPost2010PropOp53
 70
     1
102
RTVSPost2010Prop54
  1
strokes_ogs.tif
102
RTVSPost2010PropOp54
 70
     1
102
RTVSPost2010Prop55
280
     0
102
RTVSPost2010PropOp55
 70
     1
102
RTVSPost2010Prop56
140
1.0
102
RTVSPost2010PropOp56
 70
     1
102
RTVSPost2010Prop57
140
1.0
102
RTVSPost2010PropOp57
 70
     1
  0
XRECORD
  5
13E
102
{ACAD_REACTORS
330
13D
102
}
330
13D
100
AcDbXrecord
280
     1
102
RTVSPost2010Prop28
280
     0
102
RTVSPost2010PropOp28
 70
     1
102
RTVSPost2010Prop29
280
     1
102
RTVSPost2010PropOp29
 70
     1
102
RTVSPost2010Prop30
280
     1
102
RTVSPost2010PropOp30
 70
     1
102
RTVSPost2010Prop31
280
     0
102
RTVSPost2010PropOp31
 70
     1
102
RTVSPost2010Prop32
280
     0
102
RTVSPost2010PropOp32
 70
     1
102
RTVSPost2010Prop33
280
     0
102
RTVSPost2010PropOp33
 70
     1
102
RTVSPost2010Prop34
280
     0
102
RTVSPost2010PropOp34
 70
     1
102
RTVSPost2010Prop35
280
     0
102
RTVSPost2010PropOp35
 70
     1
102
RTVSPost2010Prop36
280
     0
102
RTVSPost2010PropOp36
 70
     1
102
RTVSPost2010Prop37
 90
       50
102
RTVSPost2010PropOp37
 70
     1
102
RTVSPost2010Prop38
140
0.0
102
RTVSPost2010PropOp38
 70
     1
102
RTVSPost2010Prop39
140
1.0
102
RTVSPost2010PropOp39
 70
     1
102
RTVSPost2010Prop40
 90
        0
102
RTVSPost2010PropOp40
 70
     1
102
RTVSPost2010Prop41ColorIndex
 90
       18
102
RTVSPost2010Prop41ColorRGB
 90
        0
102
RTVSPost2010PropOp41
 70
     1
102
RTVSPost2010Prop42
 90
       50
102
RTVSPost2010PropOp42
 70
     1
102
RTVSPost2010Prop43
 90
        3
102
RTVSPost2010PropOp43
 70
     1
102
RTVSPost2010Prop44ColorIndex
 90
        5
102
RTVSPost2010Prop44ColorRGB
 90
      255
102
RTVSPost2010PropOp44
 70
     1
102
RTVSPost2010Prop45
280
     0
102
RTVSPost2010PropOp45
 70
     1
102
RTVSPost2010Prop46
 90
       50
102
RTVSPost2010PropOp46
 70
     1
102
RTVSPost2010Prop47
 90
       50
102
RTVSPost2010PropOp47
 70
     1
102
RTVSPost2010Prop48
 90
       50
102
RTVSPost2010PropOp48
 70
     1
102
RTVSPost2010Prop49
280
     0
102
RTVSPost2010PropOp49
 70
     1
102
RTVSPost2010Prop50
 90
       50
102
RTVSPost2010PropOp50
 70
     1
102
RTVSPost2010Prop51ColorIndex
 90
      256
102
RTVSPost2010Prop51ColorRGB
 90
-16777216
102
RTVSPost2010PropOp51
 70
     0
102
RTVSPost2010Prop52
140
1.0
102
RTVSPost2010PropOp52
 70
     0
102
RTVSPost2010Prop53
 90
        2
102
RTVSPost2010PropOp53
 70
     1
102
RTVSPost2010Prop54
  1
strokes_ogs.tif
102
RTVSPost2010PropOp54
 70
     1
102
RTVSPost2010Prop55
280
     0
102
RTVSPost2010PropOp55
 70
     1
102
RTVSPost2010Prop56
140
1.0
102
RTVSPost2010PropOp56
 70
     1
102
RTVSPost2010Prop57
140
1.0
102
RTVSPost2010PropOp57
 70
     1
  0
XRECORD
  5
130
102
{ACAD_REACTORS
330
12F
102
}
330
12F
100
AcDbXrecord
280
     1
102
RTVSPost2010Prop28
280
     0
102
RTVSPost2010PropOp28
 70
     1
102
RTVSPost2010Prop29
280
     1
102
RTVSPost2010PropOp29
 70
     1
102
RTVSPost2010Prop30
280
     1
102
RTVSPost2010PropOp30
 70
     1
102
RTVSPost2010Prop31
280
     0
102
RTVSPost2010PropOp31
 70
     1
102
RTVSPost2010Prop32
280
     0
102
RTVSPost2010PropOp32
 70
     1
102
RTVSPost2010Prop33
280
     0
102
RTVSPost2010PropOp33
 70
     1
102
RTVSPost2010Prop34
280
     0
102
RTVSPost2010PropOp34
 70
     1
102
RTVSPost2010Prop35
280
     0
102
RTVSPost2010PropOp35
 70
     1
102
RTVSPost2010Prop36
280
     0
102
RTVSPost2010PropOp36
 70
     1
102
RTVSPost2010Prop37
 90
       50
102
RTVSPost2010PropOp37
 70
     1
102
RTVSPost2010Prop38
140
0.0
102
RTVSPost2010PropOp38
 70
     1
102
RTVSPost2010Prop39
140
1.0
102
RTVSPost2010PropOp39
 70
     1
102
RTVSPost2010Prop40
 90
        0
102
RTVSPost2010PropOp40
 70
     1
102
RTVSPost2010Prop41ColorIndex
 90
       18
102
RTVSPost2010Prop41ColorRGB
 90
        0
102
RTVSPost2010PropOp41
 70
     1
102
RTVSPost2010Prop42
 90
       50
102
RTVSPost2010PropOp42
 70
     1
102
RTVSPost2010Prop43
 90
        3
102
RTVSPost2010PropOp43
 70
     1
102
RTVSPost2010Prop44ColorIndex
 90
        5
102
RTVSPost2010Prop44ColorRGB
 90
      255
102
RTVSPost2010PropOp44
 70
     1
102
RTVSPost2010Prop45
280
     0
102
RTVSPost2010PropOp45
 70
     1
102
RTVSPost2010Prop46
 90
       50
102
RTVSPost2010PropOp46
 70
     1
102
RTVSPost2010Prop47
 90
       50
102
RTVSPost2010PropOp47
 70
     1
102
RTVSPost2010Prop48
 90
       50
102
RTVSPost2010PropOp48
 70
     1
102
RTVSPost2010Prop49
280
     0
102
RTVSPost2010PropOp49
 70
     1
102
RTVSPost2010Prop50
 90
       50
102
RTVSPost2010PropOp50
 70
     1
102
RTVSPost2010Prop51ColorIndex
 90
      256
102
RTVSPost2010Prop51ColorRGB
 90
-16777216
102
RTVSPost2010PropOp51
 70
     0
102
RTVSPost2010Prop52
140
1.0
102
RTVSPost2010PropOp52
 70
     0
102
RTVSPost2010Prop53
 90
        2
102
RTVSPost2010PropOp53
 70
     1
102
RTVSPost2010Prop54
  1
strokes_ogs.tif
102
RTVSPost2010PropOp54
 70
     1
102
RTVSPost2010Prop55
280
     0
102
RTVSPost2010PropOp55
 70
     1
102
RTVSPost2010Prop56
140
1.0
102
RTVSPost2010PropOp56
 70
     1
102
RTVSPost2010Prop57
140
1.0
102
RTVSPost2010PropOp57
 70
     1
  0
XRECORD
  5
134
102
{ACAD_REACTORS
330
133
102
}
330
133
100
AcDbXrecord
280
     1
102
RTVSPost2010Prop28
280
     0
102
RTVSPost2010PropOp28
 70
     1
102
RTVSPost2010Prop29
280
     1
102
RTVSPost2010PropOp29
 70
     1
102
RTVSPost2010Prop30
280
     1
102
RTVSPost2010PropOp30
 70
     1
102
RTVSPost2010Prop31
280
     0
102
RTVSPost2010PropOp31
 70
     1
102
RTVSPost2010Prop32
280
     0
102
RTVSPost2010PropOp32
 70
     1
102
RTVSPost2010Prop33
280
     0
102
RTVSPost2010PropOp33
 70
     1
102
RTVSPost2010Prop34
280
     0
102
RTVSPost2010PropOp34
 70
     1
102
RTVSPost2010Prop35
280
     0
102
RTVSPost2010PropOp35
 70
     1
102
RTVSPost2010Prop36
280
     0
102
RTVSPost2010PropOp36
 70
     1
102
RTVSPost2010Prop37
 90
       50
102
RTVSPost2010PropOp37
 70
     1
102
RTVSPost2010Prop38
140
0.0
102
RTVSPost2010PropOp38
 70
     1
102
RTVSPost2010Prop39
140
1.0
102
RTVSPost2010PropOp39
 70
     1
102
RTVSPost2010Prop40
 90
        0
102
RTVSPost2010PropOp40
 70
     1
102
RTVSPost2010Prop41ColorIndex
 90
       18
102
RTVSPost2010Prop41ColorRGB
 90
        0
102
RTVSPost2010PropOp41
 70
     1
102
RTVSPost2010Prop42
 90
       50
102
RTVSPost2010PropOp42
 70
     1
102
RTVSPost2010Prop43
 90
        3
102
RTVSPost2010PropOp43
 70
     1
102
RTVSPost2010Prop44ColorIndex
 90
        5
102
RTVSPost2010Prop44ColorRGB
 90
      255
102
RTVSPost2010PropOp44
 70
     1
102
RTVSPost2010Prop45
280
     0
102
RTVSPost2010PropOp45
 70
     1
102
RTVSPost2010Prop46
 90
       50
102
RTVSPost2010PropOp46
 70
     1
102
RTVSPost2010Prop47
 90
       50
102
RTVSPost2010PropOp47
 70
     1
102
RTVSPost2010Prop48
 90
       50
102
RTVSPost2010PropOp48
 70
     1
102
RTVSPost2010Prop49
280
     0
102
RTVSPost2010PropOp49
 70
     1
102
RTVSPost2010Prop50
 90
       50
102
RTVSPost2010PropOp50
 70
     1
102
RTVSPost2010Prop51ColorIndex
 90
      256
102
RTVSPost2010Prop51ColorRGB
 90
-16777216
102
RTVSPost2010PropOp51
 70
     0
102
RTVSPost2010Prop52
140
1.0
102
RTVSPost2010PropOp52
 70
     0
102
RTVSPost2010Prop53
 90
        2
102
RTVSPost2010PropOp53
 70
     1
102
RTVSPost2010Prop54
  1
strokes_ogs.tif
102
RTVSPost2010PropOp54
 70
     1
102
RTVSPost2010Prop55
280
     0
102
RTVSPost2010PropOp55
 70
     1
102
RTVSPost2010Prop56
140
1.0
102
RTVSPost2010PropOp56
 70
     1
102
RTVSPost2010Prop57
140
1.0
102
RTVSPost2010PropOp57
 70
     1
  0
XRECORD
  5
14E
102
{ACAD_REACTORS
330
14D
102
}
330
14D
100
AcDbXrecord
280
     1
102
RTVSPost2010Prop28
280
     0
102
RTVSPost2010PropOp28
 70
     0
102
RTVSPost2010Prop29
280
     1
102
RTVSPost2010PropOp29
 70
     0
102
RTVSPost2010Prop30
280
     1
102
RTVSPost2010PropOp30
 70
     0
102
RTVSPost2010Prop31
280
     0
102
RTVSPost2010PropOp31
 70
     0
102
RTVSPost2010Prop32
280
     0
102
RTVSPost2010PropOp32
 70
     0
102
RTVSPost2010Prop33
280
     0
102
RTVSPost2010PropOp33
 70
     0
102
RTVSPost2010Prop34
280
     0
102
RTVSPost2010PropOp34
 70
     0
102
RTVSPost2010Prop35
280
     0
102
RTVSPost2010PropOp35
 70
     0
102
RTVSPost2010Prop36
280
     0
102
RTVSPost2010PropOp36
 70
     0
102
RTVSPost2010Prop37
 90
       50
102
RTVSPost2010PropOp37
 70
     0
102
RTVSPost2010Prop38
140
0.0
102
RTVSPost2010PropOp38
 70
     0
102
RTVSPost2010Prop39
140
1.0
102
RTVSPost2010PropOp39
 70
     0
102
RTVSPost2010Prop40
 90
        0
102
RTVSPost2010PropOp40
 70
     0
102
RTVSPost2010Prop41ColorIndex
 90
       18
102
RTVSPost2010Prop41ColorRGB
 90
        0
102
RTVSPost2010PropOp41
 70
     0
102
RTVSPost2010Prop42
 90
       50
102
RTVSPost2010PropOp42
 70
     0
102
RTVSPost2010Prop43
 90
        3
102
RTVSPost2010PropOp43
 70
     0
102
RTVSPost2010Prop44ColorIndex
 90
        5
102
RTVSPost2010Prop44ColorRGB
 90
      255
102
RTVSPost2010PropOp44
 70
     0
102
RTVSPost2010Prop45
280
     0
102
RTVSPost2010PropOp45
 70
     0
102
RTVSPost2010Prop46
 90
       50
102
RTVSPost2010PropOp46
 70
     0
102
RTVSPost2010Prop47
 90
       50
102
RTVSPost2010PropOp47
 70
     0
102
RTVSPost2010Prop48
 90
       50
102
RTVSPost2010PropOp48
 70
     0
102
RTVSPost2010Prop49
280
     0
102
RTVSPost2010PropOp49
 70
     0
102
RTVSPost2010Prop50
 90
       50
102
RTVSPost2010PropOp50
 70
     0
102
RTVSPost2010Prop51ColorIndex
 90
      256
102
RTVSPost2010Prop51ColorRGB
 90
-16777216
102
RTVSPost2010PropOp51
 70
     0
102
RTVSPost2010Prop52
140
1.0
102
RTVSPost2010PropOp52
 70
     0
102
RTVSPost2010Prop53
 90
        2
102
RTVSPost2010PropOp53
 70
     0
102
RTVSPost2010Prop54
  1
strokes_ogs.tif
102
RTVSPost2010PropOp54
 70
     0
102
RTVSPost2010Prop55
280
     0
102
RTVSPost2010PropOp55
 70
     0
102
RTVSPost2010Prop56
140
1.0
102
RTVSPost2010PropOp56
 70
     0
102
RTVSPost2010Prop57
140
1.0
102
RTVSPost2010PropOp57
 70
     0
  0
XRECORD
  5
13C
102
{ACAD_REACTORS
330
13B
102
}
330
13B
100
AcDbXrecord
280
     1
102
RTVSPost2010Prop28
280
     0
102
RTVSPost2010PropOp28
 70
     1
102
RTVSPost2010Prop29
280
     1
102
RTVSPost2010PropOp29
 70
     1
102
RTVSPost2010Prop30
280
     1
102
RTVSPost2010PropOp30
 70
     1
102
RTVSPost2010Prop31
280
     0
102
RTVSPost2010PropOp31
 70
     1
102
RTVSPost2010Prop32
280
     0
102
RTVSPost2010PropOp32
 70
     1
102
RTVSPost2010Prop33
280
     0
102
RTVSPost2010PropOp33
 70
     1
102
RTVSPost2010Prop34
280
     0
102
RTVSPost2010PropOp34
 70
     1
102
RTVSPost2010Prop35
280
     0
102
RTVSPost2010PropOp35
 70
     1
102
RTVSPost2010Prop36
280
     0
102
RTVSPost2010PropOp36
 70
     1
102
RTVSPost2010Prop37
 90
       50
102
RTVSPost2010PropOp37
 70
     1
102
RTVSPost2010Prop38
140
0.0
102
RTVSPost2010PropOp38
 70
     1
102
RTVSPost2010Prop39
140
1.0
102
RTVSPost2010PropOp39
 70
     1
102
RTVSPost2010Prop40
 90
        0
102
RTVSPost2010PropOp40
 70
     1
102
RTVSPost2010Prop41ColorIndex
 90
       18
102
RTVSPost2010Prop41ColorRGB
 90
        0
102
RTVSPost2010PropOp41
 70
     1
102
RTVSPost2010Prop42
 90
       50
102
RTVSPost2010PropOp42
 70
     1
102
RTVSPost2010Prop43
 90
        3
102
RTVSPost2010PropOp43
 70
     1
102
RTVSPost2010Prop44ColorIndex
 90
        5
102
RTVSPost2010Prop44ColorRGB
 90
      255
102
RTVSPost2010PropOp44
 70
     1
102
RTVSPost2010Prop45
280
     0
102
RTVSPost2010PropOp45
 70
     1
102
RTVSPost2010Prop46
 90
       50
102
RTVSPost2010PropOp46
 70
     1
102
RTVSPost2010Prop47
 90
       50
102
RTVSPost2010PropOp47
 70
     1
102
RTVSPost2010Prop48
 90
       50
102
RTVSPost2010PropOp48
 70
     1
102
RTVSPost2010Prop49
280
     0
102
RTVSPost2010PropOp49
 70
     1
102
RTVSPost2010Prop50
 90
       50
102
RTVSPost2010PropOp50
 70
     1
102
RTVSPost2010Prop51ColorIndex
 90
      256
102
RTVSPost2010Prop51ColorRGB
 90
-16777216
102
RTVSPost2010PropOp51
 70
     0
102
RTVSPost2010Prop52
140
1.0
102
RTVSPost2010PropOp52
 70
     0
102
RTVSPost2010Prop53
 90
        2
102
RTVSPost2010PropOp53
 70
     1
102
RTVSPost2010Prop54
  1
strokes_ogs.tif
102
RTVSPost2010PropOp54
 70
     1
102
RTVSPost2010Prop55
280
     0
102
RTVSPost2010PropOp55
 70
     1
102
RTVSPost2010Prop56
140
1.0
102
RTVSPost2010PropOp56
 70
     1
102
RTVSPost2010Prop57
140
1.0
102
RTVSPost2010PropOp57
 70
     1
  0
XRECORD
  5
120
102
{ACAD_REACTORS
330
11F
102
}
330
11F
100
AcDbXrecord
280
     1
102
RTVSPost2010Prop28
280
     0
102
RTVSPost2010PropOp28
 70
     1
102
RTVSPost2010Prop29
280
     1
102
RTVSPost2010PropOp29
 70
     1
102
RTVSPost2010Prop30
280
     1
102
RTVSPost2010PropOp30
 70
     1
102
RTVSPost2010Prop31
280
     0
102
RTVSPost2010PropOp31
 70
     1
102
RTVSPost2010Prop32
280
     0
102
RTVSPost2010PropOp32
 70
     1
102
RTVSPost2010Prop33
280
     0
102
RTVSPost2010PropOp33
 70
     1
102
RTVSPost2010Prop34
280
     0
102
RTVSPost2010PropOp34
 70
     1
102
RTVSPost2010Prop35
280
     0
102
RTVSPost2010PropOp35
 70
     1
102
RTVSPost2010Prop36
280
     0
102
RTVSPost2010PropOp36
 70
     1
102
RTVSPost2010Prop37
 90
       50
102
RTVSPost2010PropOp37
 70
     1
102
RTVSPost2010Prop38
140
0.0
102
RTVSPost2010PropOp38
 70
     1
102
RTVSPost2010Prop39
140
1.0
102
RTVSPost2010PropOp39
 70
     1
102
RTVSPost2010Prop40
 90
        0
102
RTVSPost2010PropOp40
 70
     1
102
RTVSPost2010Prop41ColorIndex
 90
       18
102
RTVSPost2010Prop41ColorRGB
 90
        0
102
RTVSPost2010PropOp41
 70
     1
102
RTVSPost2010Prop42
 90
       50
102
RTVSPost2010PropOp42
 70
     1
102
RTVSPost2010Prop43
 90
        3
102
RTVSPost2010PropOp43
 70
     1
102
RTVSPost2010Prop44ColorIndex
 90
        5
102
RTVSPost2010Prop44ColorRGB
 90
      255
102
RTVSPost2010PropOp44
 70
     1
102
RTVSPost2010Prop45
280
     0
102
RTVSPost2010PropOp45
 70
     1
102
RTVSPost2010Prop46
 90
       50
102
RTVSPost2010PropOp46
 70
     1
102
RTVSPost2010Prop47
 90
       50
102
RTVSPost2010PropOp47
 70
     1
102
RTVSPost2010Prop48
 90
       50
102
RTVSPost2010PropOp48
 70
     1
102
RTVSPost2010Prop49
280
     0
102
RTVSPost2010PropOp49
 70
     1
102
RTVSPost2010Prop50
 90
       50
102
RTVSPost2010PropOp50
 70
     1
102
RTVSPost2010Prop51ColorIndex
 90
      256
102
RTVSPost2010Prop51ColorRGB
 90
-16777216
102
RTVSPost2010PropOp51
 70
     0
102
RTVSPost2010Prop52
140
1.0
102
RTVSPost2010PropOp52
 70
     0
102
RTVSPost2010Prop53
 90
        2
102
RTVSPost2010PropOp53
 70
     1
102
RTVSPost2010Prop54
  1
strokes_ogs.tif
102
RTVSPost2010PropOp54
 70
     1
102
RTVSPost2010Prop55
280
     0
102
RTVSPost2010PropOp55
 70
     1
102
RTVSPost2010Prop56
140
1.0
102
RTVSPost2010PropOp56
 70
     1
102
RTVSPost2010Prop57
140
1.0
102
RTVSPost2010PropOp57
 70
     1
  0
XRECORD
  5
122
102
{ACAD_REACTORS
330
121
102
}
330
121
100
AcDbXrecord
280
     1
102
RTVSPost2010Prop28
280
     0
102
RTVSPost2010PropOp28
 70
     1
102
RTVSPost2010Prop29
280
     1
102
RTVSPost2010PropOp29
 70
     1
102
RTVSPost2010Prop30
280
     1
102
RTVSPost2010PropOp30
 70
     1
102
RTVSPost2010Prop31
280
     0
102
RTVSPost2010PropOp31
 70
     1
102
RTVSPost2010Prop32
280
     0
102
RTVSPost2010PropOp32
 70
     1
102
RTVSPost2010Prop33
280
     0
102
RTVSPost2010PropOp33
 70
     1
102
RTVSPost2010Prop34
280
     0
102
RTVSPost2010PropOp34
 70
     1
102
RTVSPost2010Prop35
280
     0
102
RTVSPost2010PropOp35
 70
     1
102
RTVSPost2010Prop36
280
     0
102
RTVSPost2010PropOp36
 70
     1
102
RTVSPost2010Prop37
 90
       50
102
RTVSPost2010PropOp37
 70
     1
102
RTVSPost2010Prop38
140
0.0
102
RTVSPost2010PropOp38
 70
     1
102
RTVSPost2010Prop39
140
1.0
102
RTVSPost2010PropOp39
 70
     1
102
RTVSPost2010Prop40
 90
        0
102
RTVSPost2010PropOp40
 70
     1
102
RTVSPost2010Prop41ColorIndex
 90
       18
102
RTVSPost2010Prop41ColorRGB
 90
        0
102
RTVSPost2010PropOp41
 70
     1
102
RTVSPost2010Prop42
 90
       50
102
RTVSPost2010PropOp42
 70
     1
102
RTVSPost2010Prop43
 90
        3
102
RTVSPost2010PropOp43
 70
     1
102
RTVSPost2010Prop44ColorIndex
 90
        5
102
RTVSPost2010Prop44ColorRGB
 90
      255
102
RTVSPost2010PropOp44
 70
     1
102
RTVSPost2010Prop45
280
     0
102
RTVSPost2010PropOp45
 70
     1
102
RTVSPost2010Prop46
 90
       50
102
RTVSPost2010PropOp46
 70
     1
102
RTVSPost2010Prop47
 90
       50
102
RTVSPost2010PropOp47
 70
     1
102
RTVSPost2010Prop48
 90
       50
102
RTVSPost2010PropOp48
 70
     1
102
RTVSPost2010Prop49
280
     0
102
RTVSPost2010PropOp49
 70
     1
102
RTVSPost2010Prop50
 90
       50
102
RTVSPost2010PropOp50
 70
     1
102
RTVSPost2010Prop51ColorIndex
 90
      256
102
RTVSPost2010Prop51ColorRGB
 90
-16777216
102
RTVSPost2010PropOp51
 70
     0
102
RTVSPost2010Prop52
140
1.0
102
RTVSPost2010PropOp52
 70
     0
102
RTVSPost2010Prop53
 90
        2
102
RTVSPost2010PropOp53
 70
     1
102
RTVSPost2010Prop54
  1
strokes_ogs.tif
102
RTVSPost2010PropOp54
 70
     1
102
RTVSPost2010Prop55
280
     0
102
RTVSPost2010PropOp55
 70
     1
102
RTVSPost2010Prop56
140
1.0
102
RTVSPost2010PropOp56
 70
     1
102
RTVSPost2010Prop57
140
1.0
102
RTVSPost2010PropOp57
 70
     1
  0
XRECORD
  5
124
102
{ACAD_REACTORS
330
123
102
}
330
123
100
AcDbXrecord
280
     1
102
RTVSPost2010Prop28
280
     0
102
RTVSPost2010PropOp28
 70
     1
102
RTVSPost2010Prop29
280
     1
102
RTVSPost2010PropOp29
 70
     1
102
RTVSPost2010Prop30
280
     1
102
RTVSPost2010PropOp30
 70
     1
102
RTVSPost2010Prop31
280
     0
102
RTVSPost2010PropOp31
 70
     1
102
RTVSPost2010Prop32
280
     0
102
RTVSPost2010PropOp32
 70
     1
102
RTVSPost2010Prop33
280
     0
102
RTVSPost2010PropOp33
 70
     1
102
RTVSPost2010Prop34
280
     0
102
RTVSPost2010PropOp34
 70
     1
102
RTVSPost2010Prop35
280
     0
102
RTVSPost2010PropOp35
 70
     1
102
RTVSPost2010Prop36
280
     0
102
RTVSPost2010PropOp36
 70
     1
102
RTVSPost2010Prop37
 90
       50
102
RTVSPost2010PropOp37
 70
     1
102
RTVSPost2010Prop38
140
0.0
102
RTVSPost2010PropOp38
 70
     1
102
RTVSPost2010Prop39
140
1.0
102
RTVSPost2010PropOp39
 70
     1
102
RTVSPost2010Prop40
 90
        0
102
RTVSPost2010PropOp40
 70
     1
102
RTVSPost2010Prop41ColorIndex
 90
       18
102
RTVSPost2010Prop41ColorRGB
 90
        0
102
RTVSPost2010PropOp41
 70
     1
102
RTVSPost2010Prop42
 90
       50
102
RTVSPost2010PropOp42
 70
     1
102
RTVSPost2010Prop43
 90
        3
102
RTVSPost2010PropOp43
 70
     1
102
RTVSPost2010Prop44ColorIndex
 90
        5
102
RTVSPost2010Prop44ColorRGB
 90
      255
102
RTVSPost2010PropOp44
 70
     1
102
RTVSPost2010Prop45
280
     0
102
RTVSPost2010PropOp45
 70
     1
102
RTVSPost2010Prop46
 90
       50
102
RTVSPost2010PropOp46
 70
     1
102
RTVSPost2010Prop47
 90
       50
102
RTVSPost2010PropOp47
 70
     1
102
RTVSPost2010Prop48
 90
       50
102
RTVSPost2010PropOp48
 70
     1
102
RTVSPost2010Prop49
280
     0
102
RTVSPost2010PropOp49
 70
     1
102
RTVSPost2010Prop50
 90
       50
102
RTVSPost2010PropOp50
 70
     1
102
RTVSPost2010Prop51ColorIndex
 90
      256
102
RTVSPost2010Prop51ColorRGB
 90
-16777216
102
RTVSPost2010PropOp51
 70
     0
102
RTVSPost2010Prop52
140
1.0
102
RTVSPost2010PropOp52
 70
     0
102
RTVSPost2010Prop53
 90
        2
102
RTVSPost2010PropOp53
 70
     1
102
RTVSPost2010Prop54
  1
strokes_ogs.tif
102
RTVSPost2010PropOp54
 70
     1
102
RTVSPost2010Prop55
280
     0
102
RTVSPost2010PropOp55
 70
     1
102
RTVSPost2010Prop56
140
1.0
102
RTVSPost2010PropOp56
 70
     1
102
RTVSPost2010Prop57
140
1.0
102
RTVSPost2010PropOp57
 70
     1
  0
XRECORD
  5
126
102
{ACAD_REACTORS
330
125
102
}
330
125
100
AcDbXrecord
280
     1
102
RTVSPost2010Prop28
280
     0
102
RTVSPost2010PropOp28
 70
     1
102
RTVSPost2010Prop29
280
     1
102
RTVSPost2010PropOp29
 70
     1
102
RTVSPost2010Prop30
280
     1
102
RTVSPost2010PropOp30
 70
     1
102
RTVSPost2010Prop31
280
     0
102
RTVSPost2010PropOp31
 70
     1
102
RTVSPost2010Prop32
280
     0
102
RTVSPost2010PropOp32
 70
     1
102
RTVSPost2010Prop33
280
     0
102
RTVSPost2010PropOp33
 70
     1
102
RTVSPost2010Prop34
280
     0
102
RTVSPost2010PropOp34
 70
     1
102
RTVSPost2010Prop35
280
     0
102
RTVSPost2010PropOp35
 70
     1
102
RTVSPost2010Prop36
280
     0
102
RTVSPost2010PropOp36
 70
     1
102
RTVSPost2010Prop37
 90
       50
102
RTVSPost2010PropOp37
 70
     1
102
RTVSPost2010Prop38
140
0.0
102
RTVSPost2010PropOp38
 70
     1
102
RTVSPost2010Prop39
140
1.0
102
RTVSPost2010PropOp39
 70
     1
102
RTVSPost2010Prop40
 90
        0
102
RTVSPost2010PropOp40
 70
     1
102
RTVSPost2010Prop41ColorIndex
 90
       18
102
RTVSPost2010Prop41ColorRGB
 90
        0
102
RTVSPost2010PropOp41
 70
     1
102
RTVSPost2010Prop42
 90
       50
102
RTVSPost2010PropOp42
 70
     1
102
RTVSPost2010Prop43
 90
        3
102
RTVSPost2010PropOp43
 70
     1
102
RTVSPost2010Prop44ColorIndex
 90
        5
102
RTVSPost2010Prop44ColorRGB
 90
      255
102
RTVSPost2010PropOp44
 70
     1
102
RTVSPost2010Prop45
280
     0
102
RTVSPost2010PropOp45
 70
     1
102
RTVSPost2010Prop46
 90
       50
102
RTVSPost2010PropOp46
 70
     1
102
RTVSPost2010Prop47
 90
       50
102
RTVSPost2010PropOp47
 70
     1
102
RTVSPost2010Prop48
 90
       50
102
RTVSPost2010PropOp48
 70
     1
102
RTVSPost2010Prop49
280
     0
102
RTVSPost2010PropOp49
 70
     1
102
RTVSPost2010Prop50
 90
       50
102
RTVSPost2010PropOp50
 70
     1
102
RTVSPost2010Prop51ColorIndex
 90
      256
102
RTVSPost2010Prop51ColorRGB
 90
-16777216
102
RTVSPost2010PropOp51
 70
     0
102
RTVSPost2010Prop52
140
1.0
102
RTVSPost2010PropOp52
 70
     0
102
RTVSPost2010Prop53
 90
        2
102
RTVSPost2010PropOp53
 70
     1
102
RTVSPost2010Prop54
  1
strokes_ogs.tif
102
RTVSPost2010PropOp54
 70
     1
102
RTVSPost2010Prop55
280
     0
102
RTVSPost2010PropOp55
 70
     1
102
RTVSPost2010Prop56
140
1.0
102
RTVSPost2010PropOp56
 70
     1
102
RTVSPost2010Prop57
140
1.0
102
RTVSPost2010PropOp57
 70
     1
  0
XRECORD
  5
12E
102
{ACAD_REACTORS
330
12D
102
}
330
12D
100
AcDbXrecord
280
     1
102
RTVSPost2010Prop28
280
     0
102
RTVSPost2010PropOp28
 70
     1
102
RTVSPost2010Prop29
280
     1
102
RTVSPost2010PropOp29
 70
     1
102
RTVSPost2010Prop30
280
     1
102
RTVSPost2010PropOp30
 70
     1
102
RTVSPost2010Prop31
280
     0
102
RTVSPost2010PropOp31
 70
     1
102
RTVSPost2010Prop32
280
     0
102
RTVSPost2010PropOp32
 70
     1
102
RTVSPost2010Prop33
280
     0
102
RTVSPost2010PropOp33
 70
     1
102
RTVSPost2010Prop34
280
     0
102
RTVSPost2010PropOp34
 70
     1
102
RTVSPost2010Prop35
280
     0
102
RTVSPost2010PropOp35
 70
     1
102
RTVSPost2010Prop36
280
     0
102
RTVSPost2010PropOp36
 70
     1
102
RTVSPost2010Prop37
 90
       50
102
RTVSPost2010PropOp37
 70
     1
102
RTVSPost2010Prop38
140
0.0
102
RTVSPost2010PropOp38
 70
     1
102
RTVSPost2010Prop39
140
1.0
102
RTVSPost2010PropOp39
 70
     1
102
RTVSPost2010Prop40
 90
        0
102
RTVSPost2010PropOp40
 70
     1
102
RTVSPost2010Prop41ColorIndex
 90
       18
102
RTVSPost2010Prop41ColorRGB
 90
        0
102
RTVSPost2010PropOp41
 70
     1
102
RTVSPost2010Prop42
 90
       50
102
RTVSPost2010PropOp42
 70
     1
102
RTVSPost2010Prop43
 90
        3
102
RTVSPost2010PropOp43
 70
     1
102
RTVSPost2010Prop44ColorIndex
 90
        5
102
RTVSPost2010Prop44ColorRGB
 90
      255
102
RTVSPost2010PropOp44
 70
     1
102
RTVSPost2010Prop45
280
     0
102
RTVSPost2010PropOp45
 70
     1
102
RTVSPost2010Prop46
 90
       50
102
RTVSPost2010PropOp46
 70
     1
102
RTVSPost2010Prop47
 90
       50
102
RTVSPost2010PropOp47
 70
     1
102
RTVSPost2010Prop48
 90
       50
102
RTVSPost2010PropOp48
 70
     1
102
RTVSPost2010Prop49
280
     0
102
RTVSPost2010PropOp49
 70
     1
102
RTVSPost2010Prop50
 90
       50
102
RTVSPost2010PropOp50
 70
     1
102
RTVSPost2010Prop51ColorIndex
 90
      256
102
RTVSPost2010Prop51ColorRGB
 90
-16777216
102
RTVSPost2010PropOp51
 70
     0
102
RTVSPost2010Prop52
140
1.0
102
RTVSPost2010PropOp52
 70
     0
102
RTVSPost2010Prop53
 90
        2
102
RTVSPost2010PropOp53
 70
     1
102
RTVSPost2010Prop54
  1
strokes_ogs.tif
102
RTVSPost2010PropOp54
 70
     1
102
RTVSPost2010Prop55
280
     0
102
RTVSPost2010PropOp55
 70
     1
102
RTVSPost2010Prop56
140
1.0
102
RTVSPost2010PropOp56
 70
     1
102
RTVSPost2010Prop57
140
1.0
102
RTVSPost2010PropOp57
 70
     1
  0
XRECORD
  5
14A
102
{ACAD_REACTORS
330
149
102
}
330
149
100
AcDbXrecord
280
     1
102
RTVSPost2010Prop28
280
     0
102
RTVSPost2010PropOp28
 70
     0
102
RTVSPost2010Prop29
280
     1
102
RTVSPost2010PropOp29
 70
     0
102
RTVSPost2010Prop30
280
     1
102
RTVSPost2010PropOp30
 70
     0
102
RTVSPost2010Prop31
280
     0
102
RTVSPost2010PropOp31
 70
     0
102
RTVSPost2010Prop32
280
     0
102
RTVSPost2010PropOp32
 70
     0
102
RTVSPost2010Prop33
280
     0
102
RTVSPost2010PropOp33
 70
     0
102
RTVSPost2010Prop34
280
     0
102
RTVSPost2010PropOp34
 70
     0
102
RTVSPost2010Prop35
280
     0
102
RTVSPost2010PropOp35
 70
     0
102
RTVSPost2010Prop36
280
     0
102
RTVSPost2010PropOp36
 70
     0
102
RTVSPost2010Prop37
 90
       50
102
RTVSPost2010PropOp37
 70
     0
102
RTVSPost2010Prop38
140
0.0
102
RTVSPost2010PropOp38
 70
     0
102
RTVSPost2010Prop39
140
1.0
102
RTVSPost2010PropOp39
 70
     0
102
RTVSPost2010Prop40
 90
        0
102
RTVSPost2010PropOp40
 70
     0
102
RTVSPost2010Prop41ColorIndex
 90
       18
102
RTVSPost2010Prop41ColorRGB
 90
        0
102
RTVSPost2010PropOp41
 70
     0
102
RTVSPost2010Prop42
 90
       50
102
RTVSPost2010PropOp42
 70
     0
102
RTVSPost2010Prop43
 90
        3
102
RTVSPost2010PropOp43
 70
     0
102
RTVSPost2010Prop44ColorIndex
 90
        5
102
RTVSPost2010Prop44ColorRGB
 90
      255
102
RTVSPost2010PropOp44
 70
     0
102
RTVSPost2010Prop45
280
     0
102
RTVSPost2010PropOp45
 70
     0
102
RTVSPost2010Prop46
 90
       50
102
RTVSPost2010PropOp46
 70
     0
102
RTVSPost2010Prop47
 90
       50
102
RTVSPost2010PropOp47
 70
     0
102
RTVSPost2010Prop48
 90
       50
102
RTVSPost2010PropOp48
 70
     0
102
RTVSPost2010Prop49
280
     0
102
RTVSPost2010PropOp49
 70
     0
102
RTVSPost2010Prop50
 90
       50
102
RTVSPost2010PropOp50
 70
     0
102
RTVSPost2010Prop51ColorIndex
 90
      256
102
RTVSPost2010Prop51ColorRGB
 90
-16777216
102
RTVSPost2010PropOp51
 70
     0
102
RTVSPost2010Prop52
140
1.0
102
RTVSPost2010PropOp52
 70
     0
102
RTVSPost2010Prop53
 90
        2
102
RTVSPost2010PropOp53
 70
     0
102
RTVSPost2010Prop54
  1
strokes_ogs.tif
102
RTVSPost2010PropOp54
 70
     0
102
RTVSPost2010Prop55
280
     0
102
RTVSPost2010PropOp55
 70
     0
102
RTVSPost2010Prop56
140
1.0
102
RTVSPost2010PropOp56
 70
     0
102
RTVSPost2010Prop57
140
1.0
102
RTVSPost2010PropOp57
 70
     0
  0
XRECORD
  5
13A
102
{ACAD_REACTORS
330
139
102
}
330
139
100
AcDbXrecord
280
     1
102
RTVSPost2010Prop28
280
     0
102
RTVSPost2010PropOp28
 70
     1
102
RTVSPost2010Prop29
280
     1
102
RTVSPost2010PropOp29
 70
     1
102
RTVSPost2010Prop30
280
     1
102
RTVSPost2010PropOp30
 70
     1
102
RTVSPost2010Prop31
280
     0
102
RTVSPost2010PropOp31
 70
     1
102
RTVSPost2010Prop32
280
     0
102
RTVSPost2010PropOp32
 70
     1
102
RTVSPost2010Prop33
280
     0
102
RTVSPost2010PropOp33
 70
     1
102
RTVSPost2010Prop34
280
     0
102
RTVSPost2010PropOp34
 70
     1
102
RTVSPost2010Prop35
280
     0
102
RTVSPost2010PropOp35
 70
     1
102
RTVSPost2010Prop36
280
     0
102
RTVSPost2010PropOp36
 70
     1
102
RTVSPost2010Prop37
 90
       50
102
RTVSPost2010PropOp37
 70
     1
102
RTVSPost2010Prop38
140
0.0
102
RTVSPost2010PropOp38
 70
     1
102
RTVSPost2010Prop39
140
1.0
102
RTVSPost2010PropOp39
 70
     1
102
RTVSPost2010Prop40
 90
        0
102
RTVSPost2010PropOp40
 70
     1
102
RTVSPost2010Prop41ColorIndex
 90
       18
102
RTVSPost2010Prop41ColorRGB
 90
        0
102
RTVSPost2010PropOp41
 70
     1
102
RTVSPost2010Prop42
 90
       50
102
RTVSPost2010PropOp42
 70
     1
102
RTVSPost2010Prop43
 90
        3
102
RTVSPost2010PropOp43
 70
     1
102
RTVSPost2010Prop44ColorIndex
 90
        5
102
RTVSPost2010Prop44ColorRGB
 90
      255
102
RTVSPost2010PropOp44
 70
     1
102
RTVSPost2010Prop45
280
     0
102
RTVSPost2010PropOp45
 70
     1
102
RTVSPost2010Prop46
 90
       50
102
RTVSPost2010PropOp46
 70
     1
102
RTVSPost2010Prop47
 90
       50
102
RTVSPost2010PropOp47
 70
     1
102
RTVSPost2010Prop48
 90
       50
102
RTVSPost2010PropOp48
 70
     1
102
RTVSPost2010Prop49
280
     0
102
RTVSPost2010PropOp49
 70
     1
102
RTVSPost2010Prop50
 90
       50
102
RTVSPost2010PropOp50
 70
     1
102
RTVSPost2010Prop51ColorIndex
 90
      256
102
RTVSPost2010Prop51ColorRGB
 90
-16777216
102
RTVSPost2010PropOp51
 70
     0
102
RTVSPost2010Prop52
140
1.0
102
RTVSPost2010PropOp52
 70
     0
102
RTVSPost2010Prop53
 90
        2
102
RTVSPost2010PropOp53
 70
     1
102
RTVSPost2010Prop54
  1
strokes_ogs.tif
102
RTVSPost2010PropOp54
 70
     1
102
RTVSPost2010Prop55
280
     0
102
RTVSPost2010PropOp55
 70
     1
102
RTVSPost2010Prop56
140
1.0
102
RTVSPost2010PropOp56
 70
     1
102
RTVSPost2010Prop57
140
1.0
102
RTVSPost2010PropOp57
 70
     1
  0
XRECORD
  5
14C
102
{ACAD_REACTORS
330
14B
102
}
330
14B
100
AcDbXrecord
280
     1
102
RTVSPost2010Prop28
280
     0
102
RTVSPost2010PropOp28
 70
     0
102
RTVSPost2010Prop29
280
     1
102
RTVSPost2010PropOp29
 70
     0
102
RTVSPost2010Prop30
280
     1
102
RTVSPost2010PropOp30
 70
     0
102
RTVSPost2010Prop31
280
     0
102
RTVSPost2010PropOp31
 70
     0
102
RTVSPost2010Prop32
280
     0
102
RTVSPost2010PropOp32
 70
     0
102
RTVSPost2010Prop33
280
     0
102
RTVSPost2010PropOp33
 70
     0
102
RTVSPost2010Prop34
280
     0
102
RTVSPost2010PropOp34
 70
     0
102
RTVSPost2010Prop35
280
     0
102
RTVSPost2010PropOp35
 70
     0
102
RTVSPost2010Prop36
280
     0
102
RTVSPost2010PropOp36
 70
     0
102
RTVSPost2010Prop37
 90
       50
102
RTVSPost2010PropOp37
 70
     0
102
RTVSPost2010Prop38
140
0.0
102
RTVSPost2010PropOp38
 70
     0
102
RTVSPost2010Prop39
140
1.0
102
RTVSPost2010PropOp39
 70
     0
102
RTVSPost2010Prop40
 90
        0
102
RTVSPost2010PropOp40
 70
     0
102
RTVSPost2010Prop41ColorIndex
 90
       18
102
RTVSPost2010Prop41ColorRGB
 90
        0
102
RTVSPost2010PropOp41
 70
     0
102
RTVSPost2010Prop42
 90
       50
102
RTVSPost2010PropOp42
 70
     0
102
RTVSPost2010Prop43
 90
        3
102
RTVSPost2010PropOp43
 70
     0
102
RTVSPost2010Prop44ColorIndex
 90
        5
102
RTVSPost2010Prop44ColorRGB
 90
      255
102
RTVSPost2010PropOp44
 70
     0
102
RTVSPost2010Prop45
280
     0
102
RTVSPost2010PropOp45
 70
     0
102
RTVSPost2010Prop46
 90
       50
102
RTVSPost2010PropOp46
 70
     0
102
RTVSPost2010Prop47
 90
       50
102
RTVSPost2010PropOp47
 70
     0
102
RTVSPost2010Prop48
 90
       50
102
RTVSPost2010PropOp48
 70
     0
102
RTVSPost2010Prop49
280
     0
102
RTVSPost2010PropOp49
 70
     0
102
RTVSPost2010Prop50
 90
       50
102
RTVSPost2010PropOp50
 70
     0
102
RTVSPost2010Prop51ColorIndex
 90
      256
102
RTVSPost2010Prop51ColorRGB
 90
-16777216
102
RTVSPost2010PropOp51
 70
     0
102
RTVSPost2010Prop52
140
1.0
102
RTVSPost2010PropOp52
 70
     0
102
RTVSPost2010Prop53
 90
        2
102
RTVSPost2010PropOp53
 70
     0
102
RTVSPost2010Prop54
  1
strokes_ogs.tif
102
RTVSPost2010PropOp54
 70
     0
102
RTVSPost2010Prop55
280
     0
102
RTVSPost2010PropOp55
 70
     0
102
RTVSPost2010Prop56
140
1.0
102
RTVSPost2010PropOp56
 70
     0
102
RTVSPost2010Prop57
140
1.0
102
RTVSPost2010PropOp57
 70
     0
  0
XRECORD
  5
132
102
{ACAD_REACTORS
330
131
102
}
330
131
100
AcDbXrecord
280
     1
102
RTVSPost2010Prop28
280
     0
102
RTVSPost2010PropOp28
 70
     1
102
RTVSPost2010Prop29
280
     1
102
RTVSPost2010PropOp29
 70
     1
102
RTVSPost2010Prop30
280
     1
102
RTVSPost2010PropOp30
 70
     1
102
RTVSPost2010Prop31
280
     0
102
RTVSPost2010PropOp31
 70
     1
102
RTVSPost2010Prop32
280
     0
102
RTVSPost2010PropOp32
 70
     1
102
RTVSPost2010Prop33
280
     0
102
RTVSPost2010PropOp33
 70
     1
102
RTVSPost2010Prop34
280
     0
102
RTVSPost2010PropOp34
 70
     1
102
RTVSPost2010Prop35
280
     0
102
RTVSPost2010PropOp35
 70
     1
102
RTVSPost2010Prop36
280
     0
102
RTVSPost2010PropOp36
 70
     1
102
RTVSPost2010Prop37
 90
       50
102
RTVSPost2010PropOp37
 70
     1
102
RTVSPost2010Prop38
140
0.0
102
RTVSPost2010PropOp38
 70
     1
102
RTVSPost2010Prop39
140
1.0
102
RTVSPost2010PropOp39
 70
     1
102
RTVSPost2010Prop40
 90
        0
102
RTVSPost2010PropOp40
 70
     1
102
RTVSPost2010Prop41ColorIndex
 90
       18
102
RTVSPost2010Prop41ColorRGB
 90
        0
102
RTVSPost2010PropOp41
 70
     1
102
RTVSPost2010Prop42
 90
       50
102
RTVSPost2010PropOp42
 70
     1
102
RTVSPost2010Prop43
 90
        3
102
RTVSPost2010PropOp43
 70
     1
102
RTVSPost2010Prop44ColorIndex
 90
        5
102
RTVSPost2010Prop44ColorRGB
 90
      255
102
RTVSPost2010PropOp44
 70
     1
102
RTVSPost2010Prop45
280
     0
102
RTVSPost2010PropOp45
 70
     1
102
RTVSPost2010Prop46
 90
       50
102
RTVSPost2010PropOp46
 70
     1
102
RTVSPost2010Prop47
 90
       50
102
RTVSPost2010PropOp47
 70
     1
102
RTVSPost2010Prop48
 90
       50
102
RTVSPost2010PropOp48
 70
     1
102
RTVSPost2010Prop49
280
     0
102
RTVSPost2010PropOp49
 70
     1
102
RTVSPost2010Prop50
 90
       50
102
RTVSPost2010PropOp50
 70
     1
102
RTVSPost2010Prop51ColorIndex
 90
      256
102
RTVSPost2010Prop51ColorRGB
 90
-16777216
102
RTVSPost2010PropOp51
 70
     0
102
RTVSPost2010Prop52
140
1.0
102
RTVSPost2010PropOp52
 70
     0
102
RTVSPost2010Prop53
 90
        2
102
RTVSPost2010PropOp53
 70
     1
102
RTVSPost2010Prop54
  1
strokes_ogs.tif
102
RTVSPost2010PropOp54
 70
     1
102
RTVSPost2010Prop55
280
     0
102
RTVSPost2010PropOp55
 70
     1
102
RTVSPost2010Prop56
140
1.0
102
RTVSPost2010PropOp56
 70
     1
102
RTVSPost2010Prop57
140
1.0
102
RTVSPost2010PropOp57
 70
     1
  0
XRECORD
  5
148
102
{ACAD_REACTORS
330
147
102
}
330
147
100
AcDbXrecord
280
     1
102
RTVSPost2010Prop28
280
     0
102
RTVSPost2010PropOp28
 70
     1
102
RTVSPost2010Prop29
280
     1
102
RTVSPost2010PropOp29
 70
     1
102
RTVSPost2010Prop30
280
     1
102
RTVSPost2010PropOp30
 70
     1
102
RTVSPost2010Prop31
280
     0
102
RTVSPost2010PropOp31
 70
     1
102
RTVSPost2010Prop32
280
     0
102
RTVSPost2010PropOp32
 70
     1
102
RTVSPost2010Prop33
280
     0
102
RTVSPost2010PropOp33
 70
     1
102
RTVSPost2010Prop34
280
     0
102
RTVSPost2010PropOp34
 70
     1
102
RTVSPost2010Prop35
280
     0
102
RTVSPost2010PropOp35
 70
     1
102
RTVSPost2010Prop36
280
     0
102
RTVSPost2010PropOp36
 70
     1
102
RTVSPost2010Prop37
 90
       50
102
RTVSPost2010PropOp37
 70
     1
102
RTVSPost2010Prop38
140
0.0
102
RTVSPost2010PropOp38
 70
     1
102
RTVSPost2010Prop39
140
1.0
102
RTVSPost2010PropOp39
 70
     1
102
RTVSPost2010Prop40
 90
        0
102
RTVSPost2010PropOp40
 70
     1
102
RTVSPost2010Prop41ColorIndex
 90
       18
102
RTVSPost2010Prop41ColorRGB
 90
        0
102
RTVSPost2010PropOp41
 70
     1
102
RTVSPost2010Prop42
 90
       50
102
RTVSPost2010PropOp42
 70
     1
102
RTVSPost2010Prop43
 90
        3
102
RTVSPost2010PropOp43
 70
     1
102
RTVSPost2010Prop44ColorIndex
 90
        5
102
RTVSPost2010Prop44ColorRGB
 90
      255
102
RTVSPost2010PropOp44
 70
     1
102
RTVSPost2010Prop45
280
     0
102
RTVSPost2010PropOp45
 70
     1
102
RTVSPost2010Prop46
 90
       50
102
RTVSPost2010PropOp46
 70
     1
102
RTVSPost2010Prop47
 90
       50
102
RTVSPost2010PropOp47
 70
     1
102
RTVSPost2010Prop48
 90
       50
102
RTVSPost2010PropOp48
 70
     1
102
RTVSPost2010Prop49
280
     0
102
RTVSPost2010PropOp49
 70
     1
102
RTVSPost2010Prop50
 90
       50
102
RTVSPost2010PropOp50
 70
     1
102
RTVSPost2010Prop51ColorIndex
 90
      256
102
RTVSPost2010Prop51ColorRGB
 90
-16777216
102
RTVSPost2010PropOp51
 70
     0
102
RTVSPost2010Prop52
140
1.0
102
RTVSPost2010PropOp52
 70
     0
102
RTVSPost2010Prop53
 90
        2
102
RTVSPost2010PropOp53
 70
     1
102
RTVSPost2010Prop54
  1
strokes_ogs.tif
102
RTVSPost2010PropOp54
 70
     1
102
RTVSPost2010Prop55
280
     0
102
RTVSPost2010PropOp55
 70
     1
102
RTVSPost2010Prop56
140
1.0
102
RTVSPost2010PropOp56
 70
     1
102
RTVSPost2010Prop57
140
1.0
102
RTVSPost2010PropOp57
 70
     1
  0
XRECORD
  5
146
102
{ACAD_REACTORS
330
145
102
}
330
145
100
AcDbXrecord
280
     1
102
RTVSPost2010Prop28
280
     0
102
RTVSPost2010PropOp28
 70
     1
102
RTVSPost2010Prop29
280
     1
102
RTVSPost2010PropOp29
 70
     1
102
RTVSPost2010Prop30
280
     1
102
RTVSPost2010PropOp30
 70
     1
102
RTVSPost2010Prop31
280
     0
102
RTVSPost2010PropOp31
 70
     1
102
RTVSPost2010Prop32
280
     0
102
RTVSPost2010PropOp32
 70
     1
102
RTVSPost2010Prop33
280
     0
102
RTVSPost2010PropOp33
 70
     1
102
RTVSPost2010Prop34
280
     0
102
RTVSPost2010PropOp34
 70
     1
102
RTVSPost2010Prop35
280
     0
102
RTVSPost2010PropOp35
 70
     1
102
RTVSPost2010Prop36
280
     0
102
RTVSPost2010PropOp36
 70
     1
102
RTVSPost2010Prop37
 90
       50
102
RTVSPost2010PropOp37
 70
     1
102
RTVSPost2010Prop38
140
0.0
102
RTVSPost2010PropOp38
 70
     1
102
RTVSPost2010Prop39
140
1.0
102
RTVSPost2010PropOp39
 70
     1
102
RTVSPost2010Prop40
 90
        0
102
RTVSPost2010PropOp40
 70
     1
102
RTVSPost2010Prop41ColorIndex
 90
       18
102
RTVSPost2010Prop41ColorRGB
 90
        0
102
RTVSPost2010PropOp41
 70
     1
102
RTVSPost2010Prop42
 90
       50
102
RTVSPost2010PropOp42
 70
     1
102
RTVSPost2010Prop43
 90
        3
102
RTVSPost2010PropOp43
 70
     1
102
RTVSPost2010Prop44ColorIndex
 90
        5
102
RTVSPost2010Prop44ColorRGB
 90
      255
102
RTVSPost2010PropOp44
 70
     1
102
RTVSPost2010Prop45
280
     0
102
RTVSPost2010PropOp45
 70
     1
102
RTVSPost2010Prop46
 90
       50
102
RTVSPost2010PropOp46
 70
     1
102
RTVSPost2010Prop47
 90
       50
102
RTVSPost2010PropOp47
 70
     1
102
RTVSPost2010Prop48
 90
       50
102
RTVSPost2010PropOp48
 70
     1
102
RTVSPost2010Prop49
280
     0
102
RTVSPost2010PropOp49
 70
     1
102
RTVSPost2010Prop50
 90
       50
102
RTVSPost2010PropOp50
 70
     1
102
RTVSPost2010Prop51ColorIndex
 90
      256
102
RTVSPost2010Prop51ColorRGB
 90
-16777216
102
RTVSPost2010PropOp51
 70
     0
102
RTVSPost2010Prop52
140
1.0
102
RTVSPost2010PropOp52
 70
     0
102
RTVSPost2010Prop53
 90
        2
102
RTVSPost2010PropOp53
 70
     1
102
RTVSPost2010Prop54
  1
strokes_ogs.tif
102
RTVSPost2010PropOp54
 70
     1
102
RTVSPost2010Prop55
280
     0
102
RTVSPost2010PropOp55
 70
     1
102
RTVSPost2010Prop56
140
1.0
102
RTVSPost2010PropOp56
 70
     1
102
RTVSPost2010Prop57
140
1.0
102
RTVSPost2010PropOp57
 70
     1
  0
XRECORD
  5
140
102
{ACAD_REACTORS
330
13F
102
}
330
13F
100
AcDbXrecord
280
     1
102
RTVSPost2010Prop28
280
     0
102
RTVSPost2010PropOp28
 70
     1
102
RTVSPost2010Prop29
280
     1
102
RTVSPost2010PropOp29
 70
     1
102
RTVSPost2010Prop30
280
     1
102
RTVSPost2010PropOp30
 70
     1
102
RTVSPost2010Prop31
280
     0
102
RTVSPost2010PropOp31
 70
     1
102
RTVSPost2010Prop32
280
     0
102
RTVSPost2010PropOp32
 70
     1
102
RTVSPost2010Prop33
280
     0
102
RTVSPost2010PropOp33
 70
     1
102
RTVSPost2010Prop34
280
     0
102
RTVSPost2010PropOp34
 70
     1
102
RTVSPost2010Prop35
280
     0
102
RTVSPost2010PropOp35
 70
     1
102
RTVSPost2010Prop36
280
     0
102
RTVSPost2010PropOp36
 70
     1
102
RTVSPost2010Prop37
 90
       50
102
RTVSPost2010PropOp37
 70
     1
102
RTVSPost2010Prop38
140
0.0
102
RTVSPost2010PropOp38
 70
     1
102
RTVSPost2010Prop39
140
1.0
102
RTVSPost2010PropOp39
 70
     1
102
RTVSPost2010Prop40
 90
        0
102
RTVSPost2010PropOp40
 70
     1
102
RTVSPost2010Prop41ColorIndex
 90
       18
102
RTVSPost2010Prop41ColorRGB
 90
        0
102
RTVSPost2010PropOp41
 70
     1
102
RTVSPost2010Prop42
 90
       50
102
RTVSPost2010PropOp42
 70
     1
102
RTVSPost2010Prop43
 90
        3
102
RTVSPost2010PropOp43
 70
     1
102
RTVSPost2010Prop44ColorIndex
 90
        5
102
RTVSPost2010Prop44ColorRGB
 90
      255
102
RTVSPost2010PropOp44
 70
     1
102
RTVSPost2010Prop45
280
     0
102
RTVSPost2010PropOp45
 70
     1
102
RTVSPost2010Prop46
 90
       50
102
RTVSPost2010PropOp46
 70
     1
102
RTVSPost2010Prop47
 90
       50
102
RTVSPost2010PropOp47
 70
     1
102
RTVSPost2010Prop48
 90
       50
102
RTVSPost2010PropOp48
 70
     1
102
RTVSPost2010Prop49
280
     0
102
RTVSPost2010PropOp49
 70
     1
102
RTVSPost2010Prop50
 90
       50
102
RTVSPost2010PropOp50
 70
     1
102
RTVSPost2010Prop51ColorIndex
 90
      256
102
RTVSPost2010Prop51ColorRGB
 90
-16777216
102
RTVSPost2010PropOp51
 70
     0
102
RTVSPost2010Prop52
140
1.0
102
RTVSPost2010PropOp52
 70
     0
102
RTVSPost2010Prop53
 90
        2
102
RTVSPost2010PropOp53
 70
     1
102
RTVSPost2010Prop54
  1
strokes_ogs.tif
102
RTVSPost2010PropOp54
 70
     1
102
RTVSPost2010Prop55
280
     0
102
RTVSPost2010PropOp55
 70
     1
102
RTVSPost2010Prop56
140
1.0
102
RTVSPost2010PropOp56
 70
     1
102
RTVSPost2010Prop57
140
1.0
102
RTVSPost2010PropOp57
 70
     1
  0
XRECORD
  5
142
102
{ACAD_REACTORS
330
141
102
}
330
141
100
AcDbXrecord
280
     1
102
RTVSPost2010Prop28
280
     0
102
RTVSPost2010PropOp28
 70
     1
102
RTVSPost2010Prop29
280
     1
102
RTVSPost2010PropOp29
 70
     1
102
RTVSPost2010Prop30
280
     1
102
RTVSPost2010PropOp30
 70
     1
102
RTVSPost2010Prop31
280
     0
102
RTVSPost2010PropOp31
 70
     1
102
RTVSPost2010Prop32
280
     0
102
RTVSPost2010PropOp32
 70
     1
102
RTVSPost2010Prop33
280
     0
102
RTVSPost2010PropOp33
 70
     1
102
RTVSPost2010Prop34
280
     0
102
RTVSPost2010PropOp34
 70
     1
102
RTVSPost2010Prop35
280
     0
102
RTVSPost2010PropOp35
 70
     1
102
RTVSPost2010Prop36
280
     0
102
RTVSPost2010PropOp36
 70
     1
102
RTVSPost2010Prop37
 90
       50
102
RTVSPost2010PropOp37
 70
     1
102
RTVSPost2010Prop38
140
0.0
102
RTVSPost2010PropOp38
 70
     1
102
RTVSPost2010Prop39
140
1.0
102
RTVSPost2010PropOp39
 70
     1
102
RTVSPost2010Prop40
 90
        0
102
RTVSPost2010PropOp40
 70
     1
102
RTVSPost2010Prop41ColorIndex
 90
       18
102
RTVSPost2010Prop41ColorRGB
 90
        0
102
RTVSPost2010PropOp41
 70
     1
102
RTVSPost2010Prop42
 90
       50
102
RTVSPost2010PropOp42
 70
     1
102
RTVSPost2010Prop43
 90
        3
102
RTVSPost2010PropOp43
 70
     1
102
RTVSPost2010Prop44ColorIndex
 90
        5
102
RTVSPost2010Prop44ColorRGB
 90
      255
102
RTVSPost2010PropOp44
 70
     1
102
RTVSPost2010Prop45
280
     0
102
RTVSPost2010PropOp45
 70
     1
102
RTVSPost2010Prop46
 90
       50
102
RTVSPost2010PropOp46
 70
     1
102
RTVSPost2010Prop47
 90
       50
102
RTVSPost2010PropOp47
 70
     1
102
RTVSPost2010Prop48
 90
       50
102
RTVSPost2010PropOp48
 70
     1
102
RTVSPost2010Prop49
280
     0
102
RTVSPost2010PropOp49
 70
     1
102
RTVSPost2010Prop50
 90
       50
102
RTVSPost2010PropOp50
 70
     1
102
RTVSPost2010Prop51ColorIndex
 90
      256
102
RTVSPost2010Prop51ColorRGB
 90
-16777216
102
RTVSPost2010PropOp51
 70
     0
102
RTVSPost2010Prop52
140
1.0
102
RTVSPost2010PropOp52
 70
     0
102
RTVSPost2010Prop53
 90
        2
102
RTVSPost2010PropOp53
 70
     1
102
RTVSPost2010Prop54
  1
strokes_ogs.tif
102
RTVSPost2010PropOp54
 70
     1
102
RTVSPost2010Prop55
280
     0
102
RTVSPost2010PropOp55
 70
     1
102
RTVSPost2010Prop56
140
1.0
102
RTVSPost2010PropOp56
 70
     1
102
RTVSPost2010Prop57
140
1.0
102
RTVSPost2010PropOp57
 70
     1
  0
XRECORD
  5
138
102
{ACAD_REACTORS
330
137
102
}
330
137
100
AcDbXrecord
280
     1
102
RTVSPost2010Prop28
280
     0
102
RTVSPost2010PropOp28
 70
     1
102
RTVSPost2010Prop29
280
     1
102
RTVSPost2010PropOp29
 70
     1
102
RTVSPost2010Prop30
280
     1
102
RTVSPost2010PropOp30
 70
     1
102
RTVSPost2010Prop31
280
     0
102
RTVSPost2010PropOp31
 70
     1
102
RTVSPost2010Prop32
280
     0
102
RTVSPost2010PropOp32
 70
     1
102
RTVSPost2010Prop33
280
     0
102
RTVSPost2010PropOp33
 70
     1
102
RTVSPost2010Prop34
280
     0
102
RTVSPost2010PropOp34
 70
     1
102
RTVSPost2010Prop35
280
     0
102
RTVSPost2010PropOp35
 70
     1
102
RTVSPost2010Prop36
280
     0
102
RTVSPost2010PropOp36
 70
     1
102
RTVSPost2010Prop37
 90
       50
102
RTVSPost2010PropOp37
 70
     1
102
RTVSPost2010Prop38
140
0.0
102
RTVSPost2010PropOp38
 70
     1
102
RTVSPost2010Prop39
140
1.0
102
RTVSPost2010PropOp39
 70
     1
102
RTVSPost2010Prop40
 90
        0
102
RTVSPost2010PropOp40
 70
     1
102
RTVSPost2010Prop41ColorIndex
 90
       18
102
RTVSPost2010Prop41ColorRGB
 90
        0
102
RTVSPost2010PropOp41
 70
     1
102
RTVSPost2010Prop42
 90
       50
102
RTVSPost2010PropOp42
 70
     1
102
RTVSPost2010Prop43
 90
        3
102
RTVSPost2010PropOp43
 70
     1
102
RTVSPost2010Prop44ColorIndex
 90
        5
102
RTVSPost2010Prop44ColorRGB
 90
      255
102
RTVSPost2010PropOp44
 70
     1
102
RTVSPost2010Prop45
280
     0
102
RTVSPost2010PropOp45
 70
     1
102
RTVSPost2010Prop46
 90
       50
102
RTVSPost2010PropOp46
 70
     1
102
RTVSPost2010Prop47
 90
       50
102
RTVSPost2010PropOp47
 70
     1
102
RTVSPost2010Prop48
 90
       50
102
RTVSPost2010PropOp48
 70
     1
102
RTVSPost2010Prop49
280
     0
102
RTVSPost2010PropOp49
 70
     1
102
RTVSPost2010Prop50
 90
       50
102
RTVSPost2010PropOp50
 70
     1
102
RTVSPost2010Prop51ColorIndex
 90
      256
102
RTVSPost2010Prop51ColorRGB
 90
-16777216
102
RTVSPost2010PropOp51
 70
     0
102
RTVSPost2010Prop52
140
1.0
102
RTVSPost2010PropOp52
 70
     0
102
RTVSPost2010Prop53
 90
        2
102
RTVSPost2010PropOp53
 70
     1
102
RTVSPost2010Prop54
  1
strokes_ogs.tif
102
RTVSPost2010PropOp54
 70
     1
102
RTVSPost2010Prop55
280
     0
102
RTVSPost2010PropOp55
 70
     1
102
RTVSPost2010Prop56
140
1.0
102
RTVSPost2010PropOp56
 70
     1
102
RTVSPost2010Prop57
140
1.0
102
RTVSPost2010PropOp57
 70
     1
  0
XRECORD
  5
12C
102
{ACAD_REACTORS
330
12B
102
}
330
12B
100
AcDbXrecord
280
     1
102
RTVSPost2010Prop28
280
     0
102
RTVSPost2010PropOp28
 70
     1
102
RTVSPost2010Prop29
280
     1
102
RTVSPost2010PropOp29
 70
     1
102
RTVSPost2010Prop30
280
     1
102
RTVSPost2010PropOp30
 70
     1
102
RTVSPost2010Prop31
280
     0
102
RTVSPost2010PropOp31
 70
     1
102
RTVSPost2010Prop32
280
     0
102
RTVSPost2010PropOp32
 70
     1
102
RTVSPost2010Prop33
280
     0
102
RTVSPost2010PropOp33
 70
     1
102
RTVSPost2010Prop34
280
     0
102
RTVSPost2010PropOp34
 70
     1
102
RTVSPost2010Prop35
280
     0
102
RTVSPost2010PropOp35
 70
     1
102
RTVSPost2010Prop36
280
     0
102
RTVSPost2010PropOp36
 70
     1
102
RTVSPost2010Prop37
 90
       50
102
RTVSPost2010PropOp37
 70
     1
102
RTVSPost2010Prop38
140
0.0
102
RTVSPost2010PropOp38
 70
     1
102
RTVSPost2010Prop39
140
1.0
102
RTVSPost2010PropOp39
 70
     1
102
RTVSPost2010Prop40
 90
        0
102
RTVSPost2010PropOp40
 70
     1
102
RTVSPost2010Prop41ColorIndex
 90
       18
102
RTVSPost2010Prop41ColorRGB
 90
        0
102
RTVSPost2010PropOp41
 70
     1
102
RTVSPost2010Prop42
 90
       50
102
RTVSPost2010PropOp42
 70
     1
102
RTVSPost2010Prop43
 90
        3
102
RTVSPost2010PropOp43
 70
     1
102
RTVSPost2010Prop44ColorIndex
 90
        5
102
RTVSPost2010Prop44ColorRGB
 90
      255
102
RTVSPost2010PropOp44
 70
     1
102
RTVSPost2010Prop45
280
     0
102
RTVSPost2010PropOp45
 70
     1
102
RTVSPost2010Prop46
 90
       50
102
RTVSPost2010PropOp46
 70
     1
102
RTVSPost2010Prop47
 90
       50
102
RTVSPost2010PropOp47
 70
     1
102
RTVSPost2010Prop48
 90
       50
102
RTVSPost2010PropOp48
 70
     1
102
RTVSPost2010Prop49
280
     0
102
RTVSPost2010PropOp49
 70
     1
102
RTVSPost2010Prop50
 90
       50
102
RTVSPost2010PropOp50
 70
     1
102
RTVSPost2010Prop51ColorIndex
 90
      256
102
RTVSPost2010Prop51ColorRGB
 90
-16777216
102
RTVSPost2010PropOp51
 70
     0
102
RTVSPost2010Prop52
140
1.0
102
RTVSPost2010PropOp52
 70
     0
102
RTVSPost2010Prop53
 90
        2
102
RTVSPost2010PropOp53
 70
     1
102
RTVSPost2010Prop54
  1
strokes_ogs.tif
102
RTVSPost2010PropOp54
 70
     1
102
RTVSPost2010Prop55
280
     0
102
RTVSPost2010PropOp55
 70
     1
102
RTVSPost2010Prop56
140
1.0
102
RTVSPost2010PropOp56
 70
     1
102
RTVSPost2010Prop57
140
1.0
102
RTVSPost2010PropOp57
 70
     1
  0
XRECORD
  5
144
102
{ACAD_REACTORS
330
143
102
}
330
143
100
AcDbXrecord
280
     1
102
RTVSPost2010Prop28
280
     0
102
RTVSPost2010PropOp28
 70
     1
102
RTVSPost2010Prop29
280
     1
102
RTVSPost2010PropOp29
 70
     1
102
RTVSPost2010Prop30
280
     1
102
RTVSPost2010PropOp30
 70
     1
102
RTVSPost2010Prop31
280
     0
102
RTVSPost2010PropOp31
 70
     1
102
RTVSPost2010Prop32
280
     0
102
RTVSPost2010PropOp32
 70
     1
102
RTVSPost2010Prop33
280
     0
102
RTVSPost2010PropOp33
 70
     1
102
RTVSPost2010Prop34
280
     0
102
RTVSPost2010PropOp34
 70
     1
102
RTVSPost2010Prop35
280
     0
102
RTVSPost2010PropOp35
 70
     1
102
RTVSPost2010Prop36
280
     0
102
RTVSPost2010PropOp36
 70
     1
102
RTVSPost2010Prop37
 90
       50
102
RTVSPost2010PropOp37
 70
     1
102
RTVSPost2010Prop38
140
0.0
102
RTVSPost2010PropOp38
 70
     1
102
RTVSPost2010Prop39
140
1.0
102
RTVSPost2010PropOp39
 70
     1
102
RTVSPost2010Prop40
 90
        0
102
RTVSPost2010PropOp40
 70
     1
102
RTVSPost2010Prop41ColorIndex
 90
       18
102
RTVSPost2010Prop41ColorRGB
 90
        0
102
RTVSPost2010PropOp41
 70
     1
102
RTVSPost2010Prop42
 90
       50
102
RTVSPost2010PropOp42
 70
     1
102
RTVSPost2010Prop43
 90
        3
102
RTVSPost2010PropOp43
 70
     1
102
RTVSPost2010Prop44ColorIndex
 90
        5
102
RTVSPost2010Prop44ColorRGB
 90
      255
102
RTVSPost2010PropOp44
 70
     1
102
RTVSPost2010Prop45
280
     0
102
RTVSPost2010PropOp45
 70
     1
102
RTVSPost2010Prop46
 90
       50
102
RTVSPost2010PropOp46
 70
     1
102
RTVSPost2010Prop47
 90
       50
102
RTVSPost2010PropOp47
 70
     1
102
RTVSPost2010Prop48
 90
       50
102
RTVSPost2010PropOp48
 70
     1
102
RTVSPost2010Prop49
280
     0
102
RTVSPost2010PropOp49
 70
     1
102
RTVSPost2010Prop50
 90
       50
102
RTVSPost2010PropOp50
 70
     1
102
RTVSPost2010Prop51ColorIndex
 90
      256
102
RTVSPost2010Prop51ColorRGB
 90
-16777216
102
RTVSPost2010PropOp51
 70
     0
102
RTVSPost2010Prop52
140
1.0
102
RTVSPost2010PropOp52
 70
     0
102
RTVSPost2010Prop53
 90
        2
102
RTVSPost2010PropOp53
 70
     1
102
RTVSPost2010Prop54
  1
strokes_ogs.tif
102
RTVSPost2010PropOp54
 70
     1
102
RTVSPost2010Prop55
280
     0
102
RTVSPost2010PropOp55
 70
     1
102
RTVSPost2010Prop56
140
1.0
102
RTVSPost2010PropOp56
 70
     1
102
RTVSPost2010Prop57
140
1.0
102
RTVSPost2010PropOp57
 70
     1
  0
ENDSEC
  0
EOF
