  0
SECTION
  2
HEADER
  9
$ACADVER
  1
AC1024
  9
$ACADMAINTVER
 70
     6
  9
$DWGCODEPAGE
  3
UNDEFINED
  9
$INSBASE
 10
0.0
 20
0.0
 30
0.0
  9
$EXTMIN
 10
1.000000000000000E+20
 20
1.000000000000000E+20
 30
1.000000000000000E+20
  9
$EXTMAX
 10
-1.000000000000000E+20
 20
-1.000000000000000E+20
 30
-1.000000000000000E+20
  9
$LIMMIN
 10
0.0
 20
0.0
  9
$LIMMAX
 10
12.0
 20
9.0
  9
$ORTHOMODE
 70
     0
  9
$REGENMODE
 70
     1
  9
$FILLMODE
 70
     1
  9
$QTEXTMODE
 70
     0
  9
$MIRRTEXT
 70
     1
  9
$LTSCALE
 40
1.0
  9
$ATTMODE
 70
     1
  9
$TEXTSIZE
 40
0.2
  9
$TRACEWID
 40
0.05
  9
$TEXTSTYLE
  7
Standard
  9
$CLAYER
  8
0
  9
$CELTYPE
  6
ByLayer
  9
$CECOLOR
 62
   256
  9
$CELTSCALE
 40
1.0
  9
$DISPSILH
 70
     0
  9
$DIMSCALE
 40
1.0
  9
$DIMASZ
 40
0.18
  9
$DIMEXO
 40
0.0625
  9
$DIMDLI
 40
0.38
  9
$DIMRND
 40
0.0
  9
$DIMDLE
 40
0.0
  9
$DIMEXE
 40
0.18
  9
$DIMTP
 40
0.0
  9
$DIMTM
 40
0.0
  9
$DIMTXT
 40
0.18
  9
$DIMCEN
 40
0.09
  9
$DIMTSZ
 40
0.0
  9
$DIMTOL
 70
     0
  9
$DIMLIM
 70
     0
  9
$DIMTIH
 70
     1
  9
$DIMTOH
 70
     1
  9
$DIMSE1
 70
     0
  9
$DIMSE2
 70
     0
  9
$DIMTAD
 70
     0
  9
$DIMZIN
 70
     0
  9
$DIMBLK
  1

  9
$DIMASO
 70
     1
  9
$DIMSHO
 70
     1
  9
$DIMPOST
  1

  9
$DIMAPOST
  1

  9
$DIMALT
 70
     0
  9
$DIMALTD
 70
     2
  9
$DIMALTF
 40
25.4
  9
$DIMLFAC
 40
1.0
  9
$DIMTOFL
 70
     0
  9
$DIMTVP
 40
0.0
  9
$DIMTIX
 70
     0
  9
$DIMSOXD
 70
     0
  9
$DIMSAH
 70
     0
  9
$DIMBLK1
  1

  9
$DIMBLK2
  1

  9
$DIMSTYLE
  2
Standard
  9
$DIMCLRD
 70
     0
  9
$DIMCLRE
 70
     0
  9
$DIMCLRT
 70
     0
  9
$DIMTFAC
 40
1.0
  9
$DIMGAP
 40
0.09
  9
$DIMJUST
 70
     0
  9
$DIMSD1
 70
     0
  9
$DIMSD2
 70
     0
  9
$DIMTOLJ
 70
     1
  9
$DIMTZIN
 70
     0
  9
$DIMALTZ
 70
     0
  9
$DIMALTTZ
 70
     0
  9
$DIMUPT
 70
     0
  9
$DIMDEC
 70
     4
  9
$DIMTDEC
 70
     4
  9
$DIMALTU
 70
     2
  9
$DIMALTTD
 70
     2
  9
$DIMTXSTY
  7
Standard
  9
$DIMAUNIT
 70
     0
  9
$DIMADEC
 70
     0
  9
$DIMALTRND
 40
0.0
  9
$DIMAZIN
 70
     0
  9
$DIMDSEP
 70
    46
  9
$DIMATFIT
 70
     3
  9
$DIMFRAC
 70
     0
  9
$DIMLDRBLK
  1

  9
$DIMLUNIT
 70
     2
  9
$DIMLWD
 70
    -2
  9
$DIMLWE
 70
    -2
  9
$DIMTMOVE
 70
     0
  9
$DIMFXL
 40
1.0
  9
$DIMFXLON
 70
     0
  9
$DIMJOGANG
 40
0.7853981633974483
  9
$DIMTFILL
 70
     0
  9
$DIMTFILLCLR
 70
     0
  9
$DIMARCSYM
 70
     0
  9
$DIMLTYPE
  6

  9
$DIMLTEX1
  6

  9
$DIMLTEX2
  6

  9
$DIMTXTDIRECTION
 70
     0
  9
$LUNITS
 70
     2
  9
$LUPREC
 70
     4
  9
$SKETCHINC
 40
0.1
  9
$FILLETRAD
 40
0.5
  9
$AUNITS
 70
     0
  9
$AUPREC
 70
     0
  9
$MENU
  1
.
  9
$ELEVATION
 40
0.0
  9
$PELEVATION
 40
0.0
  9
$THICKNESS
 40
0.0
  9
$LIMCHECK
 70
     0
  9
$CHAMFERA
 40
0.5
  9
$CHAMFERB
 40
0.5
  9
$CHAMFERC
 40
1.0
  9
$CHAMFERD
 40
0.0
  9
$SKPOLY
 70
     0
  9
$TDCREATE
 40
2457917.61125
  9
$TDUCREATE
 40
2457917.23625
  9
$TDUPDATE
 40
2457917.61125
  9
$TDUUPDATE
 40
2457917.23625
  9
$TDINDWG
 40
0.0000000116
  9
$TDUSRTIMER
 40
0.0000000116
  9
$USRTIMER
 70
     1
  9
$ANGBASE
 50
0.0
  9
$ANGDIR
 70
     0
  9
$PDMODE
 70
     0
  9
$PDSIZE
 40
0.0
  9
$PLINEWID
 40
0.0
  9
$SPLFRAME
 70
     0
  9
$SPLINETYPE
 70
     6
  9
$SPLINESEGS
 70
     8
  9
$HANDSEED
  5
1D8
  9
$SURFTAB1
 70
     6
  9
$SURFTAB2
 70
     6
  9
$SURFTYPE
 70
     6
  9
$SURFU
 70
     6
  9
$SURFV
 70
     6
  9
$UCSBASE
  2

  9
$UCSNAME
  2

  9
$UCSORG
 10
0.0
 20
0.0
 30
0.0
  9
$UCSXDIR
 10
1.0
 20
0.0
 30
0.0
  9
$UCSYDIR
 10
0.0
 20
1.0
 30
0.0
  9
$UCSORTHOREF
  2

  9
$UCSORTHOVIEW
 70
     0
  9
$UCSORGTOP
 10
0.0
 20
0.0
 30
0.0
  9
$UCSORGBOTTOM
 10
0.0
 20
0.0
 30
0.0
  9
$UCSORGLEFT
 10
0.0
 20
0.0
 30
0.0
  9
$UCSORGRIGHT
 10
0.0
 20
0.0
 30
0.0
  9
$UCSORGFRONT
 10
0.0
 20
0.0
 30
0.0
  9
$UCSORGBACK
 10
0.0
 20
0.0
 30
0.0
  9
$PUCSBASE
  2

  9
$PUCSNAME
  2

  9
$PUCSORG
 10
0.0
 20
0.0
 30
0.0
  9
$PUCSXDIR
 10
1.0
 20
0.0
 30
0.0
  9
$PUCSYDIR
 10
0.0
 20
1.0
 30
0.0
  9
$PUCSORTHOREF
  2

  9
$PUCSORTHOVIEW
 70
     0
  9
$PUCSORGTOP
 10
0.0
 20
0.0
 30
0.0
  9
$PUCSORGBOTTOM
 10
0.0
 20
0.0
 30
0.0
  9
$PUCSORGLEFT
 10
0.0
 20
0.0
 30
0.0
  9
$PUCSORGRIGHT
 10
0.0
 20
0.0
 30
0.0
  9
$PUCSORGFRONT
 10
0.0
 20
0.0
 30
0.0
  9
$PUCSORGBACK
 10
0.0
 20
0.0
 30
0.0
  9
$USERI1
 70
     0
  9
$USERI2
 70
     0
  9
$USERI3
 70
     0
  9
$USERI4
 70
     0
  9
$USERI5
 70
     0
  9
$USERR1
 40
0.0
  9
$USERR2
 40
0.0
  9
$USERR3
 40
0.0
  9
$USERR4
 40
0.0
  9
$USERR5
 40
0.0
  9
$WORLDVIEW
 70
     1
  9
$SHADEDGE
 70
     3
  9
$SHADEDIF
 70
    70
  9
$TILEMODE
 70
     1
  9
$MAXACTVP
 70
    64
  9
$PINSBASE
 10
0.0
 20
0.0
 30
0.0
  9
$PLIMCHECK
 70
     0
  9
$PEXTMIN
 10
1.000000000000000E+20
 20
1.000000000000000E+20
 30
1.000000000000000E+20
  9
$PEXTMAX
 10
-1.000000000000000E+20
 20
-1.000000000000000E+20
 30
-1.000000000000000E+20
  9
$PLIMMIN
 10
0.0
 20
0.0
  9
$PLIMMAX
 10
12.0
 20
9.0
  9
$UNITMODE
 70
     0
  9
$VISRETAIN
 70
     1
  9
$PLINEGEN
 70
     0
  9
$PSLTSCALE
 70
     1
  9
$TREEDEPTH
 70
  3020
  9
$CMLSTYLE
  2
Standard
  9
$CMLJUST
 70
     0
  9
$CMLSCALE
 40
1.0
  9
$PROXYGRAPHICS
 70
     1
  9
$MEASUREMENT
 70
     0
  9
$CELWEIGHT
370
    -1
  9
$ENDCAPS
280
     0
  9
$JOINSTYLE
280
     0
  9
$LWDISPLAY
290
     1
  9
$INSUNITS
 70
     1
  9
$HYPERLINKBASE
  1

  9
$STYLESHEET
  1

  9
$XEDIT
290
     1
  9
$CEPSNTYPE
380
     0
  9
$PSTYLEMODE
290
     1
  9
$FINGERPRINTGUID
  2
{E3D01DE5-848B-8E77-ACDE-51317F91CF0C}
  9
$VERSIONGUID
  2
{FAEB1C32-E019-11D5-929B-00C0DF256EC4}
  9
$EXTNAMES
290
     1
  9
$PSVPSCALE
 40
0.0
  9
$OLESTARTUP
290
     0
  9
$SORTENTS
280
   127
  9
$INDEXCTL
280
     0
  9
$HIDETEXT
280
     1
  9
$XCLIPFRAME
280
     2
  9
$HALOGAP
280
     0
  9
$OBSCOLOR
 70
   257
  9
$OBSLTYPE
280
     0
  9
$INTERSECTIONDISPLAY
280
     0
  9
$INTERSECTIONCOLOR
 70
   257
  9
$DIMASSOC
280
     2
  9
$PROJECTNAME
  1

  9
$CAMERADISPLAY
290
     0
  9
$LENSLENGTH
 40
50.0
  9
$CAMERAHEIGHT
 40
0.0
  9
$STEPSPERSEC
 40
2.0
  9
$STEPSIZE
 40
6.0
  9
$3DDWFPREC
 40
2.0
  9
$PSOLWIDTH
 40
0.25
  9
$PSOLHEIGHT
 40
4.0
  9
$LOFTANG1
 40
1.570796326794897
  9
$LOFTANG2
 40
1.570796326794897
  9
$LOFTMAG1
 40
0.0
  9
$LOFTMAG2
 40
0.0
  9
$LOFTPARAM
 70
     7
  9
$LOFTNORMALS
280
     1
  9
$LATITUDE
 40
37.795
  9
$LONGITUDE
 40
-122.394
  9
$NORTHDIRECTION
 40
0.0
  9
$TIMEZONE
 70
 -8000
  9
$LIGHTGLYPHDISPLAY
280
     1
  9
$TILEMODELIGHTSYNCH
280
     1
  9
$CMATERIAL
347
3C
  9
$SOLIDHIST
280
     1
  9
$SHOWHIST
280
     1
  9
$DWFFRAME
280
     2
  9
$DGNFRAME
280
     2
  9
$REALWORLDSCALE
290
     1
  9
$INTERFERECOLOR
 62
   256
  9
$CSHADOW
280
     0
  9
$SHADOWPLANELOCATION
 40
0.0
  0
ENDSEC
  0
SECTION
  2
CLASSES
  0
CLASS
  1
ACDBDICTIONARYWDFLT
  2
AcDbDictionaryWithDefault
  3
ObjectDBX Classes
 90
        0
 91
        4
280
     0
281
     0
  0
CLASS
  1
VISUALSTYLE
  2
AcDbVisualStyle
  3
ObjectDBX Classes
 90
     4095
 91
        4
280
     0
281
     0
  0
CLASS
  1
MATERIAL
  2
AcDbMaterial
  3
ObjectDBX Classes
 90
     1153
 91
        4
280
     0
281
     0
  0
CLASS
  1
SUN
  2
AcDbSun
  3
SCENEOE
 90
     1024
 91
        4
280
     0
281
     0
  0
ENDSEC
  0
SECTION
  2
TABLES
  0
TABLE
  2
VPORT
  5
8
330
0
100
AcDbSymbolTable
 70
     1
  0
VPORT
  5
29
330
8
100
AcDbSymbolTableRecord
100
AcDbViewportTableRecord
  2
*Active
 70
     0
 10
0.0
 20
0.0
 11
1.0
 21
1.0
 12
0.0
 22
0.0
 13
0.0
 23
0.0
 14
0.5
 24
0.5
 15
0.5
 25
0.5
 16
0.0
 26
0.0
 36
1.0
 17
91.00082462281999
 27
-128.4993055234307
 37
0.0
 40
256.9986110468615
 41
0.7081814508812795
 42
50.0
 43
0.0
 44
0.0
 50
0.0
 51
0.0
 71
     0
 72
   100
 73
     1
 74
     3
 75
     0
 76
     0
 77
     0
 78
     0
281
     0
 65
     1
110
0.0
120
0.0
130
0.0
111
1.0
121
0.0
131
0.0
112
0.0
122
1.0
132
0.0
 79
     0
146
0.0
 60
     3
 61
     5
292
     1
282
     1
141
0.0
142
0.0
 63
   250
361
3F
  0
ENDTAB
  0
TABLE
  2
LTYPE
  5
5
330
0
100
AcDbSymbolTable
 70
     1
  0
LTYPE
  5
14
330
5
100
AcDbSymbolTableRecord
100
AcDbLinetypeTableRecord
  2
ByBlock
 70
     0
  3

 72
    65
 73
     0
 40
0.0
  0
LTYPE
  5
15
330
5
100
AcDbSymbolTableRecord
100
AcDbLinetypeTableRecord
  2
ByLayer
 70
     0
  3

 72
    65
 73
     0
 40
0.0
  0
LTYPE
  5
16
330
5
100
AcDbSymbolTableRecord
100
AcDbLinetypeTableRecord
  2
Continuous
 70
     0
  3
Solid line
 72
    65
 73
     0
 40
0.0
  0
ENDTAB
  0
TABLE
  2
LAYER
  5
2
330
0
100
AcDbSymbolTable
 70
     2
  0
LAYER
  5
10
330
2
100
AcDbSymbolTableRecord
100
AcDbLayerTableRecord
  2
0
 70
     0
 62
     7
  6
Continuous
370
    -3
390
F
347
3E
  0
LAYER
  5
40
330
2
100
AcDbSymbolTableRecord
100
AcDbLayerTableRecord
  2
_U+30EC_U+30A4_U+30E4_U+30FC 1
 70
     0
 62
     7
  6
Continuous
370
    -3
390
F
347
3E
  0
ENDTAB
  0
TABLE
  2
STYLE
  5
3
330
0
100
AcDbSymbolTable
 70
     1
  0
STYLE
  5
11
330
3
100
AcDbSymbolTableRecord
100
AcDbTextStyleTableRecord
  2
Standard
 70
     0
 40
0.0
 41
1.0
 50
0.0
 71
     0
 42
0.2
  3
txt
  4

  0
ENDTAB
  0
TABLE
  2
VIEW
  5
6
330
0
100
AcDbSymbolTable
 70
     0
  0
ENDTAB
  0
TABLE
  2
UCS
  5
7
330
0
100
AcDbSymbolTable
 70
     0
  0
ENDTAB
  0
TABLE
  2
APPID
  5
9
330
0
100
AcDbSymbolTable
 70
     1
  0
APPID
  5
12
330
9
100
AcDbSymbolTableRecord
100
AcDbRegAppTableRecord
  2
ACAD
 70
     0
  0
ENDTAB
  0
TABLE
  2
DIMSTYLE
  5
A
330
0
100
AcDbSymbolTable
 70
     1
100
AcDbDimStyleTable
  0
DIMSTYLE
105
27
330
A
100
AcDbSymbolTableRecord
100
AcDbDimStyleTableRecord
  2
Standard
 70
     0
178
     0
340
11
  0
ENDTAB
  0
TABLE
  2
BLOCK_RECORD
  5
1
330
0
100
AcDbSymbolTable
 70
     9
  0
BLOCK_RECORD
  5
1F
330
1
100
AcDbSymbolTableRecord
100
AcDbBlockTableRecord
  2
*Model_Space
340
22
 70
     0
280
     1
281
     0
  0
BLOCK_RECORD
  5
1B
330
1
100
AcDbSymbolTableRecord
100
AcDbBlockTableRecord
  2
*Paper_Space
340
1E
 70
     0
280
     1
281
     0
  0
BLOCK_RECORD
  5
23
330
1
100
AcDbSymbolTableRecord
100
AcDbBlockTableRecord
  2
*Paper_Space0
340
26
 70
     0
280
     1
281
     0
  0
BLOCK_RECORD
  5
5E
330
1
100
AcDbSymbolTableRecord
100
AcDbBlockTableRecord
  2
block 2
340
0
102
{BLKREFS
331
5F
102
}
 70
     0
280
     1
281
     0
  0
BLOCK_RECORD
  5
66
330
1
100
AcDbSymbolTableRecord
100
AcDbBlockTableRecord
  2
block 3
340
0
102
{BLKREFS
331
67
102
}
 70
     0
280
     1
281
     0
  0
BLOCK_RECORD
  5
7B
330
1
100
AcDbSymbolTableRecord
100
AcDbBlockTableRecord
  2
block 4
340
0
102
{BLKREFS
331
7C
102
}
 70
     0
280
     1
281
     0
  0
BLOCK_RECORD
  5
8A
330
1
100
AcDbSymbolTableRecord
100
AcDbBlockTableRecord
  2
block 5
340
0
102
{BLKREFS
331
8B
102
}
 70
     0
280
     1
281
     0
  0
BLOCK_RECORD
  5
9A
330
1
100
AcDbSymbolTableRecord
100
AcDbBlockTableRecord
  2
block 6
340
0
102
{BLKREFS
331
9B
102
}
 70
     0
280
     1
281
     0
  0
BLOCK_RECORD
  5
AD
330
1
100
AcDbSymbolTableRecord
100
AcDbBlockTableRecord
  2
block 7
340
0
102
{BLKREFS
331
AE
102
}
 70
     0
280
     1
281
     0
  0
BLOCK_RECORD
  5
C4
330
1
100
AcDbSymbolTableRecord
100
AcDbBlockTableRecord
  2
block 8
340
0
102
{BLKREFS
331
C5
102
}
 70
     0
280
     1
281
     0
  0
BLOCK_RECORD
  5
CE
330
1
100
AcDbSymbolTableRecord
100
AcDbBlockTableRecord
  2
block 9
340
0
102
{BLKREFS
331
CF
102
}
 70
     0
280
     1
281
     0
  0
ENDTAB
  0
ENDSEC
  0
SECTION
  2
BLOCKS
  0
BLOCK
  5
20
330
1F
100
AcDbEntity
  8
0
100
AcDbBlockBegin
  2
*Model_Space
 70
     0
 10
0.0
 20
0.0
 30
0.0
  3
*Model_Space
  1

  0
ENDBLK
  5
21
330
1F
100
AcDbEntity
  8
0
100
AcDbBlockEnd
  0
BLOCK
  5
1C
330
1B
100
AcDbEntity
 67
     1
  8
0
100
AcDbBlockBegin
  2
*Paper_Space
 70
     0
 10
0.0
 20
0.0
 30
0.0
  3
*Paper_Space
  1

  0
ENDBLK
  5
1D
330
1B
100
AcDbEntity
 67
     1
  8
0
100
AcDbBlockEnd
  0
BLOCK
  5
24
330
23
100
AcDbEntity
  8
0
100
AcDbBlockBegin
  2
*Paper_Space0
 70
     0
 10
0.0
 20
0.0
 30
0.0
  3
*Paper_Space0
  1

  0
ENDBLK
  5
25
330
23
100
AcDbEntity
  8
0
100
AcDbBlockEnd
  0
BLOCK
  5
60
330
5E
100
AcDbEntity
  8
0
100
AcDbBlockBegin
  2
block 2
 70
     0
 10
0.0
 20
0.0
 30
0.0
  3
block 2
  1

  0
SPLINE
  5
62
330
5E
100
AcDbEntity
  8
_U+30EC_U+30A4_U+30E4_U+30FC 1
370
     0
100
AcDbSpline
210
0.0
220
0.0
230
1.0
 70
    11
 71
     3
 72
    26
 73
    22
 74
     0
 42
0.0000000001
 43
0.0000000001
 12
1.0
 22
0.0
 32
0.0
 13
1.0
 23
0.0
 33
0.0
 40
0.0
 40
0.0
 40
0.0
 40
0.0
 40
1.0
 40
1.0
 40
1.0
 40
2.0
 40
2.0
 40
2.0
 40
3.0
 40
3.0
 40
3.0
 40
4.0
 40
4.0
 40
4.0
 40
5.0
 40
5.0
 40
5.0
 40
6.0
 40
6.0
 40
6.0
 40
7.0
 40
7.0
 40
7.0
 40
7.0
 10
106.35767683973
 20
-128.1361924592854
 30
0.0
 10
106.35767683973
 20
-128.1361924592854
 30
0.0
 10
105.2531792271589
 20
-128.1361924592854
 30
0.0
 10
105.2531792271589
 20
-128.1361924592854
 30
0.0
 10
105.2531792271589
 20
-128.1361924592854
 30
0.0
 10
105.2531792271589
 20
-128.4662326067723
 30
0.0
 10
105.2531792271589
 20
-128.4662326067723
 30
0.0
 10
105.2531792271589
 20
-128.4662326067723
 30
0.0
 10
105.1050401212932
 20
-128.4662326067723
 30
0.0
 10
105.1050401212932
 20
-128.4662326067723
 30
0.0
 10
105.0905707202551
 20
-128.1341254019943
 30
0.0
 10
104.9272731942543
 20
-128.0876166129434
 30
0.0
 10
104.812896024144
 20
-128.0579887917702
 30
0.0
 10
104.812896024144
 20
-128.0579887917702
 30
0.0
 10
104.812896024144
 20
-127.9119167431956
 30
0.0
 10
104.812896024144
 20
-127.9119167431956
 30
0.0
 10
104.812896024144
 20
-127.9119167431956
 30
0.0
 10
106.35767683973
 20
-127.9119167431956
 30
0.0
 10
106.35767683973
 20
-127.9119167431956
 30
0.0
 10
106.35767683973
 20
-127.9119167431956
 30
0.0
 10
106.35767683973
 20
-128.1361924592854
 30
0.0
 10
106.35767683973
 20
-128.1361924592854
 30
0.0
  0
HATCH
  5
63
330
5E
100
AcDbEntity
  8
_U+30EC_U+30A4_U+30E4_U+30FC 1
 62
     7
420
 16777215
100
AcDbHatch
 10
0.0
 20
0.0
 30
0.0
210
0.0
220
0.0
230
1.0
  2
SOLID
 70
     1
 71
     0
 91
        1
 92
        1
 93
        1
 72
     4
 94
        3
 73
     0
 74
     1
 95
       26
 96
       22
 40
0.0
 40
0.0
 40
0.0
 40
0.0
 40
1.0
 40
1.0
 40
1.0
 40
2.0
 40
2.0
 40
2.0
 40
3.0
 40
3.0
 40
3.0
 40
4.0
 40
4.0
 40
4.0
 40
5.0
 40
5.0
 40
5.0
 40
6.0
 40
6.0
 40
6.0
 40
7.0
 40
7.0
 40
7.0
 40
7.0
 10
106.35767683973
 20
-128.1361924592854
 10
106.35767683973
 20
-128.1361924592854
 10
105.2531792271589
 20
-128.1361924592854
 10
105.2531792271589
 20
-128.1361924592854
 10
105.2531792271589
 20
-128.1361924592854
 10
105.2531792271589
 20
-128.4662326067723
 10
105.2531792271589
 20
-128.4662326067723
 10
105.2531792271589
 20
-128.4662326067723
 10
105.1050401212932
 20
-128.4662326067723
 10
105.1050401212932
 20
-128.4662326067723
 10
105.0905707202551
 20
-128.1341254019943
 10
104.9272731942543
 20
-128.0876166129434
 10
104.812896024144
 20
-128.0579887917702
 10
104.812896024144
 20
-128.0579887917702
 10
104.812896024144
 20
-127.9119167431956
 10
104.812896024144
 20
-127.9119167431956
 10
104.812896024144
 20
-127.9119167431956
 10
106.35767683973
 20
-127.9119167431956
 10
106.35767683973
 20
-127.9119167431956
 10
106.35767683973
 20
-127.9119167431956
 10
106.35767683973
 20
-128.1361924592854
 10
106.35767683973
 20
-128.1361924592854
 97
        0
 97
        0
 75
     2
 76
     1
 98
        0
  0
SPLINE
  5
64
330
5E
100
AcDbEntity
  8
_U+30EC_U+30A4_U+30E4_U+30FC 1
370
     0
100
AcDbSpline
210
0.0
220
0.0
230
1.0
 70
    11
 71
     3
 72
    62
 73
    58
 74
     0
 42
0.0000000001
 43
0.0000000001
 12
1.0
 22
0.0
 32
0.0
 13
1.0
 23
0.0
 33
0.0
 40
0.0
 40
0.0
 40
0.0
 40
0.0
 40
1.0
 40
1.0
 40
1.0
 40
2.0
 40
2.0
 40
2.0
 40
3.0
 40
3.0
 40
3.0
 40
4.0
 40
4.0
 40
4.0
 40
5.0
 40
5.0
 40
5.0
 40
6.0
 40
6.0
 40
6.0
 40
7.0
 40
7.0
 40
7.0
 40
8.0
 40
8.0
 40
8.0
 40
9.0
 40
9.0
 40
9.0
 40
10.0
 40
10.0
 40
10.0
 40
11.0
 40
11.0
 40
11.0
 40
12.0
 40
12.0
 40
12.0
 40
13.0
 40
13.0
 40
13.0
 40
14.0
 40
14.0
 40
14.0
 40
15.0
 40
15.0
 40
15.0
 40
16.0
 40
16.0
 40
16.0
 40
17.0
 40
17.0
 40
17.0
 40
18.0
 40
18.0
 40
18.0
 40
19.0
 40
19.0
 40
19.0
 40
19.0
 10
106.4079752338147
 20
-126.9190402243466
 30
0.0
 10
106.4079752338147
 20
-127.0144693692881
 30
0.0
 10
106.3873046609032
 20
-127.2321994039558
 30
0.0
 10
106.2012695046997
 20
-127.3572563700704
 30
0.0
 10
106.0889593918805
 20
-127.4313259230033
 30
0.0
 10
105.9897406419053
 20
-127.4354600375856
 30
0.0
 10
105.9049912929682
 20
-127.4395941521679
 30
0.0
 10
105.9049912929682
 20
-127.4395941521679
 30
0.0
 10
105.9049912929682
 20
-127.2194525506604
 30
0.0
 10
105.9049912929682
 20
-127.2194525506604
 30
0.0
 10
105.9787163363525
 20
-127.2173854933693
 30
0.0
 10
106.2136718484466
 20
-127.2070502069135
 30
0.0
 10
106.2136718484466
 20
-126.9235188484775
 30
0.0
 10
106.2136718484466
 20
-126.786059538616
 30
0.0
 10
106.1440809196445
 20
-126.6334418086194
 30
0.0
 10
105.9153265794239
 20
-126.6334418086194
 30
0.0
 10
105.7988823520225
 20
-126.6334418086194
 30
0.0
 10
105.750651015229
 20
-126.6716823685057
 30
0.0
 10
105.7189561367647
 20
-126.70337724697
 30
0.0
 10
105.6445420742833
 20
-126.7774467999029
 30
0.0
 10
105.6321397305364
 20
-126.8938910273043
 30
0.0
 10
105.6321397305364
 20
-126.9486680455198
 30
0.0
 10
105.6321397305364
 20
-126.9679605802372
 30
0.0
 10
105.6342067878276
 20
-127.0037895732838
 30
0.0
 10
105.6383409024099
 20
-127.0313503371658
 30
0.0
 10
105.6383409024099
 20
-127.0313503371658
 30
0.0
 10
105.4433484979447
 20
-127.0313503371658
 30
0.0
 10
105.4433484979447
 20
-127.0313503371658
 30
0.0
 10
105.4502386889152
 20
-126.9931097772795
 30
0.0
 10
105.4523057462064
 20
-126.9510796123595
 30
0.0
 10
105.4523057462064
 20
-126.9445339309375
 30
0.0
 10
105.4523057462064
 20
-126.8790771167177
 30
0.0
 10
105.4309461541978
 20
-126.6802951072188
 30
0.0
 10
105.1939235848126
 20
-126.6802951072188
 30
0.0
 10
105.0161566577737
 20
-126.6802951072188
 30
0.0
 10
104.9610351300097
 20
-126.8112087356583
 30
0.0
 10
104.9610351300097
 20
-126.9214517911863
 30
0.0
 10
104.9610351300097
 20
-127.185690614905
 30
0.0
 10
105.1939235848126
 20
-127.1943033536181
 30
0.0
 10
105.2655815709058
 20
-127.1984374682004
 30
0.0
 10
105.2655815709058
 20
-127.1984374682004
 30
0.0
 10
105.2655815709058
 20
-127.4016981018301
 30
0.0
 10
105.2655815709058
 20
-127.4016981018301
 30
0.0
 10
105.1408691143398
 20
-127.393085363117
 30
0.0
 10
104.7646646873505
 20
-127.365524599235
 30
0.0
 10
104.7646646873505
 20
-126.9087049378909
 30
0.0
 10
104.7646646873505
 20
-126.6844292218011
 30
0.0
 10
104.8914442012077
 20
-126.4432725378336
 30
0.0
 10
105.1877224129392
 20
-126.4432725378336
 30
0.0
 10
105.3737575691427
 20
-126.4432725378336
 30
0.0
 10
105.4564398607887
 20
-126.5383571732265
 30
0.0
 10
105.5177625604261
 20
-126.6379204327502
 30
0.0
 10
105.5453233243081
 20
-126.5765977331128
 30
0.0
 10
105.6252495395659
 20
-126.3946966914916
 30
0.0
 10
105.902924235677
 20
-126.3946966914916
 30
0.0
 10
106.2412326123286
 20
-126.3946966914916
 30
0.0
 10
106.4079752338147
 20
-126.6420545473325
 30
0.0
 10
106.4079752338147
 20
-126.9190402243466
 30
0.0
  0
HATCH
  5
65
330
5E
100
AcDbEntity
  8
_U+30EC_U+30A4_U+30E4_U+30FC 1
 62
     7
420
 16777215
100
AcDbHatch
 10
0.0
 20
0.0
 30
0.0
210
0.0
220
0.0
230
1.0
  2
SOLID
 70
     1
 71
     0
 91
        1
 92
        1
 93
        1
 72
     4
 94
        3
 73
     0
 74
     1
 95
       62
 96
       58
 40
0.0
 40
0.0
 40
0.0
 40
0.0
 40
1.0
 40
1.0
 40
1.0
 40
2.0
 40
2.0
 40
2.0
 40
3.0
 40
3.0
 40
3.0
 40
4.0
 40
4.0
 40
4.0
 40
5.0
 40
5.0
 40
5.0
 40
6.0
 40
6.0
 40
6.0
 40
7.0
 40
7.0
 40
7.0
 40
8.0
 40
8.0
 40
8.0
 40
9.0
 40
9.0
 40
9.0
 40
10.0
 40
10.0
 40
10.0
 40
11.0
 40
11.0
 40
11.0
 40
12.0
 40
12.0
 40
12.0
 40
13.0
 40
13.0
 40
13.0
 40
14.0
 40
14.0
 40
14.0
 40
15.0
 40
15.0
 40
15.0
 40
16.0
 40
16.0
 40
16.0
 40
17.0
 40
17.0
 40
17.0
 40
18.0
 40
18.0
 40
18.0
 40
19.0
 40
19.0
 40
19.0
 40
19.0
 10
106.4079752338147
 20
-126.9190402243466
 10
106.4079752338147
 20
-127.0144693692881
 10
106.3873046609032
 20
-127.2321994039558
 10
106.2012695046997
 20
-127.3572563700704
 10
106.0889593918805
 20
-127.4313259230033
 10
105.9897406419053
 20
-127.4354600375856
 10
105.9049912929682
 20
-127.4395941521679
 10
105.9049912929682
 20
-127.4395941521679
 10
105.9049912929682
 20
-127.2194525506604
 10
105.9049912929682
 20
-127.2194525506604
 10
105.9787163363525
 20
-127.2173854933693
 10
106.2136718484466
 20
-127.2070502069135
 10
106.2136718484466
 20
-126.9235188484775
 10
106.2136718484466
 20
-126.786059538616
 10
106.1440809196445
 20
-126.6334418086194
 10
105.9153265794239
 20
-126.6334418086194
 10
105.7988823520225
 20
-126.6334418086194
 10
105.750651015229
 20
-126.6716823685057
 10
105.7189561367647
 20
-126.70337724697
 10
105.6445420742833
 20
-126.7774467999029
 10
105.6321397305364
 20
-126.8938910273043
 10
105.6321397305364
 20
-126.9486680455198
 10
105.6321397305364
 20
-126.9679605802372
 10
105.6342067878276
 20
-127.0037895732838
 10
105.6383409024099
 20
-127.0313503371658
 10
105.6383409024099
 20
-127.0313503371658
 10
105.4433484979447
 20
-127.0313503371658
 10
105.4433484979447
 20
-127.0313503371658
 10
105.4502386889152
 20
-126.9931097772795
 10
105.4523057462064
 20
-126.9510796123595
 10
105.4523057462064
 20
-126.9445339309375
 10
105.4523057462064
 20
-126.8790771167177
 10
105.4309461541978
 20
-126.6802951072188
 10
105.1939235848126
 20
-126.6802951072188
 10
105.0161566577737
 20
-126.6802951072188
 10
104.9610351300097
 20
-126.8112087356583
 10
104.9610351300097
 20
-126.9214517911863
 10
104.9610351300097
 20
-127.185690614905
 10
105.1939235848126
 20
-127.1943033536181
 10
105.2655815709058
 20
-127.1984374682004
 10
105.2655815709058
 20
-127.1984374682004
 10
105.2655815709058
 20
-127.4016981018301
 10
105.2655815709058
 20
-127.4016981018301
 10
105.1408691143398
 20
-127.393085363117
 10
104.7646646873505
 20
-127.365524599235
 10
104.7646646873505
 20
-126.9087049378909
 10
104.7646646873505
 20
-126.6844292218011
 10
104.8914442012077
 20
-126.4432725378336
 10
105.1877224129392
 20
-126.4432725378336
 10
105.3737575691427
 20
-126.4432725378336
 10
105.4564398607887
 20
-126.5383571732265
 10
105.5177625604261
 20
-126.6379204327502
 10
105.5453233243081
 20
-126.5765977331128
 10
105.6252495395659
 20
-126.3946966914916
 10
105.902924235677
 20
-126.3946966914916
 10
106.2412326123286
 20
-126.3946966914916
 10
106.4079752338147
 20
-126.6420545473325
 10
106.4079752338147
 20
-126.9190402243466
 97
        0
 97
        0
 75
     2
 76
     1
 98
        0
  0
ENDBLK
  5
61
330
5E
100
AcDbEntity
  8
0
100
AcDbBlockEnd
  0
BLOCK
  5
68
330
66
100
AcDbEntity
  8
0
100
AcDbBlockBegin
  2
block 3
 70
     0
 10
0.0
 20
0.0
 30
0.0
  3
block 3
  1

  0
SPLINE
  5
6A
330
66
100
AcDbEntity
  8
_U+30EC_U+30A4_U+30E4_U+30FC 1
370
     0
100
AcDbSpline
210
0.0
220
0.0
230
1.0
 70
    11
 71
     3
 72
    32
 73
    28
 74
     0
 42
0.0000000001
 43
0.0000000001
 12
1.0
 22
0.0
 32
0.0
 13
1.0
 23
0.0
 33
0.0
 40
0.0
 40
0.0
 40
0.0
 40
0.0
 40
1.0
 40
1.0
 40
1.0
 40
2.0
 40
2.0
 40
2.0
 40
3.0
 40
3.0
 40
3.0
 40
4.0
 40
4.0
 40
4.0
 40
5.0
 40
5.0
 40
5.0
 40
6.0
 40
6.0
 40
6.0
 40
7.0
 40
7.0
 40
7.0
 40
8.0
 40
8.0
 40
8.0
 40
9.0
 40
9.0
 40
9.0
 40
9.0
 10
83.45898842314567
 20
-123.9893310236902
 30
0.0
 10
83.45898842314567
 20
-124.5054063273806
 30
0.0
 10
82.9050170691175
 20
-124.5140190660937
 30
0.0
 10
82.69107663948348
 20
-124.5140190660937
 30
0.0
 10
82.46059975152028
 20
-124.5140190660937
 30
0.0
 10
81.81326630984182
 20
-124.4947265313763
 30
0.0
 10
81.81326630984182
 20
-123.9510904638039
 30
0.0
 10
81.81326630984182
 20
-123.7778021608958
 30
0.0
 10
81.88320174819239
 20
-123.5321668527975
 30
0.0
 10
82.21530895297049
 20
-123.4942708024598
 30
0.0
 10
82.21530895297049
 20
-123.4942708024598
 30
0.0
 10
82.21530895297049
 20
-123.7078667225453
 30
0.0
 10
82.21530895297049
 20
-123.7078667225453
 30
0.0
 10
82.15812036791533
 20
-123.7185465185495
 30
0.0
 10
82.00998126204959
 20
-123.7502413970138
 30
0.0
 10
82.00998126204959
 20
-123.9531575210951
 30
0.0
 10
82.00998126204959
 20
-124.2453016182442
 30
0.0
 10
82.33795435224538
 20
-124.2852647258731
 30
0.0
 10
82.54293753361775
 20
-124.2980115791686
 30
0.0
 10
82.46473386610258
 20
-124.2049940010668
 30
0.0
 10
82.40547822375628
 20
-124.1371256200074
 30
0.0
 10
82.40547822375628
 20
-123.9552245783862
 30
0.0
 10
82.40547822375628
 20
-123.7753905940562
 30
0.0
 10
82.51365422199312
 20
-123.4729112104512
 30
0.0
 10
82.91983097970407
 20
-123.4729112104512
 30
0.0
 10
83.23919133118673
 20
-123.4729112104512
 30
0.0
 10
83.45898842314567
 20
-123.6720377294987
 30
0.0
 10
83.45898842314567
 20
-123.9893310236902
 30
0.0
  0
SPLINE
  5
6B
330
66
100
AcDbEntity
  8
_U+30EC_U+30A4_U+30E4_U+30FC 1
370
     0
100
AcDbSpline
210
0.0
220
0.0
230
1.0
 70
    11
 71
     3
 72
    17
 73
    13
 74
     0
 42
0.0000000001
 43
0.0000000001
 12
1.0
 22
0.0
 32
0.0
 13
1.0
 23
0.0
 33
0.0
 40
0.0
 40
0.0
 40
0.0
 40
0.0
 40
1.0
 40
1.0
 40
1.0
 40
2.0
 40
2.0
 40
2.0
 40
3.0
 40
3.0
 40
3.0
 40
4.0
 40
4.0
 40
4.0
 40
4.0
 10
82.60012611867289
 20
-123.9724500558124
 30
0.0
 10
82.60012611867289
 20
-124.23462182224
 30
0.0
 10
82.81165498146723
 20
-124.2725178725777
 30
0.0
 10
82.92809920886867
 20
-124.2725178725777
 30
0.0
 10
83.10379907861642
 20
-124.2725178725777
 30
0.0
 10
83.26675209506874
 20
-124.1774332371848
 30
0.0
 10
83.26675209506874
 20
-123.9934651382725
 30
0.0
 10
83.26675209506874
 20
-123.8728867962887
 30
0.0
 10
83.20749645272244
 20
-123.697186926541
 30
0.0
 10
82.92189803699523
 20
-123.697186926541
 30
0.0
 10
82.69762232090545
 20
-123.697186926541
 30
0.0
 10
82.60012611867289
 20
-123.8367132936936
 30
0.0
 10
82.60012611867289
 20
-123.9724500558124
 30
0.0
  0
HATCH
  5
6C
330
66
100
AcDbEntity
  8
_U+30EC_U+30A4_U+30E4_U+30FC 1
 62
     7
420
 16777215
100
AcDbHatch
 10
0.0
 20
0.0
 30
0.0
210
0.0
220
0.0
230
1.0
  2
SOLID
 70
     1
 71
     0
 91
        2
 92
        1
 93
        1
 72
     4
 94
        3
 73
     0
 74
     1
 95
       32
 96
       28
 40
0.0
 40
0.0
 40
0.0
 40
0.0
 40
1.0
 40
1.0
 40
1.0
 40
2.0
 40
2.0
 40
2.0
 40
3.0
 40
3.0
 40
3.0
 40
4.0
 40
4.0
 40
4.0
 40
5.0
 40
5.0
 40
5.0
 40
6.0
 40
6.0
 40
6.0
 40
7.0
 40
7.0
 40
7.0
 40
8.0
 40
8.0
 40
8.0
 40
9.0
 40
9.0
 40
9.0
 40
9.0
 10
83.45898842314567
 20
-123.9893310236902
 10
83.45898842314567
 20
-124.5054063273806
 10
82.9050170691175
 20
-124.5140190660937
 10
82.69107663948348
 20
-124.5140190660937
 10
82.46059975152028
 20
-124.5140190660937
 10
81.81326630984182
 20
-124.4947265313763
 10
81.81326630984182
 20
-123.9510904638039
 10
81.81326630984182
 20
-123.7778021608958
 10
81.88320174819239
 20
-123.5321668527975
 10
82.21530895297049
 20
-123.4942708024598
 10
82.21530895297049
 20
-123.4942708024598
 10
82.21530895297049
 20
-123.7078667225453
 10
82.21530895297049
 20
-123.7078667225453
 10
82.15812036791533
 20
-123.7185465185495
 10
82.00998126204959
 20
-123.7502413970138
 10
82.00998126204959
 20
-123.9531575210951
 10
82.00998126204959
 20
-124.2453016182442
 10
82.33795435224538
 20
-124.2852647258731
 10
82.54293753361775
 20
-124.2980115791686
 10
82.46473386610258
 20
-124.2049940010668
 10
82.40547822375628
 20
-124.1371256200074
 10
82.40547822375628
 20
-123.9552245783862
 10
82.40547822375628
 20
-123.7753905940562
 10
82.51365422199312
 20
-123.4729112104512
 10
82.91983097970407
 20
-123.4729112104512
 10
83.23919133118673
 20
-123.4729112104512
 10
83.45898842314567
 20
-123.6720377294987
 10
83.45898842314567
 20
-123.9893310236902
 97
        0
 97
        0
 92
        1
 93
        1
 72
     4
 94
        3
 73
     0
 74
     1
 95
       17
 96
       13
 40
0.0
 40
0.0
 40
0.0
 40
0.0
 40
1.0
 40
1.0
 40
1.0
 40
2.0
 40
2.0
 40
2.0
 40
3.0
 40
3.0
 40
3.0
 40
4.0
 40
4.0
 40
4.0
 40
4.0
 10
82.60012611867289
 20
-123.9724500558124
 10
82.60012611867289
 20
-124.23462182224
 10
82.81165498146723
 20
-124.2725178725777
 10
82.92809920886867
 20
-124.2725178725777
 10
83.10379907861642
 20
-124.2725178725777
 10
83.26675209506874
 20
-124.1774332371848
 10
83.26675209506874
 20
-123.9934651382725
 10
83.26675209506874
 20
-123.8728867962887
 10
83.20749645272244
 20
-123.697186926541
 10
82.92189803699523
 20
-123.697186926541
 10
82.69762232090545
 20
-123.697186926541
 10
82.60012611867289
 20
-123.8367132936936
 10
82.60012611867289
 20
-123.9724500558124
 97
        0
 97
        0
 75
     2
 76
     1
 98
        0
  0
ENDBLK
  5
69
330
66
100
AcDbEntity
  8
0
100
AcDbBlockEnd
  0
BLOCK
  5
7D
330
7B
100
AcDbEntity
  8
0
100
AcDbBlockBegin
  2
block 4
 70
     0
 10
0.0
 20
0.0
 30
0.0
  3
block 4
  1

  0
SPLINE
  5
7F
330
7B
100
AcDbEntity
  8
_U+30EC_U+30A4_U+30E4_U+30FC 1
370
     0
100
AcDbSpline
210
0.0
220
0.0
230
1.0
 70
    11
 71
     3
 72
    62
 73
    58
 74
     0
 42
0.0000000001
 43
0.0000000001
 12
1.0
 22
0.0
 32
0.0
 13
1.0
 23
0.0
 33
0.0
 40
0.0
 40
0.0
 40
0.0
 40
0.0
 40
1.0
 40
1.0
 40
1.0
 40
2.0
 40
2.0
 40
2.0
 40
3.0
 40
3.0
 40
3.0
 40
4.0
 40
4.0
 40
4.0
 40
5.0
 40
5.0
 40
5.0
 40
6.0
 40
6.0
 40
6.0
 40
7.0
 40
7.0
 40
7.0
 40
8.0
 40
8.0
 40
8.0
 40
9.0
 40
9.0
 40
9.0
 40
10.0
 40
10.0
 40
10.0
 40
11.0
 40
11.0
 40
11.0
 40
12.0
 40
12.0
 40
12.0
 40
13.0
 40
13.0
 40
13.0
 40
14.0
 40
14.0
 40
14.0
 40
15.0
 40
15.0
 40
15.0
 40
16.0
 40
16.0
 40
16.0
 40
17.0
 40
17.0
 40
17.0
 40
18.0
 40
18.0
 40
18.0
 40
19.0
 40
19.0
 40
19.0
 40
19.0
 10
96.03410370863037
 20
-117.6875623620712
 30
0.0
 10
95.93867456368895
 20
-117.6875623620712
 30
0.0
 10
95.72094452902115
 20
-117.6665472796112
 30
0.0
 10
95.59588756290658
 20
-117.4805121234076
 30
0.0
 10
95.52181800997371
 20
-117.3682020105885
 30
0.0
 10
95.51768389539141
 20
-117.2689832606133
 30
0.0
 10
95.51354978080911
 20
-117.1842339116762
 30
0.0
 10
95.51354978080911
 20
-117.1842339116762
 30
0.0
 10
95.73369138231658
 20
-117.1842339116762
 30
0.0
 10
95.73369138231658
 20
-117.1842339116762
 30
0.0
 10
95.73575843960774
 20
-117.258303464609
 30
0.0
 10
95.74609372606348
 20
-117.4929144671545
 30
0.0
 10
96.02962508449954
 20
-117.4929144671545
 30
0.0
 10
96.16708439436101
 20
-117.4929144671545
 30
0.0
 10
96.31970212435758
 20
-117.4233235383525
 30
0.0
 10
96.31970212435758
 20
-117.1949137076804
 30
0.0
 10
96.31970212435758
 20
-117.078469480279
 30
0.0
 10
96.2814615644713
 20
-117.029893633937
 30
0.0
 10
96.249766686007
 20
-116.9981987554727
 30
0.0
 10
96.17569713307414
 20
-116.9241292025398
 30
0.0
 10
96.0592529056727
 20
-116.9113823492444
 30
0.0
 10
96.00447588745722
 20
-116.9113823492444
 30
0.0
 10
95.98518335273982
 20
-116.9113823492444
 30
0.0
 10
95.94935435969322
 20
-116.9134494065355
 30
0.0
 10
95.92179359581122
 20
-116.9175835211178
 30
0.0
 10
95.92179359581122
 20
-116.9175835211178
 30
0.0
 10
95.92179359581122
 20
-116.7229356262012
 30
0.0
 10
95.92179359581122
 20
-116.7229356262012
 30
0.0
 10
95.9600341556975
 20
-116.7294813076232
 30
0.0
 10
96.00206432061755
 20
-116.7315483649143
 30
0.0
 10
96.00861000203952
 20
-116.7315483649143
 30
0.0
 10
96.07406681625926
 20
-116.7315483649143
 30
0.0
 10
96.27284882575817
 20
-116.7101887729058
 30
0.0
 10
96.27284882575817
 20
-116.4735107130691
 30
0.0
 10
96.27284882575817
 20
-116.2957437860302
 30
0.0
 10
96.14193519731869
 20
-116.2406222582662
 30
0.0
 10
96.03169214179069
 20
-116.2406222582662
 30
0.0
 10
95.76745331807203
 20
-116.2406222582662
 30
0.0
 10
95.7588405793589
 20
-116.4735107130691
 30
0.0
 10
95.7547064647766
 20
-116.5451686991623
 30
0.0
 10
95.7547064647766
 20
-116.5451686991623
 30
0.0
 10
95.55144583114686
 20
-116.5451686991623
 30
0.0
 10
95.55144583114686
 20
-116.5451686991623
 30
0.0
 10
95.56005856985999
 20
-116.4204562425963
 30
0.0
 10
95.58761933374198
 20
-116.0439073060585
 30
0.0
 10
96.04443899508611
 20
-116.0439073060585
 30
0.0
 10
96.26871471117587
 20
-116.0439073060585
 30
0.0
 10
96.50987139514336
 20
-116.1710313294642
 30
0.0
 10
96.50987139514336
 20
-116.4669650316471
 30
0.0
 10
96.50987139514336
 20
-116.6533446973992
 30
0.0
 10
96.41478675975047
 20
-116.7356824794966
 30
0.0
 10
96.31522350022675
 20
-116.7970051791341
 30
0.0
 10
96.37654619986421
 20
-116.8245659430161
 30
0.0
 10
96.5584472414854
 20
-116.9048366678224
 30
0.0
 10
96.5584472414854
 20
-117.182166854385
 30
0.0
 10
96.5584472414854
 20
-117.5204752310366
 30
0.0
 10
96.31108938564445
 20
-117.6875623620712
 30
0.0
 10
96.03410370863037
 20
-117.6875623620712
 30
0.0
  0
HATCH
  5
80
330
7B
100
AcDbEntity
  8
_U+30EC_U+30A4_U+30E4_U+30FC 1
 62
     7
420
 16777215
100
AcDbHatch
 10
0.0
 20
0.0
 30
0.0
210
0.0
220
0.0
230
1.0
  2
SOLID
 70
     1
 71
     0
 91
        1
 92
        1
 93
        1
 72
     4
 94
        3
 73
     0
 74
     1
 95
       62
 96
       58
 40
0.0
 40
0.0
 40
0.0
 40
0.0
 40
1.0
 40
1.0
 40
1.0
 40
2.0
 40
2.0
 40
2.0
 40
3.0
 40
3.0
 40
3.0
 40
4.0
 40
4.0
 40
4.0
 40
5.0
 40
5.0
 40
5.0
 40
6.0
 40
6.0
 40
6.0
 40
7.0
 40
7.0
 40
7.0
 40
8.0
 40
8.0
 40
8.0
 40
9.0
 40
9.0
 40
9.0
 40
10.0
 40
10.0
 40
10.0
 40
11.0
 40
11.0
 40
11.0
 40
12.0
 40
12.0
 40
12.0
 40
13.0
 40
13.0
 40
13.0
 40
14.0
 40
14.0
 40
14.0
 40
15.0
 40
15.0
 40
15.0
 40
16.0
 40
16.0
 40
16.0
 40
17.0
 40
17.0
 40
17.0
 40
18.0
 40
18.0
 40
18.0
 40
19.0
 40
19.0
 40
19.0
 40
19.0
 10
96.03410370863037
 20
-117.6875623620712
 10
95.93867456368895
 20
-117.6875623620712
 10
95.72094452902115
 20
-117.6665472796112
 10
95.59588756290658
 20
-117.4805121234076
 10
95.52181800997371
 20
-117.3682020105885
 10
95.51768389539141
 20
-117.2689832606133
 10
95.51354978080911
 20
-117.1842339116762
 10
95.51354978080911
 20
-117.1842339116762
 10
95.73369138231658
 20
-117.1842339116762
 10
95.73369138231658
 20
-117.1842339116762
 10
95.73575843960774
 20
-117.258303464609
 10
95.74609372606348
 20
-117.4929144671545
 10
96.02962508449954
 20
-117.4929144671545
 10
96.16708439436101
 20
-117.4929144671545
 10
96.31970212435758
 20
-117.4233235383525
 10
96.31970212435758
 20
-117.1949137076804
 10
96.31970212435758
 20
-117.078469480279
 10
96.2814615644713
 20
-117.029893633937
 10
96.249766686007
 20
-116.9981987554727
 10
96.17569713307414
 20
-116.9241292025398
 10
96.0592529056727
 20
-116.9113823492444
 10
96.00447588745722
 20
-116.9113823492444
 10
95.98518335273982
 20
-116.9113823492444
 10
95.94935435969322
 20
-116.9134494065355
 10
95.92179359581122
 20
-116.9175835211178
 10
95.92179359581122
 20
-116.9175835211178
 10
95.92179359581122
 20
-116.7229356262012
 10
95.92179359581122
 20
-116.7229356262012
 10
95.9600341556975
 20
-116.7294813076232
 10
96.00206432061755
 20
-116.7315483649143
 10
96.00861000203952
 20
-116.7315483649143
 10
96.07406681625926
 20
-116.7315483649143
 10
96.27284882575817
 20
-116.7101887729058
 10
96.27284882575817
 20
-116.4735107130691
 10
96.27284882575817
 20
-116.2957437860302
 10
96.14193519731869
 20
-116.2406222582662
 10
96.03169214179069
 20
-116.2406222582662
 10
95.76745331807203
 20
-116.2406222582662
 10
95.7588405793589
 20
-116.4735107130691
 10
95.7547064647766
 20
-116.5451686991623
 10
95.7547064647766
 20
-116.5451686991623
 10
95.55144583114686
 20
-116.5451686991623
 10
95.55144583114686
 20
-116.5451686991623
 10
95.56005856985999
 20
-116.4204562425963
 10
95.58761933374198
 20
-116.0439073060585
 10
96.04443899508611
 20
-116.0439073060585
 10
96.26871471117587
 20
-116.0439073060585
 10
96.50987139514336
 20
-116.1710313294642
 10
96.50987139514336
 20
-116.4669650316471
 10
96.50987139514336
 20
-116.6533446973992
 10
96.41478675975047
 20
-116.7356824794966
 10
96.31522350022675
 20
-116.7970051791341
 10
96.37654619986421
 20
-116.8245659430161
 10
96.5584472414854
 20
-116.9048366678224
 10
96.5584472414854
 20
-117.182166854385
 10
96.5584472414854
 20
-117.5204752310366
 10
96.31108938564445
 20
-117.6875623620712
 10
96.03410370863037
 20
-117.6875623620712
 97
        0
 97
        0
 75
     2
 76
     1
 98
        0
  0
ENDBLK
  5
7E
330
7B
100
AcDbEntity
  8
0
100
AcDbBlockEnd
  0
BLOCK
  5
8C
330
8A
100
AcDbEntity
  8
0
100
AcDbBlockBegin
  2
block 5
 70
     0
 10
0.0
 20
0.0
 30
0.0
  3
block 5
  1

  0
SPLINE
  5
8E
330
8A
100
AcDbEntity
  8
_U+30EC_U+30A4_U+30E4_U+30FC 1
370
     0
100
AcDbSpline
210
0.0
220
0.0
230
1.0
 70
    11
 71
     3
 72
    32
 73
    28
 74
     0
 42
0.0000000001
 43
0.0000000001
 12
1.0
 22
0.0
 32
0.0
 13
1.0
 23
0.0
 33
0.0
 40
0.0
 40
0.0
 40
0.0
 40
0.0
 40
1.0
 40
1.0
 40
1.0
 40
2.0
 40
2.0
 40
2.0
 40
3.0
 40
3.0
 40
3.0
 40
4.0
 40
4.0
 40
4.0
 40
5.0
 40
5.0
 40
5.0
 40
6.0
 40
6.0
 40
6.0
 40
7.0
 40
7.0
 40
7.0
 40
8.0
 40
8.0
 40
8.0
 40
9.0
 40
9.0
 40
9.0
 40
9.0
 10
91.54652232954393
 20
-117.6875623620712
 30
0.0
 10
91.0304470258535
 20
-117.6875623620712
 30
0.0
 10
91.02183428714038
 20
-117.133591008043
 30
0.0
 10
91.02183428714038
 20
-116.919650578409
 30
0.0
 10
91.02183428714038
 20
-116.6891736904458
 30
0.0
 10
91.04112682185777
 20
-116.0418402487673
 30
0.0
 10
91.58476288943021
 20
-116.0418402487673
 30
0.0
 10
91.75805119233827
 20
-116.0418402487673
 30
0.0
 10
92.00368650043659
 20
-116.1117756871179
 30
0.0
 10
92.04158255077434
 20
-116.443882891896
 30
0.0
 10
92.04158255077434
 20
-116.443882891896
 30
0.0
 10
91.82798663068884
 20
-116.443882891896
 30
0.0
 10
91.82798663068884
 20
-116.443882891896
 30
0.0
 10
91.81730683468457
 20
-116.3866943068408
 30
0.0
 10
91.78561195622027
 20
-116.2385552009751
 30
0.0
 10
91.58269583213905
 20
-116.2385552009751
 30
0.0
 10
91.29055173498986
 20
-116.2385552009751
 30
0.0
 10
91.25058862736097
 20
-116.5665282911709
 30
0.0
 10
91.23784177406554
 20
-116.7715114725432
 30
0.0
 10
91.3308593521673
 20
-116.6933078050281
 30
0.0
 10
91.3987277332267
 20
-116.6340521626818
 30
0.0
 10
91.58062877484791
 20
-116.6340521626818
 30
0.0
 10
91.76046275917794
 20
-116.6340521626818
 30
0.0
 10
92.06294214278287
 20
-116.7422281609186
 30
0.0
 10
92.06294214278287
 20
-117.1484049186296
 30
0.0
 10
92.06294214278287
 20
-117.4677652701122
 30
0.0
 10
91.86381562373543
 20
-117.6875623620712
 30
0.0
 10
91.54652232954393
 20
-117.6875623620712
 30
0.0
  0
SPLINE
  5
8F
330
8A
100
AcDbEntity
  8
_U+30EC_U+30A4_U+30E4_U+30FC 1
370
     0
100
AcDbSpline
210
0.0
220
0.0
230
1.0
 70
    11
 71
     3
 72
    17
 73
    13
 74
     0
 42
0.0000000001
 43
0.0000000001
 12
1.0
 22
0.0
 32
0.0
 13
1.0
 23
0.0
 33
0.0
 40
0.0
 40
0.0
 40
0.0
 40
0.0
 40
1.0
 40
1.0
 40
1.0
 40
2.0
 40
2.0
 40
2.0
 40
3.0
 40
3.0
 40
3.0
 40
4.0
 40
4.0
 40
4.0
 40
4.0
 10
91.56340329742166
 20
-116.8287000575984
 30
0.0
 10
91.30123153099414
 20
-116.8287000575984
 30
0.0
 10
91.2633354806564
 20
-117.0402289203927
 30
0.0
 10
91.2633354806564
 20
-117.1566731477942
 30
0.0
 10
91.2633354806564
 20
-117.3323730175419
 30
0.0
 10
91.35842011604929
 20
-117.4953260339942
 30
0.0
 10
91.54238821496163
 20
-117.4953260339942
 30
0.0
 10
91.66296655694538
 20
-117.4953260339942
 30
0.0
 10
91.83866642669311
 20
-117.4360703916479
 30
0.0
 10
91.83866642669311
 20
-117.1504719759207
 30
0.0
 10
91.83866642669311
 20
-116.926196259831
 30
0.0
 10
91.6991400595405
 20
-116.8287000575984
 30
0.0
 10
91.56340329742166
 20
-116.8287000575984
 30
0.0
  0
HATCH
  5
90
330
8A
100
AcDbEntity
  8
_U+30EC_U+30A4_U+30E4_U+30FC 1
 62
     7
420
 16777215
100
AcDbHatch
 10
0.0
 20
0.0
 30
0.0
210
0.0
220
0.0
230
1.0
  2
SOLID
 70
     1
 71
     0
 91
        2
 92
        1
 93
        1
 72
     4
 94
        3
 73
     0
 74
     1
 95
       32
 96
       28
 40
0.0
 40
0.0
 40
0.0
 40
0.0
 40
1.0
 40
1.0
 40
1.0
 40
2.0
 40
2.0
 40
2.0
 40
3.0
 40
3.0
 40
3.0
 40
4.0
 40
4.0
 40
4.0
 40
5.0
 40
5.0
 40
5.0
 40
6.0
 40
6.0
 40
6.0
 40
7.0
 40
7.0
 40
7.0
 40
8.0
 40
8.0
 40
8.0
 40
9.0
 40
9.0
 40
9.0
 40
9.0
 10
91.54652232954393
 20
-117.6875623620712
 10
91.0304470258535
 20
-117.6875623620712
 10
91.02183428714038
 20
-117.133591008043
 10
91.02183428714038
 20
-116.919650578409
 10
91.02183428714038
 20
-116.6891736904458
 10
91.04112682185777
 20
-116.0418402487673
 10
91.58476288943021
 20
-116.0418402487673
 10
91.75805119233827
 20
-116.0418402487673
 10
92.00368650043659
 20
-116.1117756871179
 10
92.04158255077434
 20
-116.443882891896
 10
92.04158255077434
 20
-116.443882891896
 10
91.82798663068884
 20
-116.443882891896
 10
91.82798663068884
 20
-116.443882891896
 10
91.81730683468457
 20
-116.3866943068408
 10
91.78561195622027
 20
-116.2385552009751
 10
91.58269583213905
 20
-116.2385552009751
 10
91.29055173498986
 20
-116.2385552009751
 10
91.25058862736097
 20
-116.5665282911709
 10
91.23784177406554
 20
-116.7715114725432
 10
91.3308593521673
 20
-116.6933078050281
 10
91.3987277332267
 20
-116.6340521626818
 10
91.58062877484791
 20
-116.6340521626818
 10
91.76046275917794
 20
-116.6340521626818
 10
92.06294214278287
 20
-116.7422281609186
 10
92.06294214278287
 20
-117.1484049186296
 10
92.06294214278287
 20
-117.4677652701122
 10
91.86381562373543
 20
-117.6875623620712
 10
91.54652232954393
 20
-117.6875623620712
 97
        0
 97
        0
 92
        1
 93
        1
 72
     4
 94
        3
 73
     0
 74
     1
 95
       17
 96
       13
 40
0.0
 40
0.0
 40
0.0
 40
0.0
 40
1.0
 40
1.0
 40
1.0
 40
2.0
 40
2.0
 40
2.0
 40
3.0
 40
3.0
 40
3.0
 40
4.0
 40
4.0
 40
4.0
 40
4.0
 10
91.56340329742166
 20
-116.8287000575984
 10
91.30123153099414
 20
-116.8287000575984
 10
91.2633354806564
 20
-117.0402289203927
 10
91.2633354806564
 20
-117.1566731477942
 10
91.2633354806564
 20
-117.3323730175419
 10
91.35842011604929
 20
-117.4953260339942
 10
91.54238821496163
 20
-117.4953260339942
 10
91.66296655694538
 20
-117.4953260339942
 10
91.83866642669311
 20
-117.4360703916479
 10
91.83866642669311
 20
-117.1504719759207
 10
91.83866642669311
 20
-116.926196259831
 10
91.6991400595405
 20
-116.8287000575984
 10
91.56340329742166
 20
-116.8287000575984
 97
        0
 97
        0
 75
     2
 76
     1
 98
        0
  0
ENDBLK
  5
8D
330
8A
100
AcDbEntity
  8
0
100
AcDbBlockEnd
  0
BLOCK
  5
9C
330
9A
100
AcDbEntity
  8
0
100
AcDbBlockBegin
  2
block 6
 70
     0
 10
0.0
 20
0.0
 30
0.0
  3
block 6
  1

  0
SPLINE
  5
9E
330
9A
100
AcDbEntity
  8
_U+30EC_U+30A4_U+30E4_U+30FC 1
370
     0
100
AcDbSpline
210
0.0
220
0.0
230
1.0
 70
    11
 71
     3
 72
    62
 73
    58
 74
     0
 42
0.0000000001
 43
0.0000000001
 12
1.0
 22
0.0
 32
0.0
 13
1.0
 23
0.0
 33
0.0
 40
0.0
 40
0.0
 40
0.0
 40
0.0
 40
1.0
 40
1.0
 40
1.0
 40
2.0
 40
2.0
 40
2.0
 40
3.0
 40
3.0
 40
3.0
 40
4.0
 40
4.0
 40
4.0
 40
5.0
 40
5.0
 40
5.0
 40
6.0
 40
6.0
 40
6.0
 40
7.0
 40
7.0
 40
7.0
 40
8.0
 40
8.0
 40
8.0
 40
9.0
 40
9.0
 40
9.0
 40
10.0
 40
10.0
 40
10.0
 40
11.0
 40
11.0
 40
11.0
 40
12.0
 40
12.0
 40
12.0
 40
13.0
 40
13.0
 40
13.0
 40
14.0
 40
14.0
 40
14.0
 40
15.0
 40
15.0
 40
15.0
 40
16.0
 40
16.0
 40
16.0
 40
17.0
 40
17.0
 40
17.0
 40
18.0
 40
18.0
 40
18.0
 40
19.0
 40
19.0
 40
19.0
 40
19.0
 10
87.0341362629637
 20
-117.6875623620712
 30
0.0
 10
86.93870711802226
 20
-117.6875623620712
 30
0.0
 10
86.72097708335448
 20
-117.6665472796112
 30
0.0
 10
86.59592011723991
 20
-117.4805121234076
 30
0.0
 10
86.52185056430704
 20
-117.3682020105885
 30
0.0
 10
86.51771644972474
 20
-117.2689832606133
 30
0.0
 10
86.51358233514244
 20
-117.1842339116762
 30
0.0
 10
86.51358233514244
 20
-117.1842339116762
 30
0.0
 10
86.73372393664991
 20
-117.1842339116762
 30
0.0
 10
86.73372393664991
 20
-117.1842339116762
 30
0.0
 10
86.73579099394105
 20
-117.258303464609
 30
0.0
 10
86.74612628039681
 20
-117.4929144671545
 30
0.0
 10
87.02965763883287
 20
-117.4929144671545
 30
0.0
 10
87.16711694869434
 20
-117.4929144671545
 30
0.0
 10
87.3197346786909
 20
-117.4233235383525
 30
0.0
 10
87.3197346786909
 20
-117.1949137076804
 30
0.0
 10
87.3197346786909
 20
-117.078469480279
 30
0.0
 10
87.28149411880463
 20
-117.029893633937
 30
0.0
 10
87.24979924034034
 20
-116.9981987554727
 30
0.0
 10
87.17572968740745
 20
-116.9241292025398
 30
0.0
 10
87.05928546000601
 20
-116.9113823492444
 30
0.0
 10
87.00450844179055
 20
-116.9113823492444
 30
0.0
 10
86.98521590707314
 20
-116.9113823492444
 30
0.0
 10
86.94938691402655
 20
-116.9134494065355
 30
0.0
 10
86.92182615014455
 20
-116.9175835211178
 30
0.0
 10
86.92182615014455
 20
-116.9175835211178
 30
0.0
 10
86.92182615014455
 20
-116.7229356262012
 30
0.0
 10
86.92182615014455
 20
-116.7229356262012
 30
0.0
 10
86.96006671003082
 20
-116.7294813076232
 30
0.0
 10
87.00209687495087
 20
-116.7315483649143
 30
0.0
 10
87.00864255637285
 20
-116.7315483649143
 30
0.0
 10
87.07409937059259
 20
-116.7315483649143
 30
0.0
 10
87.2728813800915
 20
-116.7101887729058
 30
0.0
 10
87.2728813800915
 20
-116.4735107130691
 30
0.0
 10
87.2728813800915
 20
-116.2957437860302
 30
0.0
 10
87.14196775165202
 20
-116.2406222582662
 30
0.0
 10
87.03172469612402
 20
-116.2406222582662
 30
0.0
 10
86.76748587240536
 20
-116.2406222582662
 30
0.0
 10
86.75887313369223
 20
-116.4735107130691
 30
0.0
 10
86.75473901910993
 20
-116.5451686991623
 30
0.0
 10
86.75473901910993
 20
-116.5451686991623
 30
0.0
 10
86.5514783854802
 20
-116.5451686991623
 30
0.0
 10
86.5514783854802
 20
-116.5451686991623
 30
0.0
 10
86.56009112419332
 20
-116.4204562425963
 30
0.0
 10
86.58765188807531
 20
-116.0439073060585
 30
0.0
 10
87.04447154941944
 20
-116.0439073060585
 30
0.0
 10
87.2687472655092
 20
-116.0439073060585
 30
0.0
 10
87.5099039494767
 20
-116.1710313294642
 30
0.0
 10
87.5099039494767
 20
-116.4669650316471
 30
0.0
 10
87.5099039494767
 20
-116.6533446973992
 30
0.0
 10
87.4148193140838
 20
-116.7356824794966
 30
0.0
 10
87.31525605456008
 20
-116.7970051791341
 30
0.0
 10
87.37657875419752
 20
-116.8245659430161
 30
0.0
 10
87.55847979581871
 20
-116.9048366678224
 30
0.0
 10
87.55847979581871
 20
-117.182166854385
 30
0.0
 10
87.55847979581871
 20
-117.5204752310366
 30
0.0
 10
87.31112193997778
 20
-117.6875623620712
 30
0.0
 10
87.0341362629637
 20
-117.6875623620712
 30
0.0
  0
HATCH
  5
9F
330
9A
100
AcDbEntity
  8
_U+30EC_U+30A4_U+30E4_U+30FC 1
 62
     7
420
 16777215
100
AcDbHatch
 10
0.0
 20
0.0
 30
0.0
210
0.0
220
0.0
230
1.0
  2
SOLID
 70
     1
 71
     0
 91
        1
 92
        1
 93
        1
 72
     4
 94
        3
 73
     0
 74
     1
 95
       62
 96
       58
 40
0.0
 40
0.0
 40
0.0
 40
0.0
 40
1.0
 40
1.0
 40
1.0
 40
2.0
 40
2.0
 40
2.0
 40
3.0
 40
3.0
 40
3.0
 40
4.0
 40
4.0
 40
4.0
 40
5.0
 40
5.0
 40
5.0
 40
6.0
 40
6.0
 40
6.0
 40
7.0
 40
7.0
 40
7.0
 40
8.0
 40
8.0
 40
8.0
 40
9.0
 40
9.0
 40
9.0
 40
10.0
 40
10.0
 40
10.0
 40
11.0
 40
11.0
 40
11.0
 40
12.0
 40
12.0
 40
12.0
 40
13.0
 40
13.0
 40
13.0
 40
14.0
 40
14.0
 40
14.0
 40
15.0
 40
15.0
 40
15.0
 40
16.0
 40
16.0
 40
16.0
 40
17.0
 40
17.0
 40
17.0
 40
18.0
 40
18.0
 40
18.0
 40
19.0
 40
19.0
 40
19.0
 40
19.0
 10
87.0341362629637
 20
-117.6875623620712
 10
86.93870711802226
 20
-117.6875623620712
 10
86.72097708335448
 20
-117.6665472796112
 10
86.59592011723991
 20
-117.4805121234076
 10
86.52185056430704
 20
-117.3682020105885
 10
86.51771644972474
 20
-117.2689832606133
 10
86.51358233514244
 20
-117.1842339116762
 10
86.51358233514244
 20
-117.1842339116762
 10
86.73372393664991
 20
-117.1842339116762
 10
86.73372393664991
 20
-117.1842339116762
 10
86.73579099394105
 20
-117.258303464609
 10
86.74612628039681
 20
-117.4929144671545
 10
87.02965763883287
 20
-117.4929144671545
 10
87.16711694869434
 20
-117.4929144671545
 10
87.3197346786909
 20
-117.4233235383525
 10
87.3197346786909
 20
-117.1949137076804
 10
87.3197346786909
 20
-117.078469480279
 10
87.28149411880463
 20
-117.029893633937
 10
87.24979924034034
 20
-116.9981987554727
 10
87.17572968740745
 20
-116.9241292025398
 10
87.05928546000601
 20
-116.9113823492444
 10
87.00450844179055
 20
-116.9113823492444
 10
86.98521590707314
 20
-116.9113823492444
 10
86.94938691402655
 20
-116.9134494065355
 10
86.92182615014455
 20
-116.9175835211178
 10
86.92182615014455
 20
-116.9175835211178
 10
86.92182615014455
 20
-116.7229356262012
 10
86.92182615014455
 20
-116.7229356262012
 10
86.96006671003082
 20
-116.7294813076232
 10
87.00209687495087
 20
-116.7315483649143
 10
87.00864255637285
 20
-116.7315483649143
 10
87.07409937059259
 20
-116.7315483649143
 10
87.2728813800915
 20
-116.7101887729058
 10
87.2728813800915
 20
-116.4735107130691
 10
87.2728813800915
 20
-116.2957437860302
 10
87.14196775165202
 20
-116.2406222582662
 10
87.03172469612402
 20
-116.2406222582662
 10
86.76748587240536
 20
-116.2406222582662
 10
86.75887313369223
 20
-116.4735107130691
 10
86.75473901910993
 20
-116.5451686991623
 10
86.75473901910993
 20
-116.5451686991623
 10
86.5514783854802
 20
-116.5451686991623
 10
86.5514783854802
 20
-116.5451686991623
 10
86.56009112419332
 20
-116.4204562425963
 10
86.58765188807531
 20
-116.0439073060585
 10
87.04447154941944
 20
-116.0439073060585
 10
87.2687472655092
 20
-116.0439073060585
 10
87.5099039494767
 20
-116.1710313294642
 10
87.5099039494767
 20
-116.4669650316471
 10
87.5099039494767
 20
-116.6533446973992
 10
87.4148193140838
 20
-116.7356824794966
 10
87.31525605456008
 20
-116.7970051791341
 10
87.37657875419752
 20
-116.8245659430161
 10
87.55847979581871
 20
-116.9048366678224
 10
87.55847979581871
 20
-117.182166854385
 10
87.55847979581871
 20
-117.5204752310366
 10
87.31112193997778
 20
-117.6875623620712
 10
87.0341362629637
 20
-117.6875623620712
 97
        0
 97
        0
 75
     2
 76
     1
 98
        0
  0
ENDBLK
  5
9D
330
9A
100
AcDbEntity
  8
0
100
AcDbBlockEnd
  0
BLOCK
  5
AF
330
AD
100
AcDbEntity
  8
0
100
AcDbBlockBegin
  2
block 7
 70
     0
 10
0.0
 20
0.0
 30
0.0
  3
block 7
  1

  0
SPLINE
  5
B1
330
AD
100
AcDbEntity
  8
_U+30EC_U+30A4_U+30E4_U+30FC 1
370
     0
100
AcDbSpline
210
0.0
220
0.0
230
1.0
 70
    11
 71
     3
 72
    26
 73
    22
 74
     0
 42
0.0000000001
 43
0.0000000001
 12
1.0
 22
0.0
 32
0.0
 13
1.0
 23
0.0
 33
0.0
 40
0.0
 40
0.0
 40
0.0
 40
0.0
 40
1.0
 40
1.0
 40
1.0
 40
2.0
 40
2.0
 40
2.0
 40
3.0
 40
3.0
 40
3.0
 40
4.0
 40
4.0
 40
4.0
 40
5.0
 40
5.0
 40
5.0
 40
6.0
 40
6.0
 40
6.0
 40
7.0
 40
7.0
 40
7.0
 40
7.0
 10
98.73850366455149
 20
-140.5874565620754
 30
0.0
 10
98.73850366455149
 20
-140.5874565620754
 30
0.0
 10
98.73850366455149
 20
-139.4833034590528
 30
0.0
 10
98.73850366455149
 20
-139.4833034590528
 30
0.0
 10
98.73850366455149
 20
-139.4833034590528
 30
0.0
 10
98.40846351706456
 20
-139.4833034590528
 30
0.0
 10
98.40846351706456
 20
-139.4833034590528
 30
0.0
 10
98.40846351706456
 20
-139.4833034590528
 30
0.0
 10
98.40846351706456
 20
-139.3351643531871
 30
0.0
 10
98.40846351706456
 20
-139.3351643531871
 30
0.0
 10
98.74057072184264
 20
-139.3203504426005
 30
0.0
 10
98.78742402044203
 20
-139.1573974261482
 30
0.0
 10
98.81705184161518
 20
-139.0430202560379
 30
0.0
 10
98.81705184161518
 20
-139.0430202560379
 30
0.0
 10
98.96312389018978
 20
-139.0430202560379
 30
0.0
 10
98.96312389018978
 20
-139.0430202560379
 30
0.0
 10
98.96312389018978
 20
-139.0430202560379
 30
0.0
 10
98.96312389018978
 20
-140.5874565620754
 30
0.0
 10
98.96312389018978
 20
-140.5874565620754
 30
0.0
 10
98.96312389018978
 20
-140.5874565620754
 30
0.0
 10
98.73850366455149
 20
-140.5874565620754
 30
0.0
 10
98.73850366455149
 20
-140.5874565620754
 30
0.0
  0
HATCH
  5
B2
330
AD
100
AcDbEntity
  8
_U+30EC_U+30A4_U+30E4_U+30FC 1
 62
     7
420
 16777215
100
AcDbHatch
 10
0.0
 20
0.0
 30
0.0
210
0.0
220
0.0
230
1.0
  2
SOLID
 70
     1
 71
     0
 91
        1
 92
        1
 93
        1
 72
     4
 94
        3
 73
     0
 74
     1
 95
       26
 96
       22
 40
0.0
 40
0.0
 40
0.0
 40
0.0
 40
1.0
 40
1.0
 40
1.0
 40
2.0
 40
2.0
 40
2.0
 40
3.0
 40
3.0
 40
3.0
 40
4.0
 40
4.0
 40
4.0
 40
5.0
 40
5.0
 40
5.0
 40
6.0
 40
6.0
 40
6.0
 40
7.0
 40
7.0
 40
7.0
 40
7.0
 10
98.73850366455149
 20
-140.5874565620754
 10
98.73850366455149
 20
-140.5874565620754
 10
98.73850366455149
 20
-139.4833034590528
 10
98.73850366455149
 20
-139.4833034590528
 10
98.73850366455149
 20
-139.4833034590528
 10
98.40846351706456
 20
-139.4833034590528
 10
98.40846351706456
 20
-139.4833034590528
 10
98.40846351706456
 20
-139.4833034590528
 10
98.40846351706456
 20
-139.3351643531871
 10
98.40846351706456
 20
-139.3351643531871
 10
98.74057072184264
 20
-139.3203504426005
 10
98.78742402044203
 20
-139.1573974261482
 10
98.81705184161518
 20
-139.0430202560379
 10
98.81705184161518
 20
-139.0430202560379
 10
98.96312389018978
 20
-139.0430202560379
 10
98.96312389018978
 20
-139.0430202560379
 10
98.96312389018978
 20
-139.0430202560379
 10
98.96312389018978
 20
-140.5874565620754
 10
98.96312389018978
 20
-140.5874565620754
 10
98.96312389018978
 20
-140.5874565620754
 10
98.73850366455149
 20
-140.5874565620754
 10
98.73850366455149
 20
-140.5874565620754
 97
        0
 97
        0
 75
     2
 76
     1
 98
        0
  0
SPLINE
  5
B3
330
AD
100
AcDbEntity
  8
_U+30EC_U+30A4_U+30E4_U+30FC 1
370
     0
100
AcDbSpline
210
0.0
220
0.0
230
1.0
 70
    11
 71
     3
 72
    29
 73
    25
 74
     0
 42
0.0000000001
 43
0.0000000001
 12
1.0
 22
0.0
 32
0.0
 13
1.0
 23
0.0
 33
0.0
 40
0.0
 40
0.0
 40
0.0
 40
0.0
 40
1.0
 40
1.0
 40
1.0
 40
2.0
 40
2.0
 40
2.0
 40
3.0
 40
3.0
 40
3.0
 40
4.0
 40
4.0
 40
4.0
 40
5.0
 40
5.0
 40
5.0
 40
6.0
 40
6.0
 40
6.0
 40
7.0
 40
7.0
 40
7.0
 40
8.0
 40
8.0
 40
8.0
 40
8.0
 10
100.3618326572012
 20
-140.4096896350365
 30
0.0
 10
100.2536566589644
 20
-140.6191514405397
 30
0.0
 10
100.0807128656048
 20
-140.6380994657085
 30
0.0
 10
99.96426863820338
 20
-140.6380994657085
 30
0.0
 10
99.80303816949369
 20
-140.6380994657085
 30
0.0
 10
99.66178925459845
 20
-140.5915906766577
 30
0.0
 10
99.56670461920555
 20
-140.4096896350365
 30
0.0
 10
99.462662735551
 20
-140.2150417401199
 30
0.0
 10
99.44405921993065
 20
-139.9783636802832
 30
0.0
 10
99.44405921993065
 20
-139.8154106638309
 30
0.0
 10
99.44405921993065
 20
-139.6714056725474
 30
0.0
 10
99.46059567825985
 20
-139.4195691925757
 30
0.0
 10
99.56670461920555
 20
-139.2207871830768
 30
0.0
 10
99.67419159834535
 20
-139.0178710589955
 30
0.0
 10
99.83542206705503
 20
-138.9944444096958
 30
0.0
 10
99.96426863820338
 20
-138.9944444096958
 30
0.0
 10
100.1227430305249
 20
-138.9944444096958
 30
0.0
 10
100.2667480218083
 20
-139.0388861414555
 30
0.0
 10
100.3618326572012
 20
-139.2207871830768
 30
0.0
 10
100.4610514071764
 20
-139.4133680207022
 30
0.0
 10
100.4844780564761
 20
-139.6417778513743
 30
0.0
 10
100.4844780564761
 20
-139.8154106638309
 30
0.0
 10
100.4844780564761
 20
-139.9866319094478
 30
0.0
 10
100.4631184644676
 20
-140.217108797411
 30
0.0
 10
100.3618326572012
 20
-140.4096896350365
 30
0.0
  0
SPLINE
  5
B4
330
AD
100
AcDbEntity
  8
_U+30EC_U+30A4_U+30E4_U+30FC 1
370
     0
100
AcDbSpline
210
0.0
220
0.0
230
1.0
 70
    11
 71
     3
 72
    17
 73
    13
 74
     0
 42
0.0000000001
 43
0.0000000001
 12
1.0
 22
0.0
 32
0.0
 13
1.0
 23
0.0
 33
0.0
 40
0.0
 40
0.0
 40
0.0
 40
0.0
 40
1.0
 40
1.0
 40
1.0
 40
2.0
 40
2.0
 40
2.0
 40
3.0
 40
3.0
 40
3.0
 40
4.0
 40
4.0
 40
4.0
 40
4.0
 10
99.96426863820338
 20
-139.1870252473213
 30
0.0
 10
99.71484372507129
 20
-139.1870252473213
 30
0.0
 10
99.6679904264719
 20
-139.4705566057574
 30
0.0
 10
99.6679904264719
 20
-139.8154106638309
 30
0.0
 10
99.6679904264719
 20
-140.1347710153135
 30
0.0
 10
99.7038194195185
 20
-140.4434515707919
 30
0.0
 10
99.96426863820338
 20
-140.4434515707919
 30
0.0
 10
100.2116264940443
 20
-140.4434515707919
 30
0.0
 10
100.2605468499349
 20
-140.1623317791955
 30
0.0
 10
100.2605468499349
 20
-139.8154106638309
 30
0.0
 10
100.2605468499349
 20
-139.4957058027997
 30
0.0
 10
100.2219617805001
 20
-139.1870252473213
 30
0.0
 10
99.96426863820338
 20
-139.1870252473213
 30
0.0
  0
HATCH
  5
B5
330
AD
100
AcDbEntity
  8
_U+30EC_U+30A4_U+30E4_U+30FC 1
 62
     7
420
 16777215
100
AcDbHatch
 10
0.0
 20
0.0
 30
0.0
210
0.0
220
0.0
230
1.0
  2
SOLID
 70
     1
 71
     0
 91
        2
 92
        1
 93
        1
 72
     4
 94
        3
 73
     0
 74
     1
 95
       29
 96
       25
 40
0.0
 40
0.0
 40
0.0
 40
0.0
 40
1.0
 40
1.0
 40
1.0
 40
2.0
 40
2.0
 40
2.0
 40
3.0
 40
3.0
 40
3.0
 40
4.0
 40
4.0
 40
4.0
 40
5.0
 40
5.0
 40
5.0
 40
6.0
 40
6.0
 40
6.0
 40
7.0
 40
7.0
 40
7.0
 40
8.0
 40
8.0
 40
8.0
 40
8.0
 10
100.3618326572012
 20
-140.4096896350365
 10
100.2536566589644
 20
-140.6191514405397
 10
100.0807128656048
 20
-140.6380994657085
 10
99.96426863820338
 20
-140.6380994657085
 10
99.80303816949369
 20
-140.6380994657085
 10
99.66178925459845
 20
-140.5915906766577
 10
99.56670461920555
 20
-140.4096896350365
 10
99.462662735551
 20
-140.2150417401199
 10
99.44405921993065
 20
-139.9783636802832
 10
99.44405921993065
 20
-139.8154106638309
 10
99.44405921993065
 20
-139.6714056725474
 10
99.46059567825985
 20
-139.4195691925757
 10
99.56670461920555
 20
-139.2207871830768
 10
99.67419159834535
 20
-139.0178710589955
 10
99.83542206705503
 20
-138.9944444096958
 10
99.96426863820338
 20
-138.9944444096958
 10
100.1227430305249
 20
-138.9944444096958
 10
100.2667480218083
 20
-139.0388861414555
 10
100.3618326572012
 20
-139.2207871830768
 10
100.4610514071764
 20
-139.4133680207022
 10
100.4844780564761
 20
-139.6417778513743
 10
100.4844780564761
 20
-139.8154106638309
 10
100.4844780564761
 20
-139.9866319094478
 10
100.4631184644676
 20
-140.217108797411
 10
100.3618326572012
 20
-140.4096896350365
 97
        0
 97
        0
 92
        1
 93
        1
 72
     4
 94
        3
 73
     0
 74
     1
 95
       17
 96
       13
 40
0.0
 40
0.0
 40
0.0
 40
0.0
 40
1.0
 40
1.0
 40
1.0
 40
2.0
 40
2.0
 40
2.0
 40
3.0
 40
3.0
 40
3.0
 40
4.0
 40
4.0
 40
4.0
 40
4.0
 10
99.96426863820338
 20
-139.1870252473213
 10
99.71484372507129
 20
-139.1870252473213
 10
99.6679904264719
 20
-139.4705566057574
 10
99.6679904264719
 20
-139.8154106638309
 10
99.6679904264719
 20
-140.1347710153135
 10
99.7038194195185
 20
-140.4434515707919
 10
99.96426863820338
 20
-140.4434515707919
 10
100.2116264940443
 20
-140.4434515707919
 10
100.2605468499349
 20
-140.1623317791955
 10
100.2605468499349
 20
-139.8154106638309
 10
100.2605468499349
 20
-139.4957058027997
 10
100.2219617805001
 20
-139.1870252473213
 10
99.96426863820338
 20
-139.1870252473213
 97
        0
 97
        0
 75
     2
 76
     1
 98
        0
  0
ENDBLK
  5
B0
330
AD
100
AcDbEntity
  8
0
100
AcDbBlockEnd
  0
BLOCK
  5
C6
330
C4
100
AcDbEntity
  8
0
100
AcDbBlockBegin
  2
block 8
 70
     0
 10
0.0
 20
0.0
 30
0.0
  3
block 8
  1

  0
SPLINE
  5
C8
330
C4
100
AcDbEntity
  8
_U+30EC_U+30A4_U+30E4_U+30FC 1
370
     0
100
AcDbSpline
210
0.0
220
0.0
230
1.0
 70
    11
 71
     3
 72
    26
 73
    22
 74
     0
 42
0.0000000001
 43
0.0000000001
 12
1.0
 22
0.0
 32
0.0
 13
1.0
 23
0.0
 33
0.0
 40
0.0
 40
0.0
 40
0.0
 40
0.0
 40
1.0
 40
1.0
 40
1.0
 40
2.0
 40
2.0
 40
2.0
 40
3.0
 40
3.0
 40
3.0
 40
4.0
 40
4.0
 40
4.0
 40
5.0
 40
5.0
 40
5.0
 40
6.0
 40
6.0
 40
6.0
 40
7.0
 40
7.0
 40
7.0
 40
7.0
 10
80.23782414443707
 20
-140.5874565620754
 30
0.0
 10
80.23782414443707
 20
-140.5874565620754
 30
0.0
 10
80.23782414443707
 20
-139.4833034590528
 30
0.0
 10
80.23782414443707
 20
-139.4833034590528
 30
0.0
 10
80.23782414443707
 20
-139.4833034590528
 30
0.0
 10
79.90778399695014
 20
-139.4833034590528
 30
0.0
 10
79.90778399695014
 20
-139.4833034590528
 30
0.0
 10
79.90778399695014
 20
-139.4833034590528
 30
0.0
 10
79.90778399695014
 20
-139.3351643531871
 30
0.0
 10
79.90778399695014
 20
-139.3351643531871
 30
0.0
 10
80.23989120172823
 20
-139.3203504426005
 30
0.0
 10
80.2863999907791
 20
-139.1573974261482
 30
0.0
 10
80.31602781195225
 20
-139.0430202560379
 30
0.0
 10
80.31602781195225
 20
-139.0430202560379
 30
0.0
 10
80.46209986052683
 20
-139.0430202560379
 30
0.0
 10
80.46209986052683
 20
-139.0430202560379
 30
0.0
 10
80.46209986052683
 20
-139.0430202560379
 30
0.0
 10
80.46209986052683
 20
-140.5874565620754
 30
0.0
 10
80.46209986052683
 20
-140.5874565620754
 30
0.0
 10
80.46209986052683
 20
-140.5874565620754
 30
0.0
 10
80.23782414443707
 20
-140.5874565620754
 30
0.0
 10
80.23782414443707
 20
-140.5874565620754
 30
0.0
  0
HATCH
  5
C9
330
C4
100
AcDbEntity
  8
_U+30EC_U+30A4_U+30E4_U+30FC 1
 62
     7
420
 16777215
100
AcDbHatch
 10
0.0
 20
0.0
 30
0.0
210
0.0
220
0.0
230
1.0
  2
SOLID
 70
     1
 71
     0
 91
        1
 92
        1
 93
        1
 72
     4
 94
        3
 73
     0
 74
     1
 95
       26
 96
       22
 40
0.0
 40
0.0
 40
0.0
 40
0.0
 40
1.0
 40
1.0
 40
1.0
 40
2.0
 40
2.0
 40
2.0
 40
3.0
 40
3.0
 40
3.0
 40
4.0
 40
4.0
 40
4.0
 40
5.0
 40
5.0
 40
5.0
 40
6.0
 40
6.0
 40
6.0
 40
7.0
 40
7.0
 40
7.0
 40
7.0
 10
80.23782414443707
 20
-140.5874565620754
 10
80.23782414443707
 20
-140.5874565620754
 10
80.23782414443707
 20
-139.4833034590528
 10
80.23782414443707
 20
-139.4833034590528
 10
80.23782414443707
 20
-139.4833034590528
 10
79.90778399695014
 20
-139.4833034590528
 10
79.90778399695014
 20
-139.4833034590528
 10
79.90778399695014
 20
-139.4833034590528
 10
79.90778399695014
 20
-139.3351643531871
 10
79.90778399695014
 20
-139.3351643531871
 10
80.23989120172823
 20
-139.3203504426005
 10
80.2863999907791
 20
-139.1573974261482
 10
80.31602781195225
 20
-139.0430202560379
 10
80.31602781195225
 20
-139.0430202560379
 10
80.46209986052683
 20
-139.0430202560379
 10
80.46209986052683
 20
-139.0430202560379
 10
80.46209986052683
 20
-139.0430202560379
 10
80.46209986052683
 20
-140.5874565620754
 10
80.46209986052683
 20
-140.5874565620754
 10
80.46209986052683
 20
-140.5874565620754
 10
80.23782414443707
 20
-140.5874565620754
 10
80.23782414443707
 20
-140.5874565620754
 97
        0
 97
        0
 75
     2
 76
     1
 98
        0
  0
SPLINE
  5
CA
330
C4
100
AcDbEntity
  8
_U+30EC_U+30A4_U+30E4_U+30FC 1
370
     0
100
AcDbSpline
210
0.0
220
0.0
230
1.0
 70
    11
 71
     3
 72
    53
 73
    49
 74
     0
 42
0.0000000001
 43
0.0000000001
 12
1.0
 22
0.0
 32
0.0
 13
1.0
 23
0.0
 33
0.0
 40
0.0
 40
0.0
 40
0.0
 40
0.0
 40
1.0
 40
1.0
 40
1.0
 40
2.0
 40
2.0
 40
2.0
 40
3.0
 40
3.0
 40
3.0
 40
4.0
 40
4.0
 40
4.0
 40
5.0
 40
5.0
 40
5.0
 40
6.0
 40
6.0
 40
6.0
 40
7.0
 40
7.0
 40
7.0
 40
8.0
 40
8.0
 40
8.0
 40
9.0
 40
9.0
 40
9.0
 40
10.0
 40
10.0
 40
10.0
 40
11.0
 40
11.0
 40
11.0
 40
12.0
 40
12.0
 40
12.0
 40
13.0
 40
13.0
 40
13.0
 40
14.0
 40
14.0
 40
14.0
 40
15.0
 40
15.0
 40
15.0
 40
16.0
 40
16.0
 40
16.0
 40
16.0
 10
81.44429658337157
 20
-140.6380994657085
 30
0.0
 10
81.3660929158564
 20
-140.6380994657085
 30
0.0
 10
81.26446259904152
 20
-140.6212184978308
 30
0.0
 10
81.16283228222666
 20
-140.5578287409022
 30
0.0
 10
80.98954397931858
 20
-140.4479301949227
 30
0.0
 10
80.96818438731005
 20
-140.3166720569347
 30
0.0
 10
80.94923636214116
 20
-140.2088405682464
 30
0.0
 10
80.94923636214116
 20
-140.2088405682464
 30
0.0
 10
81.17144502093979
 20
-140.2088405682464
 30
0.0
 10
81.17144502093979
 20
-140.2088405682464
 30
0.0
 10
81.22622203915526
 20
-140.4076225777453
 30
0.0
 10
81.35334606256097
 20
-140.4372503989185
 30
0.0
 10
81.44636364066272
 20
-140.4372503989185
 30
0.0
 10
81.58589000781534
 20
-140.4372503989185
 30
0.0
 10
81.73816322826337
 20
-140.3376871393947
 30
0.0
 10
81.73816322826337
 20
-140.1051431941404
 30
0.0
 10
81.73816322826337
 20
-139.8491725995863
 30
0.0
 10
81.55832924393334
 20
-139.7792371612358
 30
0.0
 10
81.4377509019496
 20
-139.7792371612358
 30
0.0
 10
81.40605602348529
 20
-139.7792371612358
 30
0.0
 10
81.26446259904152
 20
-139.7792371612358
 30
0.0
 10
81.17557913552209
 20
-139.9084282419326
 30
0.0
 10
81.17557913552209
 20
-139.9084282419326
 30
0.0
 10
80.99987926577434
 20
-139.8894802167638
 30
0.0
 10
80.99987926577434
 20
-139.8894802167638
 30
0.0
 10
80.99987926577434
 20
-139.8894802167638
 30
0.0
 10
81.12045760775808
 20
-139.0430202560379
 30
0.0
 10
81.12045760775808
 20
-139.0430202560379
 30
0.0
 10
81.12045760775808
 20
-139.0430202560379
 30
0.0
 10
81.89904918742455
 20
-139.0430202560379
 30
0.0
 10
81.89904918742455
 20
-139.0430202560379
 30
0.0
 10
81.89904918742455
 20
-139.0430202560379
 30
0.0
 10
81.89904918742455
 20
-139.2376681509545
 30
0.0
 10
81.89904918742455
 20
-139.2376681509545
 30
0.0
 10
81.89904918742455
 20
-139.2376681509545
 30
0.0
 10
81.2834106242104
 20
-139.2376681509545
 30
0.0
 10
81.2834106242104
 20
-139.2376681509545
 30
0.0
 10
81.2834106242104
 20
-139.2376681509545
 30
0.0
 10
81.21795380999066
 20
-139.6607258765432
 30
0.0
 10
81.21795380999066
 20
-139.6607258765432
 30
0.0
 10
81.2792765096281
 20
-139.6269639407877
 30
0.0
 10
81.36161429172557
 20
-139.5866563236103
 30
0.0
 10
81.48012557641816
 20
-139.5866563236103
 30
0.0
 10
81.73402911368107
 20
-139.5866563236103
 30
0.0
 10
81.97105168306626
 20
-139.7730359893623
 30
0.0
 10
81.97105168306626
 20
-140.0861951689715
 30
0.0
 10
81.97105168306626
 20
-140.403488463163
 30
0.0
 10
81.7467759669765
 20
-140.6380994657085
 30
0.0
 10
81.44429658337157
 20
-140.6380994657085
 30
0.0
  0
HATCH
  5
CB
330
C4
100
AcDbEntity
  8
_U+30EC_U+30A4_U+30E4_U+30FC 1
 62
     7
420
 16777215
100
AcDbHatch
 10
0.0
 20
0.0
 30
0.0
210
0.0
220
0.0
230
1.0
  2
SOLID
 70
     1
 71
     0
 91
        1
 92
        1
 93
        1
 72
     4
 94
        3
 73
     0
 74
     1
 95
       53
 96
       49
 40
0.0
 40
0.0
 40
0.0
 40
0.0
 40
1.0
 40
1.0
 40
1.0
 40
2.0
 40
2.0
 40
2.0
 40
3.0
 40
3.0
 40
3.0
 40
4.0
 40
4.0
 40
4.0
 40
5.0
 40
5.0
 40
5.0
 40
6.0
 40
6.0
 40
6.0
 40
7.0
 40
7.0
 40
7.0
 40
8.0
 40
8.0
 40
8.0
 40
9.0
 40
9.0
 40
9.0
 40
10.0
 40
10.0
 40
10.0
 40
11.0
 40
11.0
 40
11.0
 40
12.0
 40
12.0
 40
12.0
 40
13.0
 40
13.0
 40
13.0
 40
14.0
 40
14.0
 40
14.0
 40
15.0
 40
15.0
 40
15.0
 40
16.0
 40
16.0
 40
16.0
 40
16.0
 10
81.44429658337157
 20
-140.6380994657085
 10
81.3660929158564
 20
-140.6380994657085
 10
81.26446259904152
 20
-140.6212184978308
 10
81.16283228222666
 20
-140.5578287409022
 10
80.98954397931858
 20
-140.4479301949227
 10
80.96818438731005
 20
-140.3166720569347
 10
80.94923636214116
 20
-140.2088405682464
 10
80.94923636214116
 20
-140.2088405682464
 10
81.17144502093979
 20
-140.2088405682464
 10
81.17144502093979
 20
-140.2088405682464
 10
81.22622203915526
 20
-140.4076225777453
 10
81.35334606256097
 20
-140.4372503989185
 10
81.44636364066272
 20
-140.4372503989185
 10
81.58589000781534
 20
-140.4372503989185
 10
81.73816322826337
 20
-140.3376871393947
 10
81.73816322826337
 20
-140.1051431941404
 10
81.73816322826337
 20
-139.8491725995863
 10
81.55832924393334
 20
-139.7792371612358
 10
81.4377509019496
 20
-139.7792371612358
 10
81.40605602348529
 20
-139.7792371612358
 10
81.26446259904152
 20
-139.7792371612358
 10
81.17557913552209
 20
-139.9084282419326
 10
81.17557913552209
 20
-139.9084282419326
 10
80.99987926577434
 20
-139.8894802167638
 10
80.99987926577434
 20
-139.8894802167638
 10
80.99987926577434
 20
-139.8894802167638
 10
81.12045760775808
 20
-139.0430202560379
 10
81.12045760775808
 20
-139.0430202560379
 10
81.12045760775808
 20
-139.0430202560379
 10
81.89904918742455
 20
-139.0430202560379
 10
81.89904918742455
 20
-139.0430202560379
 10
81.89904918742455
 20
-139.0430202560379
 10
81.89904918742455
 20
-139.2376681509545
 10
81.89904918742455
 20
-139.2376681509545
 10
81.89904918742455
 20
-139.2376681509545
 10
81.2834106242104
 20
-139.2376681509545
 10
81.2834106242104
 20
-139.2376681509545
 10
81.2834106242104
 20
-139.2376681509545
 10
81.21795380999066
 20
-139.6607258765432
 10
81.21795380999066
 20
-139.6607258765432
 10
81.2792765096281
 20
-139.6269639407877
 10
81.36161429172557
 20
-139.5866563236103
 10
81.48012557641816
 20
-139.5866563236103
 10
81.73402911368107
 20
-139.5866563236103
 10
81.97105168306626
 20
-139.7730359893623
 10
81.97105168306626
 20
-140.0861951689715
 10
81.97105168306626
 20
-140.403488463163
 10
81.7467759669765
 20
-140.6380994657085
 10
81.44429658337157
 20
-140.6380994657085
 97
        0
 97
        0
 75
     2
 76
     1
 98
        0
  0
ENDBLK
  5
C7
330
C4
100
AcDbEntity
  8
0
100
AcDbBlockEnd
  0
BLOCK
  5
D0
330
CE
100
AcDbEntity
  8
0
100
AcDbBlockBegin
  2
block 9
 70
     0
 10
0.0
 20
0.0
 30
0.0
  3
block 9
  1

  0
SPLINE
  5
D2
330
CE
100
AcDbEntity
  8
_U+30EC_U+30A4_U+30E4_U+30FC 1
370
     0
100
AcDbSpline
210
0.0
220
0.0
230
1.0
 70
    11
 71
     3
 72
    26
 73
    22
 74
     0
 42
0.0000000001
 43
0.0000000001
 12
1.0
 22
0.0
 32
0.0
 13
1.0
 23
0.0
 33
0.0
 40
0.0
 40
0.0
 40
0.0
 40
0.0
 40
1.0
 40
1.0
 40
1.0
 40
2.0
 40
2.0
 40
2.0
 40
3.0
 40
3.0
 40
3.0
 40
4.0
 40
4.0
 40
4.0
 40
5.0
 40
5.0
 40
5.0
 40
6.0
 40
6.0
 40
6.0
 40
7.0
 40
7.0
 40
7.0
 40
7.0
 10
96.92982853479532
 20
-124.1245510214862
 30
0.0
 10
96.92982853479532
 20
-124.1245510214862
 30
0.0
 10
96.92982853479532
 20
-123.0202256636894
 30
0.0
 10
96.92982853479532
 20
-123.0202256636894
 30
0.0
 10
96.92982853479532
 20
-123.0202256636894
 30
0.0
 10
96.5997883873084
 20
-123.0202256636894
 30
0.0
 10
96.5997883873084
 20
-123.0202256636894
 30
0.0
 10
96.5997883873084
 20
-123.0202256636894
 30
0.0
 10
96.5997883873084
 20
-122.8720865578236
 30
0.0
 10
96.5997883873084
 20
-122.8720865578236
 30
0.0
 10
96.93189559208648
 20
-122.8574449020113
 30
0.0
 10
96.97874889068588
 20
-122.694491885559
 30
0.0
 10
97.00837671185901
 20
-122.580286970223
 30
0.0
 10
97.00837671185901
 20
-122.580286970223
 30
0.0
 10
97.15444876043361
 20
-122.580286970223
 30
0.0
 10
97.15444876043361
 20
-122.580286970223
 30
0.0
 10
97.15444876043361
 20
-122.580286970223
 30
0.0
 10
97.15444876043361
 20
-124.1245510214862
 30
0.0
 10
97.15444876043361
 20
-124.1245510214862
 30
0.0
 10
97.15444876043361
 20
-124.1245510214862
 30
0.0
 10
96.92982853479532
 20
-124.1245510214862
 30
0.0
 10
96.92982853479532
 20
-124.1245510214862
 30
0.0
  0
HATCH
  5
D3
330
CE
100
AcDbEntity
  8
_U+30EC_U+30A4_U+30E4_U+30FC 1
 62
   179
420
  2234388
100
AcDbHatch
 10
0.0
 20
0.0
 30
0.0
210
0.0
220
0.0
230
1.0
  2
SOLID
 70
     1
 71
     0
 91
        1
 92
        1
 93
        1
 72
     4
 94
        3
 73
     0
 74
     1
 95
       26
 96
       22
 40
0.0
 40
0.0
 40
0.0
 40
0.0
 40
1.0
 40
1.0
 40
1.0
 40
2.0
 40
2.0
 40
2.0
 40
3.0
 40
3.0
 40
3.0
 40
4.0
 40
4.0
 40
4.0
 40
5.0
 40
5.0
 40
5.0
 40
6.0
 40
6.0
 40
6.0
 40
7.0
 40
7.0
 40
7.0
 40
7.0
 10
96.92982853479532
 20
-124.1245510214862
 10
96.92982853479532
 20
-124.1245510214862
 10
96.92982853479532
 20
-123.0202256636894
 10
96.92982853479532
 20
-123.0202256636894
 10
96.92982853479532
 20
-123.0202256636894
 10
96.5997883873084
 20
-123.0202256636894
 10
96.5997883873084
 20
-123.0202256636894
 10
96.5997883873084
 20
-123.0202256636894
 10
96.5997883873084
 20
-122.8720865578236
 10
96.5997883873084
 20
-122.8720865578236
 10
96.93189559208648
 20
-122.8574449020113
 10
96.97874889068588
 20
-122.694491885559
 10
97.00837671185901
 20
-122.580286970223
 10
97.00837671185901
 20
-122.580286970223
 10
97.15444876043361
 20
-122.580286970223
 10
97.15444876043361
 20
-122.580286970223
 10
97.15444876043361
 20
-122.580286970223
 10
97.15444876043361
 20
-124.1245510214862
 10
97.15444876043361
 20
-124.1245510214862
 10
97.15444876043361
 20
-124.1245510214862
 10
96.92982853479532
 20
-124.1245510214862
 10
96.92982853479532
 20
-124.1245510214862
 97
        0
 97
        0
 75
     2
 76
     1
 98
        0
  0
ENDBLK
  5
D1
330
CE
100
AcDbEntity
  8
0
100
AcDbBlockEnd
  0
ENDSEC
  0
SECTION
  2
ENTITIES
  0
SPLINE
  5
41
330
1F
100
AcDbEntity
  8
_U+30EC_U+30A4_U+30E4_U+30FC 1
 62
     7
420
 16777215
370
     9
100
AcDbSpline
210
0.0
220
0.0
230
1.0
 70
    11
 71
     3
 72
    17
 73
    13
 74
     0
 42
0.0000000001
 43
0.0000000001
 12
1.0
 22
0.0
 32
0.0
 13
1.0
 23
0.0
 33
0.0
 40
0.0
 40
0.0
 40
0.0
 40
0.0
 40
1.0
 40
1.0
 40
1.0
 40
2.0
 40
2.0
 40
2.0
 40
3.0
 40
3.0
 40
3.0
 40
4.0
 40
4.0
 40
4.0
 40
4.0
 10
104.6836984404075
 20
-138.1837963543431
 30
0.0
 10
104.6836984404075
 20
-138.1286924654675
 30
0.0
 10
104.6389309415496
 20
-138.0838896877015
 30
0.0
 10
104.5837944182987
 20
-138.0838896877015
 30
0.0
 10
104.5286878888066
 20
-138.0838896877015
 30
0.0
 10
104.4838851121718
 20
-138.1286924654675
 30
0.0
 10
104.4838851121718
 20
-138.1837963543431
 30
0.0
 10
104.4838851121718
 20
-138.2389355209955
 30
0.0
 10
104.5286878888066
 20
-138.2837382987622
 30
0.0
 10
104.5837944182987
 20
-138.2837382987622
 30
0.0
 10
104.6389309415496
 20
-138.2837382987622
 30
0.0
 10
104.6836984404075
 20
-138.2389355209955
 30
0.0
 10
104.6836984404075
 20
-138.1837963543431
 30
0.0
  0
SPLINE
  5
42
330
1F
100
AcDbEntity
  8
_U+30EC_U+30A4_U+30E4_U+30FC 1
 62
     7
420
 16777215
370
     9
100
AcDbSpline
210
0.0
220
0.0
230
1.0
 70
    11
 71
     3
 72
    17
 73
    13
 74
     0
 42
0.0000000001
 43
0.0000000001
 12
1.0
 22
0.0
 32
0.0
 13
1.0
 23
0.0
 33
0.0
 40
0.0
 40
0.0
 40
0.0
 40
0.0
 40
1.0
 40
1.0
 40
1.0
 40
2.0
 40
2.0
 40
2.0
 40
3.0
 40
3.0
 40
3.0
 40
4.0
 40
4.0
 40
4.0
 40
4.0
 10
107.0139719920683
 20
-120.9969216364175
 30
0.0
 10
107.0139719920683
 20
-121.0520255252927
 30
0.0
 10
107.0587394909262
 20
-121.0968283030591
 30
0.0
 10
107.1138786561862
 20
-121.0968283030591
 30
0.0
 10
107.1689825436693
 20
-121.0968283030591
 30
0.0
 10
107.213785320304
 20
-121.0520255252927
 30
0.0
 10
107.213785320304
 20
-120.9969216364175
 30
0.0
 10
107.213785320304
 20
-120.941112191987
 30
0.0
 10
107.1689825436693
 20
-120.8963094142203
 30
0.0
 10
107.1138786561862
 20
-120.8963094142203
 30
0.0
 10
107.0587394909262
 20
-120.8963094142203
 30
0.0
 10
107.0139719920683
 20
-120.941112191987
 30
0.0
 10
107.0139719920683
 20
-120.9969216364175
 30
0.0
  0
POLYLINE
  5
43
330
1F
100
AcDbEntity
  8
_U+30EC_U+30A4_U+30E4_U+30FC 1
 62
     7
420
 16777215
370
     9
100
AcDb2dPolyline
 66
     1
 10
0.0
 20
0.0
 30
0.0
  0
VERTEX
  5
44
330
43
100
AcDbEntity
  8
_U+30EC_U+30A4_U+30E4_U+30FC 1
 62
     7
420
 16777215
370
     9
100
AcDbVertex
100
AcDb2dVertex
 10
107.1138786561862
 20
-120.8963094142203
 30
0.0
  0
VERTEX
  5
45
330
43
100
AcDbEntity
  8
_U+30EC_U+30A4_U+30E4_U+30FC 1
 62
     7
420
 16777215
370
     9
100
AcDbVertex
100
AcDb2dVertex
 10
107.1138786561862
 20
-133.8963821887483
 30
0.0
  0
SEQEND
  5
46
330
43
100
AcDbEntity
  8
_U+30EC_U+30A4_U+30E4_U+30FC 1
 62
     7
420
 16777215
370
     9
  0
POLYLINE
  5
47
330
1F
100
AcDbEntity
  8
_U+30EC_U+30A4_U+30E4_U+30FC 1
 62
     7
420
 16777215
370
     9
100
AcDb2dPolyline
 66
     1
 10
0.0
 20
0.0
 30
0.0
  0
VERTEX
  5
48
330
47
100
AcDbEntity
  8
_U+30EC_U+30A4_U+30E4_U+30FC 1
 62
     7
420
 16777215
370
     9
100
AcDbVertex
100
AcDb2dVertex
 10
99.01374830728217
 20
-120.9969216364175
 30
0.0
  0
VERTEX
  5
49
330
47
100
AcDbEntity
  8
_U+30EC_U+30A4_U+30E4_U+30FC 1
 62
     7
420
 16777215
370
     9
100
AcDbVertex
100
AcDb2dVertex
 10
108.1136508529021
 20
-120.9969216364175
 30
0.0
  0
SEQEND
  5
4A
330
47
100
AcDbEntity
  8
_U+30EC_U+30A4_U+30E4_U+30FC 1
 62
     7
420
 16777215
370
     9
  0
SPLINE
  5
4B
330
1F
100
AcDbEntity
  8
_U+30EC_U+30A4_U+30E4_U+30FC 1
 62
     7
420
 16777215
370
     9
100
AcDbSpline
210
0.0
220
0.0
230
1.0
 70
    11
 71
     3
 72
    17
 73
    13
 74
     0
 42
0.0000000001
 43
0.0000000001
 12
1.0
 22
0.0
 32
0.0
 13
1.0
 23
0.0
 33
0.0
 40
0.0
 40
0.0
 40
0.0
 40
0.0
 40
1.0
 40
1.0
 40
1.0
 40
2.0
 40
2.0
 40
2.0
 40
3.0
 40
3.0
 40
3.0
 40
4.0
 40
4.0
 40
4.0
 40
4.0
 10
83.99970285698905
 20
-126.9968955238065
 30
0.0
 10
83.99970285698905
 20
-127.0520346904592
 30
0.0
 10
84.04447035584693
 20
-127.0968021904481
 30
0.0
 10
84.09960952110688
 20
-127.0968021904481
 30
0.0
 10
84.15471340858996
 20
-127.0968021904481
 30
0.0
 10
84.19951618522471
 20
-127.0520346904592
 30
0.0
 10
84.19951618522471
 20
-126.9968955238065
 30
0.0
 10
84.19951618522471
 20
-126.9417916349312
 30
0.0
 10
84.15471340858996
 20
-126.8969888571645
 30
0.0
 10
84.09960952110688
 20
-126.8969888571645
 30
0.0
 10
84.04447035584693
 20
-126.8969888571645
 30
0.0
 10
83.99970285698905
 20
-126.9417916349312
 30
0.0
 10
83.99970285698905
 20
-126.9968955238065
 30
0.0
  0
SPLINE
  5
4C
330
1F
100
AcDbEntity
  8
_U+30EC_U+30A4_U+30E4_U+30FC 1
 62
     7
420
 16777215
370
     9
100
AcDbSpline
210
0.0
220
0.0
230
1.0
 70
    11
 71
     3
 72
    17
 73
    13
 74
     0
 42
0.0000000001
 43
0.0000000001
 12
1.0
 22
0.0
 32
0.0
 13
1.0
 23
0.0
 33
0.0
 40
0.0
 40
0.0
 40
0.0
 40
0.0
 40
1.0
 40
1.0
 40
1.0
 40
2.0
 40
2.0
 40
2.0
 40
3.0
 40
3.0
 40
3.0
 40
4.0
 40
4.0
 40
4.0
 40
4.0
 10
83.99970285698905
 20
-120.9969216364175
 30
0.0
 10
83.99970285698905
 20
-121.0520255252927
 30
0.0
 10
84.04447035584693
 20
-121.0968283030591
 30
0.0
 10
84.09960952110688
 20
-121.0968283030591
 30
0.0
 10
84.15471340858996
 20
-121.0968283030591
 30
0.0
 10
84.19951618522471
 20
-121.0520255252927
 30
0.0
 10
84.19951618522471
 20
-120.9969216364175
 30
0.0
 10
84.19951618522471
 20
-120.9417824697647
 30
0.0
 10
84.15471340858996
 20
-120.8970149697758
 30
0.0
 10
84.09960952110688
 20
-120.8970149697758
 30
0.0
 10
84.04447035584693
 20
-120.8970149697758
 30
0.0
 10
83.99970285698905
 20
-120.9417824697647
 30
0.0
 10
83.99970285698905
 20
-120.9969216364175
 30
0.0
  0
POLYLINE
  5
4D
330
1F
100
AcDbEntity
  8
_U+30EC_U+30A4_U+30E4_U+30FC 1
 62
     7
420
 16777215
370
     9
100
AcDb2dPolyline
 66
     1
 10
0.0
 20
0.0
 30
0.0
  0
VERTEX
  5
4E
330
4D
100
AcDbEntity
  8
_U+30EC_U+30A4_U+30E4_U+30FC 1
 62
     7
420
 16777215
370
     9
100
AcDbVertex
100
AcDb2dVertex
 10
84.09960952110688
 20
-120.9969216364175
 30
0.0
  0
VERTEX
  5
4F
330
4D
100
AcDbEntity
  8
_U+30EC_U+30A4_U+30E4_U+30FC 1
 62
     7
420
 16777215
370
     9
100
AcDbVertex
100
AcDb2dVertex
 10
84.09960952110688
 20
-126.9968955238065
 30
0.0
  0
SEQEND
  5
50
330
4D
100
AcDbEntity
  8
_U+30EC_U+30A4_U+30E4_U+30FC 1
 62
     7
420
 16777215
370
     9
  0
POLYLINE
  5
51
330
1F
100
AcDbEntity
  8
_U+30EC_U+30A4_U+30E4_U+30FC 1
 62
     7
420
 16777215
370
     9
100
AcDb2dPolyline
 66
     1
 10
0.0
 20
0.0
 30
0.0
  0
VERTEX
  5
52
330
51
100
AcDbEntity
  8
_U+30EC_U+30A4_U+30E4_U+30FC 1
 62
     7
420
 16777215
370
     9
100
AcDbVertex
100
AcDb2dVertex
 10
82.63956816946674
 20
-126.9968955238065
 30
0.0
  0
VERTEX
  5
53
330
51
100
AcDbEntity
  8
_U+30EC_U+30A4_U+30E4_U+30FC 1
 62
     7
420
 16777215
370
     9
100
AcDbVertex
100
AcDb2dVertex
 10
85.0993817178228
 20
-126.9968955238065
 30
0.0
  0
SEQEND
  5
54
330
51
100
AcDbEntity
  8
_U+30EC_U+30A4_U+30E4_U+30FC 1
 62
     7
420
 16777215
370
     9
  0
POLYLINE
  5
55
330
1F
100
AcDbEntity
  8
_U+30EC_U+30A4_U+30E4_U+30FC 1
 62
     7
420
 16777215
370
     9
100
AcDb2dPolyline
 66
     1
 10
0.0
 20
0.0
 30
0.0
  0
VERTEX
  5
56
330
55
100
AcDbEntity
  8
_U+30EC_U+30A4_U+30E4_U+30FC 1
 62
     7
420
 16777215
370
     9
100
AcDbVertex
100
AcDb2dVertex
 10
82.63956816946674
 20
-120.9969216364175
 30
0.0
  0
VERTEX
  5
57
330
55
100
AcDbEntity
  8
_U+30EC_U+30A4_U+30E4_U+30FC 1
 62
     7
420
 16777215
370
     9
100
AcDbVertex
100
AcDb2dVertex
 10
85.0993817178228
 20
-120.9969216364175
 30
0.0
  0
SEQEND
  5
58
330
55
100
AcDbEntity
  8
_U+30EC_U+30A4_U+30E4_U+30FC 1
 62
     7
420
 16777215
370
     9
  0
SPLINE
  5
59
330
1F
100
AcDbEntity
  8
_U+30EC_U+30A4_U+30E4_U+30FC 1
 62
     7
420
 16777215
370
     9
100
AcDbSpline
210
0.0
220
0.0
230
1.0
 70
    11
 71
     3
 72
    17
 73
    13
 74
     0
 42
0.0000000001
 43
0.0000000001
 12
1.0
 22
0.0
 32
0.0
 13
1.0
 23
0.0
 33
0.0
 40
0.0
 40
0.0
 40
0.0
 40
0.0
 40
1.0
 40
1.0
 40
1.0
 40
2.0
 40
2.0
 40
2.0
 40
3.0
 40
3.0
 40
3.0
 40
4.0
 40
4.0
 40
4.0
 40
4.0
 10
107.0139719920683
 20
-133.9997460776112
 30
0.0
 10
107.0139719920683
 20
-134.0548499664862
 30
0.0
 10
107.0587394909262
 20
-134.0996527442529
 30
0.0
 10
107.1138786561862
 20
-134.0996527442529
 30
0.0
 10
107.1689825436693
 20
-134.0996527442529
 30
0.0
 10
107.213785320304
 20
-134.0548499664862
 30
0.0
 10
107.213785320304
 20
-133.9997460776112
 30
0.0
 10
107.213785320304
 20
-133.9446069109582
 30
0.0
 10
107.1689825436693
 20
-133.8998394109696
 30
0.0
 10
107.1138786561862
 20
-133.8998394109696
 30
0.0
 10
107.0587394909262
 20
-133.8998394109696
 30
0.0
 10
107.0139719920683
 20
-133.9446069109582
 30
0.0
 10
107.0139719920683
 20
-133.9997460776112
 30
0.0
  0
POLYLINE
  5
5A
330
1F
100
AcDbEntity
  8
_U+30EC_U+30A4_U+30E4_U+30FC 1
 62
     7
420
 16777215
370
     9
100
AcDb2dPolyline
 66
     1
 10
0.0
 20
0.0
 30
0.0
  0
VERTEX
  5
5B
330
5A
100
AcDbEntity
  8
_U+30EC_U+30A4_U+30E4_U+30FC 1
 62
     7
420
 16777215
370
     9
100
AcDbVertex
100
AcDb2dVertex
 10
101.1139049203694
 20
-133.9997460776112
 30
0.0
  0
VERTEX
  5
5C
330
5A
100
AcDbEntity
  8
_U+30EC_U+30A4_U+30E4_U+30FC 1
 62
     7
420
 16777215
370
     9
100
AcDbVertex
100
AcDb2dVertex
 10
108.1136508529021
 20
-133.9997460776112
 30
0.0
  0
SEQEND
  5
5D
330
5A
100
AcDbEntity
  8
_U+30EC_U+30A4_U+30E4_U+30FC 1
 62
     7
420
 16777215
370
     9
  0
INSERT
  5
5F
330
1F
100
AcDbEntity
  8
_U+30EC_U+30A4_U+30E4_U+30FC 1
100
AcDbBlockReference
  2
block 2
 10
0.0
 20
0.0
 30
0.0
  0
INSERT
  5
67
330
1F
100
AcDbEntity
  8
_U+30EC_U+30A4_U+30E4_U+30FC 1
100
AcDbBlockReference
  2
block 3
 10
0.0
 20
0.0
 30
0.0
  0
SPLINE
  5
6D
330
1F
100
AcDbEntity
  8
_U+30EC_U+30A4_U+30E4_U+30FC 1
 62
     7
420
 16777215
370
     9
100
AcDbSpline
210
0.0
220
0.0
230
1.0
 70
    11
 71
     3
 72
    17
 73
    13
 74
     0
 42
0.0000000001
 43
0.0000000001
 12
1.0
 22
0.0
 32
0.0
 13
1.0
 23
0.0
 33
0.0
 40
0.0
 40
0.0
 40
0.0
 40
0.0
 40
1.0
 40
1.0
 40
1.0
 40
2.0
 40
2.0
 40
2.0
 40
3.0
 40
3.0
 40
3.0
 40
4.0
 40
4.0
 40
4.0
 40
4.0
 10
94.58303592031906
 20
-118.1161383038043
 30
0.0
 10
94.5278967550591
 20
-118.1161383038043
 30
0.0
 10
94.48312925620122
 20
-118.1609058037932
 30
0.0
 10
94.48312925620122
 20
-118.2160449704459
 30
0.0
 10
94.48312925620122
 20
-118.2711488593211
 30
0.0
 10
94.5278967550591
 20
-118.3159516370876
 30
0.0
 10
94.58303592031906
 20
-118.3159516370876
 30
0.0
 10
94.63813980780213
 20
-118.3159516370876
 30
0.0
 10
94.68294258443689
 20
-118.2711488593211
 30
0.0
 10
94.68294258443689
 20
-118.2160449704459
 30
0.0
 10
94.68294258443689
 20
-118.1609058037932
 30
0.0
 10
94.63813980780213
 20
-118.1161383038043
 30
0.0
 10
94.58303592031906
 20
-118.1161383038043
 30
0.0
  0
POLYLINE
  5
6E
330
1F
100
AcDbEntity
  8
_U+30EC_U+30A4_U+30E4_U+30FC 1
 62
     7
420
 16777215
370
     9
100
AcDb2dPolyline
 66
     1
 10
0.0
 20
0.0
 30
0.0
  0
VERTEX
  5
6F
330
6E
100
AcDbEntity
  8
_U+30EC_U+30A4_U+30E4_U+30FC 1
 62
     7
420
 16777215
370
     9
100
AcDbVertex
100
AcDb2dVertex
 10
97.58475139929448
 20
-118.2160449704459
 30
0.0
  0
VERTEX
  5
70
330
6E
100
AcDbEntity
  8
_U+30EC_U+30A4_U+30E4_U+30FC 1
 62
     7
420
 16777215
370
     9
100
AcDbVertex
100
AcDb2dVertex
 10
94.58303592031906
 20
-118.2160449704459
 30
0.0
  0
SEQEND
  5
71
330
6E
100
AcDbEntity
  8
_U+30EC_U+30A4_U+30E4_U+30FC 1
 62
     7
420
 16777215
370
     9
  0
POLYLINE
  5
72
330
1F
100
AcDbEntity
  8
_U+30EC_U+30A4_U+30E4_U+30FC 1
 62
     7
420
 16777215
370
     9
100
AcDb2dPolyline
 66
     1
 10
0.0
 20
0.0
 30
0.0
  0
VERTEX
  5
73
330
72
100
AcDbEntity
  8
_U+30EC_U+30A4_U+30E4_U+30FC 1
 62
     7
420
 16777215
370
     9
100
AcDbVertex
100
AcDb2dVertex
 10
94.58303592031906
 20
-116.7560035819222
 30
0.0
  0
VERTEX
  5
74
330
72
100
AcDbEntity
  8
_U+30EC_U+30A4_U+30E4_U+30FC 1
 62
     7
420
 16777215
370
     9
100
AcDbVertex
100
AcDb2dVertex
 10
94.58303592031906
 20
-119.2158171924181
 30
0.0
  0
SEQEND
  5
75
330
72
100
AcDbEntity
  8
_U+30EC_U+30A4_U+30E4_U+30FC 1
 62
     7
420
 16777215
370
     9
  0
SPLINE
  5
76
330
1F
100
AcDbEntity
  8
_U+30EC_U+30A4_U+30E4_U+30FC 1
 62
     7
420
 16777215
370
     9
100
AcDbSpline
210
0.0
220
0.0
230
1.0
 70
    11
 71
     3
 72
    17
 73
    13
 74
     0
 42
0.0000000001
 43
0.0000000001
 12
1.0
 22
0.0
 32
0.0
 13
1.0
 23
0.0
 33
0.0
 40
0.0
 40
0.0
 40
0.0
 40
0.0
 40
1.0
 40
1.0
 40
1.0
 40
2.0
 40
2.0
 40
2.0
 40
3.0
 40
3.0
 40
3.0
 40
4.0
 40
4.0
 40
4.0
 40
4.0
 10
97.58475139929448
 20
-118.1161383038043
 30
0.0
 10
97.52961223403452
 20
-118.1161383038043
 30
0.0
 10
97.48484719785071
 20
-118.1609058037932
 30
0.0
 10
97.48484719785071
 20
-118.2160449704459
 30
0.0
 10
97.48484719785071
 20
-118.2711488593211
 30
0.0
 10
97.52961223403452
 20
-118.3159516370876
 30
0.0
 10
97.58475139929448
 20
-118.3159516370876
 30
0.0
 10
97.63985528677755
 20
-118.3159516370876
 30
0.0
 10
97.6846580634123
 20
-118.2711488593211
 30
0.0
 10
97.6846580634123
 20
-118.2160449704459
 30
0.0
 10
97.6846580634123
 20
-118.1609058037932
 30
0.0
 10
97.63985528677755
 20
-118.1161383038043
 30
0.0
 10
97.58475139929448
 20
-118.1161383038043
 30
0.0
  0
POLYLINE
  5
77
330
1F
100
AcDbEntity
  8
_U+30EC_U+30A4_U+30E4_U+30FC 1
 62
     7
420
 16777215
370
     9
100
AcDb2dPolyline
 66
     1
 10
0.0
 20
0.0
 30
0.0
  0
VERTEX
  5
78
330
77
100
AcDbEntity
  8
_U+30EC_U+30A4_U+30E4_U+30FC 1
 62
     7
420
 16777215
370
     9
100
AcDbVertex
100
AcDb2dVertex
 10
97.58475139929448
 20
-116.7560035819222
 30
0.0
  0
VERTEX
  5
79
330
77
100
AcDbEntity
  8
_U+30EC_U+30A4_U+30E4_U+30FC 1
 62
     7
420
 16777215
370
     9
100
AcDbVertex
100
AcDb2dVertex
 10
97.58475139929448
 20
-119.2158171924181
 30
0.0
  0
SEQEND
  5
7A
330
77
100
AcDbEntity
  8
_U+30EC_U+30A4_U+30E4_U+30FC 1
 62
     7
420
 16777215
370
     9
  0
INSERT
  5
7C
330
1F
100
AcDbEntity
  8
_U+30EC_U+30A4_U+30E4_U+30FC 1
100
AcDbBlockReference
  2
block 4
 10
0.0
 20
0.0
 30
0.0
  0
SPLINE
  5
81
330
1F
100
AcDbEntity
  8
_U+30EC_U+30A4_U+30E4_U+30FC 1
 62
     7
420
 16777215
370
     9
100
AcDbSpline
210
0.0
220
0.0
230
1.0
 70
    11
 71
     3
 72
    17
 73
    13
 74
     0
 42
0.0000000001
 43
0.0000000001
 12
1.0
 22
0.0
 32
0.0
 13
1.0
 23
0.0
 33
0.0
 40
0.0
 40
0.0
 40
0.0
 40
0.0
 40
1.0
 40
1.0
 40
1.0
 40
2.0
 40
2.0
 40
2.0
 40
3.0
 40
3.0
 40
3.0
 40
4.0
 40
4.0
 40
4.0
 40
4.0
 10
88.58306218450225
 20
-118.1161383038043
 30
0.0
 10
88.5279230192423
 20
-118.1161383038043
 30
0.0
 10
88.48315552038441
 20
-118.1609058037932
 30
0.0
 10
88.48315552038441
 20
-118.2160449704459
 30
0.0
 10
88.48315552038441
 20
-118.2711488593211
 30
0.0
 10
88.5279230192423
 20
-118.3159516370876
 30
0.0
 10
88.58306218450225
 20
-118.3159516370876
 30
0.0
 10
88.63816607198532
 20
-118.3159516370876
 30
0.0
 10
88.68296884862009
 20
-118.2711488593211
 30
0.0
 10
88.68296884862009
 20
-118.2160449704459
 30
0.0
 10
88.68296884862009
 20
-118.1609058037932
 30
0.0
 10
88.63816607198532
 20
-118.1161383038043
 30
0.0
 10
88.58306218450225
 20
-118.1161383038043
 30
0.0
  0
POLYLINE
  5
82
330
1F
100
AcDbEntity
  8
_U+30EC_U+30A4_U+30E4_U+30FC 1
 62
     7
420
 16777215
370
     9
100
AcDb2dPolyline
 66
     1
 10
0.0
 20
0.0
 30
0.0
  0
VERTEX
  5
83
330
82
100
AcDbEntity
  8
_U+30EC_U+30A4_U+30E4_U+30FC 1
 62
     7
420
 16777215
370
     9
100
AcDbVertex
100
AcDb2dVertex
 10
94.58476453138607
 20
-118.2160449704459
 30
0.0
  0
VERTEX
  5
84
330
82
100
AcDbEntity
  8
_U+30EC_U+30A4_U+30E4_U+30FC 1
 62
     7
420
 16777215
370
     9
100
AcDbVertex
100
AcDb2dVertex
 10
88.58306218450225
 20
-118.2160449704459
 30
0.0
  0
SEQEND
  5
85
330
82
100
AcDbEntity
  8
_U+30EC_U+30A4_U+30E4_U+30FC 1
 62
     7
420
 16777215
370
     9
  0
POLYLINE
  5
86
330
1F
100
AcDbEntity
  8
_U+30EC_U+30A4_U+30E4_U+30FC 1
 62
     7
420
 16777215
370
     9
100
AcDb2dPolyline
 66
     1
 10
0.0
 20
0.0
 30
0.0
  0
VERTEX
  5
87
330
86
100
AcDbEntity
  8
_U+30EC_U+30A4_U+30E4_U+30FC 1
 62
     7
420
 16777215
370
     9
100
AcDbVertex
100
AcDb2dVertex
 10
88.58306218450225
 20
-116.7560035819222
 30
0.0
  0
VERTEX
  5
88
330
86
100
AcDbEntity
  8
_U+30EC_U+30A4_U+30E4_U+30FC 1
 62
     7
420
 16777215
370
     9
100
AcDbVertex
100
AcDb2dVertex
 10
88.58306218450225
 20
-119.2158171924181
 30
0.0
  0
SEQEND
  5
89
330
86
100
AcDbEntity
  8
_U+30EC_U+30A4_U+30E4_U+30FC 1
 62
     7
420
 16777215
370
     9
  0
INSERT
  5
8B
330
1F
100
AcDbEntity
  8
_U+30EC_U+30A4_U+30E4_U+30FC 1
100
AcDbBlockReference
  2
block 5
 10
0.0
 20
0.0
 30
0.0
  0
SPLINE
  5
91
330
1F
100
AcDbEntity
  8
_U+30EC_U+30A4_U+30E4_U+30FC 1
 62
     7
420
 16777215
370
     9
100
AcDbSpline
210
0.0
220
0.0
230
1.0
 70
    11
 71
     3
 72
    17
 73
    13
 74
     0
 42
0.0000000001
 43
0.0000000001
 12
1.0
 22
0.0
 32
0.0
 13
1.0
 23
0.0
 33
0.0
 40
0.0
 40
0.0
 40
0.0
 40
0.0
 40
1.0
 40
1.0
 40
1.0
 40
2.0
 40
2.0
 40
2.0
 40
3.0
 40
3.0
 40
3.0
 40
4.0
 40
4.0
 40
4.0
 40
4.0
 10
85.58307531659385
 20
-118.1161383038043
 30
0.0
 10
85.5279361513339
 20
-118.1161383038043
 30
0.0
 10
85.48316865247601
 20
-118.1609058037932
 30
0.0
 10
85.48316865247601
 20
-118.2160449704459
 30
0.0
 10
85.48316865247601
 20
-118.2711488593211
 30
0.0
 10
85.5279361513339
 20
-118.3159516370876
 30
0.0
 10
85.58307531659385
 20
-118.3159516370876
 30
0.0
 10
85.63817920407692
 20
-118.3159516370876
 30
0.0
 10
85.68298198071169
 20
-118.2711488593211
 30
0.0
 10
85.68298198071169
 20
-118.2160449704459
 30
0.0
 10
85.68298198071169
 20
-118.1609058037932
 30
0.0
 10
85.63817920407692
 20
-118.1161383038043
 30
0.0
 10
85.58307531659385
 20
-118.1161383038043
 30
0.0
  0
POLYLINE
  5
92
330
1F
100
AcDbEntity
  8
_U+30EC_U+30A4_U+30E4_U+30FC 1
 62
     7
420
 16777215
370
     9
100
AcDb2dPolyline
 66
     1
 10
0.0
 20
0.0
 30
0.0
  0
VERTEX
  5
93
330
92
100
AcDbEntity
  8
_U+30EC_U+30A4_U+30E4_U+30FC 1
 62
     7
420
 16777215
370
     9
100
AcDbVertex
100
AcDb2dVertex
 10
88.58475551779239
 20
-118.2160449704459
 30
0.0
  0
VERTEX
  5
94
330
92
100
AcDbEntity
  8
_U+30EC_U+30A4_U+30E4_U+30FC 1
 62
     7
420
 16777215
370
     9
100
AcDbVertex
100
AcDb2dVertex
 10
85.58307531659385
 20
-118.2160449704459
 30
0.0
  0
SEQEND
  5
95
330
92
100
AcDbEntity
  8
_U+30EC_U+30A4_U+30E4_U+30FC 1
 62
     7
420
 16777215
370
     9
  0
POLYLINE
  5
96
330
1F
100
AcDbEntity
  8
_U+30EC_U+30A4_U+30E4_U+30FC 1
 62
     7
420
 16777215
370
     9
100
AcDb2dPolyline
 66
     1
 10
0.0
 20
0.0
 30
0.0
  0
VERTEX
  5
97
330
96
100
AcDbEntity
  8
_U+30EC_U+30A4_U+30E4_U+30FC 1
 62
     7
420
 16777215
370
     9
100
AcDbVertex
100
AcDb2dVertex
 10
85.58307531659385
 20
-116.7560035819222
 30
0.0
  0
VERTEX
  5
98
330
96
100
AcDbEntity
  8
_U+30EC_U+30A4_U+30E4_U+30FC 1
 62
     7
420
 16777215
370
     9
100
AcDbVertex
100
AcDb2dVertex
 10
85.58307531659385
 20
-119.2158171924181
 30
0.0
  0
SEQEND
  5
99
330
96
100
AcDbEntity
  8
_U+30EC_U+30A4_U+30E4_U+30FC 1
 62
     7
420
 16777215
370
     9
  0
INSERT
  5
9B
330
1F
100
AcDbEntity
  8
_U+30EC_U+30A4_U+30E4_U+30FC 1
100
AcDbBlockReference
  2
block 6
 10
0.0
 20
0.0
 30
0.0
  0
POLYLINE
  5
A0
330
1F
100
AcDbEntity
  8
_U+30EC_U+30A4_U+30E4_U+30FC 1
 62
     7
420
 16777215
370
     9
100
AcDb2dPolyline
 66
     1
 10
0.0
 20
0.0
 30
0.0
  0
VERTEX
  5
A1
330
A0
100
AcDbEntity
  8
_U+30EC_U+30A4_U+30E4_U+30FC 1
 62
     7
420
 16777215
370
     9
100
AcDbVertex
100
AcDb2dVertex
 10
94.58370619807974
 20
-138.1837963543431
 30
0.0
  0
VERTEX
  5
A2
330
A0
100
AcDbEntity
  8
_U+30EC_U+30A4_U+30E4_U+30FC 1
 62
     7
420
 16777215
370
     9
100
AcDbVertex
100
AcDb2dVertex
 10
104.5837944182987
 20
-138.1837963543431
 30
0.0
  0
SEQEND
  5
A3
330
A0
100
AcDbEntity
  8
_U+30EC_U+30A4_U+30E4_U+30FC 1
 62
     7
420
 16777215
370
     9
  0
POLYLINE
  5
A4
330
1F
100
AcDbEntity
  8
_U+30EC_U+30A4_U+30E4_U+30FC 1
 62
     7
420
 16777215
370
     9
100
AcDb2dPolyline
 66
     1
 10
0.0
 20
0.0
 30
0.0
  0
VERTEX
  5
A5
330
A4
100
AcDbEntity
  8
_U+30EC_U+30A4_U+30E4_U+30FC 1
 62
     7
420
 16777215
370
     9
100
AcDbVertex
100
AcDb2dVertex
 10
104.5837944182987
 20
-136.7237902435969
 30
0.0
  0
VERTEX
  5
A6
330
A4
100
AcDbEntity
  8
_U+30EC_U+30A4_U+30E4_U+30FC 1
 62
     7
420
 16777215
370
     9
100
AcDbVertex
100
AcDb2dVertex
 10
104.5837944182987
 20
-139.183568576315
 30
0.0
  0
SEQEND
  5
A7
330
A4
100
AcDbEntity
  8
_U+30EC_U+30A4_U+30E4_U+30FC 1
 62
     7
420
 16777215
370
     9
  0
SPLINE
  5
A8
330
1F
100
AcDbEntity
  8
_U+30EC_U+30A4_U+30E4_U+30FC 1
 62
     7
420
 16777215
370
     9
100
AcDbSpline
210
0.0
220
0.0
230
1.0
 70
    11
 71
     3
 72
    17
 73
    13
 74
     0
 42
0.0000000001
 43
0.0000000001
 12
1.0
 22
0.0
 32
0.0
 13
1.0
 23
0.0
 33
0.0
 40
0.0
 40
0.0
 40
0.0
 40
0.0
 40
1.0
 40
1.0
 40
1.0
 40
2.0
 40
2.0
 40
2.0
 40
3.0
 40
3.0
 40
3.0
 40
4.0
 40
4.0
 40
4.0
 40
4.0
 10
94.68361286219756
 20
-138.1837963543431
 30
0.0
 10
94.68361286219756
 20
-138.1286924654675
 30
0.0
 10
94.63884536333968
 20
-138.0838896877015
 30
0.0
 10
94.58370619807974
 20
-138.0838896877015
 30
0.0
 10
94.52860231059667
 20
-138.0838896877015
 30
0.0
 10
94.4837995339619
 20
-138.1286924654675
 30
0.0
 10
94.4837995339619
 20
-138.1837963543431
 30
0.0
 10
94.4837995339619
 20
-138.2389355209955
 30
0.0
 10
94.52860231059667
 20
-138.2837382987622
 30
0.0
 10
94.58370619807974
 20
-138.2837382987622
 30
0.0
 10
94.63884536333968
 20
-138.2837382987622
 30
0.0
 10
94.68361286219756
 20
-138.2389355209955
 30
0.0
 10
94.68361286219756
 20
-138.1837963543431
 30
0.0
  0
POLYLINE
  5
A9
330
1F
100
AcDbEntity
  8
_U+30EC_U+30A4_U+30E4_U+30FC 1
 62
     7
420
 16777215
370
     9
100
AcDb2dPolyline
 66
     1
 10
0.0
 20
0.0
 30
0.0
  0
VERTEX
  5
AA
330
A9
100
AcDbEntity
  8
_U+30EC_U+30A4_U+30E4_U+30FC 1
 62
     7
420
 16777215
370
     9
100
AcDbVertex
100
AcDb2dVertex
 10
94.58370619807974
 20
-136.7237902435969
 30
0.0
  0
VERTEX
  5
AB
330
A9
100
AcDbEntity
  8
_U+30EC_U+30A4_U+30E4_U+30FC 1
 62
     7
420
 16777215
370
     9
100
AcDbVertex
100
AcDb2dVertex
 10
94.58370619807974
 20
-139.183568576315
 30
0.0
  0
SEQEND
  5
AC
330
A9
100
AcDbEntity
  8
_U+30EC_U+30A4_U+30E4_U+30FC 1
 62
     7
420
 16777215
370
     9
  0
INSERT
  5
AE
330
1F
100
AcDbEntity
  8
_U+30EC_U+30A4_U+30E4_U+30FC 1
100
AcDbBlockReference
  2
block 7
 10
0.0
 20
0.0
 30
0.0
  0
SPLINE
  5
B6
330
1F
100
AcDbEntity
  8
_U+30EC_U+30A4_U+30E4_U+30FC 1
 62
     7
420
 16777215
370
     9
100
AcDbSpline
210
0.0
220
0.0
230
1.0
 70
    11
 71
     3
 72
    17
 73
    13
 74
     0
 42
0.0000000001
 43
0.0000000001
 12
1.0
 22
0.0
 32
0.0
 13
1.0
 23
0.0
 33
0.0
 40
0.0
 40
0.0
 40
0.0
 40
0.0
 40
1.0
 40
1.0
 40
1.0
 40
2.0
 40
2.0
 40
2.0
 40
3.0
 40
3.0
 40
3.0
 40
4.0
 40
4.0
 40
4.0
 40
4.0
 10
88.68296884862009
 20
-138.1837963543431
 30
0.0
 10
88.68296884862009
 20
-138.1286924654675
 30
0.0
 10
88.63816607198532
 20
-138.0838896877015
 30
0.0
 10
88.58306218450225
 20
-138.0838896877015
 30
0.0
 10
88.5279230192423
 20
-138.0838896877015
 30
0.0
 10
88.48315552038441
 20
-138.1286924654675
 30
0.0
 10
88.48315552038441
 20
-138.1837963543431
 30
0.0
 10
88.48315552038441
 20
-138.2389355209955
 30
0.0
 10
88.5279230192423
 20
-138.2837382987622
 30
0.0
 10
88.58306218450225
 20
-138.2837382987622
 30
0.0
 10
88.63816607198532
 20
-138.2837382987622
 30
0.0
 10
88.68296884862009
 20
-138.2389355209955
 30
0.0
 10
88.68296884862009
 20
-138.1837963543431
 30
0.0
  0
POLYLINE
  5
B7
330
1F
100
AcDbEntity
  8
_U+30EC_U+30A4_U+30E4_U+30FC 1
 62
     7
420
 16777215
370
     9
100
AcDb2dPolyline
 66
     1
 10
0.0
 20
0.0
 30
0.0
  0
VERTEX
  5
B8
330
B7
100
AcDbEntity
  8
_U+30EC_U+30A4_U+30E4_U+30FC 1
 62
     7
420
 16777215
370
     9
100
AcDbVertex
100
AcDb2dVertex
 10
73.58309442604879
 20
-138.1837963543431
 30
0.0
  0
VERTEX
  5
B9
330
B7
100
AcDbEntity
  8
_U+30EC_U+30A4_U+30E4_U+30FC 1
 62
     7
420
 16777215
370
     9
100
AcDbVertex
100
AcDb2dVertex
 10
88.58306218450225
 20
-138.1837963543431
 30
0.0
  0
SEQEND
  5
BA
330
B7
100
AcDbEntity
  8
_U+30EC_U+30A4_U+30E4_U+30FC 1
 62
     7
420
 16777215
370
     9
  0
POLYLINE
  5
BB
330
1F
100
AcDbEntity
  8
_U+30EC_U+30A4_U+30E4_U+30FC 1
 62
     7
420
 16777215
370
     9
100
AcDb2dPolyline
 66
     1
 10
0.0
 20
0.0
 30
0.0
  0
VERTEX
  5
BC
330
BB
100
AcDbEntity
  8
_U+30EC_U+30A4_U+30E4_U+30FC 1
 62
     7
420
 16777215
370
     9
100
AcDbVertex
100
AcDb2dVertex
 10
88.58306218450225
 20
-136.7237902435969
 30
0.0
  0
VERTEX
  5
BD
330
BB
100
AcDbEntity
  8
_U+30EC_U+30A4_U+30E4_U+30FC 1
 62
     7
420
 16777215
370
     9
100
AcDbVertex
100
AcDb2dVertex
 10
88.58306218450225
 20
-139.183568576315
 30
0.0
  0
SEQEND
  5
BE
330
BB
100
AcDbEntity
  8
_U+30EC_U+30A4_U+30E4_U+30FC 1
 62
     7
420
 16777215
370
     9
  0
SPLINE
  5
BF
330
1F
100
AcDbEntity
  8
_U+30EC_U+30A4_U+30E4_U+30FC 1
 62
     7
420
 16777215
370
     9
100
AcDbSpline
210
0.0
220
0.0
230
1.0
 70
    11
 71
     3
 72
    17
 73
    13
 74
     0
 42
0.0000000001
 43
0.0000000001
 12
1.0
 22
0.0
 32
0.0
 13
1.0
 23
0.0
 33
0.0
 40
0.0
 40
0.0
 40
0.0
 40
0.0
 40
1.0
 40
1.0
 40
1.0
 40
2.0
 40
2.0
 40
2.0
 40
3.0
 40
3.0
 40
3.0
 40
4.0
 40
4.0
 40
4.0
 40
4.0
 10
73.6829992313012
 20
-138.1837963543431
 30
0.0
 10
73.6829992313012
 20
-138.1286924654675
 30
0.0
 10
73.6382317324433
 20
-138.0838896877015
 30
0.0
 10
73.58309442604879
 20
-138.0838896877015
 30
0.0
 10
73.52798867970029
 20
-138.0838896877015
 30
0.0
 10
73.48318590306552
 20
-138.1286924654675
 30
0.0
 10
73.48318590306552
 20
-138.1837963543431
 30
0.0
 10
73.48318590306552
 20
-138.2389355209955
 30
0.0
 10
73.52798867970029
 20
-138.2837382987622
 30
0.0
 10
73.58309442604879
 20
-138.2837382987622
 30
0.0
 10
73.6382317324433
 20
-138.2837382987622
 30
0.0
 10
73.6829992313012
 20
-138.2389355209955
 30
0.0
 10
73.6829992313012
 20
-138.1837963543431
 30
0.0
  0
POLYLINE
  5
C0
330
1F
100
AcDbEntity
  8
_U+30EC_U+30A4_U+30E4_U+30FC 1
 62
     7
420
 16777215
370
     9
100
AcDb2dPolyline
 66
     1
 10
0.0
 20
0.0
 30
0.0
  0
VERTEX
  5
C1
330
C0
100
AcDbEntity
  8
_U+30EC_U+30A4_U+30E4_U+30FC 1
 62
     7
420
 16777215
370
     9
100
AcDbVertex
100
AcDb2dVertex
 10
73.58309442604879
 20
-136.7237902435969
 30
0.0
  0
VERTEX
  5
C2
330
C0
100
AcDbEntity
  8
_U+30EC_U+30A4_U+30E4_U+30FC 1
 62
     7
420
 16777215
370
     9
100
AcDbVertex
100
AcDb2dVertex
 10
73.58309442604879
 20
-139.183568576315
 30
0.0
  0
SEQEND
  5
C3
330
C0
100
AcDbEntity
  8
_U+30EC_U+30A4_U+30E4_U+30FC 1
 62
     7
420
 16777215
370
     9
  0
INSERT
  5
C5
330
1F
100
AcDbEntity
  8
_U+30EC_U+30A4_U+30E4_U+30FC 1
100
AcDbBlockReference
  2
block 8
 10
0.0
 20
0.0
 30
0.0
  0
SPLINE
  5
CC
330
1F
100
AcDbEntity
  8
_U+30EC_U+30A4_U+30E4_U+30FC 1
 62
   179
420
  2234388
370
     9
100
AcDbSpline
210
0.0
220
0.0
230
1.0
 70
    11
 71
     3
 72
    17
 73
    13
 74
     0
 42
0.0000000001
 43
0.0000000001
 12
1.0
 22
0.0
 32
0.0
 13
1.0
 23
0.0
 33
0.0
 40
0.0
 40
0.0
 40
0.0
 40
0.0
 40
1.0
 40
1.0
 40
1.0
 40
2.0
 40
2.0
 40
2.0
 40
3.0
 40
3.0
 40
3.0
 40
4.0
 40
4.0
 40
4.0
 40
4.0
 10
94.67810952900464
 20
-124.7135060799329
 30
0.0
 10
94.67810952900464
 20
-124.6583669132798
 30
0.0
 10
94.63334442078626
 20
-124.6135994132909
 30
0.0
 10
94.5782028648868
 20
-124.6135994132909
 30
0.0
 10
94.52309897740373
 20
-124.6135994132909
 30
0.0
 10
94.47829620076897
 20
-124.6583669132798
 30
0.0
 10
94.47829620076897
 20
-124.7135060799329
 30
0.0
 10
94.47829620076897
 20
-124.7686099688078
 30
0.0
 10
94.52309897740373
 20
-124.8134127465745
 30
0.0
 10
94.5782028648868
 20
-124.8134127465745
 30
0.0
 10
94.63334442078626
 20
-124.8134127465745
 30
0.0
 10
94.67810952900464
 20
-124.7686099688078
 30
0.0
 10
94.67810952900464
 20
-124.7135060799329
 30
0.0
  0
SPLINE
  5
CD
330
1F
100
AcDbEntity
  8
_U+30EC_U+30A4_U+30E4_U+30FC 1
 62
   179
420
  2234388
370
     9
100
AcDbSpline
210
0.0
220
0.0
230
1.0
 70
    11
 71
     3
 72
    17
 73
    13
 74
     0
 42
0.0000000001
 43
0.0000000001
 12
1.0
 22
0.0
 32
0.0
 13
1.0
 23
0.0
 33
0.0
 40
0.0
 40
0.0
 40
0.0
 40
0.0
 40
1.0
 40
1.0
 40
1.0
 40
2.0
 40
2.0
 40
2.0
 40
3.0
 40
3.0
 40
3.0
 40
4.0
 40
4.0
 40
4.0
 40
4.0
 10
95.67788172572055
 20
-124.7135060799329
 30
0.0
 10
95.67788172572055
 20
-124.6583669132798
 30
0.0
 10
95.63307894908579
 20
-124.6135994132909
 30
0.0
 10
95.57797506160271
 20
-124.6135994132909
 30
0.0
 10
95.52283589634276
 20
-124.6135994132909
 30
0.0
 10
95.47806839748488
 20
-124.6583669132798
 30
0.0
 10
95.47806839748488
 20
-124.7135060799329
 30
0.0
 10
95.47806839748488
 20
-124.7686099688078
 30
0.0
 10
95.52283589634276
 20
-124.8134127465745
 30
0.0
 10
95.57797506160271
 20
-124.8134127465745
 30
0.0
 10
95.63307894908579
 20
-124.8134127465745
 30
0.0
 10
95.67788172572055
 20
-124.7686099688078
 30
0.0
 10
95.67788172572055
 20
-124.7135060799329
 30
0.0
  0
INSERT
  5
CF
330
1F
100
AcDbEntity
  8
_U+30EC_U+30A4_U+30E4_U+30FC 1
100
AcDbBlockReference
  2
block 9
 10
0.0
 20
0.0
 30
0.0
  0
POLYLINE
  5
D4
330
1F
100
AcDbEntity
  8
_U+30EC_U+30A4_U+30E4_U+30FC 1
 62
   179
420
  2234388
370
     9
100
AcDb2dPolyline
 66
     1
 10
0.0
 20
0.0
 30
0.0
  0
VERTEX
  5
D5
330
D4
100
AcDbEntity
  8
_U+30EC_U+30A4_U+30E4_U+30FC 1
 62
   179
420
  2234388
370
     9
100
AcDbVertex
100
AcDb2dVertex
 10
97.49758001262951
 20
-124.7135060799329
 30
0.0
  0
VERTEX
  5
D6
330
D4
100
AcDbEntity
  8
_U+30EC_U+30A4_U+30E4_U+30FC 1
 62
   179
420
  2234388
370
     9
100
AcDbVertex
100
AcDb2dVertex
 10
92.15906459327083
 20
-124.7135060799329
 30
0.0
  0
SEQEND
  5
D7
330
D4
100
AcDbEntity
  8
_U+30EC_U+30A4_U+30E4_U+30FC 1
 62
   179
420
  2234388
370
     9
  0
POLYLINE
  5
D8
330
1F
100
AcDbEntity
  8
_U+30EC_U+30A4_U+30E4_U+30FC 1
 62
   179
420
  2234388
370
    25
100
AcDb2dPolyline
 66
     1
 10
0.0
 20
0.0
 30
0.0
  0
VERTEX
  5
D9
330
D8
100
AcDbEntity
  8
_U+30EC_U+30A4_U+30E4_U+30FC 1
 62
   179
420
  2234388
370
    25
100
AcDbVertex
100
AcDb2dVertex
 10
79.79046435326455
 20
-133.8030371887715
 30
0.0
  0
VERTEX
  5
DA
330
D8
100
AcDbEntity
  8
_U+30EC_U+30A4_U+30E4_U+30FC 1
 62
   179
420
  2234388
370
    25
100
AcDbVertex
100
AcDb2dVertex
 10
79.29128381044416
 20
-134.203334133116
 30
0.0
  0
SEQEND
  5
DB
330
D8
100
AcDbEntity
  8
_U+30EC_U+30A4_U+30E4_U+30FC 1
 62
   179
420
  2234388
370
    25
  0
POLYLINE
  5
DC
330
1F
100
AcDbEntity
  8
_U+30EC_U+30A4_U+30E4_U+30FC 1
 62
   179
420
  2234388
370
    25
100
AcDb2dPolyline
 66
     1
 10
0.0
 20
0.0
 30
0.0
  0
VERTEX
  5
DD
330
DC
100
AcDbEntity
  8
_U+30EC_U+30A4_U+30E4_U+30FC 1
 62
   179
420
  2234388
370
    25
100
AcDbVertex
100
AcDb2dVertex
 10
79.79046435326455
 20
-133.8030371887715
 30
0.0
  0
VERTEX
  5
DE
330
DC
100
AcDbEntity
  8
_U+30EC_U+30A4_U+30E4_U+30FC 1
 62
   179
420
  2234388
370
    25
100
AcDbVertex
100
AcDb2dVertex
 10
80.29105600716007
 20
-134.2023110775603
 30
0.0
  0
SEQEND
  5
DF
330
DC
100
AcDbEntity
  8
_U+30EC_U+30A4_U+30E4_U+30FC 1
 62
   179
420
  2234388
370
    25
  0
POLYLINE
  5
E0
330
1F
100
AcDbEntity
  8
_U+30EC_U+30A4_U+30E4_U+30FC 1
 62
   179
420
  2234388
370
    25
100
AcDb2dPolyline
 66
     1
 10
0.0
 20
0.0
 30
0.0
  0
VERTEX
  5
E1
330
E0
100
AcDbEntity
  8
_U+30EC_U+30A4_U+30E4_U+30FC 1
 62
   179
420
  2234388
370
    25
100
AcDbVertex
100
AcDb2dVertex
 10
80.29105600716007
 20
-134.2023110775603
 30
0.0
  0
VERTEX
  5
E2
330
E0
100
AcDbEntity
  8
_U+30EC_U+30A4_U+30E4_U+30FC 1
 62
   179
420
  2234388
370
    25
100
AcDbVertex
100
AcDb2dVertex
 10
80.79125960550992
 20
-133.8020141332164
 30
0.0
  0
SEQEND
  5
E3
330
E0
100
AcDbEntity
  8
_U+30EC_U+30A4_U+30E4_U+30FC 1
 62
   179
420
  2234388
370
    25
  0
POLYLINE
  5
E4
330
1F
100
AcDbEntity
  8
_U+30EC_U+30A4_U+30E4_U+30FC 1
 62
   179
420
  2234388
370
    25
100
AcDb2dPolyline
 66
     1
 10
0.0
 20
0.0
 30
0.0
  0
VERTEX
  5
E5
330
E4
100
AcDbEntity
  8
_U+30EC_U+30A4_U+30E4_U+30FC 1
 62
   179
420
  2234388
370
    25
100
AcDbVertex
100
AcDb2dVertex
 10
80.79125960550992
 20
-133.8020141332164
 30
0.0
  0
VERTEX
  5
E6
330
E4
100
AcDbEntity
  8
_U+30EC_U+30A4_U+30E4_U+30FC 1
 62
   179
420
  2234388
370
    25
100
AcDbVertex
100
AcDb2dVertex
 10
81.29149848163665
 20
-134.2012880220051
 30
0.0
  0
SEQEND
  5
E7
330
E4
100
AcDbEntity
  8
_U+30EC_U+30A4_U+30E4_U+30FC 1
 62
   179
420
  2234388
370
    25
  0
POLYLINE
  5
E8
330
1F
100
AcDbEntity
  8
_U+30EC_U+30A4_U+30E4_U+30FC 1
 62
   179
420
  2234388
370
    25
100
AcDb2dPolyline
 66
     1
 10
0.0
 20
0.0
 30
0.0
  0
VERTEX
  5
E9
330
E8
100
AcDbEntity
  8
_U+30EC_U+30A4_U+30E4_U+30FC 1
 62
   179
420
  2234388
370
    25
100
AcDbVertex
100
AcDb2dVertex
 10
81.29149848163665
 20
-134.2012880220051
 30
0.0
  0
VERTEX
  5
EA
330
E8
100
AcDbEntity
  8
_U+30EC_U+30A4_U+30E4_U+30FC 1
 62
   179
420
  2234388
370
    25
100
AcDbVertex
100
AcDb2dVertex
 10
81.79071430223392
 20
-133.8009557998831
 30
0.0
  0
SEQEND
  5
EB
330
E8
100
AcDbEntity
  8
_U+30EC_U+30A4_U+30E4_U+30FC 1
 62
   179
420
  2234388
370
    25
  0
POLYLINE
  5
EC
330
1F
100
AcDbEntity
  8
_U+30EC_U+30A4_U+30E4_U+30FC 1
 62
   179
420
  2234388
370
    25
100
AcDb2dPolyline
 66
     1
 10
0.0
 20
0.0
 30
0.0
  0
VERTEX
  5
ED
330
EC
100
AcDbEntity
  8
_U+30EC_U+30A4_U+30E4_U+30FC 1
 62
   179
420
  2234388
370
    25
100
AcDbVertex
100
AcDb2dVertex
 10
81.79071430223392
 20
-133.8009557998831
 30
0.0
  0
VERTEX
  5
EE
330
EC
100
AcDbEntity
  8
_U+30EC_U+30A4_U+30E4_U+30FC 1
 62
   179
420
  2234388
370
    25
100
AcDbVertex
100
AcDb2dVertex
 10
82.29127067835256
 20
-134.2009352442274
 30
0.0
  0
SEQEND
  5
EF
330
EC
100
AcDbEntity
  8
_U+30EC_U+30A4_U+30E4_U+30FC 1
 62
   179
420
  2234388
370
    25
  0
POLYLINE
  5
F0
330
1F
100
AcDbEntity
  8
_U+30EC_U+30A4_U+30E4_U+30FC 1
 62
   179
420
  2234388
370
    25
100
AcDb2dPolyline
 66
     1
 10
0.0
 20
0.0
 30
0.0
  0
VERTEX
  5
F1
330
F0
100
AcDbEntity
  8
_U+30EC_U+30A4_U+30E4_U+30FC 1
 62
   179
420
  2234388
370
    25
100
AcDbVertex
100
AcDb2dVertex
 10
82.29127067835256
 20
-134.2009352442274
 30
0.0
  0
VERTEX
  5
F2
330
F0
100
AcDbEntity
  8
_U+30EC_U+30A4_U+30E4_U+30FC 1
 62
   179
420
  2234388
370
    25
100
AcDbVertex
100
AcDb2dVertex
 10
82.79045122117296
 20
-133.8006030221053
 30
0.0
  0
SEQEND
  5
F3
330
F0
100
AcDbEntity
  8
_U+30EC_U+30A4_U+30E4_U+30FC 1
 62
   179
420
  2234388
370
    25
  0
POLYLINE
  5
F4
330
1F
100
AcDbEntity
  8
_U+30EC_U+30A4_U+30E4_U+30FC 1
 62
   179
420
  2234388
370
    25
100
AcDb2dPolyline
 66
     1
 10
0.0
 20
0.0
 30
0.0
  0
VERTEX
  5
F5
330
F4
100
AcDbEntity
  8
_U+30EC_U+30A4_U+30E4_U+30FC 1
 62
   179
420
  2234388
370
    25
100
AcDbVertex
100
AcDb2dVertex
 10
82.79045122117296
 20
-133.8006030221053
 30
0.0
  0
VERTEX
  5
F6
330
F4
100
AcDbEntity
  8
_U+30EC_U+30A4_U+30E4_U+30FC 1
 62
   179
420
  2234388
370
    25
100
AcDbVertex
100
AcDb2dVertex
 10
83.29104287506847
 20
-134.1999121886723
 30
0.0
  0
SEQEND
  5
F7
330
F4
100
AcDbEntity
  8
_U+30EC_U+30A4_U+30E4_U+30FC 1
 62
   179
420
  2234388
370
    25
  0
POLYLINE
  5
F8
330
1F
100
AcDbEntity
  8
_U+30EC_U+30A4_U+30E4_U+30FC 1
 62
   179
420
  2234388
370
    25
100
AcDb2dPolyline
 66
     1
 10
0.0
 20
0.0
 30
0.0
  0
VERTEX
  5
F9
330
F8
100
AcDbEntity
  8
_U+30EC_U+30A4_U+30E4_U+30FC 1
 62
   179
420
  2234388
370
    25
100
AcDbVertex
100
AcDb2dVertex
 10
83.29104287506847
 20
-134.1999121886723
 30
0.0
  0
VERTEX
  5
FA
330
F8
100
AcDbEntity
  8
_U+30EC_U+30A4_U+30E4_U+30FC 1
 62
   179
420
  2234388
370
    25
100
AcDbVertex
100
AcDb2dVertex
 10
83.79057619565765
 20
-133.7995799665502
 30
0.0
  0
SEQEND
  5
FB
330
F8
100
AcDbEntity
  8
_U+30EC_U+30A4_U+30E4_U+30FC 1
 62
   179
420
  2234388
370
    25
  0
POLYLINE
  5
FC
330
1F
100
AcDbEntity
  8
_U+30EC_U+30A4_U+30E4_U+30FC 1
 62
   179
420
  2234388
370
    25
100
AcDb2dPolyline
 66
     1
 10
0.0
 20
0.0
 30
0.0
  0
VERTEX
  5
FD
330
FC
100
AcDbEntity
  8
_U+30EC_U+30A4_U+30E4_U+30FC 1
 62
   179
420
  2234388
370
    25
100
AcDbVertex
100
AcDb2dVertex
 10
83.79057619565765
 20
-133.7995799665502
 30
0.0
  0
VERTEX
  5
FE
330
FC
100
AcDbEntity
  8
_U+30EC_U+30A4_U+30E4_U+30FC 1
 62
   179
420
  2234388
370
    25
100
AcDbVertex
100
AcDb2dVertex
 10
84.29113257177627
 20
-134.1988891331171
 30
0.0
  0
SEQEND
  5
FF
330
FC
100
AcDbEntity
  8
_U+30EC_U+30A4_U+30E4_U+30FC 1
 62
   179
420
  2234388
370
    25
  0
POLYLINE
  5
100
330
1F
100
AcDbEntity
  8
_U+30EC_U+30A4_U+30E4_U+30FC 1
 62
   179
420
  2234388
370
    25
100
AcDb2dPolyline
 66
     1
 10
0.0
 20
0.0
 30
0.0
  0
VERTEX
  5
101
330
100
100
AcDbEntity
  8
_U+30EC_U+30A4_U+30E4_U+30FC 1
 62
   179
420
  2234388
370
    25
100
AcDbVertex
100
AcDb2dVertex
 10
84.29113257177627
 20
-134.1988891331171
 30
0.0
  0
VERTEX
  5
102
330
100
100
AcDbEntity
  8
_U+30EC_U+30A4_U+30E4_U+30FC 1
 62
   179
420
  2234388
370
    25
100
AcDbVertex
100
AcDb2dVertex
 10
84.79034839237355
 20
-133.7985569109951
 30
0.0
  0
SEQEND
  5
103
330
100
100
AcDbEntity
  8
_U+30EC_U+30A4_U+30E4_U+30FC 1
 62
   179
420
  2234388
370
    25
  0
POLYLINE
  5
104
330
1F
100
AcDbEntity
  8
_U+30EC_U+30A4_U+30E4_U+30FC 1
 62
   179
420
  2234388
370
    25
100
AcDb2dPolyline
 66
     1
 10
0.0
 20
0.0
 30
0.0
  0
VERTEX
  5
105
330
104
100
AcDbEntity
  8
_U+30EC_U+30A4_U+30E4_U+30FC 1
 62
   179
420
  2234388
370
    25
100
AcDbVertex
100
AcDb2dVertex
 10
84.79034839237355
 20
-133.7985569109951
 30
0.0
  0
VERTEX
  5
106
330
104
100
AcDbEntity
  8
_U+30EC_U+30A4_U+30E4_U+30FC 1
 62
   179
420
  2234388
370
    25
100
AcDbVertex
100
AcDb2dVertex
 10
85.29090476849218
 20
-134.1978307997839
 30
0.0
  0
SEQEND
  5
107
330
104
100
AcDbEntity
  8
_U+30EC_U+30A4_U+30E4_U+30FC 1
 62
   179
420
  2234388
370
    25
  0
POLYLINE
  5
108
330
1F
100
AcDbEntity
  8
_U+30EC_U+30A4_U+30E4_U+30FC 1
 62
   179
420
  2234388
370
    25
100
AcDb2dPolyline
 66
     1
 10
0.0
 20
0.0
 30
0.0
  0
VERTEX
  5
109
330
108
100
AcDbEntity
  8
_U+30EC_U+30A4_U+30E4_U+30FC 1
 62
   179
420
  2234388
370
    25
100
AcDbVertex
100
AcDb2dVertex
 10
85.29090476849218
 20
-134.1978307997839
 30
0.0
  0
VERTEX
  5
10A
330
108
100
AcDbEntity
  8
_U+30EC_U+30A4_U+30E4_U+30FC 1
 62
   179
420
  2234388
370
    25
100
AcDbVertex
100
AcDb2dVertex
 10
85.79012058908945
 20
-133.7975338554393
 30
0.0
  0
SEQEND
  5
10B
330
108
100
AcDbEntity
  8
_U+30EC_U+30A4_U+30E4_U+30FC 1
 62
   179
420
  2234388
370
    25
  0
POLYLINE
  5
10C
330
1F
100
AcDbEntity
  8
_U+30EC_U+30A4_U+30E4_U+30FC 1
 62
   179
420
  2234388
370
    25
100
AcDb2dPolyline
 66
     1
 10
0.0
 20
0.0
 30
0.0
  0
VERTEX
  5
10D
330
10C
100
AcDbEntity
  8
_U+30EC_U+30A4_U+30E4_U+30FC 1
 62
   179
420
  2234388
370
    25
100
AcDbVertex
100
AcDb2dVertex
 10
85.79012058908945
 20
-133.7975338554393
 30
0.0
  0
VERTEX
  5
10E
330
10C
100
AcDbEntity
  8
_U+30EC_U+30A4_U+30E4_U+30FC 1
 62
   179
420
  2234388
370
    25
100
AcDbVertex
100
AcDb2dVertex
 10
86.29032418743931
 20
-134.1968077442287
 30
0.0
  0
SEQEND
  5
10F
330
10C
100
AcDbEntity
  8
_U+30EC_U+30A4_U+30E4_U+30FC 1
 62
   179
420
  2234388
370
    25
  0
POLYLINE
  5
110
330
1F
100
AcDbEntity
  8
_U+30EC_U+30A4_U+30E4_U+30FC 1
 62
   179
420
  2234388
370
    25
100
AcDb2dPolyline
 66
     1
 10
0.0
 20
0.0
 30
0.0
  0
VERTEX
  5
111
330
110
100
AcDbEntity
  8
_U+30EC_U+30A4_U+30E4_U+30FC 1
 62
   179
420
  2234388
370
    25
100
AcDbVertex
100
AcDb2dVertex
 10
86.29032418743931
 20
-134.1968077442287
 30
0.0
  0
VERTEX
  5
112
330
110
100
AcDbEntity
  8
_U+30EC_U+30A4_U+30E4_U+30FC 1
 62
   179
420
  2234388
370
    25
100
AcDbVertex
100
AcDb2dVertex
 10
86.79056306356604
 20
-133.7964755221067
 30
0.0
  0
SEQEND
  5
113
330
110
100
AcDbEntity
  8
_U+30EC_U+30A4_U+30E4_U+30FC 1
 62
   179
420
  2234388
370
    25
  0
POLYLINE
  5
114
330
1F
100
AcDbEntity
  8
_U+30EC_U+30A4_U+30E4_U+30FC 1
 62
   179
420
  2234388
370
    25
100
AcDb2dPolyline
 66
     1
 10
0.0
 20
0.0
 30
0.0
  0
VERTEX
  5
115
330
114
100
AcDbEntity
  8
_U+30EC_U+30A4_U+30E4_U+30FC 1
 62
   179
420
  2234388
370
    25
100
AcDbVertex
100
AcDb2dVertex
 10
86.79056306356604
 20
-133.7964755221067
 30
0.0
  0
VERTEX
  5
116
330
114
100
AcDbEntity
  8
_U+30EC_U+30A4_U+30E4_U+30FC 1
 62
   179
420
  2234388
370
    25
100
AcDbVertex
100
AcDb2dVertex
 10
87.29115471746155
 20
-134.196454966451
 30
0.0
  0
SEQEND
  5
117
330
114
100
AcDbEntity
  8
_U+30EC_U+30A4_U+30E4_U+30FC 1
 62
   179
420
  2234388
370
    25
  0
POLYLINE
  5
118
330
1F
100
AcDbEntity
  8
_U+30EC_U+30A4_U+30E4_U+30FC 1
 62
     7
420
 16777215
370
    25
100
AcDb2dPolyline
 66
     1
 10
0.0
 20
0.0
 30
0.0
  0
VERTEX
  5
119
330
118
100
AcDbEntity
  8
_U+30EC_U+30A4_U+30E4_U+30FC 1
 62
     7
420
 16777215
370
    25
100
AcDbVertex
100
AcDb2dVertex
 10
94.58303592031906
 20
-121.0003788586388
 30
0.0
  0
VERTEX
  5
11A
330
118
100
AcDbEntity
  8
_U+30EC_U+30A4_U+30E4_U+30FC 1
 62
     7
420
 16777215
370
    25
100
AcDbVertex
100
AcDb2dVertex
 10
94.58303592031906
 20
-126.9968955238065
 30
0.0
  0
VERTEX
  5
11B
330
118
100
AcDbEntity
  8
_U+30EC_U+30A4_U+30E4_U+30FC 1
 62
     7
420
 16777215
370
    25
100
AcDbVertex
100
AcDb2dVertex
 10
88.58306218450225
 20
-126.9968955238065
 30
0.0
  0
VERTEX
  5
11C
330
118
100
AcDbEntity
  8
_U+30EC_U+30A4_U+30E4_U+30FC 1
 62
     7
420
 16777215
370
    25
100
AcDbVertex
100
AcDb2dVertex
 10
88.58306218450225
 20
-121.0003788586388
 30
0.0
  0
SEQEND
  5
11D
330
118
100
AcDbEntity
  8
_U+30EC_U+30A4_U+30E4_U+30FC 1
 62
     7
420
 16777215
370
    25
  0
POLYLINE
  5
11E
330
1F
100
AcDbEntity
  8
_U+30EC_U+30A4_U+30E4_U+30FC 1
 62
     7
420
 16777215
370
    25
100
AcDb2dPolyline
 66
     1
 10
0.0
 20
0.0
 30
0.0
  0
VERTEX
  5
11F
330
11E
100
AcDbEntity
  8
_U+30EC_U+30A4_U+30E4_U+30FC 1
 62
     7
420
 16777215
370
    25
100
AcDbVertex
100
AcDb2dVertex
 10
103.9133729045046
 20
-134.3004891330913
 30
0.0
  0
VERTEX
  5
120
330
11E
100
AcDbEntity
  8
_U+30EC_U+30A4_U+30E4_U+30FC 1
 62
     7
420
 16777215
370
    25
100
AcDbVertex
100
AcDb2dVertex
 10
99.8922707848692
 20
-134.3004891330913
 30
0.0
  0
VERTEX
  5
121
330
11E
100
AcDbEntity
  8
_U+30EC_U+30A4_U+30E4_U+30FC 1
 62
     7
420
 16777215
370
    25
100
AcDbVertex
100
AcDb2dVertex
 10
99.59255079251568
 20
-133.9997460776112
 30
0.0
  0
VERTEX
  5
122
330
11E
100
AcDbEntity
  8
_U+30EC_U+30A4_U+30E4_U+30FC 1
 62
     7
420
 16777215
370
    25
100
AcDbVertex
100
AcDb2dVertex
 10
95.58280811703497
 20
-133.9997460776112
 30
0.0
  0
VERTEX
  5
123
330
11E
100
AcDbEntity
  8
_U+30EC_U+30A4_U+30E4_U+30FC 1
 62
     7
420
 16777215
370
    25
100
AcDbVertex
100
AcDb2dVertex
 10
95.58280811703497
 20
-121.000026080861
 30
0.0
  0
VERTEX
  5
124
330
11E
100
AcDbEntity
  8
_U+30EC_U+30A4_U+30E4_U+30FC 1
 62
     7
420
 16777215
370
    25
100
AcDbVertex
100
AcDb2dVertex
 10
97.58267001045868
 20
-121.000026080861
 30
0.0
  0
SEQEND
  5
125
330
11E
100
AcDbEntity
  8
_U+30EC_U+30A4_U+30E4_U+30FC 1
 62
     7
420
 16777215
370
    25
  0
POLYLINE
  5
126
330
1F
100
AcDbEntity
  8
_U+30EC_U+30A4_U+30E4_U+30FC 1
 62
   179
420
  2234388
370
    25
100
AcDb2dPolyline
 66
     1
 10
0.0
 20
0.0
 30
0.0
  0
VERTEX
  5
127
330
126
100
AcDbEntity
  8
_U+30EC_U+30A4_U+30E4_U+30FC 1
 62
   179
420
  2234388
370
    25
100
AcDbVertex
100
AcDb2dVertex
 10
104.5837944182987
 20
-134.9998710773609
 30
0.0
  0
VERTEX
  5
128
330
126
100
AcDbEntity
  8
_U+30EC_U+30A4_U+30E4_U+30FC 1
 62
   179
420
  2234388
370
    25
100
AcDbVertex
100
AcDb2dVertex
 10
94.58303592031906
 20
-134.9998710773609
 30
0.0
  0
VERTEX
  5
129
330
126
100
AcDbEntity
  8
_U+30EC_U+30A4_U+30E4_U+30FC 1
 62
   179
420
  2234388
370
    25
100
AcDbVertex
100
AcDb2dVertex
 10
94.58303592031906
 20
-127.9966677457787
 30
0.0
  0
VERTEX
  5
12A
330
126
100
AcDbEntity
  8
_U+30EC_U+30A4_U+30E4_U+30FC 1
 62
   179
420
  2234388
370
    25
100
AcDbVertex
100
AcDb2dVertex
 10
88.58306218450225
 20
-127.9966677457787
 30
0.0
  0
VERTEX
  5
12B
330
126
100
AcDbEntity
  8
_U+30EC_U+30A4_U+30E4_U+30FC 1
 62
   179
420
  2234388
370
    25
100
AcDbVertex
100
AcDb2dVertex
 10
88.58306218450225
 20
-134.9998710773609
 30
0.0
  0
VERTEX
  5
12C
330
126
100
AcDbEntity
  8
_U+30EC_U+30A4_U+30E4_U+30FC 1
 62
   179
420
  2234388
370
    25
100
AcDbVertex
100
AcDb2dVertex
 10
73.58309442604879
 20
-134.9998710773609
 30
0.0
  0
VERTEX
  5
12D
330
126
100
AcDbEntity
  8
_U+30EC_U+30A4_U+30E4_U+30FC 1
 62
   179
420
  2234388
370
    25
100
AcDbVertex
100
AcDb2dVertex
 10
73.58309442604879
 20
-133.8075174665479
 30
0.0
  0
VERTEX
  5
12E
330
126
100
AcDbEntity
  8
_U+30EC_U+30A4_U+30E4_U+30FC 1
 62
   179
420
  2234388
370
    25
100
AcDbVertex
100
AcDb2dVertex
 10
74.79061559193244
 20
-133.8075174665479
 30
0.0
  0
VERTEX
  5
12F
330
126
100
AcDbEntity
  8
_U+30EC_U+30A4_U+30E4_U+30FC 1
 62
   179
420
  2234388
370
    25
100
AcDbVertex
100
AcDb2dVertex
 10
75.29085446805917
 20
-134.2067913553373
 30
0.0
  0
SEQEND
  5
130
330
126
100
AcDbEntity
  8
_U+30EC_U+30A4_U+30E4_U+30FC 1
 62
   179
420
  2234388
370
    25
  0
POLYLINE
  5
131
330
1F
100
AcDbEntity
  8
_U+30EC_U+30A4_U+30E4_U+30FC 1
 62
   179
420
  2234388
370
    25
100
AcDb2dPolyline
 66
     1
 10
0.0
 20
0.0
 30
0.0
  0
VERTEX
  5
132
330
131
100
AcDbEntity
  8
_U+30EC_U+30A4_U+30E4_U+30FC 1
 62
   179
420
  2234388
370
    25
100
AcDbVertex
100
AcDb2dVertex
 10
75.29085446805917
 20
-134.2067913553373
 30
0.0
  0
VERTEX
  5
133
330
131
100
AcDbEntity
  8
_U+30EC_U+30A4_U+30E4_U+30FC 1
 62
   179
420
  2234388
370
    25
100
AcDbVertex
100
AcDb2dVertex
 10
75.79105806640902
 20
-133.8064591332153
 30
0.0
  0
SEQEND
  5
134
330
131
100
AcDbEntity
  8
_U+30EC_U+30A4_U+30E4_U+30FC 1
 62
   179
420
  2234388
370
    25
  0
POLYLINE
  5
135
330
1F
100
AcDbEntity
  8
_U+30EC_U+30A4_U+30E4_U+30FC 1
 62
   179
420
  2234388
370
    25
100
AcDb2dPolyline
 66
     1
 10
0.0
 20
0.0
 30
0.0
  0
VERTEX
  5
136
330
135
100
AcDbEntity
  8
_U+30EC_U+30A4_U+30E4_U+30FC 1
 62
   179
420
  2234388
370
    25
100
AcDbVertex
100
AcDb2dVertex
 10
75.79105806640902
 20
-133.8064591332153
 30
0.0
  0
VERTEX
  5
137
330
135
100
AcDbEntity
  8
_U+30EC_U+30A4_U+30E4_U+30FC 1
 62
   179
420
  2234388
370
    25
100
AcDbVertex
100
AcDb2dVertex
 10
76.29129694253575
 20
-134.2057682997822
 30
0.0
  0
SEQEND
  5
138
330
135
100
AcDbEntity
  8
_U+30EC_U+30A4_U+30E4_U+30FC 1
 62
   179
420
  2234388
370
    25
  0
POLYLINE
  5
139
330
1F
100
AcDbEntity
  8
_U+30EC_U+30A4_U+30E4_U+30FC 1
 62
   179
420
  2234388
370
    25
100
AcDb2dPolyline
 66
     1
 10
0.0
 20
0.0
 30
0.0
  0
VERTEX
  5
13A
330
139
100
AcDbEntity
  8
_U+30EC_U+30A4_U+30E4_U+30FC 1
 62
   179
420
  2234388
370
    25
100
AcDbVertex
100
AcDb2dVertex
 10
76.29129694253575
 20
-134.2057682997822
 30
0.0
  0
VERTEX
  5
13B
330
139
100
AcDbEntity
  8
_U+30EC_U+30A4_U+30E4_U+30FC 1
 62
   179
420
  2234388
370
    25
100
AcDbVertex
100
AcDb2dVertex
 10
76.79083026312493
 20
-133.8054360776595
 30
0.0
  0
SEQEND
  5
13C
330
139
100
AcDbEntity
  8
_U+30EC_U+30A4_U+30E4_U+30FC 1
 62
   179
420
  2234388
370
    25
  0
POLYLINE
  5
13D
330
1F
100
AcDbEntity
  8
_U+30EC_U+30A4_U+30E4_U+30FC 1
 62
   179
420
  2234388
370
    25
100
AcDb2dPolyline
 66
     1
 10
0.0
 20
0.0
 30
0.0
  0
VERTEX
  5
13E
330
13D
100
AcDbEntity
  8
_U+30EC_U+30A4_U+30E4_U+30FC 1
 62
   179
420
  2234388
370
    25
100
AcDbVertex
100
AcDb2dVertex
 10
76.79083026312493
 20
-133.8054360776595
 30
0.0
  0
VERTEX
  5
13F
330
13D
100
AcDbEntity
  8
_U+30EC_U+30A4_U+30E4_U+30FC 1
 62
   179
420
  2234388
370
    25
100
AcDbVertex
100
AcDb2dVertex
 10
77.29106913925166
 20
-134.2047452442264
 30
0.0
  0
SEQEND
  5
140
330
13D
100
AcDbEntity
  8
_U+30EC_U+30A4_U+30E4_U+30FC 1
 62
   179
420
  2234388
370
    25
  0
POLYLINE
  5
141
330
1F
100
AcDbEntity
  8
_U+30EC_U+30A4_U+30E4_U+30FC 1
 62
   179
420
  2234388
370
    25
100
AcDb2dPolyline
 66
     1
 10
0.0
 20
0.0
 30
0.0
  0
VERTEX
  5
142
330
141
100
AcDbEntity
  8
_U+30EC_U+30A4_U+30E4_U+30FC 1
 62
   179
420
  2234388
370
    25
100
AcDbVertex
100
AcDb2dVertex
 10
77.29106913925166
 20
-134.2047452442264
 30
0.0
  0
VERTEX
  5
143
330
141
100
AcDbEntity
  8
_U+30EC_U+30A4_U+30E4_U+30FC 1
 62
   179
420
  2234388
370
    25
100
AcDbVertex
100
AcDb2dVertex
 10
77.79060245984084
 20
-133.8044130221044
 30
0.0
  0
SEQEND
  5
144
330
141
100
AcDbEntity
  8
_U+30EC_U+30A4_U+30E4_U+30FC 1
 62
   179
420
  2234388
370
    25
  0
POLYLINE
  5
145
330
1F
100
AcDbEntity
  8
_U+30EC_U+30A4_U+30E4_U+30FC 1
 62
   179
420
  2234388
370
    25
100
AcDb2dPolyline
 66
     1
 10
0.0
 20
0.0
 30
0.0
  0
VERTEX
  5
146
330
145
100
AcDbEntity
  8
_U+30EC_U+30A4_U+30E4_U+30FC 1
 62
   179
420
  2234388
370
    25
100
AcDbVertex
100
AcDb2dVertex
 10
77.79060245984084
 20
-133.8044130221044
 30
0.0
  0
VERTEX
  5
147
330
145
100
AcDbEntity
  8
_U+30EC_U+30A4_U+30E4_U+30FC 1
 62
   179
420
  2234388
370
    25
100
AcDbVertex
100
AcDb2dVertex
 10
78.29084133596757
 20
-134.2036869108938
 30
0.0
  0
SEQEND
  5
148
330
145
100
AcDbEntity
  8
_U+30EC_U+30A4_U+30E4_U+30FC 1
 62
   179
420
  2234388
370
    25
  0
POLYLINE
  5
149
330
1F
100
AcDbEntity
  8
_U+30EC_U+30A4_U+30E4_U+30FC 1
 62
   179
420
  2234388
370
    25
100
AcDb2dPolyline
 66
     1
 10
0.0
 20
0.0
 30
0.0
  0
VERTEX
  5
14A
330
149
100
AcDbEntity
  8
_U+30EC_U+30A4_U+30E4_U+30FC 1
 62
   179
420
  2234388
370
    25
100
AcDbVertex
100
AcDb2dVertex
 10
78.29084133596757
 20
-134.2036869108938
 30
0.0
  0
VERTEX
  5
14B
330
149
100
AcDbEntity
  8
_U+30EC_U+30A4_U+30E4_U+30FC 1
 62
   179
420
  2234388
370
    25
100
AcDbVertex
100
AcDb2dVertex
 10
78.79104493431743
 20
-133.8033899665492
 30
0.0
  0
SEQEND
  5
14C
330
149
100
AcDbEntity
  8
_U+30EC_U+30A4_U+30E4_U+30FC 1
 62
   179
420
  2234388
370
    25
  0
POLYLINE
  5
14D
330
1F
100
AcDbEntity
  8
_U+30EC_U+30A4_U+30E4_U+30FC 1
 62
   179
420
  2234388
370
    25
100
AcDb2dPolyline
 66
     1
 10
0.0
 20
0.0
 30
0.0
  0
VERTEX
  5
14E
330
14D
100
AcDbEntity
  8
_U+30EC_U+30A4_U+30E4_U+30FC 1
 62
   179
420
  2234388
370
    25
100
AcDbVertex
100
AcDb2dVertex
 10
78.79104493431743
 20
-133.8033899665492
 30
0.0
  0
VERTEX
  5
14F
330
14D
100
AcDbEntity
  8
_U+30EC_U+30A4_U+30E4_U+30FC 1
 62
   179
420
  2234388
370
    25
100
AcDbVertex
100
AcDb2dVertex
 10
79.29128381044416
 20
-134.203334133116
 30
0.0
  0
SEQEND
  5
150
330
14D
100
AcDbEntity
  8
_U+30EC_U+30A4_U+30E4_U+30FC 1
 62
   179
420
  2234388
370
    25
  0
POLYLINE
  5
151
330
1F
100
AcDbEntity
  8
_U+30EC_U+30A4_U+30E4_U+30FC 1
 62
   179
420
  2234388
370
    25
100
AcDb2dPolyline
 66
     1
 10
0.0
 20
0.0
 30
0.0
  0
VERTEX
  5
152
330
151
100
AcDbEntity
  8
_U+30EC_U+30A4_U+30E4_U+30FC 1
 62
   179
420
  2234388
370
    25
100
AcDbVertex
100
AcDb2dVertex
 10
87.29115471746155
 20
-134.196454966451
 30
0.0
  0
VERTEX
  5
153
330
151
100
AcDbEntity
  8
_U+30EC_U+30A4_U+30E4_U+30FC 1
 62
   179
420
  2234388
370
    25
100
AcDbVertex
100
AcDb2dVertex
 10
87.80617498210007
 20
-133.5150294110658
 30
0.0
  0
SEQEND
  5
154
330
151
100
AcDbEntity
  8
_U+30EC_U+30A4_U+30E4_U+30FC 1
 62
   179
420
  2234388
370
    25
  0
POLYLINE
  5
155
330
1F
100
AcDbEntity
  8
_U+30EC_U+30A4_U+30E4_U+30FC 1
 62
   179
420
  2234388
370
    25
100
AcDb2dPolyline
 66
     1
 10
0.0
 20
0.0
 30
0.0
  0
VERTEX
  5
156
330
155
100
AcDbEntity
  8
_U+30EC_U+30A4_U+30E4_U+30FC 1
 62
   179
420
  2234388
370
    25
100
AcDbVertex
100
AcDb2dVertex
 10
87.80617498210007
 20
-133.5150294110658
 30
0.0
  0
VERTEX
  5
157
330
155
100
AcDbEntity
  8
_U+30EC_U+30A4_U+30E4_U+30FC 1
 62
   179
420
  2234388
370
    25
100
AcDbVertex
100
AcDb2dVertex
 10
87.4051724923305
 20
-133.0151433000799
 30
0.0
  0
SEQEND
  5
158
330
155
100
AcDbEntity
  8
_U+30EC_U+30A4_U+30E4_U+30FC 1
 62
   179
420
  2234388
370
    25
  0
POLYLINE
  5
159
330
1F
100
AcDbEntity
  8
_U+30EC_U+30A4_U+30E4_U+30FC 1
 62
   179
420
  2234388
370
    25
100
AcDb2dPolyline
 66
     1
 10
0.0
 20
0.0
 30
0.0
  0
VERTEX
  5
15A
330
159
100
AcDbEntity
  8
_U+30EC_U+30A4_U+30E4_U+30FC 1
 62
   179
420
  2234388
370
    25
100
AcDbVertex
100
AcDb2dVertex
 10
87.80479914880183
 20
-132.515609966871
 30
0.0
  0
VERTEX
  5
15B
330
159
100
AcDbEntity
  8
_U+30EC_U+30A4_U+30E4_U+30FC 1
 62
   179
420
  2234388
370
    25
100
AcDbVertex
100
AcDb2dVertex
 10
87.40446693679294
 20
-132.0153710781073
 30
0.0
  0
SEQEND
  5
15C
330
159
100
AcDbEntity
  8
_U+30EC_U+30A4_U+30E4_U+30FC 1
 62
   179
420
  2234388
370
    25
  0
POLYLINE
  5
15D
330
1F
100
AcDbEntity
  8
_U+30EC_U+30A4_U+30E4_U+30FC 1
 62
   179
420
  2234388
370
    25
100
AcDb2dPolyline
 66
     1
 10
0.0
 20
0.0
 30
0.0
  0
VERTEX
  5
15E
330
15D
100
AcDbEntity
  8
_U+30EC_U+30A4_U+30E4_U+30FC 1
 62
   179
420
  2234388
370
    25
100
AcDbVertex
100
AcDb2dVertex
 10
87.4051724923305
 20
-133.0151433000799
 30
0.0
  0
VERTEX
  5
15F
330
15D
100
AcDbEntity
  8
_U+30EC_U+30A4_U+30E4_U+30FC 1
 62
   179
420
  2234388
370
    25
100
AcDbVertex
100
AcDb2dVertex
 10
87.80479914880183
 20
-132.515609966871
 30
0.0
  0
SEQEND
  5
160
330
15D
100
AcDbEntity
  8
_U+30EC_U+30A4_U+30E4_U+30FC 1
 62
   179
420
  2234388
370
    25
  0
POLYLINE
  5
161
330
1F
100
AcDbEntity
  8
_U+30EC_U+30A4_U+30E4_U+30FC 1
 62
   179
420
  2234388
370
    25
100
AcDb2dPolyline
 66
     1
 10
0.0
 20
0.0
 30
0.0
  0
VERTEX
  5
162
330
161
100
AcDbEntity
  8
_U+30EC_U+30A4_U+30E4_U+30FC 1
 62
   179
420
  2234388
370
    25
100
AcDbVertex
100
AcDb2dVertex
 10
87.80479914880183
 20
-131.5151321893436
 30
0.0
  0
VERTEX
  5
163
330
161
100
AcDbEntity
  8
_U+30EC_U+30A4_U+30E4_U+30FC 1
 62
   179
420
  2234388
370
    25
100
AcDbVertex
100
AcDb2dVertex
 10
87.40379665903227
 20
-131.0155988561348
 30
0.0
  0
SEQEND
  5
164
330
161
100
AcDbEntity
  8
_U+30EC_U+30A4_U+30E4_U+30FC 1
 62
   179
420
  2234388
370
    25
  0
POLYLINE
  5
165
330
1F
100
AcDbEntity
  8
_U+30EC_U+30A4_U+30E4_U+30FC 1
 62
   179
420
  2234388
370
    25
100
AcDb2dPolyline
 66
     1
 10
0.0
 20
0.0
 30
0.0
  0
VERTEX
  5
166
330
165
100
AcDbEntity
  8
_U+30EC_U+30A4_U+30E4_U+30FC 1
 62
   179
420
  2234388
370
    25
100
AcDbVertex
100
AcDb2dVertex
 10
87.40446693679294
 20
-132.0153710781073
 30
0.0
  0
VERTEX
  5
167
330
165
100
AcDbEntity
  8
_U+30EC_U+30A4_U+30E4_U+30FC 1
 62
   179
420
  2234388
370
    25
100
AcDbVertex
100
AcDb2dVertex
 10
87.80479914880183
 20
-131.5151321893436
 30
0.0
  0
SEQEND
  5
168
330
165
100
AcDbEntity
  8
_U+30EC_U+30A4_U+30E4_U+30FC 1
 62
   179
420
  2234388
370
    25
  0
POLYLINE
  5
169
330
1F
100
AcDbEntity
  8
_U+30EC_U+30A4_U+30E4_U+30FC 1
 62
   179
420
  2234388
370
    25
100
AcDb2dPolyline
 66
     1
 10
0.0
 20
0.0
 30
0.0
  0
VERTEX
  5
16A
330
169
100
AcDbEntity
  8
_U+30EC_U+30A4_U+30E4_U+30FC 1
 62
   179
420
  2234388
370
    25
100
AcDbVertex
100
AcDb2dVertex
 10
87.40379665903227
 20
-131.0155988561348
 30
0.0
  0
VERTEX
  5
16B
330
169
100
AcDbEntity
  8
_U+30EC_U+30A4_U+30E4_U+30FC 1
 62
   179
420
  2234388
370
    25
100
AcDbVertex
100
AcDb2dVertex
 10
87.80342331550361
 20
-130.5153599673711
 30
0.0
  0
SEQEND
  5
16C
330
169
100
AcDbEntity
  8
_U+30EC_U+30A4_U+30E4_U+30FC 1
 62
   179
420
  2234388
370
    25
  0
POLYLINE
  5
16D
330
1F
100
AcDbEntity
  8
_U+30EC_U+30A4_U+30E4_U+30FC 1
 62
   179
420
  2234388
370
    25
100
AcDb2dPolyline
 66
     1
 10
0.0
 20
0.0
 30
0.0
  0
VERTEX
  5
16E
330
16D
100
AcDbEntity
  8
_U+30EC_U+30A4_U+30E4_U+30FC 1
 62
   179
420
  2234388
370
    25
100
AcDbVertex
100
AcDb2dVertex
 10
87.80342331550361
 20
-130.5153599673711
 30
0.0
  0
VERTEX
  5
16F
330
16D
100
AcDbEntity
  8
_U+30EC_U+30A4_U+30E4_U+30FC 1
 62
   179
420
  2234388
370
    25
100
AcDbVertex
100
AcDb2dVertex
 10
87.40379665903227
 20
-130.0151563563849
 30
0.0
  0
SEQEND
  5
170
330
16D
100
AcDbEntity
  8
_U+30EC_U+30A4_U+30E4_U+30FC 1
 62
   179
420
  2234388
370
    25
  0
POLYLINE
  5
171
330
1F
100
AcDbEntity
  8
_U+30EC_U+30A4_U+30E4_U+30FC 1
 62
   179
420
  2234388
370
    25
100
AcDb2dPolyline
 66
     1
 10
0.0
 20
0.0
 30
0.0
  0
VERTEX
  5
172
330
171
100
AcDbEntity
  8
_U+30EC_U+30A4_U+30E4_U+30FC 1
 62
   179
420
  2234388
370
    25
100
AcDbVertex
100
AcDb2dVertex
 10
87.40379665903227
 20
-130.0151563563849
 30
0.0
  0
VERTEX
  5
173
330
171
100
AcDbEntity
  8
_U+30EC_U+30A4_U+30E4_U+30FC 1
 62
   179
420
  2234388
370
    25
100
AcDbVertex
100
AcDb2dVertex
 10
87.80271775996606
 20
-129.5149174676212
 30
0.0
  0
SEQEND
  5
174
330
171
100
AcDbEntity
  8
_U+30EC_U+30A4_U+30E4_U+30FC 1
 62
   179
420
  2234388
370
    25
  0
POLYLINE
  5
175
330
1F
100
AcDbEntity
  8
_U+30EC_U+30A4_U+30E4_U+30FC 1
 62
   179
420
  2234388
370
    25
100
AcDb2dPolyline
 66
     1
 10
0.0
 20
0.0
 30
0.0
  0
VERTEX
  5
176
330
175
100
AcDbEntity
  8
_U+30EC_U+30A4_U+30E4_U+30FC 1
 62
   179
420
  2234388
370
    25
100
AcDbVertex
100
AcDb2dVertex
 10
87.80271775996606
 20
-129.5149174676212
 30
0.0
  0
VERTEX
  5
177
330
175
100
AcDbEntity
  8
_U+30EC_U+30A4_U+30E4_U+30FC 1
 62
   179
420
  2234388
370
    25
100
AcDbVertex
100
AcDb2dVertex
 10
87.40242082573403
 20
-129.015384134413
 30
0.0
  0
SEQEND
  5
178
330
175
100
AcDbEntity
  8
_U+30EC_U+30A4_U+30E4_U+30FC 1
 62
   179
420
  2234388
370
    25
  0
POLYLINE
  5
179
330
1F
100
AcDbEntity
  8
_U+30EC_U+30A4_U+30E4_U+30FC 1
 62
   179
420
  2234388
370
    25
100
AcDb2dPolyline
 66
     1
 10
0.0
 20
0.0
 30
0.0
  0
VERTEX
  5
17A
330
179
100
AcDbEntity
  8
_U+30EC_U+30A4_U+30E4_U+30FC 1
 62
   179
420
  2234388
370
    25
100
AcDbVertex
100
AcDb2dVertex
 10
87.40242082573403
 20
-129.015384134413
 30
0.0
  0
VERTEX
  5
17B
330
179
100
AcDbEntity
  8
_U+30EC_U+30A4_U+30E4_U+30FC 1
 62
   179
420
  2234388
370
    25
100
AcDbVertex
100
AcDb2dVertex
 10
87.80204748220537
 20
-128.5151452456489
 30
0.0
  0
SEQEND
  5
17C
330
179
100
AcDbEntity
  8
_U+30EC_U+30A4_U+30E4_U+30FC 1
 62
   179
420
  2234388
370
    25
  0
POLYLINE
  5
17D
330
1F
100
AcDbEntity
  8
_U+30EC_U+30A4_U+30E4_U+30FC 1
 62
   179
420
  2234388
370
    25
100
AcDb2dPolyline
 66
     1
 10
0.0
 20
0.0
 30
0.0
  0
VERTEX
  5
17E
330
17D
100
AcDbEntity
  8
_U+30EC_U+30A4_U+30E4_U+30FC 1
 62
   179
420
  2234388
370
    25
100
AcDbVertex
100
AcDb2dVertex
 10
87.80204748220537
 20
-128.5151452456489
 30
0.0
  0
VERTEX
  5
17F
330
17D
100
AcDbEntity
  8
_U+30EC_U+30A4_U+30E4_U+30FC 1
 62
   179
420
  2234388
370
    25
100
AcDbVertex
100
AcDb2dVertex
 10
87.40171527019648
 20
-128.0149416346631
 30
0.0
  0
SEQEND
  5
180
330
17D
100
AcDbEntity
  8
_U+30EC_U+30A4_U+30E4_U+30FC 1
 62
   179
420
  2234388
370
    25
  0
POLYLINE
  5
181
330
1F
100
AcDbEntity
  8
_U+30EC_U+30A4_U+30E4_U+30FC 1
 62
   179
420
  2234388
370
    25
100
AcDb2dPolyline
 66
     1
 10
0.0
 20
0.0
 30
0.0
  0
VERTEX
  5
182
330
181
100
AcDbEntity
  8
_U+30EC_U+30A4_U+30E4_U+30FC 1
 62
   179
420
  2234388
370
    25
100
AcDbVertex
100
AcDb2dVertex
 10
87.40171527019648
 20
-128.0149416346631
 30
0.0
  0
VERTEX
  5
183
330
181
100
AcDbEntity
  8
_U+30EC_U+30A4_U+30E4_U+30FC 1
 62
   179
420
  2234388
370
    25
100
AcDbVertex
100
AcDb2dVertex
 10
87.80067164890714
 20
-127.514702745899
 30
0.0
  0
SEQEND
  5
184
330
181
100
AcDbEntity
  8
_U+30EC_U+30A4_U+30E4_U+30FC 1
 62
   179
420
  2234388
370
    25
  0
POLYLINE
  5
185
330
1F
100
AcDbEntity
  8
_U+30EC_U+30A4_U+30E4_U+30FC 1
 62
   179
420
  2234388
370
    25
100
AcDb2dPolyline
 66
     1
 10
0.0
 20
0.0
 30
0.0
  0
VERTEX
  5
186
330
185
100
AcDbEntity
  8
_U+30EC_U+30A4_U+30E4_U+30FC 1
 62
   179
420
  2234388
370
    25
100
AcDbVertex
100
AcDb2dVertex
 10
87.80067164890714
 20
-127.514702745899
 30
0.0
  0
VERTEX
  5
187
330
185
100
AcDbEntity
  8
_U+30EC_U+30A4_U+30E4_U+30FC 1
 62
   179
420
  2234388
370
    25
100
AcDbVertex
100
AcDb2dVertex
 10
87.4003416448165
 20
-127.0151694126905
 30
0.0
  0
SEQEND
  5
188
330
185
100
AcDbEntity
  8
_U+30EC_U+30A4_U+30E4_U+30FC 1
 62
   179
420
  2234388
370
    25
  0
POLYLINE
  5
189
330
1F
100
AcDbEntity
  8
_U+30EC_U+30A4_U+30E4_U+30FC 1
 62
   179
420
  2234388
370
    25
100
AcDb2dPolyline
 66
     1
 10
0.0
 20
0.0
 30
0.0
  0
VERTEX
  5
18A
330
189
100
AcDbEntity
  8
_U+30EC_U+30A4_U+30E4_U+30FC 1
 62
   179
420
  2234388
370
    25
100
AcDbVertex
100
AcDb2dVertex
 10
87.4003416448165
 20
-127.0151694126905
 30
0.0
  0
VERTEX
  5
18B
330
189
100
AcDbEntity
  8
_U+30EC_U+30A4_U+30E4_U+30FC 1
 62
   179
420
  2234388
370
    25
100
AcDbVertex
100
AcDb2dVertex
 10
87.80067164890714
 20
-126.5149305239268
 30
0.0
  0
SEQEND
  5
18C
330
189
100
AcDbEntity
  8
_U+30EC_U+30A4_U+30E4_U+30FC 1
 62
   179
420
  2234388
370
    25
  0
POLYLINE
  5
18D
330
1F
100
AcDbEntity
  8
_U+30EC_U+30A4_U+30E4_U+30FC 1
 62
   179
420
  2234388
370
    25
100
AcDb2dPolyline
 66
     1
 10
0.0
 20
0.0
 30
0.0
  0
VERTEX
  5
18E
330
18D
100
AcDbEntity
  8
_U+30EC_U+30A4_U+30E4_U+30FC 1
 62
   179
420
  2234388
370
    25
100
AcDbVertex
100
AcDb2dVertex
 10
87.80067164890714
 20
-126.5149305239268
 30
0.0
  0
VERTEX
  5
18F
330
18D
100
AcDbEntity
  8
_U+30EC_U+30A4_U+30E4_U+30FC 1
 62
   179
420
  2234388
370
    25
100
AcDbVertex
100
AcDb2dVertex
 10
87.4003416448165
 20
-126.0153971907183
 30
0.0
  0
SEQEND
  5
190
330
18D
100
AcDbEntity
  8
_U+30EC_U+30A4_U+30E4_U+30FC 1
 62
   179
420
  2234388
370
    25
  0
POLYLINE
  5
191
330
1F
100
AcDbEntity
  8
_U+30EC_U+30A4_U+30E4_U+30FC 1
 62
   179
420
  2234388
370
    25
100
AcDb2dPolyline
 66
     1
 10
0.0
 20
0.0
 30
0.0
  0
VERTEX
  5
192
330
191
100
AcDbEntity
  8
_U+30EC_U+30A4_U+30E4_U+30FC 1
 62
   179
420
  2234388
370
    25
100
AcDbVertex
100
AcDb2dVertex
 10
87.4003416448165
 20
-126.0153971907183
 30
0.0
  0
VERTEX
  5
193
330
191
100
AcDbEntity
  8
_U+30EC_U+30A4_U+30E4_U+30FC 1
 62
   179
420
  2234388
370
    25
100
AcDbVertex
100
AcDb2dVertex
 10
87.79929581560891
 20
-125.5151583019546
 30
0.0
  0
SEQEND
  5
194
330
191
100
AcDbEntity
  8
_U+30EC_U+30A4_U+30E4_U+30FC 1
 62
   179
420
  2234388
370
    25
  0
POLYLINE
  5
195
330
1F
100
AcDbEntity
  8
_U+30EC_U+30A4_U+30E4_U+30FC 1
 62
   179
420
  2234388
370
    25
100
AcDb2dPolyline
 66
     1
 10
0.0
 20
0.0
 30
0.0
  0
VERTEX
  5
196
330
195
100
AcDbEntity
  8
_U+30EC_U+30A4_U+30E4_U+30FC 1
 62
   179
420
  2234388
370
    25
100
AcDbVertex
100
AcDb2dVertex
 10
87.79929581560891
 20
-125.5151583019546
 30
0.0
  0
VERTEX
  5
197
330
195
100
AcDbEntity
  8
_U+30EC_U+30A4_U+30E4_U+30FC 1
 62
   179
420
  2234388
370
    25
100
AcDbVertex
100
AcDb2dVertex
 10
87.39896360360001
 20
-125.0152721909683
 30
0.0
  0
SEQEND
  5
198
330
195
100
AcDbEntity
  8
_U+30EC_U+30A4_U+30E4_U+30FC 1
 62
   179
420
  2234388
370
    25
  0
POLYLINE
  5
199
330
1F
100
AcDbEntity
  8
_U+30EC_U+30A4_U+30E4_U+30FC 1
 62
   179
420
  2234388
370
    25
100
AcDb2dPolyline
 66
     1
 10
0.0
 20
0.0
 30
0.0
  0
VERTEX
  5
19A
330
199
100
AcDbEntity
  8
_U+30EC_U+30A4_U+30E4_U+30FC 1
 62
   179
420
  2234388
370
    25
100
AcDbVertex
100
AcDb2dVertex
 10
87.39896360360001
 20
-125.0152721909683
 30
0.0
  0
VERTEX
  5
19B
330
199
100
AcDbEntity
  8
_U+30EC_U+30A4_U+30E4_U+30FC 1
 62
   179
420
  2234388
370
    25
100
AcDbVertex
100
AcDb2dVertex
 10
87.79859026007135
 20
-124.5147158022047
 30
0.0
  0
SEQEND
  5
19C
330
199
100
AcDbEntity
  8
_U+30EC_U+30A4_U+30E4_U+30FC 1
 62
   179
420
  2234388
370
    25
  0
POLYLINE
  5
19D
330
1F
100
AcDbEntity
  8
_U+30EC_U+30A4_U+30E4_U+30FC 1
 62
   179
420
  2234388
370
    25
100
AcDb2dPolyline
 66
     1
 10
0.0
 20
0.0
 30
0.0
  0
VERTEX
  5
19E
330
19D
100
AcDbEntity
  8
_U+30EC_U+30A4_U+30E4_U+30FC 1
 62
   179
420
  2234388
370
    25
100
AcDbVertex
100
AcDb2dVertex
 10
87.79859026007135
 20
-124.5147158022047
 30
0.0
  0
VERTEX
  5
19F
330
19D
100
AcDbEntity
  8
_U+30EC_U+30A4_U+30E4_U+30FC 1
 62
   179
420
  2234388
370
    25
100
AcDbVertex
100
AcDb2dVertex
 10
87.39829332583933
 20
-124.0154999689961
 30
0.0
  0
SEQEND
  5
1A0
330
19D
100
AcDbEntity
  8
_U+30EC_U+30A4_U+30E4_U+30FC 1
 62
   179
420
  2234388
370
    25
  0
POLYLINE
  5
1A1
330
1F
100
AcDbEntity
  8
_U+30EC_U+30A4_U+30E4_U+30FC 1
 62
   179
420
  2234388
370
    25
100
AcDb2dPolyline
 66
     1
 10
0.0
 20
0.0
 30
0.0
  0
VERTEX
  5
1A2
330
1A1
100
AcDbEntity
  8
_U+30EC_U+30A4_U+30E4_U+30FC 1
 62
   179
420
  2234388
370
    25
100
AcDbVertex
100
AcDb2dVertex
 10
87.39829332583933
 20
-124.0154999689961
 30
0.0
  0
VERTEX
  5
1A3
330
1A1
100
AcDbEntity
  8
_U+30EC_U+30A4_U+30E4_U+30FC 1
 62
   179
420
  2234388
370
    25
100
AcDbVertex
100
AcDb2dVertex
 10
87.7972166447173
 20
-123.5149435802325
 30
0.0
  0
SEQEND
  5
1A4
330
1A1
100
AcDbEntity
  8
_U+30EC_U+30A4_U+30E4_U+30FC 1
 62
   179
420
  2234388
370
    25
  0
POLYLINE
  5
1A5
330
1F
100
AcDbEntity
  8
_U+30EC_U+30A4_U+30E4_U+30FC 1
 62
   179
420
  2234388
370
    25
100
AcDb2dPolyline
 66
     1
 10
0.0
 20
0.0
 30
0.0
  0
VERTEX
  5
1A6
330
1A5
100
AcDbEntity
  8
_U+30EC_U+30A4_U+30E4_U+30FC 1
 62
   179
420
  2234388
370
    25
100
AcDbVertex
100
AcDb2dVertex
 10
87.7972166447173
 20
-123.5149435802325
 30
0.0
  0
VERTEX
  5
1A7
330
1A5
100
AcDbEntity
  8
_U+30EC_U+30A4_U+30E4_U+30FC 1
 62
   179
420
  2234388
370
    25
100
AcDbVertex
100
AcDb2dVertex
 10
87.3969174925411
 20
-123.0157630248017
 30
0.0
  0
SEQEND
  5
1A8
330
1A5
100
AcDbEntity
  8
_U+30EC_U+30A4_U+30E4_U+30FC 1
 62
   179
420
  2234388
370
    25
  0
POLYLINE
  5
1A9
330
1F
100
AcDbEntity
  8
_U+30EC_U+30A4_U+30E4_U+30FC 1
 62
   179
420
  2234388
370
    25
100
AcDb2dPolyline
 66
     1
 10
0.0
 20
0.0
 30
0.0
  0
VERTEX
  5
1AA
330
1A9
100
AcDbEntity
  8
_U+30EC_U+30A4_U+30E4_U+30FC 1
 62
   179
420
  2234388
370
    25
100
AcDbVertex
100
AcDb2dVertex
 10
87.3969174925411
 20
-123.0157630248017
 30
0.0
  0
VERTEX
  5
1AB
330
1A9
100
AcDbEntity
  8
_U+30EC_U+30A4_U+30E4_U+30FC 1
 62
   179
420
  2234388
370
    25
100
AcDbVertex
100
AcDb2dVertex
 10
87.79654414901245
 20
-122.5155241360377
 30
0.0
  0
SEQEND
  5
1AC
330
1A9
100
AcDbEntity
  8
_U+30EC_U+30A4_U+30E4_U+30FC 1
 62
   179
420
  2234388
370
    25
  0
POLYLINE
  5
1AD
330
1F
100
AcDbEntity
  8
_U+30EC_U+30A4_U+30E4_U+30FC 1
 62
   179
420
  2234388
370
    25
100
AcDb2dPolyline
 66
     1
 10
0.0
 20
0.0
 30
0.0
  0
VERTEX
  5
1AE
330
1AD
100
AcDbEntity
  8
_U+30EC_U+30A4_U+30E4_U+30FC 1
 62
   179
420
  2234388
370
    25
100
AcDbVertex
100
AcDb2dVertex
 10
87.79654414901245
 20
-122.5155241360377
 30
0.0
  0
VERTEX
  5
1AF
330
1AD
100
AcDbEntity
  8
_U+30EC_U+30A4_U+30E4_U+30FC 1
 62
   179
420
  2234388
370
    25
100
AcDbVertex
100
AcDb2dVertex
 10
87.39621193700354
 20
-122.015285247274
 30
0.0
  0
SEQEND
  5
1B0
330
1AD
100
AcDbEntity
  8
_U+30EC_U+30A4_U+30E4_U+30FC 1
 62
   179
420
  2234388
370
    25
  0
POLYLINE
  5
1B1
330
1F
100
AcDbEntity
  8
_U+30EC_U+30A4_U+30E4_U+30FC 1
 62
   179
420
  2234388
370
    25
100
AcDb2dPolyline
 66
     1
 10
0.0
 20
0.0
 30
0.0
  0
VERTEX
  5
1B2
330
1B1
100
AcDbEntity
  8
_U+30EC_U+30A4_U+30E4_U+30FC 1
 62
   179
420
  2234388
370
    25
100
AcDbVertex
100
AcDb2dVertex
 10
87.39621193700354
 20
-122.015285247274
 30
0.0
  0
VERTEX
  5
1B3
330
1B1
100
AcDbEntity
  8
_U+30EC_U+30A4_U+30E4_U+30FC 1
 62
   179
420
  2234388
370
    25
100
AcDbVertex
100
AcDb2dVertex
 10
87.79583859347488
 20
-121.5147288585104
 30
0.0
  0
SEQEND
  5
1B4
330
1B1
100
AcDbEntity
  8
_U+30EC_U+30A4_U+30E4_U+30FC 1
 62
   179
420
  2234388
370
    25
  0
POLYLINE
  5
1B5
330
1F
100
AcDbEntity
  8
_U+30EC_U+30A4_U+30E4_U+30FC 1
 62
   179
420
  2234388
370
    25
100
AcDb2dPolyline
 66
     1
 10
0.0
 20
0.0
 30
0.0
  0
VERTEX
  5
1B6
330
1B5
100
AcDbEntity
  8
_U+30EC_U+30A4_U+30E4_U+30FC 1
 62
   179
420
  2234388
370
    25
100
AcDbVertex
100
AcDb2dVertex
 10
87.79583859347488
 20
-121.5147288585104
 30
0.0
  0
VERTEX
  5
1B7
330
1B5
100
AcDbEntity
  8
_U+30EC_U+30A4_U+30E4_U+30FC 1
 62
   179
420
  2234388
370
    25
100
AcDbVertex
100
AcDb2dVertex
 10
87.3831238817819
 20
-121.000026080861
 30
0.0
  0
SEQEND
  5
1B8
330
1B5
100
AcDbEntity
  8
_U+30EC_U+30A4_U+30E4_U+30FC 1
 62
   179
420
  2234388
370
    25
  0
POLYLINE
  5
1B9
330
1F
100
AcDbEntity
  8
_U+30EC_U+30A4_U+30E4_U+30FC 1
 62
   179
420
  2234388
370
    25
100
AcDb2dPolyline
 66
     1
 10
0.0
 20
0.0
 30
0.0
  0
VERTEX
  5
1BA
330
1B9
100
AcDbEntity
  8
_U+30EC_U+30A4_U+30E4_U+30FC 1
 62
   179
420
  2234388
370
    25
100
AcDbVertex
100
AcDb2dVertex
 10
85.56755309476763
 20
-121.0138196919686
 30
0.0
  0
VERTEX
  5
1BB
330
1B9
100
AcDbEntity
  8
_U+30EC_U+30A4_U+30E4_U+30FC 1
 62
   179
420
  2234388
370
    25
100
AcDbVertex
100
AcDb2dVertex
 10
86.06779197089436
 20
-121.4130935807578
 30
0.0
  0
SEQEND
  5
1BC
330
1B9
100
AcDbEntity
  8
_U+30EC_U+30A4_U+30E4_U+30FC 1
 62
   179
420
  2234388
370
    25
  0
POLYLINE
  5
1BD
330
1F
100
AcDbEntity
  8
_U+30EC_U+30A4_U+30E4_U+30FC 1
 62
   179
420
  2234388
370
    25
100
AcDb2dPolyline
 66
     1
 10
0.0
 20
0.0
 30
0.0
  0
VERTEX
  5
1BE
330
1BD
100
AcDbEntity
  8
_U+30EC_U+30A4_U+30E4_U+30FC 1
 62
   179
420
  2234388
370
    25
100
AcDbVertex
100
AcDb2dVertex
 10
86.06779197089436
 20
-121.4130935807578
 30
0.0
  0
VERTEX
  5
1BF
330
1BD
100
AcDbEntity
  8
_U+30EC_U+30A4_U+30E4_U+30FC 1
 62
   179
420
  2234388
370
    25
100
AcDbVertex
100
AcDb2dVertex
 10
86.56799556924422
 20
-121.0127613586357
 30
0.0
  0
SEQEND
  5
1C0
330
1BD
100
AcDbEntity
  8
_U+30EC_U+30A4_U+30E4_U+30FC 1
 62
   179
420
  2234388
370
    25
  0
POLYLINE
  5
1C1
330
1F
100
AcDbEntity
  8
_U+30EC_U+30A4_U+30E4_U+30FC 1
 62
   179
420
  2234388
370
    25
100
AcDb2dPolyline
 66
     1
 10
0.0
 20
0.0
 30
0.0
  0
VERTEX
  5
1C2
330
1C1
100
AcDbEntity
  8
_U+30EC_U+30A4_U+30E4_U+30FC 1
 62
   179
420
  2234388
370
    25
100
AcDbVertex
100
AcDb2dVertex
 10
86.56799556924422
 20
-121.0127613586357
 30
0.0
  0
VERTEX
  5
1C3
330
1C1
100
AcDbEntity
  8
_U+30EC_U+30A4_U+30E4_U+30FC 1
 62
   179
420
  2234388
370
    25
100
AcDbVertex
100
AcDb2dVertex
 10
87.06823444537095
 20
-121.41274080298
 30
0.0
  0
SEQEND
  5
1C4
330
1C1
100
AcDbEntity
  8
_U+30EC_U+30A4_U+30E4_U+30FC 1
 62
   179
420
  2234388
370
    25
  0
POLYLINE
  5
1C5
330
1F
100
AcDbEntity
  8
_U+30EC_U+30A4_U+30E4_U+30FC 1
 62
   179
420
  2234388
370
    25
100
AcDb2dPolyline
 66
     1
 10
0.0
 20
0.0
 30
0.0
  0
VERTEX
  5
1C6
330
1C5
100
AcDbEntity
  8
_U+30EC_U+30A4_U+30E4_U+30FC 1
 62
   179
420
  2234388
370
    25
100
AcDbVertex
100
AcDb2dVertex
 10
87.06823444537095
 20
-121.41274080298
 30
0.0
  0
VERTEX
  5
1C7
330
1C5
100
AcDbEntity
  8
_U+30EC_U+30A4_U+30E4_U+30FC 1
 62
   179
420
  2234388
370
    25
100
AcDbVertex
100
AcDb2dVertex
 10
87.3831238817819
 20
-121.000026080861
 30
0.0
  0
SEQEND
  5
1C8
330
1C5
100
AcDbEntity
  8
_U+30EC_U+30A4_U+30E4_U+30FC 1
 62
   179
420
  2234388
370
    25
  0
SPLINE
  5
1C9
330
1F
100
AcDbEntity
  8
_U+30EC_U+30A4_U+30E4_U+30FC 1
 62
     7
420
 16777215
370
    25
100
AcDbSpline
210
0.0
220
0.0
230
1.0
 70
     8
 71
     3
 72
     8
 73
     4
 74
     0
 42
0.0000000001
 43
0.0000000001
 12
1.0
 22
0.0
 32
0.0
 13
1.0
 23
0.0
 33
0.0
 40
0.0
 40
0.0
 40
0.0
 40
0.0
 40
1.0
 40
1.0
 40
1.0
 40
1.0
 10
103.9133729045046
 20
-134.2998188553139
 30
0.0
 10
104.2999115057542
 20
-134.2998188553139
 30
0.0
 10
104.6134277516242
 20
-134.6133324663465
 30
0.0
 10
104.6134277516242
 20
-134.9998710773609
 30
0.0
  0
SPLINE
  5
1CA
330
1F
100
AcDbEntity
  8
_U+30EC_U+30A4_U+30E4_U+30FC 1
 62
     7
420
 16777215
370
    25
100
AcDbSpline
210
0.0
220
0.0
230
1.0
 70
     8
 71
     3
 72
     8
 73
     4
 74
     0
 42
0.0000000001
 43
0.0000000001
 12
1.0
 22
0.0
 32
0.0
 13
1.0
 23
0.0
 33
0.0
 40
0.0
 40
0.0
 40
0.0
 40
0.0
 40
1.0
 40
1.0
 40
1.0
 40
1.0
 10
96.582545035974
 20
-120.0002538588888
 30
0.0
 10
97.13481863299543
 20
-120.0002538588888
 30
0.0
 10
97.58267001045868
 20
-120.4481052476658
 30
0.0
 10
97.58267001045868
 20
-121.000026080861
 30
0.0
  0
SPLINE
  5
1CB
330
1F
100
AcDbEntity
  8
_U+30EC_U+30A4_U+30E4_U+30FC 1
 62
     7
420
 16777215
370
    25
100
AcDbSpline
210
0.0
220
0.0
230
1.0
 70
     8
 71
     3
 72
     8
 73
     4
 74
     0
 42
0.0000000001
 43
0.0000000001
 12
1.0
 22
0.0
 32
0.0
 13
1.0
 23
0.0
 33
0.0
 40
0.0
 40
0.0
 40
0.0
 40
0.0
 40
1.0
 40
1.0
 40
1.0
 40
1.0
 10
85.56755309476763
 20
-121.0138196919686
 30
0.0
 10
85.56755309476763
 20
-120.461193303218
 30
0.0
 10
86.01540447223088
 20
-120.0133419144412
 30
0.0
 10
86.56732529148354
 20
-120.0133419144412
 30
0.0
  0
SPLINE
  5
1CC
330
1F
100
AcDbEntity
  8
_U+30EC_U+30A4_U+30E4_U+30FC 1
 62
     7
420
 16777215
370
    25
100
AcDbSpline
210
0.0
220
0.0
230
1.0
 70
     8
 71
     3
 72
     8
 73
     4
 74
     0
 42
0.0000000001
 43
0.0000000001
 12
1.0
 22
0.0
 32
0.0
 13
1.0
 23
0.0
 33
0.0
 40
0.0
 40
0.0
 40
0.0
 40
0.0
 40
1.0
 40
1.0
 40
1.0
 40
1.0
 10
87.58639443215158
 20
-120.0002538588888
 30
0.0
 10
88.13898552916493
 20
-120.0002538588888
 30
0.0
 10
88.5864841288594
 20
-120.4479288587769
 30
0.0
 10
88.5864841288594
 20
-120.9998496919724
 30
0.0
  0
SPLINE
  5
1CD
330
1F
100
AcDbEntity
  8
_U+30EC_U+30A4_U+30E4_U+30FC 1
 62
     7
420
 16777215
370
    25
100
AcDbSpline
210
0.0
220
0.0
230
1.0
 70
     8
 71
     3
 72
     8
 73
     4
 74
     0
 42
0.0000000001
 43
0.0000000001
 12
1.0
 22
0.0
 32
0.0
 13
1.0
 23
0.0
 33
0.0
 40
0.0
 40
0.0
 40
0.0
 40
0.0
 40
1.0
 40
1.0
 40
1.0
 40
1.0
 10
94.57993147595381
 20
-121.0005552475276
 30
0.0
 10
94.57993147595381
 20
-120.4482816365547
 30
0.0
 10
95.02778285341707
 20
-120.0002538588888
 30
0.0
 10
95.58002117266162
 20
-120.0002538588888
 30
0.0
  0
POLYLINE
  5
1CE
330
1F
100
AcDbEntity
  8
_U+30EC_U+30A4_U+30E4_U+30FC 1
 62
     7
420
 16777215
370
    25
100
AcDb2dPolyline
 66
     1
 10
0.0
 20
0.0
 30
0.0
  0
VERTEX
  5
1CF
330
1CE
100
AcDbEntity
  8
_U+30EC_U+30A4_U+30E4_U+30FC 1
 62
     7
420
 16777215
370
    25
100
AcDbVertex
100
AcDb2dVertex
 10
87.58639443215158
 20
-119.999901081111
 30
0.0
  0
VERTEX
  5
1D0
330
1CE
100
AcDbEntity
  8
_U+30EC_U+30A4_U+30E4_U+30FC 1
 62
     7
420
 16777215
370
    25
100
AcDbVertex
100
AcDb2dVertex
 10
86.58316501330165
 20
-120.0002538588888
 30
0.0
  0
SEQEND
  5
1D1
330
1CE
100
AcDbEntity
  8
_U+30EC_U+30A4_U+30E4_U+30FC 1
 62
     7
420
 16777215
370
    25
  0
POLYLINE
  5
1D2
330
1F
100
AcDbEntity
  8
_U+30EC_U+30A4_U+30E4_U+30FC 1
 62
     7
420
 16777215
370
    25
100
AcDb2dPolyline
 66
     1
 10
0.0
 20
0.0
 30
0.0
  0
VERTEX
  5
1D3
330
1D2
100
AcDbEntity
  8
_U+30EC_U+30A4_U+30E4_U+30FC 1
 62
     7
420
 16777215
370
    25
100
AcDbVertex
100
AcDb2dVertex
 10
96.58289781374278
 20
-120.0002538588888
 30
0.0
  0
VERTEX
  5
1D4
330
1D2
100
AcDbEntity
  8
_U+30EC_U+30A4_U+30E4_U+30FC 1
 62
     7
420
 16777215
370
    25
100
AcDbVertex
100
AcDb2dVertex
 10
95.57970367266972
 20
-119.999901081111
 30
0.0
  0
SEQEND
  5
1D5
330
1D2
100
AcDbEntity
  8
_U+30EC_U+30A4_U+30E4_U+30FC 1
 62
     7
420
 16777215
370
    25
  0
ENDSEC
  0
SECTION
  2
OBJECTS
  0
DICTIONARY
  5
C
330
0
100
AcDbDictionary
281
     1
  3
ACAD_GROUP
350
D
  3
ACAD_LAYOUT
350
1A
  3
ACAD_MATERIAL
350
3B
  3
ACAD_MLEADERSTYLE
350
1D7
  3
ACAD_MLINESTYLE
350
17
  3
ACAD_PLOTSETTINGS
350
19
  3
ACAD_PLOTSTYLENAME
350
E
  3
ACAD_TABLESTYLE
350
1D6
  3
ACAD_VISUALSTYLE
350
2A
  0
SUN
  5
3F
330
29
100
AcDbSun
 90
        1
290
     0
 63
     7
421
 16777215
 40
1.0
291
     1
 91
  2455826
 92
 54000000
292
     0
 70
     2
 71
   256
280
     1
  0
DICTIONARY
  5
D
102
{ACAD_REACTORS
330
C
102
}
330
C
100
AcDbDictionary
281
     1
  0
DICTIONARY
  5
1A
102
{ACAD_REACTORS
330
C
102
}
330
C
100
AcDbDictionary
281
     1
  3
Layout1
350
1E
  3
Layout2
350
26
  3
Model
350
22
  0
DICTIONARY
  5
3B
102
{ACAD_REACTORS
330
C
102
}
330
C
100
AcDbDictionary
281
     1
  3
ByBlock
350
3D
  3
ByLayer
350
3C
  3
Global
350
3E
  0
DICTIONARY
  5
1D7
102
{ACAD_REACTORS
330
C
102
}
330
C
100
AcDbDictionary
281
     1
  0
DICTIONARY
  5
17
102
{ACAD_REACTORS
330
C
102
}
330
C
100
AcDbDictionary
281
     1
  3
Standard
350
18
  0
DICTIONARY
  5
19
102
{ACAD_REACTORS
330
C
102
}
330
C
100
AcDbDictionary
281
     1
  0
ACDBDICTIONARYWDFLT
  5
E
102
{ACAD_REACTORS
330
C
102
}
330
C
100
AcDbDictionary
281
     1
  3
Normal
350
F
100
AcDbDictionaryWithDefault
340
F
  0
DICTIONARY
  5
1D6
102
{ACAD_REACTORS
330
C
102
}
330
C
100
AcDbDictionary
281
     1
  0
DICTIONARY
  5
2A
102
{ACAD_REACTORS
330
C
102
}
330
C
100
AcDbDictionary
281
     1
  3
2dWireframe
350
2F
  3
3D Hidden
350
31
  3
3dWireframe
350
30
  3
Basic
350
32
  3
Brighten
350
36
  3
ColorChange
350
3A
  3
Conceptual
350
34
  3
Dim
350
35
  3
Facepattern
350
39
  3
Flat
350
2B
  3
FlatWithEdges
350
2C
  3
Gouraud
350
2D
  3
GouraudWithEdges
350
2E
  3
Linepattern
350
38
  3
Realistic
350
33
  3
Thicken
350
37
  0
LAYOUT
  5
1E
102
{ACAD_REACTORS
330
1A
102
}
330
1A
100
AcDbPlotSettings
  1

  2
none_device
  4

  6

 40
0.0
 41
0.0
 42
0.0
 43
0.0
 44
0.0
 45
0.0
 46
0.0
 47
0.0
 48
0.0
 49
0.0
140
0.0
141
0.0
142
1.0
143
1.0
 70
   688
 72
     0
 73
     0
 74
     5
  7

 75
    16
 76
     0
 77
     2
 78
   300
147
1.0
148
0.0
149
0.0
100
AcDbLayout
  1
Layout1
 70
     1
 71
     1
 10
0.0
 20
0.0
 11
12.0
 21
9.0
 12
0.0
 22
0.0
 32
0.0
 14
1.000000000000000E+20
 24
1.000000000000000E+20
 34
1.000000000000000E+20
 15
-1.000000000000000E+20
 25
-1.000000000000000E+20
 35
-1.000000000000000E+20
146
0.0
 13
0.0
 23
0.0
 33
0.0
 16
1.0
 26
0.0
 36
0.0
 17
0.0
 27
1.0
 37
0.0
 76
     0
330
1B
  0
LAYOUT
  5
26
102
{ACAD_REACTORS
330
1A
102
}
330
1A
100
AcDbPlotSettings
  1

  2
none_device
  4

  6

 40
0.0
 41
0.0
 42
0.0
 43
0.0
 44
0.0
 45
0.0
 46
0.0
 47
0.0
 48
0.0
 49
0.0
140
0.0
141
0.0
142
1.0
143
1.0
 70
   688
 72
     0
 73
     0
 74
     5
  7

 75
    16
 76
     0
 77
     2
 78
   300
147
1.0
148
0.0
149
0.0
100
AcDbLayout
  1
Layout2
 70
     1
 71
     2
 10
0.0
 20
0.0
 11
0.0
 21
0.0
 12
0.0
 22
0.0
 32
0.0
 14
0.0
 24
0.0
 34
0.0
 15
0.0
 25
0.0
 35
0.0
146
0.0
 13
0.0
 23
0.0
 33
0.0
 16
1.0
 26
0.0
 36
0.0
 17
0.0
 27
1.0
 37
0.0
 76
     0
330
23
  0
LAYOUT
  5
22
102
{ACAD_REACTORS
330
1A
102
}
330
1A
100
AcDbPlotSettings
  1

  2
none_device
  4

  6

 40
0.0
 41
0.0
 42
0.0
 43
0.0
 44
0.0
 45
0.0
 46
0.0
 47
0.0
 48
0.0
 49
0.0
140
0.0
141
0.0
142
1.0
143
1.0
 70
  1712
 72
     0
 73
     0
 74
     0
  7

 75
     0
 76
     0
 77
     2
 78
   300
147
1.0
148
0.0
149
0.0
100
AcDbLayout
  1
Model
 70
     1
 71
     0
 10
0.0
 20
0.0
 11
12.0
 21
9.0
 12
0.0
 22
0.0
 32
0.0
 14
1.000000000000000E+20
 24
1.000000000000000E+20
 34
1.000000000000000E+20
 15
-1.000000000000000E+20
 25
-1.000000000000000E+20
 35
-1.000000000000000E+20
146
0.0
 13
0.0
 23
0.0
 33
0.0
 16
1.0
 26
0.0
 36
0.0
 17
0.0
 27
1.0
 37
0.0
 76
     0
330
1F
331
29
  0
MATERIAL
  5
3D
102
{ACAD_REACTORS
330
3B
102
}
330
3B
100
AcDbMaterial
  1
ByBlock
 72
     1
 94
      127
  0
MATERIAL
  5
3C
102
{ACAD_REACTORS
330
3B
102
}
330
3B
100
AcDbMaterial
  1
ByLayer
 72
     1
 94
      127
  0
MATERIAL
  5
3E
102
{ACAD_REACTORS
330
3B
102
}
330
3B
100
AcDbMaterial
  1
Global
 72
     1
 94
      127
  0
MLINESTYLE
  5
18
102
{ACAD_REACTORS
330
17
102
}
330
17
100
AcDbMlineStyle
  2
Standard
 70
     0
  3

 62
   256
 51
90.0
 52
90.0
 71
     2
 49
0.5
 62
   256
  6
BYLAYER
 49
-0.5
 62
   256
  6
BYLAYER
  0
ACDBPLACEHOLDER
  5
F
102
{ACAD_REACTORS
330
E
102
}
330
E
  0
VISUALSTYLE
  5
2F
102
{ACAD_REACTORS
330
2A
102
}
330
2A
100
AcDbVisualStyle
  2
2dWireframe
 70
     4
177
     2
291
     0
 71
     0
176
     1
 72
     2
176
     1
 73
     0
176
     1
 90
        0
176
     1
 40
-0.6
176
     1
 41
-30.0
176
     1
 62
     5
 63
     7
421
 16777215
176
     1
 74
     1
176
     1
 91
        4
176
     1
 64
     7
176
     1
 65
   257
176
     1
 75
     1
176
     1
175
     1
176
     1
 42
1.0
176
     1
 92
        0
176
     1
 66
   257
176
     1
 43
1.0
176
     1
 76
     1
176
     1
 77
     6
176
     1
 78
     2
176
     1
 67
     7
176
     1
 79
     5
176
     1
170
     0
176
     1
171
     0
176
     1
290
     0
176
     1
 93
        1
176
     1
 44
0.0
176
     1
173
     0
176
     1
  0
VISUALSTYLE
  5
31
102
{ACAD_REACTORS
330
2A
102
}
330
2A
100
AcDbVisualStyle
  2
3D Hidden
 70
     6
177
     2
291
     0
 71
     1
176
     1
 72
     2
176
     1
 73
     2
176
     1
 90
        0
176
     1
 40
-0.6
176
     1
 41
-30.0
176
     1
 62
     5
 63
     7
421
 16777215
176
     1
 74
     2
176
     1
 91
        2
176
     1
 64
     7
176
     1
 65
   257
176
     1
 75
     2
176
     1
175
     1
176
     1
 42
40.0
176
     1
 92
        0
176
     1
 66
   257
176
     1
 43
1.0
176
     1
 76
     1
176
     1
 77
     6
176
     1
 78
     2
176
     1
 67
     7
176
     1
 79
     3
176
     1
170
     0
176
     1
171
     0
176
     1
290
     0
176
     1
 93
        1
176
     1
 44
0.0
176
     1
173
     0
176
     1
  0
VISUALSTYLE
  5
30
102
{ACAD_REACTORS
330
2A
102
}
330
2A
100
AcDbVisualStyle
  2
3dWireframe
 70
     5
177
     2
291
     0
 71
     0
176
     1
 72
     2
176
     1
 73
     0
176
     1
 90
        0
176
     1
 40
-0.6
176
     1
 41
-30.0
176
     1
 62
     5
 63
     7
421
 16777215
176
     1
 74
     1
176
     1
 91
        4
176
     1
 64
     7
176
     1
 65
   257
176
     1
 75
     1
176
     1
175
     1
176
     1
 42
1.0
176
     1
 92
        0
176
     1
 66
   257
176
     1
 43
1.0
176
     1
 76
     1
176
     1
 77
     6
176
     1
 78
     2
176
     1
 67
     7
176
     1
 79
     5
176
     1
170
     0
176
     1
171
     0
176
     1
290
     0
176
     1
 93
        1
176
     1
 44
0.0
176
     1
173
     0
176
     1
  0
VISUALSTYLE
  5
32
102
{ACAD_REACTORS
330
2A
102
}
330
2A
100
AcDbVisualStyle
  2
Basic
 70
     7
177
     2
291
     1
 71
     1
176
     1
 72
     0
176
     1
 73
     1
176
     1
 90
        0
176
     1
 40
-0.6
176
     1
 41
-30.0
176
     1
 62
     5
 63
     7
421
 16777215
176
     1
 74
     0
176
     1
 91
        4
176
     1
 64
     7
176
     1
 65
   257
176
     1
 75
     1
176
     1
175
     1
176
     1
 42
1.0
176
     1
 92
        8
176
     1
 66
     7
176
     1
 43
1.0
176
     1
 76
     1
176
     1
 77
     6
176
     1
 78
     2
176
     1
 67
     7
176
     1
 79
     5
176
     1
170
     0
176
     1
171
     0
176
     1
290
     0
176
     1
 93
        1
176
     1
 44
0.0
176
     1
173
     0
176
     1
  0
VISUALSTYLE
  5
36
102
{ACAD_REACTORS
330
2A
102
}
330
2A
100
AcDbVisualStyle
  2
Brighten
 70
    12
177
     2
291
     1
 71
     2
176
     1
 72
     2
176
     1
 73
     0
176
     1
 90
        0
176
     1
 40
-0.6
176
     1
 41
-30.0
176
     1
 62
     5
 63
     7
421
 16777215
176
     1
 74
     1
176
     1
 91
        4
176
     1
 64
     7
176
     1
 65
   257
176
     1
 75
     1
176
     1
175
     1
176
     1
 42
1.0
176
     1
 92
        8
176
     1
 66
     7
176
     1
 43
1.0
176
     1
 76
     1
176
     1
 77
     6
176
     1
 78
     2
176
     1
 67
     7
176
     1
 79
     5
176
     1
170
     0
176
     1
171
     0
176
     1
290
     0
176
     1
 93
        1
176
     1
 44
50.0
176
     1
173
     0
176
     1
  0
VISUALSTYLE
  5
3A
102
{ACAD_REACTORS
330
2A
102
}
330
2A
100
AcDbVisualStyle
  2
ColorChange
 70
    16
177
     2
291
     1
 71
     2
176
     1
 72
     2
176
     1
 73
     3
176
     1
 90
        0
176
     1
 40
-0.6
176
     1
 41
-30.0
176
     1
 62
     5
 63
     8
421
  8421504
176
     1
 74
     1
176
     1
 91
        4
176
     1
 64
     7
176
     1
 65
   257
176
     1
 75
     1
176
     1
175
     1
176
     1
 42
1.0
176
     1
 92
        8
176
     1
 66
     8
424
  8421504
176
     1
 43
1.0
176
     1
 76
     1
176
     1
 77
     6
176
     1
 78
     2
176
     1
 67
     7
176
     1
 79
     5
176
     1
170
     0
176
     1
171
     0
176
     1
290
     0
176
     1
 93
        1
176
     1
 44
0.0
176
     1
173
     0
176
     1
  0
VISUALSTYLE
  5
34
102
{ACAD_REACTORS
330
2A
102
}
330
2A
100
AcDbVisualStyle
  2
Conceptual
 70
     9
177
     2
291
     0
 71
     3
176
     1
 72
     2
176
     1
 73
     0
176
     1
 90
        0
176
     1
 40
-0.6
176
     1
 41
-30.0
176
     1
 62
     5
 63
     7
421
 16777215
176
     1
 74
     2
176
     1
 91
        2
176
     1
 64
     7
176
     1
 65
   257
176
     1
 75
     1
176
     1
175
     1
176
     1
 42
40.0
176
     1
 92
        8
176
     1
 66
     7
176
     1
 43
1.0
176
     1
 76
     1
176
     1
 77
     6
176
     1
 78
     2
176
     1
 67
     7
176
     1
 79
     3
176
     1
170
     0
176
     1
171
     0
176
     1
290
     0
176
     1
 93
        1
176
     1
 44
0.0
176
     1
173
     0
176
     1
  0
VISUALSTYLE
  5
35
102
{ACAD_REACTORS
330
2A
102
}
330
2A
100
AcDbVisualStyle
  2
Dim
 70
    11
177
     2
291
     1
 71
     2
176
     1
 72
     2
176
     1
 73
     0
176
     1
 90
        0
176
     1
 40
-0.6
176
     1
 41
-30.0
176
     1
 62
     5
 63
     7
421
 16777215
176
     1
 74
     1
176
     1
 91
        4
176
     1
 64
     7
176
     1
 65
   257
176
     1
 75
     1
176
     1
175
     1
176
     1
 42
1.0
176
     1
 92
        8
176
     1
 66
     7
176
     1
 43
1.0
176
     1
 76
     1
176
     1
 77
     6
176
     1
 78
     2
176
     1
 67
     7
176
     1
 79
     5
176
     1
170
     0
176
     1
171
     0
176
     1
290
     0
176
     1
 93
        1
176
     1
 44
-50.0
176
     1
173
     0
176
     1
  0
VISUALSTYLE
  5
39
102
{ACAD_REACTORS
330
2A
102
}
330
2A
100
AcDbVisualStyle
  2
Facepattern
 70
    15
177
     2
291
     1
 71
     2
176
     1
 72
     2
176
     1
 73
     0
176
     1
 90
        0
176
     1
 40
-0.6
176
     1
 41
-30.0
176
     1
 62
     5
 63
     7
421
 16777215
176
     1
 74
     1
176
     1
 91
        4
176
     1
 64
     7
176
     1
 65
   257
176
     1
 75
     1
176
     1
175
     1
176
     1
 42
1.0
176
     1
 92
        8
176
     1
 66
     7
176
     1
 43
1.0
176
     1
 76
     1
176
     1
 77
     6
176
     1
 78
     2
176
     1
 67
     7
176
     1
 79
     5
176
     1
170
     0
176
     1
171
     0
176
     1
290
     0
176
     1
 93
        1
176
     1
 44
0.0
176
     1
173
     0
176
     1
  0
VISUALSTYLE
  5
2B
102
{ACAD_REACTORS
330
2A
102
}
330
2A
100
AcDbVisualStyle
  2
Flat
 70
     0
177
     2
291
     1
 71
     2
176
     1
 72
     1
176
     1
 73
     1
176
     1
 90
        2
176
     1
 40
-0.6
176
     1
 41
30.0
176
     1
 62
     5
 63
     7
421
 16777215
176
     1
 74
     0
176
     1
 91
        4
176
     1
 64
     7
176
     1
 65
   257
176
     1
 75
     1
176
     1
175
     1
176
     1
 42
1.0
176
     1
 92
        8
176
     1
 66
     7
176
     1
 43
1.0
176
     1
 76
     1
176
     1
 77
     6
176
     1
 78
     2
176
     1
 67
     7
176
     1
 79
     5
176
     1
170
     0
176
     1
171
     0
176
     1
290
     0
176
     1
 93
       13
176
     1
 44
0.0
176
     1
173
     0
176
     1
  0
VISUALSTYLE
  5
2C
102
{ACAD_REACTORS
330
2A
102
}
330
2A
100
AcDbVisualStyle
  2
FlatWithEdges
 70
     1
177
     2
291
     1
 71
     2
176
     1
 72
     1
176
     1
 73
     1
176
     1
 90
        2
176
     1
 40
-0.6
176
     1
 41
30.0
176
     1
 62
     5
 63
     7
421
 16777215
176
     1
 74
     1
176
     1
 91
        4
176
     1
 64
     7
176
     1
 65
   257
176
     1
 75
     1
176
     1
175
     1
176
     1
 42
1.0
176
     1
 92
        0
176
     1
 66
   257
176
     1
 43
1.0
176
     1
 76
     1
176
     1
 77
     6
176
     1
 78
     2
176
     1
 67
     7
176
     1
 79
     5
176
     1
170
     0
176
     1
171
     0
176
     1
290
     0
176
     1
 93
       13
176
     1
 44
0.0
176
     1
173
     0
176
     1
  0
VISUALSTYLE
  5
2D
102
{ACAD_REACTORS
330
2A
102
}
330
2A
100
AcDbVisualStyle
  2
Gouraud
 70
     2
177
     2
291
     1
 71
     2
176
     1
 72
     2
176
     1
 73
     1
176
     1
 90
        2
176
     1
 40
-0.6
176
     1
 41
30.0
176
     1
 62
     5
 63
     7
421
 16777215
176
     1
 74
     0
176
     1
 91
        4
176
     1
 64
     7
176
     1
 65
   257
176
     1
 75
     1
176
     1
175
     1
176
     1
 42
1.0
176
     1
 92
        0
176
     1
 66
     7
176
     1
 43
1.0
176
     1
 76
     1
176
     1
 77
     6
176
     1
 78
     2
176
     1
 67
     7
176
     1
 79
     5
176
     1
170
     0
176
     1
171
     0
176
     1
290
     0
176
     1
 93
       13
176
     1
 44
0.0
176
     1
173
     0
176
     1
  0
VISUALSTYLE
  5
2E
102
{ACAD_REACTORS
330
2A
102
}
330
2A
100
AcDbVisualStyle
  2
GouraudWithEdges
 70
     3
177
     2
291
     1
 71
     2
176
     1
 72
     2
176
     1
 73
     1
176
     1
 90
        2
176
     1
 40
-0.6
176
     1
 41
30.0
176
     1
 62
     5
 63
     7
421
 16777215
176
     1
 74
     1
176
     1
 91
        4
176
     1
 64
     7
176
     1
 65
   257
176
     1
 75
     1
176
     1
175
     1
176
     1
 42
1.0
176
     1
 92
        0
176
     1
 66
   257
176
     1
 43
1.0
176
     1
 76
     1
176
     1
 77
     6
176
     1
 78
     2
176
     1
 67
     7
176
     1
 79
     5
176
     1
170
     0
176
     1
171
     0
176
     1
290
     0
176
     1
 93
       13
176
     1
 44
0.0
176
     1
173
     0
176
     1
  0
VISUALSTYLE
  5
38
102
{ACAD_REACTORS
330
2A
102
}
330
2A
100
AcDbVisualStyle
  2
Linepattern
 70
    14
177
     2
291
     1
 71
     2
176
     1
 72
     2
176
     1
 73
     0
176
     1
 90
        0
176
     1
 40
-0.6
176
     1
 41
-30.0
176
     1
 62
     5
 63
     7
421
 16777215
176
     1
 74
     1
176
     1
 91
        4
176
     1
 64
     7
176
     1
 65
   257
176
     1
 75
     7
176
     1
175
     7
176
     1
 42
1.0
176
     1
 92
        8
176
     1
 66
     7
176
     1
 43
1.0
176
     1
 76
     1
176
     1
 77
     6
176
     1
 78
     2
176
     1
 67
     7
176
     1
 79
     5
176
     1
170
     0
176
     1
171
     0
176
     1
290
     0
176
     1
 93
        1
176
     1
 44
0.0
176
     1
173
     0
176
     1
  0
VISUALSTYLE
  5
33
102
{ACAD_REACTORS
330
2A
102
}
330
2A
100
AcDbVisualStyle
  2
Realistic
 70
     8
177
     2
291
     0
 71
     2
176
     1
 72
     2
176
     1
 73
     0
176
     1
 90
        0
176
     1
 40
-0.6
176
     1
 41
-30.0
176
     1
 62
     5
 63
     7
421
 16777215
176
     1
 74
     1
176
     1
 91
        0
176
     1
 64
     7
176
     1
 65
   257
176
     1
 75
     1
176
     1
175
     1
176
     1
 42
1.0
176
     1
 92
        8
176
     1
 66
     8
424
  7895160
176
     1
 43
1.0
176
     1
 76
     1
176
     1
 77
     6
176
     1
 78
     2
176
     1
 67
     7
176
     1
 79
     5
176
     1
170
     0
176
     1
171
     0
176
     1
290
     0
176
     1
 93
       13
176
     1
 44
0.0
176
     1
173
     0
176
     1
  0
VISUALSTYLE
  5
37
102
{ACAD_REACTORS
330
2A
102
}
330
2A
100
AcDbVisualStyle
  2
Thicken
 70
    13
177
     2
291
     1
 71
     2
176
     1
 72
     2
176
     1
 73
     0
176
     1
 90
        0
176
     1
 40
-0.6
176
     1
 41
-30.0
176
     1
 62
     5
 63
     7
421
 16777215
176
     1
 74
     1
176
     1
 91
        4
176
     1
 64
     7
176
     1
 65
   257
176
     1
 75
     1
176
     1
175
     1
176
     1
 42
1.0
176
     1
 92
       12
176
     1
 66
     7
176
     1
 43
1.0
176
     1
 76
     1
176
     1
 77
     6
176
     1
 78
     2
176
     1
 67
     7
176
     1
 79
     5
176
     1
170
     0
176
     1
171
     0
176
     1
290
     0
176
     1
 93
        1
176
     1
 44
0.0
176
     1
173
     0
176
     1
  0
ENDSEC
  0
EOF
