  0
SECTION
  2
HEADER
  9
$ACADVER
  1
AC1024
  9
$ACADMAINTVER
 70
     6
  9
$DWGCODEPAGE
  3
UNDEFINED
  9
$INSBASE
 10
0.0
 20
0.0
 30
0.0
  9
$EXTMIN
 10
1.000000000000000E+20
 20
1.000000000000000E+20
 30
1.000000000000000E+20
  9
$EXTMAX
 10
-1.000000000000000E+20
 20
-1.000000000000000E+20
 30
-1.000000000000000E+20
  9
$LIMMIN
 10
0.0
 20
0.0
  9
$LIMMAX
 10
12.0
 20
9.0
  9
$ORTHOMODE
 70
     0
  9
$REGENMODE
 70
     1
  9
$FILLMODE
 70
     1
  9
$QTEXTMODE
 70
     0
  9
$MIRRTEXT
 70
     1
  9
$LTSCALE
 40
1.0
  9
$ATTMODE
 70
     1
  9
$TEXTSIZE
 40
0.2
  9
$TRACEWID
 40
0.05
  9
$TEXTSTYLE
  7
Standard
  9
$CLAYER
  8
0
  9
$CELTYPE
  6
ByLayer
  9
$CECOLOR
 62
   256
  9
$CELTSCALE
 40
1.0
  9
$DISPSILH
 70
     0
  9
$DIMSCALE
 40
1.0
  9
$DIMASZ
 40
0.18
  9
$DIMEXO
 40
0.0625
  9
$DIMDLI
 40
0.38
  9
$DIMRND
 40
0.0
  9
$DIMDLE
 40
0.0
  9
$DIMEXE
 40
0.18
  9
$DIMTP
 40
0.0
  9
$DIMTM
 40
0.0
  9
$DIMTXT
 40
0.18
  9
$DIMCEN
 40
0.09
  9
$DIMTSZ
 40
0.0
  9
$DIMTOL
 70
     0
  9
$DIMLIM
 70
     0
  9
$DIMTIH
 70
     1
  9
$DIMTOH
 70
     1
  9
$DIMSE1
 70
     0
  9
$DIMSE2
 70
     0
  9
$DIMTAD
 70
     0
  9
$DIMZIN
 70
     0
  9
$DIMBLK
  1

  9
$DIMASO
 70
     1
  9
$DIMSHO
 70
     1
  9
$DIMPOST
  1

  9
$DIMAPOST
  1

  9
$DIMALT
 70
     0
  9
$DIMALTD
 70
     2
  9
$DIMALTF
 40
25.4
  9
$DIMLFAC
 40
1.0
  9
$DIMTOFL
 70
     0
  9
$DIMTVP
 40
0.0
  9
$DIMTIX
 70
     0
  9
$DIMSOXD
 70
     0
  9
$DIMSAH
 70
     0
  9
$DIMBLK1
  1

  9
$DIMBLK2
  1

  9
$DIMSTYLE
  2
Standard
  9
$DIMCLRD
 70
     0
  9
$DIMCLRE
 70
     0
  9
$DIMCLRT
 70
     0
  9
$DIMTFAC
 40
1.0
  9
$DIMGAP
 40
0.09
  9
$DIMJUST
 70
     0
  9
$DIMSD1
 70
     0
  9
$DIMSD2
 70
     0
  9
$DIMTOLJ
 70
     1
  9
$DIMTZIN
 70
     0
  9
$DIMALTZ
 70
     0
  9
$DIMALTTZ
 70
     0
  9
$DIMUPT
 70
     0
  9
$DIMDEC
 70
     4
  9
$DIMTDEC
 70
     4
  9
$DIMALTU
 70
     2
  9
$DIMALTTD
 70
     2
  9
$DIMTXSTY
  7
Standard
  9
$DIMAUNIT
 70
     0
  9
$DIMADEC
 70
     0
  9
$DIMALTRND
 40
0.0
  9
$DIMAZIN
 70
     0
  9
$DIMDSEP
 70
    46
  9
$DIMATFIT
 70
     3
  9
$DIMFRAC
 70
     0
  9
$DIMLDRBLK
  1

  9
$DIMLUNIT
 70
     2
  9
$DIMLWD
 70
    -2
  9
$DIMLWE
 70
    -2
  9
$DIMTMOVE
 70
     0
  9
$DIMFXL
 40
1.0
  9
$DIMFXLON
 70
     0
  9
$DIMJOGANG
 40
0.7853981633974483
  9
$DIMTFILL
 70
     0
  9
$DIMTFILLCLR
 70
     0
  9
$DIMARCSYM
 70
     0
  9
$DIMLTYPE
  6

  9
$DIMLTEX1
  6

  9
$DIMLTEX2
  6

  9
$DIMTXTDIRECTION
 70
     0
  9
$LUNITS
 70
     2
  9
$LUPREC
 70
     4
  9
$SKETCHINC
 40
0.1
  9
$FILLETRAD
 40
0.5
  9
$AUNITS
 70
     0
  9
$AUPREC
 70
     0
  9
$MENU
  1
.
  9
$ELEVATION
 40
0.0
  9
$PELEVATION
 40
0.0
  9
$THICKNESS
 40
0.0
  9
$LIMCHECK
 70
     0
  9
$CHAMFERA
 40
0.5
  9
$CHAMFERB
 40
0.5
  9
$CHAMFERC
 40
1.0
  9
$CHAMFERD
 40
0.0
  9
$SKPOLY
 70
     0
  9
$TDCREATE
 40
2457917.611226852
  9
$TDUCREATE
 40
2457917.236226852
  9
$TDUPDATE
 40
2457917.611238426
  9
$TDUUPDATE
 40
2457917.236238426
  9
$TDINDWG
 40
0.0000000116
  9
$TDUSRTIMER
 40
0.0000000116
  9
$USRTIMER
 70
     1
  9
$ANGBASE
 50
0.0
  9
$ANGDIR
 70
     0
  9
$PDMODE
 70
     0
  9
$PDSIZE
 40
0.0
  9
$PLINEWID
 40
0.0
  9
$SPLFRAME
 70
     0
  9
$SPLINETYPE
 70
     6
  9
$SPLINESEGS
 70
     8
  9
$HANDSEED
  5
1C1
  9
$SURFTAB1
 70
     6
  9
$SURFTAB2
 70
     6
  9
$SURFTYPE
 70
     6
  9
$SURFU
 70
     6
  9
$SURFV
 70
     6
  9
$UCSBASE
  2

  9
$UCSNAME
  2

  9
$UCSORG
 10
0.0
 20
0.0
 30
0.0
  9
$UCSXDIR
 10
1.0
 20
0.0
 30
0.0
  9
$UCSYDIR
 10
0.0
 20
1.0
 30
0.0
  9
$UCSORTHOREF
  2

  9
$UCSORTHOVIEW
 70
     0
  9
$UCSORGTOP
 10
0.0
 20
0.0
 30
0.0
  9
$UCSORGBOTTOM
 10
0.0
 20
0.0
 30
0.0
  9
$UCSORGLEFT
 10
0.0
 20
0.0
 30
0.0
  9
$UCSORGRIGHT
 10
0.0
 20
0.0
 30
0.0
  9
$UCSORGFRONT
 10
0.0
 20
0.0
 30
0.0
  9
$UCSORGBACK
 10
0.0
 20
0.0
 30
0.0
  9
$PUCSBASE
  2

  9
$PUCSNAME
  2

  9
$PUCSORG
 10
0.0
 20
0.0
 30
0.0
  9
$PUCSXDIR
 10
1.0
 20
0.0
 30
0.0
  9
$PUCSYDIR
 10
0.0
 20
1.0
 30
0.0
  9
$PUCSORTHOREF
  2

  9
$PUCSORTHOVIEW
 70
     0
  9
$PUCSORGTOP
 10
0.0
 20
0.0
 30
0.0
  9
$PUCSORGBOTTOM
 10
0.0
 20
0.0
 30
0.0
  9
$PUCSORGLEFT
 10
0.0
 20
0.0
 30
0.0
  9
$PUCSORGRIGHT
 10
0.0
 20
0.0
 30
0.0
  9
$PUCSORGFRONT
 10
0.0
 20
0.0
 30
0.0
  9
$PUCSORGBACK
 10
0.0
 20
0.0
 30
0.0
  9
$USERI1
 70
     0
  9
$USERI2
 70
     0
  9
$USERI3
 70
     0
  9
$USERI4
 70
     0
  9
$USERI5
 70
     0
  9
$USERR1
 40
0.0
  9
$USERR2
 40
0.0
  9
$USERR3
 40
0.0
  9
$USERR4
 40
0.0
  9
$USERR5
 40
0.0
  9
$WORLDVIEW
 70
     1
  9
$SHADEDGE
 70
     3
  9
$SHADEDIF
 70
    70
  9
$TILEMODE
 70
     1
  9
$MAXACTVP
 70
    64
  9
$PINSBASE
 10
0.0
 20
0.0
 30
0.0
  9
$PLIMCHECK
 70
     0
  9
$PEXTMIN
 10
1.000000000000000E+20
 20
1.000000000000000E+20
 30
1.000000000000000E+20
  9
$PEXTMAX
 10
-1.000000000000000E+20
 20
-1.000000000000000E+20
 30
-1.000000000000000E+20
  9
$PLIMMIN
 10
0.0
 20
0.0
  9
$PLIMMAX
 10
12.0
 20
9.0
  9
$UNITMODE
 70
     0
  9
$VISRETAIN
 70
     1
  9
$PLINEGEN
 70
     0
  9
$PSLTSCALE
 70
     1
  9
$TREEDEPTH
 70
  3020
  9
$CMLSTYLE
  2
Standard
  9
$CMLJUST
 70
     0
  9
$CMLSCALE
 40
1.0
  9
$PROXYGRAPHICS
 70
     1
  9
$MEASUREMENT
 70
     0
  9
$CELWEIGHT
370
    -1
  9
$ENDCAPS
280
     0
  9
$JOINSTYLE
280
     0
  9
$LWDISPLAY
290
     1
  9
$INSUNITS
 70
     1
  9
$HYPERLINKBASE
  1

  9
$STYLESHEET
  1

  9
$XEDIT
290
     1
  9
$CEPSNTYPE
380
     0
  9
$PSTYLEMODE
290
     1
  9
$FINGERPRINTGUID
  2
{91E08ED1-A4E7-3C9D-6EC8-D71FD512EA4D}
  9
$VERSIONGUID
  2
{FAEB1C32-E019-11D5-929B-00C0DF256EC4}
  9
$EXTNAMES
290
     1
  9
$PSVPSCALE
 40
0.0
  9
$OLESTARTUP
290
     0
  9
$SORTENTS
280
   127
  9
$INDEXCTL
280
     0
  9
$HIDETEXT
280
     1
  9
$XCLIPFRAME
280
     2
  9
$HALOGAP
280
     0
  9
$OBSCOLOR
 70
   257
  9
$OBSLTYPE
280
     0
  9
$INTERSECTIONDISPLAY
280
     0
  9
$INTERSECTIONCOLOR
 70
   257
  9
$DIMASSOC
280
     2
  9
$PROJECTNAME
  1

  9
$CAMERADISPLAY
290
     0
  9
$LENSLENGTH
 40
50.0
  9
$CAMERAHEIGHT
 40
0.0
  9
$STEPSPERSEC
 40
2.0
  9
$STEPSIZE
 40
6.0
  9
$3DDWFPREC
 40
2.0
  9
$PSOLWIDTH
 40
0.25
  9
$PSOLHEIGHT
 40
4.0
  9
$LOFTANG1
 40
1.570796326794897
  9
$LOFTANG2
 40
1.570796326794897
  9
$LOFTMAG1
 40
0.0
  9
$LOFTMAG2
 40
0.0
  9
$LOFTPARAM
 70
     7
  9
$LOFTNORMALS
280
     1
  9
$LATITUDE
 40
37.795
  9
$LONGITUDE
 40
-122.394
  9
$NORTHDIRECTION
 40
0.0
  9
$TIMEZONE
 70
 -8000
  9
$LIGHTGLYPHDISPLAY
280
     1
  9
$TILEMODELIGHTSYNCH
280
     1
  9
$CMATERIAL
347
3C
  9
$SOLIDHIST
280
     1
  9
$SHOWHIST
280
     1
  9
$DWFFRAME
280
     2
  9
$DGNFRAME
280
     2
  9
$REALWORLDSCALE
290
     1
  9
$INTERFERECOLOR
 62
   256
  9
$CSHADOW
280
     0
  9
$SHADOWPLANELOCATION
 40
0.0
  0
ENDSEC
  0
SECTION
  2
CLASSES
  0
CLASS
  1
ACDBDICTIONARYWDFLT
  2
AcDbDictionaryWithDefault
  3
ObjectDBX Classes
 90
        0
 91
        4
280
     0
281
     0
  0
CLASS
  1
VISUALSTYLE
  2
AcDbVisualStyle
  3
ObjectDBX Classes
 90
     4095
 91
        4
280
     0
281
     0
  0
CLASS
  1
MATERIAL
  2
AcDbMaterial
  3
ObjectDBX Classes
 90
     1153
 91
        4
280
     0
281
     0
  0
CLASS
  1
SUN
  2
AcDbSun
  3
SCENEOE
 90
     1024
 91
        4
280
     0
281
     0
  0
ENDSEC
  0
SECTION
  2
TABLES
  0
TABLE
  2
VPORT
  5
8
330
0
100
AcDbSymbolTable
 70
     1
  0
VPORT
  5
29
330
8
100
AcDbSymbolTableRecord
100
AcDbViewportTableRecord
  2
*Active
 70
     0
 10
0.0
 20
0.0
 11
1.0
 21
1.0
 12
0.0
 22
0.0
 13
0.0
 23
0.0
 14
0.5
 24
0.5
 15
0.5
 25
0.5
 16
0.0
 26
0.0
 36
1.0
 17
91.00082462281999
 27
-128.4993055234307
 37
0.0
 40
256.9986110468615
 41
0.7081814508812795
 42
50.0
 43
0.0
 44
0.0
 50
0.0
 51
0.0
 71
     0
 72
   100
 73
     1
 74
     3
 75
     0
 76
     0
 77
     0
 78
     0
281
     0
 65
     1
110
0.0
120
0.0
130
0.0
111
1.0
121
0.0
131
0.0
112
0.0
122
1.0
132
0.0
 79
     0
146
0.0
 60
     3
 61
     5
292
     1
282
     1
141
0.0
142
0.0
 63
   250
361
3F
  0
ENDTAB
  0
TABLE
  2
LTYPE
  5
5
330
0
100
AcDbSymbolTable
 70
     1
  0
LTYPE
  5
14
330
5
100
AcDbSymbolTableRecord
100
AcDbLinetypeTableRecord
  2
ByBlock
 70
     0
  3

 72
    65
 73
     0
 40
0.0
  0
LTYPE
  5
15
330
5
100
AcDbSymbolTableRecord
100
AcDbLinetypeTableRecord
  2
ByLayer
 70
     0
  3

 72
    65
 73
     0
 40
0.0
  0
LTYPE
  5
16
330
5
100
AcDbSymbolTableRecord
100
AcDbLinetypeTableRecord
  2
Continuous
 70
     0
  3
Solid line
 72
    65
 73
     0
 40
0.0
  0
ENDTAB
  0
TABLE
  2
LAYER
  5
2
330
0
100
AcDbSymbolTable
 70
     2
  0
LAYER
  5
10
330
2
100
AcDbSymbolTableRecord
100
AcDbLayerTableRecord
  2
0
 70
     0
 62
     7
  6
Continuous
370
    -3
390
F
347
3E
  0
LAYER
  5
40
330
2
100
AcDbSymbolTableRecord
100
AcDbLayerTableRecord
  2
_U+30EC_U+30A4_U+30E4_U+30FC 1
 70
     0
 62
     7
  6
Continuous
370
    -3
390
F
347
3E
  0
ENDTAB
  0
TABLE
  2
STYLE
  5
3
330
0
100
AcDbSymbolTable
 70
     1
  0
STYLE
  5
11
330
3
100
AcDbSymbolTableRecord
100
AcDbTextStyleTableRecord
  2
Standard
 70
     0
 40
0.0
 41
1.0
 50
0.0
 71
     0
 42
0.2
  3
txt
  4

  0
ENDTAB
  0
TABLE
  2
VIEW
  5
6
330
0
100
AcDbSymbolTable
 70
     0
  0
ENDTAB
  0
TABLE
  2
UCS
  5
7
330
0
100
AcDbSymbolTable
 70
     0
  0
ENDTAB
  0
TABLE
  2
APPID
  5
9
330
0
100
AcDbSymbolTable
 70
     1
  0
APPID
  5
12
330
9
100
AcDbSymbolTableRecord
100
AcDbRegAppTableRecord
  2
ACAD
 70
     0
  0
ENDTAB
  0
TABLE
  2
DIMSTYLE
  5
A
330
0
100
AcDbSymbolTable
 70
     1
100
AcDbDimStyleTable
  0
DIMSTYLE
105
27
330
A
100
AcDbSymbolTableRecord
100
AcDbDimStyleTableRecord
  2
Standard
 70
     0
178
     0
340
11
  0
ENDTAB
  0
TABLE
  2
BLOCK_RECORD
  5
1
330
0
100
AcDbSymbolTable
 70
     9
  0
BLOCK_RECORD
  5
1F
330
1
100
AcDbSymbolTableRecord
100
AcDbBlockTableRecord
  2
*Model_Space
340
22
 70
     0
280
     1
281
     0
  0
BLOCK_RECORD
  5
1B
330
1
100
AcDbSymbolTableRecord
100
AcDbBlockTableRecord
  2
*Paper_Space
340
1E
 70
     0
280
     1
281
     0
  0
BLOCK_RECORD
  5
23
330
1
100
AcDbSymbolTableRecord
100
AcDbBlockTableRecord
  2
*Paper_Space0
340
26
 70
     0
280
     1
281
     0
  0
BLOCK_RECORD
  5
5E
330
1
100
AcDbSymbolTableRecord
100
AcDbBlockTableRecord
  2
block 2
340
0
102
{BLKREFS
331
5F
102
}
 70
     0
280
     1
281
     0
  0
BLOCK_RECORD
  5
67
330
1
100
AcDbSymbolTableRecord
100
AcDbBlockTableRecord
  2
block 3
340
0
102
{BLKREFS
331
68
102
}
 70
     0
280
     1
281
     0
  0
BLOCK_RECORD
  5
7C
330
1
100
AcDbSymbolTableRecord
100
AcDbBlockTableRecord
  2
block 4
340
0
102
{BLKREFS
331
7D
102
}
 70
     0
280
     1
281
     0
  0
BLOCK_RECORD
  5
8B
330
1
100
AcDbSymbolTableRecord
100
AcDbBlockTableRecord
  2
block 5
340
0
102
{BLKREFS
331
8C
102
}
 70
     0
280
     1
281
     0
  0
BLOCK_RECORD
  5
9B
330
1
100
AcDbSymbolTableRecord
100
AcDbBlockTableRecord
  2
block 6
340
0
102
{BLKREFS
331
9C
102
}
 70
     0
280
     1
281
     0
  0
BLOCK_RECORD
  5
AE
330
1
100
AcDbSymbolTableRecord
100
AcDbBlockTableRecord
  2
block 7
340
0
102
{BLKREFS
331
AF
102
}
 70
     0
280
     1
281
     0
  0
BLOCK_RECORD
  5
C5
330
1
100
AcDbSymbolTableRecord
100
AcDbBlockTableRecord
  2
block 8
340
0
102
{BLKREFS
331
C6
102
}
 70
     0
280
     1
281
     0
  0
BLOCK_RECORD
  5
CF
330
1
100
AcDbSymbolTableRecord
100
AcDbBlockTableRecord
  2
block 9
340
0
102
{BLKREFS
331
D0
102
}
 70
     0
280
     1
281
     0
  0
ENDTAB
  0
ENDSEC
  0
SECTION
  2
BLOCKS
  0
BLOCK
  5
20
330
1F
100
AcDbEntity
  8
0
100
AcDbBlockBegin
  2
*Model_Space
 70
     0
 10
0.0
 20
0.0
 30
0.0
  3
*Model_Space
  1

  0
ENDBLK
  5
21
330
1F
100
AcDbEntity
  8
0
100
AcDbBlockEnd
  0
BLOCK
  5
1C
330
1B
100
AcDbEntity
 67
     1
  8
0
100
AcDbBlockBegin
  2
*Paper_Space
 70
     0
 10
0.0
 20
0.0
 30
0.0
  3
*Paper_Space
  1

  0
ENDBLK
  5
1D
330
1B
100
AcDbEntity
 67
     1
  8
0
100
AcDbBlockEnd
  0
BLOCK
  5
24
330
23
100
AcDbEntity
  8
0
100
AcDbBlockBegin
  2
*Paper_Space0
 70
     0
 10
0.0
 20
0.0
 30
0.0
  3
*Paper_Space0
  1

  0
ENDBLK
  5
25
330
23
100
AcDbEntity
  8
0
100
AcDbBlockEnd
  0
BLOCK
  5
60
330
5E
100
AcDbEntity
  8
0
100
AcDbBlockBegin
  2
block 2
 70
     0
 10
0.0
 20
0.0
 30
0.0
  3
block 2
  1

  0
SPLINE
  5
62
330
5E
100
AcDbEntity
  8
_U+30EC_U+30A4_U+30E4_U+30FC 1
370
     0
100
AcDbSpline
210
0.0
220
0.0
230
1.0
 70
    11
 71
     3
 72
    26
 73
    22
 74
     0
 42
0.0000000001
 43
0.0000000001
 12
1.0
 22
0.0
 32
0.0
 13
1.0
 23
0.0
 33
0.0
 40
0.0
 40
0.0
 40
0.0
 40
0.0
 40
1.0
 40
1.0
 40
1.0
 40
2.0
 40
2.0
 40
2.0
 40
3.0
 40
3.0
 40
3.0
 40
4.0
 40
4.0
 40
4.0
 40
5.0
 40
5.0
 40
5.0
 40
6.0
 40
6.0
 40
6.0
 40
7.0
 40
7.0
 40
7.0
 40
7.0
 10
106.2991102164808
 20
-128.3091362526449
 30
0.0
 10
106.2991102164808
 20
-128.3091362526449
 30
0.0
 10
105.1949571134582
 20
-128.3091362526449
 30
0.0
 10
105.1949571134582
 20
-128.3091362526449
 30
0.0
 10
105.1949571134582
 20
-128.3091362526449
 30
0.0
 10
105.1949571134582
 20
-128.6391764001319
 30
0.0
 10
105.1949571134582
 20
-128.6391764001319
 30
0.0
 10
105.1949571134582
 20
-128.6391764001319
 30
0.0
 10
105.0468180075925
 20
-128.6391764001319
 30
0.0
 10
105.0468180075925
 20
-128.6391764001319
 30
0.0
 10
105.0320040970059
 20
-128.3070691953538
 30
0.0
 10
104.8690510805536
 20
-128.2605604063029
 30
0.0
 10
104.7546739104433
 20
-128.2309325851298
 30
0.0
 10
104.7546739104433
 20
-128.2309325851298
 30
0.0
 10
104.7546739104433
 20
-128.0848605365552
 30
0.0
 10
104.7546739104433
 20
-128.0848605365552
 30
0.0
 10
104.7546739104433
 20
-128.0848605365552
 30
0.0
 10
106.2991102164808
 20
-128.0848605365552
 30
0.0
 10
106.2991102164808
 20
-128.0848605365552
 30
0.0
 10
106.2991102164808
 20
-128.0848605365552
 30
0.0
 10
106.2991102164808
 20
-128.3091362526449
 30
0.0
 10
106.2991102164808
 20
-128.3091362526449
 30
0.0
  0
HATCH
  5
63
330
5E
100
AcDbEntity
  8
_U+30EC_U+30A4_U+30E4_U+30FC 1
 62
     7
420
 16777215
100
AcDbHatch
 10
0.0
 20
0.0
 30
0.0
210
0.0
220
0.0
230
1.0
  2
SOLID
 70
     1
 71
     0
 91
        1
 92
        1
 93
        1
 72
     4
 94
        3
 73
     0
 74
     1
 95
       26
 96
       22
 40
0.0
 40
0.0
 40
0.0
 40
0.0
 40
1.0
 40
1.0
 40
1.0
 40
2.0
 40
2.0
 40
2.0
 40
3.0
 40
3.0
 40
3.0
 40
4.0
 40
4.0
 40
4.0
 40
5.0
 40
5.0
 40
5.0
 40
6.0
 40
6.0
 40
6.0
 40
7.0
 40
7.0
 40
7.0
 40
7.0
 10
106.2991102164808
 20
-128.3091362526449
 10
106.2991102164808
 20
-128.3091362526449
 10
105.1949571134582
 20
-128.3091362526449
 10
105.1949571134582
 20
-128.3091362526449
 10
105.1949571134582
 20
-128.3091362526449
 10
105.1949571134582
 20
-128.6391764001319
 10
105.1949571134582
 20
-128.6391764001319
 10
105.1949571134582
 20
-128.6391764001319
 10
105.0468180075925
 20
-128.6391764001319
 10
105.0468180075925
 20
-128.6391764001319
 10
105.0320040970059
 20
-128.3070691953538
 10
104.8690510805536
 20
-128.2605604063029
 10
104.7546739104433
 20
-128.2309325851298
 10
104.7546739104433
 20
-128.2309325851298
 10
104.7546739104433
 20
-128.0848605365552
 10
104.7546739104433
 20
-128.0848605365552
 10
104.7546739104433
 20
-128.0848605365552
 10
106.2991102164808
 20
-128.0848605365552
 10
106.2991102164808
 20
-128.0848605365552
 10
106.2991102164808
 20
-128.0848605365552
 10
106.2991102164808
 20
-128.3091362526449
 10
106.2991102164808
 20
-128.3091362526449
 97
        0
 97
        0
 75
     2
 76
     1
 98
        0
  0
SPLINE
  5
64
330
5E
100
AcDbEntity
  8
_U+30EC_U+30A4_U+30E4_U+30FC 1
370
     0
100
AcDbSpline
210
0.0
220
0.0
230
1.0
 70
    11
 71
     3
 72
    29
 73
    25
 74
     0
 42
0.0000000001
 43
0.0000000001
 12
1.0
 22
0.0
 32
0.0
 13
1.0
 23
0.0
 33
0.0
 40
0.0
 40
0.0
 40
0.0
 40
0.0
 40
1.0
 40
1.0
 40
1.0
 40
2.0
 40
2.0
 40
2.0
 40
3.0
 40
3.0
 40
3.0
 40
4.0
 40
4.0
 40
4.0
 40
5.0
 40
5.0
 40
5.0
 40
6.0
 40
6.0
 40
6.0
 40
7.0
 40
7.0
 40
7.0
 40
8.0
 40
8.0
 40
8.0
 40
8.0
 10
106.1213432894419
 20
-126.6858072599952
 30
0.0
 10
106.3308050949451
 20
-126.7939832582321
 30
0.0
 10
106.349753120114
 20
-126.9672715611401
 30
0.0
 10
106.349753120114
 20
-127.0837157885416
 30
0.0
 10
106.349753120114
 20
-127.2446017477027
 30
0.0
 10
106.3032443310631
 20
-127.3861951721465
 30
0.0
 10
106.1213432894419
 20
-127.4812798075394
 30
0.0
 10
105.9266953945253
 20
-127.5849771816454
 30
0.0
 10
105.6900173346886
 20
-127.6042697163628
 30
0.0
 10
105.5270643182363
 20
-127.6042697163628
 30
0.0
 10
105.3830593269528
 20
-127.6042697163628
 30
0.0
 10
105.1312228469811
 20
-127.5870442389366
 30
0.0
 10
104.9324408374822
 20
-127.4812798075394
 30
0.0
 10
104.729524713401
 20
-127.3734483188511
 30
0.0
 10
104.7060980641013
 20
-127.2125623596899
 30
0.0
 10
104.7060980641013
 20
-127.0837157885416
 30
0.0
 10
104.7060980641013
 20
-126.9248968866716
 30
0.0
 10
104.750539795861
 20
-126.7812364049366
 30
0.0
 10
104.9324408374822
 20
-126.6858072599952
 30
0.0
 10
105.1250216751076
 20
-126.58658851002
 30
0.0
 10
105.3534315057797
 20
-126.5631618607203
 30
0.0
 10
105.5270643182363
 20
-126.5631618607203
 30
0.0
 10
105.6982855638532
 20
-126.5631618607203
 30
0.0
 10
105.9287624518164
 20
-126.5845214527289
 30
0.0
 10
106.1213432894419
 20
-126.6858072599952
 30
0.0
  0
SPLINE
  5
65
330
5E
100
AcDbEntity
  8
_U+30EC_U+30A4_U+30E4_U+30FC 1
370
     0
100
AcDbSpline
210
0.0
220
0.0
230
1.0
 70
    11
 71
     3
 72
    17
 73
    13
 74
     0
 42
0.0000000001
 43
0.0000000001
 12
1.0
 22
0.0
 32
0.0
 13
1.0
 23
0.0
 33
0.0
 40
0.0
 40
0.0
 40
0.0
 40
0.0
 40
1.0
 40
1.0
 40
1.0
 40
2.0
 40
2.0
 40
2.0
 40
3.0
 40
3.0
 40
3.0
 40
4.0
 40
4.0
 40
4.0
 40
4.0
 10
104.8986789017267
 20
-127.0837157885416
 30
0.0
 10
104.8986789017267
 20
-127.3334852112222
 30
0.0
 10
105.1822102601628
 20
-127.3799940002731
 30
0.0
 10
105.5270643182363
 20
-127.3799940002731
 30
0.0
 10
105.846424669719
 20
-127.3799940002731
 30
0.0
 10
106.1551052251973
 20
-127.3438204976779
 30
0.0
 10
106.1551052251973
 20
-127.0837157885416
 30
0.0
 10
106.1551052251973
 20
-126.8360134231521
 30
0.0
 10
105.873985433601
 20
-126.7874375768101
 30
0.0
 10
105.5270643182363
 20
-126.7874375768101
 30
0.0
 10
105.2073594572051
 20
-126.7874375768101
 30
0.0
 10
104.8986789017267
 20
-126.8256781366964
 30
0.0
 10
104.8986789017267
 20
-127.0837157885416
 30
0.0
  0
HATCH
  5
66
330
5E
100
AcDbEntity
  8
_U+30EC_U+30A4_U+30E4_U+30FC 1
 62
     7
420
 16777215
100
AcDbHatch
 10
0.0
 20
0.0
 30
0.0
210
0.0
220
0.0
230
1.0
  2
SOLID
 70
     1
 71
     0
 91
        2
 92
        1
 93
        1
 72
     4
 94
        3
 73
     0
 74
     1
 95
       29
 96
       25
 40
0.0
 40
0.0
 40
0.0
 40
0.0
 40
1.0
 40
1.0
 40
1.0
 40
2.0
 40
2.0
 40
2.0
 40
3.0
 40
3.0
 40
3.0
 40
4.0
 40
4.0
 40
4.0
 40
5.0
 40
5.0
 40
5.0
 40
6.0
 40
6.0
 40
6.0
 40
7.0
 40
7.0
 40
7.0
 40
8.0
 40
8.0
 40
8.0
 40
8.0
 10
106.1213432894419
 20
-126.6858072599952
 10
106.3308050949451
 20
-126.7939832582321
 10
106.349753120114
 20
-126.9672715611401
 10
106.349753120114
 20
-127.0837157885416
 10
106.349753120114
 20
-127.2446017477027
 10
106.3032443310631
 20
-127.3861951721465
 10
106.1213432894419
 20
-127.4812798075394
 10
105.9266953945253
 20
-127.5849771816454
 10
105.6900173346886
 20
-127.6042697163628
 10
105.5270643182363
 20
-127.6042697163628
 10
105.3830593269528
 20
-127.6042697163628
 10
105.1312228469811
 20
-127.5870442389366
 10
104.9324408374822
 20
-127.4812798075394
 10
104.729524713401
 20
-127.3734483188511
 10
104.7060980641013
 20
-127.2125623596899
 10
104.7060980641013
 20
-127.0837157885416
 10
104.7060980641013
 20
-126.9248968866716
 10
104.750539795861
 20
-126.7812364049366
 10
104.9324408374822
 20
-126.6858072599952
 10
105.1250216751076
 20
-126.58658851002
 10
105.3534315057797
 20
-126.5631618607203
 10
105.5270643182363
 20
-126.5631618607203
 10
105.6982855638532
 20
-126.5631618607203
 10
105.9287624518164
 20
-126.5845214527289
 10
106.1213432894419
 20
-126.6858072599952
 97
        0
 97
        0
 92
        1
 93
        1
 72
     4
 94
        3
 73
     0
 74
     1
 95
       17
 96
       13
 40
0.0
 40
0.0
 40
0.0
 40
0.0
 40
1.0
 40
1.0
 40
1.0
 40
2.0
 40
2.0
 40
2.0
 40
3.0
 40
3.0
 40
3.0
 40
4.0
 40
4.0
 40
4.0
 40
4.0
 10
104.8986789017267
 20
-127.0837157885416
 10
104.8986789017267
 20
-127.3334852112222
 10
105.1822102601628
 20
-127.3799940002731
 10
105.5270643182363
 20
-127.3799940002731
 10
105.846424669719
 20
-127.3799940002731
 10
106.1551052251973
 20
-127.3438204976779
 10
106.1551052251973
 20
-127.0837157885416
 10
106.1551052251973
 20
-126.8360134231521
 10
105.873985433601
 20
-126.7874375768101
 10
105.5270643182363
 20
-126.7874375768101
 10
105.2073594572051
 20
-126.7874375768101
 10
104.8986789017267
 20
-126.8256781366964
 10
104.8986789017267
 20
-127.0837157885416
 97
        0
 97
        0
 75
     2
 76
     1
 98
        0
  0
ENDBLK
  5
61
330
5E
100
AcDbEntity
  8
0
100
AcDbBlockEnd
  0
BLOCK
  5
69
330
67
100
AcDbEntity
  8
0
100
AcDbBlockBegin
  2
block 3
 70
     0
 10
0.0
 20
0.0
 30
0.0
  3
block 3
  1

  0
SPLINE
  5
6B
330
67
100
AcDbEntity
  8
_U+30EC_U+30A4_U+30E4_U+30FC 1
370
     0
100
AcDbSpline
210
0.0
220
0.0
230
1.0
 70
    11
 71
     3
 72
    32
 73
    28
 74
     0
 42
0.0000000001
 43
0.0000000001
 12
1.0
 22
0.0
 32
0.0
 13
1.0
 23
0.0
 33
0.0
 40
0.0
 40
0.0
 40
0.0
 40
0.0
 40
1.0
 40
1.0
 40
1.0
 40
2.0
 40
2.0
 40
2.0
 40
3.0
 40
3.0
 40
3.0
 40
4.0
 40
4.0
 40
4.0
 40
5.0
 40
5.0
 40
5.0
 40
6.0
 40
6.0
 40
6.0
 40
7.0
 40
7.0
 40
7.0
 40
8.0
 40
8.0
 40
8.0
 40
9.0
 40
9.0
 40
9.0
 40
9.0
 10
83.40024954512216
 20
-124.662502681508
 30
0.0
 10
83.40024954512216
 20
-125.1785779851984
 30
0.0
 10
82.84627819109399
 20
-125.1871907239115
 30
0.0
 10
82.63233776145998
 20
-125.1871907239115
 30
0.0
 10
82.40186087349676
 20
-125.1871907239115
 30
0.0
 10
81.75452743181832
 20
-125.1678981891941
 30
0.0
 10
81.75452743181832
 20
-124.6242621216217
 30
0.0
 10
81.75452743181832
 20
-124.4509738187136
 30
0.0
 10
81.82446287016889
 20
-124.2053385106153
 30
0.0
 10
82.15657007494697
 20
-124.1674424602776
 30
0.0
 10
82.15657007494697
 20
-124.1674424602776
 30
0.0
 10
82.15657007494697
 20
-124.3810383803631
 30
0.0
 10
82.15657007494697
 20
-124.3810383803631
 30
0.0
 10
82.09938148989183
 20
-124.3917181763673
 30
0.0
 10
81.95124238402609
 20
-124.4234130548317
 30
0.0
 10
81.95124238402609
 20
-124.6263291789129
 30
0.0
 10
81.95124238402609
 20
-124.9184732760621
 30
0.0
 10
82.27921547422187
 20
-124.958436383691
 30
0.0
 10
82.48419865559423
 20
-124.9711832369864
 30
0.0
 10
82.40599498807906
 20
-124.8781656588846
 30
0.0
 10
82.34673934573276
 20
-124.8102972778252
 30
0.0
 10
82.34673934573276
 20
-124.628396236204
 30
0.0
 10
82.34673934573276
 20
-124.448562251874
 30
0.0
 10
82.4549153439696
 20
-124.146082868269
 30
0.0
 10
82.86109210168057
 20
-124.146082868269
 30
0.0
 10
83.18045245316323
 20
-124.146082868269
 30
0.0
 10
83.40024954512216
 20
-124.3452093873165
 30
0.0
 10
83.40024954512216
 20
-124.662502681508
 30
0.0
  0
SPLINE
  5
6C
330
67
100
AcDbEntity
  8
_U+30EC_U+30A4_U+30E4_U+30FC 1
370
     0
100
AcDbSpline
210
0.0
220
0.0
230
1.0
 70
    11
 71
     3
 72
    17
 73
    13
 74
     0
 42
0.0000000001
 43
0.0000000001
 12
1.0
 22
0.0
 32
0.0
 13
1.0
 23
0.0
 33
0.0
 40
0.0
 40
0.0
 40
0.0
 40
0.0
 40
1.0
 40
1.0
 40
1.0
 40
2.0
 40
2.0
 40
2.0
 40
3.0
 40
3.0
 40
3.0
 40
4.0
 40
4.0
 40
4.0
 40
4.0
 10
82.54138724064939
 20
-124.6456217136303
 30
0.0
 10
82.54138724064939
 20
-124.9077934800578
 30
0.0
 10
82.75291610344372
 20
-124.9456895303955
 30
0.0
 10
82.86936033084517
 20
-124.9456895303955
 30
0.0
 10
83.0450602005929
 20
-124.9456895303955
 30
0.0
 10
83.20801321704522
 20
-124.8506048950026
 30
0.0
 10
83.20801321704522
 20
-124.6666367960903
 30
0.0
 10
83.20801321704522
 20
-124.5460584541065
 30
0.0
 10
83.14875757469892
 20
-124.3703585843588
 30
0.0
 10
82.86315915897171
 20
-124.3703585843588
 30
0.0
 10
82.63888344288195
 20
-124.3703585843588
 30
0.0
 10
82.54138724064939
 20
-124.5098849515114
 30
0.0
 10
82.54138724064939
 20
-124.6456217136303
 30
0.0
  0
HATCH
  5
6D
330
67
100
AcDbEntity
  8
_U+30EC_U+30A4_U+30E4_U+30FC 1
 62
     7
420
 16777215
100
AcDbHatch
 10
0.0
 20
0.0
 30
0.0
210
0.0
220
0.0
230
1.0
  2
SOLID
 70
     1
 71
     0
 91
        2
 92
        1
 93
        1
 72
     4
 94
        3
 73
     0
 74
     1
 95
       32
 96
       28
 40
0.0
 40
0.0
 40
0.0
 40
0.0
 40
1.0
 40
1.0
 40
1.0
 40
2.0
 40
2.0
 40
2.0
 40
3.0
 40
3.0
 40
3.0
 40
4.0
 40
4.0
 40
4.0
 40
5.0
 40
5.0
 40
5.0
 40
6.0
 40
6.0
 40
6.0
 40
7.0
 40
7.0
 40
7.0
 40
8.0
 40
8.0
 40
8.0
 40
9.0
 40
9.0
 40
9.0
 40
9.0
 10
83.40024954512216
 20
-124.662502681508
 10
83.40024954512216
 20
-125.1785779851984
 10
82.84627819109399
 20
-125.1871907239115
 10
82.63233776145998
 20
-125.1871907239115
 10
82.40186087349676
 20
-125.1871907239115
 10
81.75452743181832
 20
-125.1678981891941
 10
81.75452743181832
 20
-124.6242621216217
 10
81.75452743181832
 20
-124.4509738187136
 10
81.82446287016889
 20
-124.2053385106153
 10
82.15657007494697
 20
-124.1674424602776
 10
82.15657007494697
 20
-124.1674424602776
 10
82.15657007494697
 20
-124.3810383803631
 10
82.15657007494697
 20
-124.3810383803631
 10
82.09938148989183
 20
-124.3917181763673
 10
81.95124238402609
 20
-124.4234130548317
 10
81.95124238402609
 20
-124.6263291789129
 10
81.95124238402609
 20
-124.9184732760621
 10
82.27921547422187
 20
-124.958436383691
 10
82.48419865559423
 20
-124.9711832369864
 10
82.40599498807906
 20
-124.8781656588846
 10
82.34673934573276
 20
-124.8102972778252
 10
82.34673934573276
 20
-124.628396236204
 10
82.34673934573276
 20
-124.448562251874
 10
82.4549153439696
 20
-124.146082868269
 10
82.86109210168057
 20
-124.146082868269
 10
83.18045245316323
 20
-124.146082868269
 10
83.40024954512216
 20
-124.3452093873165
 10
83.40024954512216
 20
-124.662502681508
 97
        0
 97
        0
 92
        1
 93
        1
 72
     4
 94
        3
 73
     0
 74
     1
 95
       17
 96
       13
 40
0.0
 40
0.0
 40
0.0
 40
0.0
 40
1.0
 40
1.0
 40
1.0
 40
2.0
 40
2.0
 40
2.0
 40
3.0
 40
3.0
 40
3.0
 40
4.0
 40
4.0
 40
4.0
 40
4.0
 10
82.54138724064939
 20
-124.6456217136303
 10
82.54138724064939
 20
-124.9077934800578
 10
82.75291610344372
 20
-124.9456895303955
 10
82.86936033084517
 20
-124.9456895303955
 10
83.0450602005929
 20
-124.9456895303955
 10
83.20801321704522
 20
-124.8506048950026
 10
83.20801321704522
 20
-124.6666367960903
 10
83.20801321704522
 20
-124.5460584541065
 10
83.14875757469892
 20
-124.3703585843588
 10
82.86315915897171
 20
-124.3703585843588
 10
82.63888344288195
 20
-124.3703585843588
 10
82.54138724064939
 20
-124.5098849515114
 10
82.54138724064939
 20
-124.6456217136303
 97
        0
 97
        0
 75
     2
 76
     1
 98
        0
  0
ENDBLK
  5
6A
330
67
100
AcDbEntity
  8
0
100
AcDbBlockEnd
  0
BLOCK
  5
7E
330
7C
100
AcDbEntity
  8
0
100
AcDbBlockBegin
  2
block 4
 70
     0
 10
0.0
 20
0.0
 30
0.0
  3
block 4
  1

  0
SPLINE
  5
80
330
7C
100
AcDbEntity
  8
_U+30EC_U+30A4_U+30E4_U+30FC 1
370
     0
100
AcDbSpline
210
0.0
220
0.0
230
1.0
 70
    11
 71
     3
 72
    62
 73
    58
 74
     0
 42
0.0000000001
 43
0.0000000001
 12
1.0
 22
0.0
 32
0.0
 13
1.0
 23
0.0
 33
0.0
 40
0.0
 40
0.0
 40
0.0
 40
0.0
 40
1.0
 40
1.0
 40
1.0
 40
2.0
 40
2.0
 40
2.0
 40
3.0
 40
3.0
 40
3.0
 40
4.0
 40
4.0
 40
4.0
 40
5.0
 40
5.0
 40
5.0
 40
6.0
 40
6.0
 40
6.0
 40
7.0
 40
7.0
 40
7.0
 40
8.0
 40
8.0
 40
8.0
 40
9.0
 40
9.0
 40
9.0
 40
10.0
 40
10.0
 40
10.0
 40
11.0
 40
11.0
 40
11.0
 40
12.0
 40
12.0
 40
12.0
 40
13.0
 40
13.0
 40
13.0
 40
14.0
 40
14.0
 40
14.0
 40
15.0
 40
15.0
 40
15.0
 40
16.0
 40
16.0
 40
16.0
 40
17.0
 40
17.0
 40
17.0
 40
18.0
 40
18.0
 40
18.0
 40
19.0
 40
19.0
 40
19.0
 40
19.0
 10
95.97553708538112
 20
-119.360845239257
 30
0.0
 10
95.88045244998823
 20
-119.360845239257
 30
0.0
 10
95.66272241532043
 20
-119.339830156797
 30
0.0
 10
95.53732093965733
 20
-119.1537950005935
 30
0.0
 10
95.46359589627299
 20
-119.0414848877744
 30
0.0
 10
95.45946178169069
 20
-118.9422661377992
 30
0.0
 10
95.45532766710839
 20
-118.857516788862
 30
0.0
 10
95.45532766710839
 20
-118.857516788862
 30
0.0
 10
95.67512475906733
 20
-118.857516788862
 30
0.0
 10
95.67512475906733
 20
-118.857516788862
 30
0.0
 10
95.67719181635849
 20
-118.9315863417949
 30
0.0
 10
95.68752710281423
 20
-119.1661973443404
 30
0.0
 10
95.97140297079882
 20
-119.1661973443404
 30
0.0
 10
96.10851777111176
 20
-119.1661973443404
 30
0.0
 10
96.26148001065685
 20
-119.0966064155384
 30
0.0
 10
96.26148001065685
 20
-118.8681965848663
 30
0.0
 10
96.26148001065685
 20
-118.7517523574649
 30
0.0
 10
96.22289494122205
 20
-118.7031765111228
 30
0.0
 10
96.19120006275776
 20
-118.6714816326585
 30
0.0
 10
96.11747501937342
 20
-118.5974120797257
 30
0.0
 10
96.00103079197197
 20
-118.5846652264302
 30
0.0
 10
95.94590926420797
 20
-118.5846652264302
 30
0.0
 10
95.92661672949058
 20
-118.5846652264302
 30
0.0
 10
95.89078773644397
 20
-118.5867322837214
 30
0.0
 10
95.86322697256198
 20
-118.5908663983037
 30
0.0
 10
95.86322697256198
 20
-118.5908663983037
 30
0.0
 10
95.86322697256198
 20
-118.3962185033871
 30
0.0
 10
95.86322697256198
 20
-118.3962185033871
 30
0.0
 10
95.90181204199678
 20
-118.402764184809
 30
0.0
 10
95.94384220691683
 20
-118.4048312421002
 30
0.0
 10
95.95004337879027
 20
-118.4048312421002
 30
0.0
 10
96.01550019301001
 20
-118.4048312421002
 30
0.0
 10
96.21462671205745
 20
-118.3834716500916
 30
0.0
 10
96.21462671205745
 20
-118.146793590255
 30
0.0
 10
96.21462671205745
 20
-117.9690266632161
 30
0.0
 10
96.08371308361797
 20
-117.9139051354521
 30
0.0
 10
95.97347002808998
 20
-117.9139051354521
 30
0.0
 10
95.70888669482278
 20
-117.9139051354521
 30
0.0
 10
95.70061846565818
 20
-118.146793590255
 30
0.0
 10
95.69648435107588
 20
-118.2184515763482
 30
0.0
 10
95.69648435107588
 20
-118.2184515763482
 30
0.0
 10
95.49322371744614
 20
-118.2184515763482
 30
0.0
 10
95.49322371744614
 20
-118.2184515763482
 30
0.0
 10
95.50149194661074
 20
-118.0937391197821
 30
0.0
 10
95.52905271049273
 20
-117.7171901832443
 30
0.0
 10
95.98587237183688
 20
-117.7171901832443
 30
0.0
 10
96.21049259747515
 20
-117.7171901832443
 30
0.0
 10
96.45164928144264
 20
-117.84431420665
 30
0.0
 10
96.45164928144264
 20
-118.140247908833
 30
0.0
 10
96.45164928144264
 20
-118.326627574585
 30
0.0
 10
96.35656464604975
 20
-118.4089653566825
 30
0.0
 10
96.2566568769775
 20
-118.4702880563199
 30
0.0
 10
96.31797957661496
 20
-118.4978488202019
 30
0.0
 10
96.49988061823615
 20
-118.5781195450082
 30
0.0
 10
96.49988061823615
 20
-118.8554497315709
 30
0.0
 10
96.49988061823615
 20
-119.1937581082224
 30
0.0
 10
96.2525227623952
 20
-119.360845239257
 30
0.0
 10
95.97553708538112
 20
-119.360845239257
 30
0.0
  0
HATCH
  5
81
330
7C
100
AcDbEntity
  8
_U+30EC_U+30A4_U+30E4_U+30FC 1
 62
     7
420
 16777215
100
AcDbHatch
 10
0.0
 20
0.0
 30
0.0
210
0.0
220
0.0
230
1.0
  2
SOLID
 70
     1
 71
     0
 91
        1
 92
        1
 93
        1
 72
     4
 94
        3
 73
     0
 74
     1
 95
       62
 96
       58
 40
0.0
 40
0.0
 40
0.0
 40
0.0
 40
1.0
 40
1.0
 40
1.0
 40
2.0
 40
2.0
 40
2.0
 40
3.0
 40
3.0
 40
3.0
 40
4.0
 40
4.0
 40
4.0
 40
5.0
 40
5.0
 40
5.0
 40
6.0
 40
6.0
 40
6.0
 40
7.0
 40
7.0
 40
7.0
 40
8.0
 40
8.0
 40
8.0
 40
9.0
 40
9.0
 40
9.0
 40
10.0
 40
10.0
 40
10.0
 40
11.0
 40
11.0
 40
11.0
 40
12.0
 40
12.0
 40
12.0
 40
13.0
 40
13.0
 40
13.0
 40
14.0
 40
14.0
 40
14.0
 40
15.0
 40
15.0
 40
15.0
 40
16.0
 40
16.0
 40
16.0
 40
17.0
 40
17.0
 40
17.0
 40
18.0
 40
18.0
 40
18.0
 40
19.0
 40
19.0
 40
19.0
 40
19.0
 10
95.97553708538112
 20
-119.360845239257
 10
95.88045244998823
 20
-119.360845239257
 10
95.66272241532043
 20
-119.339830156797
 10
95.53732093965733
 20
-119.1537950005935
 10
95.46359589627299
 20
-119.0414848877744
 10
95.45946178169069
 20
-118.9422661377992
 10
95.45532766710839
 20
-118.857516788862
 10
95.45532766710839
 20
-118.857516788862
 10
95.67512475906733
 20
-118.857516788862
 10
95.67512475906733
 20
-118.857516788862
 10
95.67719181635849
 20
-118.9315863417949
 10
95.68752710281423
 20
-119.1661973443404
 10
95.97140297079882
 20
-119.1661973443404
 10
96.10851777111176
 20
-119.1661973443404
 10
96.26148001065685
 20
-119.0966064155384
 10
96.26148001065685
 20
-118.8681965848663
 10
96.26148001065685
 20
-118.7517523574649
 10
96.22289494122205
 20
-118.7031765111228
 10
96.19120006275776
 20
-118.6714816326585
 10
96.11747501937342
 20
-118.5974120797257
 10
96.00103079197197
 20
-118.5846652264302
 10
95.94590926420797
 20
-118.5846652264302
 10
95.92661672949058
 20
-118.5846652264302
 10
95.89078773644397
 20
-118.5867322837214
 10
95.86322697256198
 20
-118.5908663983037
 10
95.86322697256198
 20
-118.5908663983037
 10
95.86322697256198
 20
-118.3962185033871
 10
95.86322697256198
 20
-118.3962185033871
 10
95.90181204199678
 20
-118.402764184809
 10
95.94384220691683
 20
-118.4048312421002
 10
95.95004337879027
 20
-118.4048312421002
 10
96.01550019301001
 20
-118.4048312421002
 10
96.21462671205745
 20
-118.3834716500916
 10
96.21462671205745
 20
-118.146793590255
 10
96.21462671205745
 20
-117.9690266632161
 10
96.08371308361797
 20
-117.9139051354521
 10
95.97347002808998
 20
-117.9139051354521
 10
95.70888669482278
 20
-117.9139051354521
 10
95.70061846565818
 20
-118.146793590255
 10
95.69648435107588
 20
-118.2184515763482
 10
95.69648435107588
 20
-118.2184515763482
 10
95.49322371744614
 20
-118.2184515763482
 10
95.49322371744614
 20
-118.2184515763482
 10
95.50149194661074
 20
-118.0937391197821
 10
95.52905271049273
 20
-117.7171901832443
 10
95.98587237183688
 20
-117.7171901832443
 10
96.21049259747515
 20
-117.7171901832443
 10
96.45164928144264
 20
-117.84431420665
 10
96.45164928144264
 20
-118.140247908833
 10
96.45164928144264
 20
-118.326627574585
 10
96.35656464604975
 20
-118.4089653566825
 10
96.2566568769775
 20
-118.4702880563199
 10
96.31797957661496
 20
-118.4978488202019
 10
96.49988061823615
 20
-118.5781195450082
 10
96.49988061823615
 20
-118.8554497315709
 10
96.49988061823615
 20
-119.1937581082224
 10
96.2525227623952
 20
-119.360845239257
 10
95.97553708538112
 20
-119.360845239257
 97
        0
 97
        0
 75
     2
 76
     1
 98
        0
  0
ENDBLK
  5
7F
330
7C
100
AcDbEntity
  8
0
100
AcDbBlockEnd
  0
BLOCK
  5
8D
330
8B
100
AcDbEntity
  8
0
100
AcDbBlockBegin
  2
block 5
 70
     0
 10
0.0
 20
0.0
 30
0.0
  3
block 5
  1

  0
SPLINE
  5
8F
330
8B
100
AcDbEntity
  8
_U+30EC_U+30A4_U+30E4_U+30FC 1
370
     0
100
AcDbSpline
210
0.0
220
0.0
230
1.0
 70
    11
 71
     3
 72
    32
 73
    28
 74
     0
 42
0.0000000001
 43
0.0000000001
 12
1.0
 22
0.0
 32
0.0
 13
1.0
 23
0.0
 33
0.0
 40
0.0
 40
0.0
 40
0.0
 40
0.0
 40
1.0
 40
1.0
 40
1.0
 40
2.0
 40
2.0
 40
2.0
 40
3.0
 40
3.0
 40
3.0
 40
4.0
 40
4.0
 40
4.0
 40
5.0
 40
5.0
 40
5.0
 40
6.0
 40
6.0
 40
6.0
 40
7.0
 40
7.0
 40
7.0
 40
8.0
 40
8.0
 40
8.0
 40
9.0
 40
9.0
 40
9.0
 40
9.0
 10
91.48795570629468
 20
-119.360845239257
 30
0.0
 10
90.97205265737851
 20
-119.360845239257
 30
0.0
 10
90.9634399186654
 20
-118.8068738852288
 30
0.0
 10
90.9634399186654
 20
-118.5929334555948
 30
0.0
 10
90.9634399186654
 20
-118.3624565676316
 30
0.0
 10
90.9827324533828
 20
-117.7151231259532
 30
0.0
 10
91.52654077572949
 20
-117.7151231259532
 30
0.0
 10
91.69948456908902
 20
-117.7151231259532
 30
0.0
 10
91.94546438673586
 20
-117.7850585643037
 30
0.0
 10
91.98336043707361
 20
-118.1171657690818
 30
0.0
 10
91.98336043707361
 20
-118.1171657690818
 30
0.0
 10
91.76976451698812
 20
-118.1171657690818
 30
0.0
 10
91.76976451698812
 20
-118.1171657690818
 30
0.0
 10
91.75874021143532
 20
-118.0599771840267
 30
0.0
 10
91.72704533297102
 20
-117.9118380781609
 30
0.0
 10
91.52447371843833
 20
-117.9118380781609
 30
0.0
 10
91.23215736651488
 20
-117.9118380781609
 30
0.0
 10
91.19219425888598
 20
-118.2398111683567
 30
0.0
 10
91.17944740559057
 20
-118.4447943497291
 30
0.0
 10
91.2724649836923
 20
-118.3665906822139
 30
0.0
 10
91.34033336475173
 20
-118.3073350398676
 30
0.0
 10
91.52240666114719
 20
-118.3073350398676
 30
0.0
 10
91.70224064547722
 20
-118.3073350398676
 30
0.0
 10
92.00472002908215
 20
-118.4155110381045
 30
0.0
 10
92.00472002908215
 20
-118.8216877958154
 30
0.0
 10
92.00472002908215
 20
-119.1410481472981
 30
0.0
 10
91.80559351003471
 20
-119.360845239257
 30
0.0
 10
91.48795570629468
 20
-119.360845239257
 30
0.0
  0
SPLINE
  5
90
330
8B
100
AcDbEntity
  8
_U+30EC_U+30A4_U+30E4_U+30FC 1
370
     0
100
AcDbSpline
210
0.0
220
0.0
230
1.0
 70
    11
 71
     3
 72
    17
 73
    13
 74
     0
 42
0.0000000001
 43
0.0000000001
 12
1.0
 22
0.0
 32
0.0
 13
1.0
 23
0.0
 33
0.0
 40
0.0
 40
0.0
 40
0.0
 40
0.0
 40
1.0
 40
1.0
 40
1.0
 40
2.0
 40
2.0
 40
2.0
 40
3.0
 40
3.0
 40
3.0
 40
4.0
 40
4.0
 40
4.0
 40
4.0
 10
91.50518118372094
 20
-118.5019829347842
 30
0.0
 10
91.24283716251915
 20
-118.5019829347842
 30
0.0
 10
91.2049411121814
 20
-118.7135117975786
 30
0.0
 10
91.2049411121814
 20
-118.82995602498
 30
0.0
 10
91.2049411121814
 20
-119.0056558947278
 30
0.0
 10
91.30002574757431
 20
-119.1686089111801
 30
0.0
 10
91.48382159171238
 20
-119.1686089111801
 30
0.0
 10
91.60439993369613
 20
-119.1686089111801
 30
0.0
 10
91.78009980344387
 20
-119.1093532688338
 30
0.0
 10
91.78009980344387
 20
-118.8237548531066
 30
0.0
 10
91.78009980344387
 20
-118.5994791370168
 30
0.0
 10
91.64091794583977
 20
-118.5019829347842
 30
0.0
 10
91.50518118372094
 20
-118.5019829347842
 30
0.0
  0
HATCH
  5
91
330
8B
100
AcDbEntity
  8
_U+30EC_U+30A4_U+30E4_U+30FC 1
 62
     7
420
 16777215
100
AcDbHatch
 10
0.0
 20
0.0
 30
0.0
210
0.0
220
0.0
230
1.0
  2
SOLID
 70
     1
 71
     0
 91
        2
 92
        1
 93
        1
 72
     4
 94
        3
 73
     0
 74
     1
 95
       32
 96
       28
 40
0.0
 40
0.0
 40
0.0
 40
0.0
 40
1.0
 40
1.0
 40
1.0
 40
2.0
 40
2.0
 40
2.0
 40
3.0
 40
3.0
 40
3.0
 40
4.0
 40
4.0
 40
4.0
 40
5.0
 40
5.0
 40
5.0
 40
6.0
 40
6.0
 40
6.0
 40
7.0
 40
7.0
 40
7.0
 40
8.0
 40
8.0
 40
8.0
 40
9.0
 40
9.0
 40
9.0
 40
9.0
 10
91.48795570629468
 20
-119.360845239257
 10
90.97205265737851
 20
-119.360845239257
 10
90.9634399186654
 20
-118.8068738852288
 10
90.9634399186654
 20
-118.5929334555948
 10
90.9634399186654
 20
-118.3624565676316
 10
90.9827324533828
 20
-117.7151231259532
 10
91.52654077572949
 20
-117.7151231259532
 10
91.69948456908902
 20
-117.7151231259532
 10
91.94546438673586
 20
-117.7850585643037
 10
91.98336043707361
 20
-118.1171657690818
 10
91.98336043707361
 20
-118.1171657690818
 10
91.76976451698812
 20
-118.1171657690818
 10
91.76976451698812
 20
-118.1171657690818
 10
91.75874021143532
 20
-118.0599771840267
 10
91.72704533297102
 20
-117.9118380781609
 10
91.52447371843833
 20
-117.9118380781609
 10
91.23215736651488
 20
-117.9118380781609
 10
91.19219425888598
 20
-118.2398111683567
 10
91.17944740559057
 20
-118.4447943497291
 10
91.2724649836923
 20
-118.3665906822139
 10
91.34033336475173
 20
-118.3073350398676
 10
91.52240666114719
 20
-118.3073350398676
 10
91.70224064547722
 20
-118.3073350398676
 10
92.00472002908215
 20
-118.4155110381045
 10
92.00472002908215
 20
-118.8216877958154
 10
92.00472002908215
 20
-119.1410481472981
 10
91.80559351003471
 20
-119.360845239257
 10
91.48795570629468
 20
-119.360845239257
 97
        0
 97
        0
 92
        1
 93
        1
 72
     4
 94
        3
 73
     0
 74
     1
 95
       17
 96
       13
 40
0.0
 40
0.0
 40
0.0
 40
0.0
 40
1.0
 40
1.0
 40
1.0
 40
2.0
 40
2.0
 40
2.0
 40
3.0
 40
3.0
 40
3.0
 40
4.0
 40
4.0
 40
4.0
 40
4.0
 10
91.50518118372094
 20
-118.5019829347842
 10
91.24283716251915
 20
-118.5019829347842
 10
91.2049411121814
 20
-118.7135117975786
 10
91.2049411121814
 20
-118.82995602498
 10
91.2049411121814
 20
-119.0056558947278
 10
91.30002574757431
 20
-119.1686089111801
 10
91.48382159171238
 20
-119.1686089111801
 10
91.60439993369613
 20
-119.1686089111801
 10
91.78009980344387
 20
-119.1093532688338
 10
91.78009980344387
 20
-118.8237548531066
 10
91.78009980344387
 20
-118.5994791370168
 10
91.64091794583977
 20
-118.5019829347842
 10
91.50518118372094
 20
-118.5019829347842
 97
        0
 97
        0
 75
     2
 76
     1
 98
        0
  0
ENDBLK
  5
8E
330
8B
100
AcDbEntity
  8
0
100
AcDbBlockEnd
  0
BLOCK
  5
9D
330
9B
100
AcDbEntity
  8
0
100
AcDbBlockBegin
  2
block 6
 70
     0
 10
0.0
 20
0.0
 30
0.0
  3
block 6
  1

  0
SPLINE
  5
9F
330
9B
100
AcDbEntity
  8
_U+30EC_U+30A4_U+30E4_U+30FC 1
370
     0
100
AcDbSpline
210
0.0
220
0.0
230
1.0
 70
    11
 71
     3
 72
    62
 73
    58
 74
     0
 42
0.0000000001
 43
0.0000000001
 12
1.0
 22
0.0
 32
0.0
 13
1.0
 23
0.0
 33
0.0
 40
0.0
 40
0.0
 40
0.0
 40
0.0
 40
1.0
 40
1.0
 40
1.0
 40
2.0
 40
2.0
 40
2.0
 40
3.0
 40
3.0
 40
3.0
 40
4.0
 40
4.0
 40
4.0
 40
5.0
 40
5.0
 40
5.0
 40
6.0
 40
6.0
 40
6.0
 40
7.0
 40
7.0
 40
7.0
 40
8.0
 40
8.0
 40
8.0
 40
9.0
 40
9.0
 40
9.0
 40
10.0
 40
10.0
 40
10.0
 40
11.0
 40
11.0
 40
11.0
 40
12.0
 40
12.0
 40
12.0
 40
13.0
 40
13.0
 40
13.0
 40
14.0
 40
14.0
 40
14.0
 40
15.0
 40
15.0
 40
15.0
 40
16.0
 40
16.0
 40
16.0
 40
17.0
 40
17.0
 40
17.0
 40
18.0
 40
18.0
 40
18.0
 40
19.0
 40
19.0
 40
19.0
 40
19.0
 10
86.9757418944887
 20
-119.360845239257
 30
0.0
 10
86.88031274954729
 20
-119.360845239257
 30
0.0
 10
86.66258271487949
 20
-119.339830156797
 30
0.0
 10
86.53752574876493
 20
-119.1537950005935
 30
0.0
 10
86.46345619583205
 20
-119.0414848877744
 30
0.0
 10
86.45932208124975
 20
-118.9422661377992
 30
0.0
 10
86.45518796666745
 20
-118.857516788862
 30
0.0
 10
86.45518796666745
 20
-118.857516788862
 30
0.0
 10
86.67532956817492
 20
-118.857516788862
 30
0.0
 10
86.67532956817492
 20
-118.857516788862
 30
0.0
 10
86.67739662546607
 20
-118.9315863417949
 30
0.0
 10
86.68773191192182
 20
-119.1661973443404
 30
0.0
 10
86.97126327035788
 20
-119.1661973443404
 30
0.0
 10
87.10872258021935
 20
-119.1661973443404
 30
0.0
 10
87.26134031021591
 20
-119.0966064155384
 30
0.0
 10
87.26134031021591
 20
-118.8681965848663
 30
0.0
 10
87.26134031021591
 20
-118.7517523574649
 30
0.0
 10
87.22309975032965
 20
-118.7031765111228
 30
0.0
 10
87.19140487186534
 20
-118.6714816326585
 30
0.0
 10
87.11733531893248
 20
-118.5974120797257
 30
0.0
 10
87.00089109153103
 20
-118.5846652264302
 30
0.0
 10
86.94611407331556
 20
-118.5846652264302
 30
0.0
 10
86.92682153859816
 20
-118.5846652264302
 30
0.0
 10
86.89099254555155
 20
-118.5867322837214
 30
0.0
 10
86.86343178166956
 20
-118.5908663983037
 30
0.0
 10
86.86343178166956
 20
-118.5908663983037
 30
0.0
 10
86.86343178166956
 20
-118.3962185033871
 30
0.0
 10
86.86343178166956
 20
-118.3962185033871
 30
0.0
 10
86.90167234155584
 20
-118.402764184809
 30
0.0
 10
86.94370250647589
 20
-118.4048312421002
 30
0.0
 10
86.95024818789786
 20
-118.4048312421002
 30
0.0
 10
87.0157050021176
 20
-118.4048312421002
 30
0.0
 10
87.21448701161653
 20
-118.3834716500916
 30
0.0
 10
87.21448701161653
 20
-118.146793590255
 30
0.0
 10
87.21448701161653
 20
-117.9690266632161
 30
0.0
 10
87.08357338317703
 20
-117.9139051354521
 30
0.0
 10
86.97333032764904
 20
-117.9139051354521
 30
0.0
 10
86.70909150393037
 20
-117.9139051354521
 30
0.0
 10
86.70047876521724
 20
-118.146793590255
 30
0.0
 10
86.69634465063494
 20
-118.2184515763482
 30
0.0
 10
86.69634465063494
 20
-118.2184515763482
 30
0.0
 10
86.4930840170052
 20
-118.2184515763482
 30
0.0
 10
86.4930840170052
 20
-118.2184515763482
 30
0.0
 10
86.50169675571833
 20
-118.0937391197821
 30
0.0
 10
86.52925751960034
 20
-117.7171901832443
 30
0.0
 10
86.98607718094446
 20
-117.7171901832443
 30
0.0
 10
87.21035289703423
 20
-117.7171901832443
 30
0.0
 10
87.45150958100172
 20
-117.84431420665
 30
0.0
 10
87.45150958100172
 20
-118.140247908833
 30
0.0
 10
87.45150958100172
 20
-118.326627574585
 30
0.0
 10
87.35642494560881
 20
-118.4089653566825
 30
0.0
 10
87.25686168608509
 20
-118.4702880563199
 30
0.0
 10
87.31818438572255
 20
-118.4978488202019
 30
0.0
 10
87.50008542734373
 20
-118.5781195450082
 30
0.0
 10
87.50008542734373
 20
-118.8554497315709
 30
0.0
 10
87.50008542734373
 20
-119.1937581082224
 30
0.0
 10
87.25272757150279
 20
-119.360845239257
 30
0.0
 10
86.9757418944887
 20
-119.360845239257
 30
0.0
  0
HATCH
  5
A0
330
9B
100
AcDbEntity
  8
_U+30EC_U+30A4_U+30E4_U+30FC 1
 62
     7
420
 16777215
100
AcDbHatch
 10
0.0
 20
0.0
 30
0.0
210
0.0
220
0.0
230
1.0
  2
SOLID
 70
     1
 71
     0
 91
        1
 92
        1
 93
        1
 72
     4
 94
        3
 73
     0
 74
     1
 95
       62
 96
       58
 40
0.0
 40
0.0
 40
0.0
 40
0.0
 40
1.0
 40
1.0
 40
1.0
 40
2.0
 40
2.0
 40
2.0
 40
3.0
 40
3.0
 40
3.0
 40
4.0
 40
4.0
 40
4.0
 40
5.0
 40
5.0
 40
5.0
 40
6.0
 40
6.0
 40
6.0
 40
7.0
 40
7.0
 40
7.0
 40
8.0
 40
8.0
 40
8.0
 40
9.0
 40
9.0
 40
9.0
 40
10.0
 40
10.0
 40
10.0
 40
11.0
 40
11.0
 40
11.0
 40
12.0
 40
12.0
 40
12.0
 40
13.0
 40
13.0
 40
13.0
 40
14.0
 40
14.0
 40
14.0
 40
15.0
 40
15.0
 40
15.0
 40
16.0
 40
16.0
 40
16.0
 40
17.0
 40
17.0
 40
17.0
 40
18.0
 40
18.0
 40
18.0
 40
19.0
 40
19.0
 40
19.0
 40
19.0
 10
86.9757418944887
 20
-119.360845239257
 10
86.88031274954729
 20
-119.360845239257
 10
86.66258271487949
 20
-119.339830156797
 10
86.53752574876493
 20
-119.1537950005935
 10
86.46345619583205
 20
-119.0414848877744
 10
86.45932208124975
 20
-118.9422661377992
 10
86.45518796666745
 20
-118.857516788862
 10
86.45518796666745
 20
-118.857516788862
 10
86.67532956817492
 20
-118.857516788862
 10
86.67532956817492
 20
-118.857516788862
 10
86.67739662546607
 20
-118.9315863417949
 10
86.68773191192182
 20
-119.1661973443404
 10
86.97126327035788
 20
-119.1661973443404
 10
87.10872258021935
 20
-119.1661973443404
 10
87.26134031021591
 20
-119.0966064155384
 10
87.26134031021591
 20
-118.8681965848663
 10
87.26134031021591
 20
-118.7517523574649
 10
87.22309975032965
 20
-118.7031765111228
 10
87.19140487186534
 20
-118.6714816326585
 10
87.11733531893248
 20
-118.5974120797257
 10
87.00089109153103
 20
-118.5846652264302
 10
86.94611407331556
 20
-118.5846652264302
 10
86.92682153859816
 20
-118.5846652264302
 10
86.89099254555155
 20
-118.5867322837214
 10
86.86343178166956
 20
-118.5908663983037
 10
86.86343178166956
 20
-118.5908663983037
 10
86.86343178166956
 20
-118.3962185033871
 10
86.86343178166956
 20
-118.3962185033871
 10
86.90167234155584
 20
-118.402764184809
 10
86.94370250647589
 20
-118.4048312421002
 10
86.95024818789786
 20
-118.4048312421002
 10
87.0157050021176
 20
-118.4048312421002
 10
87.21448701161653
 20
-118.3834716500916
 10
87.21448701161653
 20
-118.146793590255
 10
87.21448701161653
 20
-117.9690266632161
 10
87.08357338317703
 20
-117.9139051354521
 10
86.97333032764904
 20
-117.9139051354521
 10
86.70909150393037
 20
-117.9139051354521
 10
86.70047876521724
 20
-118.146793590255
 10
86.69634465063494
 20
-118.2184515763482
 10
86.69634465063494
 20
-118.2184515763482
 10
86.4930840170052
 20
-118.2184515763482
 10
86.4930840170052
 20
-118.2184515763482
 10
86.50169675571833
 20
-118.0937391197821
 10
86.52925751960034
 20
-117.7171901832443
 10
86.98607718094446
 20
-117.7171901832443
 10
87.21035289703423
 20
-117.7171901832443
 10
87.45150958100172
 20
-117.84431420665
 10
87.45150958100172
 20
-118.140247908833
 10
87.45150958100172
 20
-118.326627574585
 10
87.35642494560881
 20
-118.4089653566825
 10
87.25686168608509
 20
-118.4702880563199
 10
87.31818438572255
 20
-118.4978488202019
 10
87.50008542734373
 20
-118.5781195450082
 10
87.50008542734373
 20
-118.8554497315709
 10
87.50008542734373
 20
-119.1937581082224
 10
87.25272757150279
 20
-119.360845239257
 10
86.9757418944887
 20
-119.360845239257
 97
        0
 97
        0
 75
     2
 76
     1
 98
        0
  0
ENDBLK
  5
9E
330
9B
100
AcDbEntity
  8
0
100
AcDbBlockEnd
  0
BLOCK
  5
B0
330
AE
100
AcDbEntity
  8
0
100
AcDbBlockBegin
  2
block 7
 70
     0
 10
0.0
 20
0.0
 30
0.0
  3
block 7
  1

  0
SPLINE
  5
B2
330
AE
100
AcDbEntity
  8
_U+30EC_U+30A4_U+30E4_U+30FC 1
370
     0
100
AcDbSpline
210
0.0
220
0.0
230
1.0
 70
    11
 71
     3
 72
    26
 73
    22
 74
     0
 42
0.0000000001
 43
0.0000000001
 12
1.0
 22
0.0
 32
0.0
 13
1.0
 23
0.0
 33
0.0
 40
0.0
 40
0.0
 40
0.0
 40
0.0
 40
1.0
 40
1.0
 40
1.0
 40
2.0
 40
2.0
 40
2.0
 40
3.0
 40
3.0
 40
3.0
 40
4.0
 40
4.0
 40
4.0
 40
5.0
 40
5.0
 40
5.0
 40
6.0
 40
6.0
 40
6.0
 40
7.0
 40
7.0
 40
7.0
 40
7.0
 10
98.68028155085076
 20
-139.2607502907057
 30
0.0
 10
98.68028155085076
 20
-139.2607502907057
 30
0.0
 10
98.68028155085076
 20
-138.1565971876831
 30
0.0
 10
98.68028155085076
 20
-138.1565971876831
 30
0.0
 10
98.68028155085076
 20
-138.1565971876831
 30
0.0
 10
98.35024140336384
 20
-138.1565971876831
 30
0.0
 10
98.35024140336384
 20
-138.1565971876831
 30
0.0
 10
98.35024140336384
 20
-138.1565971876831
 30
0.0
 10
98.35024140336384
 20
-138.0084580818173
 30
0.0
 10
98.35024140336384
 20
-138.0084580818173
 30
0.0
 10
98.68234860814192
 20
-137.9936441712308
 30
0.0
 10
98.72885739719278
 20
-137.8306911547784
 30
0.0
 10
98.75848521836593
 20
-137.7163139846681
 30
0.0
 10
98.75848521836593
 20
-137.7163139846681
 30
0.0
 10
98.90455726694053
 20
-137.7163139846681
 30
0.0
 10
98.90455726694053
 20
-137.7163139846681
 30
0.0
 10
98.90455726694053
 20
-137.7163139846681
 30
0.0
 10
98.90455726694053
 20
-139.2607502907057
 30
0.0
 10
98.90455726694053
 20
-139.2607502907057
 30
0.0
 10
98.90455726694053
 20
-139.2607502907057
 30
0.0
 10
98.68028155085076
 20
-139.2607502907057
 30
0.0
 10
98.68028155085076
 20
-139.2607502907057
 30
0.0
  0
HATCH
  5
B3
330
AE
100
AcDbEntity
  8
_U+30EC_U+30A4_U+30E4_U+30FC 1
 62
     7
420
 16777215
100
AcDbHatch
 10
0.0
 20
0.0
 30
0.0
210
0.0
220
0.0
230
1.0
  2
SOLID
 70
     1
 71
     0
 91
        1
 92
        1
 93
        1
 72
     4
 94
        3
 73
     0
 74
     1
 95
       26
 96
       22
 40
0.0
 40
0.0
 40
0.0
 40
0.0
 40
1.0
 40
1.0
 40
1.0
 40
2.0
 40
2.0
 40
2.0
 40
3.0
 40
3.0
 40
3.0
 40
4.0
 40
4.0
 40
4.0
 40
5.0
 40
5.0
 40
5.0
 40
6.0
 40
6.0
 40
6.0
 40
7.0
 40
7.0
 40
7.0
 40
7.0
 10
98.68028155085076
 20
-139.2607502907057
 10
98.68028155085076
 20
-139.2607502907057
 10
98.68028155085076
 20
-138.1565971876831
 10
98.68028155085076
 20
-138.1565971876831
 10
98.68028155085076
 20
-138.1565971876831
 10
98.35024140336384
 20
-138.1565971876831
 10
98.35024140336384
 20
-138.1565971876831
 10
98.35024140336384
 20
-138.1565971876831
 10
98.35024140336384
 20
-138.0084580818173
 10
98.35024140336384
 20
-138.0084580818173
 10
98.68234860814192
 20
-137.9936441712308
 10
98.72885739719278
 20
-137.8306911547784
 10
98.75848521836593
 20
-137.7163139846681
 10
98.75848521836593
 20
-137.7163139846681
 10
98.90455726694053
 20
-137.7163139846681
 10
98.90455726694053
 20
-137.7163139846681
 10
98.90455726694053
 20
-137.7163139846681
 10
98.90455726694053
 20
-139.2607502907057
 10
98.90455726694053
 20
-139.2607502907057
 10
98.90455726694053
 20
-139.2607502907057
 10
98.68028155085076
 20
-139.2607502907057
 10
98.68028155085076
 20
-139.2607502907057
 97
        0
 97
        0
 75
     2
 76
     1
 98
        0
  0
SPLINE
  5
B4
330
AE
100
AcDbEntity
  8
_U+30EC_U+30A4_U+30E4_U+30FC 1
370
     0
100
AcDbSpline
210
0.0
220
0.0
230
1.0
 70
    11
 71
     3
 72
    29
 73
    25
 74
     0
 42
0.0000000001
 43
0.0000000001
 12
1.0
 22
0.0
 32
0.0
 13
1.0
 23
0.0
 33
0.0
 40
0.0
 40
0.0
 40
0.0
 40
0.0
 40
1.0
 40
1.0
 40
1.0
 40
2.0
 40
2.0
 40
2.0
 40
3.0
 40
3.0
 40
3.0
 40
4.0
 40
4.0
 40
4.0
 40
5.0
 40
5.0
 40
5.0
 40
6.0
 40
6.0
 40
6.0
 40
7.0
 40
7.0
 40
7.0
 40
8.0
 40
8.0
 40
8.0
 40
8.0
 10
100.3036105435005
 20
-139.0829833636668
 30
0.0
 10
100.1954345452637
 20
-139.29244516917
 30
0.0
 10
100.0221462423556
 20
-139.3113931943388
 30
0.0
 10
99.90570201495413
 20
-139.3113931943388
 30
0.0
 10
99.74481605579297
 20
-139.3113931943388
 30
0.0
 10
99.6032226313492
 20
-139.2648844052879
 30
0.0
 10
99.5081379959563
 20
-139.0829833636668
 30
0.0
 10
99.40444062185028
 20
-138.8883354687501
 30
0.0
 10
99.3854925966814
 20
-138.6516574089135
 30
0.0
 10
99.3854925966814
 20
-138.4887043924612
 30
0.0
 10
99.3854925966814
 20
-138.3446994011777
 30
0.0
 10
99.40237356455913
 20
-138.0928629212059
 30
0.0
 10
99.5081379959563
 20
-137.8940809117071
 30
0.0
 10
99.61596948464462
 20
-137.6911647876258
 30
0.0
 10
99.77685544380579
 20
-137.6677381383261
 30
0.0
 10
99.90570201495413
 20
-137.6677381383261
 30
0.0
 10
100.0645209168242
 20
-137.6677381383261
 30
0.0
 10
100.2081813985591
 20
-137.7121798700859
 30
0.0
 10
100.3036105435005
 20
-137.8940809117071
 30
0.0
 10
100.4028292934757
 20
-138.0866617493325
 30
0.0
 10
100.4262559427754
 20
-138.3150715800046
 30
0.0
 10
100.4262559427754
 20
-138.4887043924612
 30
0.0
 10
100.4262559427754
 20
-138.6599256380781
 30
0.0
 10
100.4048963507668
 20
-138.8904025260413
 30
0.0
 10
100.3036105435005
 20
-139.0829833636668
 30
0.0
  0
SPLINE
  5
B5
330
AE
100
AcDbEntity
  8
_U+30EC_U+30A4_U+30E4_U+30FC 1
370
     0
100
AcDbSpline
210
0.0
220
0.0
230
1.0
 70
    11
 71
     3
 72
    17
 73
    13
 74
     0
 42
0.0000000001
 43
0.0000000001
 12
1.0
 22
0.0
 32
0.0
 13
1.0
 23
0.0
 33
0.0
 40
0.0
 40
0.0
 40
0.0
 40
0.0
 40
1.0
 40
1.0
 40
1.0
 40
2.0
 40
2.0
 40
2.0
 40
3.0
 40
3.0
 40
3.0
 40
4.0
 40
4.0
 40
4.0
 40
4.0
 10
99.90570201495413
 20
-137.8603189759516
 30
0.0
 10
99.65627710182204
 20
-137.8603189759516
 30
0.0
 10
99.60942380322265
 20
-138.1438503343877
 30
0.0
 10
99.60942380322265
 20
-138.4887043924612
 30
0.0
 10
99.60942380322265
 20
-138.8080647439438
 30
0.0
 10
99.64559730581777
 20
-139.1167452994222
 30
0.0
 10
99.90570201495413
 20
-139.1167452994222
 30
0.0
 10
100.1534043803436
 20
-139.1167452994222
 30
0.0
 10
100.2019802266856
 20
-138.8356255078258
 30
0.0
 10
100.2019802266856
 20
-138.4887043924612
 30
0.0
 10
100.2019802266856
 20
-138.16899953143
 30
0.0
 10
100.1637396667993
 20
-137.8603189759516
 30
0.0
 10
99.90570201495413
 20
-137.8603189759516
 30
0.0
  0
HATCH
  5
B6
330
AE
100
AcDbEntity
  8
_U+30EC_U+30A4_U+30E4_U+30FC 1
 62
     7
420
 16777215
100
AcDbHatch
 10
0.0
 20
0.0
 30
0.0
210
0.0
220
0.0
230
1.0
  2
SOLID
 70
     1
 71
     0
 91
        2
 92
        1
 93
        1
 72
     4
 94
        3
 73
     0
 74
     1
 95
       29
 96
       25
 40
0.0
 40
0.0
 40
0.0
 40
0.0
 40
1.0
 40
1.0
 40
1.0
 40
2.0
 40
2.0
 40
2.0
 40
3.0
 40
3.0
 40
3.0
 40
4.0
 40
4.0
 40
4.0
 40
5.0
 40
5.0
 40
5.0
 40
6.0
 40
6.0
 40
6.0
 40
7.0
 40
7.0
 40
7.0
 40
8.0
 40
8.0
 40
8.0
 40
8.0
 10
100.3036105435005
 20
-139.0829833636668
 10
100.1954345452637
 20
-139.29244516917
 10
100.0221462423556
 20
-139.3113931943388
 10
99.90570201495413
 20
-139.3113931943388
 10
99.74481605579297
 20
-139.3113931943388
 10
99.6032226313492
 20
-139.2648844052879
 10
99.5081379959563
 20
-139.0829833636668
 10
99.40444062185028
 20
-138.8883354687501
 10
99.3854925966814
 20
-138.6516574089135
 10
99.3854925966814
 20
-138.4887043924612
 10
99.3854925966814
 20
-138.3446994011777
 10
99.40237356455913
 20
-138.0928629212059
 10
99.5081379959563
 20
-137.8940809117071
 10
99.61596948464462
 20
-137.6911647876258
 10
99.77685544380579
 20
-137.6677381383261
 10
99.90570201495413
 20
-137.6677381383261
 10
100.0645209168242
 20
-137.6677381383261
 10
100.2081813985591
 20
-137.7121798700859
 10
100.3036105435005
 20
-137.8940809117071
 10
100.4028292934757
 20
-138.0866617493325
 10
100.4262559427754
 20
-138.3150715800046
 10
100.4262559427754
 20
-138.4887043924612
 10
100.4262559427754
 20
-138.6599256380781
 10
100.4048963507668
 20
-138.8904025260413
 10
100.3036105435005
 20
-139.0829833636668
 97
        0
 97
        0
 92
        1
 93
        1
 72
     4
 94
        3
 73
     0
 74
     1
 95
       17
 96
       13
 40
0.0
 40
0.0
 40
0.0
 40
0.0
 40
1.0
 40
1.0
 40
1.0
 40
2.0
 40
2.0
 40
2.0
 40
3.0
 40
3.0
 40
3.0
 40
4.0
 40
4.0
 40
4.0
 40
4.0
 10
99.90570201495413
 20
-137.8603189759516
 10
99.65627710182204
 20
-137.8603189759516
 10
99.60942380322265
 20
-138.1438503343877
 10
99.60942380322265
 20
-138.4887043924612
 10
99.60942380322265
 20
-138.8080647439438
 10
99.64559730581777
 20
-139.1167452994222
 10
99.90570201495413
 20
-139.1167452994222
 10
100.1534043803436
 20
-139.1167452994222
 10
100.2019802266856
 20
-138.8356255078258
 10
100.2019802266856
 20
-138.4887043924612
 10
100.2019802266856
 20
-138.16899953143
 10
100.1637396667993
 20
-137.8603189759516
 10
99.90570201495413
 20
-137.8603189759516
 97
        0
 97
        0
 75
     2
 76
     1
 98
        0
  0
ENDBLK
  5
B1
330
AE
100
AcDbEntity
  8
0
100
AcDbBlockEnd
  0
BLOCK
  5
C7
330
C5
100
AcDbEntity
  8
0
100
AcDbBlockBegin
  2
block 8
 70
     0
 10
0.0
 20
0.0
 30
0.0
  3
block 8
  1

  0
SPLINE
  5
C9
330
C5
100
AcDbEntity
  8
_U+30EC_U+30A4_U+30E4_U+30FC 1
370
     0
100
AcDbSpline
210
0.0
220
0.0
230
1.0
 70
    11
 71
     3
 72
    26
 73
    22
 74
     0
 42
0.0000000001
 43
0.0000000001
 12
1.0
 22
0.0
 32
0.0
 13
1.0
 23
0.0
 33
0.0
 40
0.0
 40
0.0
 40
0.0
 40
0.0
 40
1.0
 40
1.0
 40
1.0
 40
2.0
 40
2.0
 40
2.0
 40
3.0
 40
3.0
 40
3.0
 40
4.0
 40
4.0
 40
4.0
 40
5.0
 40
5.0
 40
5.0
 40
6.0
 40
6.0
 40
6.0
 40
7.0
 40
7.0
 40
7.0
 40
7.0
 10
80.17942977596209
 20
-139.2607502907057
 30
0.0
 10
80.17942977596209
 20
-139.2607502907057
 30
0.0
 10
80.17942977596209
 20
-138.1565971876831
 30
0.0
 10
80.17942977596209
 20
-138.1565971876831
 30
0.0
 10
80.17942977596209
 20
-138.1565971876831
 30
0.0
 10
79.84938962847515
 20
-138.1565971876831
 30
0.0
 10
79.84938962847515
 20
-138.1565971876831
 30
0.0
 10
79.84938962847515
 20
-138.1565971876831
 30
0.0
 10
79.84938962847515
 20
-138.0084580818173
 30
0.0
 10
79.84938962847515
 20
-138.0084580818173
 30
0.0
 10
80.18149683325323
 20
-137.9936441712308
 30
0.0
 10
80.22800562230411
 20
-137.8306911547784
 30
0.0
 10
80.25763344347726
 20
-137.7163139846681
 30
0.0
 10
80.25763344347726
 20
-137.7163139846681
 30
0.0
 10
80.40370549205186
 20
-137.7163139846681
 30
0.0
 10
80.40370549205186
 20
-137.7163139846681
 30
0.0
 10
80.40370549205186
 20
-137.7163139846681
 30
0.0
 10
80.40370549205186
 20
-139.2607502907057
 30
0.0
 10
80.40370549205186
 20
-139.2607502907057
 30
0.0
 10
80.40370549205186
 20
-139.2607502907057
 30
0.0
 10
80.17942977596209
 20
-139.2607502907057
 30
0.0
 10
80.17942977596209
 20
-139.2607502907057
 30
0.0
  0
HATCH
  5
CA
330
C5
100
AcDbEntity
  8
_U+30EC_U+30A4_U+30E4_U+30FC 1
 62
     7
420
 16777215
100
AcDbHatch
 10
0.0
 20
0.0
 30
0.0
210
0.0
220
0.0
230
1.0
  2
SOLID
 70
     1
 71
     0
 91
        1
 92
        1
 93
        1
 72
     4
 94
        3
 73
     0
 74
     1
 95
       26
 96
       22
 40
0.0
 40
0.0
 40
0.0
 40
0.0
 40
1.0
 40
1.0
 40
1.0
 40
2.0
 40
2.0
 40
2.0
 40
3.0
 40
3.0
 40
3.0
 40
4.0
 40
4.0
 40
4.0
 40
5.0
 40
5.0
 40
5.0
 40
6.0
 40
6.0
 40
6.0
 40
7.0
 40
7.0
 40
7.0
 40
7.0
 10
80.17942977596209
 20
-139.2607502907057
 10
80.17942977596209
 20
-139.2607502907057
 10
80.17942977596209
 20
-138.1565971876831
 10
80.17942977596209
 20
-138.1565971876831
 10
80.17942977596209
 20
-138.1565971876831
 10
79.84938962847515
 20
-138.1565971876831
 10
79.84938962847515
 20
-138.1565971876831
 10
79.84938962847515
 20
-138.1565971876831
 10
79.84938962847515
 20
-138.0084580818173
 10
79.84938962847515
 20
-138.0084580818173
 10
80.18149683325323
 20
-137.9936441712308
 10
80.22800562230411
 20
-137.8306911547784
 10
80.25763344347726
 20
-137.7163139846681
 10
80.25763344347726
 20
-137.7163139846681
 10
80.40370549205186
 20
-137.7163139846681
 10
80.40370549205186
 20
-137.7163139846681
 10
80.40370549205186
 20
-137.7163139846681
 10
80.40370549205186
 20
-139.2607502907057
 10
80.40370549205186
 20
-139.2607502907057
 10
80.40370549205186
 20
-139.2607502907057
 10
80.17942977596209
 20
-139.2607502907057
 10
80.17942977596209
 20
-139.2607502907057
 97
        0
 97
        0
 75
     2
 76
     1
 98
        0
  0
SPLINE
  5
CB
330
C5
100
AcDbEntity
  8
_U+30EC_U+30A4_U+30E4_U+30FC 1
370
     0
100
AcDbSpline
210
0.0
220
0.0
230
1.0
 70
    11
 71
     3
 72
    53
 73
    49
 74
     0
 42
0.0000000001
 43
0.0000000001
 12
1.0
 22
0.0
 32
0.0
 13
1.0
 23
0.0
 33
0.0
 40
0.0
 40
0.0
 40
0.0
 40
0.0
 40
1.0
 40
1.0
 40
1.0
 40
2.0
 40
2.0
 40
2.0
 40
3.0
 40
3.0
 40
3.0
 40
4.0
 40
4.0
 40
4.0
 40
5.0
 40
5.0
 40
5.0
 40
6.0
 40
6.0
 40
6.0
 40
7.0
 40
7.0
 40
7.0
 40
8.0
 40
8.0
 40
8.0
 40
9.0
 40
9.0
 40
9.0
 40
10.0
 40
10.0
 40
10.0
 40
11.0
 40
11.0
 40
11.0
 40
12.0
 40
12.0
 40
12.0
 40
13.0
 40
13.0
 40
13.0
 40
14.0
 40
14.0
 40
14.0
 40
15.0
 40
15.0
 40
15.0
 40
16.0
 40
16.0
 40
16.0
 40
16.0
 10
81.38590221489659
 20
-139.3113931943388
 30
0.0
 10
81.3076985473814
 20
-139.3113931943388
 30
0.0
 10
81.20606823056654
 20
-139.2945122264611
 30
0.0
 10
81.10443791375167
 20
-139.2311224695325
 30
0.0
 10
80.9311496108436
 20
-139.121223923553
 30
0.0
 10
80.90979001883505
 20
-138.989965785565
 30
0.0
 10
80.89084199366619
 20
-138.8821342968767
 30
0.0
 10
80.89084199366619
 20
-138.8821342968767
 30
0.0
 10
81.11305065246479
 20
-138.8821342968767
 30
0.0
 10
81.11305065246479
 20
-138.8821342968767
 30
0.0
 10
81.16782767068027
 20
-139.0809163063756
 30
0.0
 10
81.294951694086
 20
-139.1105441275488
 30
0.0
 10
81.38796927218773
 20
-139.1105441275488
 30
0.0
 10
81.52749563934036
 20
-139.1105441275488
 30
0.0
 10
81.6797688597884
 20
-139.010980868025
 30
0.0
 10
81.6797688597884
 20
-138.7784369227707
 30
0.0
 10
81.6797688597884
 20
-138.5224663282166
 30
0.0
 10
81.49993487545835
 20
-138.452530889866
 30
0.0
 10
81.3793565334746
 20
-138.452530889866
 30
0.0
 10
81.34766165501031
 20
-138.452530889866
 30
0.0
 10
81.20606823056654
 20
-138.452530889866
 30
0.0
 10
81.11718476704709
 20
-138.5817219705629
 30
0.0
 10
81.11718476704709
 20
-138.5817219705629
 30
0.0
 10
80.94148489729936
 20
-138.562773945394
 30
0.0
 10
80.94148489729936
 20
-138.562773945394
 30
0.0
 10
80.94148489729936
 20
-138.562773945394
 30
0.0
 10
81.0620632392831
 20
-137.7163139846681
 30
0.0
 10
81.0620632392831
 20
-137.7163139846681
 30
0.0
 10
81.0620632392831
 20
-137.7163139846681
 30
0.0
 10
81.84065481894956
 20
-137.7163139846681
 30
0.0
 10
81.84065481894956
 20
-137.7163139846681
 30
0.0
 10
81.84065481894956
 20
-137.7163139846681
 30
0.0
 10
81.84065481894956
 20
-137.9109618795848
 30
0.0
 10
81.84065481894956
 20
-137.9109618795848
 30
0.0
 10
81.84065481894956
 20
-137.9109618795848
 30
0.0
 10
81.22501625573541
 20
-137.9109618795848
 30
0.0
 10
81.22501625573541
 20
-137.9109618795848
 30
0.0
 10
81.22501625573541
 20
-137.9109618795848
 30
0.0
 10
81.15955944151567
 20
-138.3340196051734
 30
0.0
 10
81.15955944151567
 20
-138.3340196051734
 30
0.0
 10
81.22088214115311
 20
-138.300257669418
 30
0.0
 10
81.3032199232506
 20
-138.2599500522406
 30
0.0
 10
81.42173120794318
 20
-138.2599500522406
 30
0.0
 10
81.6756347452061
 20
-138.2599500522406
 30
0.0
 10
81.91265731459129
 20
-138.4463297179926
 30
0.0
 10
81.91265731459129
 20
-138.7594888976018
 30
0.0
 10
81.91265731459129
 20
-139.0767821917933
 30
0.0
 10
81.68838159850152
 20
-139.3113931943388
 30
0.0
 10
81.38590221489659
 20
-139.3113931943388
 30
0.0
  0
HATCH
  5
CC
330
C5
100
AcDbEntity
  8
_U+30EC_U+30A4_U+30E4_U+30FC 1
 62
     7
420
 16777215
100
AcDbHatch
 10
0.0
 20
0.0
 30
0.0
210
0.0
220
0.0
230
1.0
  2
SOLID
 70
     1
 71
     0
 91
        1
 92
        1
 93
        1
 72
     4
 94
        3
 73
     0
 74
     1
 95
       53
 96
       49
 40
0.0
 40
0.0
 40
0.0
 40
0.0
 40
1.0
 40
1.0
 40
1.0
 40
2.0
 40
2.0
 40
2.0
 40
3.0
 40
3.0
 40
3.0
 40
4.0
 40
4.0
 40
4.0
 40
5.0
 40
5.0
 40
5.0
 40
6.0
 40
6.0
 40
6.0
 40
7.0
 40
7.0
 40
7.0
 40
8.0
 40
8.0
 40
8.0
 40
9.0
 40
9.0
 40
9.0
 40
10.0
 40
10.0
 40
10.0
 40
11.0
 40
11.0
 40
11.0
 40
12.0
 40
12.0
 40
12.0
 40
13.0
 40
13.0
 40
13.0
 40
14.0
 40
14.0
 40
14.0
 40
15.0
 40
15.0
 40
15.0
 40
16.0
 40
16.0
 40
16.0
 40
16.0
 10
81.38590221489659
 20
-139.3113931943388
 10
81.3076985473814
 20
-139.3113931943388
 10
81.20606823056654
 20
-139.2945122264611
 10
81.10443791375167
 20
-139.2311224695325
 10
80.9311496108436
 20
-139.121223923553
 10
80.90979001883505
 20
-138.989965785565
 10
80.89084199366619
 20
-138.8821342968767
 10
80.89084199366619
 20
-138.8821342968767
 10
81.11305065246479
 20
-138.8821342968767
 10
81.11305065246479
 20
-138.8821342968767
 10
81.16782767068027
 20
-139.0809163063756
 10
81.294951694086
 20
-139.1105441275488
 10
81.38796927218773
 20
-139.1105441275488
 10
81.52749563934036
 20
-139.1105441275488
 10
81.6797688597884
 20
-139.010980868025
 10
81.6797688597884
 20
-138.7784369227707
 10
81.6797688597884
 20
-138.5224663282166
 10
81.49993487545835
 20
-138.452530889866
 10
81.3793565334746
 20
-138.452530889866
 10
81.34766165501031
 20
-138.452530889866
 10
81.20606823056654
 20
-138.452530889866
 10
81.11718476704709
 20
-138.5817219705629
 10
81.11718476704709
 20
-138.5817219705629
 10
80.94148489729936
 20
-138.562773945394
 10
80.94148489729936
 20
-138.562773945394
 10
80.94148489729936
 20
-138.562773945394
 10
81.0620632392831
 20
-137.7163139846681
 10
81.0620632392831
 20
-137.7163139846681
 10
81.0620632392831
 20
-137.7163139846681
 10
81.84065481894956
 20
-137.7163139846681
 10
81.84065481894956
 20
-137.7163139846681
 10
81.84065481894956
 20
-137.7163139846681
 10
81.84065481894956
 20
-137.9109618795848
 10
81.84065481894956
 20
-137.9109618795848
 10
81.84065481894956
 20
-137.9109618795848
 10
81.22501625573541
 20
-137.9109618795848
 10
81.22501625573541
 20
-137.9109618795848
 10
81.22501625573541
 20
-137.9109618795848
 10
81.15955944151567
 20
-138.3340196051734
 10
81.15955944151567
 20
-138.3340196051734
 10
81.22088214115311
 20
-138.300257669418
 10
81.3032199232506
 20
-138.2599500522406
 10
81.42173120794318
 20
-138.2599500522406
 10
81.6756347452061
 20
-138.2599500522406
 10
81.91265731459129
 20
-138.4463297179926
 10
81.91265731459129
 20
-138.7594888976018
 10
81.91265731459129
 20
-139.0767821917933
 10
81.68838159850152
 20
-139.3113931943388
 10
81.38590221489659
 20
-139.3113931943388
 97
        0
 97
        0
 75
     2
 76
     1
 98
        0
  0
ENDBLK
  5
C8
330
C5
100
AcDbEntity
  8
0
100
AcDbBlockEnd
  0
BLOCK
  5
D1
330
CF
100
AcDbEntity
  8
0
100
AcDbBlockBegin
  2
block 9
 70
     0
 10
0.0
 20
0.0
 30
0.0
  3
block 9
  1

  0
SPLINE
  5
D3
330
CF
100
AcDbEntity
  8
_U+30EC_U+30A4_U+30E4_U+30FC 1
370
     0
100
AcDbSpline
210
0.0
220
0.0
230
1.0
 70
    11
 71
     3
 72
    26
 73
    22
 74
     0
 42
0.0000000001
 43
0.0000000001
 12
1.0
 22
0.0
 32
0.0
 13
1.0
 23
0.0
 33
0.0
 40
0.0
 40
0.0
 40
0.0
 40
0.0
 40
1.0
 40
1.0
 40
1.0
 40
2.0
 40
2.0
 40
2.0
 40
3.0
 40
3.0
 40
3.0
 40
4.0
 40
4.0
 40
4.0
 40
5.0
 40
5.0
 40
5.0
 40
6.0
 40
6.0
 40
6.0
 40
7.0
 40
7.0
 40
7.0
 40
7.0
 10
96.87195093064312
 20
-125.7978338986721
 30
0.0
 10
96.87195093064312
 20
-125.7978338986721
 30
0.0
 10
96.87195093064312
 20
-124.6935085408752
 30
0.0
 10
96.87195093064312
 20
-124.6935085408752
 30
0.0
 10
96.87195093064312
 20
-124.6935085408752
 30
0.0
 10
96.5419107831562
 20
-124.6935085408752
 30
0.0
 10
96.5419107831562
 20
-124.6935085408752
 30
0.0
 10
96.5419107831562
 20
-124.6935085408752
 30
0.0
 10
96.5419107831562
 20
-124.5453694350095
 30
0.0
 10
96.5419107831562
 20
-124.5453694350095
 30
0.0
 10
96.87401798793428
 20
-124.5307277791972
 30
0.0
 10
96.92087128653368
 20
-124.3677747627449
 30
0.0
 10
96.95049910770682
 20
-124.2535698474088
 30
0.0
 10
96.95049910770682
 20
-124.2535698474088
 30
0.0
 10
97.09657115628141
 20
-124.2535698474088
 30
0.0
 10
97.09657115628141
 20
-124.2535698474088
 30
0.0
 10
97.09657115628141
 20
-124.2535698474088
 30
0.0
 10
97.09657115628141
 20
-125.7978338986721
 30
0.0
 10
97.09657115628141
 20
-125.7978338986721
 30
0.0
 10
97.09657115628141
 20
-125.7978338986721
 30
0.0
 10
96.87195093064312
 20
-125.7978338986721
 30
0.0
 10
96.87195093064312
 20
-125.7978338986721
 30
0.0
  0
HATCH
  5
D4
330
CF
100
AcDbEntity
  8
_U+30EC_U+30A4_U+30E4_U+30FC 1
 62
   179
420
  2234388
100
AcDbHatch
 10
0.0
 20
0.0
 30
0.0
210
0.0
220
0.0
230
1.0
  2
SOLID
 70
     1
 71
     0
 91
        1
 92
        1
 93
        1
 72
     4
 94
        3
 73
     0
 74
     1
 95
       26
 96
       22
 40
0.0
 40
0.0
 40
0.0
 40
0.0
 40
1.0
 40
1.0
 40
1.0
 40
2.0
 40
2.0
 40
2.0
 40
3.0
 40
3.0
 40
3.0
 40
4.0
 40
4.0
 40
4.0
 40
5.0
 40
5.0
 40
5.0
 40
6.0
 40
6.0
 40
6.0
 40
7.0
 40
7.0
 40
7.0
 40
7.0
 10
96.87195093064312
 20
-125.7978338986721
 10
96.87195093064312
 20
-125.7978338986721
 10
96.87195093064312
 20
-124.6935085408752
 10
96.87195093064312
 20
-124.6935085408752
 10
96.87195093064312
 20
-124.6935085408752
 10
96.5419107831562
 20
-124.6935085408752
 10
96.5419107831562
 20
-124.6935085408752
 10
96.5419107831562
 20
-124.6935085408752
 10
96.5419107831562
 20
-124.5453694350095
 10
96.5419107831562
 20
-124.5453694350095
 10
96.87401798793428
 20
-124.5307277791972
 10
96.92087128653368
 20
-124.3677747627449
 10
96.95049910770682
 20
-124.2535698474088
 10
96.95049910770682
 20
-124.2535698474088
 10
97.09657115628141
 20
-124.2535698474088
 10
97.09657115628141
 20
-124.2535698474088
 10
97.09657115628141
 20
-124.2535698474088
 10
97.09657115628141
 20
-125.7978338986721
 10
97.09657115628141
 20
-125.7978338986721
 10
97.09657115628141
 20
-125.7978338986721
 10
96.87195093064312
 20
-125.7978338986721
 10
96.87195093064312
 20
-125.7978338986721
 97
        0
 97
        0
 75
     2
 76
     1
 98
        0
  0
ENDBLK
  5
D2
330
CF
100
AcDbEntity
  8
0
100
AcDbBlockEnd
  0
ENDSEC
  0
SECTION
  2
ENTITIES
  0
SPLINE
  5
41
330
1F
100
AcDbEntity
  8
_U+30EC_U+30A4_U+30E4_U+30FC 1
 62
     7
420
 16777215
370
     9
100
AcDbSpline
210
0.0
220
0.0
230
1.0
 70
    11
 71
     3
 72
    17
 73
    13
 74
     0
 42
0.0000000001
 43
0.0000000001
 12
1.0
 22
0.0
 32
0.0
 13
1.0
 23
0.0
 33
0.0
 40
0.0
 40
0.0
 40
0.0
 40
0.0
 40
1.0
 40
1.0
 40
1.0
 40
2.0
 40
2.0
 40
2.0
 40
3.0
 40
3.0
 40
3.0
 40
4.0
 40
4.0
 40
4.0
 40
4.0
 10
104.6254901085591
 20
-136.8571049657856
 30
0.0
 10
104.6254901085591
 20
-136.8020010769107
 30
0.0
 10
104.5806873319244
 20
-136.757198299144
 30
0.0
 10
104.5255860849796
 20
-136.757198299144
 30
0.0
 10
104.4704442791814
 20
-136.757198299144
 30
0.0
 10
104.4256767803235
 20
-136.8020010769107
 30
0.0
 10
104.4256767803235
 20
-136.8571049657856
 30
0.0
 10
104.4256767803235
 20
-136.9122441324387
 30
0.0
 10
104.4704442791814
 20
-136.9570116324273
 30
0.0
 10
104.5255860849796
 20
-136.9570116324273
 30
0.0
 10
104.5806873319244
 20
-136.9570116324273
 30
0.0
 10
104.6254901085591
 20
-136.9122441324387
 30
0.0
 10
104.6254901085591
 20
-136.8571049657856
 30
0.0
  0
SPLINE
  5
42
330
1F
100
AcDbEntity
  8
_U+30EC_U+30A4_U+30E4_U+30FC 1
 62
     7
420
 16777215
370
     9
100
AcDbSpline
210
0.0
220
0.0
230
1.0
 70
    11
 71
     3
 72
    17
 73
    13
 74
     0
 42
0.0000000001
 43
0.0000000001
 12
1.0
 22
0.0
 32
0.0
 13
1.0
 23
0.0
 33
0.0
 40
0.0
 40
0.0
 40
0.0
 40
0.0
 40
1.0
 40
1.0
 40
1.0
 40
2.0
 40
2.0
 40
2.0
 40
3.0
 40
3.0
 40
3.0
 40
4.0
 40
4.0
 40
4.0
 40
4.0
 10
106.9557283824432
 20
-122.6702171915547
 30
0.0
 10
106.9557283824432
 20
-122.7253210804299
 30
0.0
 10
107.0005311590779
 20
-122.7701238581963
 30
0.0
 10
107.055635046561
 20
-122.7701238581963
 30
0.0
 10
107.1107742118209
 20
-122.7701238581963
 30
0.0
 10
107.1555444176554
 20
-122.7253210804299
 30
0.0
 10
107.1555444176554
 20
-122.6702171915547
 30
0.0
 10
107.1555444176554
 20
-122.6144077471242
 30
0.0
 10
107.1107742118209
 20
-122.5696049693575
 30
0.0
 10
107.055635046561
 20
-122.5696049693575
 30
0.0
 10
107.0005311590779
 20
-122.5696049693575
 30
0.0
 10
106.9557283824432
 20
-122.6144077471242
 30
0.0
 10
106.9557283824432
 20
-122.6702171915547
 30
0.0
  0
POLYLINE
  5
43
330
1F
100
AcDbEntity
  8
_U+30EC_U+30A4_U+30E4_U+30FC 1
 62
     7
420
 16777215
370
     9
100
AcDb2dPolyline
 66
     1
 10
0.0
 20
0.0
 30
0.0
  0
VERTEX
  5
44
330
43
100
AcDbEntity
  8
_U+30EC_U+30A4_U+30E4_U+30FC 1
 62
     7
420
 16777215
370
     9
100
AcDbVertex
100
AcDb2dVertex
 10
107.055635046561
 20
-122.5696049693575
 30
0.0
  0
VERTEX
  5
45
330
43
100
AcDbEntity
  8
_U+30EC_U+30A4_U+30E4_U+30FC 1
 62
     7
420
 16777215
370
     9
100
AcDbVertex
100
AcDb2dVertex
 10
107.055635046561
 20
-132.5696908001908
 30
0.0
  0
SEQEND
  5
46
330
43
100
AcDbEntity
  8
_U+30EC_U+30A4_U+30E4_U+30FC 1
 62
     7
420
 16777215
370
     9
  0
POLYLINE
  5
47
330
1F
100
AcDbEntity
  8
_U+30EC_U+30A4_U+30E4_U+30FC 1
 62
     7
420
 16777215
370
     9
100
AcDb2dPolyline
 66
     1
 10
0.0
 20
0.0
 30
0.0
  0
VERTEX
  5
48
330
47
100
AcDbEntity
  8
_U+30EC_U+30A4_U+30E4_U+30FC 1
 62
     7
420
 16777215
370
     9
100
AcDbVertex
100
AcDb2dVertex
 10
98.95553997543385
 20
-122.6702171915547
 30
0.0
  0
VERTEX
  5
49
330
47
100
AcDbEntity
  8
_U+30EC_U+30A4_U+30E4_U+30FC 1
 62
     7
420
 16777215
370
     9
100
AcDbVertex
100
AcDb2dVertex
 10
108.0554072432769
 20
-122.6702171915547
 30
0.0
  0
SEQEND
  5
4A
330
47
100
AcDbEntity
  8
_U+30EC_U+30A4_U+30E4_U+30FC 1
 62
     7
420
 16777215
370
     9
  0
SPLINE
  5
4B
330
1F
100
AcDbEntity
  8
_U+30EC_U+30A4_U+30E4_U+30FC 1
 62
     7
420
 16777215
370
     9
100
AcDbSpline
210
0.0
220
0.0
230
1.0
 70
    11
 71
     3
 72
    17
 73
    13
 74
     0
 42
0.0000000001
 43
0.0000000001
 12
1.0
 22
0.0
 32
0.0
 13
1.0
 23
0.0
 33
0.0
 40
0.0
 40
0.0
 40
0.0
 40
0.0
 40
1.0
 40
1.0
 40
1.0
 40
2.0
 40
2.0
 40
2.0
 40
3.0
 40
3.0
 40
3.0
 40
4.0
 40
4.0
 40
4.0
 40
4.0
 10
83.94128285847947
 20
-127.6700660791937
 30
0.0
 10
83.94128285847947
 20
-127.7252052458464
 30
0.0
 10
83.98608563511422
 20
-127.7699727458353
 30
0.0
 10
84.04122480037418
 20
-127.7699727458353
 30
0.0
 10
84.09632868785725
 20
-127.7699727458353
 30
0.0
 10
84.141131464492
 20
-127.7252052458464
 30
0.0
 10
84.141131464492
 20
-127.6700660791937
 30
0.0
 10
84.141131464492
 20
-127.6149621903185
 30
0.0
 10
84.09632868785725
 20
-127.570159412552
 30
0.0
 10
84.04122480037418
 20
-127.570159412552
 30
0.0
 10
83.98608563511422
 20
-127.570159412552
 30
0.0
 10
83.94128285847947
 20
-127.6149621903185
 30
0.0
 10
83.94128285847947
 20
-127.6700660791937
 30
0.0
  0
SPLINE
  5
4C
330
1F
100
AcDbEntity
  8
_U+30EC_U+30A4_U+30E4_U+30FC 1
 62
     7
420
 16777215
370
     9
100
AcDbSpline
210
0.0
220
0.0
230
1.0
 70
    11
 71
     3
 72
    17
 73
    13
 74
     0
 42
0.0000000001
 43
0.0000000001
 12
1.0
 22
0.0
 32
0.0
 13
1.0
 23
0.0
 33
0.0
 40
0.0
 40
0.0
 40
0.0
 40
0.0
 40
1.0
 40
1.0
 40
1.0
 40
2.0
 40
2.0
 40
2.0
 40
3.0
 40
3.0
 40
3.0
 40
4.0
 40
4.0
 40
4.0
 40
4.0
 10
83.94128285847947
 20
-121.6700921918047
 30
0.0
 10
83.94128285847947
 20
-121.7252313584574
 30
0.0
 10
83.98608563511422
 20
-121.7699988584463
 30
0.0
 10
84.04122480037418
 20
-121.7699988584463
 30
0.0
 10
84.09632868785725
 20
-121.7699988584463
 30
0.0
 10
84.141131464492
 20
-121.7252313584574
 30
0.0
 10
84.141131464492
 20
-121.6700921918047
 30
0.0
 10
84.141131464492
 20
-121.6149883029294
 30
0.0
 10
84.09632868785725
 20
-121.570185525163
 30
0.0
 10
84.04122480037418
 20
-121.570185525163
 30
0.0
 10
83.98608563511422
 20
-121.570185525163
 30
0.0
 10
83.94128285847947
 20
-121.6149883029294
 30
0.0
 10
83.94128285847947
 20
-121.6700921918047
 30
0.0
  0
POLYLINE
  5
4D
330
1F
100
AcDbEntity
  8
_U+30EC_U+30A4_U+30E4_U+30FC 1
 62
     7
420
 16777215
370
     9
100
AcDb2dPolyline
 66
     1
 10
0.0
 20
0.0
 30
0.0
  0
VERTEX
  5
4E
330
4D
100
AcDbEntity
  8
_U+30EC_U+30A4_U+30E4_U+30FC 1
 62
     7
420
 16777215
370
     9
100
AcDbVertex
100
AcDb2dVertex
 10
84.04122480037418
 20
-121.6700921918047
 30
0.0
  0
VERTEX
  5
4F
330
4D
100
AcDbEntity
  8
_U+30EC_U+30A4_U+30E4_U+30FC 1
 62
     7
420
 16777215
370
     9
100
AcDbVertex
100
AcDb2dVertex
 10
84.04122480037418
 20
-127.6700660791937
 30
0.0
  0
SEQEND
  5
50
330
4D
100
AcDbEntity
  8
_U+30EC_U+30A4_U+30E4_U+30FC 1
 62
     7
420
 16777215
370
     9
  0
POLYLINE
  5
51
330
1F
100
AcDbEntity
  8
_U+30EC_U+30A4_U+30E4_U+30FC 1
 62
     7
420
 16777215
370
     9
100
AcDb2dPolyline
 66
     1
 10
0.0
 20
0.0
 30
0.0
  0
VERTEX
  5
52
330
51
100
AcDbEntity
  8
_U+30EC_U+30A4_U+30E4_U+30FC 1
 62
     7
420
 16777215
370
     9
100
AcDbVertex
100
AcDb2dVertex
 10
82.58118344873405
 20
-127.6700660791937
 30
0.0
  0
VERTEX
  5
53
330
51
100
AcDbEntity
  8
_U+30EC_U+30A4_U+30E4_U+30FC 1
 62
     7
420
 16777215
370
     9
100
AcDbVertex
100
AcDb2dVertex
 10
85.04096386762855
 20
-127.6700660791937
 30
0.0
  0
SEQEND
  5
54
330
51
100
AcDbEntity
  8
_U+30EC_U+30A4_U+30E4_U+30FC 1
 62
     7
420
 16777215
370
     9
  0
POLYLINE
  5
55
330
1F
100
AcDbEntity
  8
_U+30EC_U+30A4_U+30E4_U+30FC 1
 62
     7
420
 16777215
370
     9
100
AcDb2dPolyline
 66
     1
 10
0.0
 20
0.0
 30
0.0
  0
VERTEX
  5
56
330
55
100
AcDbEntity
  8
_U+30EC_U+30A4_U+30E4_U+30FC 1
 62
     7
420
 16777215
370
     9
100
AcDbVertex
100
AcDb2dVertex
 10
82.58118344873405
 20
-121.6700921918047
 30
0.0
  0
VERTEX
  5
57
330
55
100
AcDbEntity
  8
_U+30EC_U+30A4_U+30E4_U+30FC 1
 62
     7
420
 16777215
370
     9
100
AcDbVertex
100
AcDb2dVertex
 10
85.04096386762855
 20
-121.6700921918047
 30
0.0
  0
SEQEND
  5
58
330
55
100
AcDbEntity
  8
_U+30EC_U+30A4_U+30E4_U+30FC 1
 62
     7
420
 16777215
370
     9
  0
SPLINE
  5
59
330
1F
100
AcDbEntity
  8
_U+30EC_U+30A4_U+30E4_U+30FC 1
 62
     7
420
 16777215
370
     9
100
AcDbSpline
210
0.0
220
0.0
230
1.0
 70
    11
 71
     3
 72
    17
 73
    13
 74
     0
 42
0.0000000001
 43
0.0000000001
 12
1.0
 22
0.0
 32
0.0
 13
1.0
 23
0.0
 33
0.0
 40
0.0
 40
0.0
 40
0.0
 40
0.0
 40
1.0
 40
1.0
 40
1.0
 40
2.0
 40
2.0
 40
2.0
 40
3.0
 40
3.0
 40
3.0
 40
4.0
 40
4.0
 40
4.0
 40
4.0
 10
106.9557283824432
 20
-132.6730546890538
 30
0.0
 10
106.9557283824432
 20
-132.7281585779293
 30
0.0
 10
107.0005311590779
 20
-132.7729613556954
 30
0.0
 10
107.055635046561
 20
-132.7729613556954
 30
0.0
 10
107.1107742118209
 20
-132.7729613556954
 30
0.0
 10
107.1555444176554
 20
-132.7281585779293
 30
0.0
 10
107.1555444176554
 20
-132.6730546890538
 30
0.0
 10
107.1555444176554
 20
-132.6179155224013
 30
0.0
 10
107.1107742118209
 20
-132.5731480224121
 30
0.0
 10
107.055635046561
 20
-132.5731480224121
 30
0.0
 10
107.0005311590779
 20
-132.5731480224121
 30
0.0
 10
106.9557283824432
 20
-132.6179155224013
 30
0.0
 10
106.9557283824432
 20
-132.6730546890538
 30
0.0
  0
POLYLINE
  5
5A
330
1F
100
AcDbEntity
  8
_U+30EC_U+30A4_U+30E4_U+30FC 1
 62
     7
420
 16777215
370
     9
100
AcDb2dPolyline
 66
     1
 10
0.0
 20
0.0
 30
0.0
  0
VERTEX
  5
5B
330
5A
100
AcDbEntity
  8
_U+30EC_U+30A4_U+30E4_U+30FC 1
 62
     7
420
 16777215
370
     9
100
AcDbVertex
100
AcDb2dVertex
 10
101.0556638636251
 20
-132.6730546890538
 30
0.0
  0
VERTEX
  5
5C
330
5A
100
AcDbEntity
  8
_U+30EC_U+30A4_U+30E4_U+30FC 1
 62
     7
420
 16777215
370
     9
100
AcDbVertex
100
AcDb2dVertex
 10
108.0554072432769
 20
-132.6730546890538
 30
0.0
  0
SEQEND
  5
5D
330
5A
100
AcDbEntity
  8
_U+30EC_U+30A4_U+30E4_U+30FC 1
 62
     7
420
 16777215
370
     9
  0
INSERT
  5
5F
330
1F
100
AcDbEntity
  8
_U+30EC_U+30A4_U+30E4_U+30FC 1
100
AcDbBlockReference
  2
block 2
 10
0.0
 20
0.0
 30
0.0
  0
INSERT
  5
68
330
1F
100
AcDbEntity
  8
_U+30EC_U+30A4_U+30E4_U+30FC 1
100
AcDbBlockReference
  2
block 3
 10
0.0
 20
0.0
 30
0.0
  0
SPLINE
  5
6E
330
1F
100
AcDbEntity
  8
_U+30EC_U+30A4_U+30E4_U+30FC 1
 62
     7
420
 16777215
370
     9
100
AcDbSpline
210
0.0
220
0.0
230
1.0
 70
    11
 71
     3
 72
    17
 73
    13
 74
     0
 42
0.0000000001
 43
0.0000000001
 12
1.0
 22
0.0
 32
0.0
 13
1.0
 23
0.0
 33
0.0
 40
0.0
 40
0.0
 40
0.0
 40
0.0
 40
1.0
 40
1.0
 40
1.0
 40
2.0
 40
2.0
 40
2.0
 40
3.0
 40
3.0
 40
3.0
 40
4.0
 40
4.0
 40
4.0
 40
4.0
 10
94.52447481070196
 20
-119.7893985811636
 30
0.0
 10
94.46933564544202
 20
-119.7893985811636
 30
0.0
 10
94.42456814658414
 20
-119.8342013589303
 30
0.0
 10
94.42456814658414
 20
-119.8893405255831
 30
0.0
 10
94.42456814658414
 20
-119.9444444144583
 30
0.0
 10
94.46933564544202
 20
-119.9892471922251
 30
0.0
 10
94.52447481070196
 20
-119.9892471922251
 30
0.0
 10
94.57957869818503
 20
-119.9892471922251
 30
0.0
 10
94.6243814748198
 20
-119.9444444144583
 30
0.0
 10
94.6243814748198
 20
-119.8893405255831
 30
0.0
 10
94.6243814748198
 20
-119.8342013589303
 30
0.0
 10
94.57957869818503
 20
-119.7893985811636
 30
0.0
 10
94.52447481070196
 20
-119.7893985811636
 30
0.0
  0
POLYLINE
  5
6F
330
1F
100
AcDbEntity
  8
_U+30EC_U+30A4_U+30E4_U+30FC 1
 62
     7
420
 16777215
370
     9
100
AcDb2dPolyline
 66
     1
 10
0.0
 20
0.0
 30
0.0
  0
VERTEX
  5
70
330
6F
100
AcDbEntity
  8
_U+30EC_U+30A4_U+30E4_U+30FC 1
 62
     7
420
 16777215
370
     9
100
AcDbVertex
100
AcDb2dVertex
 10
97.52650778966928
 20
-119.8893405255831
 30
0.0
  0
VERTEX
  5
71
330
6F
100
AcDbEntity
  8
_U+30EC_U+30A4_U+30E4_U+30FC 1
 62
     7
420
 16777215
370
     9
100
AcDbVertex
100
AcDb2dVertex
 10
94.52447481070196
 20
-119.8893405255831
 30
0.0
  0
SEQEND
  5
72
330
6F
100
AcDbEntity
  8
_U+30EC_U+30A4_U+30E4_U+30FC 1
 62
     7
420
 16777215
370
     9
  0
POLYLINE
  5
73
330
1F
100
AcDbEntity
  8
_U+30EC_U+30A4_U+30E4_U+30FC 1
 62
     7
420
 16777215
370
     9
100
AcDb2dPolyline
 66
     1
 10
0.0
 20
0.0
 30
0.0
  0
VERTEX
  5
74
330
73
100
AcDbEntity
  8
_U+30EC_U+30A4_U+30E4_U+30FC 1
 62
     7
420
 16777215
370
     9
100
AcDbVertex
100
AcDb2dVertex
 10
94.52447481070196
 20
-118.4292991370594
 30
0.0
  0
VERTEX
  5
75
330
73
100
AcDbEntity
  8
_U+30EC_U+30A4_U+30E4_U+30FC 1
 62
     7
420
 16777215
370
     9
100
AcDbVertex
100
AcDb2dVertex
 10
94.52447481070196
 20
-120.8890774697778
 30
0.0
  0
SEQEND
  5
76
330
73
100
AcDbEntity
  8
_U+30EC_U+30A4_U+30E4_U+30FC 1
 62
     7
420
 16777215
370
     9
  0
SPLINE
  5
77
330
1F
100
AcDbEntity
  8
_U+30EC_U+30A4_U+30E4_U+30FC 1
 62
     7
420
 16777215
370
     9
100
AcDbSpline
210
0.0
220
0.0
230
1.0
 70
    11
 71
     3
 72
    17
 73
    13
 74
     0
 42
0.0000000001
 43
0.0000000001
 12
1.0
 22
0.0
 32
0.0
 13
1.0
 23
0.0
 33
0.0
 40
0.0
 40
0.0
 40
0.0
 40
0.0
 40
1.0
 40
1.0
 40
1.0
 40
2.0
 40
2.0
 40
2.0
 40
3.0
 40
3.0
 40
3.0
 40
4.0
 40
4.0
 40
4.0
 40
4.0
 10
97.52650778966928
 20
-119.7893985811636
 30
0.0
 10
97.47140390218621
 20
-119.7893985811636
 30
0.0
 10
97.42660112555144
 20
-119.8342013589303
 30
0.0
 10
97.42660112555144
 20
-119.8893405255831
 30
0.0
 10
97.42660112555144
 20
-119.9444444144583
 30
0.0
 10
97.47140390218621
 20
-119.9892471922251
 30
0.0
 10
97.52650778966928
 20
-119.9892471922251
 30
0.0
 10
97.58164695492923
 20
-119.9892471922251
 30
0.0
 10
97.6264144537871
 20
-119.9444444144583
 30
0.0
 10
97.6264144537871
 20
-119.8893405255831
 30
0.0
 10
97.6264144537871
 20
-119.8342013589303
 30
0.0
 10
97.58164695492923
 20
-119.7893985811636
 30
0.0
 10
97.52650778966928
 20
-119.7893985811636
 30
0.0
  0
POLYLINE
  5
78
330
1F
100
AcDbEntity
  8
_U+30EC_U+30A4_U+30E4_U+30FC 1
 62
     7
420
 16777215
370
     9
100
AcDb2dPolyline
 66
     1
 10
0.0
 20
0.0
 30
0.0
  0
VERTEX
  5
79
330
78
100
AcDbEntity
  8
_U+30EC_U+30A4_U+30E4_U+30FC 1
 62
     7
420
 16777215
370
     9
100
AcDbVertex
100
AcDb2dVertex
 10
97.52650778966928
 20
-118.4292991370594
 30
0.0
  0
VERTEX
  5
7A
330
78
100
AcDbEntity
  8
_U+30EC_U+30A4_U+30E4_U+30FC 1
 62
     7
420
 16777215
370
     9
100
AcDbVertex
100
AcDb2dVertex
 10
97.52650778966928
 20
-120.8890774697778
 30
0.0
  0
SEQEND
  5
7B
330
78
100
AcDbEntity
  8
_U+30EC_U+30A4_U+30E4_U+30FC 1
 62
     7
420
 16777215
370
     9
  0
INSERT
  5
7D
330
1F
100
AcDbEntity
  8
_U+30EC_U+30A4_U+30E4_U+30FC 1
100
AcDbBlockReference
  2
block 4
 10
0.0
 20
0.0
 30
0.0
  0
SPLINE
  5
82
330
1F
100
AcDbEntity
  8
_U+30EC_U+30A4_U+30E4_U+30FC 1
 62
     7
420
 16777215
370
     9
100
AcDbSpline
210
0.0
220
0.0
230
1.0
 70
    11
 71
     3
 72
    17
 73
    13
 74
     0
 42
0.0000000001
 43
0.0000000001
 12
1.0
 22
0.0
 32
0.0
 13
1.0
 23
0.0
 33
0.0
 40
0.0
 40
0.0
 40
0.0
 40
0.0
 40
1.0
 40
1.0
 40
1.0
 40
2.0
 40
2.0
 40
2.0
 40
3.0
 40
3.0
 40
3.0
 40
4.0
 40
4.0
 40
4.0
 40
4.0
 10
88.52464442231317
 20
-119.7893985811636
 30
0.0
 10
88.46953829850959
 20
-119.7893985811636
 30
0.0
 10
88.42473552187484
 20
-119.8342013589303
 30
0.0
 10
88.42473552187484
 20
-119.8893405255831
 30
0.0
 10
88.42473552187484
 20
-119.9444444144583
 30
0.0
 10
88.46953829850959
 20
-119.9892471922251
 30
0.0
 10
88.52464442231317
 20
-119.9892471922251
 30
0.0
 10
88.57978135125262
 20
-119.9892471922251
 30
0.0
 10
88.6245488501105
 20
-119.9444444144583
 30
0.0
 10
88.6245488501105
 20
-119.8893405255831
 30
0.0
 10
88.6245488501105
 20
-119.8342013589303
 30
0.0
 10
88.57978135125262
 20
-119.7893985811636
 30
0.0
 10
88.52464442231317
 20
-119.7893985811636
 30
0.0
  0
POLYLINE
  5
83
330
1F
100
AcDbEntity
  8
_U+30EC_U+30A4_U+30E4_U+30FC 1
 62
     7
420
 16777215
370
     9
100
AcDb2dPolyline
 66
     1
 10
0.0
 20
0.0
 30
0.0
  0
VERTEX
  5
84
330
83
100
AcDbEntity
  8
_U+30EC_U+30A4_U+30E4_U+30FC 1
 62
     7
420
 16777215
370
     9
100
AcDbVertex
100
AcDb2dVertex
 10
94.52652092176088
 20
-119.8893405255831
 30
0.0
  0
VERTEX
  5
85
330
83
100
AcDbEntity
  8
_U+30EC_U+30A4_U+30E4_U+30FC 1
 62
     7
420
 16777215
370
     9
100
AcDbVertex
100
AcDb2dVertex
 10
88.52464442231317
 20
-119.8893405255831
 30
0.0
  0
SEQEND
  5
86
330
83
100
AcDbEntity
  8
_U+30EC_U+30A4_U+30E4_U+30FC 1
 62
     7
420
 16777215
370
     9
  0
POLYLINE
  5
87
330
1F
100
AcDbEntity
  8
_U+30EC_U+30A4_U+30E4_U+30FC 1
 62
     7
420
 16777215
370
     9
100
AcDb2dPolyline
 66
     1
 10
0.0
 20
0.0
 30
0.0
  0
VERTEX
  5
88
330
87
100
AcDbEntity
  8
_U+30EC_U+30A4_U+30E4_U+30FC 1
 62
     7
420
 16777215
370
     9
100
AcDbVertex
100
AcDb2dVertex
 10
88.52464442231317
 20
-118.4292991370594
 30
0.0
  0
VERTEX
  5
89
330
87
100
AcDbEntity
  8
_U+30EC_U+30A4_U+30E4_U+30FC 1
 62
     7
420
 16777215
370
     9
100
AcDbVertex
100
AcDb2dVertex
 10
88.52464442231317
 20
-120.8890774697778
 30
0.0
  0
SEQEND
  5
8A
330
87
100
AcDbEntity
  8
_U+30EC_U+30A4_U+30E4_U+30FC 1
 62
     7
420
 16777215
370
     9
  0
INSERT
  5
8C
330
1F
100
AcDbEntity
  8
_U+30EC_U+30A4_U+30E4_U+30FC 1
100
AcDbBlockReference
  2
block 5
 10
0.0
 20
0.0
 30
0.0
  0
SPLINE
  5
92
330
1F
100
AcDbEntity
  8
_U+30EC_U+30A4_U+30E4_U+30FC 1
 62
     7
420
 16777215
370
     9
100
AcDbSpline
210
0.0
220
0.0
230
1.0
 70
    11
 71
     3
 72
    17
 73
    13
 74
     0
 42
0.0000000001
 43
0.0000000001
 12
1.0
 22
0.0
 32
0.0
 13
1.0
 23
0.0
 33
0.0
 40
0.0
 40
0.0
 40
0.0
 40
0.0
 40
1.0
 40
1.0
 40
1.0
 40
2.0
 40
2.0
 40
2.0
 40
3.0
 40
3.0
 40
3.0
 40
4.0
 40
4.0
 40
4.0
 40
4.0
 10
85.52465531808427
 20
-119.7893985811636
 30
0.0
 10
85.4695514306012
 20
-119.7893985811636
 30
0.0
 10
85.42474865396643
 20
-119.8342013589303
 30
0.0
 10
85.42474865396643
 20
-119.8893405255831
 30
0.0
 10
85.42474865396643
 20
-119.9444444144583
 30
0.0
 10
85.4695514306012
 20
-119.9892471922251
 30
0.0
 10
85.52465531808427
 20
-119.9892471922251
 30
0.0
 10
85.57979448334422
 20
-119.9892471922251
 30
0.0
 10
85.6245619822021
 20
-119.9444444144583
 30
0.0
 10
85.6245619822021
 20
-119.8893405255831
 30
0.0
 10
85.6245619822021
 20
-119.8342013589303
 30
0.0
 10
85.57979448334422
 20
-119.7893985811636
 30
0.0
 10
85.52465531808427
 20
-119.7893985811636
 30
0.0
  0
POLYLINE
  5
93
330
1F
100
AcDbEntity
  8
_U+30EC_U+30A4_U+30E4_U+30FC 1
 62
     7
420
 16777215
370
     9
100
AcDb2dPolyline
 66
     1
 10
0.0
 20
0.0
 30
0.0
  0
VERTEX
  5
94
330
93
100
AcDbEntity
  8
_U+30EC_U+30A4_U+30E4_U+30FC 1
 62
     7
420
 16777215
370
     9
100
AcDbVertex
100
AcDb2dVertex
 10
88.52637079705968
 20
-119.8893405255831
 30
0.0
  0
VERTEX
  5
95
330
93
100
AcDbEntity
  8
_U+30EC_U+30A4_U+30E4_U+30FC 1
 62
     7
420
 16777215
370
     9
100
AcDbVertex
100
AcDb2dVertex
 10
85.52465531808427
 20
-119.8893405255831
 30
0.0
  0
SEQEND
  5
96
330
93
100
AcDbEntity
  8
_U+30EC_U+30A4_U+30E4_U+30FC 1
 62
     7
420
 16777215
370
     9
  0
POLYLINE
  5
97
330
1F
100
AcDbEntity
  8
_U+30EC_U+30A4_U+30E4_U+30FC 1
 62
     7
420
 16777215
370
     9
100
AcDb2dPolyline
 66
     1
 10
0.0
 20
0.0
 30
0.0
  0
VERTEX
  5
98
330
97
100
AcDbEntity
  8
_U+30EC_U+30A4_U+30E4_U+30FC 1
 62
     7
420
 16777215
370
     9
100
AcDbVertex
100
AcDb2dVertex
 10
85.52465531808427
 20
-118.4292991370594
 30
0.0
  0
VERTEX
  5
99
330
97
100
AcDbEntity
  8
_U+30EC_U+30A4_U+30E4_U+30FC 1
 62
     7
420
 16777215
370
     9
100
AcDbVertex
100
AcDb2dVertex
 10
85.52465531808427
 20
-120.8890774697778
 30
0.0
  0
SEQEND
  5
9A
330
97
100
AcDbEntity
  8
_U+30EC_U+30A4_U+30E4_U+30FC 1
 62
     7
420
 16777215
370
     9
  0
INSERT
  5
9C
330
1F
100
AcDbEntity
  8
_U+30EC_U+30A4_U+30E4_U+30FC 1
100
AcDbBlockReference
  2
block 6
 10
0.0
 20
0.0
 30
0.0
  0
POLYLINE
  5
A1
330
1F
100
AcDbEntity
  8
_U+30EC_U+30A4_U+30E4_U+30FC 1
 62
     7
420
 16777215
370
     9
100
AcDb2dPolyline
 66
     1
 10
0.0
 20
0.0
 30
0.0
  0
VERTEX
  5
A2
330
A1
100
AcDbEntity
  8
_U+30EC_U+30A4_U+30E4_U+30FC 1
 62
     7
420
 16777215
370
     9
100
AcDbVertex
100
AcDb2dVertex
 10
94.52514508846264
 20
-136.8571049657856
 30
0.0
  0
VERTEX
  5
A3
330
A1
100
AcDbEntity
  8
_U+30EC_U+30A4_U+30E4_U+30FC 1
 62
     7
420
 16777215
370
     9
100
AcDbVertex
100
AcDb2dVertex
 10
104.5255860849796
 20
-136.8571049657856
 30
0.0
  0
SEQEND
  5
A4
330
A1
100
AcDbEntity
  8
_U+30EC_U+30A4_U+30E4_U+30FC 1
 62
     7
420
 16777215
370
     9
  0
POLYLINE
  5
A5
330
1F
100
AcDbEntity
  8
_U+30EC_U+30A4_U+30E4_U+30FC 1
 62
     7
420
 16777215
370
     9
100
AcDb2dPolyline
 66
     1
 10
0.0
 20
0.0
 30
0.0
  0
VERTEX
  5
A6
330
A5
100
AcDbEntity
  8
_U+30EC_U+30A4_U+30E4_U+30FC 1
 62
     7
420
 16777215
370
     9
100
AcDbVertex
100
AcDb2dVertex
 10
104.5255860849796
 20
-135.3970635772619
 30
0.0
  0
VERTEX
  5
A7
330
A5
100
AcDbEntity
  8
_U+30EC_U+30A4_U+30E4_U+30FC 1
 62
     7
420
 16777215
370
     9
100
AcDbVertex
100
AcDb2dVertex
 10
104.5255860849796
 20
-137.8568771877582
 30
0.0
  0
SEQEND
  5
A8
330
A5
100
AcDbEntity
  8
_U+30EC_U+30A4_U+30E4_U+30FC 1
 62
     7
420
 16777215
370
     9
  0
SPLINE
  5
A9
330
1F
100
AcDbEntity
  8
_U+30EC_U+30A4_U+30E4_U+30FC 1
 62
     7
420
 16777215
370
     9
100
AcDbSpline
210
0.0
220
0.0
230
1.0
 70
    11
 71
     3
 72
    17
 73
    13
 74
     0
 42
0.0000000001
 43
0.0000000001
 12
1.0
 22
0.0
 32
0.0
 13
1.0
 23
0.0
 33
0.0
 40
0.0
 40
0.0
 40
0.0
 40
0.0
 40
1.0
 40
1.0
 40
1.0
 40
2.0
 40
2.0
 40
2.0
 40
3.0
 40
3.0
 40
3.0
 40
4.0
 40
4.0
 40
4.0
 40
4.0
 10
94.62505175258048
 20
-136.8571049657856
 30
0.0
 10
94.62505175258048
 20
-136.8020010769107
 30
0.0
 10
94.5802842537226
 20
-136.757198299144
 30
0.0
 10
94.52514508846264
 20
-136.757198299144
 30
0.0
 10
94.47004120097957
 20
-136.757198299144
 30
0.0
 10
94.42523842434481
 20
-136.8020010769107
 30
0.0
 10
94.42523842434481
 20
-136.8571049657856
 30
0.0
 10
94.42523842434481
 20
-136.9122441324387
 30
0.0
 10
94.47004120097957
 20
-136.9570116324273
 30
0.0
 10
94.52514508846264
 20
-136.9570116324273
 30
0.0
 10
94.5802842537226
 20
-136.9570116324273
 30
0.0
 10
94.62505175258048
 20
-136.9122441324387
 30
0.0
 10
94.62505175258048
 20
-136.8571049657856
 30
0.0
  0
POLYLINE
  5
AA
330
1F
100
AcDbEntity
  8
_U+30EC_U+30A4_U+30E4_U+30FC 1
 62
     7
420
 16777215
370
     9
100
AcDb2dPolyline
 66
     1
 10
0.0
 20
0.0
 30
0.0
  0
VERTEX
  5
AB
330
AA
100
AcDbEntity
  8
_U+30EC_U+30A4_U+30E4_U+30FC 1
 62
     7
420
 16777215
370
     9
100
AcDbVertex
100
AcDb2dVertex
 10
94.52514508846264
 20
-135.3970635772619
 30
0.0
  0
VERTEX
  5
AC
330
AA
100
AcDbEntity
  8
_U+30EC_U+30A4_U+30E4_U+30FC 1
 62
     7
420
 16777215
370
     9
100
AcDbVertex
100
AcDb2dVertex
 10
94.52514508846264
 20
-137.8568771877582
 30
0.0
  0
SEQEND
  5
AD
330
AA
100
AcDbEntity
  8
_U+30EC_U+30A4_U+30E4_U+30FC 1
 62
     7
420
 16777215
370
     9
  0
INSERT
  5
AF
330
1F
100
AcDbEntity
  8
_U+30EC_U+30A4_U+30E4_U+30FC 1
100
AcDbBlockReference
  2
block 7
 10
0.0
 20
0.0
 30
0.0
  0
SPLINE
  5
B7
330
1F
100
AcDbEntity
  8
_U+30EC_U+30A4_U+30E4_U+30FC 1
 62
     7
420
 16777215
370
     9
100
AcDbSpline
210
0.0
220
0.0
230
1.0
 70
    11
 71
     3
 72
    17
 73
    13
 74
     0
 42
0.0000000001
 43
0.0000000001
 12
1.0
 22
0.0
 32
0.0
 13
1.0
 23
0.0
 33
0.0
 40
0.0
 40
0.0
 40
0.0
 40
0.0
 40
1.0
 40
1.0
 40
1.0
 40
2.0
 40
2.0
 40
2.0
 40
3.0
 40
3.0
 40
3.0
 40
4.0
 40
4.0
 40
4.0
 40
4.0
 10
88.6245488501105
 20
-136.8571049657856
 30
0.0
 10
88.6245488501105
 20
-136.8020010769107
 30
0.0
 10
88.57978135125262
 20
-136.757198299144
 30
0.0
 10
88.52464442231317
 20
-136.757198299144
 30
0.0
 10
88.46953829850959
 20
-136.757198299144
 30
0.0
 10
88.42473552187484
 20
-136.8020010769107
 30
0.0
 10
88.42473552187484
 20
-136.8571049657856
 30
0.0
 10
88.42473552187484
 20
-136.9122441324387
 30
0.0
 10
88.46953829850959
 20
-136.9570116324273
 30
0.0
 10
88.52464442231317
 20
-136.9570116324273
 30
0.0
 10
88.57978135125262
 20
-136.9570116324273
 30
0.0
 10
88.6245488501105
 20
-136.9122441324387
 30
0.0
 10
88.6245488501105
 20
-136.8571049657856
 30
0.0
  0
POLYLINE
  5
B8
330
1F
100
AcDbEntity
  8
_U+30EC_U+30A4_U+30E4_U+30FC 1
 62
     7
420
 16777215
370
     9
100
AcDb2dPolyline
 66
     1
 10
0.0
 20
0.0
 30
0.0
  0
VERTEX
  5
B9
330
B8
100
AcDbEntity
  8
_U+30EC_U+30A4_U+30E4_U+30FC 1
 62
     7
420
 16777215
370
     9
100
AcDbVertex
100
AcDb2dVertex
 10
73.52470784645065
 20
-136.8571049657856
 30
0.0
  0
VERTEX
  5
BA
330
B8
100
AcDbEntity
  8
_U+30EC_U+30A4_U+30E4_U+30FC 1
 62
     7
420
 16777215
370
     9
100
AcDbVertex
100
AcDb2dVertex
 10
88.52464442231317
 20
-136.8571049657856
 30
0.0
  0
SEQEND
  5
BB
330
B8
100
AcDbEntity
  8
_U+30EC_U+30A4_U+30E4_U+30FC 1
 62
     7
420
 16777215
370
     9
  0
POLYLINE
  5
BC
330
1F
100
AcDbEntity
  8
_U+30EC_U+30A4_U+30E4_U+30FC 1
 62
     7
420
 16777215
370
     9
100
AcDb2dPolyline
 66
     1
 10
0.0
 20
0.0
 30
0.0
  0
VERTEX
  5
BD
330
BC
100
AcDbEntity
  8
_U+30EC_U+30A4_U+30E4_U+30FC 1
 62
     7
420
 16777215
370
     9
100
AcDbVertex
100
AcDb2dVertex
 10
88.52464442231317
 20
-135.3970635772619
 30
0.0
  0
VERTEX
  5
BE
330
BC
100
AcDbEntity
  8
_U+30EC_U+30A4_U+30E4_U+30FC 1
 62
     7
420
 16777215
370
     9
100
AcDbVertex
100
AcDb2dVertex
 10
88.52464442231317
 20
-137.8568771877582
 30
0.0
  0
SEQEND
  5
BF
330
BC
100
AcDbEntity
  8
_U+30EC_U+30A4_U+30E4_U+30FC 1
 62
     7
420
 16777215
370
     9
  0
SPLINE
  5
C0
330
1F
100
AcDbEntity
  8
_U+30EC_U+30A4_U+30E4_U+30FC 1
 62
     7
420
 16777215
370
     9
100
AcDbSpline
210
0.0
220
0.0
230
1.0
 70
    11
 71
     3
 72
    17
 73
    13
 74
     0
 42
0.0000000001
 43
0.0000000001
 12
1.0
 22
0.0
 32
0.0
 13
1.0
 23
0.0
 33
0.0
 40
0.0
 40
0.0
 40
0.0
 40
0.0
 40
1.0
 40
1.0
 40
1.0
 40
2.0
 40
2.0
 40
2.0
 40
3.0
 40
3.0
 40
3.0
 40
4.0
 40
4.0
 40
4.0
 40
4.0
 10
73.62461451056849
 20
-136.8571049657856
 30
0.0
 10
73.62461451056849
 20
-136.8020010769107
 30
0.0
 10
73.5798470117106
 20
-136.757198299144
 30
0.0
 10
73.52470784645065
 20
-136.757198299144
 30
0.0
 10
73.46960395896758
 20
-136.757198299144
 30
0.0
 10
73.42480118233281
 20
-136.8020010769107
 30
0.0
 10
73.42480118233281
 20
-136.8571049657856
 30
0.0
 10
73.42480118233281
 20
-136.9122441324387
 30
0.0
 10
73.46960395896758
 20
-136.9570116324273
 30
0.0
 10
73.52470784645065
 20
-136.9570116324273
 30
0.0
 10
73.5798470117106
 20
-136.9570116324273
 30
0.0
 10
73.62461451056849
 20
-136.9122441324387
 30
0.0
 10
73.62461451056849
 20
-136.8571049657856
 30
0.0
  0
POLYLINE
  5
C1
330
1F
100
AcDbEntity
  8
_U+30EC_U+30A4_U+30E4_U+30FC 1
 62
     7
420
 16777215
370
     9
100
AcDb2dPolyline
 66
     1
 10
0.0
 20
0.0
 30
0.0
  0
VERTEX
  5
C2
330
C1
100
AcDbEntity
  8
_U+30EC_U+30A4_U+30E4_U+30FC 1
 62
     7
420
 16777215
370
     9
100
AcDbVertex
100
AcDb2dVertex
 10
73.52470784645065
 20
-135.3970635772619
 30
0.0
  0
VERTEX
  5
C3
330
C1
100
AcDbEntity
  8
_U+30EC_U+30A4_U+30E4_U+30FC 1
 62
     7
420
 16777215
370
     9
100
AcDbVertex
100
AcDb2dVertex
 10
73.52470784645065
 20
-137.8568771877582
 30
0.0
  0
SEQEND
  5
C4
330
C1
100
AcDbEntity
  8
_U+30EC_U+30A4_U+30E4_U+30FC 1
 62
     7
420
 16777215
370
     9
  0
INSERT
  5
C6
330
1F
100
AcDbEntity
  8
_U+30EC_U+30A4_U+30E4_U+30FC 1
100
AcDbBlockReference
  2
block 8
 10
0.0
 20
0.0
 30
0.0
  0
SPLINE
  5
CD
330
1F
100
AcDbEntity
  8
_U+30EC_U+30A4_U+30E4_U+30FC 1
 62
   179
420
  2234388
370
     9
100
AcDbSpline
210
0.0
220
0.0
230
1.0
 70
    11
 71
     3
 72
    17
 73
    13
 74
     0
 42
0.0000000001
 43
0.0000000001
 12
1.0
 22
0.0
 32
0.0
 13
1.0
 23
0.0
 33
0.0
 40
0.0
 40
0.0
 40
0.0
 40
0.0
 40
1.0
 40
1.0
 40
1.0
 40
2.0
 40
2.0
 40
2.0
 40
3.0
 40
3.0
 40
3.0
 40
4.0
 40
4.0
 40
4.0
 40
4.0
 10
94.61954841938754
 20
-126.3867663572922
 30
0.0
 10
94.61954841938754
 20
-126.331662468417
 30
0.0
 10
94.57474564275279
 20
-126.2868596906506
 30
0.0
 10
94.51964175526972
 20
-126.2868596906506
 30
0.0
 10
94.46450259000976
 20
-126.2868596906506
 30
0.0
 10
94.41973509115188
 20
-126.331662468417
 30
0.0
 10
94.41973509115188
 20
-126.3867663572922
 30
0.0
 10
94.41973509115188
 20
-126.441905523945
 30
0.0
 10
94.46450259000976
 20
-126.4866730239338
 30
0.0
 10
94.51964175526972
 20
-126.4866730239338
 30
0.0
 10
94.57474564275279
 20
-126.4866730239338
 30
0.0
 10
94.61954841938754
 20
-126.441905523945
 30
0.0
 10
94.61954841938754
 20
-126.3867663572922
 30
0.0
  0
SPLINE
  5
CE
330
1F
100
AcDbEntity
  8
_U+30EC_U+30A4_U+30E4_U+30FC 1
 62
   179
420
  2234388
370
     9
100
AcDbSpline
210
0.0
220
0.0
230
1.0
 70
    11
 71
     3
 72
    17
 73
    13
 74
     0
 42
0.0000000001
 43
0.0000000001
 12
1.0
 22
0.0
 32
0.0
 13
1.0
 23
0.0
 33
0.0
 40
0.0
 40
0.0
 40
0.0
 40
0.0
 40
1.0
 40
1.0
 40
1.0
 40
2.0
 40
2.0
 40
2.0
 40
3.0
 40
3.0
 40
3.0
 40
4.0
 40
4.0
 40
4.0
 40
4.0
 10
95.61932061610345
 20
-126.3867663572922
 30
0.0
 10
95.61932061610345
 20
-126.331662468417
 30
0.0
 10
95.57451783946868
 20
-126.2868596906506
 30
0.0
 10
95.51941395198561
 20
-126.2868596906506
 30
0.0
 10
95.46427478672567
 20
-126.2868596906506
 30
0.0
 10
95.41950728786779
 20
-126.331662468417
 30
0.0
 10
95.41950728786779
 20
-126.3867663572922
 30
0.0
 10
95.41950728786779
 20
-126.441905523945
 30
0.0
 10
95.46427478672567
 20
-126.4866730239338
 30
0.0
 10
95.51941395198561
 20
-126.4866730239338
 30
0.0
 10
95.57451783946868
 20
-126.4866730239338
 30
0.0
 10
95.61932061610345
 20
-126.441905523945
 30
0.0
 10
95.61932061610345
 20
-126.3867663572922
 30
0.0
  0
INSERT
  5
D0
330
1F
100
AcDbEntity
  8
_U+30EC_U+30A4_U+30E4_U+30FC 1
100
AcDbBlockReference
  2
block 9
 10
0.0
 20
0.0
 30
0.0
  0
POLYLINE
  5
D5
330
1F
100
AcDbEntity
  8
_U+30EC_U+30A4_U+30E4_U+30FC 1
 62
   179
420
  2234388
370
     9
100
AcDb2dPolyline
 66
     1
 10
0.0
 20
0.0
 30
0.0
  0
VERTEX
  5
D6
330
D5
100
AcDbEntity
  8
_U+30EC_U+30A4_U+30E4_U+30FC 1
 62
   179
420
  2234388
370
     9
100
AcDbVertex
100
AcDb2dVertex
 10
97.43901890301241
 20
-126.3867663572922
 30
0.0
  0
VERTEX
  5
D7
330
D5
100
AcDbEntity
  8
_U+30EC_U+30A4_U+30E4_U+30FC 1
 62
   179
420
  2234388
370
     9
100
AcDbVertex
100
AcDb2dVertex
 10
93.6004792787195
 20
-126.3867663572922
 30
0.0
  0
SEQEND
  5
D8
330
D5
100
AcDbEntity
  8
_U+30EC_U+30A4_U+30E4_U+30FC 1
 62
   179
420
  2234388
370
     9
  0
POLYLINE
  5
D9
330
1F
100
AcDbEntity
  8
_U+30EC_U+30A4_U+30E4_U+30FC 1
 62
   179
420
  2234388
370
    25
100
AcDb2dPolyline
 66
     1
 10
0.0
 20
0.0
 30
0.0
  0
VERTEX
  5
DA
330
D9
100
AcDbEntity
  8
_U+30EC_U+30A4_U+30E4_U+30FC 1
 62
   179
420
  2234388
370
    25
100
AcDbVertex
100
AcDb2dVertex
 10
79.73207963253185
 20
-132.4763105224365
 30
0.0
  0
VERTEX
  5
DB
330
D9
100
AcDbEntity
  8
_U+30EC_U+30A4_U+30E4_U+30FC 1
 62
   179
420
  2234388
370
    25
100
AcDbVertex
100
AcDb2dVertex
 10
79.23289908971145
 20
-132.8766427445586
 30
0.0
  0
SEQEND
  5
DC
330
D9
100
AcDbEntity
  8
_U+30EC_U+30A4_U+30E4_U+30FC 1
 62
   179
420
  2234388
370
    25
  0
POLYLINE
  5
DD
330
1F
100
AcDbEntity
  8
_U+30EC_U+30A4_U+30E4_U+30FC 1
 62
   179
420
  2234388
370
    25
100
AcDb2dPolyline
 66
     1
 10
0.0
 20
0.0
 30
0.0
  0
VERTEX
  5
DE
330
DD
100
AcDbEntity
  8
_U+30EC_U+30A4_U+30E4_U+30FC 1
 62
   179
420
  2234388
370
    25
100
AcDbVertex
100
AcDb2dVertex
 10
79.73207963253185
 20
-132.4763105224365
 30
0.0
  0
VERTEX
  5
DF
330
DD
100
AcDbEntity
  8
_U+30EC_U+30A4_U+30E4_U+30FC 1
 62
   179
420
  2234388
370
    25
100
AcDbVertex
100
AcDb2dVertex
 10
80.23249489754298
 20
-132.8756196890035
 30
0.0
  0
SEQEND
  5
E0
330
DD
100
AcDbEntity
  8
_U+30EC_U+30A4_U+30E4_U+30FC 1
 62
   179
420
  2234388
370
    25
  0
POLYLINE
  5
E1
330
1F
100
AcDbEntity
  8
_U+30EC_U+30A4_U+30E4_U+30FC 1
 62
   179
420
  2234388
370
    25
100
AcDb2dPolyline
 66
     1
 10
0.0
 20
0.0
 30
0.0
  0
VERTEX
  5
E2
330
E1
100
AcDbEntity
  8
_U+30EC_U+30A4_U+30E4_U+30FC 1
 62
   179
420
  2234388
370
    25
100
AcDbVertex
100
AcDb2dVertex
 10
80.23249489754298
 20
-132.8756196890035
 30
0.0
  0
VERTEX
  5
E3
330
E1
100
AcDbEntity
  8
_U+30EC_U+30A4_U+30E4_U+30FC 1
 62
   179
420
  2234388
370
    25
100
AcDbVertex
100
AcDb2dVertex
 10
80.73269849589282
 20
-132.4752874668814
 30
0.0
  0
SEQEND
  5
E4
330
E1
100
AcDbEntity
  8
_U+30EC_U+30A4_U+30E4_U+30FC 1
 62
   179
420
  2234388
370
    25
  0
POLYLINE
  5
E5
330
1F
100
AcDbEntity
  8
_U+30EC_U+30A4_U+30E4_U+30FC 1
 62
   179
420
  2234388
370
    25
100
AcDb2dPolyline
 66
     1
 10
0.0
 20
0.0
 30
0.0
  0
VERTEX
  5
E6
330
E5
100
AcDbEntity
  8
_U+30EC_U+30A4_U+30E4_U+30FC 1
 62
   179
420
  2234388
370
    25
100
AcDbVertex
100
AcDb2dVertex
 10
80.73269849589282
 20
-132.4752874668814
 30
0.0
  0
VERTEX
  5
E7
330
E5
100
AcDbEntity
  8
_U+30EC_U+30A4_U+30E4_U+30FC 1
 62
   179
420
  2234388
370
    25
100
AcDbVertex
100
AcDb2dVertex
 10
81.23293737201956
 20
-132.8745613556702
 30
0.0
  0
SEQEND
  5
E8
330
E5
100
AcDbEntity
  8
_U+30EC_U+30A4_U+30E4_U+30FC 1
 62
   179
420
  2234388
370
    25
  0
POLYLINE
  5
E9
330
1F
100
AcDbEntity
  8
_U+30EC_U+30A4_U+30E4_U+30FC 1
 62
   179
420
  2234388
370
    25
100
AcDb2dPolyline
 66
     1
 10
0.0
 20
0.0
 30
0.0
  0
VERTEX
  5
EA
330
E9
100
AcDbEntity
  8
_U+30EC_U+30A4_U+30E4_U+30FC 1
 62
   179
420
  2234388
370
    25
100
AcDbVertex
100
AcDb2dVertex
 10
81.23293737201956
 20
-132.8745613556702
 30
0.0
  0
VERTEX
  5
EB
330
E9
100
AcDbEntity
  8
_U+30EC_U+30A4_U+30E4_U+30FC 1
 62
   179
420
  2234388
370
    25
100
AcDbVertex
100
AcDb2dVertex
 10
81.73229430372434
 20
-132.4742644113256
 30
0.0
  0
SEQEND
  5
EC
330
E9
100
AcDbEntity
  8
_U+30EC_U+30A4_U+30E4_U+30FC 1
 62
   179
420
  2234388
370
    25
  0
POLYLINE
  5
ED
330
1F
100
AcDbEntity
  8
_U+30EC_U+30A4_U+30E4_U+30FC 1
 62
   179
420
  2234388
370
    25
100
AcDb2dPolyline
 66
     1
 10
0.0
 20
0.0
 30
0.0
  0
VERTEX
  5
EE
330
ED
100
AcDbEntity
  8
_U+30EC_U+30A4_U+30E4_U+30FC 1
 62
   179
420
  2234388
370
    25
100
AcDbVertex
100
AcDb2dVertex
 10
81.73229430372434
 20
-132.4742644113256
 30
0.0
  0
VERTEX
  5
EF
330
ED
100
AcDbEntity
  8
_U+30EC_U+30A4_U+30E4_U+30FC 1
 62
   179
420
  2234388
370
    25
100
AcDbVertex
100
AcDb2dVertex
 10
82.23270956873546
 20
-132.8742438556706
 30
0.0
  0
SEQEND
  5
F0
330
ED
100
AcDbEntity
  8
_U+30EC_U+30A4_U+30E4_U+30FC 1
 62
   179
420
  2234388
370
    25
  0
POLYLINE
  5
F1
330
1F
100
AcDbEntity
  8
_U+30EC_U+30A4_U+30E4_U+30FC 1
 62
   179
420
  2234388
370
    25
100
AcDb2dPolyline
 66
     1
 10
0.0
 20
0.0
 30
0.0
  0
VERTEX
  5
F2
330
F1
100
AcDbEntity
  8
_U+30EC_U+30A4_U+30E4_U+30FC 1
 62
   179
420
  2234388
370
    25
100
AcDbVertex
100
AcDb2dVertex
 10
82.23270956873546
 20
-132.8742438556706
 30
0.0
  0
VERTEX
  5
F3
330
F1
100
AcDbEntity
  8
_U+30EC_U+30A4_U+30E4_U+30FC 1
 62
   179
420
  2234388
370
    25
100
AcDbVertex
100
AcDb2dVertex
 10
82.73206650044025
 20
-132.4739116335485
 30
0.0
  0
SEQEND
  5
F4
330
F1
100
AcDbEntity
  8
_U+30EC_U+30A4_U+30E4_U+30FC 1
 62
   179
420
  2234388
370
    25
  0
POLYLINE
  5
F5
330
1F
100
AcDbEntity
  8
_U+30EC_U+30A4_U+30E4_U+30FC 1
 62
   179
420
  2234388
370
    25
100
AcDb2dPolyline
 66
     1
 10
0.0
 20
0.0
 30
0.0
  0
VERTEX
  5
F6
330
F5
100
AcDbEntity
  8
_U+30EC_U+30A4_U+30E4_U+30FC 1
 62
   179
420
  2234388
370
    25
100
AcDbVertex
100
AcDb2dVertex
 10
82.73206650044025
 20
-132.4739116335485
 30
0.0
  0
VERTEX
  5
F7
330
F5
100
AcDbEntity
  8
_U+30EC_U+30A4_U+30E4_U+30FC 1
 62
   179
420
  2234388
370
    25
100
AcDbVertex
100
AcDb2dVertex
 10
83.23248176545137
 20
-132.8731855223373
 30
0.0
  0
SEQEND
  5
F8
330
F5
100
AcDbEntity
  8
_U+30EC_U+30A4_U+30E4_U+30FC 1
 62
   179
420
  2234388
370
    25
  0
POLYLINE
  5
F9
330
1F
100
AcDbEntity
  8
_U+30EC_U+30A4_U+30E4_U+30FC 1
 62
   179
420
  2234388
370
    25
100
AcDb2dPolyline
 66
     1
 10
0.0
 20
0.0
 30
0.0
  0
VERTEX
  5
FA
330
F9
100
AcDbEntity
  8
_U+30EC_U+30A4_U+30E4_U+30FC 1
 62
   179
420
  2234388
370
    25
100
AcDbVertex
100
AcDb2dVertex
 10
83.23248176545137
 20
-132.8731855223373
 30
0.0
  0
VERTEX
  5
FB
330
F9
100
AcDbEntity
  8
_U+30EC_U+30A4_U+30E4_U+30FC 1
 62
   179
420
  2234388
370
    25
100
AcDbVertex
100
AcDb2dVertex
 10
83.73236786380933
 20
-132.4728885779927
 30
0.0
  0
SEQEND
  5
FC
330
F9
100
AcDbEntity
  8
_U+30EC_U+30A4_U+30E4_U+30FC 1
 62
   179
420
  2234388
370
    25
  0
POLYLINE
  5
FD
330
1F
100
AcDbEntity
  8
_U+30EC_U+30A4_U+30E4_U+30FC 1
 62
   179
420
  2234388
370
    25
100
AcDb2dPolyline
 66
     1
 10
0.0
 20
0.0
 30
0.0
  0
VERTEX
  5
FE
330
FD
100
AcDbEntity
  8
_U+30EC_U+30A4_U+30E4_U+30FC 1
 62
   179
420
  2234388
370
    25
100
AcDbVertex
100
AcDb2dVertex
 10
83.73236786380933
 20
-132.4728885779927
 30
0.0
  0
VERTEX
  5
FF
330
FD
100
AcDbEntity
  8
_U+30EC_U+30A4_U+30E4_U+30FC 1
 62
   179
420
  2234388
370
    25
100
AcDbVertex
100
AcDb2dVertex
 10
84.23274997894197
 20
-132.8721624667822
 30
0.0
  0
SEQEND
  5
100
330
FD
100
AcDbEntity
  8
_U+30EC_U+30A4_U+30E4_U+30FC 1
 62
   179
420
  2234388
370
    25
  0
POLYLINE
  5
101
330
1F
100
AcDbEntity
  8
_U+30EC_U+30A4_U+30E4_U+30FC 1
 62
   179
420
  2234388
370
    25
100
AcDb2dPolyline
 66
     1
 10
0.0
 20
0.0
 30
0.0
  0
VERTEX
  5
102
330
101
100
AcDbEntity
  8
_U+30EC_U+30A4_U+30E4_U+30FC 1
 62
   179
420
  2234388
370
    25
100
AcDbVertex
100
AcDb2dVertex
 10
84.23274997894197
 20
-132.8721624667822
 30
0.0
  0
VERTEX
  5
103
330
101
100
AcDbEntity
  8
_U+30EC_U+30A4_U+30E4_U+30FC 1
 62
   179
420
  2234388
370
    25
100
AcDbVertex
100
AcDb2dVertex
 10
84.73210478274837
 20
-132.4718302446601
 30
0.0
  0
SEQEND
  5
104
330
101
100
AcDbEntity
  8
_U+30EC_U+30A4_U+30E4_U+30FC 1
 62
   179
420
  2234388
370
    25
  0
POLYLINE
  5
105
330
1F
100
AcDbEntity
  8
_U+30EC_U+30A4_U+30E4_U+30FC 1
 62
   179
420
  2234388
370
    25
100
AcDb2dPolyline
 66
     1
 10
0.0
 20
0.0
 30
0.0
  0
VERTEX
  5
106
330
105
100
AcDbEntity
  8
_U+30EC_U+30A4_U+30E4_U+30FC 1
 62
   179
420
  2234388
370
    25
100
AcDbVertex
100
AcDb2dVertex
 10
84.73210478274837
 20
-132.4718302446601
 30
0.0
  0
VERTEX
  5
107
330
105
100
AcDbEntity
  8
_U+30EC_U+30A4_U+30E4_U+30FC 1
 62
   179
420
  2234388
370
    25
100
AcDbVertex
100
AcDb2dVertex
 10
85.23252220091419
 20
-132.8711394112264
 30
0.0
  0
SEQEND
  5
108
330
105
100
AcDbEntity
  8
_U+30EC_U+30A4_U+30E4_U+30FC 1
 62
   179
420
  2234388
370
    25
  0
POLYLINE
  5
109
330
1F
100
AcDbEntity
  8
_U+30EC_U+30A4_U+30E4_U+30FC 1
 62
   179
420
  2234388
370
    25
100
AcDb2dPolyline
 66
     1
 10
0.0
 20
0.0
 30
0.0
  0
VERTEX
  5
10A
330
109
100
AcDbEntity
  8
_U+30EC_U+30A4_U+30E4_U+30FC 1
 62
   179
420
  2234388
370
    25
100
AcDbVertex
100
AcDb2dVertex
 10
85.23252220091419
 20
-132.8711394112264
 30
0.0
  0
VERTEX
  5
10B
330
109
100
AcDbEntity
  8
_U+30EC_U+30A4_U+30E4_U+30FC 1
 62
   179
420
  2234388
370
    25
100
AcDbVertex
100
AcDb2dVertex
 10
85.73187697946426
 20
-132.4708071891043
 30
0.0
  0
SEQEND
  5
10C
330
109
100
AcDbEntity
  8
_U+30EC_U+30A4_U+30E4_U+30FC 1
 62
   179
420
  2234388
370
    25
  0
POLYLINE
  5
10D
330
1F
100
AcDbEntity
  8
_U+30EC_U+30A4_U+30E4_U+30FC 1
 62
   179
420
  2234388
370
    25
100
AcDb2dPolyline
 66
     1
 10
0.0
 20
0.0
 30
0.0
  0
VERTEX
  5
10E
330
10D
100
AcDbEntity
  8
_U+30EC_U+30A4_U+30E4_U+30FC 1
 62
   179
420
  2234388
370
    25
100
AcDbVertex
100
AcDb2dVertex
 10
85.73187697946426
 20
-132.4708071891043
 30
0.0
  0
VERTEX
  5
10F
330
10D
100
AcDbEntity
  8
_U+30EC_U+30A4_U+30E4_U+30FC 1
 62
   179
420
  2234388
370
    25
100
AcDbVertex
100
AcDb2dVertex
 10
86.232115855591
 20
-132.8700810778938
 30
0.0
  0
SEQEND
  5
110
330
10D
100
AcDbEntity
  8
_U+30EC_U+30A4_U+30E4_U+30FC 1
 62
   179
420
  2234388
370
    25
  0
POLYLINE
  5
111
330
1F
100
AcDbEntity
  8
_U+30EC_U+30A4_U+30E4_U+30FC 1
 62
   179
420
  2234388
370
    25
100
AcDb2dPolyline
 66
     1
 10
0.0
 20
0.0
 30
0.0
  0
VERTEX
  5
112
330
111
100
AcDbEntity
  8
_U+30EC_U+30A4_U+30E4_U+30FC 1
 62
   179
420
  2234388
370
    25
100
AcDbVertex
100
AcDb2dVertex
 10
86.232115855591
 20
-132.8700810778938
 30
0.0
  0
VERTEX
  5
113
330
111
100
AcDbEntity
  8
_U+30EC_U+30A4_U+30E4_U+30FC 1
 62
   179
420
  2234388
370
    25
100
AcDbVertex
100
AcDb2dVertex
 10
86.73235473171773
 20
-132.4697841335492
 30
0.0
  0
SEQEND
  5
114
330
111
100
AcDbEntity
  8
_U+30EC_U+30A4_U+30E4_U+30FC 1
 62
   179
420
  2234388
370
    25
  0
POLYLINE
  5
115
330
1F
100
AcDbEntity
  8
_U+30EC_U+30A4_U+30E4_U+30FC 1
 62
   179
420
  2234388
370
    25
100
AcDb2dPolyline
 66
     1
 10
0.0
 20
0.0
 30
0.0
  0
VERTEX
  5
116
330
115
100
AcDbEntity
  8
_U+30EC_U+30A4_U+30E4_U+30FC 1
 62
   179
420
  2234388
370
    25
100
AcDbVertex
100
AcDb2dVertex
 10
86.73235473171773
 20
-132.4697841335492
 30
0.0
  0
VERTEX
  5
117
330
115
100
AcDbEntity
  8
_U+30EC_U+30A4_U+30E4_U+30FC 1
 62
   179
420
  2234388
370
    25
100
AcDbVertex
100
AcDb2dVertex
 10
87.23273471895197
 20
-132.8697635778935
 30
0.0
  0
SEQEND
  5
118
330
115
100
AcDbEntity
  8
_U+30EC_U+30A4_U+30E4_U+30FC 1
 62
   179
420
  2234388
370
    25
  0
POLYLINE
  5
119
330
1F
100
AcDbEntity
  8
_U+30EC_U+30A4_U+30E4_U+30FC 1
 62
     7
420
 16777215
370
    25
100
AcDb2dPolyline
 66
     1
 10
0.0
 20
0.0
 30
0.0
  0
VERTEX
  5
11A
330
119
100
AcDbEntity
  8
_U+30EC_U+30A4_U+30E4_U+30FC 1
 62
     7
420
 16777215
370
    25
100
AcDbVertex
100
AcDb2dVertex
 10
94.52447481070196
 20
-122.6733216359982
 30
0.0
  0
VERTEX
  5
11B
330
119
100
AcDbEntity
  8
_U+30EC_U+30A4_U+30E4_U+30FC 1
 62
     7
420
 16777215
370
    25
100
AcDbVertex
100
AcDb2dVertex
 10
94.52447481070196
 20
-127.6700660791937
 30
0.0
  0
VERTEX
  5
11C
330
119
100
AcDbEntity
  8
_U+30EC_U+30A4_U+30E4_U+30FC 1
 62
     7
420
 16777215
370
    25
100
AcDbVertex
100
AcDb2dVertex
 10
88.52464442231317
 20
-127.6700660791937
 30
0.0
  0
VERTEX
  5
11D
330
119
100
AcDbEntity
  8
_U+30EC_U+30A4_U+30E4_U+30FC 1
 62
     7
420
 16777215
370
    25
100
AcDbVertex
100
AcDb2dVertex
 10
88.52464442231317
 20
-122.6733216359982
 30
0.0
  0
SEQEND
  5
11E
330
119
100
AcDbEntity
  8
_U+30EC_U+30A4_U+30E4_U+30FC 1
 62
     7
420
 16777215
370
    25
  0
POLYLINE
  5
11F
330
1F
100
AcDbEntity
  8
_U+30EC_U+30A4_U+30E4_U+30FC 1
 62
     7
420
 16777215
370
    25
100
AcDb2dPolyline
 66
     1
 10
0.0
 20
0.0
 30
0.0
  0
VERTEX
  5
120
330
11F
100
AcDbEntity
  8
_U+30EC_U+30A4_U+30E4_U+30FC 1
 62
     7
420
 16777215
370
    25
100
AcDbVertex
100
AcDb2dVertex
 10
103.8255312400789
 20
-132.9737977445344
 30
0.0
  0
VERTEX
  5
121
330
11F
100
AcDbEntity
  8
_U+30EC_U+30A4_U+30E4_U+30FC 1
 62
     7
420
 16777215
370
    25
100
AcDbVertex
100
AcDb2dVertex
 10
99.834027175244
 20
-132.9737977445344
 30
0.0
  0
VERTEX
  5
122
330
11F
100
AcDbEntity
  8
_U+30EC_U+30A4_U+30E4_U+30FC 1
 62
     7
420
 16777215
370
    25
100
AcDbVertex
100
AcDb2dVertex
 10
99.53430718289049
 20
-132.6730546890538
 30
0.0
  0
VERTEX
  5
123
330
11F
100
AcDbEntity
  8
_U+30EC_U+30A4_U+30E4_U+30FC 1
 62
     7
420
 16777215
370
    25
100
AcDbVertex
100
AcDb2dVertex
 10
95.524211729641
 20
-132.6730546890538
 30
0.0
  0
VERTEX
  5
124
330
11F
100
AcDbEntity
  8
_U+30EC_U+30A4_U+30E4_U+30FC 1
 62
     7
420
 16777215
370
    25
100
AcDbVertex
100
AcDb2dVertex
 10
95.524211729641
 20
-122.6733216359982
 30
0.0
  0
VERTEX
  5
125
330
11F
100
AcDbEntity
  8
_U+30EC_U+30A4_U+30E4_U+30FC 1
 62
     7
420
 16777215
370
    25
100
AcDbVertex
100
AcDb2dVertex
 10
97.52446167861036
 20
-122.6733216359982
 30
0.0
  0
SEQEND
  5
126
330
11F
100
AcDbEntity
  8
_U+30EC_U+30A4_U+30E4_U+30FC 1
 62
     7
420
 16777215
370
    25
  0
POLYLINE
  5
127
330
1F
100
AcDbEntity
  8
_U+30EC_U+30A4_U+30E4_U+30FC 1
 62
   179
420
  2234388
370
    25
100
AcDb2dPolyline
 66
     1
 10
0.0
 20
0.0
 30
0.0
  0
VERTEX
  5
128
330
127
100
AcDbEntity
  8
_U+30EC_U+30A4_U+30E4_U+30FC 1
 62
   179
420
  2234388
370
    25
100
AcDbVertex
100
AcDb2dVertex
 10
104.5255860849796
 20
-133.6731444110259
 30
0.0
  0
VERTEX
  5
129
330
127
100
AcDbEntity
  8
_U+30EC_U+30A4_U+30E4_U+30FC 1
 62
   179
420
  2234388
370
    25
100
AcDbVertex
100
AcDb2dVertex
 10
94.52447481070196
 20
-133.6731444110259
 30
0.0
  0
VERTEX
  5
12A
330
127
100
AcDbEntity
  8
_U+30EC_U+30A4_U+30E4_U+30FC 1
 62
   179
420
  2234388
370
    25
100
AcDbVertex
100
AcDb2dVertex
 10
94.52447481070196
 20
-128.6698383011659
 30
0.0
  0
VERTEX
  5
12B
330
127
100
AcDbEntity
  8
_U+30EC_U+30A4_U+30E4_U+30FC 1
 62
   179
420
  2234388
370
    25
100
AcDbVertex
100
AcDb2dVertex
 10
88.52464442231317
 20
-128.6698383011659
 30
0.0
  0
VERTEX
  5
12C
330
127
100
AcDbEntity
  8
_U+30EC_U+30A4_U+30E4_U+30FC 1
 62
   179
420
  2234388
370
    25
100
AcDbVertex
100
AcDb2dVertex
 10
88.52464442231317
 20
-133.6731444110259
 30
0.0
  0
VERTEX
  5
12D
330
127
100
AcDbEntity
  8
_U+30EC_U+30A4_U+30E4_U+30FC 1
 62
   179
420
  2234388
370
    25
100
AcDbVertex
100
AcDb2dVertex
 10
73.52470784645065
 20
-133.6731444110259
 30
0.0
  0
VERTEX
  5
12E
330
127
100
AcDbEntity
  8
_U+30EC_U+30A4_U+30E4_U+30FC 1
 62
   179
420
  2234388
370
    25
100
AcDbVertex
100
AcDb2dVertex
 10
73.52470784645065
 20
-132.4708071891043
 30
0.0
  0
VERTEX
  5
12F
330
127
100
AcDbEntity
  8
_U+30EC_U+30A4_U+30E4_U+30FC 1
 62
   179
420
  2234388
370
    25
100
AcDbVertex
100
AcDb2dVertex
 10
74.73223087119973
 20
-132.4807908002129
 30
0.0
  0
VERTEX
  5
130
330
127
100
AcDbEntity
  8
_U+30EC_U+30A4_U+30E4_U+30FC 1
 62
   179
420
  2234388
370
    25
100
AcDbVertex
100
AcDb2dVertex
 10
75.23261085843397
 20
-132.8800999667799
 30
0.0
  0
SEQEND
  5
131
330
127
100
AcDbEntity
  8
_U+30EC_U+30A4_U+30E4_U+30FC 1
 62
   179
420
  2234388
370
    25
  0
POLYLINE
  5
132
330
1F
100
AcDbEntity
  8
_U+30EC_U+30A4_U+30E4_U+30FC 1
 62
   179
420
  2234388
370
    25
100
AcDb2dPolyline
 66
     1
 10
0.0
 20
0.0
 30
0.0
  0
VERTEX
  5
133
330
132
100
AcDbEntity
  8
_U+30EC_U+30A4_U+30E4_U+30FC 1
 62
   179
420
  2234388
370
    25
100
AcDbVertex
100
AcDb2dVertex
 10
75.23261085843397
 20
-132.8800999667799
 30
0.0
  0
VERTEX
  5
134
330
132
100
AcDbEntity
  8
_U+30EC_U+30A4_U+30E4_U+30FC 1
 62
   179
420
  2234388
370
    25
100
AcDbVertex
100
AcDb2dVertex
 10
75.73249695679193
 20
-132.4797677446578
 30
0.0
  0
SEQEND
  5
135
330
132
100
AcDbEntity
  8
_U+30EC_U+30A4_U+30E4_U+30FC 1
 62
   179
420
  2234388
370
    25
  0
POLYLINE
  5
136
330
1F
100
AcDbEntity
  8
_U+30EC_U+30A4_U+30E4_U+30FC 1
 62
   179
420
  2234388
370
    25
100
AcDb2dPolyline
 66
     1
 10
0.0
 20
0.0
 30
0.0
  0
VERTEX
  5
137
330
136
100
AcDbEntity
  8
_U+30EC_U+30A4_U+30E4_U+30FC 1
 62
   179
420
  2234388
370
    25
100
AcDbVertex
100
AcDb2dVertex
 10
75.73249695679193
 20
-132.4797677446578
 30
0.0
  0
VERTEX
  5
138
330
136
100
AcDbEntity
  8
_U+30EC_U+30A4_U+30E4_U+30FC 1
 62
   179
420
  2234388
370
    25
100
AcDbVertex
100
AcDb2dVertex
 10
76.23291222180305
 20
-132.8790416334472
 30
0.0
  0
SEQEND
  5
139
330
136
100
AcDbEntity
  8
_U+30EC_U+30A4_U+30E4_U+30FC 1
 62
   179
420
  2234388
370
    25
  0
POLYLINE
  5
13A
330
1F
100
AcDbEntity
  8
_U+30EC_U+30A4_U+30E4_U+30FC 1
 62
   179
420
  2234388
370
    25
100
AcDb2dPolyline
 66
     1
 10
0.0
 20
0.0
 30
0.0
  0
VERTEX
  5
13B
330
13A
100
AcDbEntity
  8
_U+30EC_U+30A4_U+30E4_U+30FC 1
 62
   179
420
  2234388
370
    25
100
AcDbVertex
100
AcDb2dVertex
 10
76.23291222180305
 20
-132.8790416334472
 30
0.0
  0
VERTEX
  5
13C
330
13A
100
AcDbEntity
  8
_U+30EC_U+30A4_U+30E4_U+30FC 1
 62
   179
420
  2234388
370
    25
100
AcDbVertex
100
AcDb2dVertex
 10
76.73226915350783
 20
-132.4787446891027
 30
0.0
  0
SEQEND
  5
13D
330
13A
100
AcDbEntity
  8
_U+30EC_U+30A4_U+30E4_U+30FC 1
 62
   179
420
  2234388
370
    25
  0
POLYLINE
  5
13E
330
1F
100
AcDbEntity
  8
_U+30EC_U+30A4_U+30E4_U+30FC 1
 62
   179
420
  2234388
370
    25
100
AcDb2dPolyline
 66
     1
 10
0.0
 20
0.0
 30
0.0
  0
VERTEX
  5
13F
330
13E
100
AcDbEntity
  8
_U+30EC_U+30A4_U+30E4_U+30FC 1
 62
   179
420
  2234388
370
    25
100
AcDbVertex
100
AcDb2dVertex
 10
76.73226915350783
 20
-132.4787446891027
 30
0.0
  0
VERTEX
  5
140
330
13E
100
AcDbEntity
  8
_U+30EC_U+30A4_U+30E4_U+30FC 1
 62
   179
420
  2234388
370
    25
100
AcDbVertex
100
AcDb2dVertex
 10
77.23264914074208
 20
-132.8780185778915
 30
0.0
  0
SEQEND
  5
141
330
13E
100
AcDbEntity
  8
_U+30EC_U+30A4_U+30E4_U+30FC 1
 62
   179
420
  2234388
370
    25
  0
POLYLINE
  5
142
330
1F
100
AcDbEntity
  8
_U+30EC_U+30A4_U+30E4_U+30FC 1
 62
   179
420
  2234388
370
    25
100
AcDb2dPolyline
 66
     1
 10
0.0
 20
0.0
 30
0.0
  0
VERTEX
  5
143
330
142
100
AcDbEntity
  8
_U+30EC_U+30A4_U+30E4_U+30FC 1
 62
   179
420
  2234388
370
    25
100
AcDbVertex
100
AcDb2dVertex
 10
77.23264914074208
 20
-132.8780185778915
 30
0.0
  0
VERTEX
  5
144
330
142
100
AcDbEntity
  8
_U+30EC_U+30A4_U+30E4_U+30FC 1
 62
   179
420
  2234388
370
    25
100
AcDbVertex
100
AcDb2dVertex
 10
77.73204135022374
 20
-132.4776863557694
 30
0.0
  0
SEQEND
  5
145
330
142
100
AcDbEntity
  8
_U+30EC_U+30A4_U+30E4_U+30FC 1
 62
   179
420
  2234388
370
    25
  0
POLYLINE
  5
146
330
1F
100
AcDbEntity
  8
_U+30EC_U+30A4_U+30E4_U+30FC 1
 62
   179
420
  2234388
370
    25
100
AcDb2dPolyline
 66
     1
 10
0.0
 20
0.0
 30
0.0
  0
VERTEX
  5
147
330
146
100
AcDbEntity
  8
_U+30EC_U+30A4_U+30E4_U+30FC 1
 62
   179
420
  2234388
370
    25
100
AcDbVertex
100
AcDb2dVertex
 10
77.73204135022374
 20
-132.4776863557694
 30
0.0
  0
VERTEX
  5
148
330
146
100
AcDbEntity
  8
_U+30EC_U+30A4_U+30E4_U+30FC 1
 62
   179
420
  2234388
370
    25
100
AcDbVertex
100
AcDb2dVertex
 10
78.2322449485736
 20
-132.8769955223363
 30
0.0
  0
SEQEND
  5
149
330
146
100
AcDbEntity
  8
_U+30EC_U+30A4_U+30E4_U+30FC 1
 62
   179
420
  2234388
370
    25
  0
POLYLINE
  5
14A
330
1F
100
AcDbEntity
  8
_U+30EC_U+30A4_U+30E4_U+30FC 1
 62
   179
420
  2234388
370
    25
100
AcDb2dPolyline
 66
     1
 10
0.0
 20
0.0
 30
0.0
  0
VERTEX
  5
14B
330
14A
100
AcDbEntity
  8
_U+30EC_U+30A4_U+30E4_U+30FC 1
 62
   179
420
  2234388
370
    25
100
AcDbVertex
100
AcDb2dVertex
 10
78.2322449485736
 20
-132.8769955223363
 30
0.0
  0
VERTEX
  5
14C
330
14A
100
AcDbEntity
  8
_U+30EC_U+30A4_U+30E4_U+30FC 1
 62
   179
420
  2234388
370
    25
100
AcDbVertex
100
AcDb2dVertex
 10
78.73248382470032
 20
-132.4766633002143
 30
0.0
  0
SEQEND
  5
14D
330
14A
100
AcDbEntity
  8
_U+30EC_U+30A4_U+30E4_U+30FC 1
 62
   179
420
  2234388
370
    25
  0
POLYLINE
  5
14E
330
1F
100
AcDbEntity
  8
_U+30EC_U+30A4_U+30E4_U+30FC 1
 62
   179
420
  2234388
370
    25
100
AcDb2dPolyline
 66
     1
 10
0.0
 20
0.0
 30
0.0
  0
VERTEX
  5
14F
330
14E
100
AcDbEntity
  8
_U+30EC_U+30A4_U+30E4_U+30FC 1
 62
   179
420
  2234388
370
    25
100
AcDbVertex
100
AcDb2dVertex
 10
78.73248382470032
 20
-132.4766633002143
 30
0.0
  0
VERTEX
  5
150
330
14E
100
AcDbEntity
  8
_U+30EC_U+30A4_U+30E4_U+30FC 1
 62
   179
420
  2234388
370
    25
100
AcDbVertex
100
AcDb2dVertex
 10
79.23289908971145
 20
-132.8766427445586
 30
0.0
  0
SEQEND
  5
151
330
14E
100
AcDbEntity
  8
_U+30EC_U+30A4_U+30E4_U+30FC 1
 62
   179
420
  2234388
370
    25
  0
POLYLINE
  5
152
330
1F
100
AcDbEntity
  8
_U+30EC_U+30A4_U+30E4_U+30FC 1
 62
   179
420
  2234388
370
    25
100
AcDb2dPolyline
 66
     1
 10
0.0
 20
0.0
 30
0.0
  0
VERTEX
  5
153
330
152
100
AcDbEntity
  8
_U+30EC_U+30A4_U+30E4_U+30FC 1
 62
   179
420
  2234388
370
    25
100
AcDbVertex
100
AcDb2dVertex
 10
87.23273471895197
 20
-132.8697635778935
 30
0.0
  0
VERTEX
  5
154
330
152
100
AcDbEntity
  8
_U+30EC_U+30A4_U+30E4_U+30FC 1
 62
   179
420
  2234388
370
    25
100
AcDbVertex
100
AcDb2dVertex
 10
87.74761387248297
 20
-132.1883027447308
 30
0.0
  0
SEQEND
  5
155
330
152
100
AcDbEntity
  8
_U+30EC_U+30A4_U+30E4_U+30FC 1
 62
   179
420
  2234388
370
    25
  0
POLYLINE
  5
156
330
1F
100
AcDbEntity
  8
_U+30EC_U+30A4_U+30E4_U+30FC 1
 62
   179
420
  2234388
370
    25
100
AcDb2dPolyline
 66
     1
 10
0.0
 20
0.0
 30
0.0
  0
VERTEX
  5
157
330
156
100
AcDbEntity
  8
_U+30EC_U+30A4_U+30E4_U+30FC 1
 62
   179
420
  2234388
370
    25
100
AcDbVertex
100
AcDb2dVertex
 10
87.74521498365529
 20
-132.1886555225086
 30
0.0
  0
VERTEX
  5
158
330
156
100
AcDbEntity
  8
_U+30EC_U+30A4_U+30E4_U+30FC 1
 62
   179
420
  2234388
370
    25
100
AcDbVertex
100
AcDb2dVertex
 10
87.34523554941518
 20
-131.6884166337449
 30
0.0
  0
SEQEND
  5
159
330
156
100
AcDbEntity
  8
_U+30EC_U+30A4_U+30E4_U+30FC 1
 62
   179
420
  2234388
370
    25
  0
POLYLINE
  5
15A
330
1F
100
AcDbEntity
  8
_U+30EC_U+30A4_U+30E4_U+30FC 1
 62
   179
420
  2234388
370
    25
100
AcDb2dPolyline
 66
     1
 10
0.0
 20
0.0
 30
0.0
  0
VERTEX
  5
15B
330
15A
100
AcDbEntity
  8
_U+30EC_U+30A4_U+30E4_U+30FC 1
 62
   179
420
  2234388
370
    25
100
AcDbVertex
100
AcDb2dVertex
 10
87.34523554941518
 20
-131.6884166337449
 30
0.0
  0
VERTEX
  5
15C
330
15A
100
AcDbEntity
  8
_U+30EC_U+30A4_U+30E4_U+30FC 1
 62
   179
420
  2234388
370
    25
100
AcDbVertex
100
AcDb2dVertex
 10
87.74450942811774
 20
-131.1882130227587
 30
0.0
  0
SEQEND
  5
15D
330
15A
100
AcDbEntity
  8
_U+30EC_U+30A4_U+30E4_U+30FC 1
 62
   179
420
  2234388
370
    25
  0
POLYLINE
  5
15E
330
1F
100
AcDbEntity
  8
_U+30EC_U+30A4_U+30E4_U+30FC 1
 62
   179
420
  2234388
370
    25
100
AcDb2dPolyline
 66
     1
 10
0.0
 20
0.0
 30
0.0
  0
VERTEX
  5
15F
330
15E
100
AcDbEntity
  8
_U+30EC_U+30A4_U+30E4_U+30FC 1
 62
   179
420
  2234388
370
    25
100
AcDbVertex
100
AcDb2dVertex
 10
87.74450942811774
 20
-131.1882130227587
 30
0.0
  0
VERTEX
  5
160
330
15E
100
AcDbEntity
  8
_U+30EC_U+30A4_U+30E4_U+30FC 1
 62
   179
420
  2234388
370
    25
100
AcDbVertex
100
AcDb2dVertex
 10
87.34417721610883
 20
-130.6886796895498
 30
0.0
  0
SEQEND
  5
161
330
15E
100
AcDbEntity
  8
_U+30EC_U+30A4_U+30E4_U+30FC 1
 62
   179
420
  2234388
370
    25
  0
POLYLINE
  5
162
330
1F
100
AcDbEntity
  8
_U+30EC_U+30A4_U+30E4_U+30FC 1
 62
   179
420
  2234388
370
    25
100
AcDb2dPolyline
 66
     1
 10
0.0
 20
0.0
 30
0.0
  0
VERTEX
  5
163
330
162
100
AcDbEntity
  8
_U+30EC_U+30A4_U+30E4_U+30FC 1
 62
   179
420
  2234388
370
    25
100
AcDbVertex
100
AcDb2dVertex
 10
87.34417721610883
 20
-130.6886796895498
 30
0.0
  0
VERTEX
  5
164
330
162
100
AcDbEntity
  8
_U+30EC_U+30A4_U+30E4_U+30FC 1
 62
   179
420
  2234388
370
    25
100
AcDbVertex
100
AcDb2dVertex
 10
87.74348637258828
 20
-130.1884408007861
 30
0.0
  0
SEQEND
  5
165
330
162
100
AcDbEntity
  8
_U+30EC_U+30A4_U+30E4_U+30FC 1
 62
   179
420
  2234388
370
    25
  0
POLYLINE
  5
166
330
1F
100
AcDbEntity
  8
_U+30EC_U+30A4_U+30E4_U+30FC 1
 62
   179
420
  2234388
370
    25
100
AcDb2dPolyline
 66
     1
 10
0.0
 20
0.0
 30
0.0
  0
VERTEX
  5
167
330
166
100
AcDbEntity
  8
_U+30EC_U+30A4_U+30E4_U+30FC 1
 62
   179
420
  2234388
370
    25
100
AcDbVertex
100
AcDb2dVertex
 10
87.74348637258828
 20
-130.1884408007861
 30
0.0
  0
VERTEX
  5
168
330
166
100
AcDbEntity
  8
_U+30EC_U+30A4_U+30E4_U+30FC 1
 62
   179
420
  2234388
370
    25
100
AcDbVertex
100
AcDb2dVertex
 10
87.34315416057939
 20
-129.6882019120224
 30
0.0
  0
SEQEND
  5
169
330
166
100
AcDbEntity
  8
_U+30EC_U+30A4_U+30E4_U+30FC 1
 62
   179
420
  2234388
370
    25
  0
POLYLINE
  5
16A
330
1F
100
AcDbEntity
  8
_U+30EC_U+30A4_U+30E4_U+30FC 1
 62
   179
420
  2234388
370
    25
100
AcDb2dPolyline
 66
     1
 10
0.0
 20
0.0
 30
0.0
  0
VERTEX
  5
16B
330
16A
100
AcDbEntity
  8
_U+30EC_U+30A4_U+30E4_U+30FC 1
 62
   179
420
  2234388
370
    25
100
AcDbVertex
100
AcDb2dVertex
 10
87.34315416057939
 20
-129.6882019120224
 30
0.0
  0
VERTEX
  5
16C
330
16A
100
AcDbEntity
  8
_U+30EC_U+30A4_U+30E4_U+30FC 1
 62
   179
420
  2234388
370
    25
100
AcDbVertex
100
AcDb2dVertex
 10
87.74246331705882
 20
-129.1879630232587
 30
0.0
  0
SEQEND
  5
16D
330
16A
100
AcDbEntity
  8
_U+30EC_U+30A4_U+30E4_U+30FC 1
 62
   179
420
  2234388
370
    25
  0
POLYLINE
  5
16E
330
1F
100
AcDbEntity
  8
_U+30EC_U+30A4_U+30E4_U+30FC 1
 62
   179
420
  2234388
370
    25
100
AcDb2dPolyline
 66
     1
 10
0.0
 20
0.0
 30
0.0
  0
VERTEX
  5
16F
330
16E
100
AcDbEntity
  8
_U+30EC_U+30A4_U+30E4_U+30FC 1
 62
   179
420
  2234388
370
    25
100
AcDbVertex
100
AcDb2dVertex
 10
87.74246331705882
 20
-129.1879630232587
 30
0.0
  0
VERTEX
  5
170
330
16E
100
AcDbEntity
  8
_U+30EC_U+30A4_U+30E4_U+30FC 1
 62
   179
420
  2234388
370
    25
100
AcDbVertex
100
AcDb2dVertex
 10
87.34213331149775
 20
-128.6884296900502
 30
0.0
  0
SEQEND
  5
171
330
16E
100
AcDbEntity
  8
_U+30EC_U+30A4_U+30E4_U+30FC 1
 62
   179
420
  2234388
370
    25
  0
POLYLINE
  5
172
330
1F
100
AcDbEntity
  8
_U+30EC_U+30A4_U+30E4_U+30FC 1
 62
   179
420
  2234388
370
    25
100
AcDb2dPolyline
 66
     1
 10
0.0
 20
0.0
 30
0.0
  0
VERTEX
  5
173
330
172
100
AcDbEntity
  8
_U+30EC_U+30A4_U+30E4_U+30FC 1
 62
   179
420
  2234388
370
    25
100
AcDbVertex
100
AcDb2dVertex
 10
87.34213331149775
 20
-128.6884296900502
 30
0.0
  0
VERTEX
  5
174
330
172
100
AcDbEntity
  8
_U+30EC_U+30A4_U+30E4_U+30FC 1
 62
   179
420
  2234388
370
    25
100
AcDbVertex
100
AcDb2dVertex
 10
87.74211053929005
 20
-128.188226079064
 30
0.0
  0
SEQEND
  5
175
330
172
100
AcDbEntity
  8
_U+30EC_U+30A4_U+30E4_U+30FC 1
 62
   179
420
  2234388
370
    25
  0
POLYLINE
  5
176
330
1F
100
AcDbEntity
  8
_U+30EC_U+30A4_U+30E4_U+30FC 1
 62
   179
420
  2234388
370
    25
100
AcDb2dPolyline
 66
     1
 10
0.0
 20
0.0
 30
0.0
  0
VERTEX
  5
177
330
176
100
AcDbEntity
  8
_U+30EC_U+30A4_U+30E4_U+30FC 1
 62
   179
420
  2234388
370
    25
100
AcDbVertex
100
AcDb2dVertex
 10
87.74211053929005
 20
-128.188226079064
 30
0.0
  0
VERTEX
  5
178
330
176
100
AcDbEntity
  8
_U+30EC_U+30A4_U+30E4_U+30FC 1
 62
   179
420
  2234388
370
    25
100
AcDbVertex
100
AcDb2dVertex
 10
87.34178053371998
 20
-127.688657468078
 30
0.0
  0
SEQEND
  5
179
330
176
100
AcDbEntity
  8
_U+30EC_U+30A4_U+30E4_U+30FC 1
 62
   179
420
  2234388
370
    25
  0
POLYLINE
  5
17A
330
1F
100
AcDbEntity
  8
_U+30EC_U+30A4_U+30E4_U+30FC 1
 62
   179
420
  2234388
370
    25
100
AcDb2dPolyline
 66
     1
 10
0.0
 20
0.0
 30
0.0
  0
VERTEX
  5
17B
330
17A
100
AcDbEntity
  8
_U+30EC_U+30A4_U+30E4_U+30FC 1
 62
   179
420
  2234388
370
    25
100
AcDbVertex
100
AcDb2dVertex
 10
87.34178053371998
 20
-127.688657468078
 30
0.0
  0
VERTEX
  5
17C
330
17A
100
AcDbEntity
  8
_U+30EC_U+30A4_U+30E4_U+30FC 1
 62
   179
420
  2234388
370
    25
100
AcDbVertex
100
AcDb2dVertex
 10
87.74105220598372
 20
-127.1884538570918
 30
0.0
  0
SEQEND
  5
17D
330
17A
100
AcDbEntity
  8
_U+30EC_U+30A4_U+30E4_U+30FC 1
 62
   179
420
  2234388
370
    25
  0
POLYLINE
  5
17E
330
1F
100
AcDbEntity
  8
_U+30EC_U+30A4_U+30E4_U+30FC 1
 62
   179
420
  2234388
370
    25
100
AcDb2dPolyline
 66
     1
 10
0.0
 20
0.0
 30
0.0
  0
VERTEX
  5
17F
330
17E
100
AcDbEntity
  8
_U+30EC_U+30A4_U+30E4_U+30FC 1
 62
   179
420
  2234388
370
    25
100
AcDbVertex
100
AcDb2dVertex
 10
87.74105220598372
 20
-127.1884538570918
 30
0.0
  0
VERTEX
  5
180
330
17E
100
AcDbEntity
  8
_U+30EC_U+30A4_U+30E4_U+30FC 1
 62
   179
420
  2234388
370
    25
100
AcDbVertex
100
AcDb2dVertex
 10
87.34075527175169
 20
-126.6885677461055
 30
0.0
  0
SEQEND
  5
181
330
17E
100
AcDbEntity
  8
_U+30EC_U+30A4_U+30E4_U+30FC 1
 62
   179
420
  2234388
370
    25
  0
POLYLINE
  5
182
330
1F
100
AcDbEntity
  8
_U+30EC_U+30A4_U+30E4_U+30FC 1
 62
   179
420
  2234388
370
    25
100
AcDb2dPolyline
 66
     1
 10
0.0
 20
0.0
 30
0.0
  0
VERTEX
  5
183
330
182
100
AcDbEntity
  8
_U+30EC_U+30A4_U+30E4_U+30FC 1
 62
   179
420
  2234388
370
    25
100
AcDbVertex
100
AcDb2dVertex
 10
87.34075527175169
 20
-126.6885677461055
 30
0.0
  0
VERTEX
  5
184
330
182
100
AcDbEntity
  8
_U+30EC_U+30A4_U+30E4_U+30FC 1
 62
   179
420
  2234388
370
    25
100
AcDbVertex
100
AcDb2dVertex
 10
87.74002915045426
 20
-126.1879760795641
 30
0.0
  0
SEQEND
  5
185
330
182
100
AcDbEntity
  8
_U+30EC_U+30A4_U+30E4_U+30FC 1
 62
   179
420
  2234388
370
    25
  0
POLYLINE
  5
186
330
1F
100
AcDbEntity
  8
_U+30EC_U+30A4_U+30E4_U+30FC 1
 62
   179
420
  2234388
370
    25
100
AcDb2dPolyline
 66
     1
 10
0.0
 20
0.0
 30
0.0
  0
VERTEX
  5
187
330
186
100
AcDbEntity
  8
_U+30EC_U+30A4_U+30E4_U+30FC 1
 62
   179
420
  2234388
370
    25
100
AcDbVertex
100
AcDb2dVertex
 10
87.74002915045426
 20
-126.1879760795641
 30
0.0
  0
VERTEX
  5
188
330
186
100
AcDbEntity
  8
_U+30EC_U+30A4_U+30E4_U+30FC 1
 62
   179
420
  2234388
370
    25
100
AcDbVertex
100
AcDb2dVertex
 10
87.33969693844536
 20
-125.6887955241333
 30
0.0
  0
SEQEND
  5
189
330
186
100
AcDbEntity
  8
_U+30EC_U+30A4_U+30E4_U+30FC 1
 62
   179
420
  2234388
370
    25
  0
POLYLINE
  5
18A
330
1F
100
AcDbEntity
  8
_U+30EC_U+30A4_U+30E4_U+30FC 1
 62
   179
420
  2234388
370
    25
100
AcDb2dPolyline
 66
     1
 10
0.0
 20
0.0
 30
0.0
  0
VERTEX
  5
18B
330
18A
100
AcDbEntity
  8
_U+30EC_U+30A4_U+30E4_U+30FC 1
 62
   179
420
  2234388
370
    25
100
AcDbVertex
100
AcDb2dVertex
 10
87.33969693844536
 20
-125.6887955241333
 30
0.0
  0
VERTEX
  5
18C
330
18A
100
AcDbEntity
  8
_U+30EC_U+30A4_U+30E4_U+30FC 1
 62
   179
420
  2234388
370
    25
100
AcDbVertex
100
AcDb2dVertex
 10
87.73900831139852
 20
-125.1882391353697
 30
0.0
  0
SEQEND
  5
18D
330
18A
100
AcDbEntity
  8
_U+30EC_U+30A4_U+30E4_U+30FC 1
 62
   179
420
  2234388
370
    25
  0
POLYLINE
  5
18E
330
1F
100
AcDbEntity
  8
_U+30EC_U+30A4_U+30E4_U+30FC 1
 62
   179
420
  2234388
370
    25
100
AcDb2dPolyline
 66
     1
 10
0.0
 20
0.0
 30
0.0
  0
VERTEX
  5
18F
330
18E
100
AcDbEntity
  8
_U+30EC_U+30A4_U+30E4_U+30FC 1
 62
   179
420
  2234388
370
    25
100
AcDbVertex
100
AcDb2dVertex
 10
87.73900831139852
 20
-125.1882391353697
 30
0.0
  0
VERTEX
  5
190
330
18E
100
AcDbEntity
  8
_U+30EC_U+30A4_U+30E4_U+30FC 1
 62
   179
420
  2234388
370
    25
100
AcDbVertex
100
AcDb2dVertex
 10
87.33867388291591
 20
-124.6890233021611
 30
0.0
  0
SEQEND
  5
191
330
18E
100
AcDbEntity
  8
_U+30EC_U+30A4_U+30E4_U+30FC 1
 62
   179
420
  2234388
370
    25
  0
POLYLINE
  5
192
330
1F
100
AcDbEntity
  8
_U+30EC_U+30A4_U+30E4_U+30FC 1
 62
   179
420
  2234388
370
    25
100
AcDb2dPolyline
 66
     1
 10
0.0
 20
0.0
 30
0.0
  0
VERTEX
  5
193
330
192
100
AcDbEntity
  8
_U+30EC_U+30A4_U+30E4_U+30FC 1
 62
   179
420
  2234388
370
    25
100
AcDbVertex
100
AcDb2dVertex
 10
87.33867388291591
 20
-124.6890233021611
 30
0.0
  0
VERTEX
  5
194
330
192
100
AcDbEntity
  8
_U+30EC_U+30A4_U+30E4_U+30FC 1
 62
   179
420
  2234388
370
    25
100
AcDbVertex
100
AcDb2dVertex
 10
87.73798303939535
 20
-124.1888196911749
 30
0.0
  0
SEQEND
  5
195
330
192
100
AcDbEntity
  8
_U+30EC_U+30A4_U+30E4_U+30FC 1
 62
   179
420
  2234388
370
    25
  0
POLYLINE
  5
196
330
1F
100
AcDbEntity
  8
_U+30EC_U+30A4_U+30E4_U+30FC 1
 62
   179
420
  2234388
370
    25
100
AcDb2dPolyline
 66
     1
 10
0.0
 20
0.0
 30
0.0
  0
VERTEX
  5
197
330
196
100
AcDbEntity
  8
_U+30EC_U+30A4_U+30E4_U+30FC 1
 62
   179
420
  2234388
370
    25
100
AcDbVertex
100
AcDb2dVertex
 10
87.73798303939535
 20
-124.1888196911749
 30
0.0
  0
VERTEX
  5
198
330
196
100
AcDbEntity
  8
_U+30EC_U+30A4_U+30E4_U+30FC 1
 62
   179
420
  2234388
370
    25
100
AcDbVertex
100
AcDb2dVertex
 10
87.33765082738645
 20
-123.6885808024112
 30
0.0
  0
SEQEND
  5
199
330
196
100
AcDbEntity
  8
_U+30EC_U+30A4_U+30E4_U+30FC 1
 62
   179
420
  2234388
370
    25
  0
POLYLINE
  5
19A
330
1F
100
AcDbEntity
  8
_U+30EC_U+30A4_U+30E4_U+30FC 1
 62
   179
420
  2234388
370
    25
100
AcDb2dPolyline
 66
     1
 10
0.0
 20
0.0
 30
0.0
  0
VERTEX
  5
19B
330
19A
100
AcDbEntity
  8
_U+30EC_U+30A4_U+30E4_U+30FC 1
 62
   179
420
  2234388
370
    25
100
AcDbVertex
100
AcDb2dVertex
 10
87.33765082738645
 20
-123.6885808024112
 30
0.0
  0
VERTEX
  5
19C
330
19A
100
AcDbEntity
  8
_U+30EC_U+30A4_U+30E4_U+30FC 1
 62
   179
420
  2234388
370
    25
100
AcDbVertex
100
AcDb2dVertex
 10
87.73763026162658
 20
-123.1879891358697
 30
0.0
  0
SEQEND
  5
19D
330
19A
100
AcDbEntity
  8
_U+30EC_U+30A4_U+30E4_U+30FC 1
 62
   179
420
  2234388
370
    25
  0
POLYLINE
  5
19E
330
1F
100
AcDbEntity
  8
_U+30EC_U+30A4_U+30E4_U+30FC 1
 62
   179
420
  2234388
370
    25
100
AcDb2dPolyline
 66
     1
 10
0.0
 20
0.0
 30
0.0
  0
VERTEX
  5
19F
330
19E
100
AcDbEntity
  8
_U+30EC_U+30A4_U+30E4_U+30FC 1
 62
   179
420
  2234388
370
    25
100
AcDbVertex
100
AcDb2dVertex
 10
87.73763026162658
 20
-123.1879891358697
 30
0.0
  0
VERTEX
  5
1A0
330
19E
100
AcDbEntity
  8
_U+30EC_U+30A4_U+30E4_U+30FC 1
 62
   179
420
  2234388
370
    25
100
AcDbVertex
100
AcDb2dVertex
 10
87.32491554993358
 20
-122.6733216359982
 30
0.0
  0
SEQEND
  5
1A1
330
19E
100
AcDbEntity
  8
_U+30EC_U+30A4_U+30E4_U+30FC 1
 62
   179
420
  2234388
370
    25
  0
POLYLINE
  5
1A2
330
1F
100
AcDbEntity
  8
_U+30EC_U+30A4_U+30E4_U+30FC 1
 62
   179
420
  2234388
370
    25
100
AcDb2dPolyline
 66
     1
 10
0.0
 20
0.0
 30
0.0
  0
VERTEX
  5
1A3
330
1A2
100
AcDbEntity
  8
_U+30EC_U+30A4_U+30E4_U+30FC 1
 62
   179
420
  2234388
370
    25
100
AcDbVertex
100
AcDb2dVertex
 10
85.50916837403493
 20
-122.6870799693283
 30
0.0
  0
VERTEX
  5
1A4
330
1A2
100
AcDbEntity
  8
_U+30EC_U+30A4_U+30E4_U+30FC 1
 62
   179
420
  2234388
370
    25
100
AcDbVertex
100
AcDb2dVertex
 10
86.00940725016166
 20
-123.0863891358949
 30
0.0
  0
SEQEND
  5
1A5
330
1A2
100
AcDbEntity
  8
_U+30EC_U+30A4_U+30E4_U+30FC 1
 62
   179
420
  2234388
370
    25
  0
POLYLINE
  5
1A6
330
1F
100
AcDbEntity
  8
_U+30EC_U+30A4_U+30E4_U+30FC 1
 62
   179
420
  2234388
370
    25
100
AcDb2dPolyline
 66
     1
 10
0.0
 20
0.0
 30
0.0
  0
VERTEX
  5
1A7
330
1A6
100
AcDbEntity
  8
_U+30EC_U+30A4_U+30E4_U+30FC 1
 62
   179
420
  2234388
370
    25
100
AcDbVertex
100
AcDb2dVertex
 10
86.00940725016166
 20
-123.0863891358949
 30
0.0
  0
VERTEX
  5
1A8
330
1A6
100
AcDbEntity
  8
_U+30EC_U+30A4_U+30E4_U+30FC 1
 62
   179
420
  2234388
370
    25
100
AcDbVertex
100
AcDb2dVertex
 10
86.50961084851151
 20
-122.6860569137729
 30
0.0
  0
SEQEND
  5
1A9
330
1A6
100
AcDbEntity
  8
_U+30EC_U+30A4_U+30E4_U+30FC 1
 62
   179
420
  2234388
370
    25
  0
POLYLINE
  5
1AA
330
1F
100
AcDbEntity
  8
_U+30EC_U+30A4_U+30E4_U+30FC 1
 62
   179
420
  2234388
370
    25
100
AcDb2dPolyline
 66
     1
 10
0.0
 20
0.0
 30
0.0
  0
VERTEX
  5
1AB
330
1AA
100
AcDbEntity
  8
_U+30EC_U+30A4_U+30E4_U+30FC 1
 62
   179
420
  2234388
370
    25
100
AcDbVertex
100
AcDb2dVertex
 10
86.50961084851151
 20
-122.6860569137729
 30
0.0
  0
VERTEX
  5
1AC
330
1AA
100
AcDbEntity
  8
_U+30EC_U+30A4_U+30E4_U+30FC 1
 62
   179
420
  2234388
370
    25
100
AcDbVertex
100
AcDb2dVertex
 10
87.01002611352263
 20
-123.0860363581175
 30
0.0
  0
SEQEND
  5
1AD
330
1AA
100
AcDbEntity
  8
_U+30EC_U+30A4_U+30E4_U+30FC 1
 62
   179
420
  2234388
370
    25
  0
POLYLINE
  5
1AE
330
1F
100
AcDbEntity
  8
_U+30EC_U+30A4_U+30E4_U+30FC 1
 62
   179
420
  2234388
370
    25
100
AcDb2dPolyline
 66
     1
 10
0.0
 20
0.0
 30
0.0
  0
VERTEX
  5
1AF
330
1AE
100
AcDbEntity
  8
_U+30EC_U+30A4_U+30E4_U+30FC 1
 62
   179
420
  2234388
370
    25
100
AcDbVertex
100
AcDb2dVertex
 10
87.01002611352263
 20
-123.0860363581175
 30
0.0
  0
VERTEX
  5
1B0
330
1AE
100
AcDbEntity
  8
_U+30EC_U+30A4_U+30E4_U+30FC 1
 62
   179
420
  2234388
370
    25
100
AcDbVertex
100
AcDb2dVertex
 10
87.32491554993358
 20
-122.6733216359982
 30
0.0
  0
SEQEND
  5
1B1
330
1AE
100
AcDbEntity
  8
_U+30EC_U+30A4_U+30E4_U+30FC 1
 62
   179
420
  2234388
370
    25
  0
SPLINE
  5
1B2
330
1F
100
AcDbEntity
  8
_U+30EC_U+30A4_U+30E4_U+30FC 1
 62
     7
420
 16777215
370
    25
100
AcDbSpline
210
0.0
220
0.0
230
1.0
 70
     8
 71
     3
 72
     8
 73
     4
 74
     0
 42
0.0000000001
 43
0.0000000001
 12
1.0
 22
0.0
 32
0.0
 13
1.0
 23
0.0
 33
0.0
 40
0.0
 40
0.0
 40
0.0
 40
0.0
 40
1.0
 40
1.0
 40
1.0
 40
1.0
 10
103.8255312400789
 20
-132.9730921889789
 30
0.0
 10
104.2120698413286
 20
-132.9730921889789
 30
0.0
 10
104.5255860849796
 20
-133.2866058000115
 30
0.0
 10
104.5255860849796
 20
-133.6731444110259
 30
0.0
  0
SPLINE
  5
1B3
330
1F
100
AcDbEntity
  8
_U+30EC_U+30A4_U+30E4_U+30FC 1
 62
     7
420
 16777215
370
    25
100
AcDbSpline
210
0.0
220
0.0
230
1.0
 70
     8
 71
     3
 72
     8
 73
     4
 74
     0
 42
0.0000000001
 43
0.0000000001
 12
1.0
 22
0.0
 32
0.0
 13
1.0
 23
0.0
 33
0.0
 40
0.0
 40
0.0
 40
0.0
 40
0.0
 40
1.0
 40
1.0
 40
1.0
 40
1.0
 10
96.5239839263569
 20
-121.673549414026
 30
0.0
 10
97.07657502337024
 20
-121.673549414026
 30
0.0
 10
97.52446167861036
 20
-122.121400802803
 30
0.0
 10
97.52446167861036
 20
-122.6733216359982
 30
0.0
  0
SPLINE
  5
1B4
330
1F
100
AcDbEntity
  8
_U+30EC_U+30A4_U+30E4_U+30FC 1
 62
     7
420
 16777215
370
    25
100
AcDbSpline
210
0.0
220
0.0
230
1.0
 70
     8
 71
     3
 72
     8
 73
     4
 74
     0
 42
0.0000000001
 43
0.0000000001
 12
1.0
 22
0.0
 32
0.0
 13
1.0
 23
0.0
 33
0.0
 40
0.0
 40
0.0
 40
0.0
 40
0.0
 40
1.0
 40
1.0
 40
1.0
 40
1.0
 10
85.50916837403493
 20
-122.6870799693283
 30
0.0
 10
85.50916837403493
 20
-122.1344888583551
 30
0.0
 10
85.95701975149818
 20
-121.6866374695784
 30
0.0
 10
86.50894057075084
 20
-121.6866374695784
 30
0.0
  0
SPLINE
  5
1B5
330
1F
100
AcDbEntity
  8
_U+30EC_U+30A4_U+30E4_U+30FC 1
 62
     7
420
 16777215
370
    25
100
AcDbSpline
210
0.0
220
0.0
230
1.0
 70
     8
 71
     3
 72
     8
 73
     4
 74
     0
 42
0.0000000001
 43
0.0000000001
 12
1.0
 22
0.0
 32
0.0
 13
1.0
 23
0.0
 33
0.0
 40
0.0
 40
0.0
 40
0.0
 40
0.0
 40
1.0
 40
1.0
 40
1.0
 40
1.0
 10
87.527974433642
 20
-121.6731966362485
 30
0.0
 10
88.08007164177906
 20
-121.6731966362485
 30
0.0
 10
88.5279230192423
 20
-122.1210480250253
 30
0.0
 10
88.5279230192423
 20
-122.6731452471096
 30
0.0
  0
SPLINE
  5
1B6
330
1F
100
AcDbEntity
  8
_U+30EC_U+30A4_U+30E4_U+30FC 1
 62
     7
420
 16777215
370
    25
100
AcDbSpline
210
0.0
220
0.0
230
1.0
 70
     8
 71
     3
 72
     8
 73
     4
 74
     0
 42
0.0000000001
 43
0.0000000001
 12
1.0
 22
0.0
 32
0.0
 13
1.0
 23
0.0
 33
0.0
 40
0.0
 40
0.0
 40
0.0
 40
0.0
 40
1.0
 40
1.0
 40
1.0
 40
1.0
 10
94.52137036633673
 20
-122.6734627471096
 30
0.0
 10
94.52137036633673
 20
-122.1212244139141
 30
0.0
 10
94.96957452156875
 20
-121.6731966362485
 30
0.0
 10
95.52146006304453
 20
-121.6731966362485
 30
0.0
  0
POLYLINE
  5
1B7
330
1F
100
AcDbEntity
  8
_U+30EC_U+30A4_U+30E4_U+30FC 1
 62
     7
420
 16777215
370
    25
100
AcDb2dPolyline
 66
     1
 10
0.0
 20
0.0
 30
0.0
  0
VERTEX
  5
1B8
330
1B7
100
AcDbEntity
  8
_U+30EC_U+30A4_U+30E4_U+30FC 1
 62
     7
420
 16777215
370
    25
100
AcDbVertex
100
AcDb2dVertex
 10
87.52783332253449
 20
-121.6731966362485
 30
0.0
  0
VERTEX
  5
1B9
330
1B7
100
AcDbEntity
  8
_U+30EC_U+30A4_U+30E4_U+30FC 1
 62
     7
420
 16777215
370
    25
100
AcDbVertex
100
AcDb2dVertex
 10
86.52478029256895
 20
-121.673549414026
 30
0.0
  0
SEQEND
  5
1BA
330
1B7
100
AcDbEntity
  8
_U+30EC_U+30A4_U+30E4_U+30FC 1
 62
     7
420
 16777215
370
    25
  0
POLYLINE
  5
1BB
330
1F
100
AcDbEntity
  8
_U+30EC_U+30A4_U+30E4_U+30FC 1
 62
     7
420
 16777215
370
    25
100
AcDb2dPolyline
 66
     1
 10
0.0
 20
0.0
 30
0.0
  0
VERTEX
  5
1BC
330
1BB
100
AcDbEntity
  8
_U+30EC_U+30A4_U+30E4_U+30FC 1
 62
     7
420
 16777215
370
    25
100
AcDbVertex
100
AcDb2dVertex
 10
96.52468948189446
 20
-121.673549414026
 30
0.0
  0
VERTEX
  5
1BD
330
1BB
100
AcDbEntity
  8
_U+30EC_U+30A4_U+30E4_U+30FC 1
 62
     7
420
 16777215
370
    25
100
AcDbVertex
100
AcDb2dVertex
 10
95.52146006304453
 20
-121.6731966362485
 30
0.0
  0
SEQEND
  5
1BE
330
1BB
100
AcDbEntity
  8
_U+30EC_U+30A4_U+30E4_U+30FC 1
 62
     7
420
 16777215
370
    25
  0
ENDSEC
  0
SECTION
  2
OBJECTS
  0
DICTIONARY
  5
C
330
0
100
AcDbDictionary
281
     1
  3
ACAD_GROUP
350
D
  3
ACAD_LAYOUT
350
1A
  3
ACAD_MATERIAL
350
3B
  3
ACAD_MLEADERSTYLE
350
1C0
  3
ACAD_MLINESTYLE
350
17
  3
ACAD_PLOTSETTINGS
350
19
  3
ACAD_PLOTSTYLENAME
350
E
  3
ACAD_TABLESTYLE
350
1BF
  3
ACAD_VISUALSTYLE
350
2A
  0
SUN
  5
3F
330
29
100
AcDbSun
 90
        1
290
     0
 63
     7
421
 16777215
 40
1.0
291
     1
 91
  2455826
 92
 54000000
292
     0
 70
     2
 71
   256
280
     1
  0
DICTIONARY
  5
D
102
{ACAD_REACTORS
330
C
102
}
330
C
100
AcDbDictionary
281
     1
  0
DICTIONARY
  5
1A
102
{ACAD_REACTORS
330
C
102
}
330
C
100
AcDbDictionary
281
     1
  3
Layout1
350
1E
  3
Layout2
350
26
  3
Model
350
22
  0
DICTIONARY
  5
3B
102
{ACAD_REACTORS
330
C
102
}
330
C
100
AcDbDictionary
281
     1
  3
ByBlock
350
3D
  3
ByLayer
350
3C
  3
Global
350
3E
  0
DICTIONARY
  5
1C0
102
{ACAD_REACTORS
330
C
102
}
330
C
100
AcDbDictionary
281
     1
  0
DICTIONARY
  5
17
102
{ACAD_REACTORS
330
C
102
}
330
C
100
AcDbDictionary
281
     1
  3
Standard
350
18
  0
DICTIONARY
  5
19
102
{ACAD_REACTORS
330
C
102
}
330
C
100
AcDbDictionary
281
     1
  0
ACDBDICTIONARYWDFLT
  5
E
102
{ACAD_REACTORS
330
C
102
}
330
C
100
AcDbDictionary
281
     1
  3
Normal
350
F
100
AcDbDictionaryWithDefault
340
F
  0
DICTIONARY
  5
1BF
102
{ACAD_REACTORS
330
C
102
}
330
C
100
AcDbDictionary
281
     1
  0
DICTIONARY
  5
2A
102
{ACAD_REACTORS
330
C
102
}
330
C
100
AcDbDictionary
281
     1
  3
2dWireframe
350
2F
  3
3D Hidden
350
31
  3
3dWireframe
350
30
  3
Basic
350
32
  3
Brighten
350
36
  3
ColorChange
350
3A
  3
Conceptual
350
34
  3
Dim
350
35
  3
Facepattern
350
39
  3
Flat
350
2B
  3
FlatWithEdges
350
2C
  3
Gouraud
350
2D
  3
GouraudWithEdges
350
2E
  3
Linepattern
350
38
  3
Realistic
350
33
  3
Thicken
350
37
  0
LAYOUT
  5
1E
102
{ACAD_REACTORS
330
1A
102
}
330
1A
100
AcDbPlotSettings
  1

  2
none_device
  4

  6

 40
0.0
 41
0.0
 42
0.0
 43
0.0
 44
0.0
 45
0.0
 46
0.0
 47
0.0
 48
0.0
 49
0.0
140
0.0
141
0.0
142
1.0
143
1.0
 70
   688
 72
     0
 73
     0
 74
     5
  7

 75
    16
 76
     0
 77
     2
 78
   300
147
1.0
148
0.0
149
0.0
100
AcDbLayout
  1
Layout1
 70
     1
 71
     1
 10
0.0
 20
0.0
 11
12.0
 21
9.0
 12
0.0
 22
0.0
 32
0.0
 14
1.000000000000000E+20
 24
1.000000000000000E+20
 34
1.000000000000000E+20
 15
-1.000000000000000E+20
 25
-1.000000000000000E+20
 35
-1.000000000000000E+20
146
0.0
 13
0.0
 23
0.0
 33
0.0
 16
1.0
 26
0.0
 36
0.0
 17
0.0
 27
1.0
 37
0.0
 76
     0
330
1B
  0
LAYOUT
  5
26
102
{ACAD_REACTORS
330
1A
102
}
330
1A
100
AcDbPlotSettings
  1

  2
none_device
  4

  6

 40
0.0
 41
0.0
 42
0.0
 43
0.0
 44
0.0
 45
0.0
 46
0.0
 47
0.0
 48
0.0
 49
0.0
140
0.0
141
0.0
142
1.0
143
1.0
 70
   688
 72
     0
 73
     0
 74
     5
  7

 75
    16
 76
     0
 77
     2
 78
   300
147
1.0
148
0.0
149
0.0
100
AcDbLayout
  1
Layout2
 70
     1
 71
     2
 10
0.0
 20
0.0
 11
0.0
 21
0.0
 12
0.0
 22
0.0
 32
0.0
 14
0.0
 24
0.0
 34
0.0
 15
0.0
 25
0.0
 35
0.0
146
0.0
 13
0.0
 23
0.0
 33
0.0
 16
1.0
 26
0.0
 36
0.0
 17
0.0
 27
1.0
 37
0.0
 76
     0
330
23
  0
LAYOUT
  5
22
102
{ACAD_REACTORS
330
1A
102
}
330
1A
100
AcDbPlotSettings
  1

  2
none_device
  4

  6

 40
0.0
 41
0.0
 42
0.0
 43
0.0
 44
0.0
 45
0.0
 46
0.0
 47
0.0
 48
0.0
 49
0.0
140
0.0
141
0.0
142
1.0
143
1.0
 70
  1712
 72
     0
 73
     0
 74
     0
  7

 75
     0
 76
     0
 77
     2
 78
   300
147
1.0
148
0.0
149
0.0
100
AcDbLayout
  1
Model
 70
     1
 71
     0
 10
0.0
 20
0.0
 11
12.0
 21
9.0
 12
0.0
 22
0.0
 32
0.0
 14
1.000000000000000E+20
 24
1.000000000000000E+20
 34
1.000000000000000E+20
 15
-1.000000000000000E+20
 25
-1.000000000000000E+20
 35
-1.000000000000000E+20
146
0.0
 13
0.0
 23
0.0
 33
0.0
 16
1.0
 26
0.0
 36
0.0
 17
0.0
 27
1.0
 37
0.0
 76
     0
330
1F
331
29
  0
MATERIAL
  5
3D
102
{ACAD_REACTORS
330
3B
102
}
330
3B
100
AcDbMaterial
  1
ByBlock
 72
     1
 94
      127
  0
MATERIAL
  5
3C
102
{ACAD_REACTORS
330
3B
102
}
330
3B
100
AcDbMaterial
  1
ByLayer
 72
     1
 94
      127
  0
MATERIAL
  5
3E
102
{ACAD_REACTORS
330
3B
102
}
330
3B
100
AcDbMaterial
  1
Global
 72
     1
 94
      127
  0
MLINESTYLE
  5
18
102
{ACAD_REACTORS
330
17
102
}
330
17
100
AcDbMlineStyle
  2
Standard
 70
     0
  3

 62
   256
 51
90.0
 52
90.0
 71
     2
 49
0.5
 62
   256
  6
BYLAYER
 49
-0.5
 62
   256
  6
BYLAYER
  0
ACDBPLACEHOLDER
  5
F
102
{ACAD_REACTORS
330
E
102
}
330
E
  0
VISUALSTYLE
  5
2F
102
{ACAD_REACTORS
330
2A
102
}
330
2A
100
AcDbVisualStyle
  2
2dWireframe
 70
     4
177
     2
291
     0
 71
     0
176
     1
 72
     2
176
     1
 73
     0
176
     1
 90
        0
176
     1
 40
-0.6
176
     1
 41
-30.0
176
     1
 62
     5
 63
     7
421
 16777215
176
     1
 74
     1
176
     1
 91
        4
176
     1
 64
     7
176
     1
 65
   257
176
     1
 75
     1
176
     1
175
     1
176
     1
 42
1.0
176
     1
 92
        0
176
     1
 66
   257
176
     1
 43
1.0
176
     1
 76
     1
176
     1
 77
     6
176
     1
 78
     2
176
     1
 67
     7
176
     1
 79
     5
176
     1
170
     0
176
     1
171
     0
176
     1
290
     0
176
     1
 93
        1
176
     1
 44
0.0
176
     1
173
     0
176
     1
  0
VISUALSTYLE
  5
31
102
{ACAD_REACTORS
330
2A
102
}
330
2A
100
AcDbVisualStyle
  2
3D Hidden
 70
     6
177
     2
291
     0
 71
     1
176
     1
 72
     2
176
     1
 73
     2
176
     1
 90
        0
176
     1
 40
-0.6
176
     1
 41
-30.0
176
     1
 62
     5
 63
     7
421
 16777215
176
     1
 74
     2
176
     1
 91
        2
176
     1
 64
     7
176
     1
 65
   257
176
     1
 75
     2
176
     1
175
     1
176
     1
 42
40.0
176
     1
 92
        0
176
     1
 66
   257
176
     1
 43
1.0
176
     1
 76
     1
176
     1
 77
     6
176
     1
 78
     2
176
     1
 67
     7
176
     1
 79
     3
176
     1
170
     0
176
     1
171
     0
176
     1
290
     0
176
     1
 93
        1
176
     1
 44
0.0
176
     1
173
     0
176
     1
  0
VISUALSTYLE
  5
30
102
{ACAD_REACTORS
330
2A
102
}
330
2A
100
AcDbVisualStyle
  2
3dWireframe
 70
     5
177
     2
291
     0
 71
     0
176
     1
 72
     2
176
     1
 73
     0
176
     1
 90
        0
176
     1
 40
-0.6
176
     1
 41
-30.0
176
     1
 62
     5
 63
     7
421
 16777215
176
     1
 74
     1
176
     1
 91
        4
176
     1
 64
     7
176
     1
 65
   257
176
     1
 75
     1
176
     1
175
     1
176
     1
 42
1.0
176
     1
 92
        0
176
     1
 66
   257
176
     1
 43
1.0
176
     1
 76
     1
176
     1
 77
     6
176
     1
 78
     2
176
     1
 67
     7
176
     1
 79
     5
176
     1
170
     0
176
     1
171
     0
176
     1
290
     0
176
     1
 93
        1
176
     1
 44
0.0
176
     1
173
     0
176
     1
  0
VISUALSTYLE
  5
32
102
{ACAD_REACTORS
330
2A
102
}
330
2A
100
AcDbVisualStyle
  2
Basic
 70
     7
177
     2
291
     1
 71
     1
176
     1
 72
     0
176
     1
 73
     1
176
     1
 90
        0
176
     1
 40
-0.6
176
     1
 41
-30.0
176
     1
 62
     5
 63
     7
421
 16777215
176
     1
 74
     0
176
     1
 91
        4
176
     1
 64
     7
176
     1
 65
   257
176
     1
 75
     1
176
     1
175
     1
176
     1
 42
1.0
176
     1
 92
        8
176
     1
 66
     7
176
     1
 43
1.0
176
     1
 76
     1
176
     1
 77
     6
176
     1
 78
     2
176
     1
 67
     7
176
     1
 79
     5
176
     1
170
     0
176
     1
171
     0
176
     1
290
     0
176
     1
 93
        1
176
     1
 44
0.0
176
     1
173
     0
176
     1
  0
VISUALSTYLE
  5
36
102
{ACAD_REACTORS
330
2A
102
}
330
2A
100
AcDbVisualStyle
  2
Brighten
 70
    12
177
     2
291
     1
 71
     2
176
     1
 72
     2
176
     1
 73
     0
176
     1
 90
        0
176
     1
 40
-0.6
176
     1
 41
-30.0
176
     1
 62
     5
 63
     7
421
 16777215
176
     1
 74
     1
176
     1
 91
        4
176
     1
 64
     7
176
     1
 65
   257
176
     1
 75
     1
176
     1
175
     1
176
     1
 42
1.0
176
     1
 92
        8
176
     1
 66
     7
176
     1
 43
1.0
176
     1
 76
     1
176
     1
 77
     6
176
     1
 78
     2
176
     1
 67
     7
176
     1
 79
     5
176
     1
170
     0
176
     1
171
     0
176
     1
290
     0
176
     1
 93
        1
176
     1
 44
50.0
176
     1
173
     0
176
     1
  0
VISUALSTYLE
  5
3A
102
{ACAD_REACTORS
330
2A
102
}
330
2A
100
AcDbVisualStyle
  2
ColorChange
 70
    16
177
     2
291
     1
 71
     2
176
     1
 72
     2
176
     1
 73
     3
176
     1
 90
        0
176
     1
 40
-0.6
176
     1
 41
-30.0
176
     1
 62
     5
 63
     8
421
  8421504
176
     1
 74
     1
176
     1
 91
        4
176
     1
 64
     7
176
     1
 65
   257
176
     1
 75
     1
176
     1
175
     1
176
     1
 42
1.0
176
     1
 92
        8
176
     1
 66
     8
424
  8421504
176
     1
 43
1.0
176
     1
 76
     1
176
     1
 77
     6
176
     1
 78
     2
176
     1
 67
     7
176
     1
 79
     5
176
     1
170
     0
176
     1
171
     0
176
     1
290
     0
176
     1
 93
        1
176
     1
 44
0.0
176
     1
173
     0
176
     1
  0
VISUALSTYLE
  5
34
102
{ACAD_REACTORS
330
2A
102
}
330
2A
100
AcDbVisualStyle
  2
Conceptual
 70
     9
177
     2
291
     0
 71
     3
176
     1
 72
     2
176
     1
 73
     0
176
     1
 90
        0
176
     1
 40
-0.6
176
     1
 41
-30.0
176
     1
 62
     5
 63
     7
421
 16777215
176
     1
 74
     2
176
     1
 91
        2
176
     1
 64
     7
176
     1
 65
   257
176
     1
 75
     1
176
     1
175
     1
176
     1
 42
40.0
176
     1
 92
        8
176
     1
 66
     7
176
     1
 43
1.0
176
     1
 76
     1
176
     1
 77
     6
176
     1
 78
     2
176
     1
 67
     7
176
     1
 79
     3
176
     1
170
     0
176
     1
171
     0
176
     1
290
     0
176
     1
 93
        1
176
     1
 44
0.0
176
     1
173
     0
176
     1
  0
VISUALSTYLE
  5
35
102
{ACAD_REACTORS
330
2A
102
}
330
2A
100
AcDbVisualStyle
  2
Dim
 70
    11
177
     2
291
     1
 71
     2
176
     1
 72
     2
176
     1
 73
     0
176
     1
 90
        0
176
     1
 40
-0.6
176
     1
 41
-30.0
176
     1
 62
     5
 63
     7
421
 16777215
176
     1
 74
     1
176
     1
 91
        4
176
     1
 64
     7
176
     1
 65
   257
176
     1
 75
     1
176
     1
175
     1
176
     1
 42
1.0
176
     1
 92
        8
176
     1
 66
     7
176
     1
 43
1.0
176
     1
 76
     1
176
     1
 77
     6
176
     1
 78
     2
176
     1
 67
     7
176
     1
 79
     5
176
     1
170
     0
176
     1
171
     0
176
     1
290
     0
176
     1
 93
        1
176
     1
 44
-50.0
176
     1
173
     0
176
     1
  0
VISUALSTYLE
  5
39
102
{ACAD_REACTORS
330
2A
102
}
330
2A
100
AcDbVisualStyle
  2
Facepattern
 70
    15
177
     2
291
     1
 71
     2
176
     1
 72
     2
176
     1
 73
     0
176
     1
 90
        0
176
     1
 40
-0.6
176
     1
 41
-30.0
176
     1
 62
     5
 63
     7
421
 16777215
176
     1
 74
     1
176
     1
 91
        4
176
     1
 64
     7
176
     1
 65
   257
176
     1
 75
     1
176
     1
175
     1
176
     1
 42
1.0
176
     1
 92
        8
176
     1
 66
     7
176
     1
 43
1.0
176
     1
 76
     1
176
     1
 77
     6
176
     1
 78
     2
176
     1
 67
     7
176
     1
 79
     5
176
     1
170
     0
176
     1
171
     0
176
     1
290
     0
176
     1
 93
        1
176
     1
 44
0.0
176
     1
173
     0
176
     1
  0
VISUALSTYLE
  5
2B
102
{ACAD_REACTORS
330
2A
102
}
330
2A
100
AcDbVisualStyle
  2
Flat
 70
     0
177
     2
291
     1
 71
     2
176
     1
 72
     1
176
     1
 73
     1
176
     1
 90
        2
176
     1
 40
-0.6
176
     1
 41
30.0
176
     1
 62
     5
 63
     7
421
 16777215
176
     1
 74
     0
176
     1
 91
        4
176
     1
 64
     7
176
     1
 65
   257
176
     1
 75
     1
176
     1
175
     1
176
     1
 42
1.0
176
     1
 92
        8
176
     1
 66
     7
176
     1
 43
1.0
176
     1
 76
     1
176
     1
 77
     6
176
     1
 78
     2
176
     1
 67
     7
176
     1
 79
     5
176
     1
170
     0
176
     1
171
     0
176
     1
290
     0
176
     1
 93
       13
176
     1
 44
0.0
176
     1
173
     0
176
     1
  0
VISUALSTYLE
  5
2C
102
{ACAD_REACTORS
330
2A
102
}
330
2A
100
AcDbVisualStyle
  2
FlatWithEdges
 70
     1
177
     2
291
     1
 71
     2
176
     1
 72
     1
176
     1
 73
     1
176
     1
 90
        2
176
     1
 40
-0.6
176
     1
 41
30.0
176
     1
 62
     5
 63
     7
421
 16777215
176
     1
 74
     1
176
     1
 91
        4
176
     1
 64
     7
176
     1
 65
   257
176
     1
 75
     1
176
     1
175
     1
176
     1
 42
1.0
176
     1
 92
        0
176
     1
 66
   257
176
     1
 43
1.0
176
     1
 76
     1
176
     1
 77
     6
176
     1
 78
     2
176
     1
 67
     7
176
     1
 79
     5
176
     1
170
     0
176
     1
171
     0
176
     1
290
     0
176
     1
 93
       13
176
     1
 44
0.0
176
     1
173
     0
176
     1
  0
VISUALSTYLE
  5
2D
102
{ACAD_REACTORS
330
2A
102
}
330
2A
100
AcDbVisualStyle
  2
Gouraud
 70
     2
177
     2
291
     1
 71
     2
176
     1
 72
     2
176
     1
 73
     1
176
     1
 90
        2
176
     1
 40
-0.6
176
     1
 41
30.0
176
     1
 62
     5
 63
     7
421
 16777215
176
     1
 74
     0
176
     1
 91
        4
176
     1
 64
     7
176
     1
 65
   257
176
     1
 75
     1
176
     1
175
     1
176
     1
 42
1.0
176
     1
 92
        0
176
     1
 66
     7
176
     1
 43
1.0
176
     1
 76
     1
176
     1
 77
     6
176
     1
 78
     2
176
     1
 67
     7
176
     1
 79
     5
176
     1
170
     0
176
     1
171
     0
176
     1
290
     0
176
     1
 93
       13
176
     1
 44
0.0
176
     1
173
     0
176
     1
  0
VISUALSTYLE
  5
2E
102
{ACAD_REACTORS
330
2A
102
}
330
2A
100
AcDbVisualStyle
  2
GouraudWithEdges
 70
     3
177
     2
291
     1
 71
     2
176
     1
 72
     2
176
     1
 73
     1
176
     1
 90
        2
176
     1
 40
-0.6
176
     1
 41
30.0
176
     1
 62
     5
 63
     7
421
 16777215
176
     1
 74
     1
176
     1
 91
        4
176
     1
 64
     7
176
     1
 65
   257
176
     1
 75
     1
176
     1
175
     1
176
     1
 42
1.0
176
     1
 92
        0
176
     1
 66
   257
176
     1
 43
1.0
176
     1
 76
     1
176
     1
 77
     6
176
     1
 78
     2
176
     1
 67
     7
176
     1
 79
     5
176
     1
170
     0
176
     1
171
     0
176
     1
290
     0
176
     1
 93
       13
176
     1
 44
0.0
176
     1
173
     0
176
     1
  0
VISUALSTYLE
  5
38
102
{ACAD_REACTORS
330
2A
102
}
330
2A
100
AcDbVisualStyle
  2
Linepattern
 70
    14
177
     2
291
     1
 71
     2
176
     1
 72
     2
176
     1
 73
     0
176
     1
 90
        0
176
     1
 40
-0.6
176
     1
 41
-30.0
176
     1
 62
     5
 63
     7
421
 16777215
176
     1
 74
     1
176
     1
 91
        4
176
     1
 64
     7
176
     1
 65
   257
176
     1
 75
     7
176
     1
175
     7
176
     1
 42
1.0
176
     1
 92
        8
176
     1
 66
     7
176
     1
 43
1.0
176
     1
 76
     1
176
     1
 77
     6
176
     1
 78
     2
176
     1
 67
     7
176
     1
 79
     5
176
     1
170
     0
176
     1
171
     0
176
     1
290
     0
176
     1
 93
        1
176
     1
 44
0.0
176
     1
173
     0
176
     1
  0
VISUALSTYLE
  5
33
102
{ACAD_REACTORS
330
2A
102
}
330
2A
100
AcDbVisualStyle
  2
Realistic
 70
     8
177
     2
291
     0
 71
     2
176
     1
 72
     2
176
     1
 73
     0
176
     1
 90
        0
176
     1
 40
-0.6
176
     1
 41
-30.0
176
     1
 62
     5
 63
     7
421
 16777215
176
     1
 74
     1
176
     1
 91
        0
176
     1
 64
     7
176
     1
 65
   257
176
     1
 75
     1
176
     1
175
     1
176
     1
 42
1.0
176
     1
 92
        8
176
     1
 66
     8
424
  7895160
176
     1
 43
1.0
176
     1
 76
     1
176
     1
 77
     6
176
     1
 78
     2
176
     1
 67
     7
176
     1
 79
     5
176
     1
170
     0
176
     1
171
     0
176
     1
290
     0
176
     1
 93
       13
176
     1
 44
0.0
176
     1
173
     0
176
     1
  0
VISUALSTYLE
  5
37
102
{ACAD_REACTORS
330
2A
102
}
330
2A
100
AcDbVisualStyle
  2
Thicken
 70
    13
177
     2
291
     1
 71
     2
176
     1
 72
     2
176
     1
 73
     0
176
     1
 90
        0
176
     1
 40
-0.6
176
     1
 41
-30.0
176
     1
 62
     5
 63
     7
421
 16777215
176
     1
 74
     1
176
     1
 91
        4
176
     1
 64
     7
176
     1
 65
   257
176
     1
 75
     1
176
     1
175
     1
176
     1
 42
1.0
176
     1
 92
       12
176
     1
 66
     7
176
     1
 43
1.0
176
     1
 76
     1
176
     1
 77
     6
176
     1
 78
     2
176
     1
 67
     7
176
     1
 79
     5
176
     1
170
     0
176
     1
171
     0
176
     1
290
     0
176
     1
 93
        1
176
     1
 44
0.0
176
     1
173
     0
176
     1
  0
ENDSEC
  0
EOF
