  0
SECTION
  2
HEADER
  9
$ACADVER
  1
AC1024
  9
$ACADMAINTVER
 70
     6
  9
$DWGCODEPAGE
  3
UNDEFINED
  9
$INSBASE
 10
0.0
 20
0.0
 30
0.0
  9
$EXTMIN
 10
1.000000000000000E+20
 20
1.000000000000000E+20
 30
1.000000000000000E+20
  9
$EXTMAX
 10
-1.000000000000000E+20
 20
-1.000000000000000E+20
 30
-1.000000000000000E+20
  9
$LIMMIN
 10
0.0
 20
0.0
  9
$LIMMAX
 10
12.0
 20
9.0
  9
$ORTHOMODE
 70
     0
  9
$REGENMODE
 70
     1
  9
$FILLMODE
 70
     1
  9
$QTEXTMODE
 70
     0
  9
$MIRRTEXT
 70
     1
  9
$LTSCALE
 40
1.0
  9
$ATTMODE
 70
     1
  9
$TEXTSIZE
 40
0.2
  9
$TRACEWID
 40
0.05
  9
$TEXTSTYLE
  7
Standard
  9
$CLAYER
  8
0
  9
$CELTYPE
  6
ByLayer
  9
$CECOLOR
 62
   256
  9
$CELTSCALE
 40
1.0
  9
$DISPSILH
 70
     0
  9
$DIMSCALE
 40
1.0
  9
$DIMASZ
 40
0.18
  9
$DIMEXO
 40
0.0625
  9
$DIMDLI
 40
0.38
  9
$DIMRND
 40
0.0
  9
$DIMDLE
 40
0.0
  9
$DIMEXE
 40
0.18
  9
$DIMTP
 40
0.0
  9
$DIMTM
 40
0.0
  9
$DIMTXT
 40
0.18
  9
$DIMCEN
 40
0.09
  9
$DIMTSZ
 40
0.0
  9
$DIMTOL
 70
     0
  9
$DIMLIM
 70
     0
  9
$DIMTIH
 70
     1
  9
$DIMTOH
 70
     1
  9
$DIMSE1
 70
     0
  9
$DIMSE2
 70
     0
  9
$DIMTAD
 70
     0
  9
$DIMZIN
 70
     0
  9
$DIMBLK
  1

  9
$DIMASO
 70
     1
  9
$DIMSHO
 70
     1
  9
$DIMPOST
  1

  9
$DIMAPOST
  1

  9
$DIMALT
 70
     0
  9
$DIMALTD
 70
     2
  9
$DIMALTF
 40
25.4
  9
$DIMLFAC
 40
1.0
  9
$DIMTOFL
 70
     0
  9
$DIMTVP
 40
0.0
  9
$DIMTIX
 70
     0
  9
$DIMSOXD
 70
     0
  9
$DIMSAH
 70
     0
  9
$DIMBLK1
  1

  9
$DIMBLK2
  1

  9
$DIMSTYLE
  2
Standard
  9
$DIMCLRD
 70
     0
  9
$DIMCLRE
 70
     0
  9
$DIMCLRT
 70
     0
  9
$DIMTFAC
 40
1.0
  9
$DIMGAP
 40
0.09
  9
$DIMJUST
 70
     0
  9
$DIMSD1
 70
     0
  9
$DIMSD2
 70
     0
  9
$DIMTOLJ
 70
     1
  9
$DIMTZIN
 70
     0
  9
$DIMALTZ
 70
     0
  9
$DIMALTTZ
 70
     0
  9
$DIMUPT
 70
     0
  9
$DIMDEC
 70
     4
  9
$DIMTDEC
 70
     4
  9
$DIMALTU
 70
     2
  9
$DIMALTTD
 70
     2
  9
$DIMTXSTY
  7
Standard
  9
$DIMAUNIT
 70
     0
  9
$DIMADEC
 70
     0
  9
$DIMALTRND
 40
0.0
  9
$DIMAZIN
 70
     0
  9
$DIMDSEP
 70
    46
  9
$DIMATFIT
 70
     3
  9
$DIMFRAC
 70
     0
  9
$DIMLDRBLK
  1

  9
$DIMLUNIT
 70
     2
  9
$DIMLWD
 70
    -2
  9
$DIMLWE
 70
    -2
  9
$DIMTMOVE
 70
     0
  9
$DIMFXL
 40
1.0
  9
$DIMFXLON
 70
     0
  9
$DIMJOGANG
 40
0.7853981633974483
  9
$DIMTFILL
 70
     0
  9
$DIMTFILLCLR
 70
     0
  9
$DIMARCSYM
 70
     0
  9
$DIMLTYPE
  6

  9
$DIMLTEX1
  6

  9
$DIMLTEX2
  6

  9
$DIMTXTDIRECTION
 70
     0
  9
$LUNITS
 70
     2
  9
$LUPREC
 70
     4
  9
$SKETCHINC
 40
0.1
  9
$FILLETRAD
 40
0.5
  9
$AUNITS
 70
     0
  9
$AUPREC
 70
     0
  9
$MENU
  1
.
  9
$ELEVATION
 40
0.0
  9
$PELEVATION
 40
0.0
  9
$THICKNESS
 40
0.0
  9
$LIMCHECK
 70
     0
  9
$CHAMFERA
 40
0.5
  9
$CHAMFERB
 40
0.5
  9
$CHAMFERC
 40
1.0
  9
$CHAMFERD
 40
0.0
  9
$SKPOLY
 70
     0
  9
$TDCREATE
 40
2457917.611192118
  9
$TDUCREATE
 40
2457917.23619213
  9
$TDUPDATE
 40
2457917.611192118
  9
$TDUUPDATE
 40
2457917.23619213
  9
$TDINDWG
 40
0.0000000116
  9
$TDUSRTIMER
 40
0.0000000116
  9
$USRTIMER
 70
     1
  9
$ANGBASE
 50
0.0
  9
$ANGDIR
 70
     0
  9
$PDMODE
 70
     0
  9
$PDSIZE
 40
0.0
  9
$PLINEWID
 40
0.0
  9
$SPLFRAME
 70
     0
  9
$SPLINETYPE
 70
     6
  9
$SPLINESEGS
 70
     8
  9
$HANDSEED
  5
1CF
  9
$SURFTAB1
 70
     6
  9
$SURFTAB2
 70
     6
  9
$SURFTYPE
 70
     6
  9
$SURFU
 70
     6
  9
$SURFV
 70
     6
  9
$UCSBASE
  2

  9
$UCSNAME
  2

  9
$UCSORG
 10
0.0
 20
0.0
 30
0.0
  9
$UCSXDIR
 10
1.0
 20
0.0
 30
0.0
  9
$UCSYDIR
 10
0.0
 20
1.0
 30
0.0
  9
$UCSORTHOREF
  2

  9
$UCSORTHOVIEW
 70
     0
  9
$UCSORGTOP
 10
0.0
 20
0.0
 30
0.0
  9
$UCSORGBOTTOM
 10
0.0
 20
0.0
 30
0.0
  9
$UCSORGLEFT
 10
0.0
 20
0.0
 30
0.0
  9
$UCSORGRIGHT
 10
0.0
 20
0.0
 30
0.0
  9
$UCSORGFRONT
 10
0.0
 20
0.0
 30
0.0
  9
$UCSORGBACK
 10
0.0
 20
0.0
 30
0.0
  9
$PUCSBASE
  2

  9
$PUCSNAME
  2

  9
$PUCSORG
 10
0.0
 20
0.0
 30
0.0
  9
$PUCSXDIR
 10
1.0
 20
0.0
 30
0.0
  9
$PUCSYDIR
 10
0.0
 20
1.0
 30
0.0
  9
$PUCSORTHOREF
  2

  9
$PUCSORTHOVIEW
 70
     0
  9
$PUCSORGTOP
 10
0.0
 20
0.0
 30
0.0
  9
$PUCSORGBOTTOM
 10
0.0
 20
0.0
 30
0.0
  9
$PUCSORGLEFT
 10
0.0
 20
0.0
 30
0.0
  9
$PUCSORGRIGHT
 10
0.0
 20
0.0
 30
0.0
  9
$PUCSORGFRONT
 10
0.0
 20
0.0
 30
0.0
  9
$PUCSORGBACK
 10
0.0
 20
0.0
 30
0.0
  9
$USERI1
 70
     0
  9
$USERI2
 70
     0
  9
$USERI3
 70
     0
  9
$USERI4
 70
     0
  9
$USERI5
 70
     0
  9
$USERR1
 40
0.0
  9
$USERR2
 40
0.0
  9
$USERR3
 40
0.0
  9
$USERR4
 40
0.0
  9
$USERR5
 40
0.0
  9
$WORLDVIEW
 70
     1
  9
$SHADEDGE
 70
     3
  9
$SHADEDIF
 70
    70
  9
$TILEMODE
 70
     1
  9
$MAXACTVP
 70
    64
  9
$PINSBASE
 10
0.0
 20
0.0
 30
0.0
  9
$PLIMCHECK
 70
     0
  9
$PEXTMIN
 10
1.000000000000000E+20
 20
1.000000000000000E+20
 30
1.000000000000000E+20
  9
$PEXTMAX
 10
-1.000000000000000E+20
 20
-1.000000000000000E+20
 30
-1.000000000000000E+20
  9
$PLIMMIN
 10
0.0
 20
0.0
  9
$PLIMMAX
 10
12.0
 20
9.0
  9
$UNITMODE
 70
     0
  9
$VISRETAIN
 70
     1
  9
$PLINEGEN
 70
     0
  9
$PSLTSCALE
 70
     1
  9
$TREEDEPTH
 70
  3020
  9
$CMLSTYLE
  2
Standard
  9
$CMLJUST
 70
     0
  9
$CMLSCALE
 40
1.0
  9
$PROXYGRAPHICS
 70
     1
  9
$MEASUREMENT
 70
     0
  9
$CELWEIGHT
370
    -1
  9
$ENDCAPS
280
     0
  9
$JOINSTYLE
280
     0
  9
$LWDISPLAY
290
     1
  9
$INSUNITS
 70
     1
  9
$HYPERLINKBASE
  1

  9
$STYLESHEET
  1

  9
$XEDIT
290
     1
  9
$CEPSNTYPE
380
     0
  9
$PSTYLEMODE
290
     1
  9
$FINGERPRINTGUID
  2
{60BD07FC-9684-613B-FF26-5E6725DF1EC1}
  9
$VERSIONGUID
  2
{FAEB1C32-E019-11D5-929B-00C0DF256EC4}
  9
$EXTNAMES
290
     1
  9
$PSVPSCALE
 40
0.0
  9
$OLESTARTUP
290
     0
  9
$SORTENTS
280
   127
  9
$INDEXCTL
280
     0
  9
$HIDETEXT
280
     1
  9
$XCLIPFRAME
280
     2
  9
$HALOGAP
280
     0
  9
$OBSCOLOR
 70
   257
  9
$OBSLTYPE
280
     0
  9
$INTERSECTIONDISPLAY
280
     0
  9
$INTERSECTIONCOLOR
 70
   257
  9
$DIMASSOC
280
     2
  9
$PROJECTNAME
  1

  9
$CAMERADISPLAY
290
     0
  9
$LENSLENGTH
 40
50.0
  9
$CAMERAHEIGHT
 40
0.0
  9
$STEPSPERSEC
 40
2.0
  9
$STEPSIZE
 40
6.0
  9
$3DDWFPREC
 40
2.0
  9
$PSOLWIDTH
 40
0.25
  9
$PSOLHEIGHT
 40
4.0
  9
$LOFTANG1
 40
1.570796326794897
  9
$LOFTANG2
 40
1.570796326794897
  9
$LOFTMAG1
 40
0.0
  9
$LOFTMAG2
 40
0.0
  9
$LOFTPARAM
 70
     7
  9
$LOFTNORMALS
280
     1
  9
$LATITUDE
 40
37.795
  9
$LONGITUDE
 40
-122.394
  9
$NORTHDIRECTION
 40
0.0
  9
$TIMEZONE
 70
 -8000
  9
$LIGHTGLYPHDISPLAY
280
     1
  9
$TILEMODELIGHTSYNCH
280
     1
  9
$CMATERIAL
347
3C
  9
$SOLIDHIST
280
     1
  9
$SHOWHIST
280
     1
  9
$DWFFRAME
280
     2
  9
$DGNFRAME
280
     2
  9
$REALWORLDSCALE
290
     1
  9
$INTERFERECOLOR
 62
   256
  9
$CSHADOW
280
     0
  9
$SHADOWPLANELOCATION
 40
0.0
  0
ENDSEC
  0
SECTION
  2
CLASSES
  0
CLASS
  1
ACDBDICTIONARYWDFLT
  2
AcDbDictionaryWithDefault
  3
ObjectDBX Classes
 90
        0
 91
        4
280
     0
281
     0
  0
CLASS
  1
VISUALSTYLE
  2
AcDbVisualStyle
  3
ObjectDBX Classes
 90
     4095
 91
        4
280
     0
281
     0
  0
CLASS
  1
MATERIAL
  2
AcDbMaterial
  3
ObjectDBX Classes
 90
     1153
 91
        4
280
     0
281
     0
  0
CLASS
  1
SUN
  2
AcDbSun
  3
SCENEOE
 90
     1024
 91
        4
280
     0
281
     0
  0
ENDSEC
  0
SECTION
  2
TABLES
  0
TABLE
  2
VPORT
  5
8
330
0
100
AcDbSymbolTable
 70
     1
  0
VPORT
  5
29
330
8
100
AcDbSymbolTableRecord
100
AcDbViewportTableRecord
  2
*Active
 70
     0
 10
0.0
 20
0.0
 11
1.0
 21
1.0
 12
0.0
 22
0.0
 13
0.0
 23
0.0
 14
0.5
 24
0.5
 15
0.5
 25
0.5
 16
0.0
 26
0.0
 36
1.0
 17
91.00082462281999
 27
-128.4993055234307
 37
0.0
 40
256.9986110468615
 41
0.7081814508812795
 42
50.0
 43
0.0
 44
0.0
 50
0.0
 51
0.0
 71
     0
 72
   100
 73
     1
 74
     3
 75
     0
 76
     0
 77
     0
 78
     0
281
     0
 65
     1
110
0.0
120
0.0
130
0.0
111
1.0
121
0.0
131
0.0
112
0.0
122
1.0
132
0.0
 79
     0
146
0.0
 60
     3
 61
     5
292
     1
282
     1
141
0.0
142
0.0
 63
   250
361
3F
  0
ENDTAB
  0
TABLE
  2
LTYPE
  5
5
330
0
100
AcDbSymbolTable
 70
     1
  0
LTYPE
  5
14
330
5
100
AcDbSymbolTableRecord
100
AcDbLinetypeTableRecord
  2
ByBlock
 70
     0
  3

 72
    65
 73
     0
 40
0.0
  0
LTYPE
  5
15
330
5
100
AcDbSymbolTableRecord
100
AcDbLinetypeTableRecord
  2
ByLayer
 70
     0
  3

 72
    65
 73
     0
 40
0.0
  0
LTYPE
  5
16
330
5
100
AcDbSymbolTableRecord
100
AcDbLinetypeTableRecord
  2
Continuous
 70
     0
  3
Solid line
 72
    65
 73
     0
 40
0.0
  0
ENDTAB
  0
TABLE
  2
LAYER
  5
2
330
0
100
AcDbSymbolTable
 70
     2
  0
LAYER
  5
10
330
2
100
AcDbSymbolTableRecord
100
AcDbLayerTableRecord
  2
0
 70
     0
 62
     7
  6
Continuous
370
    -3
390
F
347
3E
  0
LAYER
  5
40
330
2
100
AcDbSymbolTableRecord
100
AcDbLayerTableRecord
  2
_U+30EC_U+30A4_U+30E4_U+30FC 1
 70
     0
 62
     7
  6
Continuous
370
    -3
390
F
347
3E
  0
ENDTAB
  0
TABLE
  2
STYLE
  5
3
330
0
100
AcDbSymbolTable
 70
     1
  0
STYLE
  5
11
330
3
100
AcDbSymbolTableRecord
100
AcDbTextStyleTableRecord
  2
Standard
 70
     0
 40
0.0
 41
1.0
 50
0.0
 71
     0
 42
0.2
  3
txt
  4

  0
ENDTAB
  0
TABLE
  2
VIEW
  5
6
330
0
100
AcDbSymbolTable
 70
     0
  0
ENDTAB
  0
TABLE
  2
UCS
  5
7
330
0
100
AcDbSymbolTable
 70
     0
  0
ENDTAB
  0
TABLE
  2
APPID
  5
9
330
0
100
AcDbSymbolTable
 70
     1
  0
APPID
  5
12
330
9
100
AcDbSymbolTableRecord
100
AcDbRegAppTableRecord
  2
ACAD
 70
     0
  0
ENDTAB
  0
TABLE
  2
DIMSTYLE
  5
A
330
0
100
AcDbSymbolTable
 70
     1
100
AcDbDimStyleTable
  0
DIMSTYLE
105
27
330
A
100
AcDbSymbolTableRecord
100
AcDbDimStyleTableRecord
  2
Standard
 70
     0
178
     0
340
11
  0
ENDTAB
  0
TABLE
  2
BLOCK_RECORD
  5
1
330
0
100
AcDbSymbolTable
 70
     9
  0
BLOCK_RECORD
  5
1F
330
1
100
AcDbSymbolTableRecord
100
AcDbBlockTableRecord
  2
*Model_Space
340
22
 70
     0
280
     1
281
     0
  0
BLOCK_RECORD
  5
1B
330
1
100
AcDbSymbolTableRecord
100
AcDbBlockTableRecord
  2
*Paper_Space
340
1E
 70
     0
280
     1
281
     0
  0
BLOCK_RECORD
  5
23
330
1
100
AcDbSymbolTableRecord
100
AcDbBlockTableRecord
  2
*Paper_Space0
340
26
 70
     0
280
     1
281
     0
  0
BLOCK_RECORD
  5
5E
330
1
100
AcDbSymbolTableRecord
100
AcDbBlockTableRecord
  2
block 2
340
0
102
{BLKREFS
331
5F
102
}
 70
     0
280
     1
281
     0
  0
BLOCK_RECORD
  5
66
330
1
100
AcDbSymbolTableRecord
100
AcDbBlockTableRecord
  2
block 3
340
0
102
{BLKREFS
331
67
102
}
 70
     0
280
     1
281
     0
  0
BLOCK_RECORD
  5
7B
330
1
100
AcDbSymbolTableRecord
100
AcDbBlockTableRecord
  2
block 4
340
0
102
{BLKREFS
331
7C
102
}
 70
     0
280
     1
281
     0
  0
BLOCK_RECORD
  5
8A
330
1
100
AcDbSymbolTableRecord
100
AcDbBlockTableRecord
  2
block 5
340
0
102
{BLKREFS
331
8B
102
}
 70
     0
280
     1
281
     0
  0
BLOCK_RECORD
  5
99
330
1
100
AcDbSymbolTableRecord
100
AcDbBlockTableRecord
  2
block 6
340
0
102
{BLKREFS
331
9A
102
}
 70
     0
280
     1
281
     0
  0
BLOCK_RECORD
  5
AC
330
1
100
AcDbSymbolTableRecord
100
AcDbBlockTableRecord
  2
block 7
340
0
102
{BLKREFS
331
AD
102
}
 70
     0
280
     1
281
     0
  0
BLOCK_RECORD
  5
C3
330
1
100
AcDbSymbolTableRecord
100
AcDbBlockTableRecord
  2
block 8
340
0
102
{BLKREFS
331
C4
102
}
 70
     0
280
     1
281
     0
  0
BLOCK_RECORD
  5
CD
330
1
100
AcDbSymbolTableRecord
100
AcDbBlockTableRecord
  2
block 9
340
0
102
{BLKREFS
331
CE
102
}
 70
     0
280
     1
281
     0
  0
ENDTAB
  0
ENDSEC
  0
SECTION
  2
BLOCKS
  0
BLOCK
  5
20
330
1F
100
AcDbEntity
  8
0
100
AcDbBlockBegin
  2
*Model_Space
 70
     0
 10
0.0
 20
0.0
 30
0.0
  3
*Model_Space
  1

  0
ENDBLK
  5
21
330
1F
100
AcDbEntity
  8
0
100
AcDbBlockEnd
  0
BLOCK
  5
1C
330
1B
100
AcDbEntity
 67
     1
  8
0
100
AcDbBlockBegin
  2
*Paper_Space
 70
     0
 10
0.0
 20
0.0
 30
0.0
  3
*Paper_Space
  1

  0
ENDBLK
  5
1D
330
1B
100
AcDbEntity
 67
     1
  8
0
100
AcDbBlockEnd
  0
BLOCK
  5
24
330
23
100
AcDbEntity
  8
0
100
AcDbBlockBegin
  2
*Paper_Space0
 70
     0
 10
0.0
 20
0.0
 30
0.0
  3
*Paper_Space0
  1

  0
ENDBLK
  5
25
330
23
100
AcDbEntity
  8
0
100
AcDbBlockEnd
  0
BLOCK
  5
60
330
5E
100
AcDbEntity
  8
0
100
AcDbBlockBegin
  2
block 2
 70
     0
 10
0.0
 20
0.0
 30
0.0
  3
block 2
  1

  0
SPLINE
  5
62
330
5E
100
AcDbEntity
  8
_U+30EC_U+30A4_U+30E4_U+30FC 1
370
     0
100
AcDbSpline
210
0.0
220
0.0
230
1.0
 70
    11
 71
     3
 72
    26
 73
    22
 74
     0
 42
0.0000000001
 43
0.0000000001
 12
1.0
 22
0.0
 32
0.0
 13
1.0
 23
0.0
 33
0.0
 40
0.0
 40
0.0
 40
0.0
 40
0.0
 40
1.0
 40
1.0
 40
1.0
 40
2.0
 40
2.0
 40
2.0
 40
3.0
 40
3.0
 40
3.0
 40
4.0
 40
4.0
 40
4.0
 40
5.0
 40
5.0
 40
5.0
 40
6.0
 40
6.0
 40
6.0
 40
7.0
 40
7.0
 40
7.0
 40
7.0
 10
104.8370116925408
 20
-128.2257649419019
 30
0.0
 10
104.8370116925408
 20
-128.2257649419019
 30
0.0
 10
103.7325140799696
 20
-128.2257649419019
 30
0.0
 10
103.7325140799696
 20
-128.2257649419019
 30
0.0
 10
103.7325140799696
 20
-128.2257649419019
 30
0.0
 10
103.7325140799696
 20
-128.5558050893888
 30
0.0
 10
103.7325140799696
 20
-128.5558050893888
 30
0.0
 10
103.7325140799696
 20
-128.5558050893888
 30
0.0
 10
103.5843749741039
 20
-128.5558050893888
 30
0.0
 10
103.5843749741039
 20
-128.5558050893888
 30
0.0
 10
103.5699055730659
 20
-128.2236978846107
 30
0.0
 10
103.406608047065
 20
-128.1771890955599
 30
0.0
 10
103.2922308769547
 20
-128.1475612743867
 30
0.0
 10
103.2922308769547
 20
-128.1475612743867
 30
0.0
 10
103.2922308769547
 20
-128.0014892258121
 30
0.0
 10
103.2922308769547
 20
-128.0014892258121
 30
0.0
 10
103.2922308769547
 20
-128.0014892258121
 30
0.0
 10
104.8370116925408
 20
-128.0014892258121
 30
0.0
 10
104.8370116925408
 20
-128.0014892258121
 30
0.0
 10
104.8370116925408
 20
-128.0014892258121
 30
0.0
 10
104.8370116925408
 20
-128.2257649419019
 30
0.0
 10
104.8370116925408
 20
-128.2257649419019
 30
0.0
  0
HATCH
  5
63
330
5E
100
AcDbEntity
  8
_U+30EC_U+30A4_U+30E4_U+30FC 1
 62
     7
420
 16777215
100
AcDbHatch
 10
0.0
 20
0.0
 30
0.0
210
0.0
220
0.0
230
1.0
  2
SOLID
 70
     1
 71
     0
 91
        1
 92
        1
 93
        1
 72
     4
 94
        3
 73
     0
 74
     1
 95
       26
 96
       22
 40
0.0
 40
0.0
 40
0.0
 40
0.0
 40
1.0
 40
1.0
 40
1.0
 40
2.0
 40
2.0
 40
2.0
 40
3.0
 40
3.0
 40
3.0
 40
4.0
 40
4.0
 40
4.0
 40
5.0
 40
5.0
 40
5.0
 40
6.0
 40
6.0
 40
6.0
 40
7.0
 40
7.0
 40
7.0
 40
7.0
 10
104.8370116925408
 20
-128.2257649419019
 10
104.8370116925408
 20
-128.2257649419019
 10
103.7325140799696
 20
-128.2257649419019
 10
103.7325140799696
 20
-128.2257649419019
 10
103.7325140799696
 20
-128.2257649419019
 10
103.7325140799696
 20
-128.5558050893888
 10
103.7325140799696
 20
-128.5558050893888
 10
103.7325140799696
 20
-128.5558050893888
 10
103.5843749741039
 20
-128.5558050893888
 10
103.5843749741039
 20
-128.5558050893888
 10
103.5699055730659
 20
-128.2236978846107
 10
103.406608047065
 20
-128.1771890955599
 10
103.2922308769547
 20
-128.1475612743867
 10
103.2922308769547
 20
-128.1475612743867
 10
103.2922308769547
 20
-128.0014892258121
 10
103.2922308769547
 20
-128.0014892258121
 10
103.2922308769547
 20
-128.0014892258121
 10
104.8370116925408
 20
-128.0014892258121
 10
104.8370116925408
 20
-128.0014892258121
 10
104.8370116925408
 20
-128.0014892258121
 10
104.8370116925408
 20
-128.2257649419019
 10
104.8370116925408
 20
-128.2257649419019
 97
        0
 97
        0
 75
     2
 76
     1
 98
        0
  0
SPLINE
  5
64
330
5E
100
AcDbEntity
  8
_U+30EC_U+30A4_U+30E4_U+30FC 1
370
     0
100
AcDbSpline
210
0.0
220
0.0
230
1.0
 70
    11
 71
     3
 72
    62
 73
    58
 74
     0
 42
0.0000000001
 43
0.0000000001
 12
1.0
 22
0.0
 32
0.0
 13
1.0
 23
0.0
 33
0.0
 40
0.0
 40
0.0
 40
0.0
 40
0.0
 40
1.0
 40
1.0
 40
1.0
 40
2.0
 40
2.0
 40
2.0
 40
3.0
 40
3.0
 40
3.0
 40
4.0
 40
4.0
 40
4.0
 40
5.0
 40
5.0
 40
5.0
 40
6.0
 40
6.0
 40
6.0
 40
7.0
 40
7.0
 40
7.0
 40
8.0
 40
8.0
 40
8.0
 40
9.0
 40
9.0
 40
9.0
 40
10.0
 40
10.0
 40
10.0
 40
11.0
 40
11.0
 40
11.0
 40
12.0
 40
12.0
 40
12.0
 40
13.0
 40
13.0
 40
13.0
 40
14.0
 40
14.0
 40
14.0
 40
15.0
 40
15.0
 40
15.0
 40
16.0
 40
16.0
 40
16.0
 40
17.0
 40
17.0
 40
17.0
 40
18.0
 40
18.0
 40
18.0
 40
19.0
 40
19.0
 40
19.0
 40
19.0
 10
104.8873100866254
 20
-127.0086127069631
 30
0.0
 10
104.8873100866254
 20
-127.1040418519046
 30
0.0
 10
104.8666395137139
 20
-127.3217718865723
 30
0.0
 10
104.6806043575104
 20
-127.4468288526869
 30
0.0
 10
104.5682942446913
 20
-127.5208984056198
 30
0.0
 10
104.4690754947161
 20
-127.5250325202021
 30
0.0
 10
104.3843261457789
 20
-127.5291666347844
 30
0.0
 10
104.3843261457789
 20
-127.5291666347844
 30
0.0
 10
104.3843261457789
 20
-127.3090250332769
 30
0.0
 10
104.3843261457789
 20
-127.3090250332769
 30
0.0
 10
104.4580511891633
 20
-127.3069579759858
 30
0.0
 10
104.6930067012573
 20
-127.29662268953
 30
0.0
 10
104.6930067012573
 20
-127.013091331094
 30
0.0
 10
104.6930067012573
 20
-126.8756320212325
 30
0.0
 10
104.6234157724553
 20
-126.7230142912359
 30
0.0
 10
104.3946614322347
 20
-126.7230142912359
 30
0.0
 10
104.2782172048332
 20
-126.7230142912359
 30
0.0
 10
104.2299858680397
 20
-126.7612548511222
 30
0.0
 10
104.1982909895754
 20
-126.7929497295865
 30
0.0
 10
104.123876927094
 20
-126.8670192825194
 30
0.0
 10
104.1114745833471
 20
-126.9834635099208
 30
0.0
 10
104.1114745833471
 20
-127.0382405281363
 30
0.0
 10
104.1114745833471
 20
-127.0575330628537
 30
0.0
 10
104.1135416406383
 20
-127.0933620559003
 30
0.0
 10
104.1176757552206
 20
-127.1209228197823
 30
0.0
 10
104.1176757552206
 20
-127.1209228197823
 30
0.0
 10
103.9226833507554
 20
-127.1209228197823
 30
0.0
 10
103.9226833507554
 20
-127.1209228197823
 30
0.0
 10
103.9295735417259
 20
-127.082682259896
 30
0.0
 10
103.9316405990171
 20
-127.040652094976
 30
0.0
 10
103.9316405990171
 20
-127.034106413554
 30
0.0
 10
103.9316405990171
 20
-126.9686495993342
 30
0.0
 10
103.9102810070085
 20
-126.7698675898353
 30
0.0
 10
103.6732584376234
 20
-126.7698675898353
 30
0.0
 10
103.4954915105845
 20
-126.7698675898353
 30
0.0
 10
103.4403699828205
 20
-126.9007812182748
 30
0.0
 10
103.4403699828205
 20
-127.0110242738028
 30
0.0
 10
103.4403699828205
 20
-127.2752630975215
 30
0.0
 10
103.6732584376234
 20
-127.2838758362346
 30
0.0
 10
103.7449164237166
 20
-127.2880099508169
 30
0.0
 10
103.7449164237166
 20
-127.2880099508169
 30
0.0
 10
103.7449164237166
 20
-127.4912705844466
 30
0.0
 10
103.7449164237166
 20
-127.4912705844466
 30
0.0
 10
103.6202039671505
 20
-127.4826578457335
 30
0.0
 10
103.2439995401612
 20
-127.4550970818515
 30
0.0
 10
103.2439995401612
 20
-126.9982774205074
 30
0.0
 10
103.2439995401612
 20
-126.7740017044176
 30
0.0
 10
103.3707790540184
 20
-126.5328450204501
 30
0.0
 10
103.6670572657499
 20
-126.5328450204501
 30
0.0
 10
103.8530924219534
 20
-126.5328450204501
 30
0.0
 10
103.9357747135994
 20
-126.627929655843
 30
0.0
 10
103.9970974132368
 20
-126.7274929153667
 30
0.0
 10
104.0246581771188
 20
-126.6661702157293
 30
0.0
 10
104.1045843923766
 20
-126.4842691741081
 30
0.0
 10
104.3822590884878
 20
-126.4842691741081
 30
0.0
 10
104.7205674651393
 20
-126.4842691741081
 30
0.0
 10
104.8873100866254
 20
-126.731627029949
 30
0.0
 10
104.8873100866254
 20
-127.0086127069631
 30
0.0
  0
HATCH
  5
65
330
5E
100
AcDbEntity
  8
_U+30EC_U+30A4_U+30E4_U+30FC 1
 62
     7
420
 16777215
100
AcDbHatch
 10
0.0
 20
0.0
 30
0.0
210
0.0
220
0.0
230
1.0
  2
SOLID
 70
     1
 71
     0
 91
        1
 92
        1
 93
        1
 72
     4
 94
        3
 73
     0
 74
     1
 95
       62
 96
       58
 40
0.0
 40
0.0
 40
0.0
 40
0.0
 40
1.0
 40
1.0
 40
1.0
 40
2.0
 40
2.0
 40
2.0
 40
3.0
 40
3.0
 40
3.0
 40
4.0
 40
4.0
 40
4.0
 40
5.0
 40
5.0
 40
5.0
 40
6.0
 40
6.0
 40
6.0
 40
7.0
 40
7.0
 40
7.0
 40
8.0
 40
8.0
 40
8.0
 40
9.0
 40
9.0
 40
9.0
 40
10.0
 40
10.0
 40
10.0
 40
11.0
 40
11.0
 40
11.0
 40
12.0
 40
12.0
 40
12.0
 40
13.0
 40
13.0
 40
13.0
 40
14.0
 40
14.0
 40
14.0
 40
15.0
 40
15.0
 40
15.0
 40
16.0
 40
16.0
 40
16.0
 40
17.0
 40
17.0
 40
17.0
 40
18.0
 40
18.0
 40
18.0
 40
19.0
 40
19.0
 40
19.0
 40
19.0
 10
104.8873100866254
 20
-127.0086127069631
 10
104.8873100866254
 20
-127.1040418519046
 10
104.8666395137139
 20
-127.3217718865723
 10
104.6806043575104
 20
-127.4468288526869
 10
104.5682942446913
 20
-127.5208984056198
 10
104.4690754947161
 20
-127.5250325202021
 10
104.3843261457789
 20
-127.5291666347844
 10
104.3843261457789
 20
-127.5291666347844
 10
104.3843261457789
 20
-127.3090250332769
 10
104.3843261457789
 20
-127.3090250332769
 10
104.4580511891633
 20
-127.3069579759858
 10
104.6930067012573
 20
-127.29662268953
 10
104.6930067012573
 20
-127.013091331094
 10
104.6930067012573
 20
-126.8756320212325
 10
104.6234157724553
 20
-126.7230142912359
 10
104.3946614322347
 20
-126.7230142912359
 10
104.2782172048332
 20
-126.7230142912359
 10
104.2299858680397
 20
-126.7612548511222
 10
104.1982909895754
 20
-126.7929497295865
 10
104.123876927094
 20
-126.8670192825194
 10
104.1114745833471
 20
-126.9834635099208
 10
104.1114745833471
 20
-127.0382405281363
 10
104.1114745833471
 20
-127.0575330628537
 10
104.1135416406383
 20
-127.0933620559003
 10
104.1176757552206
 20
-127.1209228197823
 10
104.1176757552206
 20
-127.1209228197823
 10
103.9226833507554
 20
-127.1209228197823
 10
103.9226833507554
 20
-127.1209228197823
 10
103.9295735417259
 20
-127.082682259896
 10
103.9316405990171
 20
-127.040652094976
 10
103.9316405990171
 20
-127.034106413554
 10
103.9316405990171
 20
-126.9686495993342
 10
103.9102810070085
 20
-126.7698675898353
 10
103.6732584376234
 20
-126.7698675898353
 10
103.4954915105845
 20
-126.7698675898353
 10
103.4403699828205
 20
-126.9007812182748
 10
103.4403699828205
 20
-127.0110242738028
 10
103.4403699828205
 20
-127.2752630975215
 10
103.6732584376234
 20
-127.2838758362346
 10
103.7449164237166
 20
-127.2880099508169
 10
103.7449164237166
 20
-127.2880099508169
 10
103.7449164237166
 20
-127.4912705844466
 10
103.7449164237166
 20
-127.4912705844466
 10
103.6202039671505
 20
-127.4826578457335
 10
103.2439995401612
 20
-127.4550970818515
 10
103.2439995401612
 20
-126.9982774205074
 10
103.2439995401612
 20
-126.7740017044176
 10
103.3707790540184
 20
-126.5328450204501
 10
103.6670572657499
 20
-126.5328450204501
 10
103.8530924219534
 20
-126.5328450204501
 10
103.9357747135994
 20
-126.627929655843
 10
103.9970974132368
 20
-126.7274929153667
 10
104.0246581771188
 20
-126.6661702157293
 10
104.1045843923766
 20
-126.4842691741081
 10
104.3822590884878
 20
-126.4842691741081
 10
104.7205674651393
 20
-126.4842691741081
 10
104.8873100866254
 20
-126.731627029949
 10
104.8873100866254
 20
-127.0086127069631
 97
        0
 97
        0
 75
     2
 76
     1
 98
        0
  0
ENDBLK
  5
61
330
5E
100
AcDbEntity
  8
0
100
AcDbBlockEnd
  0
BLOCK
  5
68
330
66
100
AcDbEntity
  8
0
100
AcDbBlockBegin
  2
block 3
 70
     0
 10
0.0
 20
0.0
 30
0.0
  3
block 3
  1

  0
SPLINE
  5
6A
330
66
100
AcDbEntity
  8
_U+30EC_U+30A4_U+30E4_U+30FC 1
370
     0
100
AcDbSpline
210
0.0
220
0.0
230
1.0
 70
    11
 71
     3
 72
    32
 73
    28
 74
     0
 42
0.0000000001
 43
0.0000000001
 12
1.0
 22
0.0
 32
0.0
 13
1.0
 23
0.0
 33
0.0
 40
0.0
 40
0.0
 40
0.0
 40
0.0
 40
1.0
 40
1.0
 40
1.0
 40
2.0
 40
2.0
 40
2.0
 40
3.0
 40
3.0
 40
3.0
 40
4.0
 40
4.0
 40
4.0
 40
5.0
 40
5.0
 40
5.0
 40
6.0
 40
6.0
 40
6.0
 40
7.0
 40
7.0
 40
7.0
 40
8.0
 40
8.0
 40
8.0
 40
9.0
 40
9.0
 40
9.0
 40
9.0
 10
84.93831242451195
 20
-124.0789035063067
 30
0.0
 10
84.93831242451195
 20
-124.5949788099971
 30
0.0
 10
84.38434107048379
 20
-124.6035915487102
 30
0.0
 10
84.17040064084976
 20
-124.6035915487102
 30
0.0
 10
83.93992375288656
 20
-124.6035915487102
 30
0.0
 10
83.2925903112081
 20
-124.5842990139928
 30
0.0
 10
83.2925903112081
 20
-124.0406629464204
 30
0.0
 10
83.2925903112081
 20
-123.8673746435123
 30
0.0
 10
83.36252574955867
 20
-123.621739335414
 30
0.0
 10
83.69463295433677
 20
-123.5838432850763
 30
0.0
 10
83.69463295433677
 20
-123.5838432850763
 30
0.0
 10
83.69463295433677
 20
-123.7974392051618
 30
0.0
 10
83.69463295433677
 20
-123.7974392051618
 30
0.0
 10
83.63744436928161
 20
-123.808119001166
 30
0.0
 10
83.48930526341587
 20
-123.8398138796303
 30
0.0
 10
83.48930526341587
 20
-124.0427300037115
 30
0.0
 10
83.48930526341587
 20
-124.3348741008607
 30
0.0
 10
83.81727835361166
 20
-124.3748372084896
 30
0.0
 10
84.02226153498403
 20
-124.387584061785
 30
0.0
 10
83.94405786746886
 20
-124.2945664836833
 30
0.0
 10
83.88480222512256
 20
-124.2266981026239
 30
0.0
 10
83.88480222512256
 20
-124.0447970610027
 30
0.0
 10
83.88480222512256
 20
-123.8649630766727
 30
0.0
 10
83.9929782233594
 20
-123.5624836930677
 30
0.0
 10
84.39915498107035
 20
-123.5624836930677
 30
0.0
 10
84.71851533255301
 20
-123.5624836930677
 30
0.0
 10
84.93831242451195
 20
-123.7616102121152
 30
0.0
 10
84.93831242451195
 20
-124.0789035063067
 30
0.0
  0
SPLINE
  5
6B
330
66
100
AcDbEntity
  8
_U+30EC_U+30A4_U+30E4_U+30FC 1
370
     0
100
AcDbSpline
210
0.0
220
0.0
230
1.0
 70
    11
 71
     3
 72
    17
 73
    13
 74
     0
 42
0.0000000001
 43
0.0000000001
 12
1.0
 22
0.0
 32
0.0
 13
1.0
 23
0.0
 33
0.0
 40
0.0
 40
0.0
 40
0.0
 40
0.0
 40
1.0
 40
1.0
 40
1.0
 40
2.0
 40
2.0
 40
2.0
 40
3.0
 40
3.0
 40
3.0
 40
4.0
 40
4.0
 40
4.0
 40
4.0
 10
84.07945012003917
 20
-124.0620225384289
 30
0.0
 10
84.07945012003917
 20
-124.3241943048565
 30
0.0
 10
84.29097898283351
 20
-124.3620903551942
 30
0.0
 10
84.40742321023495
 20
-124.3620903551942
 30
0.0
 10
84.5831230799827
 20
-124.3620903551942
 30
0.0
 10
84.74607609643502
 20
-124.2670057198013
 30
0.0
 10
84.74607609643502
 20
-124.083037620889
 30
0.0
 10
84.74607609643502
 20
-123.9624592789052
 30
0.0
 10
84.68682045408872
 20
-123.7867594091575
 30
0.0
 10
84.40122203836151
 20
-123.7867594091575
 30
0.0
 10
84.17694632227175
 20
-123.7867594091575
 30
0.0
 10
84.07945012003917
 20
-123.9262857763101
 30
0.0
 10
84.07945012003917
 20
-124.0620225384289
 30
0.0
  0
HATCH
  5
6C
330
66
100
AcDbEntity
  8
_U+30EC_U+30A4_U+30E4_U+30FC 1
 62
     7
420
 16777215
100
AcDbHatch
 10
0.0
 20
0.0
 30
0.0
210
0.0
220
0.0
230
1.0
  2
SOLID
 70
     1
 71
     0
 91
        2
 92
        1
 93
        1
 72
     4
 94
        3
 73
     0
 74
     1
 95
       32
 96
       28
 40
0.0
 40
0.0
 40
0.0
 40
0.0
 40
1.0
 40
1.0
 40
1.0
 40
2.0
 40
2.0
 40
2.0
 40
3.0
 40
3.0
 40
3.0
 40
4.0
 40
4.0
 40
4.0
 40
5.0
 40
5.0
 40
5.0
 40
6.0
 40
6.0
 40
6.0
 40
7.0
 40
7.0
 40
7.0
 40
8.0
 40
8.0
 40
8.0
 40
9.0
 40
9.0
 40
9.0
 40
9.0
 10
84.93831242451195
 20
-124.0789035063067
 10
84.93831242451195
 20
-124.5949788099971
 10
84.38434107048379
 20
-124.6035915487102
 10
84.17040064084976
 20
-124.6035915487102
 10
83.93992375288656
 20
-124.6035915487102
 10
83.2925903112081
 20
-124.5842990139928
 10
83.2925903112081
 20
-124.0406629464204
 10
83.2925903112081
 20
-123.8673746435123
 10
83.36252574955867
 20
-123.621739335414
 10
83.69463295433677
 20
-123.5838432850763
 10
83.69463295433677
 20
-123.5838432850763
 10
83.69463295433677
 20
-123.7974392051618
 10
83.69463295433677
 20
-123.7974392051618
 10
83.63744436928161
 20
-123.808119001166
 10
83.48930526341587
 20
-123.8398138796303
 10
83.48930526341587
 20
-124.0427300037115
 10
83.48930526341587
 20
-124.3348741008607
 10
83.81727835361166
 20
-124.3748372084896
 10
84.02226153498403
 20
-124.387584061785
 10
83.94405786746886
 20
-124.2945664836833
 10
83.88480222512256
 20
-124.2266981026239
 10
83.88480222512256
 20
-124.0447970610027
 10
83.88480222512256
 20
-123.8649630766727
 10
83.9929782233594
 20
-123.5624836930677
 10
84.39915498107035
 20
-123.5624836930677
 10
84.71851533255301
 20
-123.5624836930677
 10
84.93831242451195
 20
-123.7616102121152
 10
84.93831242451195
 20
-124.0789035063067
 97
        0
 97
        0
 92
        1
 93
        1
 72
     4
 94
        3
 73
     0
 74
     1
 95
       17
 96
       13
 40
0.0
 40
0.0
 40
0.0
 40
0.0
 40
1.0
 40
1.0
 40
1.0
 40
2.0
 40
2.0
 40
2.0
 40
3.0
 40
3.0
 40
3.0
 40
4.0
 40
4.0
 40
4.0
 40
4.0
 10
84.07945012003917
 20
-124.0620225384289
 10
84.07945012003917
 20
-124.3241943048565
 10
84.29097898283351
 20
-124.3620903551942
 10
84.40742321023495
 20
-124.3620903551942
 10
84.5831230799827
 20
-124.3620903551942
 10
84.74607609643502
 20
-124.2670057198013
 10
84.74607609643502
 20
-124.083037620889
 10
84.74607609643502
 20
-123.9624592789052
 10
84.68682045408872
 20
-123.7867594091575
 10
84.40122203836151
 20
-123.7867594091575
 10
84.17694632227175
 20
-123.7867594091575
 10
84.07945012003917
 20
-123.9262857763101
 10
84.07945012003917
 20
-124.0620225384289
 97
        0
 97
        0
 75
     2
 76
     1
 98
        0
  0
ENDBLK
  5
69
330
66
100
AcDbEntity
  8
0
100
AcDbBlockEnd
  0
BLOCK
  5
7D
330
7B
100
AcDbEntity
  8
0
100
AcDbBlockBegin
  2
block 4
 70
     0
 10
0.0
 20
0.0
 30
0.0
  3
block 4
  1

  0
SPLINE
  5
7F
330
7B
100
AcDbEntity
  8
_U+30EC_U+30A4_U+30E4_U+30FC 1
370
     0
100
AcDbSpline
210
0.0
220
0.0
230
1.0
 70
    11
 71
     3
 72
    62
 73
    58
 74
     0
 42
0.0000000001
 43
0.0000000001
 12
1.0
 22
0.0
 32
0.0
 13
1.0
 23
0.0
 33
0.0
 40
0.0
 40
0.0
 40
0.0
 40
0.0
 40
1.0
 40
1.0
 40
1.0
 40
2.0
 40
2.0
 40
2.0
 40
3.0
 40
3.0
 40
3.0
 40
4.0
 40
4.0
 40
4.0
 40
5.0
 40
5.0
 40
5.0
 40
6.0
 40
6.0
 40
6.0
 40
7.0
 40
7.0
 40
7.0
 40
8.0
 40
8.0
 40
8.0
 40
9.0
 40
9.0
 40
9.0
 40
10.0
 40
10.0
 40
10.0
 40
11.0
 40
11.0
 40
11.0
 40
12.0
 40
12.0
 40
12.0
 40
13.0
 40
13.0
 40
13.0
 40
14.0
 40
14.0
 40
14.0
 40
15.0
 40
15.0
 40
15.0
 40
16.0
 40
16.0
 40
16.0
 40
17.0
 40
17.0
 40
17.0
 40
18.0
 40
18.0
 40
18.0
 40
19.0
 40
19.0
 40
19.0
 40
19.0
 10
94.51343856144109
 20
-117.7774793542362
 30
0.0
 10
94.41800941649967
 20
-117.7774793542362
 30
0.0
 10
94.20027938183188
 20
-117.7564642717762
 30
0.0
 10
94.0752224157173
 20
-117.5704291155727
 30
0.0
 10
94.00115286278444
 20
-117.4581190027535
 30
0.0
 10
93.99701874820214
 20
-117.3589002527783
 30
0.0
 10
93.99288463361984
 20
-117.2741509038412
 30
0.0
 10
93.99288463361984
 20
-117.2741509038412
 30
0.0
 10
94.2130262351273
 20
-117.2741509038412
 30
0.0
 10
94.2130262351273
 20
-117.2741509038412
 30
0.0
 10
94.21509329241846
 20
-117.3482204567741
 30
0.0
 10
94.2254285788742
 20
-117.5828314593196
 30
0.0
 10
94.50895993731027
 20
-117.5828314593196
 30
0.0
 10
94.64641924717174
 20
-117.5828314593196
 30
0.0
 10
94.7990369771683
 20
-117.5132405305175
 30
0.0
 10
94.7990369771683
 20
-117.2848306998455
 30
0.0
 10
94.7990369771683
 20
-117.168386472444
 30
0.0
 10
94.76079641728202
 20
-117.119810626102
 30
0.0
 10
94.72910153881773
 20
-117.0881157476377
 30
0.0
 10
94.65503198588486
 20
-117.0140461947048
 30
0.0
 10
94.53858775848342
 20
-117.0012993414094
 30
0.0
 10
94.48381074026794
 20
-117.0012993414094
 30
0.0
 10
94.46451820555055
 20
-117.0012993414094
 30
0.0
 10
94.42868921250394
 20
-117.0033663987005
 30
0.0
 10
94.40112844862195
 20
-117.0075005132828
 30
0.0
 10
94.40112844862195
 20
-117.0075005132828
 30
0.0
 10
94.40112844862195
 20
-116.8128526183662
 30
0.0
 10
94.40112844862195
 20
-116.8128526183662
 30
0.0
 10
94.43936900850822
 20
-116.8193982997882
 30
0.0
 10
94.48139917342827
 20
-116.8214653570794
 30
0.0
 10
94.48794485485024
 20
-116.8214653570794
 30
0.0
 10
94.55340166906998
 20
-116.8214653570794
 30
0.0
 10
94.7521836785689
 20
-116.8001057650708
 30
0.0
 10
94.7521836785689
 20
-116.5634277052341
 30
0.0
 10
94.7521836785689
 20
-116.3856607781953
 30
0.0
 10
94.62127005012941
 20
-116.3305392504313
 30
0.0
 10
94.51102699460141
 20
-116.3305392504313
 30
0.0
 10
94.24678817088275
 20
-116.3305392504313
 30
0.0
 10
94.23817543216963
 20
-116.5634277052341
 30
0.0
 10
94.23404131758733
 20
-116.6350856913273
 30
0.0
 10
94.23404131758733
 20
-116.6350856913273
 30
0.0
 10
94.03078068395759
 20
-116.6350856913273
 30
0.0
 10
94.03078068395759
 20
-116.6350856913273
 30
0.0
 10
94.03939342267071
 20
-116.5103732347613
 30
0.0
 10
94.0669541865527
 20
-116.1338242982235
 30
0.0
 10
94.52377384789683
 20
-116.1338242982235
 30
0.0
 10
94.7480495639866
 20
-116.1338242982235
 30
0.0
 10
94.98920624795409
 20
-116.2609483216292
 30
0.0
 10
94.98920624795409
 20
-116.5568820238122
 30
0.0
 10
94.98920624795409
 20
-116.7432616895642
 30
0.0
 10
94.8941216125612
 20
-116.8255994716617
 30
0.0
 10
94.79455835303747
 20
-116.8869221712991
 30
0.0
 10
94.85588105267492
 20
-116.9144829351811
 30
0.0
 10
95.03778209429612
 20
-116.9947536599874
 30
0.0
 10
95.03778209429612
 20
-117.27208384655
 30
0.0
 10
95.03778209429612
 20
-117.6103922232016
 30
0.0
 10
94.79042423845517
 20
-117.7774793542362
 30
0.0
 10
94.51343856144109
 20
-117.7774793542362
 30
0.0
  0
HATCH
  5
80
330
7B
100
AcDbEntity
  8
_U+30EC_U+30A4_U+30E4_U+30FC 1
 62
     7
420
 16777215
100
AcDbHatch
 10
0.0
 20
0.0
 30
0.0
210
0.0
220
0.0
230
1.0
  2
SOLID
 70
     1
 71
     0
 91
        1
 92
        1
 93
        1
 72
     4
 94
        3
 73
     0
 74
     1
 95
       62
 96
       58
 40
0.0
 40
0.0
 40
0.0
 40
0.0
 40
1.0
 40
1.0
 40
1.0
 40
2.0
 40
2.0
 40
2.0
 40
3.0
 40
3.0
 40
3.0
 40
4.0
 40
4.0
 40
4.0
 40
5.0
 40
5.0
 40
5.0
 40
6.0
 40
6.0
 40
6.0
 40
7.0
 40
7.0
 40
7.0
 40
8.0
 40
8.0
 40
8.0
 40
9.0
 40
9.0
 40
9.0
 40
10.0
 40
10.0
 40
10.0
 40
11.0
 40
11.0
 40
11.0
 40
12.0
 40
12.0
 40
12.0
 40
13.0
 40
13.0
 40
13.0
 40
14.0
 40
14.0
 40
14.0
 40
15.0
 40
15.0
 40
15.0
 40
16.0
 40
16.0
 40
16.0
 40
17.0
 40
17.0
 40
17.0
 40
18.0
 40
18.0
 40
18.0
 40
19.0
 40
19.0
 40
19.0
 40
19.0
 10
94.51343856144109
 20
-117.7774793542362
 10
94.41800941649967
 20
-117.7774793542362
 10
94.20027938183188
 20
-117.7564642717762
 10
94.0752224157173
 20
-117.5704291155727
 10
94.00115286278444
 20
-117.4581190027535
 10
93.99701874820214
 20
-117.3589002527783
 10
93.99288463361984
 20
-117.2741509038412
 10
93.99288463361984
 20
-117.2741509038412
 10
94.2130262351273
 20
-117.2741509038412
 10
94.2130262351273
 20
-117.2741509038412
 10
94.21509329241846
 20
-117.3482204567741
 10
94.2254285788742
 20
-117.5828314593196
 10
94.50895993731027
 20
-117.5828314593196
 10
94.64641924717174
 20
-117.5828314593196
 10
94.7990369771683
 20
-117.5132405305175
 10
94.7990369771683
 20
-117.2848306998455
 10
94.7990369771683
 20
-117.168386472444
 10
94.76079641728202
 20
-117.119810626102
 10
94.72910153881773
 20
-117.0881157476377
 10
94.65503198588486
 20
-117.0140461947048
 10
94.53858775848342
 20
-117.0012993414094
 10
94.48381074026794
 20
-117.0012993414094
 10
94.46451820555055
 20
-117.0012993414094
 10
94.42868921250394
 20
-117.0033663987005
 10
94.40112844862195
 20
-117.0075005132828
 10
94.40112844862195
 20
-117.0075005132828
 10
94.40112844862195
 20
-116.8128526183662
 10
94.40112844862195
 20
-116.8128526183662
 10
94.43936900850822
 20
-116.8193982997882
 10
94.48139917342827
 20
-116.8214653570794
 10
94.48794485485024
 20
-116.8214653570794
 10
94.55340166906998
 20
-116.8214653570794
 10
94.7521836785689
 20
-116.8001057650708
 10
94.7521836785689
 20
-116.5634277052341
 10
94.7521836785689
 20
-116.3856607781953
 10
94.62127005012941
 20
-116.3305392504313
 10
94.51102699460141
 20
-116.3305392504313
 10
94.24678817088275
 20
-116.3305392504313
 10
94.23817543216963
 20
-116.5634277052341
 10
94.23404131758733
 20
-116.6350856913273
 10
94.23404131758733
 20
-116.6350856913273
 10
94.03078068395759
 20
-116.6350856913273
 10
94.03078068395759
 20
-116.6350856913273
 10
94.03939342267071
 20
-116.5103732347613
 10
94.0669541865527
 20
-116.1338242982235
 10
94.52377384789683
 20
-116.1338242982235
 10
94.7480495639866
 20
-116.1338242982235
 10
94.98920624795409
 20
-116.2609483216292
 10
94.98920624795409
 20
-116.5568820238122
 10
94.98920624795409
 20
-116.7432616895642
 10
94.8941216125612
 20
-116.8255994716617
 10
94.79455835303747
 20
-116.8869221712991
 10
94.85588105267492
 20
-116.9144829351811
 10
95.03778209429612
 20
-116.9947536599874
 10
95.03778209429612
 20
-117.27208384655
 10
95.03778209429612
 20
-117.6103922232016
 10
94.79042423845517
 20
-117.7774793542362
 10
94.51343856144109
 20
-117.7774793542362
 97
        0
 97
        0
 75
     2
 76
     1
 98
        0
  0
ENDBLK
  5
7E
330
7B
100
AcDbEntity
  8
0
100
AcDbBlockEnd
  0
BLOCK
  5
8C
330
8A
100
AcDbEntity
  8
0
100
AcDbBlockBegin
  2
block 5
 70
     0
 10
0.0
 20
0.0
 30
0.0
  3
block 5
  1

  0
SPLINE
  5
8E
330
8A
100
AcDbEntity
  8
_U+30EC_U+30A4_U+30E4_U+30FC 1
370
     0
100
AcDbSpline
210
0.0
220
0.0
230
1.0
 70
    11
 71
     3
 72
    62
 73
    58
 74
     0
 42
0.0000000001
 43
0.0000000001
 12
1.0
 22
0.0
 32
0.0
 13
1.0
 23
0.0
 33
0.0
 40
0.0
 40
0.0
 40
0.0
 40
0.0
 40
1.0
 40
1.0
 40
1.0
 40
2.0
 40
2.0
 40
2.0
 40
3.0
 40
3.0
 40
3.0
 40
4.0
 40
4.0
 40
4.0
 40
5.0
 40
5.0
 40
5.0
 40
6.0
 40
6.0
 40
6.0
 40
7.0
 40
7.0
 40
7.0
 40
8.0
 40
8.0
 40
8.0
 40
9.0
 40
9.0
 40
9.0
 40
10.0
 40
10.0
 40
10.0
 40
11.0
 40
11.0
 40
11.0
 40
12.0
 40
12.0
 40
12.0
 40
13.0
 40
13.0
 40
13.0
 40
14.0
 40
14.0
 40
14.0
 40
15.0
 40
15.0
 40
15.0
 40
16.0
 40
16.0
 40
16.0
 40
17.0
 40
17.0
 40
17.0
 40
18.0
 40
18.0
 40
18.0
 40
19.0
 40
19.0
 40
19.0
 40
19.0
 10
91.51344941288554
 20
-117.7774793542362
 30
0.0
 10
91.41802026794412
 20
-117.7774793542362
 30
0.0
 10
91.20029023327632
 20
-117.7564642717762
 30
0.0
 10
91.07523326716175
 20
-117.5704291155727
 30
0.0
 10
91.00116371422888
 20
-117.4581190027535
 30
0.0
 10
90.99702959964658
 20
-117.3589002527783
 30
0.0
 10
90.99289548506428
 20
-117.2741509038412
 30
0.0
 10
90.99289548506428
 20
-117.2741509038412
 30
0.0
 10
91.21303708657175
 20
-117.2741509038412
 30
0.0
 10
91.21303708657175
 20
-117.2741509038412
 30
0.0
 10
91.21510414386289
 20
-117.3482204567741
 30
0.0
 10
91.22543943031864
 20
-117.5828314593196
 30
0.0
 10
91.50897078875471
 20
-117.5828314593196
 30
0.0
 10
91.64643009861618
 20
-117.5828314593196
 30
0.0
 10
91.79904782861274
 20
-117.5132405305175
 30
0.0
 10
91.79904782861274
 20
-117.2848306998455
 30
0.0
 10
91.79904782861274
 20
-117.168386472444
 30
0.0
 10
91.76080726872647
 20
-117.119810626102
 30
0.0
 10
91.72911239026217
 20
-117.0881157476377
 30
0.0
 10
91.6550428373293
 20
-117.0140461947048
 30
0.0
 10
91.53859860992786
 20
-117.0012993414094
 30
0.0
 10
91.48382159171238
 20
-117.0012993414094
 30
0.0
 10
91.46452905699498
 20
-117.0012993414094
 30
0.0
 10
91.42870006394838
 20
-117.0033663987005
 30
0.0
 10
91.40113930006639
 20
-117.0075005132828
 30
0.0
 10
91.40113930006639
 20
-117.0075005132828
 30
0.0
 10
91.40113930006639
 20
-116.8128526183662
 30
0.0
 10
91.40113930006639
 20
-116.8128526183662
 30
0.0
 10
91.43937985995267
 20
-116.8193982997882
 30
0.0
 10
91.4814100248727
 20
-116.8214653570794
 30
0.0
 10
91.48795570629468
 20
-116.8214653570794
 30
0.0
 10
91.55341252051443
 20
-116.8214653570794
 30
0.0
 10
91.75219453001334
 20
-116.8001057650708
 30
0.0
 10
91.75219453001334
 20
-116.5634277052341
 30
0.0
 10
91.75219453001334
 20
-116.3856607781953
 30
0.0
 10
91.62128090157385
 20
-116.3305392504313
 30
0.0
 10
91.51103784604585
 20
-116.3305392504313
 30
0.0
 10
91.2467990223272
 20
-116.3305392504313
 30
0.0
 10
91.23818628361407
 20
-116.5634277052341
 30
0.0
 10
91.23405216903177
 20
-116.6350856913273
 30
0.0
 10
91.23405216903177
 20
-116.6350856913273
 30
0.0
 10
91.03079153540203
 20
-116.6350856913273
 30
0.0
 10
91.03079153540203
 20
-116.6350856913273
 30
0.0
 10
91.03940427411516
 20
-116.5103732347613
 30
0.0
 10
91.06696503799715
 20
-116.1338242982235
 30
0.0
 10
91.52378469934128
 20
-116.1338242982235
 30
0.0
 10
91.74806041543104
 20
-116.1338242982235
 30
0.0
 10
91.98921709939853
 20
-116.2609483216292
 30
0.0
 10
91.98921709939853
 20
-116.5568820238122
 30
0.0
 10
91.98921709939853
 20
-116.7432616895642
 30
0.0
 10
91.89413246400564
 20
-116.8255994716617
 30
0.0
 10
91.79456920448192
 20
-116.8869221712991
 30
0.0
 10
91.85589190411936
 20
-116.9144829351811
 30
0.0
 10
92.03779294574056
 20
-116.9947536599874
 30
0.0
 10
92.03779294574056
 20
-117.27208384655
 30
0.0
 10
92.03779294574056
 20
-117.6103922232016
 30
0.0
 10
91.79043508989962
 20
-117.7774793542362
 30
0.0
 10
91.51344941288554
 20
-117.7774793542362
 30
0.0
  0
HATCH
  5
8F
330
8A
100
AcDbEntity
  8
_U+30EC_U+30A4_U+30E4_U+30FC 1
 62
     7
420
 16777215
100
AcDbHatch
 10
0.0
 20
0.0
 30
0.0
210
0.0
220
0.0
230
1.0
  2
SOLID
 70
     1
 71
     0
 91
        1
 92
        1
 93
        1
 72
     4
 94
        3
 73
     0
 74
     1
 95
       62
 96
       58
 40
0.0
 40
0.0
 40
0.0
 40
0.0
 40
1.0
 40
1.0
 40
1.0
 40
2.0
 40
2.0
 40
2.0
 40
3.0
 40
3.0
 40
3.0
 40
4.0
 40
4.0
 40
4.0
 40
5.0
 40
5.0
 40
5.0
 40
6.0
 40
6.0
 40
6.0
 40
7.0
 40
7.0
 40
7.0
 40
8.0
 40
8.0
 40
8.0
 40
9.0
 40
9.0
 40
9.0
 40
10.0
 40
10.0
 40
10.0
 40
11.0
 40
11.0
 40
11.0
 40
12.0
 40
12.0
 40
12.0
 40
13.0
 40
13.0
 40
13.0
 40
14.0
 40
14.0
 40
14.0
 40
15.0
 40
15.0
 40
15.0
 40
16.0
 40
16.0
 40
16.0
 40
17.0
 40
17.0
 40
17.0
 40
18.0
 40
18.0
 40
18.0
 40
19.0
 40
19.0
 40
19.0
 40
19.0
 10
91.51344941288554
 20
-117.7774793542362
 10
91.41802026794412
 20
-117.7774793542362
 10
91.20029023327632
 20
-117.7564642717762
 10
91.07523326716175
 20
-117.5704291155727
 10
91.00116371422888
 20
-117.4581190027535
 10
90.99702959964658
 20
-117.3589002527783
 10
90.99289548506428
 20
-117.2741509038412
 10
90.99289548506428
 20
-117.2741509038412
 10
91.21303708657175
 20
-117.2741509038412
 10
91.21303708657175
 20
-117.2741509038412
 10
91.21510414386289
 20
-117.3482204567741
 10
91.22543943031864
 20
-117.5828314593196
 10
91.50897078875471
 20
-117.5828314593196
 10
91.64643009861618
 20
-117.5828314593196
 10
91.79904782861274
 20
-117.5132405305175
 10
91.79904782861274
 20
-117.2848306998455
 10
91.79904782861274
 20
-117.168386472444
 10
91.76080726872647
 20
-117.119810626102
 10
91.72911239026217
 20
-117.0881157476377
 10
91.6550428373293
 20
-117.0140461947048
 10
91.53859860992786
 20
-117.0012993414094
 10
91.48382159171238
 20
-117.0012993414094
 10
91.46452905699498
 20
-117.0012993414094
 10
91.42870006394838
 20
-117.0033663987005
 10
91.40113930006639
 20
-117.0075005132828
 10
91.40113930006639
 20
-117.0075005132828
 10
91.40113930006639
 20
-116.8128526183662
 10
91.40113930006639
 20
-116.8128526183662
 10
91.43937985995267
 20
-116.8193982997882
 10
91.4814100248727
 20
-116.8214653570794
 10
91.48795570629468
 20
-116.8214653570794
 10
91.55341252051443
 20
-116.8214653570794
 10
91.75219453001334
 20
-116.8001057650708
 10
91.75219453001334
 20
-116.5634277052341
 10
91.75219453001334
 20
-116.3856607781953
 10
91.62128090157385
 20
-116.3305392504313
 10
91.51103784604585
 20
-116.3305392504313
 10
91.2467990223272
 20
-116.3305392504313
 10
91.23818628361407
 20
-116.5634277052341
 10
91.23405216903177
 20
-116.6350856913273
 10
91.23405216903177
 20
-116.6350856913273
 10
91.03079153540203
 20
-116.6350856913273
 10
91.03079153540203
 20
-116.6350856913273
 10
91.03940427411516
 20
-116.5103732347613
 10
91.06696503799715
 20
-116.1338242982235
 10
91.52378469934128
 20
-116.1338242982235
 10
91.74806041543104
 20
-116.1338242982235
 10
91.98921709939853
 20
-116.2609483216292
 10
91.98921709939853
 20
-116.5568820238122
 10
91.98921709939853
 20
-116.7432616895642
 10
91.89413246400564
 20
-116.8255994716617
 10
91.79456920448192
 20
-116.8869221712991
 10
91.85589190411936
 20
-116.9144829351811
 10
92.03779294574056
 20
-116.9947536599874
 10
92.03779294574056
 20
-117.27208384655
 10
92.03779294574056
 20
-117.6103922232016
 10
91.79043508989962
 20
-117.7774793542362
 10
91.51344941288554
 20
-117.7774793542362
 97
        0
 97
        0
 75
     2
 76
     1
 98
        0
  0
ENDBLK
  5
8D
330
8A
100
AcDbEntity
  8
0
100
AcDbBlockEnd
  0
BLOCK
  5
9B
330
99
100
AcDbEntity
  8
0
100
AcDbBlockBegin
  2
block 6
 70
     0
 10
0.0
 20
0.0
 30
0.0
  3
block 6
  1

  0
SPLINE
  5
9D
330
99
100
AcDbEntity
  8
_U+30EC_U+30A4_U+30E4_U+30FC 1
370
     0
100
AcDbSpline
210
0.0
220
0.0
230
1.0
 70
    11
 71
     3
 72
    62
 73
    58
 74
     0
 42
0.0000000001
 43
0.0000000001
 12
1.0
 22
0.0
 32
0.0
 13
1.0
 23
0.0
 33
0.0
 40
0.0
 40
0.0
 40
0.0
 40
0.0
 40
1.0
 40
1.0
 40
1.0
 40
2.0
 40
2.0
 40
2.0
 40
3.0
 40
3.0
 40
3.0
 40
4.0
 40
4.0
 40
4.0
 40
5.0
 40
5.0
 40
5.0
 40
6.0
 40
6.0
 40
6.0
 40
7.0
 40
7.0
 40
7.0
 40
8.0
 40
8.0
 40
8.0
 40
9.0
 40
9.0
 40
9.0
 40
10.0
 40
10.0
 40
10.0
 40
11.0
 40
11.0
 40
11.0
 40
12.0
 40
12.0
 40
12.0
 40
13.0
 40
13.0
 40
13.0
 40
14.0
 40
14.0
 40
14.0
 40
15.0
 40
15.0
 40
15.0
 40
16.0
 40
16.0
 40
16.0
 40
17.0
 40
17.0
 40
17.0
 40
18.0
 40
18.0
 40
18.0
 40
19.0
 40
19.0
 40
19.0
 40
19.0
 10
88.51346026432998
 20
-117.7774793542362
 30
0.0
 10
88.41803111938856
 20
-117.7774793542362
 30
0.0
 10
88.20030108472076
 20
-117.7564642717762
 30
0.0
 10
88.0752441186062
 20
-117.5704291155727
 30
0.0
 10
88.00117456567332
 20
-117.4581190027535
 30
0.0
 10
87.99704045109102
 20
-117.3589002527783
 30
0.0
 10
87.99290633650872
 20
-117.2741509038412
 30
0.0
 10
87.99290633650872
 20
-117.2741509038412
 30
0.0
 10
88.21304793801619
 20
-117.2741509038412
 30
0.0
 10
88.21304793801619
 20
-117.2741509038412
 30
0.0
 10
88.21511499530733
 20
-117.3482204567741
 30
0.0
 10
88.22545028176309
 20
-117.5828314593196
 30
0.0
 10
88.50898164019915
 20
-117.5828314593196
 30
0.0
 10
88.64644095006062
 20
-117.5828314593196
 30
0.0
 10
88.79905868005719
 20
-117.5132405305175
 30
0.0
 10
88.79905868005719
 20
-117.2848306998455
 30
0.0
 10
88.79905868005719
 20
-117.168386472444
 30
0.0
 10
88.76081812017091
 20
-117.119810626102
 30
0.0
 10
88.72912324170662
 20
-117.0881157476377
 30
0.0
 10
88.65505368877373
 20
-117.0140461947048
 30
0.0
 10
88.5386094613723
 20
-117.0012993414094
 30
0.0
 10
88.48383244315683
 20
-117.0012993414094
 30
0.0
 10
88.46453990843942
 20
-117.0012993414094
 30
0.0
 10
88.42871091539283
 20
-117.0033663987005
 30
0.0
 10
88.40115015151083
 20
-117.0075005132828
 30
0.0
 10
88.40115015151083
 20
-117.0075005132828
 30
0.0
 10
88.40115015151083
 20
-116.8128526183662
 30
0.0
 10
88.40115015151083
 20
-116.8128526183662
 30
0.0
 10
88.4393907113971
 20
-116.8193982997882
 30
0.0
 10
88.48142087631715
 20
-116.8214653570794
 30
0.0
 10
88.48796655773913
 20
-116.8214653570794
 30
0.0
 10
88.55342337195887
 20
-116.8214653570794
 30
0.0
 10
88.75220538145778
 20
-116.8001057650708
 30
0.0
 10
88.75220538145778
 20
-116.5634277052341
 30
0.0
 10
88.75220538145778
 20
-116.3856607781953
 30
0.0
 10
88.6212917530183
 20
-116.3305392504313
 30
0.0
 10
88.5110486974903
 20
-116.3305392504313
 30
0.0
 10
88.24680987377164
 20
-116.3305392504313
 30
0.0
 10
88.23819713505851
 20
-116.5634277052341
 30
0.0
 10
88.23406302047621
 20
-116.6350856913273
 30
0.0
 10
88.23406302047621
 20
-116.6350856913273
 30
0.0
 10
88.03080238684647
 20
-116.6350856913273
 30
0.0
 10
88.03080238684647
 20
-116.6350856913273
 30
0.0
 10
88.0394151255596
 20
-116.5103732347613
 30
0.0
 10
88.0669758894416
 20
-116.1338242982235
 30
0.0
 10
88.52379555078572
 20
-116.1338242982235
 30
0.0
 10
88.74807126687548
 20
-116.1338242982235
 30
0.0
 10
88.98922795084297
 20
-116.2609483216292
 30
0.0
 10
88.98922795084297
 20
-116.5568820238122
 30
0.0
 10
88.98922795084297
 20
-116.7432616895642
 30
0.0
 10
88.89414331545008
 20
-116.8255994716617
 30
0.0
 10
88.79458005592636
 20
-116.8869221712991
 30
0.0
 10
88.8559027555638
 20
-116.9144829351811
 30
0.0
 10
89.03780379718499
 20
-116.9947536599874
 30
0.0
 10
89.03780379718499
 20
-117.27208384655
 30
0.0
 10
89.03780379718499
 20
-117.6103922232016
 30
0.0
 10
88.79044594134406
 20
-117.7774793542362
 30
0.0
 10
88.51346026432998
 20
-117.7774793542362
 30
0.0
  0
HATCH
  5
9E
330
99
100
AcDbEntity
  8
_U+30EC_U+30A4_U+30E4_U+30FC 1
 62
     7
420
 16777215
100
AcDbHatch
 10
0.0
 20
0.0
 30
0.0
210
0.0
220
0.0
230
1.0
  2
SOLID
 70
     1
 71
     0
 91
        1
 92
        1
 93
        1
 72
     4
 94
        3
 73
     0
 74
     1
 95
       62
 96
       58
 40
0.0
 40
0.0
 40
0.0
 40
0.0
 40
1.0
 40
1.0
 40
1.0
 40
2.0
 40
2.0
 40
2.0
 40
3.0
 40
3.0
 40
3.0
 40
4.0
 40
4.0
 40
4.0
 40
5.0
 40
5.0
 40
5.0
 40
6.0
 40
6.0
 40
6.0
 40
7.0
 40
7.0
 40
7.0
 40
8.0
 40
8.0
 40
8.0
 40
9.0
 40
9.0
 40
9.0
 40
10.0
 40
10.0
 40
10.0
 40
11.0
 40
11.0
 40
11.0
 40
12.0
 40
12.0
 40
12.0
 40
13.0
 40
13.0
 40
13.0
 40
14.0
 40
14.0
 40
14.0
 40
15.0
 40
15.0
 40
15.0
 40
16.0
 40
16.0
 40
16.0
 40
17.0
 40
17.0
 40
17.0
 40
18.0
 40
18.0
 40
18.0
 40
19.0
 40
19.0
 40
19.0
 40
19.0
 10
88.51346026432998
 20
-117.7774793542362
 10
88.41803111938856
 20
-117.7774793542362
 10
88.20030108472076
 20
-117.7564642717762
 10
88.0752441186062
 20
-117.5704291155727
 10
88.00117456567332
 20
-117.4581190027535
 10
87.99704045109102
 20
-117.3589002527783
 10
87.99290633650872
 20
-117.2741509038412
 10
87.99290633650872
 20
-117.2741509038412
 10
88.21304793801619
 20
-117.2741509038412
 10
88.21304793801619
 20
-117.2741509038412
 10
88.21511499530733
 20
-117.3482204567741
 10
88.22545028176309
 20
-117.5828314593196
 10
88.50898164019915
 20
-117.5828314593196
 10
88.64644095006062
 20
-117.5828314593196
 10
88.79905868005719
 20
-117.5132405305175
 10
88.79905868005719
 20
-117.2848306998455
 10
88.79905868005719
 20
-117.168386472444
 10
88.76081812017091
 20
-117.119810626102
 10
88.72912324170662
 20
-117.0881157476377
 10
88.65505368877373
 20
-117.0140461947048
 10
88.5386094613723
 20
-117.0012993414094
 10
88.48383244315683
 20
-117.0012993414094
 10
88.46453990843942
 20
-117.0012993414094
 10
88.42871091539283
 20
-117.0033663987005
 10
88.40115015151083
 20
-117.0075005132828
 10
88.40115015151083
 20
-117.0075005132828
 10
88.40115015151083
 20
-116.8128526183662
 10
88.40115015151083
 20
-116.8128526183662
 10
88.4393907113971
 20
-116.8193982997882
 10
88.48142087631715
 20
-116.8214653570794
 10
88.48796655773913
 20
-116.8214653570794
 10
88.55342337195887
 20
-116.8214653570794
 10
88.75220538145778
 20
-116.8001057650708
 10
88.75220538145778
 20
-116.5634277052341
 10
88.75220538145778
 20
-116.3856607781953
 10
88.6212917530183
 20
-116.3305392504313
 10
88.5110486974903
 20
-116.3305392504313
 10
88.24680987377164
 20
-116.3305392504313
 10
88.23819713505851
 20
-116.5634277052341
 10
88.23406302047621
 20
-116.6350856913273
 10
88.23406302047621
 20
-116.6350856913273
 10
88.03080238684647
 20
-116.6350856913273
 10
88.03080238684647
 20
-116.6350856913273
 10
88.0394151255596
 20
-116.5103732347613
 10
88.0669758894416
 20
-116.1338242982235
 10
88.52379555078572
 20
-116.1338242982235
 10
88.74807126687548
 20
-116.1338242982235
 10
88.98922795084297
 20
-116.2609483216292
 10
88.98922795084297
 20
-116.5568820238122
 10
88.98922795084297
 20
-116.7432616895642
 10
88.89414331545008
 20
-116.8255994716617
 10
88.79458005592636
 20
-116.8869221712991
 10
88.8559027555638
 20
-116.9144829351811
 10
89.03780379718499
 20
-116.9947536599874
 10
89.03780379718499
 20
-117.27208384655
 10
89.03780379718499
 20
-117.6103922232016
 10
88.79044594134406
 20
-117.7774793542362
 10
88.51346026432998
 20
-117.7774793542362
 97
        0
 97
        0
 75
     2
 76
     1
 98
        0
  0
ENDBLK
  5
9C
330
99
100
AcDbEntity
  8
0
100
AcDbBlockEnd
  0
BLOCK
  5
AE
330
AC
100
AcDbEntity
  8
0
100
AcDbBlockBegin
  2
block 7
 70
     0
 10
0.0
 20
0.0
 30
0.0
  3
block 7
  1

  0
SPLINE
  5
B0
330
AC
100
AcDbEntity
  8
_U+30EC_U+30A4_U+30E4_U+30FC 1
370
     0
100
AcDbSpline
210
0.0
220
0.0
230
1.0
 70
    11
 71
     3
 72
    26
 73
    22
 74
     0
 42
0.0000000001
 43
0.0000000001
 12
1.0
 22
0.0
 32
0.0
 13
1.0
 23
0.0
 33
0.0
 40
0.0
 40
0.0
 40
0.0
 40
0.0
 40
1.0
 40
1.0
 40
1.0
 40
2.0
 40
2.0
 40
2.0
 40
3.0
 40
3.0
 40
3.0
 40
4.0
 40
4.0
 40
4.0
 40
5.0
 40
5.0
 40
5.0
 40
6.0
 40
6.0
 40
6.0
 40
7.0
 40
7.0
 40
7.0
 40
7.0
 10
97.21783851736221
 20
-140.6773735542404
 30
0.0
 10
97.21783851736221
 20
-140.6773735542404
 30
0.0
 10
97.21783851736221
 20
-139.5732204512178
 30
0.0
 10
97.21783851736221
 20
-139.5732204512178
 30
0.0
 10
97.21783851736221
 20
-139.5732204512178
 30
0.0
 10
96.88779836987527
 20
-139.5732204512178
 30
0.0
 10
96.88779836987527
 20
-139.5732204512178
 30
0.0
 10
96.88779836987527
 20
-139.5732204512178
 30
0.0
 10
96.88779836987527
 20
-139.4250813453521
 30
0.0
 10
96.88779836987527
 20
-139.4250813453521
 30
0.0
 10
97.21990557465337
 20
-139.4102674347655
 30
0.0
 10
97.26675887325275
 20
-139.2473144183132
 30
0.0
 10
97.2963866944259
 20
-139.1329372482029
 30
0.0
 10
97.2963866944259
 20
-139.1329372482029
 30
0.0
 10
97.4424587430005
 20
-139.1329372482029
 30
0.0
 10
97.4424587430005
 20
-139.1329372482029
 30
0.0
 10
97.4424587430005
 20
-139.1329372482029
 30
0.0
 10
97.4424587430005
 20
-140.6773735542404
 30
0.0
 10
97.4424587430005
 20
-140.6773735542404
 30
0.0
 10
97.4424587430005
 20
-140.6773735542404
 30
0.0
 10
97.21783851736221
 20
-140.6773735542404
 30
0.0
 10
97.21783851736221
 20
-140.6773735542404
 30
0.0
  0
HATCH
  5
B1
330
AC
100
AcDbEntity
  8
_U+30EC_U+30A4_U+30E4_U+30FC 1
 62
     7
420
 16777215
100
AcDbHatch
 10
0.0
 20
0.0
 30
0.0
210
0.0
220
0.0
230
1.0
  2
SOLID
 70
     1
 71
     0
 91
        1
 92
        1
 93
        1
 72
     4
 94
        3
 73
     0
 74
     1
 95
       26
 96
       22
 40
0.0
 40
0.0
 40
0.0
 40
0.0
 40
1.0
 40
1.0
 40
1.0
 40
2.0
 40
2.0
 40
2.0
 40
3.0
 40
3.0
 40
3.0
 40
4.0
 40
4.0
 40
4.0
 40
5.0
 40
5.0
 40
5.0
 40
6.0
 40
6.0
 40
6.0
 40
7.0
 40
7.0
 40
7.0
 40
7.0
 10
97.21783851736221
 20
-140.6773735542404
 10
97.21783851736221
 20
-140.6773735542404
 10
97.21783851736221
 20
-139.5732204512178
 10
97.21783851736221
 20
-139.5732204512178
 10
97.21783851736221
 20
-139.5732204512178
 10
96.88779836987527
 20
-139.5732204512178
 10
96.88779836987527
 20
-139.5732204512178
 10
96.88779836987527
 20
-139.5732204512178
 10
96.88779836987527
 20
-139.4250813453521
 10
96.88779836987527
 20
-139.4250813453521
 10
97.21990557465337
 20
-139.4102674347655
 10
97.26675887325275
 20
-139.2473144183132
 10
97.2963866944259
 20
-139.1329372482029
 10
97.2963866944259
 20
-139.1329372482029
 10
97.4424587430005
 20
-139.1329372482029
 10
97.4424587430005
 20
-139.1329372482029
 10
97.4424587430005
 20
-139.1329372482029
 10
97.4424587430005
 20
-140.6773735542404
 10
97.4424587430005
 20
-140.6773735542404
 10
97.4424587430005
 20
-140.6773735542404
 10
97.21783851736221
 20
-140.6773735542404
 10
97.21783851736221
 20
-140.6773735542404
 97
        0
 97
        0
 75
     2
 76
     1
 98
        0
  0
SPLINE
  5
B2
330
AC
100
AcDbEntity
  8
_U+30EC_U+30A4_U+30E4_U+30FC 1
370
     0
100
AcDbSpline
210
0.0
220
0.0
230
1.0
 70
    11
 71
     3
 72
    29
 73
    25
 74
     0
 42
0.0000000001
 43
0.0000000001
 12
1.0
 22
0.0
 32
0.0
 13
1.0
 23
0.0
 33
0.0
 40
0.0
 40
0.0
 40
0.0
 40
0.0
 40
1.0
 40
1.0
 40
1.0
 40
2.0
 40
2.0
 40
2.0
 40
3.0
 40
3.0
 40
3.0
 40
4.0
 40
4.0
 40
4.0
 40
5.0
 40
5.0
 40
5.0
 40
6.0
 40
6.0
 40
6.0
 40
7.0
 40
7.0
 40
7.0
 40
8.0
 40
8.0
 40
8.0
 40
8.0
 10
98.84116751001193
 20
-140.4996066272015
 30
0.0
 10
98.73299151177508
 20
-140.7090684327047
 30
0.0
 10
98.56004771841555
 20
-140.7280164578736
 30
0.0
 10
98.4436034910141
 20
-140.7280164578736
 30
0.0
 10
98.28237302230441
 20
-140.7280164578736
 30
0.0
 10
98.14112410740917
 20
-140.6815076688227
 30
0.0
 10
98.04603947201628
 20
-140.4996066272015
 30
0.0
 10
97.94199758836173
 20
-140.3049587322849
 30
0.0
 10
97.92339407274137
 20
-140.0682806724482
 30
0.0
 10
97.92339407274137
 20
-139.9053276559959
 30
0.0
 10
97.92339407274137
 20
-139.7613226647125
 30
0.0
 10
97.93993053107057
 20
-139.5094861847407
 30
0.0
 10
98.04603947201628
 20
-139.3107041752418
 30
0.0
 10
98.15352645115607
 20
-139.1077880511606
 30
0.0
 10
98.31475691986576
 20
-139.0843614018609
 30
0.0
 10
98.4436034910141
 20
-139.0843614018609
 30
0.0
 10
98.6020778833356
 20
-139.0843614018609
 30
0.0
 10
98.74608287461903
 20
-139.1288031336206
 30
0.0
 10
98.84116751001193
 20
-139.3107041752418
 30
0.0
 10
98.94038625998714
 20
-139.5032850128673
 30
0.0
 10
98.96381290928683
 20
-139.7316948435393
 30
0.0
 10
98.96381290928683
 20
-139.9053276559959
 30
0.0
 10
98.96381290928683
 20
-140.0765489016128
 30
0.0
 10
98.94245331727828
 20
-140.307025789576
 30
0.0
 10
98.84116751001193
 20
-140.4996066272015
 30
0.0
  0
SPLINE
  5
B3
330
AC
100
AcDbEntity
  8
_U+30EC_U+30A4_U+30E4_U+30FC 1
370
     0
100
AcDbSpline
210
0.0
220
0.0
230
1.0
 70
    11
 71
     3
 72
    17
 73
    13
 74
     0
 42
0.0000000001
 43
0.0000000001
 12
1.0
 22
0.0
 32
0.0
 13
1.0
 23
0.0
 33
0.0
 40
0.0
 40
0.0
 40
0.0
 40
0.0
 40
1.0
 40
1.0
 40
1.0
 40
2.0
 40
2.0
 40
2.0
 40
3.0
 40
3.0
 40
3.0
 40
4.0
 40
4.0
 40
4.0
 40
4.0
 10
98.4436034910141
 20
-139.2769422394863
 30
0.0
 10
98.19417857788201
 20
-139.2769422394863
 30
0.0
 10
98.14732527928261
 20
-139.5604735979224
 30
0.0
 10
98.14732527928261
 20
-139.9053276559959
 30
0.0
 10
98.14732527928261
 20
-140.2246880074786
 30
0.0
 10
98.18315427232922
 20
-140.533368562957
 30
0.0
 10
98.4436034910141
 20
-140.533368562957
 30
0.0
 10
98.69096134685505
 20
-140.533368562957
 30
0.0
 10
98.73988170274559
 20
-140.2522487713605
 30
0.0
 10
98.73988170274559
 20
-139.9053276559959
 30
0.0
 10
98.73988170274559
 20
-139.5856227949647
 30
0.0
 10
98.70129663331079
 20
-139.2769422394863
 30
0.0
 10
98.4436034910141
 20
-139.2769422394863
 30
0.0
  0
HATCH
  5
B4
330
AC
100
AcDbEntity
  8
_U+30EC_U+30A4_U+30E4_U+30FC 1
 62
     7
420
 16777215
100
AcDbHatch
 10
0.0
 20
0.0
 30
0.0
210
0.0
220
0.0
230
1.0
  2
SOLID
 70
     1
 71
     0
 91
        2
 92
        1
 93
        1
 72
     4
 94
        3
 73
     0
 74
     1
 95
       29
 96
       25
 40
0.0
 40
0.0
 40
0.0
 40
0.0
 40
1.0
 40
1.0
 40
1.0
 40
2.0
 40
2.0
 40
2.0
 40
3.0
 40
3.0
 40
3.0
 40
4.0
 40
4.0
 40
4.0
 40
5.0
 40
5.0
 40
5.0
 40
6.0
 40
6.0
 40
6.0
 40
7.0
 40
7.0
 40
7.0
 40
8.0
 40
8.0
 40
8.0
 40
8.0
 10
98.84116751001193
 20
-140.4996066272015
 10
98.73299151177508
 20
-140.7090684327047
 10
98.56004771841555
 20
-140.7280164578736
 10
98.4436034910141
 20
-140.7280164578736
 10
98.28237302230441
 20
-140.7280164578736
 10
98.14112410740917
 20
-140.6815076688227
 10
98.04603947201628
 20
-140.4996066272015
 10
97.94199758836173
 20
-140.3049587322849
 10
97.92339407274137
 20
-140.0682806724482
 10
97.92339407274137
 20
-139.9053276559959
 10
97.92339407274137
 20
-139.7613226647125
 10
97.93993053107057
 20
-139.5094861847407
 10
98.04603947201628
 20
-139.3107041752418
 10
98.15352645115607
 20
-139.1077880511606
 10
98.31475691986576
 20
-139.0843614018609
 10
98.4436034910141
 20
-139.0843614018609
 10
98.6020778833356
 20
-139.0843614018609
 10
98.74608287461903
 20
-139.1288031336206
 10
98.84116751001193
 20
-139.3107041752418
 10
98.94038625998714
 20
-139.5032850128673
 10
98.96381290928683
 20
-139.7316948435393
 10
98.96381290928683
 20
-139.9053276559959
 10
98.96381290928683
 20
-140.0765489016128
 10
98.94245331727828
 20
-140.307025789576
 10
98.84116751001193
 20
-140.4996066272015
 97
        0
 97
        0
 92
        1
 93
        1
 72
     4
 94
        3
 73
     0
 74
     1
 95
       17
 96
       13
 40
0.0
 40
0.0
 40
0.0
 40
0.0
 40
1.0
 40
1.0
 40
1.0
 40
2.0
 40
2.0
 40
2.0
 40
3.0
 40
3.0
 40
3.0
 40
4.0
 40
4.0
 40
4.0
 40
4.0
 10
98.4436034910141
 20
-139.2769422394863
 10
98.19417857788201
 20
-139.2769422394863
 10
98.14732527928261
 20
-139.5604735979224
 10
98.14732527928261
 20
-139.9053276559959
 10
98.14732527928261
 20
-140.2246880074786
 10
98.18315427232922
 20
-140.533368562957
 10
98.4436034910141
 20
-140.533368562957
 10
98.69096134685505
 20
-140.533368562957
 10
98.73988170274559
 20
-140.2522487713605
 10
98.73988170274559
 20
-139.9053276559959
 10
98.73988170274559
 20
-139.5856227949647
 10
98.70129663331079
 20
-139.2769422394863
 10
98.4436034910141
 20
-139.2769422394863
 97
        0
 97
        0
 75
     2
 76
     1
 98
        0
  0
ENDBLK
  5
AF
330
AC
100
AcDbEntity
  8
0
100
AcDbBlockEnd
  0
BLOCK
  5
C5
330
C3
100
AcDbEntity
  8
0
100
AcDbBlockBegin
  2
block 8
 70
     0
 10
0.0
 20
0.0
 30
0.0
  3
block 8
  1

  0
SPLINE
  5
C7
330
C3
100
AcDbEntity
  8
_U+30EC_U+30A4_U+30E4_U+30FC 1
370
     0
100
AcDbSpline
210
0.0
220
0.0
230
1.0
 70
    11
 71
     3
 72
    26
 73
    22
 74
     0
 42
0.0000000001
 43
0.0000000001
 12
1.0
 22
0.0
 32
0.0
 13
1.0
 23
0.0
 33
0.0
 40
0.0
 40
0.0
 40
0.0
 40
0.0
 40
1.0
 40
1.0
 40
1.0
 40
2.0
 40
2.0
 40
2.0
 40
3.0
 40
3.0
 40
3.0
 40
4.0
 40
4.0
 40
4.0
 40
5.0
 40
5.0
 40
5.0
 40
6.0
 40
6.0
 40
6.0
 40
7.0
 40
7.0
 40
7.0
 40
7.0
 10
81.71714814580335
 20
-140.6773735542404
 30
0.0
 10
81.71714814580335
 20
-140.6773735542404
 30
0.0
 10
81.71714814580335
 20
-139.5732204512178
 30
0.0
 10
81.71714814580335
 20
-139.5732204512178
 30
0.0
 10
81.71714814580335
 20
-139.5732204512178
 30
0.0
 10
81.38710799831642
 20
-139.5732204512178
 30
0.0
 10
81.38710799831642
 20
-139.5732204512178
 30
0.0
 10
81.38710799831642
 20
-139.5732204512178
 30
0.0
 10
81.38710799831642
 20
-139.4250813453521
 30
0.0
 10
81.38710799831642
 20
-139.4250813453521
 30
0.0
 10
81.7192152030945
 20
-139.4102674347655
 30
0.0
 10
81.76572399214538
 20
-139.2473144183132
 30
0.0
 10
81.79535181331853
 20
-139.1329372482029
 30
0.0
 10
81.79535181331853
 20
-139.1329372482029
 30
0.0
 10
81.94142386189311
 20
-139.1329372482029
 30
0.0
 10
81.94142386189311
 20
-139.1329372482029
 30
0.0
 10
81.94142386189311
 20
-139.1329372482029
 30
0.0
 10
81.94142386189311
 20
-140.6773735542404
 30
0.0
 10
81.94142386189311
 20
-140.6773735542404
 30
0.0
 10
81.94142386189311
 20
-140.6773735542404
 30
0.0
 10
81.71714814580335
 20
-140.6773735542404
 30
0.0
 10
81.71714814580335
 20
-140.6773735542404
 30
0.0
  0
HATCH
  5
C8
330
C3
100
AcDbEntity
  8
_U+30EC_U+30A4_U+30E4_U+30FC 1
 62
     7
420
 16777215
100
AcDbHatch
 10
0.0
 20
0.0
 30
0.0
210
0.0
220
0.0
230
1.0
  2
SOLID
 70
     1
 71
     0
 91
        1
 92
        1
 93
        1
 72
     4
 94
        3
 73
     0
 74
     1
 95
       26
 96
       22
 40
0.0
 40
0.0
 40
0.0
 40
0.0
 40
1.0
 40
1.0
 40
1.0
 40
2.0
 40
2.0
 40
2.0
 40
3.0
 40
3.0
 40
3.0
 40
4.0
 40
4.0
 40
4.0
 40
5.0
 40
5.0
 40
5.0
 40
6.0
 40
6.0
 40
6.0
 40
7.0
 40
7.0
 40
7.0
 40
7.0
 10
81.71714814580335
 20
-140.6773735542404
 10
81.71714814580335
 20
-140.6773735542404
 10
81.71714814580335
 20
-139.5732204512178
 10
81.71714814580335
 20
-139.5732204512178
 10
81.71714814580335
 20
-139.5732204512178
 10
81.38710799831642
 20
-139.5732204512178
 10
81.38710799831642
 20
-139.5732204512178
 10
81.38710799831642
 20
-139.5732204512178
 10
81.38710799831642
 20
-139.4250813453521
 10
81.38710799831642
 20
-139.4250813453521
 10
81.7192152030945
 20
-139.4102674347655
 10
81.76572399214538
 20
-139.2473144183132
 10
81.79535181331853
 20
-139.1329372482029
 10
81.79535181331853
 20
-139.1329372482029
 10
81.94142386189311
 20
-139.1329372482029
 10
81.94142386189311
 20
-139.1329372482029
 10
81.94142386189311
 20
-139.1329372482029
 10
81.94142386189311
 20
-140.6773735542404
 10
81.94142386189311
 20
-140.6773735542404
 10
81.94142386189311
 20
-140.6773735542404
 10
81.71714814580335
 20
-140.6773735542404
 10
81.71714814580335
 20
-140.6773735542404
 97
        0
 97
        0
 75
     2
 76
     1
 98
        0
  0
SPLINE
  5
C9
330
C3
100
AcDbEntity
  8
_U+30EC_U+30A4_U+30E4_U+30FC 1
370
     0
100
AcDbSpline
210
0.0
220
0.0
230
1.0
 70
    11
 71
     3
 72
    53
 73
    49
 74
     0
 42
0.0000000001
 43
0.0000000001
 12
1.0
 22
0.0
 32
0.0
 13
1.0
 23
0.0
 33
0.0
 40
0.0
 40
0.0
 40
0.0
 40
0.0
 40
1.0
 40
1.0
 40
1.0
 40
2.0
 40
2.0
 40
2.0
 40
3.0
 40
3.0
 40
3.0
 40
4.0
 40
4.0
 40
4.0
 40
5.0
 40
5.0
 40
5.0
 40
6.0
 40
6.0
 40
6.0
 40
7.0
 40
7.0
 40
7.0
 40
8.0
 40
8.0
 40
8.0
 40
9.0
 40
9.0
 40
9.0
 40
10.0
 40
10.0
 40
10.0
 40
11.0
 40
11.0
 40
11.0
 40
12.0
 40
12.0
 40
12.0
 40
13.0
 40
13.0
 40
13.0
 40
14.0
 40
14.0
 40
14.0
 40
15.0
 40
15.0
 40
15.0
 40
16.0
 40
16.0
 40
16.0
 40
16.0
 10
82.92362058473785
 20
-140.7280164578736
 30
0.0
 10
82.84541691722268
 20
-140.7280164578736
 30
0.0
 10
82.7437866004078
 20
-140.7111354899958
 30
0.0
 10
82.64215628359294
 20
-140.6477457330672
 30
0.0
 10
82.46886798068488
 20
-140.5378471870878
 30
0.0
 10
82.44750838867633
 20
-140.4065890490998
 30
0.0
 10
82.42856036350744
 20
-140.2987575604114
 30
0.0
 10
82.42856036350744
 20
-140.2987575604114
 30
0.0
 10
82.65076902230606
 20
-140.2987575604114
 30
0.0
 10
82.65076902230606
 20
-140.2987575604114
 30
0.0
 10
82.70554604052154
 20
-140.4975395699103
 30
0.0
 10
82.83267006392725
 20
-140.5271673910835
 30
0.0
 10
82.925687642029
 20
-140.5271673910835
 30
0.0
 10
83.06521400918162
 20
-140.5271673910835
 30
0.0
 10
83.21748722962965
 20
-140.4276041315598
 30
0.0
 10
83.21748722962965
 20
-140.1950601863054
 30
0.0
 10
83.21748722962965
 20
-139.9390895917514
 30
0.0
 10
83.03765324529962
 20
-139.8691541534008
 30
0.0
 10
82.91707490331588
 20
-139.8691541534008
 30
0.0
 10
82.88538002485157
 20
-139.8691541534008
 30
0.0
 10
82.7437866004078
 20
-139.8691541534008
 30
0.0
 10
82.65490313688836
 20
-139.9983452340977
 30
0.0
 10
82.65490313688836
 20
-139.9983452340977
 30
0.0
 10
82.47920326714062
 20
-139.9793972089288
 30
0.0
 10
82.47920326714062
 20
-139.9793972089288
 30
0.0
 10
82.47920326714062
 20
-139.9793972089288
 30
0.0
 10
82.59978160912436
 20
-139.1329372482029
 30
0.0
 10
82.59978160912436
 20
-139.1329372482029
 30
0.0
 10
82.59978160912436
 20
-139.1329372482029
 30
0.0
 10
83.37837318879083
 20
-139.1329372482029
 30
0.0
 10
83.37837318879083
 20
-139.1329372482029
 30
0.0
 10
83.37837318879083
 20
-139.1329372482029
 30
0.0
 10
83.37837318879083
 20
-139.3275851431195
 30
0.0
 10
83.37837318879083
 20
-139.3275851431195
 30
0.0
 10
83.37837318879083
 20
-139.3275851431195
 30
0.0
 10
82.76273462557668
 20
-139.3275851431195
 30
0.0
 10
82.76273462557668
 20
-139.3275851431195
 30
0.0
 10
82.76273462557668
 20
-139.3275851431195
 30
0.0
 10
82.69727781135694
 20
-139.7506428687082
 30
0.0
 10
82.69727781135694
 20
-139.7506428687082
 30
0.0
 10
82.75860051099438
 20
-139.7168809329527
 30
0.0
 10
82.84093829309185
 20
-139.6765733157753
 30
0.0
 10
82.95944957778444
 20
-139.6765733157753
 30
0.0
 10
83.21335311504735
 20
-139.6765733157753
 30
0.0
 10
83.45037568443254
 20
-139.8629529815273
 30
0.0
 10
83.45037568443254
 20
-140.1761121611365
 30
0.0
 10
83.45037568443254
 20
-140.493405455328
 30
0.0
 10
83.22609996834278
 20
-140.7280164578736
 30
0.0
 10
82.92362058473785
 20
-140.7280164578736
 30
0.0
  0
HATCH
  5
CA
330
C3
100
AcDbEntity
  8
_U+30EC_U+30A4_U+30E4_U+30FC 1
 62
     7
420
 16777215
100
AcDbHatch
 10
0.0
 20
0.0
 30
0.0
210
0.0
220
0.0
230
1.0
  2
SOLID
 70
     1
 71
     0
 91
        1
 92
        1
 93
        1
 72
     4
 94
        3
 73
     0
 74
     1
 95
       53
 96
       49
 40
0.0
 40
0.0
 40
0.0
 40
0.0
 40
1.0
 40
1.0
 40
1.0
 40
2.0
 40
2.0
 40
2.0
 40
3.0
 40
3.0
 40
3.0
 40
4.0
 40
4.0
 40
4.0
 40
5.0
 40
5.0
 40
5.0
 40
6.0
 40
6.0
 40
6.0
 40
7.0
 40
7.0
 40
7.0
 40
8.0
 40
8.0
 40
8.0
 40
9.0
 40
9.0
 40
9.0
 40
10.0
 40
10.0
 40
10.0
 40
11.0
 40
11.0
 40
11.0
 40
12.0
 40
12.0
 40
12.0
 40
13.0
 40
13.0
 40
13.0
 40
14.0
 40
14.0
 40
14.0
 40
15.0
 40
15.0
 40
15.0
 40
16.0
 40
16.0
 40
16.0
 40
16.0
 10
82.92362058473785
 20
-140.7280164578736
 10
82.84541691722268
 20
-140.7280164578736
 10
82.7437866004078
 20
-140.7111354899958
 10
82.64215628359294
 20
-140.6477457330672
 10
82.46886798068488
 20
-140.5378471870878
 10
82.44750838867633
 20
-140.4065890490998
 10
82.42856036350744
 20
-140.2987575604114
 10
82.42856036350744
 20
-140.2987575604114
 10
82.65076902230606
 20
-140.2987575604114
 10
82.65076902230606
 20
-140.2987575604114
 10
82.70554604052154
 20
-140.4975395699103
 10
82.83267006392725
 20
-140.5271673910835
 10
82.925687642029
 20
-140.5271673910835
 10
83.06521400918162
 20
-140.5271673910835
 10
83.21748722962965
 20
-140.4276041315598
 10
83.21748722962965
 20
-140.1950601863054
 10
83.21748722962965
 20
-139.9390895917514
 10
83.03765324529962
 20
-139.8691541534008
 10
82.91707490331588
 20
-139.8691541534008
 10
82.88538002485157
 20
-139.8691541534008
 10
82.7437866004078
 20
-139.8691541534008
 10
82.65490313688836
 20
-139.9983452340977
 10
82.65490313688836
 20
-139.9983452340977
 10
82.47920326714062
 20
-139.9793972089288
 10
82.47920326714062
 20
-139.9793972089288
 10
82.47920326714062
 20
-139.9793972089288
 10
82.59978160912436
 20
-139.1329372482029
 10
82.59978160912436
 20
-139.1329372482029
 10
82.59978160912436
 20
-139.1329372482029
 10
83.37837318879083
 20
-139.1329372482029
 10
83.37837318879083
 20
-139.1329372482029
 10
83.37837318879083
 20
-139.1329372482029
 10
83.37837318879083
 20
-139.3275851431195
 10
83.37837318879083
 20
-139.3275851431195
 10
83.37837318879083
 20
-139.3275851431195
 10
82.76273462557668
 20
-139.3275851431195
 10
82.76273462557668
 20
-139.3275851431195
 10
82.76273462557668
 20
-139.3275851431195
 10
82.69727781135694
 20
-139.7506428687082
 10
82.69727781135694
 20
-139.7506428687082
 10
82.75860051099438
 20
-139.7168809329527
 10
82.84093829309185
 20
-139.6765733157753
 10
82.95944957778444
 20
-139.6765733157753
 10
83.21335311504735
 20
-139.6765733157753
 10
83.45037568443254
 20
-139.8629529815273
 10
83.45037568443254
 20
-140.1761121611365
 10
83.45037568443254
 20
-140.493405455328
 10
83.22609996834278
 20
-140.7280164578736
 10
82.92362058473785
 20
-140.7280164578736
 97
        0
 97
        0
 75
     2
 76
     1
 98
        0
  0
ENDBLK
  5
C6
330
C3
100
AcDbEntity
  8
0
100
AcDbBlockEnd
  0
BLOCK
  5
CF
330
CD
100
AcDbEntity
  8
0
100
AcDbBlockBegin
  2
block 9
 70
     0
 10
0.0
 20
0.0
 30
0.0
  3
block 9
  1

  0
SPLINE
  5
D1
330
CD
100
AcDbEntity
  8
_U+30EC_U+30A4_U+30E4_U+30FC 1
370
     0
100
AcDbSpline
210
0.0
220
0.0
230
1.0
 70
    11
 71
     3
 72
    26
 73
    22
 74
     0
 42
0.0000000001
 43
0.0000000001
 12
1.0
 22
0.0
 32
0.0
 13
1.0
 23
0.0
 33
0.0
 40
0.0
 40
0.0
 40
0.0
 40
0.0
 40
1.0
 40
1.0
 40
1.0
 40
2.0
 40
2.0
 40
2.0
 40
3.0
 40
3.0
 40
3.0
 40
4.0
 40
4.0
 40
4.0
 40
5.0
 40
5.0
 40
5.0
 40
6.0
 40
6.0
 40
6.0
 40
7.0
 40
7.0
 40
7.0
 40
7.0
 10
95.40847436850899
 20
-124.2144680136513
 30
0.0
 10
95.40847436850899
 20
-124.2144680136513
 30
0.0
 10
95.40847436850899
 20
-123.1101426558544
 30
0.0
 10
95.40847436850899
 20
-123.1101426558544
 30
0.0
 10
95.40847436850899
 20
-123.1101426558544
 30
0.0
 10
95.07843422102206
 20
-123.1101426558544
 30
0.0
 10
95.07843422102206
 20
-123.1101426558544
 30
0.0
 10
95.07843422102206
 20
-123.1101426558544
 30
0.0
 10
95.07843422102206
 20
-122.9620035499887
 30
0.0
 10
95.07843422102206
 20
-122.9620035499887
 30
0.0
 10
95.41054142580015
 20
-122.9473618941764
 30
0.0
 10
95.45739472439955
 20
-122.784408877724
 30
0.0
 10
95.4870225455727
 20
-122.670203962388
 30
0.0
 10
95.4870225455727
 20
-122.670203962388
 30
0.0
 10
95.63309459414728
 20
-122.670203962388
 30
0.0
 10
95.63309459414728
 20
-122.670203962388
 30
0.0
 10
95.63309459414728
 20
-122.670203962388
 30
0.0
 10
95.63309459414728
 20
-124.2144680136513
 30
0.0
 10
95.63309459414728
 20
-124.2144680136513
 30
0.0
 10
95.63309459414728
 20
-124.2144680136513
 30
0.0
 10
95.40847436850899
 20
-124.2144680136513
 30
0.0
 10
95.40847436850899
 20
-124.2144680136513
 30
0.0
  0
HATCH
  5
D2
330
CD
100
AcDbEntity
  8
_U+30EC_U+30A4_U+30E4_U+30FC 1
 62
   179
420
  2234388
100
AcDbHatch
 10
0.0
 20
0.0
 30
0.0
210
0.0
220
0.0
230
1.0
  2
SOLID
 70
     1
 71
     0
 91
        1
 92
        1
 93
        1
 72
     4
 94
        3
 73
     0
 74
     1
 95
       26
 96
       22
 40
0.0
 40
0.0
 40
0.0
 40
0.0
 40
1.0
 40
1.0
 40
1.0
 40
2.0
 40
2.0
 40
2.0
 40
3.0
 40
3.0
 40
3.0
 40
4.0
 40
4.0
 40
4.0
 40
5.0
 40
5.0
 40
5.0
 40
6.0
 40
6.0
 40
6.0
 40
7.0
 40
7.0
 40
7.0
 40
7.0
 10
95.40847436850899
 20
-124.2144680136513
 10
95.40847436850899
 20
-124.2144680136513
 10
95.40847436850899
 20
-123.1101426558544
 10
95.40847436850899
 20
-123.1101426558544
 10
95.40847436850899
 20
-123.1101426558544
 10
95.07843422102206
 20
-123.1101426558544
 10
95.07843422102206
 20
-123.1101426558544
 10
95.07843422102206
 20
-123.1101426558544
 10
95.07843422102206
 20
-122.9620035499887
 10
95.07843422102206
 20
-122.9620035499887
 10
95.41054142580015
 20
-122.9473618941764
 10
95.45739472439955
 20
-122.784408877724
 10
95.4870225455727
 20
-122.670203962388
 10
95.4870225455727
 20
-122.670203962388
 10
95.63309459414728
 20
-122.670203962388
 10
95.63309459414728
 20
-122.670203962388
 10
95.63309459414728
 20
-122.670203962388
 10
95.63309459414728
 20
-124.2144680136513
 10
95.63309459414728
 20
-124.2144680136513
 10
95.63309459414728
 20
-124.2144680136513
 10
95.40847436850899
 20
-124.2144680136513
 10
95.40847436850899
 20
-124.2144680136513
 97
        0
 97
        0
 75
     2
 76
     1
 98
        0
  0
ENDBLK
  5
D0
330
CD
100
AcDbEntity
  8
0
100
AcDbBlockEnd
  0
ENDSEC
  0
SECTION
  2
ENTITIES
  0
SPLINE
  5
41
330
1F
100
AcDbEntity
  8
_U+30EC_U+30A4_U+30E4_U+30FC 1
 62
     7
420
 16777215
370
     9
100
AcDbSpline
210
0.0
220
0.0
230
1.0
 70
    11
 71
     3
 72
    17
 73
    13
 74
     0
 42
0.0000000001
 43
0.0000000001
 12
1.0
 22
0.0
 32
0.0
 13
1.0
 23
0.0
 33
0.0
 40
0.0
 40
0.0
 40
0.0
 40
0.0
 40
1.0
 40
1.0
 40
1.0
 40
2.0
 40
2.0
 40
2.0
 40
3.0
 40
3.0
 40
3.0
 40
4.0
 40
4.0
 40
4.0
 40
4.0
 10
103.1630498680913
 20
-138.2737194098762
 30
0.0
 10
103.1630498680913
 20
-138.2186155210012
 30
0.0
 10
103.1182470914566
 20
-138.1738127432345
 30
0.0
 10
103.0631432039735
 20
-138.1738127432345
 30
0.0
 10
103.0080040387136
 20
-138.1738127432345
 30
0.0
 10
102.9632365398557
 20
-138.2186155210012
 30
0.0
 10
102.9632365398557
 20
-138.2737194098762
 30
0.0
 10
102.9632365398557
 20
-138.3288585765292
 30
0.0
 10
103.0080040387136
 20
-138.3736260765178
 30
0.0
 10
103.0631432039735
 20
-138.3736260765178
 30
0.0
 10
103.1182470914566
 20
-138.3736260765178
 30
0.0
 10
103.1630498680913
 20
-138.3288585765292
 30
0.0
 10
103.1630498680913
 20
-138.2737194098762
 30
0.0
  0
SPLINE
  5
42
330
1F
100
AcDbEntity
  8
_U+30EC_U+30A4_U+30E4_U+30FC 1
 62
     7
420
 16777215
370
     9
100
AcDbSpline
210
0.0
220
0.0
230
1.0
 70
    11
 71
     3
 72
    17
 73
    13
 74
     0
 42
0.0000000001
 43
0.0000000001
 12
1.0
 22
0.0
 32
0.0
 13
1.0
 23
0.0
 33
0.0
 40
0.0
 40
0.0
 40
0.0
 40
0.0
 40
1.0
 40
1.0
 40
1.0
 40
2.0
 40
2.0
 40
2.0
 40
3.0
 40
3.0
 40
3.0
 40
4.0
 40
4.0
 40
4.0
 40
4.0
 10
105.4932881419753
 20
-121.0868446919505
 30
0.0
 10
105.4932881419753
 20
-121.1419485808257
 30
0.0
 10
105.5380909186101
 20
-121.1867513585921
 30
0.0
 10
105.5931948060932
 20
-121.1867513585921
 30
0.0
 10
105.6483339713531
 20
-121.1867513585921
 30
0.0
 10
105.693101470211
 20
-121.1419485808257
 30
0.0
 10
105.693101470211
 20
-121.0868446919505
 30
0.0
 10
105.693101470211
 20
-121.0310352475201
 30
0.0
 10
105.6483339713531
 20
-120.9862324697533
 30
0.0
 10
105.5931948060932
 20
-120.9862324697533
 30
0.0
 10
105.5380909186101
 20
-120.9862324697533
 30
0.0
 10
105.4932881419753
 20
-121.0310352475201
 30
0.0
 10
105.4932881419753
 20
-121.0868446919505
 30
0.0
  0
POLYLINE
  5
43
330
1F
100
AcDbEntity
  8
_U+30EC_U+30A4_U+30E4_U+30FC 1
 62
     7
420
 16777215
370
     9
100
AcDb2dPolyline
 66
     1
 10
0.0
 20
0.0
 30
0.0
  0
VERTEX
  5
44
330
43
100
AcDbEntity
  8
_U+30EC_U+30A4_U+30E4_U+30FC 1
 62
     7
420
 16777215
370
     9
100
AcDbVertex
100
AcDb2dVertex
 10
105.5931948060932
 20
-120.9862324697533
 30
0.0
  0
VERTEX
  5
45
330
43
100
AcDbEntity
  8
_U+30EC_U+30A4_U+30E4_U+30FC 1
 62
     7
420
 16777215
370
     9
100
AcDbVertex
100
AcDb2dVertex
 10
105.5931948060932
 20
-133.9863052442813
 30
0.0
  0
SEQEND
  5
46
330
43
100
AcDbEntity
  8
_U+30EC_U+30A4_U+30E4_U+30FC 1
 62
     7
420
 16777215
370
     9
  0
POLYLINE
  5
47
330
1F
100
AcDbEntity
  8
_U+30EC_U+30A4_U+30E4_U+30FC 1
 62
     7
420
 16777215
370
     9
100
AcDb2dPolyline
 66
     1
 10
0.0
 20
0.0
 30
0.0
  0
VERTEX
  5
48
330
47
100
AcDbEntity
  8
_U+30EC_U+30A4_U+30E4_U+30FC 1
 62
     7
420
 16777215
370
     9
100
AcDbVertex
100
AcDb2dVertex
 10
97.49309973496604
 20
-121.0868446919505
 30
0.0
  0
VERTEX
  5
49
330
47
100
AcDbEntity
  8
_U+30EC_U+30A4_U+30E4_U+30FC 1
 62
     7
420
 16777215
370
     9
100
AcDbVertex
100
AcDb2dVertex
 10
106.5929670028091
 20
-121.0868446919505
 30
0.0
  0
SEQEND
  5
4A
330
47
100
AcDbEntity
  8
_U+30EC_U+30A4_U+30E4_U+30FC 1
 62
     7
420
 16777215
370
     9
  0
SPLINE
  5
4B
330
1F
100
AcDbEntity
  8
_U+30EC_U+30A4_U+30E4_U+30FC 1
 62
     7
420
 16777215
370
     9
100
AcDbSpline
210
0.0
220
0.0
230
1.0
 70
    11
 71
     3
 72
    17
 73
    13
 74
     0
 42
0.0000000001
 43
0.0000000001
 12
1.0
 22
0.0
 32
0.0
 13
1.0
 23
0.0
 33
0.0
 40
0.0
 40
0.0
 40
0.0
 40
0.0
 40
1.0
 40
1.0
 40
1.0
 40
2.0
 40
2.0
 40
2.0
 40
3.0
 40
3.0
 40
3.0
 40
4.0
 40
4.0
 40
4.0
 40
4.0
 10
85.47900587480443
 20
-127.0868185793395
 30
0.0
 10
85.47900587480443
 20
-127.1419224682144
 30
0.0
 10
85.5238086514392
 20
-127.1867252459812
 30
0.0
 10
85.57891253892227
 20
-127.1867252459812
 30
0.0
 10
85.63405170418223
 20
-127.1867252459812
 30
0.0
 10
85.6788192030401
 20
-127.1419224682144
 30
0.0
 10
85.6788192030401
 20
-127.0868185793395
 30
0.0
 10
85.6788192030401
 20
-127.0316794126864
 30
0.0
 10
85.63405170418223
 20
-126.9869119126979
 30
0.0
 10
85.57891253892227
 20
-126.9869119126979
 30
0.0
 10
85.5238086514392
 20
-126.9869119126979
 30
0.0
 10
85.47900587480443
 20
-127.0316794126864
 30
0.0
 10
85.47900587480443
 20
-127.0868185793395
 30
0.0
  0
SPLINE
  5
4C
330
1F
100
AcDbEntity
  8
_U+30EC_U+30A4_U+30E4_U+30FC 1
 62
     7
420
 16777215
370
     9
100
AcDbSpline
210
0.0
220
0.0
230
1.0
 70
    11
 71
     3
 72
    17
 73
    13
 74
     0
 42
0.0000000001
 43
0.0000000001
 12
1.0
 22
0.0
 32
0.0
 13
1.0
 23
0.0
 33
0.0
 40
0.0
 40
0.0
 40
0.0
 40
0.0
 40
1.0
 40
1.0
 40
1.0
 40
2.0
 40
2.0
 40
2.0
 40
3.0
 40
3.0
 40
3.0
 40
4.0
 40
4.0
 40
4.0
 40
4.0
 10
85.47900587480443
 20
-121.0868446919505
 30
0.0
 10
85.47900587480443
 20
-121.1419485808257
 30
0.0
 10
85.5238086514392
 20
-121.1867513585921
 30
0.0
 10
85.57891253892227
 20
-121.1867513585921
 30
0.0
 10
85.63405170418223
 20
-121.1867513585921
 30
0.0
 10
85.6788192030401
 20
-121.1419485808257
 30
0.0
 10
85.6788192030401
 20
-121.0868446919505
 30
0.0
 10
85.6788192030401
 20
-121.0317055252978
 30
0.0
 10
85.63405170418223
 20
-120.9869380253089
 30
0.0
 10
85.57891253892227
 20
-120.9869380253089
 30
0.0
 10
85.5238086514392
 20
-120.9869380253089
 30
0.0
 10
85.47900587480443
 20
-121.0317055252978
 30
0.0
 10
85.47900587480443
 20
-121.0868446919505
 30
0.0
  0
POLYLINE
  5
4D
330
1F
100
AcDbEntity
  8
_U+30EC_U+30A4_U+30E4_U+30FC 1
 62
     7
420
 16777215
370
     9
100
AcDb2dPolyline
 66
     1
 10
0.0
 20
0.0
 30
0.0
  0
VERTEX
  5
4E
330
4D
100
AcDbEntity
  8
_U+30EC_U+30A4_U+30E4_U+30FC 1
 62
     7
420
 16777215
370
     9
100
AcDbVertex
100
AcDb2dVertex
 10
85.57891253892227
 20
-121.0868446919505
 30
0.0
  0
VERTEX
  5
4F
330
4D
100
AcDbEntity
  8
_U+30EC_U+30A4_U+30E4_U+30FC 1
 62
     7
420
 16777215
370
     9
100
AcDbVertex
100
AcDb2dVertex
 10
85.57891253892227
 20
-127.0868185793395
 30
0.0
  0
SEQEND
  5
50
330
4D
100
AcDbEntity
  8
_U+30EC_U+30A4_U+30E4_U+30FC 1
 62
     7
420
 16777215
370
     9
  0
POLYLINE
  5
51
330
1F
100
AcDbEntity
  8
_U+30EC_U+30A4_U+30E4_U+30FC 1
 62
     7
420
 16777215
370
     9
100
AcDb2dPolyline
 66
     1
 10
0.0
 20
0.0
 30
0.0
  0
VERTEX
  5
52
330
51
100
AcDbEntity
  8
_U+30EC_U+30A4_U+30E4_U+30FC 1
 62
     7
420
 16777215
370
     9
100
AcDbVertex
100
AcDb2dVertex
 10
84.11890646505901
 20
-127.0868185793395
 30
0.0
  0
VERTEX
  5
53
330
51
100
AcDbEntity
  8
_U+30EC_U+30A4_U+30E4_U+30FC 1
 62
     7
420
 16777215
370
     9
100
AcDbVertex
100
AcDb2dVertex
 10
86.57868473563818
 20
-127.0868185793395
 30
0.0
  0
SEQEND
  5
54
330
51
100
AcDbEntity
  8
_U+30EC_U+30A4_U+30E4_U+30FC 1
 62
     7
420
 16777215
370
     9
  0
POLYLINE
  5
55
330
1F
100
AcDbEntity
  8
_U+30EC_U+30A4_U+30E4_U+30FC 1
 62
     7
420
 16777215
370
     9
100
AcDb2dPolyline
 66
     1
 10
0.0
 20
0.0
 30
0.0
  0
VERTEX
  5
56
330
55
100
AcDbEntity
  8
_U+30EC_U+30A4_U+30E4_U+30FC 1
 62
     7
420
 16777215
370
     9
100
AcDbVertex
100
AcDb2dVertex
 10
84.11890646505901
 20
-121.0868446919505
 30
0.0
  0
VERTEX
  5
57
330
55
100
AcDbEntity
  8
_U+30EC_U+30A4_U+30E4_U+30FC 1
 62
     7
420
 16777215
370
     9
100
AcDbVertex
100
AcDb2dVertex
 10
86.57868473563818
 20
-121.0868446919505
 30
0.0
  0
SEQEND
  5
58
330
55
100
AcDbEntity
  8
_U+30EC_U+30A4_U+30E4_U+30FC 1
 62
     7
420
 16777215
370
     9
  0
SPLINE
  5
59
330
1F
100
AcDbEntity
  8
_U+30EC_U+30A4_U+30E4_U+30FC 1
 62
     7
420
 16777215
370
     9
100
AcDbSpline
210
0.0
220
0.0
230
1.0
 70
    11
 71
     3
 72
    17
 73
    13
 74
     0
 42
0.0000000001
 43
0.0000000001
 12
1.0
 22
0.0
 32
0.0
 13
1.0
 23
0.0
 33
0.0
 40
0.0
 40
0.0
 40
0.0
 40
0.0
 40
1.0
 40
1.0
 40
1.0
 40
2.0
 40
2.0
 40
2.0
 40
3.0
 40
3.0
 40
3.0
 40
4.0
 40
4.0
 40
4.0
 40
4.0
 10
105.4932881419753
 20
-134.0896691331443
 30
0.0
 10
105.4932881419753
 20
-134.1447730220192
 30
0.0
 10
105.5380909186101
 20
-134.1895757997859
 30
0.0
 10
105.5931948060932
 20
-134.1895757997859
 30
0.0
 10
105.6483339713531
 20
-134.1895757997859
 30
0.0
 10
105.693101470211
 20
-134.1447730220192
 30
0.0
 10
105.693101470211
 20
-134.0896691331443
 30
0.0
 10
105.693101470211
 20
-134.0345299664912
 30
0.0
 10
105.6483339713531
 20
-133.9897624665026
 30
0.0
 10
105.5931948060932
 20
-133.9897624665026
 30
0.0
 10
105.5380909186101
 20
-133.9897624665026
 30
0.0
 10
105.4932881419753
 20
-134.0345299664912
 30
0.0
 10
105.4932881419753
 20
-134.0896691331443
 30
0.0
  0
POLYLINE
  5
5A
330
1F
100
AcDbEntity
  8
_U+30EC_U+30A4_U+30E4_U+30FC 1
 62
     7
420
 16777215
370
     9
100
AcDb2dPolyline
 66
     1
 10
0.0
 20
0.0
 30
0.0
  0
VERTEX
  5
5B
330
5A
100
AcDbEntity
  8
_U+30EC_U+30A4_U+30E4_U+30FC 1
 62
     7
420
 16777215
370
     9
100
AcDbVertex
100
AcDb2dVertex
 10
99.59322107027636
 20
-134.0896691331443
 30
0.0
  0
VERTEX
  5
5C
330
5A
100
AcDbEntity
  8
_U+30EC_U+30A4_U+30E4_U+30FC 1
 62
     7
420
 16777215
370
     9
100
AcDbVertex
100
AcDb2dVertex
 10
106.5929670028091
 20
-134.0896691331443
 30
0.0
  0
SEQEND
  5
5D
330
5A
100
AcDbEntity
  8
_U+30EC_U+30A4_U+30E4_U+30FC 1
 62
     7
420
 16777215
370
     9
  0
INSERT
  5
5F
330
1F
100
AcDbEntity
  8
_U+30EC_U+30A4_U+30E4_U+30FC 1
100
AcDbBlockReference
  2
block 2
 10
0.0
 20
0.0
 30
0.0
  0
INSERT
  5
67
330
1F
100
AcDbEntity
  8
_U+30EC_U+30A4_U+30E4_U+30FC 1
100
AcDbBlockReference
  2
block 3
 10
0.0
 20
0.0
 30
0.0
  0
SPLINE
  5
6D
330
1F
100
AcDbEntity
  8
_U+30EC_U+30A4_U+30E4_U+30FC 1
 62
     7
420
 16777215
370
     9
100
AcDbSpline
210
0.0
220
0.0
230
1.0
 70
    11
 71
     3
 72
    17
 73
    13
 74
     0
 42
0.0000000001
 43
0.0000000001
 12
1.0
 22
0.0
 32
0.0
 13
1.0
 23
0.0
 33
0.0
 40
0.0
 40
0.0
 40
0.0
 40
0.0
 40
1.0
 40
1.0
 40
1.0
 40
2.0
 40
2.0
 40
2.0
 40
3.0
 40
3.0
 40
3.0
 40
4.0
 40
4.0
 40
4.0
 40
4.0
 10
93.06235207022604
 20
-118.2060613593373
 30
0.0
 10
93.00724818274297
 20
-118.2060613593373
 30
0.0
 10
92.96244540610822
 20
-118.2508288593262
 30
0.0
 10
92.96244540610822
 20
-118.305968025979
 30
0.0
 10
92.96244540610822
 20
-118.3610719148542
 30
0.0
 10
93.00724818274297
 20
-118.4058746926209
 30
0.0
 10
93.06235207022604
 20
-118.4058746926209
 30
0.0
 10
93.117491235486
 20
-118.4058746926209
 30
0.0
 10
93.16226108782067
 20
-118.3610719148542
 30
0.0
 10
93.16226108782067
 20
-118.305968025979
 30
0.0
 10
93.16226108782067
 20
-118.2508288593262
 30
0.0
 10
93.117491235486
 20
-118.2060613593373
 30
0.0
 10
93.06235207022604
 20
-118.2060613593373
 30
0.0
  0
POLYLINE
  5
6E
330
1F
100
AcDbEntity
  8
_U+30EC_U+30A4_U+30E4_U+30FC 1
 62
     7
420
 16777215
370
     9
100
AcDb2dPolyline
 66
     1
 10
0.0
 20
0.0
 30
0.0
  0
VERTEX
  5
6F
330
6E
100
AcDbEntity
  8
_U+30EC_U+30A4_U+30E4_U+30FC 1
 62
     7
420
 16777215
370
     9
100
AcDbVertex
100
AcDb2dVertex
 10
96.06406754920145
 20
-118.305968025979
 30
0.0
  0
VERTEX
  5
70
330
6E
100
AcDbEntity
  8
_U+30EC_U+30A4_U+30E4_U+30FC 1
 62
     7
420
 16777215
370
     9
100
AcDbVertex
100
AcDb2dVertex
 10
93.06235207022604
 20
-118.305968025979
 30
0.0
  0
SEQEND
  5
71
330
6E
100
AcDbEntity
  8
_U+30EC_U+30A4_U+30E4_U+30FC 1
 62
     7
420
 16777215
370
     9
  0
POLYLINE
  5
72
330
1F
100
AcDbEntity
  8
_U+30EC_U+30A4_U+30E4_U+30FC 1
 62
     7
420
 16777215
370
     9
100
AcDb2dPolyline
 66
     1
 10
0.0
 20
0.0
 30
0.0
  0
VERTEX
  5
73
330
72
100
AcDbEntity
  8
_U+30EC_U+30A4_U+30E4_U+30FC 1
 62
     7
420
 16777215
370
     9
100
AcDbVertex
100
AcDb2dVertex
 10
93.06235207022604
 20
-116.8459266374552
 30
0.0
  0
VERTEX
  5
74
330
72
100
AcDbEntity
  8
_U+30EC_U+30A4_U+30E4_U+30FC 1
 62
     7
420
 16777215
370
     9
100
AcDbVertex
100
AcDb2dVertex
 10
93.06235207022604
 20
-119.3057402479515
 30
0.0
  0
SEQEND
  5
75
330
72
100
AcDbEntity
  8
_U+30EC_U+30A4_U+30E4_U+30FC 1
 62
     7
420
 16777215
370
     9
  0
SPLINE
  5
76
330
1F
100
AcDbEntity
  8
_U+30EC_U+30A4_U+30E4_U+30FC 1
 62
     7
420
 16777215
370
     9
100
AcDbSpline
210
0.0
220
0.0
230
1.0
 70
    11
 71
     3
 72
    17
 73
    13
 74
     0
 42
0.0000000001
 43
0.0000000001
 12
1.0
 22
0.0
 32
0.0
 13
1.0
 23
0.0
 33
0.0
 40
0.0
 40
0.0
 40
0.0
 40
0.0
 40
1.0
 40
1.0
 40
1.0
 40
2.0
 40
2.0
 40
2.0
 40
3.0
 40
3.0
 40
3.0
 40
4.0
 40
4.0
 40
4.0
 40
4.0
 10
96.06406754920145
 20
-118.2060613593373
 30
0.0
 10
96.00896366171838
 20
-118.2060613593373
 30
0.0
 10
95.96416088508363
 20
-118.2508288593262
 30
0.0
 10
95.96416088508363
 20
-118.305968025979
 30
0.0
 10
95.96416088508363
 20
-118.3610719148542
 30
0.0
 10
96.00896366171838
 20
-118.4058746926209
 30
0.0
 10
96.06406754920145
 20
-118.4058746926209
 30
0.0
 10
96.11920671446141
 20
-118.4058746926209
 30
0.0
 10
96.16397421331929
 20
-118.3610719148542
 30
0.0
 10
96.16397421331929
 20
-118.305968025979
 30
0.0
 10
96.16397421331929
 20
-118.2508288593262
 30
0.0
 10
96.11920671446141
 20
-118.2060613593373
 30
0.0
 10
96.06406754920145
 20
-118.2060613593373
 30
0.0
  0
POLYLINE
  5
77
330
1F
100
AcDbEntity
  8
_U+30EC_U+30A4_U+30E4_U+30FC 1
 62
     7
420
 16777215
370
     9
100
AcDb2dPolyline
 66
     1
 10
0.0
 20
0.0
 30
0.0
  0
VERTEX
  5
78
330
77
100
AcDbEntity
  8
_U+30EC_U+30A4_U+30E4_U+30FC 1
 62
     7
420
 16777215
370
     9
100
AcDbVertex
100
AcDb2dVertex
 10
96.06406754920145
 20
-116.8459266374552
 30
0.0
  0
VERTEX
  5
79
330
77
100
AcDbEntity
  8
_U+30EC_U+30A4_U+30E4_U+30FC 1
 62
     7
420
 16777215
370
     9
100
AcDbVertex
100
AcDb2dVertex
 10
96.06406754920145
 20
-119.3057402479515
 30
0.0
  0
SEQEND
  5
7A
330
77
100
AcDbEntity
  8
_U+30EC_U+30A4_U+30E4_U+30FC 1
 62
     7
420
 16777215
370
     9
  0
INSERT
  5
7C
330
1F
100
AcDbEntity
  8
_U+30EC_U+30A4_U+30E4_U+30FC 1
100
AcDbBlockReference
  2
block 4
 10
0.0
 20
0.0
 30
0.0
  0
SPLINE
  5
81
330
1F
100
AcDbEntity
  8
_U+30EC_U+30A4_U+30E4_U+30FC 1
 62
     7
420
 16777215
370
     9
100
AcDbSpline
210
0.0
220
0.0
230
1.0
 70
    11
 71
     3
 72
    17
 73
    13
 74
     0
 42
0.0000000001
 43
0.0000000001
 12
1.0
 22
0.0
 32
0.0
 13
1.0
 23
0.0
 33
0.0
 40
0.0
 40
0.0
 40
0.0
 40
0.0
 40
1.0
 40
1.0
 40
1.0
 40
2.0
 40
2.0
 40
2.0
 40
3.0
 40
3.0
 40
3.0
 40
4.0
 40
4.0
 40
4.0
 40
4.0
 10
90.06236520231764
 20
-118.2060613593373
 30
0.0
 10
90.00726131483457
 20
-118.2060613593373
 30
0.0
 10
89.96245853819981
 20
-118.2508288593262
 30
0.0
 10
89.96245853819981
 20
-118.305968025979
 30
0.0
 10
89.96245853819981
 20
-118.3610719148542
 30
0.0
 10
90.00726131483457
 20
-118.4058746926209
 30
0.0
 10
90.06236520231764
 20
-118.4058746926209
 30
0.0
 10
90.1175043675776
 20
-118.4058746926209
 30
0.0
 10
90.16227186643547
 20
-118.3610719148542
 30
0.0
 10
90.16227186643547
 20
-118.305968025979
 30
0.0
 10
90.16227186643547
 20
-118.2508288593262
 30
0.0
 10
90.1175043675776
 20
-118.2060613593373
 30
0.0
 10
90.06236520231764
 20
-118.2060613593373
 30
0.0
  0
POLYLINE
  5
82
330
1F
100
AcDbEntity
  8
_U+30EC_U+30A4_U+30E4_U+30FC 1
 62
     7
420
 16777215
370
     9
100
AcDb2dPolyline
 66
     1
 10
0.0
 20
0.0
 30
0.0
  0
VERTEX
  5
83
330
82
100
AcDbEntity
  8
_U+30EC_U+30A4_U+30E4_U+30FC 1
 62
     7
420
 16777215
370
     9
100
AcDbVertex
100
AcDb2dVertex
 10
93.06408068129305
 20
-118.305968025979
 30
0.0
  0
VERTEX
  5
84
330
82
100
AcDbEntity
  8
_U+30EC_U+30A4_U+30E4_U+30FC 1
 62
     7
420
 16777215
370
     9
100
AcDbVertex
100
AcDb2dVertex
 10
90.06236520231764
 20
-118.305968025979
 30
0.0
  0
SEQEND
  5
85
330
82
100
AcDbEntity
  8
_U+30EC_U+30A4_U+30E4_U+30FC 1
 62
     7
420
 16777215
370
     9
  0
POLYLINE
  5
86
330
1F
100
AcDbEntity
  8
_U+30EC_U+30A4_U+30E4_U+30FC 1
 62
     7
420
 16777215
370
     9
100
AcDb2dPolyline
 66
     1
 10
0.0
 20
0.0
 30
0.0
  0
VERTEX
  5
87
330
86
100
AcDbEntity
  8
_U+30EC_U+30A4_U+30E4_U+30FC 1
 62
     7
420
 16777215
370
     9
100
AcDbVertex
100
AcDb2dVertex
 10
90.06236520231764
 20
-116.8459266374552
 30
0.0
  0
VERTEX
  5
88
330
86
100
AcDbEntity
  8
_U+30EC_U+30A4_U+30E4_U+30FC 1
 62
     7
420
 16777215
370
     9
100
AcDbVertex
100
AcDb2dVertex
 10
90.06236520231764
 20
-119.3057402479515
 30
0.0
  0
SEQEND
  5
89
330
86
100
AcDbEntity
  8
_U+30EC_U+30A4_U+30E4_U+30FC 1
 62
     7
420
 16777215
370
     9
  0
INSERT
  5
8B
330
1F
100
AcDbEntity
  8
_U+30EC_U+30A4_U+30E4_U+30FC 1
100
AcDbBlockReference
  2
block 5
 10
0.0
 20
0.0
 30
0.0
  0
SPLINE
  5
90
330
1F
100
AcDbEntity
  8
_U+30EC_U+30A4_U+30E4_U+30FC 1
 62
     7
420
 16777215
370
     9
100
AcDbSpline
210
0.0
220
0.0
230
1.0
 70
    11
 71
     3
 72
    17
 73
    13
 74
     0
 42
0.0000000001
 43
0.0000000001
 12
1.0
 22
0.0
 32
0.0
 13
1.0
 23
0.0
 33
0.0
 40
0.0
 40
0.0
 40
0.0
 40
0.0
 40
1.0
 40
1.0
 40
1.0
 40
2.0
 40
2.0
 40
2.0
 40
3.0
 40
3.0
 40
3.0
 40
4.0
 40
4.0
 40
4.0
 40
4.0
 10
87.06238053379002
 20
-118.2060613593373
 30
0.0
 10
87.00727444692616
 20
-118.2060613593373
 30
0.0
 10
86.96247167029141
 20
-118.2508288593262
 30
0.0
 10
86.96247167029141
 20
-118.305968025979
 30
0.0
 10
86.96247167029141
 20
-118.3610719148542
 30
0.0
 10
87.00727444692616
 20
-118.4058746926209
 30
0.0
 10
87.06238053379002
 20
-118.4058746926209
 30
0.0
 10
87.11751749966919
 20
-118.4058746926209
 30
0.0
 10
87.16228499852707
 20
-118.3610719148542
 30
0.0
 10
87.16228499852707
 20
-118.305968025979
 30
0.0
 10
87.16228499852707
 20
-118.2508288593262
 30
0.0
 10
87.11751749966919
 20
-118.2060613593373
 30
0.0
 10
87.06238053379002
 20
-118.2060613593373
 30
0.0
  0
POLYLINE
  5
91
330
1F
100
AcDbEntity
  8
_U+30EC_U+30A4_U+30E4_U+30FC 1
 62
     7
420
 16777215
370
     9
100
AcDb2dPolyline
 66
     1
 10
0.0
 20
0.0
 30
0.0
  0
VERTEX
  5
92
330
91
100
AcDbEntity
  8
_U+30EC_U+30A4_U+30E4_U+30FC 1
 62
     7
420
 16777215
370
     9
100
AcDbVertex
100
AcDb2dVertex
 10
90.06409381338466
 20
-118.305968025979
 30
0.0
  0
VERTEX
  5
93
330
91
100
AcDbEntity
  8
_U+30EC_U+30A4_U+30E4_U+30FC 1
 62
     7
420
 16777215
370
     9
100
AcDbVertex
100
AcDb2dVertex
 10
87.06238053379002
 20
-118.305968025979
 30
0.0
  0
SEQEND
  5
94
330
91
100
AcDbEntity
  8
_U+30EC_U+30A4_U+30E4_U+30FC 1
 62
     7
420
 16777215
370
     9
  0
POLYLINE
  5
95
330
1F
100
AcDbEntity
  8
_U+30EC_U+30A4_U+30E4_U+30FC 1
 62
     7
420
 16777215
370
     9
100
AcDb2dPolyline
 66
     1
 10
0.0
 20
0.0
 30
0.0
  0
VERTEX
  5
96
330
95
100
AcDbEntity
  8
_U+30EC_U+30A4_U+30E4_U+30FC 1
 62
     7
420
 16777215
370
     9
100
AcDbVertex
100
AcDb2dVertex
 10
87.06238053379002
 20
-116.8459266374552
 30
0.0
  0
VERTEX
  5
97
330
95
100
AcDbEntity
  8
_U+30EC_U+30A4_U+30E4_U+30FC 1
 62
     7
420
 16777215
370
     9
100
AcDbVertex
100
AcDb2dVertex
 10
87.06238053379002
 20
-119.3057402479515
 30
0.0
  0
SEQEND
  5
98
330
95
100
AcDbEntity
  8
_U+30EC_U+30A4_U+30E4_U+30FC 1
 62
     7
420
 16777215
370
     9
  0
INSERT
  5
9A
330
1F
100
AcDbEntity
  8
_U+30EC_U+30A4_U+30E4_U+30FC 1
100
AcDbBlockReference
  2
block 6
 10
0.0
 20
0.0
 30
0.0
  0
POLYLINE
  5
9F
330
1F
100
AcDbEntity
  8
_U+30EC_U+30A4_U+30E4_U+30FC 1
 62
     7
420
 16777215
370
     9
100
AcDb2dPolyline
 66
     1
 10
0.0
 20
0.0
 30
0.0
  0
VERTEX
  5
A0
330
9F
100
AcDbEntity
  8
_U+30EC_U+30A4_U+30E4_U+30FC 1
 62
     7
420
 16777215
370
     9
100
AcDbVertex
100
AcDb2dVertex
 10
93.0630576257636
 20
-138.2737194098762
 30
0.0
  0
VERTEX
  5
A1
330
9F
100
AcDbEntity
  8
_U+30EC_U+30A4_U+30E4_U+30FC 1
 62
     7
420
 16777215
370
     9
100
AcDbVertex
100
AcDb2dVertex
 10
103.0631432039735
 20
-138.2737194098762
 30
0.0
  0
SEQEND
  5
A2
330
9F
100
AcDbEntity
  8
_U+30EC_U+30A4_U+30E4_U+30FC 1
 62
     7
420
 16777215
370
     9
  0
POLYLINE
  5
A3
330
1F
100
AcDbEntity
  8
_U+30EC_U+30A4_U+30E4_U+30FC 1
 62
     7
420
 16777215
370
     9
100
AcDb2dPolyline
 66
     1
 10
0.0
 20
0.0
 30
0.0
  0
VERTEX
  5
A4
330
A3
100
AcDbEntity
  8
_U+30EC_U+30A4_U+30E4_U+30FC 1
 62
     7
420
 16777215
370
     9
100
AcDbVertex
100
AcDb2dVertex
 10
103.0631432039735
 20
-136.8137132991299
 30
0.0
  0
VERTEX
  5
A5
330
A3
100
AcDbEntity
  8
_U+30EC_U+30A4_U+30E4_U+30FC 1
 62
     7
420
 16777215
370
     9
100
AcDbVertex
100
AcDb2dVertex
 10
103.0631432039735
 20
-139.273491631848
 30
0.0
  0
SEQEND
  5
A6
330
A3
100
AcDbEntity
  8
_U+30EC_U+30A4_U+30E4_U+30FC 1
 62
     7
420
 16777215
370
     9
  0
SPLINE
  5
A7
330
1F
100
AcDbEntity
  8
_U+30EC_U+30A4_U+30E4_U+30FC 1
 62
     7
420
 16777215
370
     9
100
AcDbSpline
210
0.0
220
0.0
230
1.0
 70
    11
 71
     3
 72
    17
 73
    13
 74
     0
 42
0.0000000001
 43
0.0000000001
 12
1.0
 22
0.0
 32
0.0
 13
1.0
 23
0.0
 33
0.0
 40
0.0
 40
0.0
 40
0.0
 40
0.0
 40
1.0
 40
1.0
 40
1.0
 40
2.0
 40
2.0
 40
2.0
 40
3.0
 40
3.0
 40
3.0
 40
4.0
 40
4.0
 40
4.0
 40
4.0
 10
93.1629666433762
 20
-138.2737194098762
 30
0.0
 10
93.1629666433762
 20
-138.2186155210012
 30
0.0
 10
93.11816386560947
 20
-138.1738127432345
 30
0.0
 10
93.0630576257636
 20
-138.1738127432345
 30
0.0
 10
93.00791846050365
 20
-138.1738127432345
 30
0.0
 10
92.96315096164577
 20
-138.2186155210012
 30
0.0
 10
92.96315096164577
 20
-138.2737194098762
 30
0.0
 10
92.96315096164577
 20
-138.3288585765292
 30
0.0
 10
93.00791846050365
 20
-138.3736260765178
 30
0.0
 10
93.0630576257636
 20
-138.3736260765178
 30
0.0
 10
93.11816386560947
 20
-138.3736260765178
 30
0.0
 10
93.1629666433762
 20
-138.3288585765292
 30
0.0
 10
93.1629666433762
 20
-138.2737194098762
 30
0.0
  0
POLYLINE
  5
A8
330
1F
100
AcDbEntity
  8
_U+30EC_U+30A4_U+30E4_U+30FC 1
 62
     7
420
 16777215
370
     9
100
AcDb2dPolyline
 66
     1
 10
0.0
 20
0.0
 30
0.0
  0
VERTEX
  5
A9
330
A8
100
AcDbEntity
  8
_U+30EC_U+30A4_U+30E4_U+30FC 1
 62
     7
420
 16777215
370
     9
100
AcDbVertex
100
AcDb2dVertex
 10
93.0630576257636
 20
-136.8137132991299
 30
0.0
  0
VERTEX
  5
AA
330
A8
100
AcDbEntity
  8
_U+30EC_U+30A4_U+30E4_U+30FC 1
 62
     7
420
 16777215
370
     9
100
AcDbVertex
100
AcDb2dVertex
 10
93.0630576257636
 20
-139.273491631848
 30
0.0
  0
SEQEND
  5
AB
330
A8
100
AcDbEntity
  8
_U+30EC_U+30A4_U+30E4_U+30FC 1
 62
     7
420
 16777215
370
     9
  0
INSERT
  5
AD
330
1F
100
AcDbEntity
  8
_U+30EC_U+30A4_U+30E4_U+30FC 1
100
AcDbBlockReference
  2
block 7
 10
0.0
 20
0.0
 30
0.0
  0
SPLINE
  5
B5
330
1F
100
AcDbEntity
  8
_U+30EC_U+30A4_U+30E4_U+30FC 1
 62
     7
420
 16777215
370
     9
100
AcDbSpline
210
0.0
220
0.0
230
1.0
 70
    11
 71
     3
 72
    17
 73
    13
 74
     0
 42
0.0000000001
 43
0.0000000001
 12
1.0
 22
0.0
 32
0.0
 13
1.0
 23
0.0
 33
0.0
 40
0.0
 40
0.0
 40
0.0
 40
0.0
 40
1.0
 40
1.0
 40
1.0
 40
2.0
 40
2.0
 40
2.0
 40
3.0
 40
3.0
 40
3.0
 40
4.0
 40
4.0
 40
4.0
 40
4.0
 10
90.16227186643547
 20
-138.2737194098762
 30
0.0
 10
90.16227186643547
 20
-138.2186155210012
 30
0.0
 10
90.1175043675776
 20
-138.1738127432345
 30
0.0
 10
90.06236520231764
 20
-138.1738127432345
 30
0.0
 10
90.00726131483457
 20
-138.1738127432345
 30
0.0
 10
89.96245853819981
 20
-138.2186155210012
 30
0.0
 10
89.96245853819981
 20
-138.2737194098762
 30
0.0
 10
89.96245853819981
 20
-138.3288585765292
 30
0.0
 10
90.00726131483457
 20
-138.3736260765178
 30
0.0
 10
90.06236520231764
 20
-138.3736260765178
 30
0.0
 10
90.1175043675776
 20
-138.3736260765178
 30
0.0
 10
90.16227186643547
 20
-138.3288585765292
 30
0.0
 10
90.16227186643547
 20
-138.2737194098762
 30
0.0
  0
POLYLINE
  5
B6
330
1F
100
AcDbEntity
  8
_U+30EC_U+30A4_U+30E4_U+30FC 1
 62
     7
420
 16777215
370
     9
100
AcDb2dPolyline
 66
     1
 10
0.0
 20
0.0
 30
0.0
  0
VERTEX
  5
B7
330
B6
100
AcDbEntity
  8
_U+30EC_U+30A4_U+30E4_U+30FC 1
 62
     7
420
 16777215
370
     9
100
AcDbVertex
100
AcDb2dVertex
 10
75.06243086277563
 20
-138.2737194098762
 30
0.0
  0
VERTEX
  5
B8
330
B6
100
AcDbEntity
  8
_U+30EC_U+30A4_U+30E4_U+30FC 1
 62
     7
420
 16777215
370
     9
100
AcDbVertex
100
AcDb2dVertex
 10
90.06236520231764
 20
-138.2737194098762
 30
0.0
  0
SEQEND
  5
B9
330
B6
100
AcDbEntity
  8
_U+30EC_U+30A4_U+30E4_U+30FC 1
 62
     7
420
 16777215
370
     9
  0
POLYLINE
  5
BA
330
1F
100
AcDbEntity
  8
_U+30EC_U+30A4_U+30E4_U+30FC 1
 62
     7
420
 16777215
370
     9
100
AcDb2dPolyline
 66
     1
 10
0.0
 20
0.0
 30
0.0
  0
VERTEX
  5
BB
330
BA
100
AcDbEntity
  8
_U+30EC_U+30A4_U+30E4_U+30FC 1
 62
     7
420
 16777215
370
     9
100
AcDbVertex
100
AcDb2dVertex
 10
90.06236520231764
 20
-136.8137132991299
 30
0.0
  0
VERTEX
  5
BC
330
BA
100
AcDbEntity
  8
_U+30EC_U+30A4_U+30E4_U+30FC 1
 62
     7
420
 16777215
370
     9
100
AcDbVertex
100
AcDb2dVertex
 10
90.06236520231764
 20
-139.273491631848
 30
0.0
  0
SEQEND
  5
BD
330
BA
100
AcDbEntity
  8
_U+30EC_U+30A4_U+30E4_U+30FC 1
 62
     7
420
 16777215
370
     9
  0
SPLINE
  5
BE
330
1F
100
AcDbEntity
  8
_U+30EC_U+30A4_U+30E4_U+30FC 1
 62
     7
420
 16777215
370
     9
100
AcDbSpline
210
0.0
220
0.0
230
1.0
 70
    11
 71
     3
 72
    17
 73
    13
 74
     0
 42
0.0000000001
 43
0.0000000001
 12
1.0
 22
0.0
 32
0.0
 13
1.0
 23
0.0
 33
0.0
 40
0.0
 40
0.0
 40
0.0
 40
0.0
 40
1.0
 40
1.0
 40
1.0
 40
2.0
 40
2.0
 40
2.0
 40
3.0
 40
3.0
 40
3.0
 40
4.0
 40
4.0
 40
4.0
 40
4.0
 10
75.16233752689347
 20
-138.2737194098762
 30
0.0
 10
75.16233752689347
 20
-138.2186155210012
 30
0.0
 10
75.1175347502587
 20
-138.1738127432345
 30
0.0
 10
75.06243086277563
 20
-138.1738127432345
 30
0.0
 10
75.00729169751568
 20
-138.1738127432345
 30
0.0
 10
74.96252419865779
 20
-138.2186155210012
 30
0.0
 10
74.96252419865779
 20
-138.2737194098762
 30
0.0
 10
74.96252419865779
 20
-138.3288585765292
 30
0.0
 10
75.00729169751568
 20
-138.3736260765178
 30
0.0
 10
75.06243086277563
 20
-138.3736260765178
 30
0.0
 10
75.1175347502587
 20
-138.3736260765178
 30
0.0
 10
75.16233752689347
 20
-138.3288585765292
 30
0.0
 10
75.16233752689347
 20
-138.2737194098762
 30
0.0
  0
POLYLINE
  5
BF
330
1F
100
AcDbEntity
  8
_U+30EC_U+30A4_U+30E4_U+30FC 1
 62
     7
420
 16777215
370
     9
100
AcDb2dPolyline
 66
     1
 10
0.0
 20
0.0
 30
0.0
  0
VERTEX
  5
C0
330
BF
100
AcDbEntity
  8
_U+30EC_U+30A4_U+30E4_U+30FC 1
 62
     7
420
 16777215
370
     9
100
AcDbVertex
100
AcDb2dVertex
 10
75.06243086277563
 20
-136.8137132991299
 30
0.0
  0
VERTEX
  5
C1
330
BF
100
AcDbEntity
  8
_U+30EC_U+30A4_U+30E4_U+30FC 1
 62
     7
420
 16777215
370
     9
100
AcDbVertex
100
AcDb2dVertex
 10
75.06243086277563
 20
-139.273491631848
 30
0.0
  0
SEQEND
  5
C2
330
BF
100
AcDbEntity
  8
_U+30EC_U+30A4_U+30E4_U+30FC 1
 62
     7
420
 16777215
370
     9
  0
INSERT
  5
C4
330
1F
100
AcDbEntity
  8
_U+30EC_U+30A4_U+30E4_U+30FC 1
100
AcDbBlockReference
  2
block 8
 10
0.0
 20
0.0
 30
0.0
  0
SPLINE
  5
CB
330
1F
100
AcDbEntity
  8
_U+30EC_U+30A4_U+30E4_U+30FC 1
 62
   179
420
  2234388
370
     9
100
AcDbSpline
210
0.0
220
0.0
230
1.0
 70
    11
 71
     3
 72
    17
 73
    13
 74
     0
 42
0.0000000001
 43
0.0000000001
 12
1.0
 22
0.0
 32
0.0
 13
1.0
 23
0.0
 33
0.0
 40
0.0
 40
0.0
 40
0.0
 40
0.0
 40
1.0
 40
1.0
 40
1.0
 40
2.0
 40
2.0
 40
2.0
 40
3.0
 40
3.0
 40
3.0
 40
4.0
 40
4.0
 40
4.0
 40
4.0
 10
93.15746095668851
 20
-124.8033938576881
 30
0.0
 10
93.15746095668851
 20
-124.7482899688128
 30
0.0
 10
93.11265818005374
 20
-124.7034871910464
 30
0.0
 10
93.05755429257067
 20
-124.7034871910464
 30
0.0
 10
93.00241512731073
 20
-124.7034871910464
 30
0.0
 10
92.95764997676073
 20
-124.7482899688128
 30
0.0
 10
92.95764997676073
 20
-124.8033938576881
 30
0.0
 10
92.95764997676073
 20
-124.8585330243408
 30
0.0
 10
93.00241512731073
 20
-124.9033005243297
 30
0.0
 10
93.05755429257067
 20
-124.9033005243297
 30
0.0
 10
93.11265818005374
 20
-124.9033005243297
 30
0.0
 10
93.15746095668851
 20
-124.8585330243408
 30
0.0
 10
93.15746095668851
 20
-124.8033938576881
 30
0.0
  0
SPLINE
  5
CC
330
1F
100
AcDbEntity
  8
_U+30EC_U+30A4_U+30E4_U+30FC 1
 62
   179
420
  2234388
370
     9
100
AcDbSpline
210
0.0
220
0.0
230
1.0
 70
    11
 71
     3
 72
    17
 73
    13
 74
     0
 42
0.0000000001
 43
0.0000000001
 12
1.0
 22
0.0
 32
0.0
 13
1.0
 23
0.0
 33
0.0
 40
0.0
 40
0.0
 40
0.0
 40
0.0
 40
1.0
 40
1.0
 40
1.0
 40
2.0
 40
2.0
 40
2.0
 40
3.0
 40
3.0
 40
3.0
 40
4.0
 40
4.0
 40
4.0
 40
4.0
 10
94.15719787562753
 20
-124.8033938576881
 30
0.0
 10
94.15719787562753
 20
-124.7482899688128
 30
0.0
 10
94.11243037676965
 20
-124.7034871910464
 30
0.0
 10
94.05729121150969
 20
-124.7034871910464
 30
0.0
 10
94.00218732402662
 20
-124.7034871910464
 30
0.0
 10
93.95738454739187
 20
-124.7482899688128
 30
0.0
 10
93.95738454739187
 20
-124.8033938576881
 30
0.0
 10
93.95738454739187
 20
-124.8585330243408
 30
0.0
 10
94.00218732402662
 20
-124.9033005243297
 30
0.0
 10
94.05729121150969
 20
-124.9033005243297
 30
0.0
 10
94.11243037676965
 20
-124.9033005243297
 30
0.0
 10
94.15719787562753
 20
-124.8585330243408
 30
0.0
 10
94.15719787562753
 20
-124.8033938576881
 30
0.0
  0
INSERT
  5
CE
330
1F
100
AcDbEntity
  8
_U+30EC_U+30A4_U+30E4_U+30FC 1
100
AcDbBlockReference
  2
block 9
 10
0.0
 20
0.0
 30
0.0
  0
POLYLINE
  5
D3
330
1F
100
AcDbEntity
  8
_U+30EC_U+30A4_U+30E4_U+30FC 1
 62
   179
420
  2234388
370
     9
100
AcDb2dPolyline
 66
     1
 10
0.0
 20
0.0
 30
0.0
  0
VERTEX
  5
D4
330
D3
100
AcDbEntity
  8
_U+30EC_U+30A4_U+30E4_U+30FC 1
 62
   179
420
  2234388
370
     9
100
AcDbVertex
100
AcDb2dVertex
 10
95.97689616253649
 20
-124.8033938576881
 30
0.0
  0
VERTEX
  5
D5
330
D3
100
AcDbEntity
  8
_U+30EC_U+30A4_U+30E4_U+30FC 1
 62
   179
420
  2234388
370
     9
100
AcDbVertex
100
AcDb2dVertex
 10
92.13839181602046
 20
-124.8033938576881
 30
0.0
  0
SEQEND
  5
D6
330
D3
100
AcDbEntity
  8
_U+30EC_U+30A4_U+30E4_U+30FC 1
 62
   179
420
  2234388
370
     9
  0
POLYLINE
  5
D7
330
1F
100
AcDbEntity
  8
_U+30EC_U+30A4_U+30E4_U+30FC 1
 62
   179
420
  2234388
370
    25
100
AcDb2dPolyline
 66
     1
 10
0.0
 20
0.0
 30
0.0
  0
VERTEX
  5
D8
330
D7
100
AcDbEntity
  8
_U+30EC_U+30A4_U+30E4_U+30FC 1
 62
   179
420
  2234388
370
    25
100
AcDbVertex
100
AcDb2dVertex
 10
81.26980264885682
 20
-133.8929602443045
 30
0.0
  0
VERTEX
  5
D9
330
D7
100
AcDbEntity
  8
_U+30EC_U+30A4_U+30E4_U+30FC 1
 62
   179
420
  2234388
370
    25
100
AcDbVertex
100
AcDb2dVertex
 10
80.77062210603643
 20
-134.2932571886491
 30
0.0
  0
SEQEND
  5
DA
330
D7
100
AcDbEntity
  8
_U+30EC_U+30A4_U+30E4_U+30FC 1
 62
   179
420
  2234388
370
    25
  0
POLYLINE
  5
DB
330
1F
100
AcDbEntity
  8
_U+30EC_U+30A4_U+30E4_U+30FC 1
 62
   179
420
  2234388
370
    25
100
AcDb2dPolyline
 66
     1
 10
0.0
 20
0.0
 30
0.0
  0
VERTEX
  5
DC
330
DB
100
AcDbEntity
  8
_U+30EC_U+30A4_U+30E4_U+30FC 1
 62
   179
420
  2234388
370
    25
100
AcDbVertex
100
AcDb2dVertex
 10
81.26980264885682
 20
-133.8929602443045
 30
0.0
  0
VERTEX
  5
DD
330
DB
100
AcDbEntity
  8
_U+30EC_U+30A4_U+30E4_U+30FC 1
 62
   179
420
  2234388
370
    25
100
AcDbVertex
100
AcDb2dVertex
 10
81.77036109066852
 20
-134.2922341330933
 30
0.0
  0
SEQEND
  5
DE
330
DB
100
AcDbEntity
  8
_U+30EC_U+30A4_U+30E4_U+30FC 1
 62
   179
420
  2234388
370
    25
  0
POLYLINE
  5
DF
330
1F
100
AcDbEntity
  8
_U+30EC_U+30A4_U+30E4_U+30FC 1
 62
   179
420
  2234388
370
    25
100
AcDb2dPolyline
 66
     1
 10
0.0
 20
0.0
 30
0.0
  0
VERTEX
  5
E0
330
DF
100
AcDbEntity
  8
_U+30EC_U+30A4_U+30E4_U+30FC 1
 62
   179
420
  2234388
370
    25
100
AcDbVertex
100
AcDb2dVertex
 10
81.77036109066852
 20
-134.2922341330933
 30
0.0
  0
VERTEX
  5
E1
330
DF
100
AcDbEntity
  8
_U+30EC_U+30A4_U+30E4_U+30FC 1
 62
   179
420
  2234388
370
    25
100
AcDbVertex
100
AcDb2dVertex
 10
82.27059997943222
 20
-133.8919019109713
 30
0.0
  0
SEQEND
  5
E2
330
DF
100
AcDbEntity
  8
_U+30EC_U+30A4_U+30E4_U+30FC 1
 62
   179
420
  2234388
370
    25
  0
POLYLINE
  5
E3
330
1F
100
AcDbEntity
  8
_U+30EC_U+30A4_U+30E4_U+30FC 1
 62
   179
420
  2234388
370
    25
100
AcDb2dPolyline
 66
     1
 10
0.0
 20
0.0
 30
0.0
  0
VERTEX
  5
E4
330
E3
100
AcDbEntity
  8
_U+30EC_U+30A4_U+30E4_U+30FC 1
 62
   179
420
  2234388
370
    25
100
AcDbVertex
100
AcDb2dVertex
 10
82.27059997943222
 20
-133.8919019109713
 30
0.0
  0
VERTEX
  5
E5
330
E3
100
AcDbEntity
  8
_U+30EC_U+30A4_U+30E4_U+30FC 1
 62
   179
420
  2234388
370
    25
100
AcDbVertex
100
AcDb2dVertex
 10
82.77083886819625
 20
-134.2912110775382
 30
0.0
  0
SEQEND
  5
E6
330
E3
100
AcDbEntity
  8
_U+30EC_U+30A4_U+30E4_U+30FC 1
 62
   179
420
  2234388
370
    25
  0
POLYLINE
  5
E7
330
1F
100
AcDbEntity
  8
_U+30EC_U+30A4_U+30E4_U+30FC 1
 62
   179
420
  2234388
370
    25
100
AcDb2dPolyline
 66
     1
 10
0.0
 20
0.0
 30
0.0
  0
VERTEX
  5
E8
330
E7
100
AcDbEntity
  8
_U+30EC_U+30A4_U+30E4_U+30FC 1
 62
   179
420
  2234388
370
    25
100
AcDbVertex
100
AcDb2dVertex
 10
82.77083886819625
 20
-134.2912110775382
 30
0.0
  0
VERTEX
  5
E9
330
E7
100
AcDbEntity
  8
_U+30EC_U+30A4_U+30E4_U+30FC 1
 62
   179
420
  2234388
370
    25
100
AcDbVertex
100
AcDb2dVertex
 10
83.270019423627
 20
-133.8908788554161
 30
0.0
  0
SEQEND
  5
EA
330
E7
100
AcDbEntity
  8
_U+30EC_U+30A4_U+30E4_U+30FC 1
 62
   179
420
  2234388
370
    25
  0
POLYLINE
  5
EB
330
1F
100
AcDbEntity
  8
_U+30EC_U+30A4_U+30E4_U+30FC 1
 62
   179
420
  2234388
370
    25
100
AcDb2dPolyline
 66
     1
 10
0.0
 20
0.0
 30
0.0
  0
VERTEX
  5
EC
330
EB
100
AcDbEntity
  8
_U+30EC_U+30A4_U+30E4_U+30FC 1
 62
   179
420
  2234388
370
    25
100
AcDbVertex
100
AcDb2dVertex
 10
83.270019423627
 20
-133.8908788554161
 30
0.0
  0
VERTEX
  5
ED
330
EB
100
AcDbEntity
  8
_U+30EC_U+30A4_U+30E4_U+30FC 1
 62
   179
420
  2234388
370
    25
100
AcDbVertex
100
AcDb2dVertex
 10
83.77061109016847
 20
-134.2908582997604
 30
0.0
  0
SEQEND
  5
EE
330
EB
100
AcDbEntity
  8
_U+30EC_U+30A4_U+30E4_U+30FC 1
 62
   179
420
  2234388
370
    25
  0
POLYLINE
  5
EF
330
1F
100
AcDbEntity
  8
_U+30EC_U+30A4_U+30E4_U+30FC 1
 62
   179
420
  2234388
370
    25
100
AcDb2dPolyline
 66
     1
 10
0.0
 20
0.0
 30
0.0
  0
VERTEX
  5
F0
330
EF
100
AcDbEntity
  8
_U+30EC_U+30A4_U+30E4_U+30FC 1
 62
   179
420
  2234388
370
    25
100
AcDbVertex
100
AcDb2dVertex
 10
83.77061109016847
 20
-134.2908582997604
 30
0.0
  0
VERTEX
  5
F1
330
EF
100
AcDbEntity
  8
_U+30EC_U+30A4_U+30E4_U+30FC 1
 62
   179
420
  2234388
370
    25
100
AcDbVertex
100
AcDb2dVertex
 10
84.26979164559923
 20
-133.8905260776384
 30
0.0
  0
SEQEND
  5
F2
330
EF
100
AcDbEntity
  8
_U+30EC_U+30A4_U+30E4_U+30FC 1
 62
   179
420
  2234388
370
    25
  0
POLYLINE
  5
F3
330
1F
100
AcDbEntity
  8
_U+30EC_U+30A4_U+30E4_U+30FC 1
 62
   179
420
  2234388
370
    25
100
AcDb2dPolyline
 66
     1
 10
0.0
 20
0.0
 30
0.0
  0
VERTEX
  5
F4
330
F3
100
AcDbEntity
  8
_U+30EC_U+30A4_U+30E4_U+30FC 1
 62
   179
420
  2234388
370
    25
100
AcDbVertex
100
AcDb2dVertex
 10
84.26979164559923
 20
-133.8905260776384
 30
0.0
  0
VERTEX
  5
F5
330
F3
100
AcDbEntity
  8
_U+30EC_U+30A4_U+30E4_U+30FC 1
 62
   179
420
  2234388
370
    25
100
AcDbVertex
100
AcDb2dVertex
 10
84.77034589288385
 20
-134.2898352442053
 30
0.0
  0
SEQEND
  5
F6
330
F3
100
AcDbEntity
  8
_U+30EC_U+30A4_U+30E4_U+30FC 1
 62
   179
420
  2234388
370
    25
  0
POLYLINE
  5
F7
330
1F
100
AcDbEntity
  8
_U+30EC_U+30A4_U+30E4_U+30FC 1
 62
   179
420
  2234388
370
    25
100
AcDb2dPolyline
 66
     1
 10
0.0
 20
0.0
 30
0.0
  0
VERTEX
  5
F8
330
F7
100
AcDbEntity
  8
_U+30EC_U+30A4_U+30E4_U+30FC 1
 62
   179
420
  2234388
370
    25
100
AcDbVertex
100
AcDb2dVertex
 10
84.77034589288385
 20
-134.2898352442053
 30
0.0
  0
VERTEX
  5
F9
330
F7
100
AcDbEntity
  8
_U+30EC_U+30A4_U+30E4_U+30FC 1
 62
   179
420
  2234388
370
    25
100
AcDbVertex
100
AcDb2dVertex
 10
85.2699166453492
 20
-133.8895030220832
 30
0.0
  0
SEQEND
  5
FA
330
F7
100
AcDbEntity
  8
_U+30EC_U+30A4_U+30E4_U+30FC 1
 62
   179
420
  2234388
370
    25
  0
POLYLINE
  5
FB
330
1F
100
AcDbEntity
  8
_U+30EC_U+30A4_U+30E4_U+30FC 1
 62
   179
420
  2234388
370
    25
100
AcDb2dPolyline
 66
     1
 10
0.0
 20
0.0
 30
0.0
  0
VERTEX
  5
FC
330
FB
100
AcDbEntity
  8
_U+30EC_U+30A4_U+30E4_U+30FC 1
 62
   179
420
  2234388
370
    25
100
AcDbVertex
100
AcDb2dVertex
 10
85.2699166453492
 20
-133.8895030220832
 30
0.0
  0
VERTEX
  5
FD
330
FB
100
AcDbEntity
  8
_U+30EC_U+30A4_U+30E4_U+30FC 1
 62
   179
420
  2234388
370
    25
100
AcDbVertex
100
AcDb2dVertex
 10
85.77047086736854
 20
-134.288776910872
 30
0.0
  0
SEQEND
  5
FE
330
FB
100
AcDbEntity
  8
_U+30EC_U+30A4_U+30E4_U+30FC 1
 62
   179
420
  2234388
370
    25
  0
POLYLINE
  5
FF
330
1F
100
AcDbEntity
  8
_U+30EC_U+30A4_U+30E4_U+30FC 1
 62
   179
420
  2234388
370
    25
100
AcDb2dPolyline
 66
     1
 10
0.0
 20
0.0
 30
0.0
  0
VERTEX
  5
100
330
FF
100
AcDbEntity
  8
_U+30EC_U+30A4_U+30E4_U+30FC 1
 62
   179
420
  2234388
370
    25
100
AcDbVertex
100
AcDb2dVertex
 10
85.77047086736854
 20
-134.288776910872
 30
0.0
  0
VERTEX
  5
101
330
FF
100
AcDbEntity
  8
_U+30EC_U+30A4_U+30E4_U+30FC 1
 62
   179
420
  2234388
370
    25
100
AcDbVertex
100
AcDb2dVertex
 10
86.26965141018894
 20
-133.8884799665281
 30
0.0
  0
SEQEND
  5
102
330
FF
100
AcDbEntity
  8
_U+30EC_U+30A4_U+30E4_U+30FC 1
 62
   179
420
  2234388
370
    25
  0
POLYLINE
  5
103
330
1F
100
AcDbEntity
  8
_U+30EC_U+30A4_U+30E4_U+30FC 1
 62
   179
420
  2234388
370
    25
100
AcDb2dPolyline
 66
     1
 10
0.0
 20
0.0
 30
0.0
  0
VERTEX
  5
104
330
103
100
AcDbEntity
  8
_U+30EC_U+30A4_U+30E4_U+30FC 1
 62
   179
420
  2234388
370
    25
100
AcDbVertex
100
AcDb2dVertex
 10
86.26965141018894
 20
-133.8884799665281
 30
0.0
  0
VERTEX
  5
105
330
103
100
AcDbEntity
  8
_U+30EC_U+30A4_U+30E4_U+30FC 1
 62
   179
420
  2234388
370
    25
100
AcDbVertex
100
AcDb2dVertex
 10
86.77024306408445
 20
-134.2877538553169
 30
0.0
  0
SEQEND
  5
106
330
103
100
AcDbEntity
  8
_U+30EC_U+30A4_U+30E4_U+30FC 1
 62
   179
420
  2234388
370
    25
  0
POLYLINE
  5
107
330
1F
100
AcDbEntity
  8
_U+30EC_U+30A4_U+30E4_U+30FC 1
 62
   179
420
  2234388
370
    25
100
AcDb2dPolyline
 66
     1
 10
0.0
 20
0.0
 30
0.0
  0
VERTEX
  5
108
330
107
100
AcDbEntity
  8
_U+30EC_U+30A4_U+30E4_U+30FC 1
 62
   179
420
  2234388
370
    25
100
AcDbVertex
100
AcDb2dVertex
 10
86.77024306408445
 20
-134.2877538553169
 30
0.0
  0
VERTEX
  5
109
330
107
100
AcDbEntity
  8
_U+30EC_U+30A4_U+30E4_U+30FC 1
 62
   179
420
  2234388
370
    25
100
AcDbVertex
100
AcDb2dVertex
 10
87.26942360690485
 20
-133.8874216331948
 30
0.0
  0
SEQEND
  5
10A
330
107
100
AcDbEntity
  8
_U+30EC_U+30A4_U+30E4_U+30FC 1
 62
   179
420
  2234388
370
    25
  0
POLYLINE
  5
10B
330
1F
100
AcDbEntity
  8
_U+30EC_U+30A4_U+30E4_U+30FC 1
 62
   179
420
  2234388
370
    25
100
AcDb2dPolyline
 66
     1
 10
0.0
 20
0.0
 30
0.0
  0
VERTEX
  5
10C
330
10B
100
AcDbEntity
  8
_U+30EC_U+30A4_U+30E4_U+30FC 1
 62
   179
420
  2234388
370
    25
100
AcDbVertex
100
AcDb2dVertex
 10
87.26942360690485
 20
-133.8874216331948
 30
0.0
  0
VERTEX
  5
10D
330
10B
100
AcDbEntity
  8
_U+30EC_U+30A4_U+30E4_U+30FC 1
 62
   179
420
  2234388
370
    25
100
AcDbVertex
100
AcDb2dVertex
 10
87.76966248303158
 20
-134.2867307997618
 30
0.0
  0
SEQEND
  5
10E
330
10B
100
AcDbEntity
  8
_U+30EC_U+30A4_U+30E4_U+30FC 1
 62
   179
420
  2234388
370
    25
  0
POLYLINE
  5
10F
330
1F
100
AcDbEntity
  8
_U+30EC_U+30A4_U+30E4_U+30FC 1
 62
   179
420
  2234388
370
    25
100
AcDb2dPolyline
 66
     1
 10
0.0
 20
0.0
 30
0.0
  0
VERTEX
  5
110
330
10F
100
AcDbEntity
  8
_U+30EC_U+30A4_U+30E4_U+30FC 1
 62
   179
420
  2234388
370
    25
100
AcDbVertex
100
AcDb2dVertex
 10
87.76966248303158
 20
-134.2867307997618
 30
0.0
  0
VERTEX
  5
111
330
10F
100
AcDbEntity
  8
_U+30EC_U+30A4_U+30E4_U+30FC 1
 62
   179
420
  2234388
370
    25
100
AcDbVertex
100
AcDb2dVertex
 10
88.26990135915831
 20
-133.8863985776397
 30
0.0
  0
SEQEND
  5
112
330
10F
100
AcDbEntity
  8
_U+30EC_U+30A4_U+30E4_U+30FC 1
 62
   179
420
  2234388
370
    25
  0
POLYLINE
  5
113
330
1F
100
AcDbEntity
  8
_U+30EC_U+30A4_U+30E4_U+30FC 1
 62
   179
420
  2234388
370
    25
100
AcDb2dPolyline
 66
     1
 10
0.0
 20
0.0
 30
0.0
  0
VERTEX
  5
114
330
113
100
AcDbEntity
  8
_U+30EC_U+30A4_U+30E4_U+30FC 1
 62
   179
420
  2234388
370
    25
100
AcDbVertex
100
AcDb2dVertex
 10
88.26990135915831
 20
-133.8863985776397
 30
0.0
  0
VERTEX
  5
115
330
113
100
AcDbEntity
  8
_U+30EC_U+30A4_U+30E4_U+30FC 1
 62
   179
420
  2234388
370
    25
100
AcDbVertex
100
AcDb2dVertex
 10
88.77045773527695
 20
-134.286378021984
 30
0.0
  0
SEQEND
  5
116
330
113
100
AcDbEntity
  8
_U+30EC_U+30A4_U+30E4_U+30FC 1
 62
   179
420
  2234388
370
    25
  0
POLYLINE
  5
117
330
1F
100
AcDbEntity
  8
_U+30EC_U+30A4_U+30E4_U+30FC 1
 62
     7
420
 16777215
370
    25
100
AcDb2dPolyline
 66
     1
 10
0.0
 20
0.0
 30
0.0
  0
VERTEX
  5
118
330
117
100
AcDbEntity
  8
_U+30EC_U+30A4_U+30E4_U+30FC 1
 62
     7
420
 16777215
370
    25
100
AcDbVertex
100
AcDb2dVertex
 10
95.06224924142664
 20
-120.0901769144218
 30
0.0
  0
VERTEX
  5
119
330
117
100
AcDbEntity
  8
_U+30EC_U+30A4_U+30E4_U+30FC 1
 62
     7
420
 16777215
370
    25
100
AcDbVertex
100
AcDb2dVertex
 10
93.06235207022604
 20
-120.0898241366441
 30
0.0
  0
VERTEX
  5
11A
330
117
100
AcDbEntity
  8
_U+30EC_U+30A4_U+30E4_U+30FC 1
 62
     7
420
 16777215
370
    25
100
AcDbVertex
100
AcDb2dVertex
 10
93.06235207022604
 20
-127.0868185793395
 30
0.0
  0
VERTEX
  5
11B
330
117
100
AcDbEntity
  8
_U+30EC_U+30A4_U+30E4_U+30FC 1
 62
     7
420
 16777215
370
    25
100
AcDbVertex
100
AcDb2dVertex
 10
90.06236520231764
 20
-127.0868185793395
 30
0.0
  0
VERTEX
  5
11C
330
117
100
AcDbEntity
  8
_U+30EC_U+30A4_U+30E4_U+30FC 1
 62
     7
420
 16777215
370
    25
100
AcDbVertex
100
AcDb2dVertex
 10
90.06236520231764
 20
-120.0898241366441
 30
0.0
  0
VERTEX
  5
11D
330
117
100
AcDbEntity
  8
_U+30EC_U+30A4_U+30E4_U+30FC 1
 62
     7
420
 16777215
370
    25
100
AcDbVertex
100
AcDb2dVertex
 10
88.06250553354
 20
-120.0901769144218
 30
0.0
  0
SEQEND
  5
11E
330
117
100
AcDbEntity
  8
_U+30EC_U+30A4_U+30E4_U+30FC 1
 62
     7
420
 16777215
370
    25
  0
POLYLINE
  5
11F
330
1F
100
AcDbEntity
  8
_U+30EC_U+30A4_U+30E4_U+30FC 1
 62
     7
420
 16777215
370
    25
100
AcDb2dPolyline
 66
     1
 10
0.0
 20
0.0
 30
0.0
  0
VERTEX
  5
120
330
11F
100
AcDbEntity
  8
_U+30EC_U+30A4_U+30E4_U+30FC 1
 62
     7
420
 16777215
370
    25
100
AcDbVertex
100
AcDb2dVertex
 10
102.3765318326015
 20
-134.3904121886243
 30
0.0
  0
VERTEX
  5
121
330
11F
100
AcDbEntity
  8
_U+30EC_U+30A4_U+30E4_U+30FC 1
 62
     7
420
 16777215
370
    25
100
AcDbVertex
100
AcDb2dVertex
 10
96.37172504135246
 20
-134.3904121886243
 30
0.0
  0
VERTEX
  5
122
330
11F
100
AcDbEntity
  8
_U+30EC_U+30A4_U+30E4_U+30FC 1
 62
     7
420
 16777215
370
    25
100
AcDbVertex
100
AcDb2dVertex
 10
96.07200504899896
 20
-134.0896691331443
 30
0.0
  0
VERTEX
  5
123
330
11F
100
AcDbEntity
  8
_U+30EC_U+30A4_U+30E4_U+30FC 1
 62
     7
420
 16777215
370
    25
100
AcDbVertex
100
AcDb2dVertex
 10
94.06212426694195
 20
-134.0896691331443
 30
0.0
  0
VERTEX
  5
124
330
11F
100
AcDbEntity
  8
_U+30EC_U+30A4_U+30E4_U+30FC 1
 62
     7
420
 16777215
370
    25
100
AcDbVertex
100
AcDb2dVertex
 10
94.06212426694195
 20
-121.089949136394
 30
0.0
  0
VERTEX
  5
125
330
11F
100
AcDbEntity
  8
_U+30EC_U+30A4_U+30E4_U+30FC 1
 62
     7
420
 16777215
370
    25
100
AcDbVertex
100
AcDb2dVertex
 10
96.06202143814255
 20
-121.089949136394
 30
0.0
  0
SEQEND
  5
126
330
11F
100
AcDbEntity
  8
_U+30EC_U+30A4_U+30E4_U+30FC 1
 62
     7
420
 16777215
370
    25
  0
POLYLINE
  5
127
330
1F
100
AcDbEntity
  8
_U+30EC_U+30A4_U+30E4_U+30FC 1
 62
   179
420
  2234388
370
    25
100
AcDb2dPolyline
 66
     1
 10
0.0
 20
0.0
 30
0.0
  0
VERTEX
  5
128
330
127
100
AcDbEntity
  8
_U+30EC_U+30A4_U+30E4_U+30FC 1
 62
   179
420
  2234388
370
    25
100
AcDbVertex
100
AcDb2dVertex
 10
103.0631432039735
 20
-135.0897588551164
 30
0.0
  0
VERTEX
  5
129
330
127
100
AcDbEntity
  8
_U+30EC_U+30A4_U+30E4_U+30FC 1
 62
   179
420
  2234388
370
    25
100
AcDbVertex
100
AcDb2dVertex
 10
93.06235207022604
 20
-135.0897588551164
 30
0.0
  0
VERTEX
  5
12A
330
127
100
AcDbEntity
  8
_U+30EC_U+30A4_U+30E4_U+30FC 1
 62
   179
420
  2234388
370
    25
100
AcDbVertex
100
AcDb2dVertex
 10
93.06235207022604
 20
-128.0865908013117
 30
0.0
  0
VERTEX
  5
12B
330
127
100
AcDbEntity
  8
_U+30EC_U+30A4_U+30E4_U+30FC 1
 62
   179
420
  2234388
370
    25
100
AcDbVertex
100
AcDb2dVertex
 10
90.06236520231764
 20
-128.0865908013117
 30
0.0
  0
VERTEX
  5
12C
330
127
100
AcDbEntity
  8
_U+30EC_U+30A4_U+30E4_U+30FC 1
 62
   179
420
  2234388
370
    25
100
AcDbVertex
100
AcDb2dVertex
 10
90.06236520231764
 20
-135.0897588551164
 30
0.0
  0
VERTEX
  5
12D
330
127
100
AcDbEntity
  8
_U+30EC_U+30A4_U+30E4_U+30FC 1
 62
   179
420
  2234388
370
    25
100
AcDbVertex
100
AcDb2dVertex
 10
75.06243086277563
 20
-135.0897588551164
 30
0.0
  0
VERTEX
  5
12E
330
127
100
AcDbEntity
  8
_U+30EC_U+30A4_U+30E4_U+30FC 1
 62
   179
420
  2234388
370
    25
100
AcDbVertex
100
AcDb2dVertex
 10
75.06243086277563
 20
-133.897440522081
 30
0.0
  0
VERTEX
  5
12F
330
127
100
AcDbEntity
  8
_U+30EC_U+30A4_U+30E4_U+30FC 1
 62
   179
420
  2234388
370
    25
100
AcDbVertex
100
AcDb2dVertex
 10
76.26991860974782
 20
-133.897440522081
 30
0.0
  0
VERTEX
  5
130
330
127
100
AcDbEntity
  8
_U+30EC_U+30A4_U+30E4_U+30FC 1
 62
   179
420
  2234388
370
    25
100
AcDbVertex
100
AcDb2dVertex
 10
76.77015748587456
 20
-134.2967144108704
 30
0.0
  0
SEQEND
  5
131
330
127
100
AcDbEntity
  8
_U+30EC_U+30A4_U+30E4_U+30FC 1
 62
   179
420
  2234388
370
    25
  0
POLYLINE
  5
132
330
1F
100
AcDbEntity
  8
_U+30EC_U+30A4_U+30E4_U+30FC 1
 62
   179
420
  2234388
370
    25
100
AcDb2dPolyline
 66
     1
 10
0.0
 20
0.0
 30
0.0
  0
VERTEX
  5
133
330
132
100
AcDbEntity
  8
_U+30EC_U+30A4_U+30E4_U+30FC 1
 62
   179
420
  2234388
370
    25
100
AcDbVertex
100
AcDb2dVertex
 10
76.77015748587456
 20
-134.2967144108704
 30
0.0
  0
VERTEX
  5
134
330
132
100
AcDbEntity
  8
_U+30EC_U+30A4_U+30E4_U+30FC 1
 62
   179
420
  2234388
370
    25
100
AcDbVertex
100
AcDb2dVertex
 10
77.27039636200129
 20
-133.8963821887483
 30
0.0
  0
SEQEND
  5
135
330
132
100
AcDbEntity
  8
_U+30EC_U+30A4_U+30E4_U+30FC 1
 62
   179
420
  2234388
370
    25
  0
POLYLINE
  5
136
330
1F
100
AcDbEntity
  8
_U+30EC_U+30A4_U+30E4_U+30FC 1
 62
   179
420
  2234388
370
    25
100
AcDb2dPolyline
 66
     1
 10
0.0
 20
0.0
 30
0.0
  0
VERTEX
  5
137
330
136
100
AcDbEntity
  8
_U+30EC_U+30A4_U+30E4_U+30FC 1
 62
   179
420
  2234388
370
    25
100
AcDbVertex
100
AcDb2dVertex
 10
77.27039636200129
 20
-133.8963821887483
 30
0.0
  0
VERTEX
  5
138
330
136
100
AcDbEntity
  8
_U+30EC_U+30A4_U+30E4_U+30FC 1
 62
   179
420
  2234388
370
    25
100
AcDbVertex
100
AcDb2dVertex
 10
77.77059996035115
 20
-134.2956913553153
 30
0.0
  0
SEQEND
  5
139
330
136
100
AcDbEntity
  8
_U+30EC_U+30A4_U+30E4_U+30FC 1
 62
   179
420
  2234388
370
    25
  0
POLYLINE
  5
13A
330
1F
100
AcDbEntity
  8
_U+30EC_U+30A4_U+30E4_U+30FC 1
 62
   179
420
  2234388
370
    25
100
AcDb2dPolyline
 66
     1
 10
0.0
 20
0.0
 30
0.0
  0
VERTEX
  5
13B
330
13A
100
AcDbEntity
  8
_U+30EC_U+30A4_U+30E4_U+30FC 1
 62
   179
420
  2234388
370
    25
100
AcDbVertex
100
AcDb2dVertex
 10
77.77059996035115
 20
-134.2956913553153
 30
0.0
  0
VERTEX
  5
13C
330
13A
100
AcDbEntity
  8
_U+30EC_U+30A4_U+30E4_U+30FC 1
 62
   179
420
  2234388
370
    25
100
AcDbVertex
100
AcDb2dVertex
 10
78.2701685587172
 20
-133.8953591331925
 30
0.0
  0
SEQEND
  5
13D
330
13A
100
AcDbEntity
  8
_U+30EC_U+30A4_U+30E4_U+30FC 1
 62
   179
420
  2234388
370
    25
  0
POLYLINE
  5
13E
330
1F
100
AcDbEntity
  8
_U+30EC_U+30A4_U+30E4_U+30FC 1
 62
   179
420
  2234388
370
    25
100
AcDb2dPolyline
 66
     1
 10
0.0
 20
0.0
 30
0.0
  0
VERTEX
  5
13F
330
13E
100
AcDbEntity
  8
_U+30EC_U+30A4_U+30E4_U+30FC 1
 62
   179
420
  2234388
370
    25
100
AcDbVertex
100
AcDb2dVertex
 10
78.2701685587172
 20
-133.8953591331925
 30
0.0
  0
VERTEX
  5
140
330
13E
100
AcDbEntity
  8
_U+30EC_U+30A4_U+30E4_U+30FC 1
 62
   179
420
  2234388
370
    25
100
AcDbVertex
100
AcDb2dVertex
 10
78.77037215706706
 20
-134.294633021982
 30
0.0
  0
SEQEND
  5
141
330
13E
100
AcDbEntity
  8
_U+30EC_U+30A4_U+30E4_U+30FC 1
 62
   179
420
  2234388
370
    25
  0
POLYLINE
  5
142
330
1F
100
AcDbEntity
  8
_U+30EC_U+30A4_U+30E4_U+30FC 1
 62
   179
420
  2234388
370
    25
100
AcDb2dPolyline
 66
     1
 10
0.0
 20
0.0
 30
0.0
  0
VERTEX
  5
143
330
142
100
AcDbEntity
  8
_U+30EC_U+30A4_U+30E4_U+30FC 1
 62
   179
420
  2234388
370
    25
100
AcDbVertex
100
AcDb2dVertex
 10
78.77037215706706
 20
-134.294633021982
 30
0.0
  0
VERTEX
  5
144
330
142
100
AcDbEntity
  8
_U+30EC_U+30A4_U+30E4_U+30FC 1
 62
   179
420
  2234388
370
    25
100
AcDbVertex
100
AcDb2dVertex
 10
79.26990547765622
 20
-133.8943360776374
 30
0.0
  0
SEQEND
  5
145
330
142
100
AcDbEntity
  8
_U+30EC_U+30A4_U+30E4_U+30FC 1
 62
   179
420
  2234388
370
    25
  0
POLYLINE
  5
146
330
1F
100
AcDbEntity
  8
_U+30EC_U+30A4_U+30E4_U+30FC 1
 62
   179
420
  2234388
370
    25
100
AcDb2dPolyline
 66
     1
 10
0.0
 20
0.0
 30
0.0
  0
VERTEX
  5
147
330
146
100
AcDbEntity
  8
_U+30EC_U+30A4_U+30E4_U+30FC 1
 62
   179
420
  2234388
370
    25
100
AcDbVertex
100
AcDb2dVertex
 10
79.26990547765622
 20
-133.8943360776374
 30
0.0
  0
VERTEX
  5
148
330
146
100
AcDbEntity
  8
_U+30EC_U+30A4_U+30E4_U+30FC 1
 62
   179
420
  2234388
370
    25
100
AcDbVertex
100
AcDb2dVertex
 10
79.77014435378295
 20
-134.2936099664269
 30
0.0
  0
SEQEND
  5
149
330
146
100
AcDbEntity
  8
_U+30EC_U+30A4_U+30E4_U+30FC 1
 62
   179
420
  2234388
370
    25
  0
POLYLINE
  5
14A
330
1F
100
AcDbEntity
  8
_U+30EC_U+30A4_U+30E4_U+30FC 1
 62
   179
420
  2234388
370
    25
100
AcDb2dPolyline
 66
     1
 10
0.0
 20
0.0
 30
0.0
  0
VERTEX
  5
14B
330
14A
100
AcDbEntity
  8
_U+30EC_U+30A4_U+30E4_U+30FC 1
 62
   179
420
  2234388
370
    25
100
AcDbVertex
100
AcDb2dVertex
 10
79.77014435378295
 20
-134.2936099664269
 30
0.0
  0
VERTEX
  5
14C
330
14A
100
AcDbEntity
  8
_U+30EC_U+30A4_U+30E4_U+30FC 1
 62
   179
420
  2234388
370
    25
100
AcDbVertex
100
AcDb2dVertex
 10
80.2703832299097
 20
-133.8932777443048
 30
0.0
  0
SEQEND
  5
14D
330
14A
100
AcDbEntity
  8
_U+30EC_U+30A4_U+30E4_U+30FC 1
 62
   179
420
  2234388
370
    25
  0
POLYLINE
  5
14E
330
1F
100
AcDbEntity
  8
_U+30EC_U+30A4_U+30E4_U+30FC 1
 62
   179
420
  2234388
370
    25
100
AcDb2dPolyline
 66
     1
 10
0.0
 20
0.0
 30
0.0
  0
VERTEX
  5
14F
330
14E
100
AcDbEntity
  8
_U+30EC_U+30A4_U+30E4_U+30FC 1
 62
   179
420
  2234388
370
    25
100
AcDbVertex
100
AcDb2dVertex
 10
80.2703832299097
 20
-133.8932777443048
 30
0.0
  0
VERTEX
  5
150
330
14E
100
AcDbEntity
  8
_U+30EC_U+30A4_U+30E4_U+30FC 1
 62
   179
420
  2234388
370
    25
100
AcDbVertex
100
AcDb2dVertex
 10
80.77062210603643
 20
-134.2932571886491
 30
0.0
  0
SEQEND
  5
151
330
14E
100
AcDbEntity
  8
_U+30EC_U+30A4_U+30E4_U+30FC 1
 62
   179
420
  2234388
370
    25
  0
POLYLINE
  5
152
330
1F
100
AcDbEntity
  8
_U+30EC_U+30A4_U+30E4_U+30FC 1
 62
   179
420
  2234388
370
    25
100
AcDb2dPolyline
 66
     1
 10
0.0
 20
0.0
 30
0.0
  0
VERTEX
  5
153
330
152
100
AcDbEntity
  8
_U+30EC_U+30A4_U+30E4_U+30FC 1
 62
   179
420
  2234388
370
    25
100
AcDbVertex
100
AcDb2dVertex
 10
88.77045773527695
 20
-134.286378021984
 30
0.0
  0
VERTEX
  5
154
330
152
100
AcDbEntity
  8
_U+30EC_U+30A4_U+30E4_U+30FC 1
 62
   179
420
  2234388
370
    25
100
AcDbVertex
100
AcDb2dVertex
 10
89.28551327769235
 20
-133.6049524665989
 30
0.0
  0
SEQEND
  5
155
330
152
100
AcDbEntity
  8
_U+30EC_U+30A4_U+30E4_U+30FC 1
 62
   179
420
  2234388
370
    25
  0
POLYLINE
  5
156
330
1F
100
AcDbEntity
  8
_U+30EC_U+30A4_U+30E4_U+30FC 1
 62
   179
420
  2234388
370
    25
100
AcDb2dPolyline
 66
     1
 10
0.0
 20
0.0
 30
0.0
  0
VERTEX
  5
157
330
156
100
AcDbEntity
  8
_U+30EC_U+30A4_U+30E4_U+30FC 1
 62
   179
420
  2234388
370
    25
100
AcDbVertex
100
AcDb2dVertex
 10
89.28551327769235
 20
-133.6049524665989
 30
0.0
  0
VERTEX
  5
158
330
156
100
AcDbEntity
  8
_U+30EC_U+30A4_U+30E4_U+30FC 1
 62
   179
420
  2234388
370
    25
100
AcDbVertex
100
AcDb2dVertex
 10
88.88451078792276
 20
-133.1050663556129
 30
0.0
  0
SEQEND
  5
159
330
156
100
AcDbEntity
  8
_U+30EC_U+30A4_U+30E4_U+30FC 1
 62
   179
420
  2234388
370
    25
  0
POLYLINE
  5
15A
330
1F
100
AcDbEntity
  8
_U+30EC_U+30A4_U+30E4_U+30FC 1
 62
   179
420
  2234388
370
    25
100
AcDb2dPolyline
 66
     1
 10
0.0
 20
0.0
 30
0.0
  0
VERTEX
  5
15B
330
15A
100
AcDbEntity
  8
_U+30EC_U+30A4_U+30E4_U+30FC 1
 62
   179
420
  2234388
370
    25
100
AcDbVertex
100
AcDb2dVertex
 10
89.2841374443941
 20
-132.6054977446265
 30
0.0
  0
VERTEX
  5
15C
330
15A
100
AcDbEntity
  8
_U+30EC_U+30A4_U+30E4_U+30FC 1
 62
   179
420
  2234388
370
    25
100
AcDbVertex
100
AcDb2dVertex
 10
88.88380523238521
 20
-132.1052941336404
 30
0.0
  0
SEQEND
  5
15D
330
15A
100
AcDbEntity
  8
_U+30EC_U+30A4_U+30E4_U+30FC 1
 62
   179
420
  2234388
370
    25
  0
POLYLINE
  5
15E
330
1F
100
AcDbEntity
  8
_U+30EC_U+30A4_U+30E4_U+30FC 1
 62
   179
420
  2234388
370
    25
100
AcDb2dPolyline
 66
     1
 10
0.0
 20
0.0
 30
0.0
  0
VERTEX
  5
15F
330
15E
100
AcDbEntity
  8
_U+30EC_U+30A4_U+30E4_U+30FC 1
 62
   179
420
  2234388
370
    25
100
AcDbVertex
100
AcDb2dVertex
 10
88.88451078792276
 20
-133.1050663556129
 30
0.0
  0
VERTEX
  5
160
330
15E
100
AcDbEntity
  8
_U+30EC_U+30A4_U+30E4_U+30FC 1
 62
   179
420
  2234388
370
    25
100
AcDbVertex
100
AcDb2dVertex
 10
89.2841374443941
 20
-132.6054977446265
 30
0.0
  0
SEQEND
  5
161
330
15E
100
AcDbEntity
  8
_U+30EC_U+30A4_U+30E4_U+30FC 1
 62
   179
420
  2234388
370
    25
  0
POLYLINE
  5
162
330
1F
100
AcDbEntity
  8
_U+30EC_U+30A4_U+30E4_U+30FC 1
 62
   179
420
  2234388
370
    25
100
AcDb2dPolyline
 66
     1
 10
0.0
 20
0.0
 30
0.0
  0
VERTEX
  5
163
330
162
100
AcDbEntity
  8
_U+30EC_U+30A4_U+30E4_U+30FC 1
 62
   179
420
  2234388
370
    25
100
AcDbVertex
100
AcDb2dVertex
 10
89.2841374443941
 20
-131.6050552448767
 30
0.0
  0
VERTEX
  5
164
330
162
100
AcDbEntity
  8
_U+30EC_U+30A4_U+30E4_U+30FC 1
 62
   179
420
  2234388
370
    25
100
AcDbVertex
100
AcDb2dVertex
 10
88.88309967684765
 20
-131.1055219116678
 30
0.0
  0
SEQEND
  5
165
330
162
100
AcDbEntity
  8
_U+30EC_U+30A4_U+30E4_U+30FC 1
 62
   179
420
  2234388
370
    25
  0
POLYLINE
  5
166
330
1F
100
AcDbEntity
  8
_U+30EC_U+30A4_U+30E4_U+30FC 1
 62
   179
420
  2234388
370
    25
100
AcDb2dPolyline
 66
     1
 10
0.0
 20
0.0
 30
0.0
  0
VERTEX
  5
167
330
166
100
AcDbEntity
  8
_U+30EC_U+30A4_U+30E4_U+30FC 1
 62
   179
420
  2234388
370
    25
100
AcDbVertex
100
AcDb2dVertex
 10
88.88380523238521
 20
-132.1052941336404
 30
0.0
  0
VERTEX
  5
168
330
166
100
AcDbEntity
  8
_U+30EC_U+30A4_U+30E4_U+30FC 1
 62
   179
420
  2234388
370
    25
100
AcDbVertex
100
AcDb2dVertex
 10
89.2841374443941
 20
-131.6050552448767
 30
0.0
  0
SEQEND
  5
169
330
166
100
AcDbEntity
  8
_U+30EC_U+30A4_U+30E4_U+30FC 1
 62
   179
420
  2234388
370
    25
  0
POLYLINE
  5
16A
330
1F
100
AcDbEntity
  8
_U+30EC_U+30A4_U+30E4_U+30FC 1
 62
   179
420
  2234388
370
    25
100
AcDb2dPolyline
 66
     1
 10
0.0
 20
0.0
 30
0.0
  0
VERTEX
  5
16B
330
16A
100
AcDbEntity
  8
_U+30EC_U+30A4_U+30E4_U+30FC 1
 62
   179
420
  2234388
370
    25
100
AcDbVertex
100
AcDb2dVertex
 10
88.88309967684765
 20
-131.1055219116678
 30
0.0
  0
VERTEX
  5
16C
330
16A
100
AcDbEntity
  8
_U+30EC_U+30A4_U+30E4_U+30FC 1
 62
   179
420
  2234388
370
    25
100
AcDbVertex
100
AcDb2dVertex
 10
89.28276386656822
 20
-130.6052830229041
 30
0.0
  0
SEQEND
  5
16D
330
16A
100
AcDbEntity
  8
_U+30EC_U+30A4_U+30E4_U+30FC 1
 62
   179
420
  2234388
370
    25
  0
POLYLINE
  5
16E
330
1F
100
AcDbEntity
  8
_U+30EC_U+30A4_U+30E4_U+30FC 1
 62
   179
420
  2234388
370
    25
100
AcDb2dPolyline
 66
     1
 10
0.0
 20
0.0
 30
0.0
  0
VERTEX
  5
16F
330
16E
100
AcDbEntity
  8
_U+30EC_U+30A4_U+30E4_U+30FC 1
 62
   179
420
  2234388
370
    25
100
AcDbVertex
100
AcDb2dVertex
 10
89.28276386656822
 20
-130.6052830229041
 30
0.0
  0
VERTEX
  5
170
330
16E
100
AcDbEntity
  8
_U+30EC_U+30A4_U+30E4_U+30FC 1
 62
   179
420
  2234388
370
    25
100
AcDbVertex
100
AcDb2dVertex
 10
88.88309967684765
 20
-130.1050794119179
 30
0.0
  0
SEQEND
  5
171
330
16E
100
AcDbEntity
  8
_U+30EC_U+30A4_U+30E4_U+30FC 1
 62
   179
420
  2234388
370
    25
  0
POLYLINE
  5
172
330
1F
100
AcDbEntity
  8
_U+30EC_U+30A4_U+30E4_U+30FC 1
 62
   179
420
  2234388
370
    25
100
AcDb2dPolyline
 66
     1
 10
0.0
 20
0.0
 30
0.0
  0
VERTEX
  5
173
330
172
100
AcDbEntity
  8
_U+30EC_U+30A4_U+30E4_U+30FC 1
 62
   179
420
  2234388
370
    25
100
AcDbVertex
100
AcDb2dVertex
 10
88.88309967684765
 20
-130.1050794119179
 30
0.0
  0
VERTEX
  5
174
330
172
100
AcDbEntity
  8
_U+30EC_U+30A4_U+30E4_U+30FC 1
 62
   179
420
  2234388
370
    25
100
AcDbVertex
100
AcDb2dVertex
 10
89.28205831101269
 20
-129.6048405231542
 30
0.0
  0
SEQEND
  5
175
330
172
100
AcDbEntity
  8
_U+30EC_U+30A4_U+30E4_U+30FC 1
 62
   179
420
  2234388
370
    25
  0
POLYLINE
  5
176
330
1F
100
AcDbEntity
  8
_U+30EC_U+30A4_U+30E4_U+30FC 1
 62
   179
420
  2234388
370
    25
100
AcDb2dPolyline
 66
     1
 10
0.0
 20
0.0
 30
0.0
  0
VERTEX
  5
177
330
176
100
AcDbEntity
  8
_U+30EC_U+30A4_U+30E4_U+30FC 1
 62
   179
420
  2234388
370
    25
100
AcDbVertex
100
AcDb2dVertex
 10
89.28205831101269
 20
-129.6048405231542
 30
0.0
  0
VERTEX
  5
178
330
176
100
AcDbEntity
  8
_U+30EC_U+30A4_U+30E4_U+30FC 1
 62
   179
420
  2234388
370
    25
100
AcDbVertex
100
AcDb2dVertex
 10
88.88172384354942
 20
-129.105307189946
 30
0.0
  0
SEQEND
  5
179
330
176
100
AcDbEntity
  8
_U+30EC_U+30A4_U+30E4_U+30FC 1
 62
   179
420
  2234388
370
    25
  0
POLYLINE
  5
17A
330
1F
100
AcDbEntity
  8
_U+30EC_U+30A4_U+30E4_U+30FC 1
 62
   179
420
  2234388
370
    25
100
AcDb2dPolyline
 66
     1
 10
0.0
 20
0.0
 30
0.0
  0
VERTEX
  5
17B
330
17A
100
AcDbEntity
  8
_U+30EC_U+30A4_U+30E4_U+30FC 1
 62
   179
420
  2234388
370
    25
100
AcDbVertex
100
AcDb2dVertex
 10
88.88172384354942
 20
-129.105307189946
 30
0.0
  0
VERTEX
  5
17C
330
17A
100
AcDbEntity
  8
_U+30EC_U+30A4_U+30E4_U+30FC 1
 62
   179
420
  2234388
370
    25
100
AcDbVertex
100
AcDb2dVertex
 10
89.28138577779764
 20
-128.605068301182
 30
0.0
  0
SEQEND
  5
17D
330
17A
100
AcDbEntity
  8
_U+30EC_U+30A4_U+30E4_U+30FC 1
 62
   179
420
  2234388
370
    25
  0
POLYLINE
  5
17E
330
1F
100
AcDbEntity
  8
_U+30EC_U+30A4_U+30E4_U+30FC 1
 62
   179
420
  2234388
370
    25
100
AcDb2dPolyline
 66
     1
 10
0.0
 20
0.0
 30
0.0
  0
VERTEX
  5
17F
330
17E
100
AcDbEntity
  8
_U+30EC_U+30A4_U+30E4_U+30FC 1
 62
   179
420
  2234388
370
    25
100
AcDbVertex
100
AcDb2dVertex
 10
89.28138577779764
 20
-128.605068301182
 30
0.0
  0
VERTEX
  5
180
330
17E
100
AcDbEntity
  8
_U+30EC_U+30A4_U+30E4_U+30FC 1
 62
   179
420
  2234388
370
    25
100
AcDbVertex
100
AcDb2dVertex
 10
88.88105356578875
 20
-128.1048294124183
 30
0.0
  0
SEQEND
  5
181
330
17E
100
AcDbEntity
  8
_U+30EC_U+30A4_U+30E4_U+30FC 1
 62
   179
420
  2234388
370
    25
  0
POLYLINE
  5
182
330
1F
100
AcDbEntity
  8
_U+30EC_U+30A4_U+30E4_U+30FC 1
 62
   179
420
  2234388
370
    25
100
AcDb2dPolyline
 66
     1
 10
0.0
 20
0.0
 30
0.0
  0
VERTEX
  5
183
330
182
100
AcDbEntity
  8
_U+30EC_U+30A4_U+30E4_U+30FC 1
 62
   179
420
  2234388
370
    25
100
AcDbVertex
100
AcDb2dVertex
 10
88.88105356578875
 20
-128.1048294124183
 30
0.0
  0
VERTEX
  5
184
330
182
100
AcDbEntity
  8
_U+30EC_U+30A4_U+30E4_U+30FC 1
 62
   179
420
  2234388
370
    25
100
AcDbVertex
100
AcDb2dVertex
 10
89.27997466672254
 20
-127.6046258014321
 30
0.0
  0
SEQEND
  5
185
330
182
100
AcDbEntity
  8
_U+30EC_U+30A4_U+30E4_U+30FC 1
 62
   179
420
  2234388
370
    25
  0
POLYLINE
  5
186
330
1F
100
AcDbEntity
  8
_U+30EC_U+30A4_U+30E4_U+30FC 1
 62
   179
420
  2234388
370
    25
100
AcDb2dPolyline
 66
     1
 10
0.0
 20
0.0
 30
0.0
  0
VERTEX
  5
187
330
186
100
AcDbEntity
  8
_U+30EC_U+30A4_U+30E4_U+30FC 1
 62
   179
420
  2234388
370
    25
100
AcDbVertex
100
AcDb2dVertex
 10
89.27997466672254
 20
-127.6046258014321
 30
0.0
  0
VERTEX
  5
188
330
186
100
AcDbEntity
  8
_U+30EC_U+30A4_U+30E4_U+30FC 1
 62
   179
420
  2234388
370
    25
100
AcDbVertex
100
AcDb2dVertex
 10
88.8796777324905
 20
-127.1050924682236
 30
0.0
  0
SEQEND
  5
189
330
186
100
AcDbEntity
  8
_U+30EC_U+30A4_U+30E4_U+30FC 1
 62
   179
420
  2234388
370
    25
  0
POLYLINE
  5
18A
330
1F
100
AcDbEntity
  8
_U+30EC_U+30A4_U+30E4_U+30FC 1
 62
   179
420
  2234388
370
    25
100
AcDb2dPolyline
 66
     1
 10
0.0
 20
0.0
 30
0.0
  0
VERTEX
  5
18B
330
18A
100
AcDbEntity
  8
_U+30EC_U+30A4_U+30E4_U+30FC 1
 62
   179
420
  2234388
370
    25
100
AcDbVertex
100
AcDb2dVertex
 10
88.8796777324905
 20
-127.1050924682236
 30
0.0
  0
VERTEX
  5
18C
330
18A
100
AcDbEntity
  8
_U+30EC_U+30A4_U+30E4_U+30FC 1
 62
   179
420
  2234388
370
    25
100
AcDbVertex
100
AcDb2dVertex
 10
89.27997466672254
 20
-126.6048535794599
 30
0.0
  0
SEQEND
  5
18D
330
18A
100
AcDbEntity
  8
_U+30EC_U+30A4_U+30E4_U+30FC 1
 62
   179
420
  2234388
370
    25
  0
POLYLINE
  5
18E
330
1F
100
AcDbEntity
  8
_U+30EC_U+30A4_U+30E4_U+30FC 1
 62
   179
420
  2234388
370
    25
100
AcDb2dPolyline
 66
     1
 10
0.0
 20
0.0
 30
0.0
  0
VERTEX
  5
18F
330
18E
100
AcDbEntity
  8
_U+30EC_U+30A4_U+30E4_U+30FC 1
 62
   179
420
  2234388
370
    25
100
AcDbVertex
100
AcDb2dVertex
 10
89.27997466672254
 20
-126.6048535794599
 30
0.0
  0
VERTEX
  5
190
330
18E
100
AcDbEntity
  8
_U+30EC_U+30A4_U+30E4_U+30FC 1
 62
   179
420
  2234388
370
    25
100
AcDbVertex
100
AcDb2dVertex
 10
88.8796777324905
 20
-126.1053202462514
 30
0.0
  0
SEQEND
  5
191
330
18E
100
AcDbEntity
  8
_U+30EC_U+30A4_U+30E4_U+30FC 1
 62
   179
420
  2234388
370
    25
  0
POLYLINE
  5
192
330
1F
100
AcDbEntity
  8
_U+30EC_U+30A4_U+30E4_U+30FC 1
 62
   179
420
  2234388
370
    25
100
AcDb2dPolyline
 66
     1
 10
0.0
 20
0.0
 30
0.0
  0
VERTEX
  5
193
330
192
100
AcDbEntity
  8
_U+30EC_U+30A4_U+30E4_U+30FC 1
 62
   179
420
  2234388
370
    25
100
AcDbVertex
100
AcDb2dVertex
 10
88.8796777324905
 20
-126.1053202462514
 30
0.0
  0
VERTEX
  5
194
330
192
100
AcDbEntity
  8
_U+30EC_U+30A4_U+30E4_U+30FC 1
 62
   179
420
  2234388
370
    25
100
AcDbVertex
100
AcDb2dVertex
 10
89.2785988334243
 20
-125.6050813574876
 30
0.0
  0
SEQEND
  5
195
330
192
100
AcDbEntity
  8
_U+30EC_U+30A4_U+30E4_U+30FC 1
 62
   179
420
  2234388
370
    25
  0
POLYLINE
  5
196
330
1F
100
AcDbEntity
  8
_U+30EC_U+30A4_U+30E4_U+30FC 1
 62
   179
420
  2234388
370
    25
100
AcDb2dPolyline
 66
     1
 10
0.0
 20
0.0
 30
0.0
  0
VERTEX
  5
197
330
196
100
AcDbEntity
  8
_U+30EC_U+30A4_U+30E4_U+30FC 1
 62
   179
420
  2234388
370
    25
100
AcDbVertex
100
AcDb2dVertex
 10
89.2785988334243
 20
-125.6050813574876
 30
0.0
  0
VERTEX
  5
198
330
196
100
AcDbEntity
  8
_U+30EC_U+30A4_U+30E4_U+30FC 1
 62
   179
420
  2234388
370
    25
100
AcDbVertex
100
AcDb2dVertex
 10
88.87830189919228
 20
-125.1051952465014
 30
0.0
  0
SEQEND
  5
199
330
196
100
AcDbEntity
  8
_U+30EC_U+30A4_U+30E4_U+30FC 1
 62
   179
420
  2234388
370
    25
  0
POLYLINE
  5
19A
330
1F
100
AcDbEntity
  8
_U+30EC_U+30A4_U+30E4_U+30FC 1
 62
   179
420
  2234388
370
    25
100
AcDb2dPolyline
 66
     1
 10
0.0
 20
0.0
 30
0.0
  0
VERTEX
  5
19B
330
19A
100
AcDbEntity
  8
_U+30EC_U+30A4_U+30E4_U+30FC 1
 62
   179
420
  2234388
370
    25
100
AcDbVertex
100
AcDb2dVertex
 10
88.87830189919228
 20
-125.1051952465014
 30
0.0
  0
VERTEX
  5
19C
330
19A
100
AcDbEntity
  8
_U+30EC_U+30A4_U+30E4_U+30FC 1
 62
   179
420
  2234388
370
    25
100
AcDbVertex
100
AcDb2dVertex
 10
89.27792855566362
 20
-124.6046388577378
 30
0.0
  0
SEQEND
  5
19D
330
19A
100
AcDbEntity
  8
_U+30EC_U+30A4_U+30E4_U+30FC 1
 62
   179
420
  2234388
370
    25
  0
POLYLINE
  5
19E
330
1F
100
AcDbEntity
  8
_U+30EC_U+30A4_U+30E4_U+30FC 1
 62
   179
420
  2234388
370
    25
100
AcDb2dPolyline
 66
     1
 10
0.0
 20
0.0
 30
0.0
  0
VERTEX
  5
19F
330
19E
100
AcDbEntity
  8
_U+30EC_U+30A4_U+30E4_U+30FC 1
 62
   179
420
  2234388
370
    25
100
AcDbVertex
100
AcDb2dVertex
 10
89.27792855566362
 20
-124.6046388577378
 30
0.0
  0
VERTEX
  5
1A0
330
19E
100
AcDbEntity
  8
_U+30EC_U+30A4_U+30E4_U+30FC 1
 62
   179
420
  2234388
370
    25
100
AcDbVertex
100
AcDb2dVertex
 10
88.87759634365473
 20
-124.1054230245292
 30
0.0
  0
SEQEND
  5
1A1
330
19E
100
AcDbEntity
  8
_U+30EC_U+30A4_U+30E4_U+30FC 1
 62
   179
420
  2234388
370
    25
  0
POLYLINE
  5
1A2
330
1F
100
AcDbEntity
  8
_U+30EC_U+30A4_U+30E4_U+30FC 1
 62
   179
420
  2234388
370
    25
100
AcDb2dPolyline
 66
     1
 10
0.0
 20
0.0
 30
0.0
  0
VERTEX
  5
1A3
330
1A2
100
AcDbEntity
  8
_U+30EC_U+30A4_U+30E4_U+30FC 1
 62
   179
420
  2234388
370
    25
100
AcDbVertex
100
AcDb2dVertex
 10
88.87759634365473
 20
-124.1054230245292
 30
0.0
  0
VERTEX
  5
1A4
330
1A2
100
AcDbEntity
  8
_U+30EC_U+30A4_U+30E4_U+30FC 1
 62
   179
420
  2234388
370
    25
100
AcDbVertex
100
AcDb2dVertex
 10
89.2765527223654
 20
-123.6048666357655
 30
0.0
  0
SEQEND
  5
1A5
330
1A2
100
AcDbEntity
  8
_U+30EC_U+30A4_U+30E4_U+30FC 1
 62
   179
420
  2234388
370
    25
  0
POLYLINE
  5
1A6
330
1F
100
AcDbEntity
  8
_U+30EC_U+30A4_U+30E4_U+30FC 1
 62
   179
420
  2234388
370
    25
100
AcDb2dPolyline
 66
     1
 10
0.0
 20
0.0
 30
0.0
  0
VERTEX
  5
1A7
330
1A6
100
AcDbEntity
  8
_U+30EC_U+30A4_U+30E4_U+30FC 1
 62
   179
420
  2234388
370
    25
100
AcDbVertex
100
AcDb2dVertex
 10
89.2765527223654
 20
-123.6048666357655
 30
0.0
  0
VERTEX
  5
1A8
330
1A6
100
AcDbEntity
  8
_U+30EC_U+30A4_U+30E4_U+30FC 1
 62
   179
420
  2234388
370
    25
100
AcDbVertex
100
AcDb2dVertex
 10
88.87622051035649
 20
-123.1056508025569
 30
0.0
  0
SEQEND
  5
1A9
330
1A6
100
AcDbEntity
  8
_U+30EC_U+30A4_U+30E4_U+30FC 1
 62
   179
420
  2234388
370
    25
  0
POLYLINE
  5
1AA
330
1F
100
AcDbEntity
  8
_U+30EC_U+30A4_U+30E4_U+30FC 1
 62
   179
420
  2234388
370
    25
100
AcDb2dPolyline
 66
     1
 10
0.0
 20
0.0
 30
0.0
  0
VERTEX
  5
1AB
330
1AA
100
AcDbEntity
  8
_U+30EC_U+30A4_U+30E4_U+30FC 1
 62
   179
420
  2234388
370
    25
100
AcDbVertex
100
AcDb2dVertex
 10
88.87622051035649
 20
-123.1056508025569
 30
0.0
  0
VERTEX
  5
1AC
330
1AA
100
AcDbEntity
  8
_U+30EC_U+30A4_U+30E4_U+30FC 1
 62
   179
420
  2234388
370
    25
100
AcDbVertex
100
AcDb2dVertex
 10
89.27584716682783
 20
-122.6054471915707
 30
0.0
  0
SEQEND
  5
1AD
330
1AA
100
AcDbEntity
  8
_U+30EC_U+30A4_U+30E4_U+30FC 1
 62
   179
420
  2234388
370
    25
  0
POLYLINE
  5
1AE
330
1F
100
AcDbEntity
  8
_U+30EC_U+30A4_U+30E4_U+30FC 1
 62
   179
420
  2234388
370
    25
100
AcDb2dPolyline
 66
     1
 10
0.0
 20
0.0
 30
0.0
  0
VERTEX
  5
1AF
330
1AE
100
AcDbEntity
  8
_U+30EC_U+30A4_U+30E4_U+30FC 1
 62
   179
420
  2234388
370
    25
100
AcDbVertex
100
AcDb2dVertex
 10
89.27584716682783
 20
-122.6054471915707
 30
0.0
  0
VERTEX
  5
1B0
330
1AE
100
AcDbEntity
  8
_U+30EC_U+30A4_U+30E4_U+30FC 1
 62
   179
420
  2234388
370
    25
100
AcDbVertex
100
AcDb2dVertex
 10
88.87555023259581
 20
-122.105208302807
 30
0.0
  0
SEQEND
  5
1B1
330
1AE
100
AcDbEntity
  8
_U+30EC_U+30A4_U+30E4_U+30FC 1
 62
   179
420
  2234388
370
    25
  0
POLYLINE
  5
1B2
330
1F
100
AcDbEntity
  8
_U+30EC_U+30A4_U+30E4_U+30FC 1
 62
   179
420
  2234388
370
    25
100
AcDb2dPolyline
 66
     1
 10
0.0
 20
0.0
 30
0.0
  0
VERTEX
  5
1B3
330
1B2
100
AcDbEntity
  8
_U+30EC_U+30A4_U+30E4_U+30FC 1
 62
   179
420
  2234388
370
    25
100
AcDbVertex
100
AcDb2dVertex
 10
88.87555023259581
 20
-122.105208302807
 30
0.0
  0
VERTEX
  5
1B4
330
1B2
100
AcDbEntity
  8
_U+30EC_U+30A4_U+30E4_U+30FC 1
 62
   179
420
  2234388
370
    25
100
AcDbVertex
100
AcDb2dVertex
 10
89.27517688906715
 20
-121.6046519140434
 30
0.0
  0
SEQEND
  5
1B5
330
1B2
100
AcDbEntity
  8
_U+30EC_U+30A4_U+30E4_U+30FC 1
 62
   179
420
  2234388
370
    25
  0
POLYLINE
  5
1B6
330
1F
100
AcDbEntity
  8
_U+30EC_U+30A4_U+30E4_U+30FC 1
 62
   179
420
  2234388
370
    25
100
AcDb2dPolyline
 66
     1
 10
0.0
 20
0.0
 30
0.0
  0
VERTEX
  5
1B7
330
1B6
100
AcDbEntity
  8
_U+30EC_U+30A4_U+30E4_U+30FC 1
 62
   179
420
  2234388
370
    25
100
AcDbVertex
100
AcDb2dVertex
 10
89.27517688906715
 20
-121.6046519140434
 30
0.0
  0
VERTEX
  5
1B8
330
1B6
100
AcDbEntity
  8
_U+30EC_U+30A4_U+30E4_U+30FC 1
 62
   179
420
  2234388
370
    25
100
AcDbVertex
100
AcDb2dVertex
 10
88.86246217737417
 20
-121.089949136394
 30
0.0
  0
SEQEND
  5
1B9
330
1B6
100
AcDbEntity
  8
_U+30EC_U+30A4_U+30E4_U+30FC 1
 62
   179
420
  2234388
370
    25
  0
POLYLINE
  5
1BA
330
1F
100
AcDbEntity
  8
_U+30EC_U+30A4_U+30E4_U+30FC 1
 62
   179
420
  2234388
370
    25
100
AcDb2dPolyline
 66
     1
 10
0.0
 20
0.0
 30
0.0
  0
VERTEX
  5
1BB
330
1BA
100
AcDbEntity
  8
_U+30EC_U+30A4_U+30E4_U+30FC 1
 62
   179
420
  2234388
370
    25
100
AcDbVertex
100
AcDb2dVertex
 10
87.0468913903599
 20
-121.1037074697242
 30
0.0
  0
VERTEX
  5
1BC
330
1BA
100
AcDbEntity
  8
_U+30EC_U+30A4_U+30E4_U+30FC 1
 62
   179
420
  2234388
370
    25
100
AcDbVertex
100
AcDb2dVertex
 10
87.54709720033544
 20
-121.5030166362908
 30
0.0
  0
SEQEND
  5
1BD
330
1BA
100
AcDbEntity
  8
_U+30EC_U+30A4_U+30E4_U+30FC 1
 62
   179
420
  2234388
370
    25
  0
POLYLINE
  5
1BE
330
1F
100
AcDbEntity
  8
_U+30EC_U+30A4_U+30E4_U+30FC 1
 62
   179
420
  2234388
370
    25
100
AcDb2dPolyline
 66
     1
 10
0.0
 20
0.0
 30
0.0
  0
VERTEX
  5
1BF
330
1BE
100
AcDbEntity
  8
_U+30EC_U+30A4_U+30E4_U+30FC 1
 62
   179
420
  2234388
370
    25
100
AcDbVertex
100
AcDb2dVertex
 10
87.54709720033544
 20
-121.5030166362908
 30
0.0
  0
VERTEX
  5
1C0
330
1BE
100
AcDbEntity
  8
_U+30EC_U+30A4_U+30E4_U+30FC 1
 62
   179
420
  2234388
370
    25
100
AcDbVertex
100
AcDb2dVertex
 10
88.04733608909915
 20
-121.1026844141687
 30
0.0
  0
SEQEND
  5
1C1
330
1BE
100
AcDbEntity
  8
_U+30EC_U+30A4_U+30E4_U+30FC 1
 62
   179
420
  2234388
370
    25
  0
POLYLINE
  5
1C2
330
1F
100
AcDbEntity
  8
_U+30EC_U+30A4_U+30E4_U+30FC 1
 62
   179
420
  2234388
370
    25
100
AcDb2dPolyline
 66
     1
 10
0.0
 20
0.0
 30
0.0
  0
VERTEX
  5
1C3
330
1C2
100
AcDbEntity
  8
_U+30EC_U+30A4_U+30E4_U+30FC 1
 62
   179
420
  2234388
370
    25
100
AcDbVertex
100
AcDb2dVertex
 10
88.04733608909915
 20
-121.1026844141687
 30
0.0
  0
VERTEX
  5
1C4
330
1C2
100
AcDbEntity
  8
_U+30EC_U+30A4_U+30E4_U+30FC 1
 62
   179
420
  2234388
370
    25
100
AcDbVertex
100
AcDb2dVertex
 10
88.54757497786318
 20
-121.5026638585134
 30
0.0
  0
SEQEND
  5
1C5
330
1C2
100
AcDbEntity
  8
_U+30EC_U+30A4_U+30E4_U+30FC 1
 62
   179
420
  2234388
370
    25
  0
POLYLINE
  5
1C6
330
1F
100
AcDbEntity
  8
_U+30EC_U+30A4_U+30E4_U+30FC 1
 62
   179
420
  2234388
370
    25
100
AcDb2dPolyline
 66
     1
 10
0.0
 20
0.0
 30
0.0
  0
VERTEX
  5
1C7
330
1C6
100
AcDbEntity
  8
_U+30EC_U+30A4_U+30E4_U+30FC 1
 62
   179
420
  2234388
370
    25
100
AcDbVertex
100
AcDb2dVertex
 10
88.54757497786318
 20
-121.5026638585134
 30
0.0
  0
VERTEX
  5
1C8
330
1C6
100
AcDbEntity
  8
_U+30EC_U+30A4_U+30E4_U+30FC 1
 62
   179
420
  2234388
370
    25
100
AcDbVertex
100
AcDb2dVertex
 10
88.86246217737417
 20
-121.089949136394
 30
0.0
  0
SEQEND
  5
1C9
330
1C6
100
AcDbEntity
  8
_U+30EC_U+30A4_U+30E4_U+30FC 1
 62
   179
420
  2234388
370
    25
  0
SPLINE
  5
1CA
330
1F
100
AcDbEntity
  8
_U+30EC_U+30A4_U+30E4_U+30FC 1
 62
     7
420
 16777215
370
    25
100
AcDbSpline
210
0.0
220
0.0
230
1.0
 70
     8
 71
     3
 72
     8
 73
     4
 74
     0
 42
0.0000000001
 43
0.0000000001
 12
1.0
 22
0.0
 32
0.0
 13
1.0
 23
0.0
 33
0.0
 40
0.0
 40
0.0
 40
0.0
 40
0.0
 40
1.0
 40
1.0
 40
1.0
 40
1.0
 10
102.3630909996111
 20
-134.3897419108469
 30
0.0
 10
102.7496296008608
 20
-134.3897419108469
 30
0.0
 10
103.0631432039735
 20
-134.703220244102
 30
0.0
 10
103.0631432039735
 20
-135.0897588551164
 30
0.0
  0
SPLINE
  5
1CB
330
1F
100
AcDbEntity
  8
_U+30EC_U+30A4_U+30E4_U+30FC 1
 62
     7
420
 16777215
370
    25
100
AcDbSpline
210
0.0
220
0.0
230
1.0
 70
     8
 71
     3
 72
     8
 73
     4
 74
     0
 42
0.0000000001
 43
0.0000000001
 12
1.0
 22
0.0
 32
0.0
 13
1.0
 23
0.0
 33
0.0
 40
0.0
 40
0.0
 40
0.0
 40
0.0
 40
1.0
 40
1.0
 40
1.0
 40
1.0
 10
95.06189646365786
 20
-120.0901769144218
 30
0.0
 10
95.61413478290243
 20
-120.0901769144218
 30
0.0
 10
96.06202143814255
 20
-120.5380283031989
 30
0.0
 10
96.06202143814255
 20
-121.089949136394
 30
0.0
  0
SPLINE
  5
1CC
330
1F
100
AcDbEntity
  8
_U+30EC_U+30A4_U+30E4_U+30FC 1
 62
     7
420
 16777215
370
    25
100
AcDbSpline
210
0.0
220
0.0
230
1.0
 70
     8
 71
     3
 72
     8
 73
     4
 74
     0
 42
0.0000000001
 43
0.0000000001
 12
1.0
 22
0.0
 32
0.0
 13
1.0
 23
0.0
 33
0.0
 40
0.0
 40
0.0
 40
0.0
 40
0.0
 40
1.0
 40
1.0
 40
1.0
 40
1.0
 10
87.0468913903599
 20
-121.1037074697242
 30
0.0
 10
87.0468913903599
 20
-120.551116358751
 30
0.0
 10
87.49474276782314
 20
-120.1032649699743
 30
0.0
 10
88.04666358707581
 20
-120.1032649699743
 30
0.0
  0
ENDSEC
  0
SECTION
  2
OBJECTS
  0
DICTIONARY
  5
C
330
0
100
AcDbDictionary
281
     1
  3
ACAD_GROUP
350
D
  3
ACAD_LAYOUT
350
1A
  3
ACAD_MATERIAL
350
3B
  3
ACAD_MLEADERSTYLE
350
1CE
  3
ACAD_MLINESTYLE
350
17
  3
ACAD_PLOTSETTINGS
350
19
  3
ACAD_PLOTSTYLENAME
350
E
  3
ACAD_TABLESTYLE
350
1CD
  3
ACAD_VISUALSTYLE
350
2A
  0
SUN
  5
3F
330
29
100
AcDbSun
 90
        1
290
     0
 63
     7
421
 16777215
 40
1.0
291
     1
 91
  2455826
 92
 54000000
292
     0
 70
     2
 71
   256
280
     1
  0
DICTIONARY
  5
D
102
{ACAD_REACTORS
330
C
102
}
330
C
100
AcDbDictionary
281
     1
  0
DICTIONARY
  5
1A
102
{ACAD_REACTORS
330
C
102
}
330
C
100
AcDbDictionary
281
     1
  3
Layout1
350
1E
  3
Layout2
350
26
  3
Model
350
22
  0
DICTIONARY
  5
3B
102
{ACAD_REACTORS
330
C
102
}
330
C
100
AcDbDictionary
281
     1
  3
ByBlock
350
3D
  3
ByLayer
350
3C
  3
Global
350
3E
  0
DICTIONARY
  5
1CE
102
{ACAD_REACTORS
330
C
102
}
330
C
100
AcDbDictionary
281
     1
  0
DICTIONARY
  5
17
102
{ACAD_REACTORS
330
C
102
}
330
C
100
AcDbDictionary
281
     1
  3
Standard
350
18
  0
DICTIONARY
  5
19
102
{ACAD_REACTORS
330
C
102
}
330
C
100
AcDbDictionary
281
     1
  0
ACDBDICTIONARYWDFLT
  5
E
102
{ACAD_REACTORS
330
C
102
}
330
C
100
AcDbDictionary
281
     1
  3
Normal
350
F
100
AcDbDictionaryWithDefault
340
F
  0
DICTIONARY
  5
1CD
102
{ACAD_REACTORS
330
C
102
}
330
C
100
AcDbDictionary
281
     1
  0
DICTIONARY
  5
2A
102
{ACAD_REACTORS
330
C
102
}
330
C
100
AcDbDictionary
281
     1
  3
2dWireframe
350
2F
  3
3D Hidden
350
31
  3
3dWireframe
350
30
  3
Basic
350
32
  3
Brighten
350
36
  3
ColorChange
350
3A
  3
Conceptual
350
34
  3
Dim
350
35
  3
Facepattern
350
39
  3
Flat
350
2B
  3
FlatWithEdges
350
2C
  3
Gouraud
350
2D
  3
GouraudWithEdges
350
2E
  3
Linepattern
350
38
  3
Realistic
350
33
  3
Thicken
350
37
  0
LAYOUT
  5
1E
102
{ACAD_REACTORS
330
1A
102
}
330
1A
100
AcDbPlotSettings
  1

  2
none_device
  4

  6

 40
0.0
 41
0.0
 42
0.0
 43
0.0
 44
0.0
 45
0.0
 46
0.0
 47
0.0
 48
0.0
 49
0.0
140
0.0
141
0.0
142
1.0
143
1.0
 70
   688
 72
     0
 73
     0
 74
     5
  7

 75
    16
 76
     0
 77
     2
 78
   300
147
1.0
148
0.0
149
0.0
100
AcDbLayout
  1
Layout1
 70
     1
 71
     1
 10
0.0
 20
0.0
 11
12.0
 21
9.0
 12
0.0
 22
0.0
 32
0.0
 14
1.000000000000000E+20
 24
1.000000000000000E+20
 34
1.000000000000000E+20
 15
-1.000000000000000E+20
 25
-1.000000000000000E+20
 35
-1.000000000000000E+20
146
0.0
 13
0.0
 23
0.0
 33
0.0
 16
1.0
 26
0.0
 36
0.0
 17
0.0
 27
1.0
 37
0.0
 76
     0
330
1B
  0
LAYOUT
  5
26
102
{ACAD_REACTORS
330
1A
102
}
330
1A
100
AcDbPlotSettings
  1

  2
none_device
  4

  6

 40
0.0
 41
0.0
 42
0.0
 43
0.0
 44
0.0
 45
0.0
 46
0.0
 47
0.0
 48
0.0
 49
0.0
140
0.0
141
0.0
142
1.0
143
1.0
 70
   688
 72
     0
 73
     0
 74
     5
  7

 75
    16
 76
     0
 77
     2
 78
   300
147
1.0
148
0.0
149
0.0
100
AcDbLayout
  1
Layout2
 70
     1
 71
     2
 10
0.0
 20
0.0
 11
0.0
 21
0.0
 12
0.0
 22
0.0
 32
0.0
 14
0.0
 24
0.0
 34
0.0
 15
0.0
 25
0.0
 35
0.0
146
0.0
 13
0.0
 23
0.0
 33
0.0
 16
1.0
 26
0.0
 36
0.0
 17
0.0
 27
1.0
 37
0.0
 76
     0
330
23
  0
LAYOUT
  5
22
102
{ACAD_REACTORS
330
1A
102
}
330
1A
100
AcDbPlotSettings
  1

  2
none_device
  4

  6

 40
0.0
 41
0.0
 42
0.0
 43
0.0
 44
0.0
 45
0.0
 46
0.0
 47
0.0
 48
0.0
 49
0.0
140
0.0
141
0.0
142
1.0
143
1.0
 70
  1712
 72
     0
 73
     0
 74
     0
  7

 75
     0
 76
     0
 77
     2
 78
   300
147
1.0
148
0.0
149
0.0
100
AcDbLayout
  1
Model
 70
     1
 71
     0
 10
0.0
 20
0.0
 11
12.0
 21
9.0
 12
0.0
 22
0.0
 32
0.0
 14
1.000000000000000E+20
 24
1.000000000000000E+20
 34
1.000000000000000E+20
 15
-1.000000000000000E+20
 25
-1.000000000000000E+20
 35
-1.000000000000000E+20
146
0.0
 13
0.0
 23
0.0
 33
0.0
 16
1.0
 26
0.0
 36
0.0
 17
0.0
 27
1.0
 37
0.0
 76
     0
330
1F
331
29
  0
MATERIAL
  5
3D
102
{ACAD_REACTORS
330
3B
102
}
330
3B
100
AcDbMaterial
  1
ByBlock
 72
     1
 94
      127
  0
MATERIAL
  5
3C
102
{ACAD_REACTORS
330
3B
102
}
330
3B
100
AcDbMaterial
  1
ByLayer
 72
     1
 94
      127
  0
MATERIAL
  5
3E
102
{ACAD_REACTORS
330
3B
102
}
330
3B
100
AcDbMaterial
  1
Global
 72
     1
 94
      127
  0
MLINESTYLE
  5
18
102
{ACAD_REACTORS
330
17
102
}
330
17
100
AcDbMlineStyle
  2
Standard
 70
     0
  3

 62
   256
 51
90.0
 52
90.0
 71
     2
 49
0.5
 62
   256
  6
BYLAYER
 49
-0.5
 62
   256
  6
BYLAYER
  0
ACDBPLACEHOLDER
  5
F
102
{ACAD_REACTORS
330
E
102
}
330
E
  0
VISUALSTYLE
  5
2F
102
{ACAD_REACTORS
330
2A
102
}
330
2A
100
AcDbVisualStyle
  2
2dWireframe
 70
     4
177
     2
291
     0
 71
     0
176
     1
 72
     2
176
     1
 73
     0
176
     1
 90
        0
176
     1
 40
-0.6
176
     1
 41
-30.0
176
     1
 62
     5
 63
     7
421
 16777215
176
     1
 74
     1
176
     1
 91
        4
176
     1
 64
     7
176
     1
 65
   257
176
     1
 75
     1
176
     1
175
     1
176
     1
 42
1.0
176
     1
 92
        0
176
     1
 66
   257
176
     1
 43
1.0
176
     1
 76
     1
176
     1
 77
     6
176
     1
 78
     2
176
     1
 67
     7
176
     1
 79
     5
176
     1
170
     0
176
     1
171
     0
176
     1
290
     0
176
     1
 93
        1
176
     1
 44
0.0
176
     1
173
     0
176
     1
  0
VISUALSTYLE
  5
31
102
{ACAD_REACTORS
330
2A
102
}
330
2A
100
AcDbVisualStyle
  2
3D Hidden
 70
     6
177
     2
291
     0
 71
     1
176
     1
 72
     2
176
     1
 73
     2
176
     1
 90
        0
176
     1
 40
-0.6
176
     1
 41
-30.0
176
     1
 62
     5
 63
     7
421
 16777215
176
     1
 74
     2
176
     1
 91
        2
176
     1
 64
     7
176
     1
 65
   257
176
     1
 75
     2
176
     1
175
     1
176
     1
 42
40.0
176
     1
 92
        0
176
     1
 66
   257
176
     1
 43
1.0
176
     1
 76
     1
176
     1
 77
     6
176
     1
 78
     2
176
     1
 67
     7
176
     1
 79
     3
176
     1
170
     0
176
     1
171
     0
176
     1
290
     0
176
     1
 93
        1
176
     1
 44
0.0
176
     1
173
     0
176
     1
  0
VISUALSTYLE
  5
30
102
{ACAD_REACTORS
330
2A
102
}
330
2A
100
AcDbVisualStyle
  2
3dWireframe
 70
     5
177
     2
291
     0
 71
     0
176
     1
 72
     2
176
     1
 73
     0
176
     1
 90
        0
176
     1
 40
-0.6
176
     1
 41
-30.0
176
     1
 62
     5
 63
     7
421
 16777215
176
     1
 74
     1
176
     1
 91
        4
176
     1
 64
     7
176
     1
 65
   257
176
     1
 75
     1
176
     1
175
     1
176
     1
 42
1.0
176
     1
 92
        0
176
     1
 66
   257
176
     1
 43
1.0
176
     1
 76
     1
176
     1
 77
     6
176
     1
 78
     2
176
     1
 67
     7
176
     1
 79
     5
176
     1
170
     0
176
     1
171
     0
176
     1
290
     0
176
     1
 93
        1
176
     1
 44
0.0
176
     1
173
     0
176
     1
  0
VISUALSTYLE
  5
32
102
{ACAD_REACTORS
330
2A
102
}
330
2A
100
AcDbVisualStyle
  2
Basic
 70
     7
177
     2
291
     1
 71
     1
176
     1
 72
     0
176
     1
 73
     1
176
     1
 90
        0
176
     1
 40
-0.6
176
     1
 41
-30.0
176
     1
 62
     5
 63
     7
421
 16777215
176
     1
 74
     0
176
     1
 91
        4
176
     1
 64
     7
176
     1
 65
   257
176
     1
 75
     1
176
     1
175
     1
176
     1
 42
1.0
176
     1
 92
        8
176
     1
 66
     7
176
     1
 43
1.0
176
     1
 76
     1
176
     1
 77
     6
176
     1
 78
     2
176
     1
 67
     7
176
     1
 79
     5
176
     1
170
     0
176
     1
171
     0
176
     1
290
     0
176
     1
 93
        1
176
     1
 44
0.0
176
     1
173
     0
176
     1
  0
VISUALSTYLE
  5
36
102
{ACAD_REACTORS
330
2A
102
}
330
2A
100
AcDbVisualStyle
  2
Brighten
 70
    12
177
     2
291
     1
 71
     2
176
     1
 72
     2
176
     1
 73
     0
176
     1
 90
        0
176
     1
 40
-0.6
176
     1
 41
-30.0
176
     1
 62
     5
 63
     7
421
 16777215
176
     1
 74
     1
176
     1
 91
        4
176
     1
 64
     7
176
     1
 65
   257
176
     1
 75
     1
176
     1
175
     1
176
     1
 42
1.0
176
     1
 92
        8
176
     1
 66
     7
176
     1
 43
1.0
176
     1
 76
     1
176
     1
 77
     6
176
     1
 78
     2
176
     1
 67
     7
176
     1
 79
     5
176
     1
170
     0
176
     1
171
     0
176
     1
290
     0
176
     1
 93
        1
176
     1
 44
50.0
176
     1
173
     0
176
     1
  0
VISUALSTYLE
  5
3A
102
{ACAD_REACTORS
330
2A
102
}
330
2A
100
AcDbVisualStyle
  2
ColorChange
 70
    16
177
     2
291
     1
 71
     2
176
     1
 72
     2
176
     1
 73
     3
176
     1
 90
        0
176
     1
 40
-0.6
176
     1
 41
-30.0
176
     1
 62
     5
 63
     8
421
  8421504
176
     1
 74
     1
176
     1
 91
        4
176
     1
 64
     7
176
     1
 65
   257
176
     1
 75
     1
176
     1
175
     1
176
     1
 42
1.0
176
     1
 92
        8
176
     1
 66
     8
424
  8421504
176
     1
 43
1.0
176
     1
 76
     1
176
     1
 77
     6
176
     1
 78
     2
176
     1
 67
     7
176
     1
 79
     5
176
     1
170
     0
176
     1
171
     0
176
     1
290
     0
176
     1
 93
        1
176
     1
 44
0.0
176
     1
173
     0
176
     1
  0
VISUALSTYLE
  5
34
102
{ACAD_REACTORS
330
2A
102
}
330
2A
100
AcDbVisualStyle
  2
Conceptual
 70
     9
177
     2
291
     0
 71
     3
176
     1
 72
     2
176
     1
 73
     0
176
     1
 90
        0
176
     1
 40
-0.6
176
     1
 41
-30.0
176
     1
 62
     5
 63
     7
421
 16777215
176
     1
 74
     2
176
     1
 91
        2
176
     1
 64
     7
176
     1
 65
   257
176
     1
 75
     1
176
     1
175
     1
176
     1
 42
40.0
176
     1
 92
        8
176
     1
 66
     7
176
     1
 43
1.0
176
     1
 76
     1
176
     1
 77
     6
176
     1
 78
     2
176
     1
 67
     7
176
     1
 79
     3
176
     1
170
     0
176
     1
171
     0
176
     1
290
     0
176
     1
 93
        1
176
     1
 44
0.0
176
     1
173
     0
176
     1
  0
VISUALSTYLE
  5
35
102
{ACAD_REACTORS
330
2A
102
}
330
2A
100
AcDbVisualStyle
  2
Dim
 70
    11
177
     2
291
     1
 71
     2
176
     1
 72
     2
176
     1
 73
     0
176
     1
 90
        0
176
     1
 40
-0.6
176
     1
 41
-30.0
176
     1
 62
     5
 63
     7
421
 16777215
176
     1
 74
     1
176
     1
 91
        4
176
     1
 64
     7
176
     1
 65
   257
176
     1
 75
     1
176
     1
175
     1
176
     1
 42
1.0
176
     1
 92
        8
176
     1
 66
     7
176
     1
 43
1.0
176
     1
 76
     1
176
     1
 77
     6
176
     1
 78
     2
176
     1
 67
     7
176
     1
 79
     5
176
     1
170
     0
176
     1
171
     0
176
     1
290
     0
176
     1
 93
        1
176
     1
 44
-50.0
176
     1
173
     0
176
     1
  0
VISUALSTYLE
  5
39
102
{ACAD_REACTORS
330
2A
102
}
330
2A
100
AcDbVisualStyle
  2
Facepattern
 70
    15
177
     2
291
     1
 71
     2
176
     1
 72
     2
176
     1
 73
     0
176
     1
 90
        0
176
     1
 40
-0.6
176
     1
 41
-30.0
176
     1
 62
     5
 63
     7
421
 16777215
176
     1
 74
     1
176
     1
 91
        4
176
     1
 64
     7
176
     1
 65
   257
176
     1
 75
     1
176
     1
175
     1
176
     1
 42
1.0
176
     1
 92
        8
176
     1
 66
     7
176
     1
 43
1.0
176
     1
 76
     1
176
     1
 77
     6
176
     1
 78
     2
176
     1
 67
     7
176
     1
 79
     5
176
     1
170
     0
176
     1
171
     0
176
     1
290
     0
176
     1
 93
        1
176
     1
 44
0.0
176
     1
173
     0
176
     1
  0
VISUALSTYLE
  5
2B
102
{ACAD_REACTORS
330
2A
102
}
330
2A
100
AcDbVisualStyle
  2
Flat
 70
     0
177
     2
291
     1
 71
     2
176
     1
 72
     1
176
     1
 73
     1
176
     1
 90
        2
176
     1
 40
-0.6
176
     1
 41
30.0
176
     1
 62
     5
 63
     7
421
 16777215
176
     1
 74
     0
176
     1
 91
        4
176
     1
 64
     7
176
     1
 65
   257
176
     1
 75
     1
176
     1
175
     1
176
     1
 42
1.0
176
     1
 92
        8
176
     1
 66
     7
176
     1
 43
1.0
176
     1
 76
     1
176
     1
 77
     6
176
     1
 78
     2
176
     1
 67
     7
176
     1
 79
     5
176
     1
170
     0
176
     1
171
     0
176
     1
290
     0
176
     1
 93
       13
176
     1
 44
0.0
176
     1
173
     0
176
     1
  0
VISUALSTYLE
  5
2C
102
{ACAD_REACTORS
330
2A
102
}
330
2A
100
AcDbVisualStyle
  2
FlatWithEdges
 70
     1
177
     2
291
     1
 71
     2
176
     1
 72
     1
176
     1
 73
     1
176
     1
 90
        2
176
     1
 40
-0.6
176
     1
 41
30.0
176
     1
 62
     5
 63
     7
421
 16777215
176
     1
 74
     1
176
     1
 91
        4
176
     1
 64
     7
176
     1
 65
   257
176
     1
 75
     1
176
     1
175
     1
176
     1
 42
1.0
176
     1
 92
        0
176
     1
 66
   257
176
     1
 43
1.0
176
     1
 76
     1
176
     1
 77
     6
176
     1
 78
     2
176
     1
 67
     7
176
     1
 79
     5
176
     1
170
     0
176
     1
171
     0
176
     1
290
     0
176
     1
 93
       13
176
     1
 44
0.0
176
     1
173
     0
176
     1
  0
VISUALSTYLE
  5
2D
102
{ACAD_REACTORS
330
2A
102
}
330
2A
100
AcDbVisualStyle
  2
Gouraud
 70
     2
177
     2
291
     1
 71
     2
176
     1
 72
     2
176
     1
 73
     1
176
     1
 90
        2
176
     1
 40
-0.6
176
     1
 41
30.0
176
     1
 62
     5
 63
     7
421
 16777215
176
     1
 74
     0
176
     1
 91
        4
176
     1
 64
     7
176
     1
 65
   257
176
     1
 75
     1
176
     1
175
     1
176
     1
 42
1.0
176
     1
 92
        0
176
     1
 66
     7
176
     1
 43
1.0
176
     1
 76
     1
176
     1
 77
     6
176
     1
 78
     2
176
     1
 67
     7
176
     1
 79
     5
176
     1
170
     0
176
     1
171
     0
176
     1
290
     0
176
     1
 93
       13
176
     1
 44
0.0
176
     1
173
     0
176
     1
  0
VISUALSTYLE
  5
2E
102
{ACAD_REACTORS
330
2A
102
}
330
2A
100
AcDbVisualStyle
  2
GouraudWithEdges
 70
     3
177
     2
291
     1
 71
     2
176
     1
 72
     2
176
     1
 73
     1
176
     1
 90
        2
176
     1
 40
-0.6
176
     1
 41
30.0
176
     1
 62
     5
 63
     7
421
 16777215
176
     1
 74
     1
176
     1
 91
        4
176
     1
 64
     7
176
     1
 65
   257
176
     1
 75
     1
176
     1
175
     1
176
     1
 42
1.0
176
     1
 92
        0
176
     1
 66
   257
176
     1
 43
1.0
176
     1
 76
     1
176
     1
 77
     6
176
     1
 78
     2
176
     1
 67
     7
176
     1
 79
     5
176
     1
170
     0
176
     1
171
     0
176
     1
290
     0
176
     1
 93
       13
176
     1
 44
0.0
176
     1
173
     0
176
     1
  0
VISUALSTYLE
  5
38
102
{ACAD_REACTORS
330
2A
102
}
330
2A
100
AcDbVisualStyle
  2
Linepattern
 70
    14
177
     2
291
     1
 71
     2
176
     1
 72
     2
176
     1
 73
     0
176
     1
 90
        0
176
     1
 40
-0.6
176
     1
 41
-30.0
176
     1
 62
     5
 63
     7
421
 16777215
176
     1
 74
     1
176
     1
 91
        4
176
     1
 64
     7
176
     1
 65
   257
176
     1
 75
     7
176
     1
175
     7
176
     1
 42
1.0
176
     1
 92
        8
176
     1
 66
     7
176
     1
 43
1.0
176
     1
 76
     1
176
     1
 77
     6
176
     1
 78
     2
176
     1
 67
     7
176
     1
 79
     5
176
     1
170
     0
176
     1
171
     0
176
     1
290
     0
176
     1
 93
        1
176
     1
 44
0.0
176
     1
173
     0
176
     1
  0
VISUALSTYLE
  5
33
102
{ACAD_REACTORS
330
2A
102
}
330
2A
100
AcDbVisualStyle
  2
Realistic
 70
     8
177
     2
291
     0
 71
     2
176
     1
 72
     2
176
     1
 73
     0
176
     1
 90
        0
176
     1
 40
-0.6
176
     1
 41
-30.0
176
     1
 62
     5
 63
     7
421
 16777215
176
     1
 74
     1
176
     1
 91
        0
176
     1
 64
     7
176
     1
 65
   257
176
     1
 75
     1
176
     1
175
     1
176
     1
 42
1.0
176
     1
 92
        8
176
     1
 66
     8
424
  7895160
176
     1
 43
1.0
176
     1
 76
     1
176
     1
 77
     6
176
     1
 78
     2
176
     1
 67
     7
176
     1
 79
     5
176
     1
170
     0
176
     1
171
     0
176
     1
290
     0
176
     1
 93
       13
176
     1
 44
0.0
176
     1
173
     0
176
     1
  0
VISUALSTYLE
  5
37
102
{ACAD_REACTORS
330
2A
102
}
330
2A
100
AcDbVisualStyle
  2
Thicken
 70
    13
177
     2
291
     1
 71
     2
176
     1
 72
     2
176
     1
 73
     0
176
     1
 90
        0
176
     1
 40
-0.6
176
     1
 41
-30.0
176
     1
 62
     5
 63
     7
421
 16777215
176
     1
 74
     1
176
     1
 91
        4
176
     1
 64
     7
176
     1
 65
   257
176
     1
 75
     1
176
     1
175
     1
176
     1
 42
1.0
176
     1
 92
       12
176
     1
 66
     7
176
     1
 43
1.0
176
     1
 76
     1
176
     1
 77
     6
176
     1
 78
     2
176
     1
 67
     7
176
     1
 79
     5
176
     1
170
     0
176
     1
171
     0
176
     1
290
     0
176
     1
 93
        1
176
     1
 44
0.0
176
     1
173
     0
176
     1
  0
ENDSEC
  0
EOF
