  0
SECTION
  2
HEADER
  9
$ACADVER
  1
AC1024
  9
$ACADMAINTVER
 70
   226
  9
$DWGCODEPAGE
  3
ANSI_932
  9
$INSBASE
 10
0.0
 20
0.0
 30
0.0
  9
$EXTMIN
 10
1.000000000000000E+20
 20
1.000000000000000E+20
 30
1.000000000000000E+20
  9
$EXTMAX
 10
-1.000000000000000E+20
 20
-1.000000000000000E+20
 30
-1.000000000000000E+20
  9
$LIMMIN
 10
0.0
 20
0.0
  9
$LIMMAX
 10
12.0
 20
9.0
  9
$ORTHOMODE
 70
     0
  9
$REGENMODE
 70
     1
  9
$FILLMODE
 70
     1
  9
$QTEXTMODE
 70
     0
  9
$MIRRTEXT
 70
     0
  9
$LTSCALE
 40
1.0
  9
$ATTMODE
 70
     1
  9
$TEXTSIZE
 40
0.2
  9
$TRACEWID
 40
0.05
  9
$TEXTSTYLE
  7
Standard
  9
$CLAYER
  8
0
  9
$CELTYPE
  6
ByLayer
  9
$CECOLOR
 62
   256
  9
$CELTSCALE
 40
1.0
  9
$DISPSILH
 70
     0
  9
$DIMSCALE
 40
1.0
  9
$DIMASZ
 40
0.18
  9
$DIMEXO
 40
0.0625
  9
$DIMDLI
 40
0.38
  9
$DIMRND
 40
0.0
  9
$DIMDLE
 40
0.0
  9
$DIMEXE
 40
0.18
  9
$DIMTP
 40
0.0
  9
$DIMTM
 40
0.0
  9
$DIMTXT
 40
0.18
  9
$DIMCEN
 40
0.09
  9
$DIMTSZ
 40
0.0
  9
$DIMTOL
 70
     0
  9
$DIMLIM
 70
     0
  9
$DIMTIH
 70
     1
  9
$DIMTOH
 70
     1
  9
$DIMSE1
 70
     0
  9
$DIMSE2
 70
     0
  9
$DIMTAD
 70
     0
  9
$DIMZIN
 70
     0
  9
$DIMBLK
  1

  9
$DIMASO
 70
     1
  9
$DIMSHO
 70
     1
  9
$DIMPOST
  1

  9
$DIMAPOST
  1

  9
$DIMALT
 70
     0
  9
$DIMALTD
 70
     2
  9
$DIMALTF
 40
25.4
  9
$DIMLFAC
 40
1.0
  9
$DIMTOFL
 70
     0
  9
$DIMTVP
 40
0.0
  9
$DIMTIX
 70
     0
  9
$DIMSOXD
 70
     0
  9
$DIMSAH
 70
     0
  9
$DIMBLK1
  1

  9
$DIMBLK2
  1

  9
$DIMSTYLE
  2
Standard
  9
$DIMCLRD
 70
     0
  9
$DIMCLRE
 70
     0
  9
$DIMCLRT
 70
     0
  9
$DIMTFAC
 40
1.0
  9
$DIMGAP
 40
0.09
  9
$DIMJUST
 70
     0
  9
$DIMSD1
 70
     0
  9
$DIMSD2
 70
     0
  9
$DIMTOLJ
 70
     1
  9
$DIMTZIN
 70
     0
  9
$DIMALTZ
 70
     0
  9
$DIMALTTZ
 70
     0
  9
$DIMUPT
 70
     0
  9
$DIMDEC
 70
     4
  9
$DIMTDEC
 70
     4
  9
$DIMALTU
 70
     2
  9
$DIMALTTD
 70
     2
  9
$DIMTXSTY
  7
Standard
  9
$DIMAUNIT
 70
     0
  9
$DIMADEC
 70
     0
  9
$DIMALTRND
 40
0.0
  9
$DIMAZIN
 70
     0
  9
$DIMDSEP
 70
    46
  9
$DIMATFIT
 70
     3
  9
$DIMFRAC
 70
     0
  9
$DIMLDRBLK
  1

  9
$DIMLUNIT
 70
     2
  9
$DIMLWD
 70
    -2
  9
$DIMLWE
 70
    -2
  9
$DIMTMOVE
 70
     0
  9
$DIMFXL
 40
1.0
  9
$DIMFXLON
 70
     0
  9
$DIMJOGANG
 40
0.7853981633974483
  9
$DIMTFILL
 70
     0
  9
$DIMTFILLCLR
 70
     0
  9
$DIMARCSYM
 70
     0
  9
$DIMLTYPE
  6

  9
$DIMLTEX1
  6

  9
$DIMLTEX2
  6

  9
$DIMTXTDIRECTION
 70
     0
  9
$LUNITS
 70
     2
  9
$LUPREC
 70
     4
  9
$SKETCHINC
 40
0.1
  9
$FILLETRAD
 40
0.0
  9
$AUNITS
 70
     0
  9
$AUPREC
 70
     0
  9
$MENU
  1
.
  9
$ELEVATION
 40
0.0
  9
$PELEVATION
 40
0.0
  9
$THICKNESS
 40
0.0
  9
$LIMCHECK
 70
     0
  9
$CHAMFERA
 40
0.0
  9
$CHAMFERB
 40
0.0
  9
$CHAMFERC
 40
0.0
  9
$CHAMFERD
 40
0.0
  9
$SKPOLY
 70
     0
  9
$TDCREATE
 40
2459569.490370371
  9
$TDUCREATE
 40
2459569.115370371
  9
$TDUPDATE
 40
2459569.490370371
  9
$TDUUPDATE
 40
2459569.115370371
  9
$TDINDWG
 40
0.0000000000
  9
$TDUSRTIMER
 40
0.0000000000
  9
$USRTIMER
 70
     1
  9
$ANGBASE
 50
0.0
  9
$ANGDIR
 70
     0
  9
$PDMODE
 70
     0
  9
$PDSIZE
 40
0.0
  9
$PLINEWID
 40
0.0
  9
$SPLFRAME
 70
     0
  9
$SPLINETYPE
 70
     6
  9
$SPLINESEGS
 70
     8
  9
$HANDSEED
  5
15E
  9
$SURFTAB1
 70
     6
  9
$SURFTAB2
 70
     6
  9
$SURFTYPE
 70
     6
  9
$SURFU
 70
     6
  9
$SURFV
 70
     6
  9
$UCSBASE
  2

  9
$UCSNAME
  2

  9
$UCSORG
 10
0.0
 20
0.0
 30
0.0
  9
$UCSXDIR
 10
1.0
 20
0.0
 30
0.0
  9
$UCSYDIR
 10
0.0
 20
1.0
 30
0.0
  9
$UCSORTHOREF
  2

  9
$UCSORTHOVIEW
 70
     0
  9
$UCSORGTOP
 10
0.0
 20
0.0
 30
0.0
  9
$UCSORGBOTTOM
 10
0.0
 20
0.0
 30
0.0
  9
$UCSORGLEFT
 10
0.0
 20
0.0
 30
0.0
  9
$UCSORGRIGHT
 10
0.0
 20
0.0
 30
0.0
  9
$UCSORGFRONT
 10
0.0
 20
0.0
 30
0.0
  9
$UCSORGBACK
 10
0.0
 20
0.0
 30
0.0
  9
$PUCSBASE
  2

  9
$PUCSNAME
  2

  9
$PUCSORG
 10
0.0
 20
0.0
 30
0.0
  9
$PUCSXDIR
 10
1.0
 20
0.0
 30
0.0
  9
$PUCSYDIR
 10
0.0
 20
1.0
 30
0.0
  9
$PUCSORTHOREF
  2

  9
$PUCSORTHOVIEW
 70
     0
  9
$PUCSORGTOP
 10
0.0
 20
0.0
 30
0.0
  9
$PUCSORGBOTTOM
 10
0.0
 20
0.0
 30
0.0
  9
$PUCSORGLEFT
 10
0.0
 20
0.0
 30
0.0
  9
$PUCSORGRIGHT
 10
0.0
 20
0.0
 30
0.0
  9
$PUCSORGFRONT
 10
0.0
 20
0.0
 30
0.0
  9
$PUCSORGBACK
 10
0.0
 20
0.0
 30
0.0
  9
$USERI1
 70
     0
  9
$USERI2
 70
     0
  9
$USERI3
 70
     0
  9
$USERI4
 70
     0
  9
$USERI5
 70
     0
  9
$USERR1
 40
0.0
  9
$USERR2
 40
0.0
  9
$USERR3
 40
0.0
  9
$USERR4
 40
0.0
  9
$USERR5
 40
0.0
  9
$WORLDVIEW
 70
     1
  9
$SHADEDGE
 70
     3
  9
$SHADEDIF
 70
    70
  9
$TILEMODE
 70
     1
  9
$MAXACTVP
 70
    64
  9
$PINSBASE
 10
0.0
 20
0.0
 30
0.0
  9
$PLIMCHECK
 70
     0
  9
$PEXTMIN
 10
1.000000000000000E+20
 20
1.000000000000000E+20
 30
1.000000000000000E+20
  9
$PEXTMAX
 10
-1.000000000000000E+20
 20
-1.000000000000000E+20
 30
-1.000000000000000E+20
  9
$PLIMMIN
 10
0.0
 20
0.0
  9
$PLIMMAX
 10
12.0
 20
9.0
  9
$UNITMODE
 70
     0
  9
$VISRETAIN
 70
     1
  9
$PLINEGEN
 70
     0
  9
$PSLTSCALE
 70
     1
  9
$TREEDEPTH
 70
  3020
  9
$CMLSTYLE
  2
Standard
  9
$CMLJUST
 70
     0
  9
$CMLSCALE
 40
1.0
  9
$PROXYGRAPHICS
 70
     1
  9
$MEASUREMENT
 70
     0
  9
$CELWEIGHT
370
    -1
  9
$ENDCAPS
280
     0
  9
$JOINSTYLE
280
     0
  9
$LWDISPLAY
290
     1
  9
$INSUNITS
 70
     4
  9
$HYPERLINKBASE
  1

  9
$STYLESHEET
  1

  9
$XEDIT
290
     1
  9
$CEPSNTYPE
380
     0
  9
$PSTYLEMODE
290
     1
  9
$FINGERPRINTGUID
  2
{1C97E784-1BE2-8541-A10F-E07FFE6B03C2}
  9
$VERSIONGUID
  2
{BBCD7FBE-ADAB-7144-8FAA-F494C2C258CB}
  9
$EXTNAMES
290
     1
  9
$PSVPSCALE
 40
0.0
  9
$OLESTARTUP
290
     0
  9
$SORTENTS
280
   127
  9
$INDEXCTL
280
     0
  9
$HIDETEXT
280
     1
  9
$XCLIPFRAME
280
     2
  9
$HALOGAP
280
     0
  9
$OBSCOLOR
 70
   257
  9
$OBSLTYPE
280
     0
  9
$INTERSECTIONDISPLAY
280
     0
  9
$INTERSECTIONCOLOR
 70
   257
  9
$DIMASSOC
280
     2
  9
$PROJECTNAME
  1

  9
$CAMERADISPLAY
290
     0
  9
$LENSLENGTH
 40
50.0
  9
$CAMERAHEIGHT
 40
0.0
  9
$STEPSPERSEC
 40
2.0
  9
$STEPSIZE
 40
6.0
  9
$3DDWFPREC
 40
2.0
  9
$PSOLWIDTH
 40
0.25
  9
$PSOLHEIGHT
 40
4.0
  9
$LOFTANG1
 40
1.570796326794896
  9
$LOFTANG2
 40
1.570796326794896
  9
$LOFTMAG1
 40
0.0
  9
$LOFTMAG2
 40
0.0
  9
$LOFTPARAM
 70
     7
  9
$LOFTNORMALS
280
     1
  9
$LATITUDE
 40
37.795
  9
$LONGITUDE
 40
-122.394
  9
$NORTHDIRECTION
 40
0.0
  9
$TIMEZONE
 70
 -8000
  9
$LIGHTGLYPHDISPLAY
280
     1
  9
$TILEMODELIGHTSYNCH
280
     1
  9
$CMATERIAL
347
11
  9
$SOLIDHIST
280
     0
  9
$SHOWHIST
280
     1
  9
$DWFFRAME
280
     2
  9
$DGNFRAME
280
     0
  9
$REALWORLDSCALE
290
     1
  9
$INTERFERECOLOR
 62
     1
  9
$INTERFEREOBJVS
345
33
  9
$INTERFEREVPVS
346
30
  9
$CSHADOW
280
     0
  9
$SHADOWPLANELOCATION
 40
0.0
  0
ENDSEC
  0
SECTION
  2
CLASSES
  0
CLASS
  1
ACDBDICTIONARYWDFLT
  2
AcDbDictionaryWithDefault
  3
ObjectDBX Classes
 90
        0
 91
        1
280
     0
281
     0
  0
CLASS
  1
MATERIAL
  2
AcDbMaterial
  3
ObjectDBX Classes
 90
     1153
 91
        3
280
     0
281
     0
  0
CLASS
  1
VISUALSTYLE
  2
AcDbVisualStyle
  3
ObjectDBX Classes
 90
     4095
 91
       24
280
     0
281
     0
  0
CLASS
  1
SCALE
  2
AcDbScale
  3
ObjectDBX Classes
 90
     1153
 91
       17
280
     0
281
     0
  0
CLASS
  1
TABLESTYLE
  2
AcDbTableStyle
  3
ObjectDBX Classes
 90
     4095
 91
        1
280
     0
281
     0
  0
CLASS
  1
MLEADERSTYLE
  2
AcDbMLeaderStyle
  3
ACDB_MLEADERSTYLE_CLASS
 90
     4095
 91
        1
280
     0
281
     0
  0
CLASS
  1
ACDBSECTIONVIEWSTYLE
  2
AcDbSectionViewStyle
  3
ObjectDBX Classes
 90
     1025
 91
        1
280
     0
281
     0
  0
CLASS
  1
ACDBDETAILVIEWSTYLE
  2
AcDbDetailViewStyle
  3
ObjectDBX Classes
 90
     1025
 91
        1
280
     0
281
     0
  0
CLASS
  1
DICTIONARYVAR
  2
AcDbDictionaryVar
  3
ObjectDBX Classes
 90
        0
 91
        5
280
     0
281
     0
  0
CLASS
  1
CELLSTYLEMAP
  2
AcDbCellStyleMap
  3
ObjectDBX Classes
 90
     1152
 91
        1
280
     0
281
     0
  0
ENDSEC
  0
SECTION
  2
TABLES
  0
TABLE
  2
VPORT
  5
8
330
0
100
AcDbSymbolTable
 70
     1
  0
VPORT
  5
57
330
8
100
AcDbSymbolTableRecord
100
AcDbViewportTableRecord
  2
*Active
 70
     0
 10
0.0
 20
0.0
 11
1.0
 21
1.0
 12
0.0
 22
0.0
 13
0.0
 23
0.0
 14
1.0
 24
1.0
 15
0.0
 25
0.0
 16
0.0
 26
0.0
 36
1.0
 17
104.9999999737534
 27
-148.4999999628701
 37
0.0
 40
302.939999924255
 41
0.7070707070707534
 42
50.0
 43
0.0
 44
0.0
 50
0.0
 51
0.0
 71
     0
 72
   100
 73
     1
 74
     0
 75
     1
 76
     0
 77
     0
 78
     0
281
     0
 65
     1
110
0.0
120
0.0
130
0.0
111
1.0
121
0.0
131
0.0
112
0.0
122
1.0
132
0.0
 79
     0
146
0.0
 60
     3
 61
     5
292
     1
282
     1
141
0.0
142
0.0
 63
   250
421
  3355443
  0
ENDTAB
  0
TABLE
  2
LTYPE
  5
5
330
0
100
AcDbSymbolTable
 70
     2
  0
LTYPE
  5
5B
330
5
100
AcDbSymbolTableRecord
100
AcDbLinetypeTableRecord
  2
ByBlock
 70
     0
  3

 72
    65
 73
     0
 40
0.0
  0
LTYPE
  5
5C
330
5
100
AcDbSymbolTableRecord
100
AcDbLinetypeTableRecord
  2
ByLayer
 70
     0
  3

 72
    65
 73
     0
 40
0.0
  0
LTYPE
  5
5D
330
5
100
AcDbSymbolTableRecord
100
AcDbLinetypeTableRecord
  2
Continuous
 70
     0
  3
Solid line
 72
    65
 73
     0
 40
0.0
  0
LTYPE
  5
DD
330
5
100
AcDbSymbolTableRecord
100
AcDbLinetypeTableRecord
  2
AI-Linetype-0
 70
     0
  3
Adobe Illustrator Linetype No. 0
 72
    65
 73
     2
 40
1.411111110758333
 49
0.7055555553791667
 74
     0
 49
-0.7055555553791667
 74
     0
  0
ENDTAB
  0
TABLE
  2
LAYER
  5
2
330
0
100
AcDbSymbolTable
 70
     2
  0
LAYER
  5
54
330
2
100
AcDbSymbolTableRecord
100
AcDbLayerTableRecord
  2
0
 70
     0
 62
     7
  6
Continuous
370
    -3
390
F
347
21
  0
LAYER
  5
78
330
2
100
AcDbSymbolTableRecord
100
AcDbLayerTableRecord
  2
レイヤー 1
 70
     0
 62
     7
  6
Continuous
370
     0
390
F
347
21
  0
ENDTAB
  0
TABLE
  2
STYLE
  5
3
330
0
100
AcDbSymbolTable
 70
     2
  0
STYLE
  5
55
330
3
100
AcDbSymbolTableRecord
100
AcDbTextStyleTableRecord
  2
Standard
 70
     0
 40
0.0
 41
1.0
 50
0.0
 71
     0
 42
0.2
  3
txt
  4

  0
STYLE
  5
5A
330
3
100
AcDbSymbolTableRecord
100
AcDbTextStyleTableRecord
  2
Annotative
 70
     0
 40
0.0
 41
1.0
 50
0.0
 71
     0
 42
0.2
  3
txt
  4

1001
AcadAnnotative
1000
AnnotativeData
1002
{
1070
     1
1070
     1
1002
}
  0
ENDTAB
  0
TABLE
  2
VIEW
  5
6
330
0
100
AcDbSymbolTable
 70
     0
  0
ENDTAB
  0
TABLE
  2
UCS
  5
7
330
0
100
AcDbSymbolTable
 70
     0
  0
ENDTAB
  0
TABLE
  2
APPID
  5
9
330
0
100
AcDbSymbolTable
 70
     2
  0
APPID
  5
56
330
9
100
AcDbSymbolTableRecord
100
AcDbRegAppTableRecord
  2
ACAD
 70
     0
  0
APPID
  5
5E
330
9
100
AcDbSymbolTableRecord
100
AcDbRegAppTableRecord
  2
AcadAnnotative
 70
     0
  0
ENDTAB
  0
TABLE
  2
DIMSTYLE
  5
A
330
0
100
AcDbSymbolTable
 70
     2
100
AcDbDimStyleTable
 71
     0
  0
DIMSTYLE
105
58
330
A
100
AcDbSymbolTableRecord
100
AcDbDimStyleTableRecord
  2
Standard
 70
     0
340
55
  0
DIMSTYLE
105
59
330
A
100
AcDbSymbolTableRecord
100
AcDbDimStyleTableRecord
  2
Annotative
 70
     0
340
55
1001
AcadAnnotative
1000
AnnotativeData
1002
{
1070
     1
1070
     1
1002
}
  0
ENDTAB
  0
TABLE
  2
BLOCK_RECORD
  5
1
330
0
100
AcDbSymbolTable
 70
    15
  0
BLOCK_RECORD
  5
70
330
1
100
AcDbSymbolTableRecord
100
AcDbBlockTableRecord
  2
*Model_Space
340
73
 70
     0
280
     1
281
     0
  0
BLOCK_RECORD
  5
6C
330
1
100
AcDbSymbolTableRecord
100
AcDbBlockTableRecord
  2
*Paper_Space
340
6F
 70
     0
280
     1
281
     0
  0
BLOCK_RECORD
  5
74
330
1
100
AcDbSymbolTableRecord
100
AcDbBlockTableRecord
  2
*Paper_Space0
340
77
 70
     0
280
     1
281
     0
  0
BLOCK_RECORD
  5
79
330
1
100
AcDbSymbolTableRecord
100
AcDbBlockTableRecord
  2
Block_0
340
0
102
{BLKREFS
331
7A
102
}
 70
     0
280
     1
281
     0
  0
BLOCK_RECORD
  5
7D
330
1
100
AcDbSymbolTableRecord
100
AcDbBlockTableRecord
  2
Block_1
340
0
102
{BLKREFS
331
7E
102
}
 70
     0
280
     1
281
     0
  0
BLOCK_RECORD
  5
94
330
1
100
AcDbSymbolTableRecord
100
AcDbBlockTableRecord
  2
Block_2
340
0
102
{BLKREFS
331
95
102
}
 70
     0
280
     1
281
     0
  0
BLOCK_RECORD
  5
9C
330
1
100
AcDbSymbolTableRecord
100
AcDbBlockTableRecord
  2
Block_3
340
0
102
{BLKREFS
331
9D
102
}
 70
     0
280
     1
281
     0
  0
BLOCK_RECORD
  5
A0
330
1
100
AcDbSymbolTableRecord
100
AcDbBlockTableRecord
  2
Block_4
340
0
102
{BLKREFS
331
A1
102
}
 70
     0
280
     1
281
     0
  0
BLOCK_RECORD
  5
AA
330
1
100
AcDbSymbolTableRecord
100
AcDbBlockTableRecord
  2
Block_5
340
0
102
{BLKREFS
331
AB
102
}
 70
     0
280
     1
281
     0
  0
BLOCK_RECORD
  5
AE
330
1
100
AcDbSymbolTableRecord
100
AcDbBlockTableRecord
  2
Block_6
340
0
102
{BLKREFS
331
AF
102
}
 70
     0
280
     1
281
     0
  0
BLOCK_RECORD
  5
BA
330
1
100
AcDbSymbolTableRecord
100
AcDbBlockTableRecord
  2
Block_7
340
0
102
{BLKREFS
331
BB
102
}
 70
     0
280
     1
281
     0
  0
BLOCK_RECORD
  5
BE
330
1
100
AcDbSymbolTableRecord
100
AcDbBlockTableRecord
  2
Block_8
340
0
102
{BLKREFS
331
BF
102
}
 70
     0
280
     1
281
     0
  0
BLOCK_RECORD
  5
CE
330
1
100
AcDbSymbolTableRecord
100
AcDbBlockTableRecord
  2
Block_9
340
0
102
{BLKREFS
331
CF
102
}
 70
     0
280
     1
281
     0
  0
BLOCK_RECORD
  5
D2
330
1
100
AcDbSymbolTableRecord
100
AcDbBlockTableRecord
  2
Block_10
340
0
102
{BLKREFS
331
D3
102
}
 70
     0
280
     1
281
     0
  0
BLOCK_RECORD
  5
DE
330
1
100
AcDbSymbolTableRecord
100
AcDbBlockTableRecord
  2
Block_11
340
0
102
{BLKREFS
331
DF
102
}
 70
     0
280
     1
281
     0
  0
BLOCK_RECORD
  5
E5
330
1
100
AcDbSymbolTableRecord
100
AcDbBlockTableRecord
  2
Block_12
340
0
102
{BLKREFS
331
E6
102
}
 70
     0
280
     1
281
     0
  0
BLOCK_RECORD
  5
E9
330
1
100
AcDbSymbolTableRecord
100
AcDbBlockTableRecord
  2
Block_13
340
0
102
{BLKREFS
331
EA
102
}
 70
     0
280
     1
281
     0
  0
ENDTAB
  0
ENDSEC
  0
SECTION
  2
BLOCKS
  0
BLOCK
  5
71
330
70
100
AcDbEntity
  8
0
100
AcDbBlockBegin
  2
*Model_Space
 70
     0
 10
0.0
 20
0.0
 30
0.0
  3
*Model_Space
  1

  0
ENDBLK
  5
72
330
70
100
AcDbEntity
  8
0
100
AcDbBlockEnd
  0
BLOCK
  5
6D
330
6C
100
AcDbEntity
 67
     1
  8
0
100
AcDbBlockBegin
  2
*Paper_Space
 70
     0
 10
0.0
 20
0.0
 30
0.0
  3
*Paper_Space
  1

  0
ENDBLK
  5
6E
330
6C
100
AcDbEntity
 67
     1
  8
0
100
AcDbBlockEnd
  0
BLOCK
  5
75
330
74
100
AcDbEntity
 67
     1
  8
0
100
AcDbBlockBegin
  2
*Paper_Space0
 70
     0
 10
0.0
 20
0.0
 30
0.0
  3
*Paper_Space0
  1

  0
ENDBLK
  5
76
330
74
100
AcDbEntity
 67
     1
  8
0
100
AcDbBlockEnd
  0
BLOCK
  5
7B
330
79
100
AcDbEntity
  8
0
100
AcDbBlockBegin
  2
Block_0
 70
     0
 10
0.0
 20
0.0
 30
0.0
  3
Block_0
  1

  0
INSERT
  5
7E
330
79
100
AcDbEntity
  8
レイヤー 1
100
AcDbBlockReference
  2
Block_1
 10
0.0
 20
0.0
 30
0.0
  0
ENDBLK
  5
7C
330
79
100
AcDbEntity
  8
0
100
AcDbBlockEnd
  0
BLOCK
  5
7F
330
7D
100
AcDbEntity
  8
0
100
AcDbBlockBegin
  2
Block_1
 70
     0
 10
0.0
 20
0.0
 30
0.0
  3
Block_1
  1

  0
LINE
  5
81
330
7D
100
AcDbEntity
  8
レイヤー 1
 62
   250
420
  2299925
370
    25
100
AcDbLine
 10
79.99597774363777
 20
-140.507100145156
 30
0.0
 11
86.09598524211232
 21
-140.507100145156
 31
0.0
  0
LINE
  5
82
330
7D
100
AcDbEntity
  8
レイヤー 1
 62
   250
420
  2299925
370
    25
100
AcDbLine
 10
84.99598895085327
 20
-141.6068720875342
 30
0.0
 11
84.99598895085327
 21
-156.6069288741278
 31
0.0
  0
LINE
  5
83
330
7D
100
AcDbEntity
  8
レイヤー 1
 62
   250
420
  2299925
370
    25
100
AcDbLine
 10
79.99597774363777
 20
-141.6068723467311
 30
0.0
 11
84.99598885349854
 21
-141.6068723467311
 31
0.0
  0
LINE
  5
84
330
7D
100
AcDbEntity
  8
レイヤー 1
 62
   250
420
  2299925
370
    25
100
AcDbLine
 10
79.99597774363777
 20
-140.507100145156
 30
0.0
 11
79.99597774363777
 21
-141.6068723418472
 31
0.0
  0
LINE
  5
85
330
7D
100
AcDbEntity
  8
レイヤー 1
 62
   250
420
  2299925
370
    25
100
AcDbLine
 10
86.09598533946705
 20
-140.5070998908433
 30
0.0
 11
86.09598533946705
 21
-155.507250013294
 31
0.0
  0
LINE
  5
86
330
7D
100
AcDbEntity
  8
レイヤー 1
 62
   250
420
  2299925
370
    25
100
AcDbLine
 10
101.9959610201466
 20
-155.507250013294
 30
0.0
 11
101.9959610201466
 21
-155.9072294475341
 31
0.0
  0
LINE
  5
87
330
7D
100
AcDbEntity
  8
レイヤー 1
 62
   250
420
  2299925
370
    25
100
AcDbLine
 10
86.09598533946705
 20
-155.507250013294
 30
0.0
 11
101.9959610201466
 21
-155.507250013294
 31
0.0
  0
LINE
  5
88
330
7D
100
AcDbEntity
  8
レイヤー 1
 62
   250
420
  2299925
370
    25
100
AcDbLine
 10
101.9959610201466
 20
-155.9072294475341
 30
0.0
 11
84.99598895085327
 21
-156.6069288741278
 31
0.0
  0
SPLINE
  5
89
330
7D
100
AcDbEntity
  8
レイヤー 1
 62
   250
420
  2299925
370
     9
100
AcDbSpline
210
0.0
220
0.0
230
1.0
 70
    11
 71
     3
 72
    17
 73
    13
 74
     0
 42
0.0000000001
 43
0.0000000001
 40
0.0
 40
0.0
 40
0.0
 40
0.0
 40
1.0
 40
1.0
 40
1.0
 40
2.0
 40
2.0
 40
2.0
 40
3.0
 40
3.0
 40
3.0
 40
4.0
 40
4.0
 40
4.0
 40
4.0
 10
106.0963333900226
 20
-140.507100145156
 30
0.0
 10
106.0963333900226
 20
-140.4518198687885
 30
0.0
 10
106.0515306122558
 20
-140.4070170921538
 30
0.0
 10
105.9957200847709
 20
-140.4070170921538
 30
0.0
 10
105.9406161972878
 20
-140.4070170921538
 30
0.0
 10
105.8958134206531
 20
-140.4518198687885
 30
0.0
 10
105.8958134206531
 20
-140.507100145156
 30
0.0
 10
105.8958134206531
 20
-140.5623804215234
 30
0.0
 10
105.9406161972878
 20
-140.6071831981582
 30
0.0
 10
105.9957200847709
 20
-140.6071831981582
 30
0.0
 10
106.0515306122558
 20
-140.6071831981582
 30
0.0
 10
106.0963333900226
 20
-140.5623804215234
 30
0.0
 10
106.0963333900226
 20
-140.507100145156
 30
0.0
  0
SPLINE
  5
8A
330
7D
100
AcDbEntity
  8
レイヤー 1
 62
   250
420
  2299925
370
     9
100
AcDbSpline
210
0.0
220
0.0
230
1.0
 70
     9
 71
     3
 72
    17
 73
    13
 74
     0
 42
0.0000000001
 43
0.0000000001
 40
0.0
 40
0.0
 40
0.0
 40
0.0
 40
1.0
 40
1.0
 40
1.0
 40
2.0
 40
2.0
 40
2.0
 40
3.0
 40
3.0
 40
3.0
 40
4.0
 40
4.0
 40
4.0
 40
4.0
 10
106.0963333900226
 20
-155.507250013294
 30
0.0
 10
106.0963333900226
 20
-155.4517933480422
 30
0.0
 10
106.0515306122558
 20
-155.4069905714074
 30
0.0
 10
105.9957200847709
 20
-155.4069905714074
 30
0.0
 10
105.9406161972878
 20
-155.4069905714074
 30
0.0
 10
105.8958134206531
 20
-155.4517933480422
 30
0.0
 10
105.8958134206531
 20
-155.507250013294
 30
0.0
 10
105.8958134206531
 20
-155.5623539007771
 30
0.0
 10
105.9406161972878
 20
-155.6071566774118
 30
0.0
 10
105.9957200847709
 20
-155.6071566774118
 30
0.0
 10
106.0515306122558
 20
-155.6071566774118
 30
0.0
 10
106.0963333900226
 20
-155.5623539007771
 30
0.0
 10
106.0963333900226
 20
-155.507250013294
 30
0.0
  0
SPLINE
  5
8B
330
7D
100
AcDbEntity
  8
レイヤー 1
 62
   250
420
  2299925
370
     9
100
AcDbSpline
210
0.0
220
0.0
230
1.0
 70
     9
 71
     3
 72
    17
 73
    13
 74
     0
 42
0.0000000001
 43
0.0000000001
 40
0.0
 40
0.0
 40
0.0
 40
0.0
 40
1.0
 40
1.0
 40
1.0
 40
2.0
 40
2.0
 40
2.0
 40
3.0
 40
3.0
 40
3.0
 40
4.0
 40
4.0
 40
4.0
 40
4.0
 10
106.0963333900226
 20
-155.9072294475341
 30
0.0
 10
106.0963333900226
 20
-155.8517727822823
 30
0.0
 10
106.0515306122558
 20
-155.8069700056475
 30
0.0
 10
105.9957200847709
 20
-155.8069700056475
 30
0.0
 10
105.9406161972878
 20
-155.8069700056475
 30
0.0
 10
105.8958134206531
 20
-155.8517727822823
 30
0.0
 10
105.8958134206531
 20
-155.9072294475341
 30
0.0
 10
105.8958134206531
 20
-155.9623333350172
 30
0.0
 10
105.9406161972878
 20
-156.007136111652
 30
0.0
 10
105.9957200847709
 20
-156.007136111652
 30
0.0
 10
106.0515306122558
 20
-156.007136111652
 30
0.0
 10
106.0963333900226
 20
-155.9623333350172
 30
0.0
 10
106.0963333900226
 20
-155.9072294475341
 30
0.0
  0
CIRCLE
  5
8C
330
7D
100
AcDbEntity
  8
レイヤー 1
 62
   250
420
  2299925
370
     9
100
AcDbCircle
 10
101.9959610201466
 20
-160.6068643276365
 30
0.0
 40
0.0999066641178353
  0
SPLINE
  5
8D
330
7D
100
AcDbEntity
  8
レイヤー 1
 62
   250
420
  2299925
370
     9
100
AcDbSpline
210
0.0
220
0.0
230
1.0
 70
     9
 71
     3
 72
    17
 73
    13
 74
     0
 42
0.0000000001
 43
0.0000000001
 40
0.0
 40
0.0
 40
0.0
 40
0.0
 40
1.0
 40
1.0
 40
1.0
 40
2.0
 40
2.0
 40
2.0
 40
3.0
 40
3.0
 40
3.0
 40
4.0
 40
4.0
 40
4.0
 40
4.0
 10
80.09606079916828
 20
-160.6068643276365
 30
0.0
 10
80.09606079916828
 20
-160.5517191717066
 30
0.0
 10
80.05125802140156
 20
-160.5069576635186
 30
0.0
 10
79.99597774363777
 20
-160.5069576635186
 30
0.0
 10
79.94069746587396
 20
-160.5069576635186
 30
0.0
 10
79.89607107699614
 20
-160.5517191717066
 30
0.0
 10
79.89607107699614
 20
-160.6068643276365
 30
0.0
 10
79.89607107699614
 20
-160.6619682151195
 30
0.0
 10
79.94069746587396
 20
-160.7067709917543
 30
0.0
 10
79.99597774363777
 20
-160.7067709917543
 30
0.0
 10
80.05125802140156
 20
-160.7067709917543
 30
0.0
 10
80.09606079916828
 20
-160.6619682151195
 30
0.0
 10
80.09606079916828
 20
-160.6068643276365
 30
0.0
  0
SPLINE
  5
8E
330
7D
100
AcDbEntity
  8
レイヤー 1
 62
   250
420
  2299925
370
     9
100
AcDbSpline
210
0.0
220
0.0
230
1.0
 70
    11
 71
     3
 72
    17
 73
    13
 74
     0
 42
0.0000000001
 43
0.0000000001
 40
0.0
 40
0.0
 40
0.0
 40
0.0
 40
1.0
 40
1.0
 40
1.0
 40
2.0
 40
2.0
 40
2.0
 40
3.0
 40
3.0
 40
3.0
 40
4.0
 40
4.0
 40
4.0
 40
4.0
 10
78.04621024412495
 20
-140.507100145156
 30
0.0
 10
78.04621024412495
 20
-140.4518198687885
 30
0.0
 10
78.00144274413638
 20
-140.4070170921538
 30
0.0
 10
77.94630357748395
 20
-140.4070170921538
 30
0.0
 10
77.8910232997195
 20
-140.4070170921538
 30
0.0
 10
77.84625579973031
 20
-140.4518198687885
 30
0.0
 10
77.84625579973031
 20
-140.507100145156
 30
0.0
 10
77.84625579973031
 20
-140.5623804215234
 30
0.0
 10
77.8910232997195
 20
-140.6071831981582
 30
0.0
 10
77.94630357748395
 20
-140.6071831981582
 30
0.0
 10
78.00144274413638
 20
-140.6071831981582
 30
0.0
 10
78.04621024412495
 20
-140.5623804215234
 30
0.0
 10
78.04621024412495
 20
-140.507100145156
 30
0.0
  0
SPLINE
  5
8F
330
7D
100
AcDbEntity
  8
レイヤー 1
 62
   250
420
  2299925
370
     9
100
AcDbSpline
210
0.0
220
0.0
230
1.0
 70
     9
 71
     3
 72
    17
 73
    13
 74
     0
 42
0.0000000001
 43
0.0000000001
 40
0.0
 40
0.0
 40
0.0
 40
0.0
 40
1.0
 40
1.0
 40
1.0
 40
2.0
 40
2.0
 40
2.0
 40
3.0
 40
3.0
 40
3.0
 40
4.0
 40
4.0
 40
4.0
 40
4.0
 10
78.04621024412495
 20
-141.6068723467311
 30
0.0
 10
78.04621024412495
 20
-141.5517331814712
 30
0.0
 10
78.00144274413638
 20
-141.5069656826136
 30
0.0
 10
77.94630357748395
 20
-141.5069656826136
 30
0.0
 10
77.8910232997195
 20
-141.5069656826136
 30
0.0
 10
77.84625579973031
 20
-141.5517331814712
 30
0.0
 10
77.84625579973031
 20
-141.6068723467311
 30
0.0
 10
77.84625579973031
 20
-141.662329011983
 30
0.0
 10
77.8910232997195
 20
-141.7071317886178
 30
0.0
 10
77.94630357748395
 20
-141.7071317886178
 30
0.0
 10
78.00144274413638
 20
-141.7071317886178
 30
0.0
 10
78.04621024412495
 20
-141.662329011983
 30
0.0
 10
78.04621024412495
 20
-141.6068723467311
 30
0.0
  0
SPLINE
  5
90
330
7D
100
AcDbEntity
  8
レイヤー 1
 62
   250
420
  2299925
370
     9
100
AcDbSpline
210
0.0
220
0.0
230
1.0
 70
     9
 71
     3
 72
    17
 73
    13
 74
     0
 42
0.0000000001
 43
0.0000000001
 40
0.0
 40
0.0
 40
0.0
 40
0.0
 40
1.0
 40
1.0
 40
1.0
 40
2.0
 40
2.0
 40
2.0
 40
3.0
 40
3.0
 40
3.0
 40
4.0
 40
4.0
 40
4.0
 40
4.0
 10
85.09603672860563
 20
-160.6068643276365
 30
0.0
 10
85.09603672860563
 20
-160.5517191717066
 30
0.0
 10
85.05126922861707
 20
-160.5069576635186
 30
0.0
 10
84.99598895085327
 20
-160.5069576635186
 30
0.0
 10
84.94084978420053
 20
-160.5069576635186
 30
0.0
 10
84.89608228421099
 20
-160.5517191717066
 30
0.0
 10
84.89608228421099
 20
-160.6068643276365
 30
0.0
 10
84.89608228421099
 20
-160.6619682151195
 30
0.0
 10
84.94084978420053
 20
-160.7067709917543
 30
0.0
 10
84.99598895085327
 20
-160.7067709917543
 30
0.0
 10
85.05126922861707
 20
-160.7067709917543
 30
0.0
 10
85.09603672860563
 20
-160.6619682151195
 30
0.0
 10
85.09603672860563
 20
-160.6068643276365
 30
0.0
  0
LINE
  5
91
330
7D
100
AcDbEntity
  8
レイヤー 1
 62
   250
420
  2299925
370
     9
100
AcDbLine
 10
79.99615413252666
 20
-160.6068643276365
 30
0.0
 11
84.99598885349854
 21
-160.6068643276365
 31
0.0
  0
LINE
  5
92
330
7D
100
AcDbEntity
  8
レイヤー 1
 62
   250
420
  2299925
370
     9
100
AcDbLine
 10
79.99597774363777
 20
-144.147025631314
 30
0.0
 11
79.99597774363777
 21
-161.6073068021131
 31
0.0
  0
LINE
  5
93
330
7D
100
AcDbEntity
  8
レイヤー 1
 62
   250
420
  2299925
370
     9
100
AcDbLine
 10
84.99598895085327
 20
-159.1468229759963
 30
0.0
 11
84.99598895085327
 21
-161.6073068021131
 31
0.0
  0
INSERT
  5
95
330
7D
100
AcDbEntity
  8
レイヤー 1
100
AcDbBlockReference
  2
Block_2
 10
0.0
 20
0.0
 30
0.0
  0
LINE
  5
9A
330
7D
100
AcDbEntity
  8
レイヤー 1
 62
   250
420
  2299925
370
     9
100
AcDbLine
 10
84.99598895085327
 20
-160.6068643276365
 30
0.0
 11
101.9959610201466
 21
-160.6068643276365
 31
0.0
  0
LINE
  5
9B
330
7D
100
AcDbEntity
  8
レイヤー 1
 62
   250
420
  2299925
370
     9
100
AcDbLine
 10
101.9959610201466
 20
-158.4467707716339
 30
0.0
 11
101.9959610201466
 21
-161.6073068021131
 31
0.0
  0
INSERT
  5
9D
330
7D
100
AcDbEntity
  8
レイヤー 1
100
AcDbBlockReference
  2
Block_3
 10
0.0
 20
0.0
 30
0.0
  0
LINE
  5
A8
330
7D
100
AcDbEntity
  8
レイヤー 1
 62
   250
420
  2299925
370
     9
100
AcDbLine
 10
105.9957200847709
 20
-155.507250013294
 30
0.0
 11
105.9957200847709
 21
-140.5070998908433
 31
0.0
  0
LINE
  5
A9
330
7D
100
AcDbEntity
  8
レイヤー 1
 62
   250
420
  2299925
370
     9
100
AcDbLine
 10
88.63605589438735
 20
-140.507100145156
 30
0.0
 11
106.9961625592475
 21
-140.507100145156
 31
0.0
  0
INSERT
  5
AB
330
7D
100
AcDbEntity
  8
レイヤー 1
100
AcDbBlockReference
  2
Block_5
 10
0.0
 20
0.0
 30
0.0
  0
LINE
  5
B6
330
7D
100
AcDbEntity
  8
レイヤー 1
 62
   250
420
  2299925
370
     9
100
AcDbLine
 10
105.9957200847709
 20
-155.9072294475341
 30
0.0
 11
105.9957200847709
 21
-156.90700164425
 31
0.0
  0
LINE
  5
B7
330
7D
100
AcDbEntity
  8
レイヤー 1
 62
   250
420
  2299925
370
     9
100
AcDbLine
 10
105.9957200847709
 20
-155.507250013294
 30
0.0
 11
105.9957200847709
 21
-155.9072294475341
 31
0.0
  0
LINE
  5
B8
330
7D
100
AcDbEntity
  8
レイヤー 1
 62
   250
420
  2299925
370
     9
100
AcDbLine
 10
104.5356787331308
 20
-155.507250013294
 30
0.0
 11
106.9961625592475
 21
-155.507250013294
 31
0.0
  0
LINE
  5
B9
330
7D
100
AcDbEntity
  8
レイヤー 1
 62
   250
420
  2299925
370
     9
100
AcDbLine
 10
104.5356787331308
 20
-155.9072294475341
 30
0.0
 11
106.9961625592475
 21
-155.9072294475341
 31
0.0
  0
INSERT
  5
BB
330
7D
100
AcDbEntity
  8
レイヤー 1
100
AcDbBlockReference
  2
Block_7
 10
0.0
 20
0.0
 30
0.0
  0
LINE
  5
CA
330
7D
100
AcDbEntity
  8
レイヤー 1
 62
   250
420
  2299925
370
     9
100
AcDbLine
 10
77.94630357748395
 20
-140.507100145156
 30
0.0
 11
77.94630357748395
 21
-139.5071515595557
 31
0.0
  0
LINE
  5
CB
330
7D
100
AcDbEntity
  8
レイヤー 1
 62
   250
420
  2299925
370
     9
100
AcDbLine
 10
77.94630357748395
 20
-140.507100145156
 30
0.0
 11
77.94630357748395
 21
-142.5069620385797
 31
0.0
  0
LINE
  5
CC
330
7D
100
AcDbEntity
  8
レイヤー 1
 62
   250
420
  2299925
370
     9
100
AcDbLine
 10
79.40616857711813
 20
-140.507100145156
 30
0.0
 11
76.94621385551117
 21
-140.507100145156
 31
0.0
  0
LINE
  5
CD
330
7D
100
AcDbEntity
  8
レイヤー 1
 62
   250
420
  2299925
370
     9
100
AcDbLine
 10
79.40616857711813
 20
-141.6068723467311
 30
0.0
 11
76.94621385551117
 21
-141.6068723467311
 31
0.0
  0
INSERT
  5
CF
330
7D
100
AcDbEntity
  8
レイヤー 1
100
AcDbBlockReference
  2
Block_9
 10
0.0
 20
0.0
 30
0.0
  0
ENDBLK
  5
80
330
7D
100
AcDbEntity
  8
0
100
AcDbBlockEnd
  0
BLOCK
  5
96
330
94
100
AcDbEntity
  8
0
100
AcDbBlockBegin
  2
Block_2
 70
     0
 10
0.0
 20
0.0
 30
0.0
  3
Block_2
  1

  0
SPLINE
  5
98
330
94
100
AcDbEntity
  8
レイヤー 1
100
AcDbSpline
210
0.0
220
0.0
230
1.0
 70
     9
 71
     3
 72
    53
 73
    49
 74
     0
 42
0.0000000001
 43
0.0000000001
 40
0.0
 40
0.0
 40
0.0
 40
0.0
 40
1.0
 40
1.0
 40
1.0
 40
2.0
 40
2.0
 40
2.0
 40
3.0
 40
3.0
 40
3.0
 40
4.0
 40
4.0
 40
4.0
 40
5.0
 40
5.0
 40
5.0
 40
6.0
 40
6.0
 40
6.0
 40
7.0
 40
7.0
 40
7.0
 40
8.0
 40
8.0
 40
8.0
 40
9.0
 40
9.0
 40
9.0
 40
10.0
 40
10.0
 40
10.0
 40
11.0
 40
11.0
 40
11.0
 40
12.0
 40
12.0
 40
12.0
 40
13.0
 40
13.0
 40
13.0
 40
14.0
 40
14.0
 40
14.0
 40
15.0
 40
15.0
 40
15.0
 40
16.0
 40
16.0
 40
16.0
 40
16.0
 10
82.46766219726502
 20
-160.0119384365595
 30
0.0
 10
82.40082734485119
 20
-160.0119384365595
 30
0.0
 10
82.31435544817141
 20
-159.9950574686818
 30
0.0
 10
82.22788355149164
 20
-159.9316677117532
 30
0.0
 10
82.08008895517442
 20
-159.8217691657737
 30
0.0
 10
82.0618299491026
 20
-159.6905110277857
 30
0.0
 10
82.04563800032193
 20
-159.5826795390974
 30
0.0
 10
82.04563800032193
 20
-159.5826795390974
 30
0.0
 10
82.23511825201066
 20
-159.5826795390974
 30
0.0
 10
82.23511825201066
 20
-159.5826795390974
 30
0.0
 10
82.28197155061007
 20
-159.7814615485963
 30
0.0
 10
82.3901475488469
 20
-159.8110893697694
 30
0.0
 10
82.46938474500765
 20
-159.8110893697694
 30
0.0
 10
82.5885850487973
 20
-159.8110893697694
 30
0.0
 10
82.71846514859122
 20
-159.7115261102457
 30
0.0
 10
82.71846514859122
 20
-159.4789821649914
 30
0.0
 10
82.71846514859122
 20
-159.2230115704373
 30
0.0
 10
82.56515839949761
 20
-159.1530761320867
 30
0.0
 10
82.46215004448863
 20
-159.1530761320867
 30
0.0
 10
82.43527829970368
 20
-159.1530761320867
 30
0.0
 10
82.31435544817141
 20
-159.1530761320867
 30
0.0
 10
82.23856334749591
 20
-159.2822672127836
 30
0.0
 10
82.23856334749591
 20
-159.2822672127836
 30
0.0
 10
82.08904620343608
 20
-159.2633191876147
 30
0.0
 10
82.08904620343608
 20
-159.2633191876147
 30
0.0
 10
82.08904620343608
 20
-159.2633191876147
 30
0.0
 10
82.19171004889652
 20
-158.4168592268888
 30
0.0
 10
82.19171004889652
 20
-158.4168592268888
 30
0.0
 10
82.19171004889652
 20
-158.4168592268888
 30
0.0
 10
82.85523543935564
 20
-158.4168592268888
 30
0.0
 10
82.85523543935564
 20
-158.4168592268888
 30
0.0
 10
82.85523543935564
 20
-158.4168592268888
 30
0.0
 10
82.85523543935564
 20
-158.6115071218054
 30
0.0
 10
82.85523543935564
 20
-158.6115071218054
 30
0.0
 10
82.85523543935564
 20
-158.6115071218054
 30
0.0
 10
82.33054739695209
 20
-158.6115071218054
 30
0.0
 10
82.33054739695209
 20
-158.6115071218054
 30
0.0
 10
82.33054739695209
 20
-158.6115071218054
 30
0.0
 10
82.27473685009105
 20
-159.0345648473941
 30
0.0
 10
82.27473685009105
 20
-159.0345648473941
 30
0.0
 10
82.32710230146684
 20
-159.0008029116387
 30
0.0
 10
82.39738224936592
 20
-158.9604952944613
 30
0.0
 10
82.49832354708376
 20
-158.9604952944613
 30
0.0
 10
82.71467554355744
 20
-158.9604952944613
 30
0.0
 10
82.91655813899309
 20
-159.1468749602133
 30
0.0
 10
82.91655813899309
 20
-159.4600341398225
 30
0.0
 10
82.91655813899309
 20
-159.777327434014
 30
0.0
 10
82.72569984911024
 20
-160.0119384365595
 30
0.0
 10
82.46766219726502
 20
-160.0119384365595
 30
0.0
  0
HATCH
  5
99
330
94
100
AcDbEntity
  8
レイヤー 1
 62
   250
420
  2299925
440
 33554687
100
AcDbHatch
 10
0.0
 20
0.0
 30
0.0
210
0.0
220
0.0
230
1.0
  2
SOLID
 70
     1
 71
     1
 91
        1
 92
        1
 93
        1
 72
     4
 94
        3
 73
     0
 74
     0
 95
       53
 96
       49
 40
0.0
 40
0.0
 40
0.0
 40
0.0
 40
1.0
 40
1.0
 40
1.0
 40
2.0
 40
2.0
 40
2.0
 40
3.0
 40
3.0
 40
3.0
 40
4.0
 40
4.0
 40
4.0
 40
5.0
 40
5.0
 40
5.0
 40
6.0
 40
6.0
 40
6.0
 40
7.0
 40
7.0
 40
7.0
 40
8.0
 40
8.0
 40
8.0
 40
9.0
 40
9.0
 40
9.0
 40
10.0
 40
10.0
 40
10.0
 40
11.0
 40
11.0
 40
11.0
 40
12.0
 40
12.0
 40
12.0
 40
13.0
 40
13.0
 40
13.0
 40
14.0
 40
14.0
 40
14.0
 40
15.0
 40
15.0
 40
15.0
 40
16.0
 40
16.0
 40
16.0
 40
16.0
 10
82.46766219726502
 20
-160.0119384365595
 10
82.40082734485119
 20
-160.0119384365595
 10
82.31435544817141
 20
-159.9950574686818
 10
82.22788355149164
 20
-159.9316677117532
 10
82.08008895517442
 20
-159.8217691657737
 10
82.0618299491026
 20
-159.6905110277857
 10
82.04563800032193
 20
-159.5826795390974
 10
82.04563800032193
 20
-159.5826795390974
 10
82.23511825201066
 20
-159.5826795390974
 10
82.23511825201066
 20
-159.5826795390974
 10
82.28197155061007
 20
-159.7814615485963
 10
82.3901475488469
 20
-159.8110893697694
 10
82.46938474500765
 20
-159.8110893697694
 10
82.5885850487973
 20
-159.8110893697694
 10
82.71846514859122
 20
-159.7115261102457
 10
82.71846514859122
 20
-159.4789821649914
 10
82.71846514859122
 20
-159.2230115704373
 10
82.56515839949761
 20
-159.1530761320867
 10
82.46215004448863
 20
-159.1530761320867
 10
82.43527829970368
 20
-159.1530761320867
 10
82.31435544817141
 20
-159.1530761320867
 10
82.23856334749591
 20
-159.2822672127836
 10
82.23856334749591
 20
-159.2822672127836
 10
82.08904620343608
 20
-159.2633191876147
 10
82.08904620343608
 20
-159.2633191876147
 10
82.08904620343608
 20
-159.2633191876147
 10
82.19171004889652
 20
-158.4168592268888
 10
82.19171004889652
 20
-158.4168592268888
 10
82.19171004889652
 20
-158.4168592268888
 10
82.85523543935564
 20
-158.4168592268888
 10
82.85523543935564
 20
-158.4168592268888
 10
82.85523543935564
 20
-158.4168592268888
 10
82.85523543935564
 20
-158.6115071218054
 10
82.85523543935564
 20
-158.6115071218054
 10
82.85523543935564
 20
-158.6115071218054
 10
82.33054739695209
 20
-158.6115071218054
 10
82.33054739695209
 20
-158.6115071218054
 10
82.33054739695209
 20
-158.6115071218054
 10
82.27473685009105
 20
-159.0345648473941
 10
82.27473685009105
 20
-159.0345648473941
 10
82.32710230146684
 20
-159.0008029116387
 10
82.39738224936592
 20
-158.9604952944613
 10
82.49832354708376
 20
-158.9604952944613
 10
82.71467554355744
 20
-158.9604952944613
 10
82.91655813899309
 20
-159.1468749602133
 10
82.91655813899309
 20
-159.4600341398225
 10
82.91655813899309
 20
-159.777327434014
 10
82.72569984911024
 20
-160.0119384365595
 10
82.46766219726502
 20
-160.0119384365595
 97
        0
 97
        1
330
98
 75
     2
 76
     1
 98
        1
 10
0.0
 20
0.0
450
        0
451
        0
460
0.0
461
0.0
452
        0
462
0.0
453
        0
470

  0
ENDBLK
  5
97
330
94
100
AcDbEntity
  8
0
100
AcDbBlockEnd
  0
BLOCK
  5
9E
330
9C
100
AcDbEntity
  8
0
100
AcDbBlockBegin
  2
Block_3
 70
     0
 10
0.0
 20
0.0
 30
0.0
  3
Block_3
  1

  0
INSERT
  5
A1
330
9C
100
AcDbEntity
  8
レイヤー 1
100
AcDbBlockReference
  2
Block_4
 10
0.0
 20
0.0
 30
0.0
  0
ENDBLK
  5
9F
330
9C
100
AcDbEntity
  8
0
100
AcDbBlockEnd
  0
BLOCK
  5
A2
330
A0
100
AcDbEntity
  8
0
100
AcDbBlockBegin
  2
Block_4
 70
     0
 10
0.0
 20
0.0
 30
0.0
  3
Block_4
  1

  0
SPLINE
  5
A4
330
A0
100
AcDbEntity
  8
レイヤー 1
100
AcDbSpline
210
0.0
220
0.0
230
1.0
 70
    11
 71
     3
 72
    26
 73
    22
 74
     0
 42
0.0000000001
 43
0.0000000001
 40
0.0
 40
0.0
 40
0.0
 40
0.0
 40
1.0
 40
1.0
 40
1.0
 40
2.0
 40
2.0
 40
2.0
 40
3.0
 40
3.0
 40
3.0
 40
4.0
 40
4.0
 40
4.0
 40
5.0
 40
5.0
 40
5.0
 40
6.0
 40
6.0
 40
6.0
 40
7.0
 40
7.0
 40
7.0
 40
7.0
 10
92.95418834481701
 20
-159.9612955329263
 30
0.0
 10
92.95418834481701
 20
-159.9612955329263
 30
0.0
 10
92.95418834481701
 20
-158.8571424299038
 30
0.0
 10
92.95418834481701
 20
-158.8571424299038
 30
0.0
 10
92.95418834481701
 20
-158.8571424299038
 30
0.0
 10
92.6727240436721
 20
-158.8571424299038
 30
0.0
 10
92.6727240436721
 20
-158.8571424299038
 30
0.0
 10
92.6727240436721
 20
-158.8571424299038
 30
0.0
 10
92.6727240436721
 20
-158.709003324038
 30
0.0
 10
92.6727240436721
 20
-158.709003324038
 30
0.0
 10
92.95591089255964
 20
-158.6941894134514
 30
0.0
 10
92.99552949064
 20
-158.5312363969991
 30
0.0
 10
93.02067868768233
 20
-158.4168592268888
 30
0.0
 10
93.02067868768233
 20
-158.4168592268888
 30
0.0
 10
93.14539114424837
 20
-158.4168592268888
 30
0.0
 10
93.14539114424837
 20
-158.4168592268888
 30
0.0
 10
93.14539114424837
 20
-158.4168592268888
 30
0.0
 10
93.14539114424837
 20
-159.9612955329263
 30
0.0
 10
93.14539114424837
 20
-159.9612955329263
 30
0.0
 10
93.14539114424837
 20
-159.9612955329263
 30
0.0
 10
92.95418834481701
 20
-159.9612955329263
 30
0.0
 10
92.95418834481701
 20
-159.9612955329263
 30
0.0
  0
HATCH
  5
A5
330
A0
100
AcDbEntity
  8
レイヤー 1
 62
   250
420
  2299925
440
 33554687
100
AcDbHatch
 10
0.0
 20
0.0
 30
0.0
210
0.0
220
0.0
230
1.0
  2
SOLID
 70
     1
 71
     1
 91
        1
 92
        1
 93
        1
 72
     4
 94
        3
 73
     0
 74
     0
 95
       26
 96
       22
 40
0.0
 40
0.0
 40
0.0
 40
0.0
 40
1.0
 40
1.0
 40
1.0
 40
2.0
 40
2.0
 40
2.0
 40
3.0
 40
3.0
 40
3.0
 40
4.0
 40
4.0
 40
4.0
 40
5.0
 40
5.0
 40
5.0
 40
6.0
 40
6.0
 40
6.0
 40
7.0
 40
7.0
 40
7.0
 40
7.0
 10
92.95418834481701
 20
-159.9612955329263
 10
92.95418834481701
 20
-159.9612955329263
 10
92.95418834481701
 20
-158.8571424299038
 10
92.95418834481701
 20
-158.8571424299038
 10
92.95418834481701
 20
-158.8571424299038
 10
92.6727240436721
 20
-158.8571424299038
 10
92.6727240436721
 20
-158.8571424299038
 10
92.6727240436721
 20
-158.8571424299038
 10
92.6727240436721
 20
-158.709003324038
 10
92.6727240436721
 20
-158.709003324038
 10
92.95591089255964
 20
-158.6941894134514
 10
92.99552949064
 20
-158.5312363969991
 10
93.02067868768233
 20
-158.4168592268888
 10
93.02067868768233
 20
-158.4168592268888
 10
93.14539114424837
 20
-158.4168592268888
 10
93.14539114424837
 20
-158.4168592268888
 10
93.14539114424837
 20
-158.4168592268888
 10
93.14539114424837
 20
-159.9612955329263
 10
93.14539114424837
 20
-159.9612955329263
 10
93.14539114424837
 20
-159.9612955329263
 10
92.95418834481701
 20
-159.9612955329263
 10
92.95418834481701
 20
-159.9612955329263
 97
        0
 97
        1
330
A4
 75
     2
 76
     1
 98
        1
 10
0.0
 20
0.0
450
        0
451
        0
460
0.0
461
0.0
452
        0
462
0.0
453
        0
470

  0
SPLINE
  5
A6
330
A0
100
AcDbEntity
  8
レイヤー 1
100
AcDbSpline
210
0.0
220
0.0
230
1.0
 70
     9
 71
     3
 72
    26
 73
    22
 74
     0
 42
0.0000000001
 43
0.0000000001
 40
0.0
 40
0.0
 40
0.0
 40
0.0
 40
1.0
 40
1.0
 40
1.0
 40
2.0
 40
2.0
 40
2.0
 40
3.0
 40
3.0
 40
3.0
 40
4.0
 40
4.0
 40
4.0
 40
5.0
 40
5.0
 40
5.0
 40
6.0
 40
6.0
 40
6.0
 40
7.0
 40
7.0
 40
7.0
 40
7.0
 10
93.92157115707517
 20
-159.9612955329263
 30
0.0
 10
93.92157115707517
 20
-159.9612955329263
 30
0.0
 10
93.71968856163952
 20
-159.9612955329263
 30
0.0
 10
93.71968856163952
 20
-159.9612955329263
 30
0.0
 10
93.7413926631966
 20
-159.6522704678994
 30
0.0
 10
93.9053792082945
 20
-159.1341281069178
 30
0.0
 10
94.2516113045621
 20
-158.6283880896832
 30
0.0
 10
94.2516113045621
 20
-158.6283880896832
 30
0.0
 10
93.53744301046981
 20
-158.6283880896832
 30
0.0
 10
93.53744301046981
 20
-158.6283880896832
 30
0.0
 10
93.53744301046981
 20
-158.6283880896832
 30
0.0
 10
93.53744301046981
 20
-158.4168592268888
 30
0.0
 10
93.53744301046981
 20
-158.4168592268888
 30
0.0
 10
93.53744301046981
 20
-158.4168592268888
 30
0.0
 10
94.45349389999774
 20
-158.4168592268888
 30
0.0
 10
94.45349389999774
 20
-158.4168592268888
 30
0.0
 10
94.45349389999774
 20
-158.4168592268888
 30
0.0
 10
94.45349389999774
 20
-158.6283880896832
 30
0.0
 10
94.45349389999774
 20
-158.6283880896832
 30
0.0
 10
94.17788626117776
 20
-158.9184651295412
 30
0.0
 10
93.95050995915125
 20
-159.5106770434556
 30
0.0
 10
93.92157115707517
 20
-159.9612955329263
 30
0.0
  0
HATCH
  5
A7
330
A0
100
AcDbEntity
  8
レイヤー 1
 62
   250
420
  2299925
440
 33554687
100
AcDbHatch
 10
0.0
 20
0.0
 30
0.0
210
0.0
220
0.0
230
1.0
  2
SOLID
 70
     1
 71
     1
 91
        1
 92
        1
 93
        1
 72
     4
 94
        3
 73
     0
 74
     0
 95
       26
 96
       22
 40
0.0
 40
0.0
 40
0.0
 40
0.0
 40
1.0
 40
1.0
 40
1.0
 40
2.0
 40
2.0
 40
2.0
 40
3.0
 40
3.0
 40
3.0
 40
4.0
 40
4.0
 40
4.0
 40
5.0
 40
5.0
 40
5.0
 40
6.0
 40
6.0
 40
6.0
 40
7.0
 40
7.0
 40
7.0
 40
7.0
 10
93.92157115707517
 20
-159.9612955329263
 10
93.92157115707517
 20
-159.9612955329263
 10
93.71968856163952
 20
-159.9612955329263
 10
93.71968856163952
 20
-159.9612955329263
 10
93.7413926631966
 20
-159.6522704678994
 10
93.9053792082945
 20
-159.1341281069178
 10
94.2516113045621
 20
-158.6283880896832
 10
94.2516113045621
 20
-158.6283880896832
 10
93.53744301046981
 20
-158.6283880896832
 10
93.53744301046981
 20
-158.6283880896832
 10
93.53744301046981
 20
-158.6283880896832
 10
93.53744301046981
 20
-158.4168592268888
 10
93.53744301046981
 20
-158.4168592268888
 10
93.53744301046981
 20
-158.4168592268888
 10
94.45349389999774
 20
-158.4168592268888
 10
94.45349389999774
 20
-158.4168592268888
 10
94.45349389999774
 20
-158.4168592268888
 10
94.45349389999774
 20
-158.6283880896832
 10
94.45349389999774
 20
-158.6283880896832
 10
94.17788626117776
 20
-158.9184651295412
 10
93.95050995915125
 20
-159.5106770434556
 10
93.92157115707517
 20
-159.9612955329263
 97
        0
 97
        1
330
A6
 75
     2
 76
     1
 98
        1
 10
0.0
 20
0.0
450
        0
451
        0
460
0.0
461
0.0
452
        0
462
0.0
453
        0
470

  0
ENDBLK
  5
A3
330
A0
100
AcDbEntity
  8
0
100
AcDbBlockEnd
  0
BLOCK
  5
AC
330
AA
100
AcDbEntity
  8
0
100
AcDbBlockBegin
  2
Block_5
 70
     0
 10
0.0
 20
0.0
 30
0.0
  3
Block_5
  1

  0
INSERT
  5
AF
330
AA
100
AcDbEntity
  8
レイヤー 1
100
AcDbBlockReference
  2
Block_6
 10
0.0
 20
0.0
 30
0.0
  0
ENDBLK
  5
AD
330
AA
100
AcDbEntity
  8
0
100
AcDbBlockEnd
  0
BLOCK
  5
B0
330
AE
100
AcDbEntity
  8
0
100
AcDbBlockBegin
  2
Block_6
 70
     0
 10
0.0
 20
0.0
 30
0.0
  3
Block_6
  1

  0
SPLINE
  5
B2
330
AE
100
AcDbEntity
  8
レイヤー 1
100
AcDbSpline
210
0.0
220
0.0
230
1.0
 70
    11
 71
     3
 72
    26
 73
    22
 74
     0
 42
0.0000000001
 43
0.0000000001
 40
0.0
 40
0.0
 40
0.0
 40
0.0
 40
1.0
 40
1.0
 40
1.0
 40
2.0
 40
2.0
 40
2.0
 40
3.0
 40
3.0
 40
3.0
 40
4.0
 40
4.0
 40
4.0
 40
5.0
 40
5.0
 40
5.0
 40
6.0
 40
6.0
 40
6.0
 40
7.0
 40
7.0
 40
7.0
 40
7.0
 10
105.3496419007459
 20
-148.5490722284877
 30
0.0
 10
105.3496419007459
 20
-148.5490722284877
 30
0.0
 10
104.2454887977233
 20
-148.5490722284877
 30
0.0
 10
104.2454887977233
 20
-148.5490722284877
 30
0.0
 10
104.2454887977233
 20
-148.5490722284877
 30
0.0
 10
104.2454887977233
 20
-148.8305365296326
 30
0.0
 10
104.2454887977233
 20
-148.8305365296326
 30
0.0
 10
104.2454887977233
 20
-148.8305365296326
 30
0.0
 10
104.0973496918576
 20
-148.8305365296326
 30
0.0
 10
104.0973496918576
 20
-148.8305365296326
 30
0.0
 10
104.082535781271
 20
-148.5473496807451
 30
0.0
 10
103.9195827648187
 20
-148.5077310826647
 30
0.0
 10
103.8052055947084
 20
-148.4825818856224
 30
0.0
 10
103.8052055947084
 20
-148.4825818856224
 30
0.0
 10
103.8052055947084
 20
-148.3578694290564
 30
0.0
 10
103.8052055947084
 20
-148.3578694290564
 30
0.0
 10
103.8052055947084
 20
-148.3578694290564
 30
0.0
 10
105.3496419007459
 20
-148.3578694290564
 30
0.0
 10
105.3496419007459
 20
-148.3578694290564
 30
0.0
 10
105.3496419007459
 20
-148.3578694290564
 30
0.0
 10
105.3496419007459
 20
-148.5490722284877
 30
0.0
 10
105.3496419007459
 20
-148.5490722284877
 30
0.0
  0
HATCH
  5
B3
330
AE
100
AcDbEntity
  8
レイヤー 1
 62
   250
420
  2299925
440
 33554687
100
AcDbHatch
 10
0.0
 20
0.0
 30
0.0
210
0.0
220
0.0
230
1.0
  2
SOLID
 70
     1
 71
     1
 91
        1
 92
        1
 93
        1
 72
     4
 94
        3
 73
     0
 74
     0
 95
       26
 96
       22
 40
0.0
 40
0.0
 40
0.0
 40
0.0
 40
1.0
 40
1.0
 40
1.0
 40
2.0
 40
2.0
 40
2.0
 40
3.0
 40
3.0
 40
3.0
 40
4.0
 40
4.0
 40
4.0
 40
5.0
 40
5.0
 40
5.0
 40
6.0
 40
6.0
 40
6.0
 40
7.0
 40
7.0
 40
7.0
 40
7.0
 10
105.3496419007459
 20
-148.5490722284877
 10
105.3496419007459
 20
-148.5490722284877
 10
104.2454887977233
 20
-148.5490722284877
 10
104.2454887977233
 20
-148.5490722284877
 10
104.2454887977233
 20
-148.5490722284877
 10
104.2454887977233
 20
-148.8305365296326
 10
104.2454887977233
 20
-148.8305365296326
 10
104.2454887977233
 20
-148.8305365296326
 10
104.0973496918576
 20
-148.8305365296326
 10
104.0973496918576
 20
-148.8305365296326
 10
104.082535781271
 20
-148.5473496807451
 10
103.9195827648187
 20
-148.5077310826647
 10
103.8052055947084
 20
-148.4825818856224
 10
103.8052055947084
 20
-148.4825818856224
 10
103.8052055947084
 20
-148.3578694290564
 10
103.8052055947084
 20
-148.3578694290564
 10
103.8052055947084
 20
-148.3578694290564
 10
105.3496419007459
 20
-148.3578694290564
 10
105.3496419007459
 20
-148.3578694290564
 10
105.3496419007459
 20
-148.3578694290564
 10
105.3496419007459
 20
-148.5490722284877
 10
105.3496419007459
 20
-148.5490722284877
 97
        0
 97
        1
330
B2
 75
     2
 76
     1
 98
        1
 10
0.0
 20
0.0
450
        0
451
        0
460
0.0
461
0.0
452
        0
462
0.0
453
        0
470

  0
SPLINE
  5
B4
330
AE
100
AcDbEntity
  8
レイヤー 1
100
AcDbSpline
210
0.0
220
0.0
230
1.0
 70
     9
 71
     3
 72
    53
 73
    49
 74
     0
 42
0.0000000001
 43
0.0000000001
 40
0.0
 40
0.0
 40
0.0
 40
0.0
 40
1.0
 40
1.0
 40
1.0
 40
2.0
 40
2.0
 40
2.0
 40
3.0
 40
3.0
 40
3.0
 40
4.0
 40
4.0
 40
4.0
 40
5.0
 40
5.0
 40
5.0
 40
6.0
 40
6.0
 40
6.0
 40
7.0
 40
7.0
 40
7.0
 40
8.0
 40
8.0
 40
8.0
 40
9.0
 40
9.0
 40
9.0
 40
10.0
 40
10.0
 40
10.0
 40
11.0
 40
11.0
 40
11.0
 40
12.0
 40
12.0
 40
12.0
 40
13.0
 40
13.0
 40
13.0
 40
14.0
 40
14.0
 40
14.0
 40
15.0
 40
15.0
 40
15.0
 40
16.0
 40
16.0
 40
16.0
 40
16.0
 10
105.4002848043791
 20
-147.5220892643347
 30
0.0
 10
105.4002848043791
 20
-147.5889241167486
 30
0.0
 10
105.3834038365013
 20
-147.6753960134284
 30
0.0
 10
105.3200140795728
 20
-147.7618679101081
 30
0.0
 10
105.2101155335933
 20
-147.9096625064254
 30
0.0
 10
105.0788573956053
 20
-147.9279215124972
 30
0.0
 10
104.9710259069169
 20
-147.9441134612779
 30
0.0
 10
104.9710259069169
 20
-147.9441134612779
 30
0.0
 10
104.9710259069169
 20
-147.7546332095891
 30
0.0
 10
104.9710259069169
 20
-147.7546332095891
 30
0.0
 10
105.1698079164159
 20
-147.7077799109897
 30
0.0
 10
105.199435737589
 20
-147.5996039127529
 30
0.0
 10
105.199435737589
 20
-147.5203667165921
 30
0.0
 10
105.199435737589
 20
-147.4011664128025
 30
0.0
 10
105.0998724780653
 20
-147.2712863130086
 30
0.0
 10
104.8673285328109
 20
-147.2712863130086
 30
0.0
 10
104.6113579382569
 20
-147.2712863130086
 30
0.0
 10
104.5414224999063
 20
-147.4245930621022
 30
0.0
 10
104.5414224999063
 20
-147.5276014171111
 30
0.0
 10
104.5414224999063
 20
-147.5544731618961
 30
0.0
 10
104.5414224999063
 20
-147.6753960134284
 30
0.0
 10
104.6706135806032
 20
-147.7511881141039
 30
0.0
 10
104.6706135806032
 20
-147.7511881141039
 30
0.0
 10
104.6516655554343
 20
-147.9007052581637
 30
0.0
 10
104.6516655554343
 20
-147.9007052581637
 30
0.0
 10
104.6516655554343
 20
-147.9007052581637
 30
0.0
 10
103.8052055947084
 20
-147.7980414127032
 30
0.0
 10
103.8052055947084
 20
-147.7980414127032
 30
0.0
 10
103.8052055947084
 20
-147.7980414127032
 30
0.0
 10
103.8052055947084
 20
-147.1345160222441
 30
0.0
 10
103.8052055947084
 20
-147.1345160222441
 30
0.0
 10
103.8052055947084
 20
-147.1345160222441
 30
0.0
 10
103.999853489625
 20
-147.1345160222441
 30
0.0
 10
103.999853489625
 20
-147.1345160222441
 30
0.0
 10
103.999853489625
 20
-147.1345160222441
 30
0.0
 10
103.999853489625
 20
-147.6592040646477
 30
0.0
 10
103.999853489625
 20
-147.6592040646477
 30
0.0
 10
103.999853489625
 20
-147.6592040646477
 30
0.0
 10
104.4229112152137
 20
-147.7150146115087
 30
0.0
 10
104.4229112152137
 20
-147.7150146115087
 30
0.0
 10
104.3891492794582
 20
-147.6626491601329
 30
0.0
 10
104.3488416622808
 20
-147.5923692122338
 30
0.0
 10
104.3488416622808
 20
-147.491427914516
 30
0.0
 10
104.3488416622808
 20
-147.2750759180423
 30
0.0
 10
104.5352213280328
 20
-147.0731933226067
 30
0.0
 10
104.848380507642
 20
-147.0731933226067
 30
0.0
 10
105.1656738018336
 20
-147.0731933226067
 30
0.0
 10
105.4002848043791
 20
-147.2640516124895
 30
0.0
 10
105.4002848043791
 20
-147.5220892643347
 30
0.0
  0
HATCH
  5
B5
330
AE
100
AcDbEntity
  8
レイヤー 1
 62
   250
420
  2299925
440
 33554687
100
AcDbHatch
 10
0.0
 20
0.0
 30
0.0
210
0.0
220
0.0
230
1.0
  2
SOLID
 70
     1
 71
     1
 91
        1
 92
        1
 93
        1
 72
     4
 94
        3
 73
     0
 74
     0
 95
       53
 96
       49
 40
0.0
 40
0.0
 40
0.0
 40
0.0
 40
1.0
 40
1.0
 40
1.0
 40
2.0
 40
2.0
 40
2.0
 40
3.0
 40
3.0
 40
3.0
 40
4.0
 40
4.0
 40
4.0
 40
5.0
 40
5.0
 40
5.0
 40
6.0
 40
6.0
 40
6.0
 40
7.0
 40
7.0
 40
7.0
 40
8.0
 40
8.0
 40
8.0
 40
9.0
 40
9.0
 40
9.0
 40
10.0
 40
10.0
 40
10.0
 40
11.0
 40
11.0
 40
11.0
 40
12.0
 40
12.0
 40
12.0
 40
13.0
 40
13.0
 40
13.0
 40
14.0
 40
14.0
 40
14.0
 40
15.0
 40
15.0
 40
15.0
 40
16.0
 40
16.0
 40
16.0
 40
16.0
 10
105.4002848043791
 20
-147.5220892643347
 10
105.4002848043791
 20
-147.5889241167486
 10
105.3834038365013
 20
-147.6753960134284
 10
105.3200140795728
 20
-147.7618679101081
 10
105.2101155335933
 20
-147.9096625064254
 10
105.0788573956053
 20
-147.9279215124972
 10
104.9710259069169
 20
-147.9441134612779
 10
104.9710259069169
 20
-147.9441134612779
 10
104.9710259069169
 20
-147.7546332095891
 10
104.9710259069169
 20
-147.7546332095891
 10
105.1698079164159
 20
-147.7077799109897
 10
105.199435737589
 20
-147.5996039127529
 10
105.199435737589
 20
-147.5203667165921
 10
105.199435737589
 20
-147.4011664128025
 10
105.0998724780653
 20
-147.2712863130086
 10
104.8673285328109
 20
-147.2712863130086
 10
104.6113579382569
 20
-147.2712863130086
 10
104.5414224999063
 20
-147.4245930621022
 10
104.5414224999063
 20
-147.5276014171111
 10
104.5414224999063
 20
-147.5544731618961
 10
104.5414224999063
 20
-147.6753960134284
 10
104.6706135806032
 20
-147.7511881141039
 10
104.6706135806032
 20
-147.7511881141039
 10
104.6516655554343
 20
-147.9007052581637
 10
104.6516655554343
 20
-147.9007052581637
 10
104.6516655554343
 20
-147.9007052581637
 10
103.8052055947084
 20
-147.7980414127032
 10
103.8052055947084
 20
-147.7980414127032
 10
103.8052055947084
 20
-147.7980414127032
 10
103.8052055947084
 20
-147.1345160222441
 10
103.8052055947084
 20
-147.1345160222441
 10
103.8052055947084
 20
-147.1345160222441
 10
103.999853489625
 20
-147.1345160222441
 10
103.999853489625
 20
-147.1345160222441
 10
103.999853489625
 20
-147.1345160222441
 10
103.999853489625
 20
-147.6592040646477
 10
103.999853489625
 20
-147.6592040646477
 10
103.999853489625
 20
-147.6592040646477
 10
104.4229112152137
 20
-147.7150146115087
 10
104.4229112152137
 20
-147.7150146115087
 10
104.3891492794582
 20
-147.6626491601329
 10
104.3488416622808
 20
-147.5923692122338
 10
104.3488416622808
 20
-147.491427914516
 10
104.3488416622808
 20
-147.2750759180423
 10
104.5352213280328
 20
-147.0731933226067
 10
104.848380507642
 20
-147.0731933226067
 10
105.1656738018336
 20
-147.0731933226067
 10
105.4002848043791
 20
-147.2640516124895
 10
105.4002848043791
 20
-147.5220892643347
 97
        0
 97
        1
330
B4
 75
     2
 76
     1
 98
        1
 10
0.0
 20
0.0
450
        0
451
        0
460
0.0
461
0.0
452
        0
462
0.0
453
        0
470

  0
ENDBLK
  5
B1
330
AE
100
AcDbEntity
  8
0
100
AcDbBlockEnd
  0
BLOCK
  5
BC
330
BA
100
AcDbEntity
  8
0
100
AcDbBlockBegin
  2
Block_7
 70
     0
 10
0.0
 20
0.0
 30
0.0
  3
Block_7
  1

  0
INSERT
  5
BF
330
BA
100
AcDbEntity
  8
レイヤー 1
100
AcDbBlockReference
  2
Block_8
 10
0.0
 20
0.0
 30
0.0
  0
ENDBLK
  5
BD
330
BA
100
AcDbEntity
  8
0
100
AcDbBlockEnd
  0
BLOCK
  5
C0
330
BE
100
AcDbEntity
  8
0
100
AcDbBlockBegin
  2
Block_8
 70
     0
 10
0.0
 20
0.0
 30
0.0
  3
Block_8
  1

  0
SPLINE
  5
C2
330
BE
100
AcDbEntity
  8
レイヤー 1
100
AcDbSpline
210
0.0
220
0.0
230
1.0
 70
     9
 71
     3
 72
    17
 73
    13
 74
     0
 42
0.0000000001
 43
0.0000000001
 40
0.0
 40
0.0
 40
0.0
 40
0.0
 40
1.0
 40
1.0
 40
1.0
 40
2.0
 40
2.0
 40
2.0
 40
3.0
 40
3.0
 40
3.0
 40
4.0
 40
4.0
 40
4.0
 40
4.0
 10
108.1825439182668
 20
-156.5833794096389
 30
0.0
 10
108.1825439182668
 20
-156.7959418010788
 30
0.0
 10
108.4660752767029
 20
-156.8359049087077
 30
0.0
 10
108.8109293347764
 20
-156.8359049087077
 30
0.0
 10
109.1302896862591
 20
-156.8359049087077
 30
0.0
 10
109.4389702417374
 20
-156.805243558889
 30
0.0
 10
109.4389702417374
 20
-156.5833794096389
 30
0.0
 10
109.4389702417374
 20
-156.372195056393
 30
0.0
 10
109.1578504501411
 20
-156.3308539105701
 30
0.0
 10
108.8109293347764
 20
-156.3308539105701
 30
0.0
 10
108.4912244737452
 20
-156.3308539105701
 30
0.0
 10
108.1825439182668
 20
-156.3632378081314
 30
0.0
 10
108.1825439182668
 20
-156.5833794096389
 30
0.0
  0
SPLINE
  5
C3
330
BE
100
AcDbEntity
  8
レイヤー 1
100
AcDbSpline
210
0.0
220
0.0
230
1.0
 70
     9
 71
     3
 72
    29
 73
    25
 74
     0
 42
0.0000000001
 43
0.0000000001
 40
0.0
 40
0.0
 40
0.0
 40
0.0
 40
1.0
 40
1.0
 40
1.0
 40
2.0
 40
2.0
 40
2.0
 40
3.0
 40
3.0
 40
3.0
 40
4.0
 40
4.0
 40
4.0
 40
5.0
 40
5.0
 40
5.0
 40
6.0
 40
6.0
 40
6.0
 40
7.0
 40
7.0
 40
7.0
 40
8.0
 40
8.0
 40
8.0
 40
8.0
 10
109.405208305982
 20
-156.2443820138903
 30
0.0
 10
109.6146701114852
 20
-156.3363660633465
 30
0.0
 10
109.6336181366541
 20
-156.4841606596637
 30
0.0
 10
109.6336181366541
 20
-156.5833794096389
 30
0.0
 10
109.6336181366541
 20
-156.7204942099518
 30
0.0
 10
109.5871093476032
 20
-156.8410725519355
 30
0.0
 10
109.405208305982
 20
-156.9223768053874
 30
0.0
 10
109.2105604110654
 20
-157.0105712498098
 30
0.0
 10
108.9738823512287
 20
-157.0267631985905
 30
0.0
 10
108.8109293347764
 20
-157.0267631985905
 30
0.0
 10
108.666924343493
 20
-157.0267631985905
 30
0.0
 10
108.4150878635212
 20
-157.012638307101
 30
0.0
 10
108.2163058540223
 20
-156.9223768053874
 30
0.0
 10
108.0133897299411
 20
-156.8303927559313
 30
0.0
 10
107.9899630806414
 20
-156.6932779556183
 30
0.0
 10
107.9899630806414
 20
-156.5833794096389
 30
0.0
 10
107.9899630806414
 20
-156.4479871570685
 30
0.0
 10
108.0344048124011
 20
-156.3253417577936
 30
0.0
 10
108.2163058540223
 20
-156.2443820138903
 30
0.0
 10
108.4088866916478
 20
-156.1596326649531
 30
0.0
 10
108.6372965223198
 20
-156.1396511111387
 30
0.0
 10
108.8109293347764
 20
-156.1396511111387
 30
0.0
 10
108.9821505803933
 20
-156.1396511111387
 30
0.0
 10
109.2126274683566
 20
-156.1579101172105
 30
0.0
 10
109.405208305982
 20
-156.2443820138903
 30
0.0
  0
HATCH
  5
C4
330
BE
100
AcDbEntity
  8
レイヤー 1
 62
   250
420
  2299925
440
 33554687
100
AcDbHatch
 10
0.0
 20
0.0
 30
0.0
210
0.0
220
0.0
230
1.0
  2
SOLID
 70
     1
 71
     1
 91
        2
 92
        1
 93
        1
 72
     4
 94
        3
 73
     0
 74
     0
 95
       17
 96
       13
 40
0.0
 40
0.0
 40
0.0
 40
0.0
 40
1.0
 40
1.0
 40
1.0
 40
2.0
 40
2.0
 40
2.0
 40
3.0
 40
3.0
 40
3.0
 40
4.0
 40
4.0
 40
4.0
 40
4.0
 10
108.1825439182668
 20
-156.5833794096389
 10
108.1825439182668
 20
-156.7959418010788
 10
108.4660752767029
 20
-156.8359049087077
 10
108.8109293347764
 20
-156.8359049087077
 10
109.1302896862591
 20
-156.8359049087077
 10
109.4389702417374
 20
-156.805243558889
 10
109.4389702417374
 20
-156.5833794096389
 10
109.4389702417374
 20
-156.372195056393
 10
109.1578504501411
 20
-156.3308539105701
 10
108.8109293347764
 20
-156.3308539105701
 10
108.4912244737452
 20
-156.3308539105701
 10
108.1825439182668
 20
-156.3632378081314
 10
108.1825439182668
 20
-156.5833794096389
 97
        0
 97
        1
330
C2
 92
        1
 93
        1
 72
     4
 94
        3
 73
     0
 74
     0
 95
       29
 96
       25
 40
0.0
 40
0.0
 40
0.0
 40
0.0
 40
1.0
 40
1.0
 40
1.0
 40
2.0
 40
2.0
 40
2.0
 40
3.0
 40
3.0
 40
3.0
 40
4.0
 40
4.0
 40
4.0
 40
5.0
 40
5.0
 40
5.0
 40
6.0
 40
6.0
 40
6.0
 40
7.0
 40
7.0
 40
7.0
 40
8.0
 40
8.0
 40
8.0
 40
8.0
 10
109.405208305982
 20
-156.2443820138903
 10
109.6146701114852
 20
-156.3363660633465
 10
109.6336181366541
 20
-156.4841606596637
 10
109.6336181366541
 20
-156.5833794096389
 10
109.6336181366541
 20
-156.7204942099518
 10
109.5871093476032
 20
-156.8410725519355
 10
109.405208305982
 20
-156.9223768053874
 10
109.2105604110654
 20
-157.0105712498098
 10
108.9738823512287
 20
-157.0267631985905
 10
108.8109293347764
 20
-157.0267631985905
 10
108.666924343493
 20
-157.0267631985905
 10
108.4150878635212
 20
-157.012638307101
 10
108.2163058540223
 20
-156.9223768053874
 10
108.0133897299411
 20
-156.8303927559313
 10
107.9899630806414
 20
-156.6932779556183
 10
107.9899630806414
 20
-156.5833794096389
 10
107.9899630806414
 20
-156.4479871570685
 10
108.0344048124011
 20
-156.3253417577936
 10
108.2163058540223
 20
-156.2443820138903
 10
108.4088866916478
 20
-156.1596326649531
 10
108.6372965223198
 20
-156.1396511111387
 10
108.8109293347764
 20
-156.1396511111387
 10
108.9821505803933
 20
-156.1396511111387
 10
109.2126274683566
 20
-156.1579101172105
 10
109.405208305982
 20
-156.2443820138903
 97
        0
 97
        1
330
C3
 75
     2
 76
     1
 98
        1
 10
0.0
 20
0.0
450
        0
451
        0
460
0.0
461
0.0
452
        0
462
0.0
453
        0
470

  0
SPLINE
  5
C5
330
BE
100
AcDbEntity
  8
レイヤー 1
100
AcDbSpline
210
0.0
220
0.0
230
1.0
 70
    11
 71
     3
 72
    17
 73
    13
 74
     0
 42
0.0000000001
 43
0.0000000001
 40
0.0
 40
0.0
 40
0.0
 40
0.0
 40
1.0
 40
1.0
 40
1.0
 40
2.0
 40
2.0
 40
2.0
 40
3.0
 40
3.0
 40
3.0
 40
4.0
 40
4.0
 40
4.0
 40
4.0
 10
109.5829752330209
 20
-155.9567165408719
 30
0.0
 10
109.5829752330209
 20
-155.9567165408719
 30
0.0
 10
109.3311387530491
 20
-155.9567165408719
 30
0.0
 10
109.3311387530491
 20
-155.9567165408719
 30
0.0
 10
109.3311387530491
 20
-155.9567165408719
 30
0.0
 10
109.3311387530491
 20
-155.7420870921409
 30
0.0
 10
109.3311387530491
 20
-155.7420870921409
 30
0.0
 10
109.3311387530491
 20
-155.7420870921409
 30
0.0
 10
109.5829752330209
 20
-155.7420870921409
 30
0.0
 10
109.5829752330209
 20
-155.7420870921409
 30
0.0
 10
109.5829752330209
 20
-155.7420870921409
 30
0.0
 10
109.5829752330209
 20
-155.9567165408719
 30
0.0
 10
109.5829752330209
 20
-155.9567165408719
 30
0.0
  0
HATCH
  5
C6
330
BE
100
AcDbEntity
  8
レイヤー 1
 62
   250
420
  2299925
440
 33554687
100
AcDbHatch
 10
0.0
 20
0.0
 30
0.0
210
0.0
220
0.0
230
1.0
  2
SOLID
 70
     1
 71
     1
 91
        1
 92
        1
 93
        1
 72
     4
 94
        3
 73
     0
 74
     0
 95
       17
 96
       13
 40
0.0
 40
0.0
 40
0.0
 40
0.0
 40
1.0
 40
1.0
 40
1.0
 40
2.0
 40
2.0
 40
2.0
 40
3.0
 40
3.0
 40
3.0
 40
4.0
 40
4.0
 40
4.0
 40
4.0
 10
109.5829752330209
 20
-155.9567165408719
 10
109.5829752330209
 20
-155.9567165408719
 10
109.3311387530491
 20
-155.9567165408719
 10
109.3311387530491
 20
-155.9567165408719
 10
109.3311387530491
 20
-155.9567165408719
 10
109.3311387530491
 20
-155.7420870921409
 10
109.3311387530491
 20
-155.7420870921409
 10
109.3311387530491
 20
-155.7420870921409
 10
109.5829752330209
 20
-155.7420870921409
 10
109.5829752330209
 20
-155.7420870921409
 10
109.5829752330209
 20
-155.7420870921409
 10
109.5829752330209
 20
-155.9567165408719
 10
109.5829752330209
 20
-155.9567165408719
 97
        0
 97
        1
330
C5
 75
     2
 76
     1
 98
        1
 10
0.0
 20
0.0
450
        0
451
        0
460
0.0
461
0.0
452
        0
462
0.0
453
        0
470

  0
SPLINE
  5
C7
330
BE
100
AcDbEntity
  8
レイヤー 1
100
AcDbSpline
210
0.0
220
0.0
230
1.0
 70
    11
 71
     3
 72
    14
 73
    10
 74
     0
 42
0.0000000001
 43
0.0000000001
 40
0.0
 40
0.0
 40
0.0
 40
0.0
 40
1.0
 40
1.0
 40
1.0
 40
2.0
 40
2.0
 40
2.0
 40
3.0
 40
3.0
 40
3.0
 40
3.0
 10
108.3813259277658
 20
-155.0172390020443
 30
0.0
 10
108.3813259277658
 20
-155.0172390020443
 30
0.0
 10
109.0372721081573
 20
-155.406879301426
 30
0.0
 10
109.0372721081573
 20
-155.406879301426
 30
0.0
 10
109.0372721081573
 20
-155.406879301426
 30
0.0
 10
109.0372721081573
 20
-155.0172390020443
 30
0.0
 10
109.0372721081573
 20
-155.0172390020443
 30
0.0
 10
109.0372721081573
 20
-155.0172390020443
 30
0.0
 10
108.3813259277658
 20
-155.0172390020443
 30
0.0
 10
108.3813259277658
 20
-155.0172390020443
 30
0.0
  0
SPLINE
  5
C8
330
BE
100
AcDbEntity
  8
レイヤー 1
100
AcDbSpline
210
0.0
220
0.0
230
1.0
 70
    11
 71
     3
 72
    38
 73
    34
 74
     0
 42
0.0000000001
 43
0.0000000001
 40
0.0
 40
0.0
 40
0.0
 40
0.0
 40
1.0
 40
1.0
 40
1.0
 40
2.0
 40
2.0
 40
2.0
 40
3.0
 40
3.0
 40
3.0
 40
4.0
 40
4.0
 40
4.0
 40
5.0
 40
5.0
 40
5.0
 40
6.0
 40
6.0
 40
6.0
 40
7.0
 40
7.0
 40
7.0
 40
8.0
 40
8.0
 40
8.0
 40
9.0
 40
9.0
 40
9.0
 40
10.0
 40
10.0
 40
10.0
 40
11.0
 40
11.0
 40
11.0
 40
11.0
 10
109.2360541176562
 20
-154.8315483553893
 30
0.0
 10
109.2360541176562
 20
-154.8315483553893
 30
0.0
 10
109.5829752330209
 20
-154.8315483553893
 30
0.0
 10
109.5829752330209
 20
-154.8315483553893
 30
0.0
 10
109.5829752330209
 20
-154.8315483553893
 30
0.0
 10
109.5829752330209
 20
-155.0172390020443
 30
0.0
 10
109.5829752330209
 20
-155.0172390020443
 30
0.0
 10
109.5829752330209
 20
-155.0172390020443
 30
0.0
 10
109.2360541176562
 20
-155.0172390020443
 30
0.0
 10
109.2360541176562
 20
-155.0172390020443
 30
0.0
 10
109.2360541176562
 20
-155.0172390020443
 30
0.0
 10
109.2360541176562
 20
-155.5763779993003
 30
0.0
 10
109.2360541176562
 20
-155.5763779993003
 30
0.0
 10
109.2360541176562
 20
-155.5763779993003
 30
0.0
 10
109.0117784015665
 20
-155.5763779993003
 30
0.0
 10
109.0117784015665
 20
-155.5763779993003
 30
0.0
 10
109.0117784015665
 20
-155.5763779993003
 30
0.0
 10
108.0385389269834
 20
-154.9976019577784
 30
0.0
 10
108.0385389269834
 20
-154.9976019577784
 30
0.0
 10
108.0385389269834
 20
-154.9976019577784
 30
0.0
 10
108.0385389269834
 20
-154.8315483553893
 30
0.0
 10
108.0385389269834
 20
-154.8315483553893
 30
0.0
 10
108.0385389269834
 20
-154.8315483553893
 30
0.0
 10
109.0372721081573
 20
-154.8315483553893
 30
0.0
 10
109.0372721081573
 20
-154.8315483553893
 30
0.0
 10
109.0372721081573
 20
-154.8315483553893
 30
0.0
 10
109.0372721081573
 20
-154.654814956996
 30
0.0
 10
109.0372721081573
 20
-154.654814956996
 30
0.0
 10
109.0372721081573
 20
-154.654814956996
 30
0.0
 10
109.2360541176562
 20
-154.654814956996
 30
0.0
 10
109.2360541176562
 20
-154.654814956996
 30
0.0
 10
109.2360541176562
 20
-154.654814956996
 30
0.0
 10
109.2360541176562
 20
-154.8315483553893
 30
0.0
 10
109.2360541176562
 20
-154.8315483553893
 30
0.0
  0
HATCH
  5
C9
330
BE
100
AcDbEntity
  8
レイヤー 1
 62
   250
420
  2299925
440
 33554687
100
AcDbHatch
 10
0.0
 20
0.0
 30
0.0
210
0.0
220
0.0
230
1.0
  2
SOLID
 70
     1
 71
     1
 91
        2
 92
        1
 93
        1
 72
     4
 94
        3
 73
     0
 74
     0
 95
       14
 96
       10
 40
0.0
 40
0.0
 40
0.0
 40
0.0
 40
1.0
 40
1.0
 40
1.0
 40
2.0
 40
2.0
 40
2.0
 40
3.0
 40
3.0
 40
3.0
 40
3.0
 10
108.3813259277658
 20
-155.0172390020443
 10
108.3813259277658
 20
-155.0172390020443
 10
109.0372721081573
 20
-155.406879301426
 10
109.0372721081573
 20
-155.406879301426
 10
109.0372721081573
 20
-155.406879301426
 10
109.0372721081573
 20
-155.0172390020443
 10
109.0372721081573
 20
-155.0172390020443
 10
109.0372721081573
 20
-155.0172390020443
 10
108.3813259277658
 20
-155.0172390020443
 10
108.3813259277658
 20
-155.0172390020443
 97
        0
 97
        1
330
C7
 92
        1
 93
        1
 72
     4
 94
        3
 73
     0
 74
     0
 95
       38
 96
       34
 40
0.0
 40
0.0
 40
0.0
 40
0.0
 40
1.0
 40
1.0
 40
1.0
 40
2.0
 40
2.0
 40
2.0
 40
3.0
 40
3.0
 40
3.0
 40
4.0
 40
4.0
 40
4.0
 40
5.0
 40
5.0
 40
5.0
 40
6.0
 40
6.0
 40
6.0
 40
7.0
 40
7.0
 40
7.0
 40
8.0
 40
8.0
 40
8.0
 40
9.0
 40
9.0
 40
9.0
 40
10.0
 40
10.0
 40
10.0
 40
11.0
 40
11.0
 40
11.0
 40
11.0
 10
109.2360541176562
 20
-154.8315483553893
 10
109.2360541176562
 20
-154.8315483553893
 10
109.5829752330209
 20
-154.8315483553893
 10
109.5829752330209
 20
-154.8315483553893
 10
109.5829752330209
 20
-154.8315483553893
 10
109.5829752330209
 20
-155.0172390020443
 10
109.5829752330209
 20
-155.0172390020443
 10
109.5829752330209
 20
-155.0172390020443
 10
109.2360541176562
 20
-155.0172390020443
 10
109.2360541176562
 20
-155.0172390020443
 10
109.2360541176562
 20
-155.0172390020443
 10
109.2360541176562
 20
-155.5763779993003
 10
109.2360541176562
 20
-155.5763779993003
 10
109.2360541176562
 20
-155.5763779993003
 10
109.0117784015665
 20
-155.5763779993003
 10
109.0117784015665
 20
-155.5763779993003
 10
109.0117784015665
 20
-155.5763779993003
 10
108.0385389269834
 20
-154.9976019577784
 10
108.0385389269834
 20
-154.9976019577784
 10
108.0385389269834
 20
-154.9976019577784
 10
108.0385389269834
 20
-154.8315483553893
 10
108.0385389269834
 20
-154.8315483553893
 10
108.0385389269834
 20
-154.8315483553893
 10
109.0372721081573
 20
-154.8315483553893
 10
109.0372721081573
 20
-154.8315483553893
 10
109.0372721081573
 20
-154.8315483553893
 10
109.0372721081573
 20
-154.654814956996
 10
109.0372721081573
 20
-154.654814956996
 10
109.0372721081573
 20
-154.654814956996
 10
109.2360541176562
 20
-154.654814956996
 10
109.2360541176562
 20
-154.654814956996
 10
109.2360541176562
 20
-154.654814956996
 10
109.2360541176562
 20
-154.8315483553893
 10
109.2360541176562
 20
-154.8315483553893
 97
        0
 97
        1
330
C8
 75
     2
 76
     1
 98
        1
 10
0.0
 20
0.0
450
        0
451
        0
460
0.0
461
0.0
452
        0
462
0.0
453
        0
470

  0
ENDBLK
  5
C1
330
BE
100
AcDbEntity
  8
0
100
AcDbBlockEnd
  0
BLOCK
  5
D0
330
CE
100
AcDbEntity
  8
0
100
AcDbBlockBegin
  2
Block_9
 70
     0
 10
0.0
 20
0.0
 30
0.0
  3
Block_9
  1

  0
INSERT
  5
D3
330
CE
100
AcDbEntity
  8
レイヤー 1
100
AcDbBlockReference
  2
Block_10
 10
0.0
 20
0.0
 30
0.0
  0
ENDBLK
  5
D1
330
CE
100
AcDbEntity
  8
0
100
AcDbBlockEnd
  0
BLOCK
  5
D4
330
D2
100
AcDbEntity
  8
0
100
AcDbBlockBegin
  2
Block_10
 70
     0
 10
0.0
 20
0.0
 30
0.0
  3
Block_10
  1

  0
SPLINE
  5
D6
330
D2
100
AcDbEntity
  8
レイヤー 1
100
AcDbSpline
210
0.0
220
0.0
230
1.0
 70
    11
 71
     3
 72
    26
 73
    22
 74
     0
 42
0.0000000001
 43
0.0000000001
 40
0.0
 40
0.0
 40
0.0
 40
0.0
 40
1.0
 40
1.0
 40
1.0
 40
2.0
 40
2.0
 40
2.0
 40
3.0
 40
3.0
 40
3.0
 40
4.0
 40
4.0
 40
4.0
 40
5.0
 40
5.0
 40
5.0
 40
6.0
 40
6.0
 40
6.0
 40
7.0
 40
7.0
 40
7.0
 40
7.0
 10
77.30019122416454
 20
-140.010403068296
 30
0.0
 10
77.30019122416454
 20
-140.010403068296
 30
0.0
 10
76.19603812114196
 20
-140.010403068296
 30
0.0
 10
76.19603812114196
 20
-140.010403068296
 30
0.0
 10
76.19603812114196
 20
-140.010403068296
 30
0.0
 10
76.19603812114196
 20
-140.2918673694409
 30
0.0
 10
76.19603812114196
 20
-140.2918673694409
 30
0.0
 10
76.19603812114196
 20
-140.2918673694409
 30
0.0
 10
76.04789901527623
 20
-140.2918673694409
 30
0.0
 10
76.04789901527623
 20
-140.2918673694409
 30
0.0
 10
76.03308510468965
 20
-140.0086805205534
 30
0.0
 10
75.87013208823733
 20
-139.969061922473
 30
0.0
 10
75.75575491812704
 20
-139.9439127254307
 30
0.0
 10
75.75575491812704
 20
-139.9439127254307
 30
0.0
 10
75.75575491812704
 20
-139.8192002688646
 30
0.0
 10
75.75575491812704
 20
-139.8192002688646
 30
0.0
 10
75.75575491812704
 20
-139.8192002688646
 30
0.0
 10
77.30019122416454
 20
-139.8192002688646
 30
0.0
 10
77.30019122416454
 20
-139.8192002688646
 30
0.0
 10
77.30019122416454
 20
-139.8192002688646
 30
0.0
 10
77.30019122416454
 20
-140.010403068296
 30
0.0
 10
77.30019122416454
 20
-140.010403068296
 30
0.0
  0
HATCH
  5
D7
330
D2
100
AcDbEntity
  8
レイヤー 1
 62
   250
420
  2299925
440
 33554687
100
AcDbHatch
 10
0.0
 20
0.0
 30
0.0
210
0.0
220
0.0
230
1.0
  2
SOLID
 70
     1
 71
     1
 91
        1
 92
        1
 93
        1
 72
     4
 94
        3
 73
     0
 74
     0
 95
       26
 96
       22
 40
0.0
 40
0.0
 40
0.0
 40
0.0
 40
1.0
 40
1.0
 40
1.0
 40
2.0
 40
2.0
 40
2.0
 40
3.0
 40
3.0
 40
3.0
 40
4.0
 40
4.0
 40
4.0
 40
5.0
 40
5.0
 40
5.0
 40
6.0
 40
6.0
 40
6.0
 40
7.0
 40
7.0
 40
7.0
 40
7.0
 10
77.30019122416454
 20
-140.010403068296
 10
77.30019122416454
 20
-140.010403068296
 10
76.19603812114196
 20
-140.010403068296
 10
76.19603812114196
 20
-140.010403068296
 10
76.19603812114196
 20
-140.010403068296
 10
76.19603812114196
 20
-140.2918673694409
 10
76.19603812114196
 20
-140.2918673694409
 10
76.19603812114196
 20
-140.2918673694409
 10
76.04789901527623
 20
-140.2918673694409
 10
76.04789901527623
 20
-140.2918673694409
 10
76.03308510468965
 20
-140.0086805205534
 10
75.87013208823733
 20
-139.969061922473
 10
75.75575491812704
 20
-139.9439127254307
 10
75.75575491812704
 20
-139.9439127254307
 10
75.75575491812704
 20
-139.8192002688646
 10
75.75575491812704
 20
-139.8192002688646
 10
75.75575491812704
 20
-139.8192002688646
 10
77.30019122416454
 20
-139.8192002688646
 10
77.30019122416454
 20
-139.8192002688646
 10
77.30019122416454
 20
-139.8192002688646
 10
77.30019122416454
 20
-140.010403068296
 10
77.30019122416454
 20
-140.010403068296
 97
        0
 97
        1
330
D6
 75
     2
 76
     1
 98
        1
 10
0.0
 20
0.0
450
        0
451
        0
460
0.0
461
0.0
452
        0
462
0.0
453
        0
470

  0
SPLINE
  5
D8
330
D2
100
AcDbEntity
  8
レイヤー 1
100
AcDbSpline
210
0.0
220
0.0
230
1.0
 70
    11
 71
     3
 72
    17
 73
    13
 74
     0
 42
0.0000000001
 43
0.0000000001
 40
0.0
 40
0.0
 40
0.0
 40
0.0
 40
1.0
 40
1.0
 40
1.0
 40
2.0
 40
2.0
 40
2.0
 40
3.0
 40
3.0
 40
3.0
 40
4.0
 40
4.0
 40
4.0
 40
4.0
 10
77.30019122416454
 20
-139.342399053706
 30
0.0
 10
77.30019122416454
 20
-139.342399053706
 30
0.0
 10
77.04835474419278
 20
-139.342399053706
 30
0.0
 10
77.04835474419278
 20
-139.342399053706
 30
0.0
 10
77.04835474419278
 20
-139.342399053706
 30
0.0
 10
77.04835474419278
 20
-139.127769604975
 30
0.0
 10
77.04835474419278
 20
-139.127769604975
 30
0.0
 10
77.04835474419278
 20
-139.127769604975
 30
0.0
 10
77.30019122416454
 20
-139.127769604975
 30
0.0
 10
77.30019122416454
 20
-139.127769604975
 30
0.0
 10
77.30019122416454
 20
-139.127769604975
 30
0.0
 10
77.30019122416454
 20
-139.342399053706
 30
0.0
 10
77.30019122416454
 20
-139.342399053706
 30
0.0
  0
HATCH
  5
D9
330
D2
100
AcDbEntity
  8
レイヤー 1
 62
   250
420
  2299925
440
 33554687
100
AcDbHatch
 10
0.0
 20
0.0
 30
0.0
210
0.0
220
0.0
230
1.0
  2
SOLID
 70
     1
 71
     1
 91
        1
 92
        1
 93
        1
 72
     4
 94
        3
 73
     0
 74
     0
 95
       17
 96
       13
 40
0.0
 40
0.0
 40
0.0
 40
0.0
 40
1.0
 40
1.0
 40
1.0
 40
2.0
 40
2.0
 40
2.0
 40
3.0
 40
3.0
 40
3.0
 40
4.0
 40
4.0
 40
4.0
 40
4.0
 10
77.30019122416454
 20
-139.342399053706
 10
77.30019122416454
 20
-139.342399053706
 10
77.04835474419278
 20
-139.342399053706
 10
77.04835474419278
 20
-139.342399053706
 10
77.04835474419278
 20
-139.342399053706
 10
77.04835474419278
 20
-139.127769604975
 10
77.04835474419278
 20
-139.127769604975
 10
77.04835474419278
 20
-139.127769604975
 10
77.30019122416454
 20
-139.127769604975
 10
77.30019122416454
 20
-139.127769604975
 10
77.30019122416454
 20
-139.127769604975
 10
77.30019122416454
 20
-139.342399053706
 10
77.30019122416454
 20
-139.342399053706
 97
        0
 97
        1
330
D8
 75
     2
 76
     1
 98
        1
 10
0.0
 20
0.0
450
        0
451
        0
460
0.0
461
0.0
452
        0
462
0.0
453
        0
470

  0
SPLINE
  5
DA
330
D2
100
AcDbEntity
  8
レイヤー 1
100
AcDbSpline
210
0.0
220
0.0
230
1.0
 70
    11
 71
     3
 72
    26
 73
    22
 74
     0
 42
0.0000000001
 43
0.0000000001
 40
0.0
 40
0.0
 40
0.0
 40
0.0
 40
1.0
 40
1.0
 40
1.0
 40
2.0
 40
2.0
 40
2.0
 40
3.0
 40
3.0
 40
3.0
 40
4.0
 40
4.0
 40
4.0
 40
5.0
 40
5.0
 40
5.0
 40
6.0
 40
6.0
 40
6.0
 40
7.0
 40
7.0
 40
7.0
 40
7.0
 10
77.30019122416454
 20
-138.541758862934
 30
0.0
 10
77.30019122416454
 20
-138.541758862934
 30
0.0
 10
76.19603812114196
 20
-138.541758862934
 30
0.0
 10
76.19603812114196
 20
-138.541758862934
 30
0.0
 10
76.19603812114196
 20
-138.541758862934
 30
0.0
 10
76.19603812114196
 20
-138.8232231640789
 30
0.0
 10
76.19603812114196
 20
-138.8232231640789
 30
0.0
 10
76.19603812114196
 20
-138.8232231640789
 30
0.0
 10
76.04789901527623
 20
-138.8232231640789
 30
0.0
 10
76.04789901527623
 20
-138.8232231640789
 30
0.0
 10
76.03308510468965
 20
-138.5400363151914
 30
0.0
 10
75.87013208823733
 20
-138.500417717111
 30
0.0
 10
75.75575491812704
 20
-138.4752685200687
 30
0.0
 10
75.75575491812704
 20
-138.4752685200687
 30
0.0
 10
75.75575491812704
 20
-138.3505560635026
 30
0.0
 10
75.75575491812704
 20
-138.3505560635026
 30
0.0
 10
75.75575491812704
 20
-138.3505560635026
 30
0.0
 10
77.30019122416454
 20
-138.3505560635026
 30
0.0
 10
77.30019122416454
 20
-138.3505560635026
 30
0.0
 10
77.30019122416454
 20
-138.3505560635026
 30
0.0
 10
77.30019122416454
 20
-138.541758862934
 30
0.0
 10
77.30019122416454
 20
-138.541758862934
 30
0.0
  0
HATCH
  5
DB
330
D2
100
AcDbEntity
  8
レイヤー 1
 62
   250
420
  2299925
440
 33554687
100
AcDbHatch
 10
0.0
 20
0.0
 30
0.0
210
0.0
220
0.0
230
1.0
  2
SOLID
 70
     1
 71
     1
 91
        1
 92
        1
 93
        1
 72
     4
 94
        3
 73
     0
 74
     0
 95
       26
 96
       22
 40
0.0
 40
0.0
 40
0.0
 40
0.0
 40
1.0
 40
1.0
 40
1.0
 40
2.0
 40
2.0
 40
2.0
 40
3.0
 40
3.0
 40
3.0
 40
4.0
 40
4.0
 40
4.0
 40
5.0
 40
5.0
 40
5.0
 40
6.0
 40
6.0
 40
6.0
 40
7.0
 40
7.0
 40
7.0
 40
7.0
 10
77.30019122416454
 20
-138.541758862934
 10
77.30019122416454
 20
-138.541758862934
 10
76.19603812114196
 20
-138.541758862934
 10
76.19603812114196
 20
-138.541758862934
 10
76.19603812114196
 20
-138.541758862934
 10
76.19603812114196
 20
-138.8232231640789
 10
76.19603812114196
 20
-138.8232231640789
 10
76.19603812114196
 20
-138.8232231640789
 10
76.04789901527623
 20
-138.8232231640789
 10
76.04789901527623
 20
-138.8232231640789
 10
76.03308510468965
 20
-138.5400363151914
 10
75.87013208823733
 20
-138.500417717111
 10
75.75575491812704
 20
-138.4752685200687
 10
75.75575491812704
 20
-138.4752685200687
 10
75.75575491812704
 20
-138.3505560635026
 10
75.75575491812704
 20
-138.3505560635026
 10
75.75575491812704
 20
-138.3505560635026
 10
77.30019122416454
 20
-138.3505560635026
 10
77.30019122416454
 20
-138.3505560635026
 10
77.30019122416454
 20
-138.3505560635026
 10
77.30019122416454
 20
-138.541758862934
 10
77.30019122416454
 20
-138.541758862934
 97
        0
 97
        1
330
DA
 75
     2
 76
     1
 98
        1
 10
0.0
 20
0.0
450
        0
451
        0
460
0.0
461
0.0
452
        0
462
0.0
453
        0
470

  0
ENDBLK
  5
D5
330
D2
100
AcDbEntity
  8
0
100
AcDbBlockEnd
  0
BLOCK
  5
E0
330
DE
100
AcDbEntity
  8
0
100
AcDbBlockBegin
  2
Block_11
 70
     0
 10
0.0
 20
0.0
 30
0.0
  3
Block_11
  1

  0
LINE
  5
E2
330
DE
100
AcDbEntity
  8
レイヤー 1
 62
    18
420
        0
370
     9
100
AcDbLine
 10
96.6914415624813
 20
-154.7138044502039
 30
0.0
 11
96.42459670462093
 21
-153.7500322169329
 31
0.0
  0
LINE
  5
E3
330
DE
100
AcDbEntity
  8
レイヤー 1
 62
    18
420
        0
370
     9
100
AcDbLine
 10
96.6914415624813
 20
-154.7138044502039
 30
0.0
 11
96.65700735510421
 21
-153.0998438873998
 31
0.0
  0
LINE
  5
E4
330
DE
100
AcDbEntity
  8
レイヤー 1
 62
    18
420
        0
370
     9
100
AcDbLine
 10
96.6914415624813
 20
-154.7138044502039
 30
0.0
 11
96.94228963998719
 21
-153.7456239948171
 31
0.0
  0
ENDBLK
  5
E1
330
DE
100
AcDbEntity
  8
0
100
AcDbBlockEnd
  0
BLOCK
  5
E7
330
E5
100
AcDbEntity
  8
0
100
AcDbBlockBegin
  2
Block_12
 70
     0
 10
0.0
 20
0.0
 30
0.0
  3
Block_12
  1

  0
INSERT
  5
EA
330
E5
100
AcDbEntity
  8
レイヤー 1
100
AcDbBlockReference
  2
Block_13
 10
0.0
 20
0.0
 30
0.0
  0
ENDBLK
  5
E8
330
E5
100
AcDbEntity
  8
0
100
AcDbBlockEnd
  0
BLOCK
  5
EB
330
E9
100
AcDbEntity
  8
0
100
AcDbBlockBegin
  2
Block_13
 70
     0
 10
0.0
 20
0.0
 30
0.0
  3
Block_13
  1

  0
SPLINE
  5
ED
330
E9
100
AcDbEntity
  8
レイヤー 1
100
AcDbSpline
210
0.0
220
0.0
230
1.0
 70
     9
 71
     3
 72
    17
 73
    13
 74
     0
 42
0.0000000001
 43
0.0000000001
 40
0.0
 40
0.0
 40
0.0
 40
0.0
 40
1.0
 40
1.0
 40
1.0
 40
2.0
 40
2.0
 40
2.0
 40
3.0
 40
3.0
 40
3.0
 40
4.0
 40
4.0
 40
4.0
 40
4.0
 10
92.70528019600771
 20
-152.0334418022694
 30
0.0
 10
92.68822697335572
 20
-152.0630696234426
 30
0.0
 10
92.63758406972256
 20
-152.1560872015443
 30
0.0
 10
92.62690427371827
 20
-152.1750352267132
 30
0.0
 10
92.81724579927832
 20
-152.2342908690595
 30
0.0
 10
92.83843313651262
 20
-152.2408365504815
 30
0.0
 10
92.91043563215435
 20
-152.2683973143634
 30
0.0
 10
92.96538490514407
 20
-152.1815809081352
 30
0.0
 10
92.98863929966952
 20
-152.1075113552023
 30
0.0
 10
93.00345321025607
 20
-152.0334418022694
 30
0.0
 10
93.00345321025607
 20
-152.0334418022694
 30
0.0
 10
92.70528019600771
 20
-152.0334418022694
 30
0.0
 10
92.70528019600771
 20
-152.0334418022694
 30
0.0
  0
SPLINE
  5
EE
330
E9
100
AcDbEntity
  8
レイヤー 1
100
AcDbSpline
210
0.0
220
0.0
230
1.0
 70
    11
 71
     3
 72
    20
 73
    16
 74
     0
 42
0.0000000001
 43
0.0000000001
 40
0.0
 40
0.0
 40
0.0
 40
0.0
 40
1.0
 40
1.0
 40
1.0
 40
2.0
 40
2.0
 40
2.0
 40
3.0
 40
3.0
 40
3.0
 40
4.0
 40
4.0
 40
4.0
 40
5.0
 40
5.0
 40
5.0
 40
5.0
 10
92.64171818430485
 20
-151.1831922365098
 30
0.0
 10
92.64171818430485
 20
-151.1831922365098
 30
0.0
 10
92.61002330584055
 20
-151.1831922365098
 30
0.0
 10
92.61002330584055
 20
-151.1831922365098
 30
0.0
 10
92.65653209489142
 20
-151.2824109864849
 30
0.0
 10
92.68822697335572
 20
-151.3626817112912
 30
0.0
 10
92.72216116388543
 20
-151.489805734697
 30
0.0
 10
92.72216116388543
 20
-151.489805734697
 30
0.0
 10
92.92938365732322
 20
-151.489805734697
 30
0.0
 10
92.92938365732322
 20
-151.489805734697
 30
0.0
 10
92.96125079056178
 20
-151.3967881565952
 30
0.0
 10
92.98450518508721
 20
-151.3120388076581
 30
0.0
 10
93.00775957961265
 20
-151.1831922365098
 30
0.0
 10
93.00775957961265
 20
-151.1831922365098
 30
0.0
 10
92.64171818430485
 20
-151.1831922365098
 30
0.0
 10
92.64171818430485
 20
-151.1831922365098
 30
0.0
  0
SPLINE
  5
EF
330
E9
100
AcDbEntity
  8
レイヤー 1
100
AcDbSpline
210
0.0
220
0.0
230
1.0
 70
     9
 71
     3
 72
   242
 73
   238
 74
     0
 42
0.0000000001
 43
0.0000000001
 40
0.0
 40
0.0
 40
0.0
 40
0.0
 40
1.0
 40
1.0
 40
1.0
 40
2.0
 40
2.0
 40
2.0
 40
3.0
 40
3.0
 40
3.0
 40
4.0
 40
4.0
 40
4.0
 40
5.0
 40
5.0
 40
5.0
 40
6.0
 40
6.0
 40
6.0
 40
7.0
 40
7.0
 40
7.0
 40
8.0
 40
8.0
 40
8.0
 40
9.0
 40
9.0
 40
9.0
 40
10.0
 40
10.0
 40
10.0
 40
11.0
 40
11.0
 40
11.0
 40
12.0
 40
12.0
 40
12.0
 40
13.0
 40
13.0
 40
13.0
 40
14.0
 40
14.0
 40
14.0
 40
15.0
 40
15.0
 40
15.0
 40
16.0
 40
16.0
 40
16.0
 40
17.0
 40
17.0
 40
17.0
 40
18.0
 40
18.0
 40
18.0
 40
19.0
 40
19.0
 40
19.0
 40
20.0
 40
20.0
 40
20.0
 40
21.0
 40
21.0
 40
21.0
 40
22.0
 40
22.0
 40
22.0
 40
23.0
 40
23.0
 40
23.0
 40
24.0
 40
24.0
 40
24.0
 40
25.0
 40
25.0
 40
25.0
 40
26.0
 40
26.0
 40
26.0
 40
27.0
 40
27.0
 40
27.0
 40
28.0
 40
28.0
 40
28.0
 40
29.0
 40
29.0
 40
29.0
 40
30.0
 40
30.0
 40
30.0
 40
31.0
 40
31.0
 40
31.0
 40
32.0
 40
32.0
 40
32.0
 40
33.0
 40
33.0
 40
33.0
 40
34.0
 40
34.0
 40
34.0
 40
35.0
 40
35.0
 40
35.0
 40
36.0
 40
36.0
 40
36.0
 40
37.0
 40
37.0
 40
37.0
 40
38.0
 40
38.0
 40
38.0
 40
39.0
 40
39.0
 40
39.0
 40
40.0
 40
40.0
 40
40.0
 40
41.0
 40
41.0
 40
41.0
 40
42.0
 40
42.0
 40
42.0
 40
43.0
 40
43.0
 40
43.0
 40
44.0
 40
44.0
 40
44.0
 40
45.0
 40
45.0
 40
45.0
 40
46.0
 40
46.0
 40
46.0
 40
47.0
 40
47.0
 40
47.0
 40
48.0
 40
48.0
 40
48.0
 40
49.0
 40
49.0
 40
49.0
 40
50.0
 40
50.0
 40
50.0
 40
51.0
 40
51.0
 40
51.0
 40
52.0
 40
52.0
 40
52.0
 40
53.0
 40
53.0
 40
53.0
 40
54.0
 40
54.0
 40
54.0
 40
55.0
 40
55.0
 40
55.0
 40
56.0
 40
56.0
 40
56.0
 40
57.0
 40
57.0
 40
57.0
 40
58.0
 40
58.0
 40
58.0
 40
59.0
 40
59.0
 40
59.0
 40
60.0
 40
60.0
 40
60.0
 40
61.0
 40
61.0
 40
61.0
 40
62.0
 40
62.0
 40
62.0
 40
63.0
 40
63.0
 40
63.0
 40
64.0
 40
64.0
 40
64.0
 40
65.0
 40
65.0
 40
65.0
 40
66.0
 40
66.0
 40
66.0
 40
67.0
 40
67.0
 40
67.0
 40
68.0
 40
68.0
 40
68.0
 40
69.0
 40
69.0
 40
69.0
 40
70.0
 40
70.0
 40
70.0
 40
71.0
 40
71.0
 40
71.0
 40
72.0
 40
72.0
 40
72.0
 40
73.0
 40
73.0
 40
73.0
 40
74.0
 40
74.0
 40
74.0
 40
75.0
 40
75.0
 40
75.0
 40
76.0
 40
76.0
 40
76.0
 40
77.0
 40
77.0
 40
77.0
 40
78.0
 40
78.0
 40
78.0
 40
79.0
 40
79.0
 40
79.0
 40
79.0
 10
93.27010360081443
 20
-151.6482801270185
 30
0.0
 10
93.27010360081443
 20
-151.6482801270185
 30
0.0
 10
93.0162000635515
 20
-151.6482801270185
 30
0.0
 10
93.0162000635515
 20
-151.6482801270185
 30
0.0
 10
93.0162000635515
 20
-151.6482801270185
 30
0.0
 10
92.73904213176315
 20
-151.6482801270185
 30
0.0
 10
92.73904213176315
 20
-151.6482801270185
 30
0.0
 10
92.73904213176315
 20
-151.6482801270185
 30
0.0
 10
92.8659939003946
 20
-151.690654801487
 30
0.0
 10
92.8659939003946
 20
-151.690654801487
 30
0.0
 10
92.87650144162462
 20
-151.6951334256179
 30
0.0
 10
92.88924829492005
 20
-151.7013345974913
 30
0.0
 10
92.88924829492005
 20
-151.7140814507867
 30
0.0
 10
92.88924829492005
 20
-151.7350965332467
 30
0.0
 10
92.85755341645575
 20
-151.7416422146687
 30
0.0
 10
92.83636607922145
 20
-151.7457763292511
 30
0.0
 10
92.82585853799146
 20
-151.7688584690022
 30
0.0
 10
92.79623071681831
 20
-151.8346597927705
 30
0.0
 10
92.77711043687517
 20
-151.8791015245302
 30
0.0
 10
92.77711043687517
 20
-151.8791015245302
 30
0.0
 10
93.0478949420158
 20
-151.8791015245302
 30
0.0
 10
93.0478949420158
 20
-151.8791015245302
 30
0.0
 10
93.13884546282642
 20
-151.8791015245302
 30
0.0
 10
93.33556041503417
 20
-151.8746229003994
 30
0.0
 10
93.4773260942522
 20
-151.8663546712348
 30
0.0
 10
93.4773260942522
 20
-151.8663546712348
 30
0.0
 10
93.4773260942522
 20
-152.0441215982737
 30
0.0
 10
93.4773260942522
 20
-152.0441215982737
 30
0.0
 10
93.39481605738047
 20
-152.0396429741428
 30
0.0
 10
93.37362872014619
 20
-152.0396429741428
 30
0.0
 10
93.19379473581614
 20
-152.0355088595605
 30
0.0
 10
93.16209985735182
 20
-152.1898491372998
 30
0.0
 10
93.11765812559212
 20
-152.2704643716546
 30
0.0
 10
93.07321639383239
 20
-152.3400553004566
 30
0.0
 10
93.19379473581614
 20
-152.3993109428029
 30
0.0
 10
93.29973142198758
 20
-152.4671793238623
 30
0.0
 10
93.40325654131932
 20
-152.5495171059598
 30
0.0
 10
93.40325654131932
 20
-152.5495171059598
 30
0.0
 10
93.28491751140099
 20
-152.7166042369944
 30
0.0
 10
93.28491751140099
 20
-152.7166042369944
 30
0.0
 10
93.26166311687556
 20
-152.6976562118256
 30
0.0
 10
93.24891626358015
 20
-152.689387982661
 30
0.0
 10
93.13677840553525
 20
-152.6046386337238
 30
0.0
 10
93.08803030441897
 20
-152.5663980738376
 30
0.0
 10
93.02894691684693
 20
-152.5305690807909
 30
0.0
 10
92.94850393726635
 20
-152.4861273490312
 30
0.0
 10
92.73697507447201
 20
-152.6725070147833
 30
0.0
 10
92.53164738355112
 20
-152.6955891545344
 30
0.0
 10
92.2419148532416
 20
-152.7252169757075
 30
0.0
 10
92.2419148532416
 20
-152.7252169757075
 30
0.0
 10
92.13821747913559
 20
-152.5453829913775
 30
0.0
 10
92.13821747913559
 20
-152.5453829913775
 30
0.0
 10
92.45551077332711
 20
-152.5412488767952
 30
0.0
 10
92.63121064307483
 20
-152.5157551702044
 30
0.0
 10
92.78348386352289
 20
-152.4058566242249
 30
0.0
 10
92.66497257883029
 20
-152.3548692110432
 30
0.0
 10
92.57608911531084
 20
-152.3276529567097
 30
0.0
 10
92.54026012226423
 20
-152.3149061034143
 30
0.0
 10
92.5211398423211
 20
-152.3424668672963
 30
0.0
 10
92.50632593173454
 20
-152.3614148924652
 30
0.0
 10
92.47876516785252
 20
-152.3951768282206
 30
0.0
 10
92.47876516785252
 20
-152.3951768282206
 30
0.0
 10
92.28205021564477
 20
-152.3128390461232
 30
0.0
 10
92.28205021564477
 20
-152.3128390461232
 30
0.0
 10
92.3645602525165
 20
-152.2322238117683
 30
0.0
 10
92.42588295215396
 20
-152.1371391763754
 30
0.0
 10
92.4830715372091
 20
-152.0355088595605
 30
0.0
 10
92.29273001164903
 20
-152.0396429741428
 30
0.0
 10
92.27154267441475
 20
-152.0396429741428
 30
0.0
 10
92.18903263754302
 20
-152.0441215982737
 30
0.0
 10
92.18903263754302
 20
-152.0441215982737
 30
0.0
 10
92.18903263754302
 20
-151.8663546712348
 30
0.0
 10
92.18903263754302
 20
-151.8663546712348
 30
0.0
 10
92.32855900469564
 20
-151.8725558431082
 30
0.0
 10
92.53802081019882
 20
-151.8770344672391
 30
0.0
 10
92.56351451678968
 20
-151.8770344672391
 30
0.0
 10
92.5803954846674
 20
-151.8429280219351
 30
0.0
 10
92.63534475765714
 20
-151.7223496799513
 30
0.0
 10
92.65446503760028
 20
-151.6482801270185
 30
0.0
 10
92.63534475765714
 20
-151.6482801270185
 30
0.0
 10
92.45775008539251
 20
-151.6548258084404
 30
0.0
 10
92.26310219047588
 20
-151.6675726617359
 30
0.0
 10
92.26310219047588
 20
-151.6675726617359
 30
0.0
 10
92.26310219047588
 20
-151.800897857015
 30
0.0
 10
92.26310219047588
 20
-151.800897857015
 30
0.0
 10
92.21435408935962
 20
-151.8260470540574
 30
0.0
 10
92.15509844701331
 20
-151.8577419325217
 30
0.0
 10
92.0219455065084
 20
-151.9235432562899
 30
0.0
 10
92.0219455065084
 20
-151.9235432562899
 30
0.0
 10
92.0219455065084
 20
-152.069270795316
 30
0.0
 10
92.0219455065084
 20
-152.069270795316
 30
0.0
 10
92.0219455065084
 20
-152.069270795316
 30
0.0
 10
92.0219455065084
 20
-152.5371147622129
 30
0.0
 10
92.0219455065084
 20
-152.5371147622129
 30
0.0
 10
92.0219455065084
 20
-152.6638942760701
 30
0.0
 10
91.98594425868753
 20
-152.7231499184164
 30
0.0
 10
91.70241290025149
 20
-152.7145371797033
 30
0.0
 10
91.70241290025149
 20
-152.7145371797033
 30
0.0
 10
91.59871552614546
 20
-152.5074869410398
 30
0.0
 10
91.59871552614546
 20
-152.5074869410398
 30
0.0
 10
91.66227753784832
 20
-152.5198892847867
 30
0.0
 10
91.71085338419034
 20
-152.5243679089175
 30
0.0
 10
91.75116100136776
 20
-152.5243679089175
 30
0.0
 10
91.82729761159178
 20
-152.5243679089175
 30
0.0
 10
91.8378051528218
 20
-152.5009412596178
 30
0.0
 10
91.8378051528218
 20
-152.4354844453981
 30
0.0
 10
91.8378051528218
 20
-152.4354844453981
 30
0.0
 10
91.8378051528218
 20
-152.0058810383874
 30
0.0
 10
91.8378051528218
 20
-152.0058810383874
 30
0.0
 10
91.74048120536349
 20
-152.0461886555648
 30
0.0
 10
91.72360023748577
 20
-152.0523898274383
 30
0.0
 10
91.6770914484349
 20
-152.0716823621557
 30
0.0
 10
91.67278507907834
 20
-152.0926974446157
 30
0.0
 10
91.66865096449603
 20
-152.1223252657889
 30
0.0
 10
91.6495306845529
 20
-152.1223252657889
 30
0.0
 10
91.64109020061403
 20
-152.1223252657889
 30
0.0
 10
91.63058265938403
 20
-152.1181911512065
 30
0.0
 10
91.62420923273632
 20
-152.0947645019068
 30
0.0
 10
91.62420923273632
 20
-152.0947645019068
 30
0.0
 10
91.57132701703773
 20
-151.9021836642814
 30
0.0
 10
91.57132701703773
 20
-151.9021836642814
 30
0.0
 10
91.71722681083805
 20
-151.8556748752305
 30
0.0
 10
91.78285587983207
 20
-151.8325927354793
 30
0.0
 10
91.8378051528218
 20
-151.8112331434708
 30
0.0
 10
91.8378051528218
 20
-151.8112331434708
 30
0.0
 10
91.8378051528218
 20
-151.3988552138864
 30
0.0
 10
91.8378051528218
 20
-151.3988552138864
 30
0.0
 10
91.8378051528218
 20
-151.3988552138864
 30
0.0
 10
91.78492293712322
 20
-151.3988552138864
 30
0.0
 10
91.78492293712322
 20
-151.3988552138864
 30
0.0
 10
91.78492293712322
 20
-151.3988552138864
 30
0.0
 10
91.70671926960805
 20
-151.3988552138864
 30
0.0
 10
91.70671926960805
 20
-151.3988552138864
 30
0.0
 10
91.63902314332288
 20
-151.3988552138864
 30
0.0
 10
91.63058265938403
 20
-151.3988552138864
 30
0.0
 10
91.59458141156317
 20
-151.4050563857598
 30
0.0
 10
91.59458141156317
 20
-151.4050563857598
 30
0.0
 10
91.59458141156317
 20
-151.2104084908432
 30
0.0
 10
91.59458141156317
 20
-151.2104084908432
 30
0.0
 10
91.62214217544516
 20
-151.2169541722652
 30
0.0
 10
91.63058265938403
 20
-151.2169541722652
 30
0.0
 10
91.70034584296033
 20
-151.2169541722652
 30
0.0
 10
91.70034584296033
 20
-151.2169541722652
 30
0.0
 10
91.8336710382395
 20
-151.2169541722652
 30
0.0
 10
91.8336710382395
 20
-151.2169541722652
 30
0.0
 10
91.8336710382395
 20
-151.1470187339146
 30
0.0
 10
91.8336710382395
 20
-151.0646809518171
 30
0.0
 10
91.83143172617409
 20
-151.0602023276863
 30
0.0
 10
91.82299124223524
 20
-150.8803683433563
 30
0.0
 10
91.82299124223524
 20
-150.8614203181874
 30
0.0
 10
91.82092418494407
 20
-150.8149115291366
 30
0.0
 10
91.82092418494407
 20
-150.8149115291366
 30
0.0
 10
92.03675941709498
 20
-150.8235242678497
 30
0.0
 10
92.03675941709498
 20
-150.8235242678497
 30
0.0
 10
92.047266958325
 20
-150.8235242678497
 30
0.0
 10
92.06845429555928
 20
-150.8255913251408
 30
0.0
 10
92.06845429555928
 20
-150.8424722930185
 30
0.0
 10
92.06845429555928
 20
-150.8614203181874
 30
0.0
 10
92.0536403849727
 20
-150.8721001141917
 30
0.0
 10
92.02831893315611
 20
-150.8910481393606
 30
0.0
 10
92.02831893315611
 20
-150.9416910429937
 30
0.0
 10
92.0219455065084
 20
-151.1704453832143
 30
0.0
 10
92.02401256379955
 20
-151.2169541722652
 30
0.0
 10
92.15303138972215
 20
-151.2169541722652
 30
0.0
 10
92.16577824301758
 20
-151.2169541722652
 30
0.0
 10
92.26310219047588
 20
-151.2083414335521
 30
0.0
 10
92.26310219047588
 20
-151.2083414335521
 30
0.0
 10
92.26310219047588
 20
-151.4029893284687
 30
0.0
 10
92.26310219047588
 20
-151.4029893284687
 30
0.0
 10
92.22503388536388
 20
-151.4009222711775
 30
0.0
 10
92.15733775907873
 20
-151.3967881565952
 30
0.0
 10
92.0219455065084
 20
-151.3988552138864
 30
0.0
 10
92.0219455065084
 20
-151.3988552138864
 30
0.0
 10
92.0219455065084
 20
-151.7371635905379
 30
0.0
 10
92.0219455065084
 20
-151.7371635905379
 30
0.0
 10
92.07689477949815
 20
-151.7140814507867
 30
0.0
 10
92.14252384849215
 20
-151.6865206869048
 30
0.0
 10
92.19109969483417
 20
-151.663094037605
 30
0.0
 10
92.19109969483417
 20
-151.663094037605
 30
0.0
 10
92.19109969483417
 20
-151.4856716201147
 30
0.0
 10
92.19109969483417
 20
-151.4856716201147
 30
0.0
 10
92.30530461017021
 20
-151.4980739638616
 30
0.0
 10
92.4238158948628
 20
-151.4980739638616
 30
0.0
 10
92.54026012226423
 20
-151.4980739638616
 30
0.0
 10
92.51683347296454
 20
-151.4029893284687
 30
0.0
 10
92.4894449638568
 20
-151.3206515463712
 30
0.0
 10
92.42588295215396
 20
-151.187326351092
 30
0.0
 10
92.38144122039422
 20
-151.1893934083832
 30
0.0
 10
92.29910343829676
 20
-151.1935275229655
 30
0.0
 10
92.26086287841047
 20
-151.1955945802566
 30
0.0
 10
92.26086287841047
 20
-151.1955945802566
 30
0.0
 10
92.26086287841047
 20
-151.0157605959266
 30
0.0
 10
92.26086287841047
 20
-151.0157605959266
 30
0.0
 10
92.38574758975079
 20
-151.0243733346397
 30
0.0
 10
92.55920814743312
 20
-151.028507449222
 30
0.0
 10
92.64171818430485
 20
-151.028507449222
 30
0.0
 10
92.64171818430485
 20
-151.028507449222
 30
0.0
 10
92.72422822117659
 20
-151.028507449222
 30
0.0
 10
92.72422822117659
 20
-151.028507449222
 30
0.0
 10
92.72422822117659
 20
-150.8655544327697
 30
0.0
 10
92.72422822117659
 20
-150.8552191463139
 30
0.0
 10
92.72216116388543
 20
-150.8000976185499
 30
0.0
 10
92.72216116388543
 20
-150.8000976185499
 30
0.0
 10
92.94643687997519
 20
-150.8255913251408
 30
0.0
 10
92.94643687997519
 20
-150.8255913251408
 30
0.0
 10
92.9505709945575
 20
-150.8255913251408
 30
0.0
 10
92.9717583317918
 20
-150.827658382432
 30
0.0
 10
92.9717583317918
 20
-150.8445393503097
 30
0.0
 10
92.9717583317918
 20
-150.8593532608963
 30
0.0
 10
92.96125079056178
 20
-150.8679659996094
 30
0.0
 10
92.93369002667978
 20
-150.882779910196
 30
0.0
 10
92.92731660003205
 20
-150.9482367244157
 30
0.0
 10
92.92524954274091
 20
-150.9692518068757
 30
0.0
 10
92.92524954274091
 20
-151.028507449222
 30
0.0
 10
92.92524954274091
 20
-151.028507449222
 30
0.0
 10
93.02033417813381
 20
-151.028507449222
 30
0.0
 10
93.02033417813381
 20
-151.028507449222
 30
0.0
 10
93.10284421500554
 20
-151.028507449222
 30
0.0
 10
93.27630477268789
 20
-151.0243733346397
 30
0.0
 10
93.40118948402817
 20
-151.0157605959266
 30
0.0
 10
93.40118948402817
 20
-151.0157605959266
 30
0.0
 10
93.40118948402817
 20
-151.1955945802566
 30
0.0
 10
93.40118948402817
 20
-151.1955945802566
 30
0.0
 10
93.37156166285502
 20
-151.1935275229655
 30
0.0
 10
93.25305037816244
 20
-151.1893934083832
 30
0.0
 10
93.21291501575927
 20
-151.187326351092
 30
0.0
 10
93.1981011051727
 20
-151.2379692547252
 30
0.0
 10
93.16433916941724
 20
-151.3502793675443
 30
0.0
 10
93.09871010042325
 20
-151.489805734697
 30
0.0
 10
93.14091252011754
 20
-151.489805734697
 30
0.0
 10
93.4180704519059
 20
-151.4708577095281
 30
0.0
 10
93.47939315154334
 20
-151.4684461426884
 30
0.0
 10
93.47939315154334
 20
-151.4684461426884
 30
0.0
 10
93.47939315154334
 20
-151.6527587511493
 30
0.0
 10
93.47939315154334
 20
-151.6527587511493
 30
0.0
 10
93.44993758514446
 20
-151.6527587511493
 30
0.0
 10
93.43288436249247
 20
-151.6482801270185
 30
0.0
 10
93.27010360081443
 20
-151.6482801270185
 30
0.0
  0
HATCH
  5
F0
330
E9
100
AcDbEntity
  8
レイヤー 1
 62
    18
420
        0
440
 33554687
100
AcDbHatch
 10
0.0
 20
0.0
 30
0.0
210
0.0
220
0.0
230
1.0
  2
SOLID
 70
     1
 71
     1
 91
        3
 92
        1
 93
        1
 72
     4
 94
        3
 73
     0
 74
     0
 95
       17
 96
       13
 40
0.0
 40
0.0
 40
0.0
 40
0.0
 40
1.0
 40
1.0
 40
1.0
 40
2.0
 40
2.0
 40
2.0
 40
3.0
 40
3.0
 40
3.0
 40
4.0
 40
4.0
 40
4.0
 40
4.0
 10
92.70528019600771
 20
-152.0334418022694
 10
92.68822697335572
 20
-152.0630696234426
 10
92.63758406972256
 20
-152.1560872015443
 10
92.62690427371827
 20
-152.1750352267132
 10
92.81724579927832
 20
-152.2342908690595
 10
92.83843313651262
 20
-152.2408365504815
 10
92.91043563215435
 20
-152.2683973143634
 10
92.96538490514407
 20
-152.1815809081352
 10
92.98863929966952
 20
-152.1075113552023
 10
93.00345321025607
 20
-152.0334418022694
 10
93.00345321025607
 20
-152.0334418022694
 10
92.70528019600771
 20
-152.0334418022694
 10
92.70528019600771
 20
-152.0334418022694
 97
        0
 97
        1
330
ED
 92
        1
 93
        1
 72
     4
 94
        3
 73
     0
 74
     0
 95
       20
 96
       16
 40
0.0
 40
0.0
 40
0.0
 40
0.0
 40
1.0
 40
1.0
 40
1.0
 40
2.0
 40
2.0
 40
2.0
 40
3.0
 40
3.0
 40
3.0
 40
4.0
 40
4.0
 40
4.0
 40
5.0
 40
5.0
 40
5.0
 40
5.0
 10
92.64171818430485
 20
-151.1831922365098
 10
92.64171818430485
 20
-151.1831922365098
 10
92.61002330584055
 20
-151.1831922365098
 10
92.61002330584055
 20
-151.1831922365098
 10
92.65653209489142
 20
-151.2824109864849
 10
92.68822697335572
 20
-151.3626817112912
 10
92.72216116388543
 20
-151.489805734697
 10
92.72216116388543
 20
-151.489805734697
 10
92.92938365732322
 20
-151.489805734697
 10
92.92938365732322
 20
-151.489805734697
 10
92.96125079056178
 20
-151.3967881565952
 10
92.98450518508721
 20
-151.3120388076581
 10
93.00775957961265
 20
-151.1831922365098
 10
93.00775957961265
 20
-151.1831922365098
 10
92.64171818430485
 20
-151.1831922365098
 10
92.64171818430485
 20
-151.1831922365098
 97
        0
 97
        1
330
EE
 92
        1
 93
        1
 72
     4
 94
        3
 73
     0
 74
     0
 95
      242
 96
      238
 40
0.0
 40
0.0
 40
0.0
 40
0.0
 40
1.0
 40
1.0
 40
1.0
 40
2.0
 40
2.0
 40
2.0
 40
3.0
 40
3.0
 40
3.0
 40
4.0
 40
4.0
 40
4.0
 40
5.0
 40
5.0
 40
5.0
 40
6.0
 40
6.0
 40
6.0
 40
7.0
 40
7.0
 40
7.0
 40
8.0
 40
8.0
 40
8.0
 40
9.0
 40
9.0
 40
9.0
 40
10.0
 40
10.0
 40
10.0
 40
11.0
 40
11.0
 40
11.0
 40
12.0
 40
12.0
 40
12.0
 40
13.0
 40
13.0
 40
13.0
 40
14.0
 40
14.0
 40
14.0
 40
15.0
 40
15.0
 40
15.0
 40
16.0
 40
16.0
 40
16.0
 40
17.0
 40
17.0
 40
17.0
 40
18.0
 40
18.0
 40
18.0
 40
19.0
 40
19.0
 40
19.0
 40
20.0
 40
20.0
 40
20.0
 40
21.0
 40
21.0
 40
21.0
 40
22.0
 40
22.0
 40
22.0
 40
23.0
 40
23.0
 40
23.0
 40
24.0
 40
24.0
 40
24.0
 40
25.0
 40
25.0
 40
25.0
 40
26.0
 40
26.0
 40
26.0
 40
27.0
 40
27.0
 40
27.0
 40
28.0
 40
28.0
 40
28.0
 40
29.0
 40
29.0
 40
29.0
 40
30.0
 40
30.0
 40
30.0
 40
31.0
 40
31.0
 40
31.0
 40
32.0
 40
32.0
 40
32.0
 40
33.0
 40
33.0
 40
33.0
 40
34.0
 40
34.0
 40
34.0
 40
35.0
 40
35.0
 40
35.0
 40
36.0
 40
36.0
 40
36.0
 40
37.0
 40
37.0
 40
37.0
 40
38.0
 40
38.0
 40
38.0
 40
39.0
 40
39.0
 40
39.0
 40
40.0
 40
40.0
 40
40.0
 40
41.0
 40
41.0
 40
41.0
 40
42.0
 40
42.0
 40
42.0
 40
43.0
 40
43.0
 40
43.0
 40
44.0
 40
44.0
 40
44.0
 40
45.0
 40
45.0
 40
45.0
 40
46.0
 40
46.0
 40
46.0
 40
47.0
 40
47.0
 40
47.0
 40
48.0
 40
48.0
 40
48.0
 40
49.0
 40
49.0
 40
49.0
 40
50.0
 40
50.0
 40
50.0
 40
51.0
 40
51.0
 40
51.0
 40
52.0
 40
52.0
 40
52.0
 40
53.0
 40
53.0
 40
53.0
 40
54.0
 40
54.0
 40
54.0
 40
55.0
 40
55.0
 40
55.0
 40
56.0
 40
56.0
 40
56.0
 40
57.0
 40
57.0
 40
57.0
 40
58.0
 40
58.0
 40
58.0
 40
59.0
 40
59.0
 40
59.0
 40
60.0
 40
60.0
 40
60.0
 40
61.0
 40
61.0
 40
61.0
 40
62.0
 40
62.0
 40
62.0
 40
63.0
 40
63.0
 40
63.0
 40
64.0
 40
64.0
 40
64.0
 40
65.0
 40
65.0
 40
65.0
 40
66.0
 40
66.0
 40
66.0
 40
67.0
 40
67.0
 40
67.0
 40
68.0
 40
68.0
 40
68.0
 40
69.0
 40
69.0
 40
69.0
 40
70.0
 40
70.0
 40
70.0
 40
71.0
 40
71.0
 40
71.0
 40
72.0
 40
72.0
 40
72.0
 40
73.0
 40
73.0
 40
73.0
 40
74.0
 40
74.0
 40
74.0
 40
75.0
 40
75.0
 40
75.0
 40
76.0
 40
76.0
 40
76.0
 40
77.0
 40
77.0
 40
77.0
 40
78.0
 40
78.0
 40
78.0
 40
79.0
 40
79.0
 40
79.0
 40
79.0
 10
93.27010360081443
 20
-151.6482801270185
 10
93.27010360081443
 20
-151.6482801270185
 10
93.0162000635515
 20
-151.6482801270185
 10
93.0162000635515
 20
-151.6482801270185
 10
93.0162000635515
 20
-151.6482801270185
 10
92.73904213176315
 20
-151.6482801270185
 10
92.73904213176315
 20
-151.6482801270185
 10
92.73904213176315
 20
-151.6482801270185
 10
92.8659939003946
 20
-151.690654801487
 10
92.8659939003946
 20
-151.690654801487
 10
92.87650144162462
 20
-151.6951334256179
 10
92.88924829492005
 20
-151.7013345974913
 10
92.88924829492005
 20
-151.7140814507867
 10
92.88924829492005
 20
-151.7350965332467
 10
92.85755341645575
 20
-151.7416422146687
 10
92.83636607922145
 20
-151.7457763292511
 10
92.82585853799146
 20
-151.7688584690022
 10
92.79623071681831
 20
-151.8346597927705
 10
92.77711043687517
 20
-151.8791015245302
 10
92.77711043687517
 20
-151.8791015245302
 10
93.0478949420158
 20
-151.8791015245302
 10
93.0478949420158
 20
-151.8791015245302
 10
93.13884546282642
 20
-151.8791015245302
 10
93.33556041503417
 20
-151.8746229003994
 10
93.4773260942522
 20
-151.8663546712348
 10
93.4773260942522
 20
-151.8663546712348
 10
93.4773260942522
 20
-152.0441215982737
 10
93.4773260942522
 20
-152.0441215982737
 10
93.39481605738047
 20
-152.0396429741428
 10
93.37362872014619
 20
-152.0396429741428
 10
93.19379473581614
 20
-152.0355088595605
 10
93.16209985735182
 20
-152.1898491372998
 10
93.11765812559212
 20
-152.2704643716546
 10
93.07321639383239
 20
-152.3400553004566
 10
93.19379473581614
 20
-152.3993109428029
 10
93.29973142198758
 20
-152.4671793238623
 10
93.40325654131932
 20
-152.5495171059598
 10
93.40325654131932
 20
-152.5495171059598
 10
93.28491751140099
 20
-152.7166042369944
 10
93.28491751140099
 20
-152.7166042369944
 10
93.26166311687556
 20
-152.6976562118256
 10
93.24891626358015
 20
-152.689387982661
 10
93.13677840553525
 20
-152.6046386337238
 10
93.08803030441897
 20
-152.5663980738376
 10
93.02894691684693
 20
-152.5305690807909
 10
92.94850393726635
 20
-152.4861273490312
 10
92.73697507447201
 20
-152.6725070147833
 10
92.53164738355112
 20
-152.6955891545344
 10
92.2419148532416
 20
-152.7252169757075
 10
92.2419148532416
 20
-152.7252169757075
 10
92.13821747913559
 20
-152.5453829913775
 10
92.13821747913559
 20
-152.5453829913775
 10
92.45551077332711
 20
-152.5412488767952
 10
92.63121064307483
 20
-152.5157551702044
 10
92.78348386352289
 20
-152.4058566242249
 10
92.66497257883029
 20
-152.3548692110432
 10
92.57608911531084
 20
-152.3276529567097
 10
92.54026012226423
 20
-152.3149061034143
 10
92.5211398423211
 20
-152.3424668672963
 10
92.50632593173454
 20
-152.3614148924652
 10
92.47876516785252
 20
-152.3951768282206
 10
92.47876516785252
 20
-152.3951768282206
 10
92.28205021564477
 20
-152.3128390461232
 10
92.28205021564477
 20
-152.3128390461232
 10
92.3645602525165
 20
-152.2322238117683
 10
92.42588295215396
 20
-152.1371391763754
 10
92.4830715372091
 20
-152.0355088595605
 10
92.29273001164903
 20
-152.0396429741428
 10
92.27154267441475
 20
-152.0396429741428
 10
92.18903263754302
 20
-152.0441215982737
 10
92.18903263754302
 20
-152.0441215982737
 10
92.18903263754302
 20
-151.8663546712348
 10
92.18903263754302
 20
-151.8663546712348
 10
92.32855900469564
 20
-151.8725558431082
 10
92.53802081019882
 20
-151.8770344672391
 10
92.56351451678968
 20
-151.8770344672391
 10
92.5803954846674
 20
-151.8429280219351
 10
92.63534475765714
 20
-151.7223496799513
 10
92.65446503760028
 20
-151.6482801270185
 10
92.63534475765714
 20
-151.6482801270185
 10
92.45775008539251
 20
-151.6548258084404
 10
92.26310219047588
 20
-151.6675726617359
 10
92.26310219047588
 20
-151.6675726617359
 10
92.26310219047588
 20
-151.800897857015
 10
92.26310219047588
 20
-151.800897857015
 10
92.21435408935962
 20
-151.8260470540574
 10
92.15509844701331
 20
-151.8577419325217
 10
92.0219455065084
 20
-151.9235432562899
 10
92.0219455065084
 20
-151.9235432562899
 10
92.0219455065084
 20
-152.069270795316
 10
92.0219455065084
 20
-152.069270795316
 10
92.0219455065084
 20
-152.069270795316
 10
92.0219455065084
 20
-152.5371147622129
 10
92.0219455065084
 20
-152.5371147622129
 10
92.0219455065084
 20
-152.6638942760701
 10
91.98594425868753
 20
-152.7231499184164
 10
91.70241290025149
 20
-152.7145371797033
 10
91.70241290025149
 20
-152.7145371797033
 10
91.59871552614546
 20
-152.5074869410398
 10
91.59871552614546
 20
-152.5074869410398
 10
91.66227753784832
 20
-152.5198892847867
 10
91.71085338419034
 20
-152.5243679089175
 10
91.75116100136776
 20
-152.5243679089175
 10
91.82729761159178
 20
-152.5243679089175
 10
91.8378051528218
 20
-152.5009412596178
 10
91.8378051528218
 20
-152.4354844453981
 10
91.8378051528218
 20
-152.4354844453981
 10
91.8378051528218
 20
-152.0058810383874
 10
91.8378051528218
 20
-152.0058810383874
 10
91.74048120536349
 20
-152.0461886555648
 10
91.72360023748577
 20
-152.0523898274383
 10
91.6770914484349
 20
-152.0716823621557
 10
91.67278507907834
 20
-152.0926974446157
 10
91.66865096449603
 20
-152.1223252657889
 10
91.6495306845529
 20
-152.1223252657889
 10
91.64109020061403
 20
-152.1223252657889
 10
91.63058265938403
 20
-152.1181911512065
 10
91.62420923273632
 20
-152.0947645019068
 10
91.62420923273632
 20
-152.0947645019068
 10
91.57132701703773
 20
-151.9021836642814
 10
91.57132701703773
 20
-151.9021836642814
 10
91.71722681083805
 20
-151.8556748752305
 10
91.78285587983207
 20
-151.8325927354793
 10
91.8378051528218
 20
-151.8112331434708
 10
91.8378051528218
 20
-151.8112331434708
 10
91.8378051528218
 20
-151.3988552138864
 10
91.8378051528218
 20
-151.3988552138864
 10
91.8378051528218
 20
-151.3988552138864
 10
91.78492293712322
 20
-151.3988552138864
 10
91.78492293712322
 20
-151.3988552138864
 10
91.78492293712322
 20
-151.3988552138864
 10
91.70671926960805
 20
-151.3988552138864
 10
91.70671926960805
 20
-151.3988552138864
 10
91.63902314332288
 20
-151.3988552138864
 10
91.63058265938403
 20
-151.3988552138864
 10
91.59458141156317
 20
-151.4050563857598
 10
91.59458141156317
 20
-151.4050563857598
 10
91.59458141156317
 20
-151.2104084908432
 10
91.59458141156317
 20
-151.2104084908432
 10
91.62214217544516
 20
-151.2169541722652
 10
91.63058265938403
 20
-151.2169541722652
 10
91.70034584296033
 20
-151.2169541722652
 10
91.70034584296033
 20
-151.2169541722652
 10
91.8336710382395
 20
-151.2169541722652
 10
91.8336710382395
 20
-151.2169541722652
 10
91.8336710382395
 20
-151.1470187339146
 10
91.8336710382395
 20
-151.0646809518171
 10
91.83143172617409
 20
-151.0602023276863
 10
91.82299124223524
 20
-150.8803683433563
 10
91.82299124223524
 20
-150.8614203181874
 10
91.82092418494407
 20
-150.8149115291366
 10
91.82092418494407
 20
-150.8149115291366
 10
92.03675941709498
 20
-150.8235242678497
 10
92.03675941709498
 20
-150.8235242678497
 10
92.047266958325
 20
-150.8235242678497
 10
92.06845429555928
 20
-150.8255913251408
 10
92.06845429555928
 20
-150.8424722930185
 10
92.06845429555928
 20
-150.8614203181874
 10
92.0536403849727
 20
-150.8721001141917
 10
92.02831893315611
 20
-150.8910481393606
 10
92.02831893315611
 20
-150.9416910429937
 10
92.0219455065084
 20
-151.1704453832143
 10
92.02401256379955
 20
-151.2169541722652
 10
92.15303138972215
 20
-151.2169541722652
 10
92.16577824301758
 20
-151.2169541722652
 10
92.26310219047588
 20
-151.2083414335521
 10
92.26310219047588
 20
-151.2083414335521
 10
92.26310219047588
 20
-151.4029893284687
 10
92.26310219047588
 20
-151.4029893284687
 10
92.22503388536388
 20
-151.4009222711775
 10
92.15733775907873
 20
-151.3967881565952
 10
92.0219455065084
 20
-151.3988552138864
 10
92.0219455065084
 20
-151.3988552138864
 10
92.0219455065084
 20
-151.7371635905379
 10
92.0219455065084
 20
-151.7371635905379
 10
92.07689477949815
 20
-151.7140814507867
 10
92.14252384849215
 20
-151.6865206869048
 10
92.19109969483417
 20
-151.663094037605
 10
92.19109969483417
 20
-151.663094037605
 10
92.19109969483417
 20
-151.4856716201147
 10
92.19109969483417
 20
-151.4856716201147
 10
92.30530461017021
 20
-151.4980739638616
 10
92.4238158948628
 20
-151.4980739638616
 10
92.54026012226423
 20
-151.4980739638616
 10
92.51683347296454
 20
-151.4029893284687
 10
92.4894449638568
 20
-151.3206515463712
 10
92.42588295215396
 20
-151.187326351092
 10
92.38144122039422
 20
-151.1893934083832
 10
92.29910343829676
 20
-151.1935275229655
 10
92.26086287841047
 20
-151.1955945802566
 10
92.26086287841047
 20
-151.1955945802566
 10
92.26086287841047
 20
-151.0157605959266
 10
92.26086287841047
 20
-151.0157605959266
 10
92.38574758975079
 20
-151.0243733346397
 10
92.55920814743312
 20
-151.028507449222
 10
92.64171818430485
 20
-151.028507449222
 10
92.64171818430485
 20
-151.028507449222
 10
92.72422822117659
 20
-151.028507449222
 10
92.72422822117659
 20
-151.028507449222
 10
92.72422822117659
 20
-150.8655544327697
 10
92.72422822117659
 20
-150.8552191463139
 10
92.72216116388543
 20
-150.8000976185499
 10
92.72216116388543
 20
-150.8000976185499
 10
92.94643687997519
 20
-150.8255913251408
 10
92.94643687997519
 20
-150.8255913251408
 10
92.9505709945575
 20
-150.8255913251408
 10
92.9717583317918
 20
-150.827658382432
 10
92.9717583317918
 20
-150.8445393503097
 10
92.9717583317918
 20
-150.8593532608963
 10
92.96125079056178
 20
-150.8679659996094
 10
92.93369002667978
 20
-150.882779910196
 10
92.92731660003205
 20
-150.9482367244157
 10
92.92524954274091
 20
-150.9692518068757
 10
92.92524954274091
 20
-151.028507449222
 10
92.92524954274091
 20
-151.028507449222
 10
93.02033417813381
 20
-151.028507449222
 10
93.02033417813381
 20
-151.028507449222
 10
93.10284421500554
 20
-151.028507449222
 10
93.27630477268789
 20
-151.0243733346397
 10
93.40118948402817
 20
-151.0157605959266
 10
93.40118948402817
 20
-151.0157605959266
 10
93.40118948402817
 20
-151.1955945802566
 10
93.40118948402817
 20
-151.1955945802566
 10
93.37156166285502
 20
-151.1935275229655
 10
93.25305037816244
 20
-151.1893934083832
 10
93.21291501575927
 20
-151.187326351092
 10
93.1981011051727
 20
-151.2379692547252
 10
93.16433916941724
 20
-151.3502793675443
 10
93.09871010042325
 20
-151.489805734697
 10
93.14091252011754
 20
-151.489805734697
 10
93.4180704519059
 20
-151.4708577095281
 10
93.47939315154334
 20
-151.4684461426884
 10
93.47939315154334
 20
-151.4684461426884
 10
93.47939315154334
 20
-151.6527587511493
 10
93.47939315154334
 20
-151.6527587511493
 10
93.44993758514446
 20
-151.6527587511493
 10
93.43288436249247
 20
-151.6482801270185
 10
93.27010360081443
 20
-151.6482801270185
 97
        0
 97
        1
330
EF
 75
     2
 76
     1
 98
        1
 10
0.0
 20
0.0
450
        0
451
        0
460
0.0
461
0.0
452
        0
462
0.0
453
        0
470

  0
SPLINE
  5
F1
330
E9
100
AcDbEntity
  8
レイヤー 1
100
AcDbSpline
210
0.0
220
0.0
230
1.0
 70
    11
 71
     3
 72
    17
 73
    13
 74
     0
 42
0.0000000001
 43
0.0000000001
 40
0.0
 40
0.0
 40
0.0
 40
0.0
 40
1.0
 40
1.0
 40
1.0
 40
2.0
 40
2.0
 40
2.0
 40
3.0
 40
3.0
 40
3.0
 40
4.0
 40
4.0
 40
4.0
 40
4.0
 10
95.1264933030413
 20
-152.4482312986935
 30
0.0
 10
95.1264933030413
 20
-152.4482312986935
 30
0.0
 10
94.41990421901655
 20
-152.4482312986935
 30
0.0
 10
94.41990421901655
 20
-152.4482312986935
 30
0.0
 10
94.41990421901655
 20
-152.4482312986935
 30
0.0
 10
94.41990421901655
 20
-152.5622639592552
 30
0.0
 10
94.41990421901655
 20
-152.5622639592552
 30
0.0
 10
94.41990421901655
 20
-152.5622639592552
 30
0.0
 10
95.1264933030413
 20
-152.5622639592552
 30
0.0
 10
95.1264933030413
 20
-152.5622639592552
 30
0.0
 10
95.1264933030413
 20
-152.5622639592552
 30
0.0
 10
95.1264933030413
 20
-152.4482312986935
 30
0.0
 10
95.1264933030413
 20
-152.4482312986935
 30
0.0
  0
SPLINE
  5
F2
330
E9
100
AcDbEntity
  8
レイヤー 1
100
AcDbSpline
210
0.0
220
0.0
230
1.0
 70
    11
 71
     3
 72
    17
 73
    13
 74
     0
 42
0.0000000001
 43
0.0000000001
 40
0.0
 40
0.0
 40
0.0
 40
0.0
 40
1.0
 40
1.0
 40
1.0
 40
2.0
 40
2.0
 40
2.0
 40
3.0
 40
3.0
 40
3.0
 40
4.0
 40
4.0
 40
4.0
 40
4.0
 10
95.1264933030413
 20
-152.2046630478863
 30
0.0
 10
95.1264933030413
 20
-152.2046630478863
 30
0.0
 10
94.41990421901655
 20
-152.2046630478863
 30
0.0
 10
94.41990421901655
 20
-152.2046630478863
 30
0.0
 10
94.41990421901655
 20
-152.2046630478863
 30
0.0
 10
94.41990421901655
 20
-152.3190402179966
 30
0.0
 10
94.41990421901655
 20
-152.3190402179966
 30
0.0
 10
94.41990421901655
 20
-152.3190402179966
 30
0.0
 10
95.1264933030413
 20
-152.3190402179966
 30
0.0
 10
95.1264933030413
 20
-152.3190402179966
 30
0.0
 10
95.1264933030413
 20
-152.3190402179966
 30
0.0
 10
95.1264933030413
 20
-152.2046630478863
 30
0.0
 10
95.1264933030413
 20
-152.2046630478863
 30
0.0
  0
SPLINE
  5
F3
330
E9
100
AcDbEntity
  8
レイヤー 1
100
AcDbSpline
210
0.0
220
0.0
230
1.0
 70
    11
 71
     3
 72
    17
 73
    13
 74
     0
 42
0.0000000001
 43
0.0000000001
 40
0.0
 40
0.0
 40
0.0
 40
0.0
 40
1.0
 40
1.0
 40
1.0
 40
2.0
 40
2.0
 40
2.0
 40
3.0
 40
3.0
 40
3.0
 40
4.0
 40
4.0
 40
4.0
 40
4.0
 10
95.1264933030413
 20
-151.9721191026319
 30
0.0
 10
95.1264933030413
 20
-151.9721191026319
 30
0.0
 10
94.41990421901655
 20
-151.9721191026319
 30
0.0
 10
94.41990421901655
 20
-151.9721191026319
 30
0.0
 10
94.41990421901655
 20
-151.9721191026319
 30
0.0
 10
94.41990421901655
 20
-152.0799505913203
 30
0.0
 10
94.41990421901655
 20
-152.0799505913203
 30
0.0
 10
94.41990421901655
 20
-152.0799505913203
 30
0.0
 10
95.1264933030413
 20
-152.0799505913203
 30
0.0
 10
95.1264933030413
 20
-152.0799505913203
 30
0.0
 10
95.1264933030413
 20
-152.0799505913203
 30
0.0
 10
95.1264933030413
 20
-151.9721191026319
 30
0.0
 10
95.1264933030413
 20
-151.9721191026319
 30
0.0
  0
SPLINE
  5
F4
330
E9
100
AcDbEntity
  8
レイヤー 1
100
AcDbSpline
210
0.0
220
0.0
230
1.0
 70
     9
 71
     3
 72
   203
 73
   199
 74
     0
 42
0.0000000001
 43
0.0000000001
 40
0.0
 40
0.0
 40
0.0
 40
0.0
 40
1.0
 40
1.0
 40
1.0
 40
2.0
 40
2.0
 40
2.0
 40
3.0
 40
3.0
 40
3.0
 40
4.0
 40
4.0
 40
4.0
 40
5.0
 40
5.0
 40
5.0
 40
6.0
 40
6.0
 40
6.0
 40
7.0
 40
7.0
 40
7.0
 40
8.0
 40
8.0
 40
8.0
 40
9.0
 40
9.0
 40
9.0
 40
10.0
 40
10.0
 40
10.0
 40
11.0
 40
11.0
 40
11.0
 40
12.0
 40
12.0
 40
12.0
 40
13.0
 40
13.0
 40
13.0
 40
14.0
 40
14.0
 40
14.0
 40
15.0
 40
15.0
 40
15.0
 40
16.0
 40
16.0
 40
16.0
 40
17.0
 40
17.0
 40
17.0
 40
18.0
 40
18.0
 40
18.0
 40
19.0
 40
19.0
 40
19.0
 40
20.0
 40
20.0
 40
20.0
 40
21.0
 40
21.0
 40
21.0
 40
22.0
 40
22.0
 40
22.0
 40
23.0
 40
23.0
 40
23.0
 40
24.0
 40
24.0
 40
24.0
 40
25.0
 40
25.0
 40
25.0
 40
26.0
 40
26.0
 40
26.0
 40
27.0
 40
27.0
 40
27.0
 40
28.0
 40
28.0
 40
28.0
 40
29.0
 40
29.0
 40
29.0
 40
30.0
 40
30.0
 40
30.0
 40
31.0
 40
31.0
 40
31.0
 40
32.0
 40
32.0
 40
32.0
 40
33.0
 40
33.0
 40
33.0
 40
34.0
 40
34.0
 40
34.0
 40
35.0
 40
35.0
 40
35.0
 40
36.0
 40
36.0
 40
36.0
 40
37.0
 40
37.0
 40
37.0
 40
38.0
 40
38.0
 40
38.0
 40
39.0
 40
39.0
 40
39.0
 40
40.0
 40
40.0
 40
40.0
 40
41.0
 40
41.0
 40
41.0
 40
42.0
 40
42.0
 40
42.0
 40
43.0
 40
43.0
 40
43.0
 40
44.0
 40
44.0
 40
44.0
 40
45.0
 40
45.0
 40
45.0
 40
46.0
 40
46.0
 40
46.0
 40
47.0
 40
47.0
 40
47.0
 40
48.0
 40
48.0
 40
48.0
 40
49.0
 40
49.0
 40
49.0
 40
50.0
 40
50.0
 40
50.0
 40
51.0
 40
51.0
 40
51.0
 40
52.0
 40
52.0
 40
52.0
 40
53.0
 40
53.0
 40
53.0
 40
54.0
 40
54.0
 40
54.0
 40
55.0
 40
55.0
 40
55.0
 40
56.0
 40
56.0
 40
56.0
 40
57.0
 40
57.0
 40
57.0
 40
58.0
 40
58.0
 40
58.0
 40
59.0
 40
59.0
 40
59.0
 40
60.0
 40
60.0
 40
60.0
 40
61.0
 40
61.0
 40
61.0
 40
62.0
 40
62.0
 40
62.0
 40
63.0
 40
63.0
 40
63.0
 40
64.0
 40
64.0
 40
64.0
 40
65.0
 40
65.0
 40
65.0
 40
66.0
 40
66.0
 40
66.0
 40
66.0
 10
94.96147322929784
 20
-151.7161485080779
 30
0.0
 10
94.96147322929784
 20
-151.7161485080779
 30
0.0
 10
94.40302325113883
 20
-151.7161485080779
 30
0.0
 10
94.40302325113883
 20
-151.7161485080779
 30
0.0
 10
94.39234345513455
 20
-151.7605902398376
 30
0.0
 10
94.38390297119569
 20
-151.7922851183019
 30
0.0
 10
94.37132837267453
 20
-151.8305256781882
 30
0.0
 10
94.39664982449112
 20
-151.8305256781882
 30
0.0
 10
94.41146373507768
 20
-151.8325927354793
 30
0.0
 10
94.4178371617254
 20
-151.8325927354793
 30
0.0
 10
94.4178371617254
 20
-151.8325927354793
 30
0.0
 10
94.60611162999432
 20
-151.8325927354793
 30
0.0
 10
94.60611162999432
 20
-151.8325927354793
 30
0.0
 10
94.60611162999432
 20
-151.8325927354793
 30
0.0
 10
94.98059350924096
 20
-151.8325927354793
 30
0.0
 10
94.98059350924096
 20
-151.8325927354793
 30
0.0
 10
95.03123641287414
 20
-151.8325927354793
 30
0.0
 10
95.3147677713102
 20
-151.8198458821839
 30
0.0
 10
95.3464626497745
 20
-151.8198458821839
 30
0.0
 10
95.34439559248335
 20
-151.8474066460659
 30
0.0
 10
95.34232853519219
 20
-151.8663546712348
 30
0.0
 10
95.34232853519219
 20
-151.8959824924079
 30
0.0
 10
95.34008922312677
 20
-151.9276773708722
 30
0.0
 10
95.34008922312677
 20
-152.0630696234426
 30
0.0
 10
95.34008922312677
 20
-152.0906303873245
 30
0.0
 10
95.34008922312677
 20
-152.0906303873245
 30
0.0
 10
95.34008922312677
 20
-152.3359211858743
 30
0.0
 10
95.34008922312677
 20
-152.3359211858743
 30
0.0
 10
95.34008922312677
 20
-152.3803629176341
 30
0.0
 10
95.34439559248335
 20
-152.5770778698418
 30
0.0
 10
95.34870196183991
 20
-152.7293510902899
 30
0.0
 10
95.34870196183991
 20
-152.7293510902899
 30
0.0
 10
95.12218693368472
 20
-152.7293510902899
 30
0.0
 10
95.12218693368472
 20
-152.7293510902899
 30
0.0
 10
95.12218693368472
 20
-152.7293510902899
 30
0.0
 10
95.12442624575013
 20
-152.6955891545344
 30
0.0
 10
95.12442624575013
 20
-152.6955891545344
 30
0.0
 10
95.12442624575013
 20
-152.6955891545344
 30
0.0
 10
94.4219712763077
 20
-152.6955891545344
 30
0.0
 10
94.4219712763077
 20
-152.6955891545344
 30
0.0
 10
94.4219712763077
 20
-152.6955891545344
 30
0.0
 10
94.42421058837311
 20
-152.7293510902899
 30
0.0
 10
94.42421058837311
 20
-152.7293510902899
 30
0.0
 10
94.42421058837311
 20
-152.7293510902899
 30
0.0
 10
94.20630829893106
 20
-152.7293510902899
 30
0.0
 10
94.20630829893106
 20
-152.7293510902899
 30
0.0
 10
94.21044241351337
 20
-152.6745740720744
 30
0.0
 10
94.21044241351337
 20
-152.661827218779
 30
0.0
 10
94.21681584016107
 20
-152.5474500486687
 30
0.0
 10
94.21888289745224
 20
-152.5198892847867
 30
0.0
 10
94.22112220951765
 20
-152.386908599056
 30
0.0
 10
94.22112220951765
 20
-152.3676160643386
 30
0.0
 10
94.22112220951765
 20
-152.3676160643386
 30
0.0
 10
94.22112220951765
 20
-152.1646999402574
 30
0.0
 10
94.22112220951765
 20
-152.1646999402574
 30
0.0
 10
94.08142358759077
 20
-152.4141248533895
 30
0.0
 10
93.91226939926498
 20
-152.5453829913775
 30
0.0
 10
93.80650496786783
 20
-152.6108398055973
 30
0.0
 10
93.80650496786783
 20
-152.6108398055973
 30
0.0
 10
93.63287215541124
 20
-152.4713134384446
 30
0.0
 10
93.63287215541124
 20
-152.4713134384446
 30
0.0
 10
93.72175561893067
 20
-152.4206705348115
 30
0.0
 10
93.86558835543985
 20
-152.3338541285832
 30
0.0
 10
94.0032199200756
 20
-152.1392062336666
 30
0.0
 10
94.09417044088618
 20
-152.0124267198094
 30
0.0
 10
94.15979950988019
 20
-151.8684217285259
 30
0.0
 10
94.19356144563563
 20
-151.7161485080779
 30
0.0
 10
93.96515161496358
 20
-151.718215565369
 30
0.0
 10
93.78531763063355
 20
-151.724761246791
 30
0.0
 10
93.69006074046637
 20
-151.7268283040821
 30
0.0
 10
93.69006074046637
 20
-151.7268283040821
 30
0.0
 10
93.69006074046637
 20
-151.5490613770433
 30
0.0
 10
93.69006074046637
 20
-151.5490613770433
 30
0.0
 10
93.88677569267414
 20
-151.5552625489167
 30
0.0
 10
94.1703070511102
 20
-151.5597411730476
 30
0.0
 10
94.3205132142671
 20
-151.5597411730476
 30
0.0
 10
94.3205132142671
 20
-151.5597411730476
 30
0.0
 10
94.53410913435259
 20
-151.5597411730476
 30
0.0
 10
94.53410913435259
 20
-151.5597411730476
 30
0.0
 10
94.53410913435259
 20
-151.5597411730476
 30
0.0
 10
94.53410913435259
 20
-151.4515651748107
 30
0.0
 10
94.53410913435259
 20
-151.4515651748107
 30
0.0
 10
94.53410913435259
 20
-151.4515651748107
 30
0.0
 10
94.38820934055225
 20
-151.4515651748107
 30
0.0
 10
94.38820934055225
 20
-151.4515651748107
 30
0.0
 10
94.21888289745224
 20
-151.4515651748107
 30
0.0
 10
94.04972870912645
 20
-151.4560437989415
 30
0.0
 10
93.88264157809185
 20
-151.462244970815
 30
0.0
 10
93.88264157809185
 20
-151.462244970815
 30
0.0
 10
93.88264157809185
 20
-151.291023725198
 30
0.0
 10
93.88264157809185
 20
-151.291023725198
 30
0.0
 10
94.03698185583102
 20
-151.3013590116538
 30
0.0
 10
94.22318926680878
 20
-151.3013590116538
 30
0.0
 10
94.38820934055225
 20
-151.3013590116538
 30
0.0
 10
94.38820934055225
 20
-151.3013590116538
 30
0.0
 10
94.53410913435259
 20
-151.3013590116538
 30
0.0
 10
94.53410913435259
 20
-151.3013590116538
 30
0.0
 10
94.53410913435259
 20
-151.3013590116538
 30
0.0
 10
94.53410913435259
 20
-151.1831922365098
 30
0.0
 10
94.53410913435259
 20
-151.1831922365098
 30
0.0
 10
94.53410913435259
 20
-151.1831922365098
 30
0.0
 10
94.40302325113883
 20
-151.1831922365098
 30
0.0
 10
94.40302325113883
 20
-151.1831922365098
 30
0.0
 10
94.35651446208796
 20
-151.1831922365098
 30
0.0
 10
94.15342608323248
 20
-151.1914604656744
 30
0.0
 10
94.11105140876392
 20
-151.1914604656744
 30
0.0
 10
93.90796302990843
 20
-151.1955945802566
 30
0.0
 10
93.8318264196844
 20
-151.1976616375478
 30
0.0
 10
93.75362275216923
 20
-151.2000732043875
 30
0.0
 10
93.75362275216923
 20
-151.2000732043875
 30
0.0
 10
93.75362275216923
 20
-151.0157605959266
 30
0.0
 10
93.75362275216923
 20
-151.0157605959266
 30
0.0
 10
93.86782766750526
 20
-151.0243733346397
 30
0.0
 10
93.91226939926498
 20
-151.0243733346397
 30
0.0
 10
94.29519176245051
 20
-151.0329860733528
 30
0.0
 10
94.23162975074765
 20
-150.9375569284114
 30
0.0
 10
94.20406898686565
 20
-150.9099961645294
 30
0.0
 10
94.16823999381906
 20
-150.8741671714829
 30
0.0
 10
94.16823999381906
 20
-150.8741671714829
 30
0.0
 10
94.34376760879253
 20
-150.7914848798368
 30
0.0
 10
94.34376760879253
 20
-150.7914848798368
 30
0.0
 10
94.38390297119569
 20
-150.827658382432
 30
0.0
 10
94.42834470295542
 20
-150.8700330569005
 30
0.0
 10
94.50241425588828
 20
-150.97993160288
 30
0.0
 10
94.50241425588828
 20
-150.97993160288
 30
0.0
 10
94.38820934055225
 20
-151.035053130644
 30
0.0
 10
94.38820934055225
 20
-151.035053130644
 30
0.0
 10
94.38820934055225
 20
-151.035053130644
 30
0.0
 10
94.39871688178227
 20
-151.035053130644
 30
0.0
 10
94.39871688178227
 20
-151.035053130644
 30
0.0
 10
94.39871688178227
 20
-151.035053130644
 30
0.0
 10
94.92133786689468
 20
-151.035053130644
 30
0.0
 10
94.92133786689468
 20
-151.035053130644
 30
0.0
 10
94.92133786689468
 20
-151.035053130644
 30
0.0
 10
94.8260809767275
 20
-150.9906113988843
 30
0.0
 10
94.8260809767275
 20
-150.9906113988843
 30
0.0
 10
94.85364174060951
 20
-150.952370838998
 30
0.0
 10
94.91065807089039
 20
-150.8721001141917
 30
0.0
 10
94.92547198147697
 20
-150.7980305612588
 30
0.0
 10
94.92547198147697
 20
-150.7980305612588
 30
0.0
 10
95.13924015633673
 20
-150.8614203181874
 30
0.0
 10
95.13924015633673
 20
-150.8614203181874
 30
0.0
 10
95.14768064027558
 20
-150.8634873754785
 30
0.0
 10
95.16886797750988
 20
-150.8741671714829
 30
0.0
 10
95.16886797750988
 20
-150.8951822539429
 30
0.0
 10
95.16886797750988
 20
-150.9334228138291
 30
0.0
 10
95.10323890851585
 20
-150.9334228138291
 30
0.0
 10
95.08411862857272
 20
-150.9334228138291
 30
0.0
 10
95.0736110873427
 20
-150.952370838998
 30
0.0
 10
95.05035669281728
 20
-150.9926784561754
 30
0.0
 10
95.02072887164413
 20
-151.0329860733528
 30
0.0
 10
95.42053220270737
 20
-151.0264403919309
 30
0.0
 10
95.45016002388051
 20
-151.0243733346397
 30
0.0
 10
95.52629663410455
 20
-151.0181721627663
 30
0.0
 10
95.52629663410455
 20
-151.0181721627663
 30
0.0
 10
95.52629663410455
 20
-151.2000732043875
 30
0.0
 10
95.52629663410455
 20
-151.2000732043875
 30
0.0
 10
95.50734860893568
 20
-151.2000732043875
 30
0.0
 10
95.48185490234482
 20
-151.1976616375478
 30
0.0
 10
95.2618855556116
 20
-151.1893934083832
 30
0.0
 10
95.21107039720417
 20
-151.187326351092
 30
0.0
 10
94.99110105047098
 20
-151.1831922365098
 30
0.0
 10
94.94665931871125
 20
-151.1831922365098
 30
0.0
 10
94.94665931871125
 20
-151.1831922365098
 30
0.0
 10
94.73082408656036
 20
-151.1831922365098
 30
0.0
 10
94.73082408656036
 20
-151.1831922365098
 30
0.0
 10
94.73082408656036
 20
-151.1831922365098
 30
0.0
 10
94.73082408656036
 20
-151.3013590116538
 30
0.0
 10
94.73082408656036
 20
-151.3013590116538
 30
0.0
 10
94.73082408656036
 20
-151.3013590116538
 30
0.0
 10
94.90428464424267
 20
-151.3013590116538
 30
0.0
 10
94.90428464424267
 20
-151.3013590116538
 30
0.0
 10
95.067237660695
 20
-151.3013590116538
 30
0.0
 10
95.25757918625506
 20
-151.3013590116538
 30
0.0
 10
95.41415877605967
 20
-151.291023725198
 30
0.0
 10
95.41415877605967
 20
-151.291023725198
 30
0.0
 10
95.41415877605967
 20
-151.462244970815
 30
0.0
 10
95.41415877605967
 20
-151.462244970815
 30
0.0
 10
95.20469697055647
 20
-151.4539767416504
 30
0.0
 10
95.0079820183487
 20
-151.4515651748107
 30
0.0
 10
94.90428464424267
 20
-151.4515651748107
 30
0.0
 10
94.90428464424267
 20
-151.4515651748107
 30
0.0
 10
94.73082408656036
 20
-151.4515651748107
 30
0.0
 10
94.73082408656036
 20
-151.4515651748107
 30
0.0
 10
94.73082408656036
 20
-151.4515651748107
 30
0.0
 10
94.73082408656036
 20
-151.5597411730476
 30
0.0
 10
94.73082408656036
 20
-151.5597411730476
 30
0.0
 10
94.73082408656036
 20
-151.5597411730476
 30
0.0
 10
94.96147322929784
 20
-151.5597411730476
 30
0.0
 10
94.96147322929784
 20
-151.5597411730476
 30
0.0
 10
95.09479842457698
 20
-151.5597411730476
 30
0.0
 10
95.38246389759535
 20
-151.5552625489167
 30
0.0
 10
95.59192570309855
 20
-151.5490613770433
 30
0.0
 10
95.59192570309855
 20
-151.5490613770433
 30
0.0
 10
95.59192570309855
 20
-151.7268283040821
 30
0.0
 10
95.59192570309855
 20
-151.7268283040821
 30
0.0
 10
95.39934486547307
 20
-151.7202826226602
 30
0.0
 10
95.08635794063813
 20
-151.7161485080779
 30
0.0
 10
94.96147322929784
 20
-151.7161485080779
 30
0.0
  0
HATCH
  5
F5
330
E9
100
AcDbEntity
  8
レイヤー 1
 62
    18
420
        0
440
 33554687
100
AcDbHatch
 10
0.0
 20
0.0
 30
0.0
210
0.0
220
0.0
230
1.0
  2
SOLID
 70
     1
 71
     1
 91
        4
 92
        1
 93
        1
 72
     4
 94
        3
 73
     0
 74
     0
 95
       17
 96
       13
 40
0.0
 40
0.0
 40
0.0
 40
0.0
 40
1.0
 40
1.0
 40
1.0
 40
2.0
 40
2.0
 40
2.0
 40
3.0
 40
3.0
 40
3.0
 40
4.0
 40
4.0
 40
4.0
 40
4.0
 10
95.1264933030413
 20
-152.4482312986935
 10
95.1264933030413
 20
-152.4482312986935
 10
94.41990421901655
 20
-152.4482312986935
 10
94.41990421901655
 20
-152.4482312986935
 10
94.41990421901655
 20
-152.4482312986935
 10
94.41990421901655
 20
-152.5622639592552
 10
94.41990421901655
 20
-152.5622639592552
 10
94.41990421901655
 20
-152.5622639592552
 10
95.1264933030413
 20
-152.5622639592552
 10
95.1264933030413
 20
-152.5622639592552
 10
95.1264933030413
 20
-152.5622639592552
 10
95.1264933030413
 20
-152.4482312986935
 10
95.1264933030413
 20
-152.4482312986935
 97
        0
 97
        1
330
F1
 92
        1
 93
        1
 72
     4
 94
        3
 73
     0
 74
     0
 95
       17
 96
       13
 40
0.0
 40
0.0
 40
0.0
 40
0.0
 40
1.0
 40
1.0
 40
1.0
 40
2.0
 40
2.0
 40
2.0
 40
3.0
 40
3.0
 40
3.0
 40
4.0
 40
4.0
 40
4.0
 40
4.0
 10
95.1264933030413
 20
-152.2046630478863
 10
95.1264933030413
 20
-152.2046630478863
 10
94.41990421901655
 20
-152.2046630478863
 10
94.41990421901655
 20
-152.2046630478863
 10
94.41990421901655
 20
-152.2046630478863
 10
94.41990421901655
 20
-152.3190402179966
 10
94.41990421901655
 20
-152.3190402179966
 10
94.41990421901655
 20
-152.3190402179966
 10
95.1264933030413
 20
-152.3190402179966
 10
95.1264933030413
 20
-152.3190402179966
 10
95.1264933030413
 20
-152.3190402179966
 10
95.1264933030413
 20
-152.2046630478863
 10
95.1264933030413
 20
-152.2046630478863
 97
        0
 97
        1
330
F2
 92
        1
 93
        1
 72
     4
 94
        3
 73
     0
 74
     0
 95
       17
 96
       13
 40
0.0
 40
0.0
 40
0.0
 40
0.0
 40
1.0
 40
1.0
 40
1.0
 40
2.0
 40
2.0
 40
2.0
 40
3.0
 40
3.0
 40
3.0
 40
4.0
 40
4.0
 40
4.0
 40
4.0
 10
95.1264933030413
 20
-151.9721191026319
 10
95.1264933030413
 20
-151.9721191026319
 10
94.41990421901655
 20
-151.9721191026319
 10
94.41990421901655
 20
-151.9721191026319
 10
94.41990421901655
 20
-151.9721191026319
 10
94.41990421901655
 20
-152.0799505913203
 10
94.41990421901655
 20
-152.0799505913203
 10
94.41990421901655
 20
-152.0799505913203
 10
95.1264933030413
 20
-152.0799505913203
 10
95.1264933030413
 20
-152.0799505913203
 10
95.1264933030413
 20
-152.0799505913203
 10
95.1264933030413
 20
-151.9721191026319
 10
95.1264933030413
 20
-151.9721191026319
 97
        0
 97
        1
330
F3
 92
        1
 93
        1
 72
     4
 94
        3
 73
     0
 74
     0
 95
      203
 96
      199
 40
0.0
 40
0.0
 40
0.0
 40
0.0
 40
1.0
 40
1.0
 40
1.0
 40
2.0
 40
2.0
 40
2.0
 40
3.0
 40
3.0
 40
3.0
 40
4.0
 40
4.0
 40
4.0
 40
5.0
 40
5.0
 40
5.0
 40
6.0
 40
6.0
 40
6.0
 40
7.0
 40
7.0
 40
7.0
 40
8.0
 40
8.0
 40
8.0
 40
9.0
 40
9.0
 40
9.0
 40
10.0
 40
10.0
 40
10.0
 40
11.0
 40
11.0
 40
11.0
 40
12.0
 40
12.0
 40
12.0
 40
13.0
 40
13.0
 40
13.0
 40
14.0
 40
14.0
 40
14.0
 40
15.0
 40
15.0
 40
15.0
 40
16.0
 40
16.0
 40
16.0
 40
17.0
 40
17.0
 40
17.0
 40
18.0
 40
18.0
 40
18.0
 40
19.0
 40
19.0
 40
19.0
 40
20.0
 40
20.0
 40
20.0
 40
21.0
 40
21.0
 40
21.0
 40
22.0
 40
22.0
 40
22.0
 40
23.0
 40
23.0
 40
23.0
 40
24.0
 40
24.0
 40
24.0
 40
25.0
 40
25.0
 40
25.0
 40
26.0
 40
26.0
 40
26.0
 40
27.0
 40
27.0
 40
27.0
 40
28.0
 40
28.0
 40
28.0
 40
29.0
 40
29.0
 40
29.0
 40
30.0
 40
30.0
 40
30.0
 40
31.0
 40
31.0
 40
31.0
 40
32.0
 40
32.0
 40
32.0
 40
33.0
 40
33.0
 40
33.0
 40
34.0
 40
34.0
 40
34.0
 40
35.0
 40
35.0
 40
35.0
 40
36.0
 40
36.0
 40
36.0
 40
37.0
 40
37.0
 40
37.0
 40
38.0
 40
38.0
 40
38.0
 40
39.0
 40
39.0
 40
39.0
 40
40.0
 40
40.0
 40
40.0
 40
41.0
 40
41.0
 40
41.0
 40
42.0
 40
42.0
 40
42.0
 40
43.0
 40
43.0
 40
43.0
 40
44.0
 40
44.0
 40
44.0
 40
45.0
 40
45.0
 40
45.0
 40
46.0
 40
46.0
 40
46.0
 40
47.0
 40
47.0
 40
47.0
 40
48.0
 40
48.0
 40
48.0
 40
49.0
 40
49.0
 40
49.0
 40
50.0
 40
50.0
 40
50.0
 40
51.0
 40
51.0
 40
51.0
 40
52.0
 40
52.0
 40
52.0
 40
53.0
 40
53.0
 40
53.0
 40
54.0
 40
54.0
 40
54.0
 40
55.0
 40
55.0
 40
55.0
 40
56.0
 40
56.0
 40
56.0
 40
57.0
 40
57.0
 40
57.0
 40
58.0
 40
58.0
 40
58.0
 40
59.0
 40
59.0
 40
59.0
 40
60.0
 40
60.0
 40
60.0
 40
61.0
 40
61.0
 40
61.0
 40
62.0
 40
62.0
 40
62.0
 40
63.0
 40
63.0
 40
63.0
 40
64.0
 40
64.0
 40
64.0
 40
65.0
 40
65.0
 40
65.0
 40
66.0
 40
66.0
 40
66.0
 40
66.0
 10
94.96147322929784
 20
-151.7161485080779
 10
94.96147322929784
 20
-151.7161485080779
 10
94.40302325113883
 20
-151.7161485080779
 10
94.40302325113883
 20
-151.7161485080779
 10
94.39234345513455
 20
-151.7605902398376
 10
94.38390297119569
 20
-151.7922851183019
 10
94.37132837267453
 20
-151.8305256781882
 10
94.39664982449112
 20
-151.8305256781882
 10
94.41146373507768
 20
-151.8325927354793
 10
94.4178371617254
 20
-151.8325927354793
 10
94.4178371617254
 20
-151.8325927354793
 10
94.60611162999432
 20
-151.8325927354793
 10
94.60611162999432
 20
-151.8325927354793
 10
94.60611162999432
 20
-151.8325927354793
 10
94.98059350924096
 20
-151.8325927354793
 10
94.98059350924096
 20
-151.8325927354793
 10
95.03123641287414
 20
-151.8325927354793
 10
95.3147677713102
 20
-151.8198458821839
 10
95.3464626497745
 20
-151.8198458821839
 10
95.34439559248335
 20
-151.8474066460659
 10
95.34232853519219
 20
-151.8663546712348
 10
95.34232853519219
 20
-151.8959824924079
 10
95.34008922312677
 20
-151.9276773708722
 10
95.34008922312677
 20
-152.0630696234426
 10
95.34008922312677
 20
-152.0906303873245
 10
95.34008922312677
 20
-152.0906303873245
 10
95.34008922312677
 20
-152.3359211858743
 10
95.34008922312677
 20
-152.3359211858743
 10
95.34008922312677
 20
-152.3803629176341
 10
95.34439559248335
 20
-152.5770778698418
 10
95.34870196183991
 20
-152.7293510902899
 10
95.34870196183991
 20
-152.7293510902899
 10
95.12218693368472
 20
-152.7293510902899
 10
95.12218693368472
 20
-152.7293510902899
 10
95.12218693368472
 20
-152.7293510902899
 10
95.12442624575013
 20
-152.6955891545344
 10
95.12442624575013
 20
-152.6955891545344
 10
95.12442624575013
 20
-152.6955891545344
 10
94.4219712763077
 20
-152.6955891545344
 10
94.4219712763077
 20
-152.6955891545344
 10
94.4219712763077
 20
-152.6955891545344
 10
94.42421058837311
 20
-152.7293510902899
 10
94.42421058837311
 20
-152.7293510902899
 10
94.42421058837311
 20
-152.7293510902899
 10
94.20630829893106
 20
-152.7293510902899
 10
94.20630829893106
 20
-152.7293510902899
 10
94.21044241351337
 20
-152.6745740720744
 10
94.21044241351337
 20
-152.661827218779
 10
94.21681584016107
 20
-152.5474500486687
 10
94.21888289745224
 20
-152.5198892847867
 10
94.22112220951765
 20
-152.386908599056
 10
94.22112220951765
 20
-152.3676160643386
 10
94.22112220951765
 20
-152.3676160643386
 10
94.22112220951765
 20
-152.1646999402574
 10
94.22112220951765
 20
-152.1646999402574
 10
94.08142358759077
 20
-152.4141248533895
 10
93.91226939926498
 20
-152.5453829913775
 10
93.80650496786783
 20
-152.6108398055973
 10
93.80650496786783
 20
-152.6108398055973
 10
93.63287215541124
 20
-152.4713134384446
 10
93.63287215541124
 20
-152.4713134384446
 10
93.72175561893067
 20
-152.4206705348115
 10
93.86558835543985
 20
-152.3338541285832
 10
94.0032199200756
 20
-152.1392062336666
 10
94.09417044088618
 20
-152.0124267198094
 10
94.15979950988019
 20
-151.8684217285259
 10
94.19356144563563
 20
-151.7161485080779
 10
93.96515161496358
 20
-151.718215565369
 10
93.78531763063355
 20
-151.724761246791
 10
93.69006074046637
 20
-151.7268283040821
 10
93.69006074046637
 20
-151.7268283040821
 10
93.69006074046637
 20
-151.5490613770433
 10
93.69006074046637
 20
-151.5490613770433
 10
93.88677569267414
 20
-151.5552625489167
 10
94.1703070511102
 20
-151.5597411730476
 10
94.3205132142671
 20
-151.5597411730476
 10
94.3205132142671
 20
-151.5597411730476
 10
94.53410913435259
 20
-151.5597411730476
 10
94.53410913435259
 20
-151.5597411730476
 10
94.53410913435259
 20
-151.5597411730476
 10
94.53410913435259
 20
-151.4515651748107
 10
94.53410913435259
 20
-151.4515651748107
 10
94.53410913435259
 20
-151.4515651748107
 10
94.38820934055225
 20
-151.4515651748107
 10
94.38820934055225
 20
-151.4515651748107
 10
94.21888289745224
 20
-151.4515651748107
 10
94.04972870912645
 20
-151.4560437989415
 10
93.88264157809185
 20
-151.462244970815
 10
93.88264157809185
 20
-151.462244970815
 10
93.88264157809185
 20
-151.291023725198
 10
93.88264157809185
 20
-151.291023725198
 10
94.03698185583102
 20
-151.3013590116538
 10
94.22318926680878
 20
-151.3013590116538
 10
94.38820934055225
 20
-151.3013590116538
 10
94.38820934055225
 20
-151.3013590116538
 10
94.53410913435259
 20
-151.3013590116538
 10
94.53410913435259
 20
-151.3013590116538
 10
94.53410913435259
 20
-151.3013590116538
 10
94.53410913435259
 20
-151.1831922365098
 10
94.53410913435259
 20
-151.1831922365098
 10
94.53410913435259
 20
-151.1831922365098
 10
94.40302325113883
 20
-151.1831922365098
 10
94.40302325113883
 20
-151.1831922365098
 10
94.35651446208796
 20
-151.1831922365098
 10
94.15342608323248
 20
-151.1914604656744
 10
94.11105140876392
 20
-151.1914604656744
 10
93.90796302990843
 20
-151.1955945802566
 10
93.8318264196844
 20
-151.1976616375478
 10
93.75362275216923
 20
-151.2000732043875
 10
93.75362275216923
 20
-151.2000732043875
 10
93.75362275216923
 20
-151.0157605959266
 10
93.75362275216923
 20
-151.0157605959266
 10
93.86782766750526
 20
-151.0243733346397
 10
93.91226939926498
 20
-151.0243733346397
 10
94.29519176245051
 20
-151.0329860733528
 10
94.23162975074765
 20
-150.9375569284114
 10
94.20406898686565
 20
-150.9099961645294
 10
94.16823999381906
 20
-150.8741671714829
 10
94.16823999381906
 20
-150.8741671714829
 10
94.34376760879253
 20
-150.7914848798368
 10
94.34376760879253
 20
-150.7914848798368
 10
94.38390297119569
 20
-150.827658382432
 10
94.42834470295542
 20
-150.8700330569005
 10
94.50241425588828
 20
-150.97993160288
 10
94.50241425588828
 20
-150.97993160288
 10
94.38820934055225
 20
-151.035053130644
 10
94.38820934055225
 20
-151.035053130644
 10
94.38820934055225
 20
-151.035053130644
 10
94.39871688178227
 20
-151.035053130644
 10
94.39871688178227
 20
-151.035053130644
 10
94.39871688178227
 20
-151.035053130644
 10
94.92133786689468
 20
-151.035053130644
 10
94.92133786689468
 20
-151.035053130644
 10
94.92133786689468
 20
-151.035053130644
 10
94.8260809767275
 20
-150.9906113988843
 10
94.8260809767275
 20
-150.9906113988843
 10
94.85364174060951
 20
-150.952370838998
 10
94.91065807089039
 20
-150.8721001141917
 10
94.92547198147697
 20
-150.7980305612588
 10
94.92547198147697
 20
-150.7980305612588
 10
95.13924015633673
 20
-150.8614203181874
 10
95.13924015633673
 20
-150.8614203181874
 10
95.14768064027558
 20
-150.8634873754785
 10
95.16886797750988
 20
-150.8741671714829
 10
95.16886797750988
 20
-150.8951822539429
 10
95.16886797750988
 20
-150.9334228138291
 10
95.10323890851585
 20
-150.9334228138291
 10
95.08411862857272
 20
-150.9334228138291
 10
95.0736110873427
 20
-150.952370838998
 10
95.05035669281728
 20
-150.9926784561754
 10
95.02072887164413
 20
-151.0329860733528
 10
95.42053220270737
 20
-151.0264403919309
 10
95.45016002388051
 20
-151.0243733346397
 10
95.52629663410455
 20
-151.0181721627663
 10
95.52629663410455
 20
-151.0181721627663
 10
95.52629663410455
 20
-151.2000732043875
 10
95.52629663410455
 20
-151.2000732043875
 10
95.50734860893568
 20
-151.2000732043875
 10
95.48185490234482
 20
-151.1976616375478
 10
95.2618855556116
 20
-151.1893934083832
 10
95.21107039720417
 20
-151.187326351092
 10
94.99110105047098
 20
-151.1831922365098
 10
94.94665931871125
 20
-151.1831922365098
 10
94.94665931871125
 20
-151.1831922365098
 10
94.73082408656036
 20
-151.1831922365098
 10
94.73082408656036
 20
-151.1831922365098
 10
94.73082408656036
 20
-151.1831922365098
 10
94.73082408656036
 20
-151.3013590116538
 10
94.73082408656036
 20
-151.3013590116538
 10
94.73082408656036
 20
-151.3013590116538
 10
94.90428464424267
 20
-151.3013590116538
 10
94.90428464424267
 20
-151.3013590116538
 10
95.067237660695
 20
-151.3013590116538
 10
95.25757918625506
 20
-151.3013590116538
 10
95.41415877605967
 20
-151.291023725198
 10
95.41415877605967
 20
-151.291023725198
 10
95.41415877605967
 20
-151.462244970815
 10
95.41415877605967
 20
-151.462244970815
 10
95.20469697055647
 20
-151.4539767416504
 10
95.0079820183487
 20
-151.4515651748107
 10
94.90428464424267
 20
-151.4515651748107
 10
94.90428464424267
 20
-151.4515651748107
 10
94.73082408656036
 20
-151.4515651748107
 10
94.73082408656036
 20
-151.4515651748107
 10
94.73082408656036
 20
-151.4515651748107
 10
94.73082408656036
 20
-151.5597411730476
 10
94.73082408656036
 20
-151.5597411730476
 10
94.73082408656036
 20
-151.5597411730476
 10
94.96147322929784
 20
-151.5597411730476
 10
94.96147322929784
 20
-151.5597411730476
 10
95.09479842457698
 20
-151.5597411730476
 10
95.38246389759535
 20
-151.5552625489167
 10
95.59192570309855
 20
-151.5490613770433
 10
95.59192570309855
 20
-151.5490613770433
 10
95.59192570309855
 20
-151.7268283040821
 10
95.59192570309855
 20
-151.7268283040821
 10
95.39934486547307
 20
-151.7202826226602
 10
95.08635794063813
 20
-151.7161485080779
 10
94.96147322929784
 20
-151.7161485080779
 97
        0
 97
        1
330
F4
 75
     2
 76
     1
 98
        1
 10
0.0
 20
0.0
450
        0
451
        0
460
0.0
461
0.0
452
        0
462
0.0
453
        0
470

  0
SPLINE
  5
F6
330
E9
100
AcDbEntity
  8
レイヤー 1
100
AcDbSpline
210
0.0
220
0.0
230
1.0
 70
     9
 71
     3
 72
    29
 73
    25
 74
     0
 42
0.0000000001
 43
0.0000000001
 40
0.0
 40
0.0
 40
0.0
 40
0.0
 40
1.0
 40
1.0
 40
1.0
 40
2.0
 40
2.0
 40
2.0
 40
3.0
 40
3.0
 40
3.0
 40
4.0
 40
4.0
 40
4.0
 40
5.0
 40
5.0
 40
5.0
 40
6.0
 40
6.0
 40
6.0
 40
7.0
 40
7.0
 40
7.0
 40
8.0
 40
8.0
 40
8.0
 40
8.0
 10
96.83698321146785
 20
-151.1638997017923
 30
0.0
 10
96.83698321146785
 20
-151.1638997017923
 30
0.0
 10
96.48368866945547
 20
-151.1638997017923
 30
0.0
 10
96.48368866945547
 20
-151.1638997017923
 30
0.0
 10
96.3715508114106
 20
-151.1638997017923
 30
0.0
 10
96.23202444425798
 20
-151.1704453832143
 30
0.0
 10
96.12402070079539
 20
-151.1831922365098
 30
0.0
 10
96.12402070079539
 20
-151.1831922365098
 30
0.0
 10
96.12402070079539
 20
-150.9482367244157
 30
0.0
 10
96.12402070079539
 20
-150.9482367244157
 30
0.0
 10
96.242531985488
 20
-150.9630506350023
 30
0.0
 10
96.42650008440032
 20
-150.9671847495846
 30
0.0
 10
96.48368866945547
 20
-150.9671847495846
 30
0.0
 10
96.48368866945547
 20
-150.9671847495846
 30
0.0
 10
96.83698321146785
 20
-150.9671847495846
 30
0.0
 10
96.83698321146785
 20
-150.9671847495846
 30
0.0
 10
96.85593123663672
 20
-150.9671847495846
 30
0.0
 10
97.05919187026646
 20
-150.9671847495846
 30
0.0
 10
97.20078529471024
 20
-150.9482367244157
 30
0.0
 10
97.20078529471024
 20
-150.9482367244157
 30
0.0
 10
97.20078529471024
 20
-151.1831922365098
 30
0.0
 10
97.20078529471024
 20
-151.1831922365098
 30
0.0
 10
97.04437795967988
 20
-151.1638997017923
 30
0.0
 10
96.85386417934557
 20
-151.1638997017923
 30
0.0
 10
96.83698321146785
 20
-151.1638997017923
 30
0.0
  0
SPLINE
  5
F7
330
E9
100
AcDbEntity
  8
レイヤー 1
100
AcDbSpline
210
0.0
220
0.0
230
1.0
 70
     9
 71
     3
 72
    47
 73
    43
 74
     0
 42
0.0000000001
 43
0.0000000001
 40
0.0
 40
0.0
 40
0.0
 40
0.0
 40
1.0
 40
1.0
 40
1.0
 40
2.0
 40
2.0
 40
2.0
 40
3.0
 40
3.0
 40
3.0
 40
4.0
 40
4.0
 40
4.0
 40
5.0
 40
5.0
 40
5.0
 40
6.0
 40
6.0
 40
6.0
 40
7.0
 40
7.0
 40
7.0
 40
8.0
 40
8.0
 40
8.0
 40
9.0
 40
9.0
 40
9.0
 40
10.0
 40
10.0
 40
10.0
 40
11.0
 40
11.0
 40
11.0
 40
12.0
 40
12.0
 40
12.0
 40
13.0
 40
13.0
 40
13.0
 40
14.0
 40
14.0
 40
14.0
 40
14.0
 10
96.93844127350844
 20
-151.6927218587782
 30
0.0
 10
96.93844127350844
 20
-151.6927218587782
 30
0.0
 10
96.83698321146785
 20
-151.6927218587782
 30
0.0
 10
96.83698321146785
 20
-151.6927218587782
 30
0.0
 10
96.83698321146785
 20
-151.7795382650065
 30
0.0
 10
96.81579587423357
 20
-152.1688340548397
 30
0.0
 10
96.6190809220258
 20
-152.3889756563472
 30
0.0
 10
96.46680770157775
 20
-152.558129844673
 30
0.0
 10
96.25941295336572
 20
-152.6280652830235
 30
0.0
 10
96.17483585920282
 20
-152.655281537357
 30
0.0
 10
96.17483585920282
 20
-152.655281537357
 30
0.0
 10
95.9801879642862
 20
-152.4881944063224
 30
0.0
 10
95.9801879642862
 20
-152.4881944063224
 30
0.0
 10
96.0775119117445
 20
-152.4754475530269
 30
0.0
 10
96.25303952671799
 20
-152.4523654132758
 30
0.0
 10
96.44131399498689
 20
-152.2639186902326
 30
0.0
 10
96.51538354791977
 20
-152.1922607041394
 30
0.0
 10
96.6190809220258
 20
-152.0523898274383
 30
0.0
 10
96.6190809220258
 20
-151.6927218587782
 30
0.0
 10
96.6190809220258
 20
-151.6927218587782
 30
0.0
 10
96.38843177928832
 20
-151.6927218587782
 30
0.0
 10
96.38843177928832
 20
-151.6927218587782
 30
0.0
 10
96.20239662308483
 20
-151.6927218587782
 30
0.0
 10
96.01618921210707
 20
-151.697200482909
 30
0.0
 10
95.82998180112932
 20
-151.7120143934956
 30
0.0
 10
95.82998180112932
 20
-151.7120143934956
 30
0.0
 10
95.82998180112932
 20
-151.4918727919881
 30
0.0
 10
95.82998180112932
 20
-151.4918727919881
 30
0.0
 10
96.01825626939822
 20
-151.5066867025747
 30
0.0
 10
96.30385468512542
 20
-151.510820817157
 30
0.0
 10
96.38843177928832
 20
-151.510820817157
 30
0.0
 10
96.38843177928832
 20
-151.510820817157
 30
0.0
 10
96.93844127350844
 20
-151.510820817157
 30
0.0
 10
96.93844127350844
 20
-151.510820817157
 30
0.0
 10
96.95756155345158
 20
-151.510820817157
 30
0.0
 10
97.2748548476431
 20
-151.510820817157
 30
0.0
 10
97.50343693308941
 20
-151.4918727919881
 30
0.0
 10
97.50343693308941
 20
-151.4918727919881
 30
0.0
 10
97.50343693308941
 20
-151.7120143934956
 30
0.0
 10
97.50343693308941
 20
-151.7120143934956
 30
0.0
 10
97.31516246482051
 20
-151.697200482909
 30
0.0
 10
97.12671574177736
 20
-151.6927218587782
 30
0.0
 10
96.93844127350844
 20
-151.6927218587782
 30
0.0
  0
HATCH
  5
F8
330
E9
100
AcDbEntity
  8
レイヤー 1
 62
    18
420
        0
440
 33554687
100
AcDbHatch
 10
0.0
 20
0.0
 30
0.0
210
0.0
220
0.0
230
1.0
  2
SOLID
 70
     1
 71
     1
 91
        2
 92
        1
 93
        1
 72
     4
 94
        3
 73
     0
 74
     0
 95
       29
 96
       25
 40
0.0
 40
0.0
 40
0.0
 40
0.0
 40
1.0
 40
1.0
 40
1.0
 40
2.0
 40
2.0
 40
2.0
 40
3.0
 40
3.0
 40
3.0
 40
4.0
 40
4.0
 40
4.0
 40
5.0
 40
5.0
 40
5.0
 40
6.0
 40
6.0
 40
6.0
 40
7.0
 40
7.0
 40
7.0
 40
8.0
 40
8.0
 40
8.0
 40
8.0
 10
96.83698321146785
 20
-151.1638997017923
 10
96.83698321146785
 20
-151.1638997017923
 10
96.48368866945547
 20
-151.1638997017923
 10
96.48368866945547
 20
-151.1638997017923
 10
96.3715508114106
 20
-151.1638997017923
 10
96.23202444425798
 20
-151.1704453832143
 10
96.12402070079539
 20
-151.1831922365098
 10
96.12402070079539
 20
-151.1831922365098
 10
96.12402070079539
 20
-150.9482367244157
 10
96.12402070079539
 20
-150.9482367244157
 10
96.242531985488
 20
-150.9630506350023
 10
96.42650008440032
 20
-150.9671847495846
 10
96.48368866945547
 20
-150.9671847495846
 10
96.48368866945547
 20
-150.9671847495846
 10
96.83698321146785
 20
-150.9671847495846
 10
96.83698321146785
 20
-150.9671847495846
 10
96.85593123663672
 20
-150.9671847495846
 10
97.05919187026646
 20
-150.9671847495846
 10
97.20078529471024
 20
-150.9482367244157
 10
97.20078529471024
 20
-150.9482367244157
 10
97.20078529471024
 20
-151.1831922365098
 10
97.20078529471024
 20
-151.1831922365098
 10
97.04437795967988
 20
-151.1638997017923
 10
96.85386417934557
 20
-151.1638997017923
 10
96.83698321146785
 20
-151.1638997017923
 97
        0
 97
        1
330
F6
 92
        1
 93
        1
 72
     4
 94
        3
 73
     0
 74
     0
 95
       47
 96
       43
 40
0.0
 40
0.0
 40
0.0
 40
0.0
 40
1.0
 40
1.0
 40
1.0
 40
2.0
 40
2.0
 40
2.0
 40
3.0
 40
3.0
 40
3.0
 40
4.0
 40
4.0
 40
4.0
 40
5.0
 40
5.0
 40
5.0
 40
6.0
 40
6.0
 40
6.0
 40
7.0
 40
7.0
 40
7.0
 40
8.0
 40
8.0
 40
8.0
 40
9.0
 40
9.0
 40
9.0
 40
10.0
 40
10.0
 40
10.0
 40
11.0
 40
11.0
 40
11.0
 40
12.0
 40
12.0
 40
12.0
 40
13.0
 40
13.0
 40
13.0
 40
14.0
 40
14.0
 40
14.0
 40
14.0
 10
96.93844127350844
 20
-151.6927218587782
 10
96.93844127350844
 20
-151.6927218587782
 10
96.83698321146785
 20
-151.6927218587782
 10
96.83698321146785
 20
-151.6927218587782
 10
96.83698321146785
 20
-151.7795382650065
 10
96.81579587423357
 20
-152.1688340548397
 10
96.6190809220258
 20
-152.3889756563472
 10
96.46680770157775
 20
-152.558129844673
 10
96.25941295336572
 20
-152.6280652830235
 10
96.17483585920282
 20
-152.655281537357
 10
96.17483585920282
 20
-152.655281537357
 10
95.9801879642862
 20
-152.4881944063224
 10
95.9801879642862
 20
-152.4881944063224
 10
96.0775119117445
 20
-152.4754475530269
 10
96.25303952671799
 20
-152.4523654132758
 10
96.44131399498689
 20
-152.2639186902326
 10
96.51538354791977
 20
-152.1922607041394
 10
96.6190809220258
 20
-152.0523898274383
 10
96.6190809220258
 20
-151.6927218587782
 10
96.6190809220258
 20
-151.6927218587782
 10
96.38843177928832
 20
-151.6927218587782
 10
96.38843177928832
 20
-151.6927218587782
 10
96.20239662308483
 20
-151.6927218587782
 10
96.01618921210707
 20
-151.697200482909
 10
95.82998180112932
 20
-151.7120143934956
 10
95.82998180112932
 20
-151.7120143934956
 10
95.82998180112932
 20
-151.4918727919881
 10
95.82998180112932
 20
-151.4918727919881
 10
96.01825626939822
 20
-151.5066867025747
 10
96.30385468512542
 20
-151.510820817157
 10
96.38843177928832
 20
-151.510820817157
 10
96.38843177928832
 20
-151.510820817157
 10
96.93844127350844
 20
-151.510820817157
 10
96.93844127350844
 20
-151.510820817157
 10
96.95756155345158
 20
-151.510820817157
 10
97.2748548476431
 20
-151.510820817157
 10
97.50343693308941
 20
-151.4918727919881
 10
97.50343693308941
 20
-151.4918727919881
 10
97.50343693308941
 20
-151.7120143934956
 10
97.50343693308941
 20
-151.7120143934956
 10
97.31516246482051
 20
-151.697200482909
 10
97.12671574177736
 20
-151.6927218587782
 10
96.93844127350844
 20
-151.6927218587782
 97
        0
 97
        1
330
F7
 75
     2
 76
     1
 98
        1
 10
0.0
 20
0.0
450
        0
451
        0
460
0.0
461
0.0
452
        0
462
0.0
453
        0
470

  0
SPLINE
  5
F9
330
E9
100
AcDbEntity
  8
レイヤー 1
100
AcDbSpline
210
0.0
220
0.0
230
1.0
 70
     9
 71
     3
 72
    29
 73
    25
 74
     0
 42
0.0000000001
 43
0.0000000001
 40
0.0
 40
0.0
 40
0.0
 40
0.0
 40
1.0
 40
1.0
 40
1.0
 40
2.0
 40
2.0
 40
2.0
 40
3.0
 40
3.0
 40
3.0
 40
4.0
 40
4.0
 40
4.0
 40
5.0
 40
5.0
 40
5.0
 40
6.0
 40
6.0
 40
6.0
 40
7.0
 40
7.0
 40
7.0
 40
8.0
 40
8.0
 40
8.0
 40
8.0
 10
98.78432343450532
 20
-151.8556748752305
 30
0.0
 10
98.78432343450532
 20
-151.8556748752305
 30
0.0
 10
98.2999430092792
 20
-151.8556748752305
 30
0.0
 10
98.2999430092792
 20
-151.8556748752305
 30
0.0
 10
98.27238224539719
 20
-151.8556748752305
 30
0.0
 10
97.95508895120569
 20
-151.8556748752305
 30
0.0
 10
97.74356008841134
 20
-151.8811685818214
 30
0.0
 10
97.74356008841134
 20
-151.8811685818214
 30
0.0
 10
97.74356008841134
 20
-151.6506916938581
 30
0.0
 10
97.74356008841134
 20
-151.6506916938581
 30
0.0
 10
97.9022067355071
 20
-151.6737738336093
 30
0.0
 10
98.09254826106716
 20
-151.6758408909005
 30
0.0
 10
98.2999430092792
 20
-151.6758408909005
 30
0.0
 10
98.2999430092792
 20
-151.6758408909005
 30
0.0
 10
98.78432343450532
 20
-151.6758408909005
 30
0.0
 10
98.78432343450532
 20
-151.6758408909005
 30
0.0
 10
98.97053084548307
 20
-151.6758408909005
 30
0.0
 10
99.15673825646083
 20
-151.6737738336093
 30
0.0
 10
99.34070635537317
 20
-151.6506916938581
 30
0.0
 10
99.34070635537317
 20
-151.6506916938581
 30
0.0
 10
99.34070635537317
 20
-151.8811685818214
 30
0.0
 10
99.34070635537317
 20
-151.8811685818214
 30
0.0
 10
99.15673825646083
 20
-151.8577419325217
 30
0.0
 10
98.90920814584562
 20
-151.8556748752305
 30
0.0
 10
98.78432343450532
 20
-151.8556748752305
 30
0.0
  0
HATCH
  5
FA
330
E9
100
AcDbEntity
  8
レイヤー 1
 62
    18
420
        0
440
 33554687
100
AcDbHatch
 10
0.0
 20
0.0
 30
0.0
210
0.0
220
0.0
230
1.0
  2
SOLID
 70
     1
 71
     1
 91
        1
 92
        1
 93
        1
 72
     4
 94
        3
 73
     0
 74
     0
 95
       29
 96
       25
 40
0.0
 40
0.0
 40
0.0
 40
0.0
 40
1.0
 40
1.0
 40
1.0
 40
2.0
 40
2.0
 40
2.0
 40
3.0
 40
3.0
 40
3.0
 40
4.0
 40
4.0
 40
4.0
 40
5.0
 40
5.0
 40
5.0
 40
6.0
 40
6.0
 40
6.0
 40
7.0
 40
7.0
 40
7.0
 40
8.0
 40
8.0
 40
8.0
 40
8.0
 10
98.78432343450532
 20
-151.8556748752305
 10
98.78432343450532
 20
-151.8556748752305
 10
98.2999430092792
 20
-151.8556748752305
 10
98.2999430092792
 20
-151.8556748752305
 10
98.27238224539719
 20
-151.8556748752305
 10
97.95508895120569
 20
-151.8556748752305
 10
97.74356008841134
 20
-151.8811685818214
 10
97.74356008841134
 20
-151.8811685818214
 10
97.74356008841134
 20
-151.6506916938581
 10
97.74356008841134
 20
-151.6506916938581
 10
97.9022067355071
 20
-151.6737738336093
 10
98.09254826106716
 20
-151.6758408909005
 10
98.2999430092792
 20
-151.6758408909005
 10
98.2999430092792
 20
-151.6758408909005
 10
98.78432343450532
 20
-151.6758408909005
 10
98.78432343450532
 20
-151.6758408909005
 10
98.97053084548307
 20
-151.6758408909005
 10
99.15673825646083
 20
-151.6737738336093
 10
99.34070635537317
 20
-151.6506916938581
 10
99.34070635537317
 20
-151.6506916938581
 10
99.34070635537317
 20
-151.8811685818214
 10
99.34070635537317
 20
-151.8811685818214
 10
99.15673825646083
 20
-151.8577419325217
 10
98.90920814584562
 20
-151.8556748752305
 10
98.78432343450532
 20
-151.8556748752305
 97
        0
 97
        1
330
F9
 75
     2
 76
     1
 98
        1
 10
0.0
 20
0.0
450
        0
451
        0
460
0.0
461
0.0
452
        0
462
0.0
453
        0
470

  0
SPLINE
  5
FB
330
E9
100
AcDbEntity
  8
レイヤー 1
100
AcDbSpline
210
0.0
220
0.0
230
1.0
 70
     9
 71
     3
 72
    47
 73
    43
 74
     0
 42
0.0000000001
 43
0.0000000001
 40
0.0
 40
0.0
 40
0.0
 40
0.0
 40
1.0
 40
1.0
 40
1.0
 40
2.0
 40
2.0
 40
2.0
 40
3.0
 40
3.0
 40
3.0
 40
4.0
 40
4.0
 40
4.0
 40
5.0
 40
5.0
 40
5.0
 40
6.0
 40
6.0
 40
6.0
 40
7.0
 40
7.0
 40
7.0
 40
8.0
 40
8.0
 40
8.0
 40
9.0
 40
9.0
 40
9.0
 40
10.0
 40
10.0
 40
10.0
 40
11.0
 40
11.0
 40
11.0
 40
12.0
 40
12.0
 40
12.0
 40
13.0
 40
13.0
 40
13.0
 40
14.0
 40
14.0
 40
14.0
 40
14.0
 10
101.0045152199745
 20
-151.2613959040249
 30
0.0
 10
100.934579781624
 20
-151.5404486383301
 30
0.0
 10
100.8584431714
 20
-151.8453395887747
 30
0.0
 10
100.545456246565
 20
-152.1774467935528
 30
0.0
 10
100.3084336771798
 20
-152.4268717066849
 30
0.0
 10
100.06314287863
 20
-152.5264349662086
 30
0.0
 10
99.95737844723288
 20
-152.5688096406772
 30
0.0
 10
99.95737844723288
 20
-152.5688096406772
 30
0.0
 10
99.76273055231628
 20
-152.386908599056
 30
0.0
 10
99.76273055231628
 20
-152.386908599056
 30
0.0
 10
99.94876570851976
 20
-152.3400553004566
 30
0.0
 10
100.3106729892452
 20
-152.2470377223549
 30
0.0
 10
100.6067789462025
 20
-151.7519775011245
 30
0.0
 10
100.7674926505893
 20
-151.4856716201147
 30
0.0
 10
100.7802395038848
 20
-151.3120388076581
 30
0.0
 10
100.7886799878237
 20
-151.2210882868475
 30
0.0
 10
100.7886799878237
 20
-151.2210882868475
 30
0.0
 10
100.2831122253632
 20
-151.2210882868475
 30
0.0
 10
100.2831122253632
 20
-151.2210882868475
 30
0.0
 10
100.1646009406707
 20
-151.2210882868475
 30
0.0
 10
99.74361027237314
 20
-151.2400363120164
 30
0.0
 10
99.59133705192508
 20
-151.2507161080207
 30
0.0
 10
99.59133705192508
 20
-151.2507161080207
 30
0.0
 10
99.59133705192508
 20
-151.0412543025174
 30
0.0
 10
99.59133705192508
 20
-151.0412543025174
 30
0.0
 10
99.73310273114313
 20
-151.0540011558129
 30
0.0
 10
100.0102606629315
 20
-151.0581352703951
 30
0.0
 10
100.1265326355586
 20
-151.0581352703951
 30
0.0
 10
100.1265326355586
 20
-151.0581352703951
 30
0.0
 10
100.4818942348622
 20
-151.0581352703951
 30
0.0
 10
100.4818942348622
 20
-151.0581352703951
 30
0.0
 10
100.5094549987441
 20
-151.0581352703951
 30
0.0
 10
100.6701687031311
 20
-151.056068213104
 30
0.0
 10
100.7802395038848
 20
-151.0412543025174
 30
0.0
 10
100.8374280889399
 20
-151.035053130644
 30
0.0
 10
100.8543090568177
 20
-151.0157605959266
 30
0.0
 10
100.8775634513431
 20
-150.9926784561754
 30
0.0
 10
100.8775634513431
 20
-150.9926784561754
 30
0.0
 10
101.065837919612
 20
-151.1428846193323
 30
0.0
 10
101.065837919612
 20
-151.1428846193323
 30
0.0
 10
101.0510240090254
 20
-151.1725124405055
 30
0.0
 10
101.0405164677954
 20
-151.1914604656744
 30
0.0
 10
101.0045152199745
 20
-151.2613959040249
 30
0.0
  0
HATCH
  5
FC
330
E9
100
AcDbEntity
  8
レイヤー 1
 62
    18
420
        0
440
 33554687
100
AcDbHatch
 10
0.0
 20
0.0
 30
0.0
210
0.0
220
0.0
230
1.0
  2
SOLID
 70
     1
 71
     1
 91
        1
 92
        1
 93
        1
 72
     4
 94
        3
 73
     0
 74
     0
 95
       47
 96
       43
 40
0.0
 40
0.0
 40
0.0
 40
0.0
 40
1.0
 40
1.0
 40
1.0
 40
2.0
 40
2.0
 40
2.0
 40
3.0
 40
3.0
 40
3.0
 40
4.0
 40
4.0
 40
4.0
 40
5.0
 40
5.0
 40
5.0
 40
6.0
 40
6.0
 40
6.0
 40
7.0
 40
7.0
 40
7.0
 40
8.0
 40
8.0
 40
8.0
 40
9.0
 40
9.0
 40
9.0
 40
10.0
 40
10.0
 40
10.0
 40
11.0
 40
11.0
 40
11.0
 40
12.0
 40
12.0
 40
12.0
 40
13.0
 40
13.0
 40
13.0
 40
14.0
 40
14.0
 40
14.0
 40
14.0
 10
101.0045152199745
 20
-151.2613959040249
 10
100.934579781624
 20
-151.5404486383301
 10
100.8584431714
 20
-151.8453395887747
 10
100.545456246565
 20
-152.1774467935528
 10
100.3084336771798
 20
-152.4268717066849
 10
100.06314287863
 20
-152.5264349662086
 10
99.95737844723288
 20
-152.5688096406772
 10
99.95737844723288
 20
-152.5688096406772
 10
99.76273055231628
 20
-152.386908599056
 10
99.76273055231628
 20
-152.386908599056
 10
99.94876570851976
 20
-152.3400553004566
 10
100.3106729892452
 20
-152.2470377223549
 10
100.6067789462025
 20
-151.7519775011245
 10
100.7674926505893
 20
-151.4856716201147
 10
100.7802395038848
 20
-151.3120388076581
 10
100.7886799878237
 20
-151.2210882868475
 10
100.7886799878237
 20
-151.2210882868475
 10
100.2831122253632
 20
-151.2210882868475
 10
100.2831122253632
 20
-151.2210882868475
 10
100.1646009406707
 20
-151.2210882868475
 10
99.74361027237314
 20
-151.2400363120164
 10
99.59133705192508
 20
-151.2507161080207
 10
99.59133705192508
 20
-151.2507161080207
 10
99.59133705192508
 20
-151.0412543025174
 10
99.59133705192508
 20
-151.0412543025174
 10
99.73310273114313
 20
-151.0540011558129
 10
100.0102606629315
 20
-151.0581352703951
 10
100.1265326355586
 20
-151.0581352703951
 10
100.1265326355586
 20
-151.0581352703951
 10
100.4818942348622
 20
-151.0581352703951
 10
100.4818942348622
 20
-151.0581352703951
 10
100.5094549987441
 20
-151.0581352703951
 10
100.6701687031311
 20
-151.056068213104
 10
100.7802395038848
 20
-151.0412543025174
 10
100.8374280889399
 20
-151.035053130644
 10
100.8543090568177
 20
-151.0157605959266
 10
100.8775634513431
 20
-150.9926784561754
 10
100.8775634513431
 20
-150.9926784561754
 10
101.065837919612
 20
-151.1428846193323
 10
101.065837919612
 20
-151.1428846193323
 10
101.0510240090254
 20
-151.1725124405055
 10
101.0405164677954
 20
-151.1914604656744
 10
101.0045152199745
 20
-151.2613959040249
 97
        0
 97
        1
330
FB
 75
     2
 76
     1
 98
        1
 10
0.0
 20
0.0
450
        0
451
        0
460
0.0
461
0.0
452
        0
462
0.0
453
        0
470

  0
SPLINE
  5
FD
330
E9
100
AcDbEntity
  8
レイヤー 1
100
AcDbSpline
210
0.0
220
0.0
230
1.0
 70
    11
 71
     3
 72
    17
 73
    13
 74
     0
 42
0.0000000001
 43
0.0000000001
 40
0.0
 40
0.0
 40
0.0
 40
0.0
 40
1.0
 40
1.0
 40
1.0
 40
2.0
 40
2.0
 40
2.0
 40
3.0
 40
3.0
 40
3.0
 40
4.0
 40
4.0
 40
4.0
 40
4.0
 10
101.3948445384533
 20
-151.0433213598086
 30
0.0
 10
101.3948445384533
 20
-151.1025770021549
 30
0.0
 10
101.4413533275042
 20
-151.1490857912058
 30
0.0
 10
101.5006089698505
 20
-151.1490857912058
 30
0.0
 10
101.5598646121968
 20
-151.1490857912058
 30
0.0
 10
101.6084404585388
 20
-151.1025770021549
 30
0.0
 10
101.6084404585388
 20
-151.0433213598086
 30
0.0
 10
101.6084404585388
 20
-150.9840657174623
 30
0.0
 10
101.5598646121968
 20
-150.9354898711203
 30
0.0
 10
101.5006089698505
 20
-150.9354898711203
 30
0.0
 10
101.4413533275042
 20
-150.9354898711203
 30
0.0
 10
101.3948445384533
 20
-150.9840657174623
 30
0.0
 10
101.3948445384533
 20
-151.0433213598086
 30
0.0
  0
SPLINE
  5
FE
330
E9
100
AcDbEntity
  8
レイヤー 1
100
AcDbSpline
210
0.0
220
0.0
230
1.0
 70
     9
 71
     3
 72
    17
 73
    13
 74
     0
 42
0.0000000001
 43
0.0000000001
 40
0.0
 40
0.0
 40
0.0
 40
0.0
 40
1.0
 40
1.0
 40
1.0
 40
2.0
 40
2.0
 40
2.0
 40
3.0
 40
3.0
 40
3.0
 40
4.0
 40
4.0
 40
4.0
 40
4.0
 10
101.7098985205795
 20
-151.0433213598086
 30
0.0
 10
101.7098985205795
 20
-151.1576985299189
 30
0.0
 10
101.6168809424777
 20
-151.2527831653118
 30
0.0
 10
101.5006089698505
 20
-151.2527831653118
 30
0.0
 10
101.3862317997402
 20
-151.2527831653118
 30
0.0
 10
101.2911471643473
 20
-151.1576985299189
 30
0.0
 10
101.2911471643473
 20
-151.0433213598086
 30
0.0
 10
101.2911471643473
 20
-150.9268771324071
 30
0.0
 10
101.3862317997402
 20
-150.8338595543054
 30
0.0
 10
101.5006089698505
 20
-150.8338595543054
 30
0.0
 10
101.6148138851866
 20
-150.8338595543054
 30
0.0
 10
101.7098985205795
 20
-150.9268771324071
 30
0.0
 10
101.7098985205795
 20
-151.0433213598086
 30
0.0
  0
HATCH
  5
FF
330
E9
100
AcDbEntity
  8
レイヤー 1
 62
    18
420
        0
440
 33554687
100
AcDbHatch
 10
0.0
 20
0.0
 30
0.0
210
0.0
220
0.0
230
1.0
  2
SOLID
 70
     1
 71
     1
 91
        2
 92
        1
 93
        1
 72
     4
 94
        3
 73
     0
 74
     0
 95
       17
 96
       13
 40
0.0
 40
0.0
 40
0.0
 40
0.0
 40
1.0
 40
1.0
 40
1.0
 40
2.0
 40
2.0
 40
2.0
 40
3.0
 40
3.0
 40
3.0
 40
4.0
 40
4.0
 40
4.0
 40
4.0
 10
101.3948445384533
 20
-151.0433213598086
 10
101.3948445384533
 20
-151.1025770021549
 10
101.4413533275042
 20
-151.1490857912058
 10
101.5006089698505
 20
-151.1490857912058
 10
101.5598646121968
 20
-151.1490857912058
 10
101.6084404585388
 20
-151.1025770021549
 10
101.6084404585388
 20
-151.0433213598086
 10
101.6084404585388
 20
-150.9840657174623
 10
101.5598646121968
 20
-150.9354898711203
 10
101.5006089698505
 20
-150.9354898711203
 10
101.4413533275042
 20
-150.9354898711203
 10
101.3948445384533
 20
-150.9840657174623
 10
101.3948445384533
 20
-151.0433213598086
 97
        0
 97
        1
330
FD
 92
        1
 93
        1
 72
     4
 94
        3
 73
     0
 74
     0
 95
       17
 96
       13
 40
0.0
 40
0.0
 40
0.0
 40
0.0
 40
1.0
 40
1.0
 40
1.0
 40
2.0
 40
2.0
 40
2.0
 40
3.0
 40
3.0
 40
3.0
 40
4.0
 40
4.0
 40
4.0
 40
4.0
 10
101.7098985205795
 20
-151.0433213598086
 10
101.7098985205795
 20
-151.1576985299189
 10
101.6168809424777
 20
-151.2527831653118
 10
101.5006089698505
 20
-151.2527831653118
 10
101.3862317997402
 20
-151.2527831653118
 10
101.2911471643473
 20
-151.1576985299189
 10
101.2911471643473
 20
-151.0433213598086
 10
101.2911471643473
 20
-150.9268771324071
 10
101.3862317997402
 20
-150.8338595543054
 10
101.5006089698505
 20
-150.8338595543054
 10
101.6148138851866
 20
-150.8338595543054
 10
101.7098985205795
 20
-150.9268771324071
 10
101.7098985205795
 20
-151.0433213598086
 97
        0
 97
        1
330
FE
 75
     2
 76
     1
 98
        1
 10
0.0
 20
0.0
450
        0
451
        0
460
0.0
461
0.0
452
        0
462
0.0
453
        0
470

  0
ENDBLK
  5
EC
330
E9
100
AcDbEntity
  8
0
100
AcDbBlockEnd
  0
ENDSEC
  0
SECTION
  2
ENTITIES
  0
INSERT
  5
7A
330
70
100
AcDbEntity
  8
レイヤー 1
100
AcDbBlockReference
  2
Block_0
 10
0.0
 20
0.0
 30
0.0
  0
LINE
  5
DC
330
70
100
AcDbEntity
  8
レイヤー 1
  6
AI-Linetype-0
 62
   154
420
    23468
370
    25
100
AcDbLine
 10
91.99596108092672
 20
-154.919882113732
 30
0.0
 11
101.9303183879758
 21
-154.919882113732
 31
0.0
  0
INSERT
  5
DF
330
70
100
AcDbEntity
  8
レイヤー 1
100
AcDbBlockReference
  2
Block_11
 10
0.0
 20
0.0
 30
0.0
  0
INSERT
  5
E6
330
70
100
AcDbEntity
  8
レイヤー 1
100
AcDbBlockReference
  2
Block_12
 10
0.0
 20
0.0
 30
0.0
  0
LWPOLYLINE
  5
100
330
70
100
AcDbEntity
  8
レイヤー 1
100
AcDbPolyline
 90
        4
 70
     1
 43
0.0
 10
120.5725640043366
 20
-155.0264493869543
 10
116.5725640053368
 20
-155.0264493869543
 10
116.5725640053368
 20
-154.5264493870798
 10
120.5725640043366
 20
-154.5264493870798
  0
HATCH
  5
101
330
70
100
AcDbEntity
  8
レイヤー 1
 62
   250
420
  2299925
440
 33554687
100
AcDbHatch
 10
0.0
 20
0.0
 30
0.0
210
0.0
220
0.0
230
1.0
  2
SOLID
 70
     1
 71
     1
 91
        1
 92
        1
 93
        4
 72
     1
 10
120.5725640043366
 20
-155.0264493869543
 11
116.5725640053368
 21
-155.0264493869543
 72
     1
 10
116.5725640053368
 20
-155.0264493869543
 11
116.5725640053368
 21
-154.5264493870798
 72
     1
 10
116.5725640053368
 20
-154.5264493870798
 11
120.5725640043366
 21
-154.5264493870798
 72
     1
 10
120.5725640043366
 20
-154.5264493870798
 11
120.5725640043366
 21
-155.0264493869543
 97
        1
330
100
 75
     2
 76
     1
 98
        1
 10
0.0
 20
0.0
450
        0
451
        0
460
0.0
461
0.0
452
        0
462
0.0
453
        0
470

  0
LWPOLYLINE
  5
102
330
70
100
AcDbEntity
  8
レイヤー 1
100
AcDbPolyline
 90
        4
 70
     1
 43
0.0
 10
120.5717331845552
 20
-154.552479546081
 10
120.5717331843755
 20
-158.5524795450814
 10
120.0717331845003
 20
-158.5524795450583
 10
120.07173318468
 20
-154.5524795460585
  0
HATCH
  5
103
330
70
100
AcDbEntity
  8
レイヤー 1
 62
   250
420
  2299925
440
 33554687
100
AcDbHatch
 10
0.0
 20
0.0
 30
0.0
210
0.0
220
0.0
230
1.0
  2
SOLID
 70
     1
 71
     1
 91
        1
 92
        1
 93
        4
 72
     1
 10
120.5717331845552
 20
-154.552479546081
 11
120.5717331843755
 21
-158.5524795450814
 72
     1
 10
120.5717331843755
 20
-158.5524795450814
 11
120.0717331845003
 21
-158.5524795450583
 72
     1
 10
120.0717331845003
 20
-158.5524795450583
 11
120.07173318468
 21
-154.5524795460585
 72
     1
 10
120.07173318468
 20
-154.5524795460585
 11
120.5717331845552
 21
-154.552479546081
 97
        1
330
102
 75
     2
 76
     1
 98
        1
 10
0.0
 20
0.0
450
        0
451
        0
460
0.0
461
0.0
452
        0
462
0.0
453
        0
470

  0
LWPOLYLINE
  5
104
330
70
100
AcDbEntity
  8
レイヤー 1
100
AcDbPolyline
 90
        4
 70
     1
 43
0.0
 10
128.5698813076032
 20
-158.2663683311652
 10
120.0698813097279
 20
-158.5663683310898
 10
120.0698813097279
 20
-158.0663683312146
 10
128.5698813076032
 20
-158.0663683312146
  0
HATCH
  5
105
330
70
100
AcDbEntity
  8
レイヤー 1
 62
   250
420
  2299925
440
 33554687
100
AcDbHatch
 10
0.0
 20
0.0
 30
0.0
210
0.0
220
0.0
230
1.0
  2
SOLID
 70
     1
 71
     1
 91
        1
 92
        1
 93
        4
 72
     1
 10
128.5698813076032
 20
-158.2663683311652
 11
120.0698813097279
 21
-158.5663683310898
 72
     1
 10
120.0698813097279
 20
-158.5663683310898
 11
120.0698813097279
 21
-158.0663683312146
 72
     1
 10
120.0698813097279
 20
-158.0663683312146
 11
128.5698813076032
 21
-158.0663683312146
 72
     1
 10
128.5698813076032
 20
-158.0663683312146
 11
128.5698813076032
 21
-158.2663683311652
 97
        1
330
104
 75
     2
 76
     1
 98
        1
 10
0.0
 20
0.0
450
        0
451
        0
460
0.0
461
0.0
452
        0
462
0.0
453
        0
470

  0
LINE
  5
106
330
70
100
AcDbEntity
  8
レイヤー 1
 62
   250
420
  2299925
370
     9
100
AcDbLine
 10
120.5635602773508
 20
-154.611018225259
 30
0.0
 11
126.7629472516136
 21
-150.8860507304424
 31
0.0
  0
LINE
  5
107
330
70
100
AcDbEntity
  8
レイヤー 1
 62
   250
420
  2299925
370
     9
100
AcDbLine
 10
116.6181962943477
 20
-154.5610236023201
 30
0.0
 11
122.7344300111885
 21
-150.8860127717394
 31
0.0
  0
LWPOLYLINE
  5
108
330
70
100
AcDbEntity
  8
レイヤー 1
 62
   250
420
  2299925
370
     9
100
AcDbPolyline
 90
        3
 70
     0
 43
0.0
 10
120.6135602773388
 20
-158.059713101013
 10
129.9472747981903
 20
-152.4514516163837
 10
133.3904085965335
 20
-150.3826081109892
  0
LINE
  5
109
330
70
100
AcDbEntity
  8
レイヤー 1
 62
   250
420
  2299925
370
     9
100
AcDbLine
 10
128.5085129858342
 20
-158.1097131010004
 30
0.0
 11
136.4538445052028
 21
-153.3356762860607
 31
0.0
  0
LINE
  5
10A
330
70
100
AcDbEntity
  8
レイヤー 1
 62
   250
420
  2299925
370
     9
100
AcDbLine
 10
128.5585129882638
 20
-158.2097131058596
 30
0.0
 11
136.4950211513475
 21
-153.4409778982386
 31
0.0
  0
SPLINE
  5
10B
330
70
100
AcDbEntity
  8
レイヤー 1
 62
   250
420
  2299925
370
     9
100
AcDbSpline
210
0.0
220
0.0
230
1.0
 70
     9
 71
     3
 72
    17
 73
    13
 74
     0
 42
0.0000000001
 43
0.0000000001
 40
0.0
 40
0.0
 40
0.0
 40
0.0
 40
1.0
 40
1.0
 40
1.0
 40
2.0
 40
2.0
 40
2.0
 40
3.0
 40
3.0
 40
3.0
 40
4.0
 40
4.0
 40
4.0
 40
4.0
 10
124.9331167401412
 20
-156.7558779049267
 30
0.0
 10
125.0212399867775
 20
-156.9748167703147
 30
0.0
 10
124.7864339928595
 20
-157.2754013422483
 30
0.0
 10
124.4086781133709
 20
-157.4274486933526
 30
0.0
 10
124.0309476580612
 20
-157.5794858111848
 30
0.0
 10
123.6540338958577
 20
-157.5251194282652
 30
0.0
 10
123.565910649222
 20
-157.3061805628772
 30
0.0
 10
123.4778005749703
 20
-157.087274423777
 30
0.0
 10
123.7116754230909
 20
-156.7862660474676
 30
0.0
 10
124.0894058784006
 20
-156.6342289296354
 30
0.0
 10
124.4671617578898
 20
-156.4821815785299
 30
0.0
 10
124.8450066658888
 20
-156.5369717658271
 30
0.0
 10
124.9331167401412
 20
-156.7558779049267
 30
0.0
  0
SPLINE
  5
10C
330
70
100
AcDbEntity
  8
レイヤー 1
 62
   250
420
  2299925
370
     9
100
AcDbSpline
210
0.0
220
0.0
230
1.0
 70
     8
 71
     3
 72
    11
 73
     7
 74
     0
 42
0.0000000001
 43
0.0000000001
 40
0.0
 40
0.0
 40
0.0
 40
0.0
 40
1.0
 40
1.0
 40
1.0
 40
2.0
 40
2.0
 40
2.0
 40
2.0
 10
123.7724347367199
 20
-157.4761319119748
 30
0.0
 10
123.7724347367199
 20
-157.4761319119748
 30
0.0
 10
123.5603226252155
 20
-157.008197164047
 30
0.0
 10
124.3492573357986
 20
-156.7372342068903
 30
0.0
 10
124.3492573357986
 20
-156.7372342068903
 30
0.0
 10
124.8288392410923
 20
-156.6131088026572
 30
0.0
 10
124.8939150606626
 20
-157.0017272147232
 30
0.0
  0
SPLINE
  5
10D
330
70
100
AcDbEntity
  8
レイヤー 1
 62
   250
420
  2299925
370
     9
100
AcDbSpline
210
0.0
220
0.0
230
1.0
 70
     9
 71
     3
 72
    17
 73
    13
 74
     0
 42
0.0000000001
 43
0.0000000001
 40
0.0
 40
0.0
 40
0.0
 40
0.0
 40
1.0
 40
1.0
 40
1.0
 40
2.0
 40
2.0
 40
2.0
 40
3.0
 40
3.0
 40
3.0
 40
4.0
 40
4.0
 40
4.0
 40
4.0
 10
128.9606629057629
 20
-156.7854621419833
 30
0.0
 10
129.0487861523992
 20
-157.0044010073713
 30
0.0
 10
128.8139801584812
 20
-157.3049855793049
 30
0.0
 10
128.4362242789927
 20
-157.4570329304091
 30
0.0
 10
128.0584938236829
 20
-157.6090700482413
 30
0.0
 10
127.6815800614794
 20
-157.5547036653218
 30
0.0
 10
127.5934568148437
 20
-157.3357647999337
 30
0.0
 10
127.505346740592
 20
-157.1168586608336
 30
0.0
 10
127.7392215887126
 20
-156.8158502845242
 30
0.0
 10
128.1169520440223
 20
-156.663813166692
 30
0.0
 10
128.4947079235115
 20
-156.5117658155864
 30
0.0
 10
128.8725528315105
 20
-156.5665560028837
 30
0.0
 10
128.9606629057629
 20
-156.7854621419833
 30
0.0
  0
SPLINE
  5
10E
330
70
100
AcDbEntity
  8
レイヤー 1
 62
   250
420
  2299925
370
     9
100
AcDbSpline
210
0.0
220
0.0
230
1.0
 70
     8
 71
     3
 72
    11
 73
     7
 74
     0
 42
0.0000000001
 43
0.0000000001
 40
0.0
 40
0.0
 40
0.0
 40
0.0
 40
1.0
 40
1.0
 40
1.0
 40
2.0
 40
2.0
 40
2.0
 40
2.0
 10
127.7999809023416
 20
-157.5057161490314
 30
0.0
 10
127.7999809023416
 20
-157.5057161490314
 30
0.0
 10
127.5878687908372
 20
-157.0377814011035
 30
0.0
 10
128.3768035014203
 20
-156.7668184439468
 30
0.0
 10
128.3768035014203
 20
-156.7668184439468
 30
0.0
 10
128.856385406714
 20
-156.6426930397137
 30
0.0
 10
128.9214612262843
 20
-157.0313114517797
 30
0.0
  0
SPLINE
  5
10F
330
70
100
AcDbEntity
  8
レイヤー 1
 62
   250
420
  2299925
370
     9
100
AcDbSpline
210
0.0
220
0.0
230
1.0
 70
     9
 71
     3
 72
    17
 73
    13
 74
     0
 42
0.0000000001
 43
0.0000000001
 40
0.0
 40
0.0
 40
0.0
 40
0.0
 40
1.0
 40
1.0
 40
1.0
 40
2.0
 40
2.0
 40
2.0
 40
3.0
 40
3.0
 40
3.0
 40
4.0
 40
4.0
 40
4.0
 40
4.0
 10
128.3360110559671
 20
-155.9517889475471
 30
0.0
 10
128.4241869921374
 20
-156.1708587180857
 30
0.0
 10
128.188900362277
 20
-156.4720550568902
 30
0.0
 10
127.8117953574735
 20
-156.6238404298839
 30
0.0
 10
127.4340358269311
 20
-156.7758892505444
 30
0.0
 10
127.0569771685083
 20
-156.7211628784583
 30
0.0
 10
126.9688012323379
 20
-156.5020931079197
 30
0.0
 10
126.8806252961675
 20
-156.2830233373805
 30
0.0
 10
127.11482945388
 20
-155.982833118265
 30
0.0
 10
127.4925889844218
 20
-155.8307842976051
 30
0.0
 10
127.869693989226
 20
-155.6789989246108
 30
0.0
 10
128.2478351197974
 20
-155.7327191770078
 30
0.0
 10
128.3360110559671
 20
-155.9517889475471
 30
0.0
  0
SPLINE
  5
110
330
70
100
AcDbEntity
  8
レイヤー 1
 62
   250
420
  2299925
370
     9
100
AcDbSpline
210
0.0
220
0.0
230
1.0
 70
     8
 71
     3
 72
    11
 73
     7
 74
     0
 42
0.0000000001
 43
0.0000000001
 40
0.0
 40
0.0
 40
0.0
 40
0.0
 40
1.0
 40
1.0
 40
1.0
 40
2.0
 40
2.0
 40
2.0
 40
2.0
 10
127.1754570436718
 20
-156.6723717198948
 30
0.0
 10
127.1754570436718
 20
-156.6723717198948
 30
0.0
 10
126.963924124282
 20
-156.203975677046
 30
0.0
 10
127.7529014422027
 20
-155.933223739526
 30
0.0
 10
127.7529014422027
 20
-155.933223739526
 30
0.0
 10
128.2330915652205
 20
-155.8086253575172
 30
0.0
 10
128.2969900571478
 20
-156.1980979277944
 30
0.0
  0
SPLINE
  5
111
330
70
100
AcDbEntity
  8
レイヤー 1
 62
   250
420
  2299925
370
     9
100
AcDbSpline
210
0.0
220
0.0
230
1.0
 70
     9
 71
     3
 72
    17
 73
    13
 74
     0
 42
0.0000000001
 43
0.0000000001
 40
0.0
 40
0.0
 40
0.0
 40
0.0
 40
1.0
 40
1.0
 40
1.0
 40
2.0
 40
2.0
 40
2.0
 40
3.0
 40
3.0
 40
3.0
 40
4.0
 40
4.0
 40
4.0
 40
4.0
 10
127.6108557278712
 20
-155.1469299990997
 30
0.0
 10
127.6989789745076
 20
-155.3658688644877
 30
0.0
 10
127.4641729805896
 20
-155.6664534364213
 30
0.0
 10
127.086417101101
 20
-155.8185007875256
 30
0.0
 10
126.7086866457913
 20
-155.9705379053578
 30
0.0
 10
126.3317728835878
 20
-155.9161715224383
 30
0.0
 10
126.2436496369521
 20
-155.6972326570502
 30
0.0
 10
126.1555395627004
 20
-155.47832651795
 30
0.0
 10
126.389414410821
 20
-155.1773181416406
 30
0.0
 10
126.7671448661307
 20
-155.0252810238085
 30
0.0
 10
127.1449007456199
 20
-154.8732336727029
 30
0.0
 10
127.5227456536189
 20
-154.9280238600001
 30
0.0
 10
127.6108557278712
 20
-155.1469299990997
 30
0.0
  0
SPLINE
  5
112
330
70
100
AcDbEntity
  8
レイヤー 1
 62
   250
420
  2299925
370
     9
100
AcDbSpline
210
0.0
220
0.0
230
1.0
 70
     8
 71
     3
 72
    11
 73
     7
 74
     0
 42
0.0000000001
 43
0.0000000001
 40
0.0
 40
0.0
 40
0.0
 40
0.0
 40
1.0
 40
1.0
 40
1.0
 40
2.0
 40
2.0
 40
2.0
 40
2.0
 10
126.45017372445
 20
-155.8671840061478
 30
0.0
 10
126.45017372445
 20
-155.8671840061478
 30
0.0
 10
126.2380616129456
 20
-155.39924925822
 30
0.0
 10
127.0269963235286
 20
-155.1282863010633
 30
0.0
 10
127.0269963235286
 20
-155.1282863010633
 30
0.0
 10
127.5065782288224
 20
-155.0041608968302
 30
0.0
 10
127.5716540483927
 20
-155.3927793088962
 30
0.0
  0
SPLINE
  5
113
330
70
100
AcDbEntity
  8
レイヤー 1
 62
   250
420
  2299925
370
     9
100
AcDbSpline
210
0.0
220
0.0
230
1.0
 70
     9
 71
     3
 72
    17
 73
    13
 74
     0
 42
0.0000000001
 43
0.0000000001
 40
0.0
 40
0.0
 40
0.0
 40
0.0
 40
1.0
 40
1.0
 40
1.0
 40
2.0
 40
2.0
 40
2.0
 40
3.0
 40
3.0
 40
3.0
 40
4.0
 40
4.0
 40
4.0
 40
4.0
 10
131.638401893493
 20
-155.1765142361563
 30
0.0
 10
131.7265251401293
 20
-155.3954531015443
 30
0.0
 10
131.4917191462113
 20
-155.6960376734779
 30
0.0
 10
131.1139632667227
 20
-155.8480850245821
 30
0.0
 10
130.736232811413
 20
-156.0001221424143
 30
0.0
 10
130.3593190492095
 20
-155.9457557594948
 30
0.0
 10
130.2711958025738
 20
-155.7268168941068
 30
0.0
 10
130.1830857283221
 20
-155.5079107550066
 30
0.0
 10
130.4169605764427
 20
-155.2069023786972
 30
0.0
 10
130.7946910317524
 20
-155.054865260865
 30
0.0
 10
131.1724469112416
 20
-154.9028179097594
 30
0.0
 10
131.5502918192406
 20
-154.9576080970567
 30
0.0
 10
131.638401893493
 20
-155.1765142361563
 30
0.0
  0
SPLINE
  5
114
330
70
100
AcDbEntity
  8
レイヤー 1
 62
   250
420
  2299925
370
     9
100
AcDbSpline
210
0.0
220
0.0
230
1.0
 70
     8
 71
     3
 72
    11
 73
     7
 74
     0
 42
0.0000000001
 43
0.0000000001
 40
0.0
 40
0.0
 40
0.0
 40
0.0
 40
1.0
 40
1.0
 40
1.0
 40
2.0
 40
2.0
 40
2.0
 40
2.0
 10
130.4777198900717
 20
-155.8967682432044
 30
0.0
 10
130.4777198900717
 20
-155.8967682432044
 30
0.0
 10
130.2656077785673
 20
-155.4288334952765
 30
0.0
 10
131.0545424891504
 20
-155.1578705381198
 30
0.0
 10
131.0545424891504
 20
-155.1578705381198
 30
0.0
 10
131.5341243944441
 20
-155.0337451338867
 30
0.0
 10
131.5992002140144
 20
-155.4223635459528
 30
0.0
  0
SPLINE
  5
115
330
70
100
AcDbEntity
  8
レイヤー 1
 62
   250
420
  2299925
370
     9
100
AcDbSpline
210
0.0
220
0.0
230
1.0
 70
     9
 71
     3
 72
    17
 73
    13
 74
     0
 42
0.0000000001
 43
0.0000000001
 40
0.0
 40
0.0
 40
0.0
 40
0.0
 40
1.0
 40
1.0
 40
1.0
 40
2.0
 40
2.0
 40
2.0
 40
3.0
 40
3.0
 40
3.0
 40
4.0
 40
4.0
 40
4.0
 40
4.0
 10
131.0137500436971
 20
-154.3428410417201
 30
0.0
 10
131.1019259798675
 20
-154.5619108122587
 30
0.0
 10
130.8666393500071
 20
-154.8631071510632
 30
0.0
 10
130.4895343452035
 20
-155.0148925240569
 30
0.0
 10
130.1117748146612
 20
-155.1669413447174
 30
0.0
 10
129.7347161562383
 20
-155.1122149726313
 30
0.0
 10
129.646540220068
 20
-154.8931452020927
 30
0.0
 10
129.5583642838976
 20
-154.6740754315535
 30
0.0
 10
129.7925684416101
 20
-154.373885212438
 30
0.0
 10
130.1703279721519
 20
-154.2218363917781
 30
0.0
 10
130.5474329769561
 20
-154.0700510187838
 30
0.0
 10
130.9255741075274
 20
-154.1237712711808
 30
0.0
 10
131.0137500436971
 20
-154.3428410417201
 30
0.0
  0
SPLINE
  5
116
330
70
100
AcDbEntity
  8
レイヤー 1
 62
   250
420
  2299925
370
     9
100
AcDbSpline
210
0.0
220
0.0
230
1.0
 70
     8
 71
     3
 72
    11
 73
     7
 74
     0
 42
0.0000000001
 43
0.0000000001
 40
0.0
 40
0.0
 40
0.0
 40
0.0
 40
1.0
 40
1.0
 40
1.0
 40
2.0
 40
2.0
 40
2.0
 40
2.0
 10
129.8531960314018
 20
-155.0634238140678
 30
0.0
 10
129.8531960314018
 20
-155.0634238140678
 30
0.0
 10
129.641663112012
 20
-154.595027771219
 30
0.0
 10
130.4306404299328
 20
-154.324275833699
 30
0.0
 10
130.4306404299328
 20
-154.324275833699
 30
0.0
 10
130.9108305529506
 20
-154.1996774516902
 30
0.0
 10
130.9747290448779
 20
-154.5891500219674
 30
0.0
  0
SPLINE
  5
117
330
70
100
AcDbEntity
  8
レイヤー 1
 62
   250
420
  2299925
370
     9
100
AcDbSpline
210
0.0
220
0.0
230
1.0
 70
     9
 71
     3
 72
    17
 73
    13
 74
     0
 42
0.0000000001
 43
0.0000000001
 40
0.0
 40
0.0
 40
0.0
 40
0.0
 40
1.0
 40
1.0
 40
1.0
 40
2.0
 40
2.0
 40
2.0
 40
3.0
 40
3.0
 40
3.0
 40
4.0
 40
4.0
 40
4.0
 40
4.0
 10
130.2885947156013
 20
-153.5379820932727
 30
0.0
 10
130.3767179622377
 20
-153.7569209586608
 30
0.0
 10
130.1419119683197
 20
-154.0575055305943
 30
0.0
 10
129.7641560888311
 20
-154.2095528816986
 30
0.0
 10
129.3864256335214
 20
-154.3615899995308
 30
0.0
 10
129.0095118713179
 20
-154.3072236166113
 30
0.0
 10
128.9213886246822
 20
-154.0882847512232
 30
0.0
 10
128.8332785504304
 20
-153.869378612123
 30
0.0
 10
129.067153398551
 20
-153.5683702358136
 30
0.0
 10
129.4448838538608
 20
-153.4163331179815
 30
0.0
 10
129.82263973335
 20
-153.2642857668759
 30
0.0
 10
130.2004846413489
 20
-153.3190759541732
 30
0.0
 10
130.2885947156013
 20
-153.5379820932727
 30
0.0
  0
SPLINE
  5
118
330
70
100
AcDbEntity
  8
レイヤー 1
 62
   250
420
  2299925
370
     9
100
AcDbSpline
210
0.0
220
0.0
230
1.0
 70
     8
 71
     3
 72
    11
 73
     7
 74
     0
 42
0.0000000001
 43
0.0000000001
 40
0.0
 40
0.0
 40
0.0
 40
0.0
 40
1.0
 40
1.0
 40
1.0
 40
2.0
 40
2.0
 40
2.0
 40
2.0
 10
129.12791271218
 20
-154.2582361003209
 30
0.0
 10
129.12791271218
 20
-154.2582361003209
 30
0.0
 10
128.9158006006757
 20
-153.790301352393
 30
0.0
 10
129.7047353112587
 20
-153.5193383952363
 30
0.0
 10
129.7047353112587
 20
-153.5193383952363
 30
0.0
 10
130.1843172165525
 20
-153.3952129910032
 30
0.0
 10
130.2493930361228
 20
-153.7838314030692
 30
0.0
  0
SPLINE
  5
119
330
70
100
AcDbEntity
  8
レイヤー 1
 62
   250
420
  2299925
370
     9
100
AcDbSpline
210
0.0
220
0.0
230
1.0
 70
     9
 71
     3
 72
    17
 73
    13
 74
     0
 42
0.0000000001
 43
0.0000000001
 40
0.0
 40
0.0
 40
0.0
 40
0.0
 40
1.0
 40
1.0
 40
1.0
 40
2.0
 40
2.0
 40
2.0
 40
3.0
 40
3.0
 40
3.0
 40
4.0
 40
4.0
 40
4.0
 40
4.0
 10
134.316140881223
 20
-153.5675663303293
 30
0.0
 10
134.4042641278594
 20
-153.7865051957173
 30
0.0
 10
134.1694581339414
 20
-154.0870897676509
 30
0.0
 10
133.7917022544528
 20
-154.2391371187551
 30
0.0
 10
133.4139717991431
 20
-154.3911742365873
 30
0.0
 10
133.0370580369396
 20
-154.3368078536678
 30
0.0
 10
132.9489347903039
 20
-154.1178689882798
 30
0.0
 10
132.8608247160522
 20
-153.8989628491796
 30
0.0
 10
133.0946995641727
 20
-153.5979544728702
 30
0.0
 10
133.4724300194825
 20
-153.445917355038
 30
0.0
 10
133.8501858989717
 20
-153.2938700039324
 30
0.0
 10
134.2280308069706
 20
-153.3486601912297
 30
0.0
 10
134.316140881223
 20
-153.5675663303293
 30
0.0
  0
SPLINE
  5
11A
330
70
100
AcDbEntity
  8
レイヤー 1
 62
   250
420
  2299925
370
     9
100
AcDbSpline
210
0.0
220
0.0
230
1.0
 70
     8
 71
     3
 72
    11
 73
     7
 74
     0
 42
0.0000000001
 43
0.0000000001
 40
0.0
 40
0.0
 40
0.0
 40
0.0
 40
1.0
 40
1.0
 40
1.0
 40
2.0
 40
2.0
 40
2.0
 40
2.0
 10
133.1554588778018
 20
-154.2878203373774
 30
0.0
 10
133.1554588778018
 20
-154.2878203373774
 30
0.0
 10
132.9433467662974
 20
-153.8198855894495
 30
0.0
 10
133.7322814768804
 20
-153.5489226322928
 30
0.0
 10
133.7322814768804
 20
-153.5489226322928
 30
0.0
 10
134.2118633821741
 20
-153.4247972280597
 30
0.0
 10
134.2769392017445
 20
-153.8134156401258
 30
0.0
  0
SPLINE
  5
11B
330
70
100
AcDbEntity
  8
レイヤー 1
 62
   250
420
  2299925
370
     9
100
AcDbSpline
210
0.0
220
0.0
230
1.0
 70
     9
 71
     3
 72
    17
 73
    13
 74
     0
 42
0.0000000001
 43
0.0000000001
 40
0.0
 40
0.0
 40
0.0
 40
0.0
 40
1.0
 40
1.0
 40
1.0
 40
2.0
 40
2.0
 40
2.0
 40
3.0
 40
3.0
 40
3.0
 40
4.0
 40
4.0
 40
4.0
 40
4.0
 10
133.6914890314272
 20
-152.7338931358931
 30
0.0
 10
133.7796649675976
 20
-152.9529629064317
 30
0.0
 10
133.5443783377372
 20
-153.2541592452362
 30
0.0
 10
133.1672733329336
 20
-153.4059446182299
 30
0.0
 10
132.7895138023912
 20
-153.5579934388904
 30
0.0
 10
132.4124551439684
 20
-153.5032670668043
 30
0.0
 10
132.324279207798
 20
-153.2841972962657
 30
0.0
 10
132.2361032716277
 20
-153.0651275257265
 30
0.0
 10
132.4703074293402
 20
-152.764937306611
 30
0.0
 10
132.848066959882
 20
-152.6128884859511
 30
0.0
 10
133.2251719646861
 20
-152.4611031129568
 30
0.0
 10
133.6033130952575
 20
-152.5148233653538
 30
0.0
 10
133.6914890314272
 20
-152.7338931358931
 30
0.0
  0
SPLINE
  5
11C
330
70
100
AcDbEntity
  8
レイヤー 1
 62
   250
420
  2299925
370
     9
100
AcDbSpline
210
0.0
220
0.0
230
1.0
 70
     8
 71
     3
 72
    11
 73
     7
 74
     0
 42
0.0000000001
 43
0.0000000001
 40
0.0
 40
0.0
 40
0.0
 40
0.0
 40
1.0
 40
1.0
 40
1.0
 40
2.0
 40
2.0
 40
2.0
 40
2.0
 10
132.5309350191319
 20
-153.4544759082408
 30
0.0
 10
132.5309350191319
 20
-153.4544759082408
 30
0.0
 10
132.3194020997421
 20
-152.986079865392
 30
0.0
 10
133.1083794176629
 20
-152.7153279278721
 30
0.0
 10
133.1083794176629
 20
-152.7153279278721
 30
0.0
 10
133.5885695406806
 20
-152.5907295458632
 30
0.0
 10
133.652468032608
 20
-152.9802021161404
 30
0.0
  0
SPLINE
  5
11D
330
70
100
AcDbEntity
  8
レイヤー 1
 62
   250
420
  2299925
370
     9
100
AcDbSpline
210
0.0
220
0.0
230
1.0
 70
     9
 71
     3
 72
    17
 73
    13
 74
     0
 42
0.0000000001
 43
0.0000000001
 40
0.0
 40
0.0
 40
0.0
 40
0.0
 40
1.0
 40
1.0
 40
1.0
 40
2.0
 40
2.0
 40
2.0
 40
3.0
 40
3.0
 40
3.0
 40
4.0
 40
4.0
 40
4.0
 40
4.0
 10
132.9663337033314
 20
-151.9290341874457
 30
0.0
 10
133.0544569499677
 20
-152.1479730528338
 30
0.0
 10
132.8196509560497
 20
-152.4485576247673
 30
0.0
 10
132.4418950765612
 20
-152.6006049758716
 30
0.0
 10
132.0641646212514
 20
-152.7526420937038
 30
0.0
 10
131.6872508590479
 20
-152.6982757107843
 30
0.0
 10
131.5991276124123
 20
-152.4793368453963
 30
0.0
 10
131.5110175381605
 20
-152.260430706296
 30
0.0
 10
131.7448923862811
 20
-151.9594223299866
 30
0.0
 10
132.1226228415908
 20
-151.8073852121545
 30
0.0
 10
132.50037872108
 20
-151.6553378610489
 30
0.0
 10
132.878223629079
 20
-151.7101280483462
 30
0.0
 10
132.9663337033314
 20
-151.9290341874457
 30
0.0
  0
SPLINE
  5
11E
330
70
100
AcDbEntity
  8
レイヤー 1
 62
   250
420
  2299925
370
     9
100
AcDbSpline
210
0.0
220
0.0
230
1.0
 70
     8
 71
     3
 72
    11
 73
     7
 74
     0
 42
0.0000000001
 43
0.0000000001
 40
0.0
 40
0.0
 40
0.0
 40
0.0
 40
1.0
 40
1.0
 40
1.0
 40
2.0
 40
2.0
 40
2.0
 40
2.0
 10
131.8056516999101
 20
-152.6492881944939
 30
0.0
 10
131.8056516999101
 20
-152.6492881944939
 30
0.0
 10
131.5935395884058
 20
-152.181353446566
 30
0.0
 10
132.3824742989888
 20
-151.9103904894093
 30
0.0
 10
132.3824742989888
 20
-151.9103904894093
 30
0.0
 10
132.8620562042825
 20
-151.7862650851762
 30
0.0
 10
132.9271320238528
 20
-152.1748834972422
 30
0.0
  0
ENDSEC
  0
SECTION
  2
OBJECTS
  0
DICTIONARY
  5
C
330
0
100
AcDbDictionary
281
     1
  3
ACAD_COLOR
350
63
  3
ACAD_DETAILVIEWSTYLE
350
6A
  3
ACAD_GROUP
350
D
  3
ACAD_LAYOUT
350
62
  3
ACAD_MATERIAL
350
10
  3
ACAD_MLEADERSTYLE
350
66
  3
ACAD_MLINESTYLE
350
5F
  3
ACAD_PLOTSETTINGS
350
61
  3
ACAD_PLOTSTYLENAME
350
E
  3
ACAD_SCALELIST
350
42
  3
ACAD_SECTIONVIEWSTYLE
350
68
  3
ACAD_TABLESTYLE
350
64
  3
ACAD_VISUALSTYLE
350
29
  3
ACDB_RECOMPOSE_DATA
350
127
  3
AcDbVariableDictionary
350
11F
  0
DICTIONARY
  5
63
102
{ACAD_REACTORS
330
C
102
}
330
C
100
AcDbDictionary
281
     1
  0
DICTIONARY
  5
6A
102
{ACAD_REACTORS
330
C
102
}
330
C
100
AcDbDictionary
281
     1
  3
Imperial24
350
6B
  0
DICTIONARY
  5
D
102
{ACAD_REACTORS
330
C
102
}
330
C
100
AcDbDictionary
281
     1
  0
DICTIONARY
  5
62
102
{ACAD_REACTORS
330
C
102
}
330
C
100
AcDbDictionary
281
     1
  3
Layout1
350
6F
  3
Layout2
350
77
  3
Model
350
73
  0
DICTIONARY
  5
10
102
{ACAD_REACTORS
330
C
102
}
330
C
100
AcDbDictionary
281
     1
  3
ByBlock
350
19
  3
ByLayer
350
11
  3
Global
350
21
  0
DICTIONARY
  5
66
102
{ACAD_REACTORS
330
C
102
}
330
C
100
AcDbDictionary
281
     1
  3
Standard
350
67
  0
DICTIONARY
  5
5F
102
{ACAD_REACTORS
330
C
102
}
330
C
100
AcDbDictionary
281
     1
  3
Standard
350
60
  0
DICTIONARY
  5
61
102
{ACAD_REACTORS
330
C
102
}
330
C
100
AcDbDictionary
281
     1
  0
ACDBDICTIONARYWDFLT
  5
E
102
{ACAD_REACTORS
330
C
102
}
330
C
100
AcDbDictionary
281
     1
  3
Normal
350
F
100
AcDbDictionaryWithDefault
340
F
  0
DICTIONARY
  5
42
102
{ACAD_REACTORS
330
C
102
}
330
C
100
AcDbDictionary
281
     1
  3
A0
350
43
  3
A1
350
44
  3
A2
350
45
  3
A3
350
46
  3
A4
350
47
  3
A5
350
48
  3
A6
350
49
  3
A7
350
4A
  3
A8
350
4B
  3
A9
350
4C
  3
B0
350
4D
  3
B1
350
4E
  3
B2
350
4F
  3
B3
350
50
  3
B4
350
51
  3
B5
350
52
  3
B6
350
53
  0
DICTIONARY
  5
68
102
{ACAD_REACTORS
330
C
102
}
330
C
100
AcDbDictionary
281
     1
  3
Imperial24
350
69
  0
DICTIONARY
  5
64
102
{ACAD_REACTORS
330
C
102
}
330
C
100
AcDbDictionary
281
     1
  3
Standard
350
65
  0
DICTIONARY
  5
29
102
{ACAD_REACTORS
330
C
102
}
330
C
100
AcDbDictionary
281
     1
  3
2dWireframe
350
2F
  3
Basic
350
2E
  3
Brighten
350
35
  3
ColorChange
350
39
  3
Conceptual
350
32
  3
Dim
350
34
  3
EdgeColorOff
350
41
  3
Facepattern
350
38
  3
Flat
350
2A
  3
FlatWithEdges
350
2B
  3
Gouraud
350
2C
  3
GouraudWithEdges
350
2D
  3
Hidden
350
31
  3
JitterOff
350
3F
  3
Linepattern
350
37
  3
OverhangOff
350
40
  3
Realistic
350
33
  3
Shaded
350
3E
  3
Shaded with edges
350
3D
  3
Shades of Gray
350
3A
  3
Sketchy
350
3B
  3
Thicken
350
36
  3
Wireframe
350
30
  3
X-Ray
350
3C
  0
XRECORD
  5
127
102
{ACAD_REACTORS
330
C
102
}
330
C
100
AcDbXrecord
280
     1
 90
        1
330
65
  0
DICTIONARY
  5
11F
102
{ACAD_REACTORS
330
C
102
}
330
C
100
AcDbDictionary
281
     1
  3
CANNOSCALE
350
124
  3
CMLEADERSTYLE
350
121
  3
CTABLESTYLE
350
120
  3
CVIEWDETAILSTYLE
350
122
  3
CVIEWSECTIONSTYLE
350
123
  0
ACDBDETAILVIEWSTYLE
  5
6B
102
{ACAD_XDICTIONARY
360
15C
102
}
102
{ACAD_REACTORS
330
6A
102
}
330
6A
100
AcDbModelDocViewStyle
 70
     0
  3
Imperial24
290
     0
100
AcDbDetailViewStyle
 70
     0
 71
     0
 90
        3
 71
     1
340
55
 62
   256
 40
0.24
340
0
 62
   256
 40
0.24
300

 40
0.36
280
     3
 71
     2
340
5D
 90
       25
 62
   256
 71
     3
340
55
 62
   256
 40
0.24
 90
        1
 40
0.75
 90
        1
300
%<\AcVar ViewType \f "%tc1">% %<\AcVar ViewDetailId>%\PSCALE %<\AcVar ViewScale \f "%sn">%
 71
     4
340
5D
 90
       25
 62
   256
340
5D
 90
       25
 62
   256
280
     0
  0
LAYOUT
  5
6F
102
{ACAD_REACTORS
330
62
102
}
330
62
100
AcDbPlotSettings
  1

  2

  4

  6

 40
0.0
 41
0.0
 42
0.0
 43
0.0
 44
0.0
 45
0.0
 46
0.0
 47
0.0
 48
0.0
 49
0.0
140
0.0
141
0.0
142
1.0
143
1.0
 70
   688
 72
     0
 73
     0
 74
     5
  7

 75
    16
147
1.0
 76
     0
 77
     2
 78
   300
148
0.0
149
0.0
100
AcDbLayout
  1
Layout1
 70
     1
 71
     1
 10
0.0
 20
0.0
 11
12.0
 21
9.0
 12
0.0
 22
0.0
 32
0.0
 14
0.0
 24
0.0
 34
0.0
 15
0.0
 25
0.0
 35
0.0
146
0.0
 13
0.0
 23
0.0
 33
0.0
 16
1.0
 26
0.0
 36
0.0
 17
0.0
 27
1.0
 37
0.0
 76
     0
330
6C
  0
LAYOUT
  5
77
102
{ACAD_REACTORS
330
62
102
}
330
62
100
AcDbPlotSettings
  1

  2

  4

  6

 40
0.0
 41
0.0
 42
0.0
 43
0.0
 44
0.0
 45
0.0
 46
0.0
 47
0.0
 48
0.0
 49
0.0
140
0.0
141
0.0
142
1.0
143
1.0
 70
   688
 72
     0
 73
     0
 74
     5
  7

 75
    16
147
1.0
 76
     0
 77
     2
 78
   300
148
0.0
149
0.0
100
AcDbLayout
  1
Layout2
 70
     1
 71
     2
 10
0.0
 20
0.0
 11
12.0
 21
9.0
 12
0.0
 22
0.0
 32
0.0
 14
0.0
 24
0.0
 34
0.0
 15
0.0
 25
0.0
 35
0.0
146
0.0
 13
0.0
 23
0.0
 33
0.0
 16
1.0
 26
0.0
 36
0.0
 17
0.0
 27
1.0
 37
0.0
 76
     0
330
74
  0
LAYOUT
  5
73
102
{ACAD_REACTORS
330
62
102
}
330
62
100
AcDbPlotSettings
  1

  2

  4

  6

 40
0.0
 41
0.0
 42
0.0
 43
0.0
 44
0.0
 45
0.0
 46
0.0
 47
0.0
 48
0.0
 49
0.0
140
0.0
141
0.0
142
1.0
143
1.0
 70
  1712
 72
     0
 73
     0
 74
     0
  7

 75
     0
147
1.0
 76
     0
 77
     2
 78
   300
148
0.0
149
0.0
100
AcDbLayout
  1
Model
 70
     1
 71
     0
 10
0.0
 20
0.0
 11
12.0
 21
9.0
 12
0.0
 22
0.0
 32
0.0
 14
0.0
 24
0.0
 34
0.0
 15
0.0
 25
0.0
 35
0.0
146
0.0
 13
0.0
 23
0.0
 33
0.0
 16
1.0
 26
0.0
 36
0.0
 17
0.0
 27
1.0
 37
0.0
 76
     0
330
70
  0
MATERIAL
  5
19
102
{ACAD_XDICTIONARY
360
1A
102
}
102
{ACAD_REACTORS
330
10
102
}
330
10
100
AcDbMaterial
  1
ByBlock
 72
     0
 43
0.0208333333333333
 43
0.0
 43
0.0
 43
0.0
 43
0.0
 43
0.0208333333333333
 43
0.0
 43
0.0
 43
0.0
 43
0.0
 43
1.0
 43
0.0
 43
0.0
 43
0.0
 43
0.0
 43
1.0
 77
     0
 47
0.0208333333333333
 47
0.0
 47
0.0
 47
0.0
 47
0.0
 47
0.0208333333333333
 47
0.0
 47
0.0
 47
0.0
 47
0.0
 47
1.0
 47
0.0
 47
0.0
 47
0.0
 47
0.0
 47
1.0
171
     0
 49
0.0208333333333333
 49
0.0
 49
0.0
 49
0.0
 49
0.0
 49
0.0208333333333333
 49
0.0
 49
0.0
 49
0.0
 49
0.0
 49
1.0
 49
0.0
 49
0.0
 49
0.0
 49
0.0
 49
1.0
175
     0
142
0.0208333333333333
142
0.0
142
0.0
142
0.0
142
0.0
142
0.0208333333333333
142
0.0
142
0.0
142
0.0
142
0.0
142
1.0
142
0.0
142
0.0
142
0.0
142
0.0
142
1.0
179
     0
144
0.0208333333333333
144
0.0
144
0.0
144
0.0
144
0.0
144
0.0208333333333333
144
0.0
144
0.0
144
0.0
144
0.0
144
1.0
144
0.0
144
0.0
144
0.0
144
0.0
144
1.0
147
0.0208333333333333
147
0.0
147
0.0
147
0.0
147
0.0
147
0.0208333333333333
147
0.0
147
0.0
147
0.0
147
0.0
147
1.0
147
0.0
147
0.0
147
0.0
147
0.0
147
1.0
  0
MATERIAL
  5
11
102
{ACAD_XDICTIONARY
360
12
102
}
102
{ACAD_REACTORS
330
10
102
}
330
10
100
AcDbMaterial
  1
ByLayer
 72
     0
 43
0.0208333333333333
 43
0.0
 43
0.0
 43
0.0
 43
0.0
 43
0.0208333333333333
 43
0.0
 43
0.0
 43
0.0
 43
0.0
 43
1.0
 43
0.0
 43
0.0
 43
0.0
 43
0.0
 43
1.0
 77
     0
 47
0.0208333333333333
 47
0.0
 47
0.0
 47
0.0
 47
0.0
 47
0.0208333333333333
 47
0.0
 47
0.0
 47
0.0
 47
0.0
 47
1.0
 47
0.0
 47
0.0
 47
0.0
 47
0.0
 47
1.0
171
     0
 49
0.0208333333333333
 49
0.0
 49
0.0
 49
0.0
 49
0.0
 49
0.0208333333333333
 49
0.0
 49
0.0
 49
0.0
 49
0.0
 49
1.0
 49
0.0
 49
0.0
 49
0.0
 49
0.0
 49
1.0
175
     0
142
0.0208333333333333
142
0.0
142
0.0
142
0.0
142
0.0
142
0.0208333333333333
142
0.0
142
0.0
142
0.0
142
0.0
142
1.0
142
0.0
142
0.0
142
0.0
142
0.0
142
1.0
179
     0
144
0.0208333333333333
144
0.0
144
0.0
144
0.0
144
0.0
144
0.0208333333333333
144
0.0
144
0.0
144
0.0
144
0.0
144
1.0
144
0.0
144
0.0
144
0.0
144
0.0
144
1.0
147
0.0208333333333333
147
0.0
147
0.0
147
0.0
147
0.0
147
0.0208333333333333
147
0.0
147
0.0
147
0.0
147
0.0
147
1.0
147
0.0
147
0.0
147
0.0
147
0.0
147
1.0
  0
MATERIAL
  5
21
102
{ACAD_XDICTIONARY
360
22
102
}
102
{ACAD_REACTORS
330
10
102
}
330
10
100
AcDbMaterial
  1
Global
 72
     0
 43
0.0208333333333333
 43
0.0
 43
0.0
 43
0.0
 43
0.0
 43
0.0208333333333333
 43
0.0
 43
0.0
 43
0.0
 43
0.0
 43
1.0
 43
0.0
 43
0.0
 43
0.0
 43
0.0
 43
1.0
 77
     0
 47
0.0208333333333333
 47
0.0
 47
0.0
 47
0.0
 47
0.0
 47
0.0208333333333333
 47
0.0
 47
0.0
 47
0.0
 47
0.0
 47
1.0
 47
0.0
 47
0.0
 47
0.0
 47
0.0
 47
1.0
171
     0
 49
0.0208333333333333
 49
0.0
 49
0.0
 49
0.0
 49
0.0
 49
0.0208333333333333
 49
0.0
 49
0.0
 49
0.0
 49
0.0
 49
1.0
 49
0.0
 49
0.0
 49
0.0
 49
0.0
 49
1.0
175
     0
142
0.0208333333333333
142
0.0
142
0.0
142
0.0
142
0.0
142
0.0208333333333333
142
0.0
142
0.0
142
0.0
142
0.0
142
1.0
142
0.0
142
0.0
142
0.0
142
0.0
142
1.0
179
     0
144
0.0208333333333333
144
0.0
144
0.0
144
0.0
144
0.0
144
0.0208333333333333
144
0.0
144
0.0
144
0.0
144
0.0
144
1.0
144
0.0
144
0.0
144
0.0
144
0.0
144
1.0
147
0.0208333333333333
147
0.0
147
0.0
147
0.0
147
0.0
147
0.0208333333333333
147
0.0
147
0.0
147
0.0
147
0.0
147
1.0
147
0.0
147
0.0
147
0.0
147
0.0
147
1.0
  0
MLEADERSTYLE
  5
67
102
{ACAD_XDICTIONARY
360
158
102
}
102
{ACAD_REACTORS
330
66
102
}
330
66
100
AcDbMLeaderStyle
179
     2
170
     2
171
     1
172
     0
 90
        2
 40
0.0
 41
0.0
173
     1
 91
-1056964608
340
5B
 92
       -2
290
     1
 42
0.09
291
     1
 43
0.36
  3
Standard
 44
0.18
300

342
55
174
     1
178
     6
175
     1
176
     0
 93
-1056964608
 45
0.18
292
     0
297
     0
 46
0.18
 94
-1056964608
 47
1.0
 49
1.0
140
1.0
293
     1
141
0.0
294
     1
177
     0
142
1.0
295
     0
296
     0
143
0.125
271
     0
272
     9
273
     9
  0
MLINESTYLE
  5
60
102
{ACAD_REACTORS
330
5F
102
}
330
5F
100
AcDbMlineStyle
  2
STANDARD
 70
     0
  3

 62
   256
 51
90.0
 52
90.0
 71
     2
 49
0.5
 62
   256
  6
BYLAYER
 49
-0.5
 62
   256
  6
BYLAYER
  0
ACDBPLACEHOLDER
  5
F
102
{ACAD_REACTORS
330
E
102
}
330
E
  0
SCALE
  5
43
102
{ACAD_REACTORS
330
42
102
}
330
42
100
AcDbScale
 70
     0
300
1:1
140
1.0
141
1.0
290
     1
  0
SCALE
  5
44
102
{ACAD_REACTORS
330
42
102
}
330
42
100
AcDbScale
 70
     0
300
1/128" = 1'-0"
140
0.0078125
141
12.0
290
     0
  0
SCALE
  5
45
102
{ACAD_REACTORS
330
42
102
}
330
42
100
AcDbScale
 70
     0
300
1/64" = 1'-0"
140
0.015625
141
12.0
290
     0
  0
SCALE
  5
46
102
{ACAD_REACTORS
330
42
102
}
330
42
100
AcDbScale
 70
     0
300
1/32" = 1'-0"
140
0.03125
141
12.0
290
     0
  0
SCALE
  5
47
102
{ACAD_REACTORS
330
42
102
}
330
42
100
AcDbScale
 70
     0
300
1/16" = 1'-0"
140
0.0625
141
12.0
290
     0
  0
SCALE
  5
48
102
{ACAD_REACTORS
330
42
102
}
330
42
100
AcDbScale
 70
     0
300
3/32" = 1'-0"
140
0.09375
141
12.0
290
     0
  0
SCALE
  5
49
102
{ACAD_REACTORS
330
42
102
}
330
42
100
AcDbScale
 70
     0
300
1/8" = 1'-0"
140
0.125
141
12.0
290
     0
  0
SCALE
  5
4A
102
{ACAD_REACTORS
330
42
102
}
330
42
100
AcDbScale
 70
     0
300
3/16" = 1'-0"
140
0.1875
141
12.0
290
     0
  0
SCALE
  5
4B
102
{ACAD_REACTORS
330
42
102
}
330
42
100
AcDbScale
 70
     0
300
1/4" = 1'-0"
140
0.25
141
12.0
290
     0
  0
SCALE
  5
4C
102
{ACAD_REACTORS
330
42
102
}
330
42
100
AcDbScale
 70
     0
300
3/8" = 1'-0"
140
0.375
141
12.0
290
     0
  0
SCALE
  5
4D
102
{ACAD_REACTORS
330
42
102
}
330
42
100
AcDbScale
 70
     0
300
1/2" = 1'-0"
140
0.5
141
12.0
290
     0
  0
SCALE
  5
4E
102
{ACAD_REACTORS
330
42
102
}
330
42
100
AcDbScale
 70
     0
300
3/4" = 1'-0"
140
0.75
141
12.0
290
     0
  0
SCALE
  5
4F
102
{ACAD_REACTORS
330
42
102
}
330
42
100
AcDbScale
 70
     0
300
1" = 1'-0"
140
1.0
141
12.0
290
     0
  0
SCALE
  5
50
102
{ACAD_REACTORS
330
42
102
}
330
42
100
AcDbScale
 70
     0
300
1-1/2" = 1'-0"
140
1.5
141
12.0
290
     0
  0
SCALE
  5
51
102
{ACAD_REACTORS
330
42
102
}
330
42
100
AcDbScale
 70
     0
300
3" = 1'-0"
140
3.0
141
12.0
290
     0
  0
SCALE
  5
52
102
{ACAD_REACTORS
330
42
102
}
330
42
100
AcDbScale
 70
     0
300
6" = 1'-0"
140
6.0
141
12.0
290
     0
  0
SCALE
  5
53
102
{ACAD_REACTORS
330
42
102
}
330
42
100
AcDbScale
 70
     0
300
1'-0" = 1'-0"
140
12.0
141
12.0
290
     0
  0
ACDBSECTIONVIEWSTYLE
  5
69
102
{ACAD_XDICTIONARY
360
15A
102
}
102
{ACAD_REACTORS
330
68
102
}
330
68
100
AcDbModelDocViewStyle
 70
     0
  3
Imperial24
290
     0
100
AcDbSectionViewStyle
 70
     0
 71
     0
 90
       78
 71
     1
340
55
 62
   256
 40
0.24
340
0
340
0
 62
   256
 40
0.24
300
I, O, Q, S, X, Z
 40
0.48
 90
        3
 40
0.18
 90
        1
 71
     2
340
5D
 90
       25
 62
   256
340
5D
 90
       50
 62
   256
 40
0.24
 40
0.0
 40
0.24
 71
     3
340
55
 62
   256
 40
0.24
 90
        1
 40
0.75
 90
        1
300
%<\AcVar ViewType \f "%tc1">% %<\AcVar ViewSectionStartId>%-%<\AcVar ViewSectionEndId>%\PSCALE %<\AcVar ViewScale \f "%sn">%
 71
     4
 62
   256
 62
   257
300
ANSI31
 40
1.0
 90
        0
290
     0
290
     0
 90
        6
 40
0.0
 40
1.570796326794896
 40
0.2617993877991494
 40
1.308996938995747
 40
-0.2617993877991494
 40
1.832595714594046
  0
TABLESTYLE
  5
65
102
{ACAD_XDICTIONARY
360
125
102
}
102
{ACAD_REACTORS
330
64
102
}
330
64
100
AcDbTableStyle
280
     0
  3
Standard
 70
     0
 71
     0
 40
0.06
 41
0.06
280
     0
281
     0
  7
Standard
140
0.18
170
     2
 62
     0
 63
     7
283
     0
 90
      512
 91
        0
  1

274
    -2
284
     1
 64
     0
275
    -2
285
     1
 65
     0
276
    -2
286
     1
 66
     0
277
    -2
287
     1
 67
     0
278
    -2
288
     1
 68
     0
279
    -2
289
     1
 69
     0
  7
Standard
140
0.25
170
     5
 62
     0
 63
     7
283
     0
 90
      512
 91
        0
  1

274
    -2
284
     1
 64
     0
275
    -2
285
     1
 65
     0
276
    -2
286
     1
 66
     0
277
    -2
287
     1
 67
     0
278
    -2
288
     1
 68
     0
279
    -2
289
     1
 69
     0
  7
Standard
140
0.18
170
     5
 62
     0
 63
     7
283
     0
 90
      512
 91
        0
  1

274
    -2
284
     1
 64
     0
275
    -2
285
     1
 65
     0
276
    -2
286
     1
 66
     0
277
    -2
287
     1
 67
     0
278
    -2
288
     1
 68
     0
279
    -2
289
     1
 69
     0
  0
VISUALSTYLE
  5
2F
102
{ACAD_XDICTIONARY
360
132
102
}
102
{ACAD_REACTORS
330
29
102
}
330
29
100
AcDbVisualStyle
  2
2dWireframe
 70
     4
177
     2
291
     0
 71
     0
176
     1
 72
     2
176
     1
 73
     0
176
     1
 90
        0
176
     1
 40
0.6
176
     1
 41
30.0
176
     1
 63
     7
421
 16777215
176
     1
 74
     1
176
     1
 91
        4
176
     1
 64
     7
176
     1
 65
   257
176
     1
 75
     1
176
     1
175
     1
176
     1
 42
1.0
176
     1
 92
        0
176
     1
 66
   257
176
     1
 43
1.0
176
     1
 76
     1
176
     1
 77
     6
176
     1
 78
     2
176
     1
 67
     7
176
     1
 79
     5
176
     1
170
     0
176
     1
171
     0
176
     1
290
     0
176
     1
 93
        1
176
     1
 44
0.0
176
     1
173
     0
176
     1
1001
ACAD
1000
AcDbSavedByObjectVersion
1070
     0
  0
VISUALSTYLE
  5
2E
102
{ACAD_XDICTIONARY
360
130
102
}
102
{ACAD_REACTORS
330
29
102
}
330
29
100
AcDbVisualStyle
  2
Basic
 70
     7
177
     2
291
     1
 71
     1
176
     1
 72
     0
176
     1
 73
     1
176
     1
 90
        0
176
     1
 40
0.6
176
     1
 41
30.0
176
     1
 63
     7
421
 16777215
176
     1
 74
     0
176
     1
 91
        4
176
     1
 64
     7
176
     1
 65
   257
176
     1
 75
     1
176
     1
175
     1
176
     1
 42
1.0
176
     1
 92
        8
176
     1
 66
     7
176
     1
 43
1.0
176
     1
 76
     1
176
     1
 77
     6
176
     1
 78
     2
176
     1
 67
     7
176
     1
 79
     5
176
     1
170
     0
176
     1
171
     0
176
     1
290
     0
176
     1
 93
        1
176
     1
 44
0.0
176
     1
173
     0
176
     1
1001
ACAD
1000
AcDbSavedByObjectVersion
1070
     0
  0
VISUALSTYLE
  5
35
102
{ACAD_XDICTIONARY
360
13E
102
}
102
{ACAD_REACTORS
330
29
102
}
330
29
100
AcDbVisualStyle
  2
Brighten
 70
    12
177
     2
291
     1
 71
     2
176
     1
 72
     2
176
     1
 73
     0
176
     1
 90
        0
176
     1
 40
0.6
176
     1
 41
30.0
176
     1
 63
     7
421
 16777215
176
     1
 74
     1
176
     1
 91
        4
176
     1
 64
     7
176
     1
 65
   257
176
     1
 75
     1
176
     1
175
     1
176
     1
 42
1.0
176
     1
 92
        8
176
     1
 66
     7
176
     1
 43
1.0
176
     1
 76
     1
176
     1
 77
     6
176
     1
 78
     2
176
     1
 67
     7
176
     1
 79
     5
176
     1
170
     0
176
     1
171
     0
176
     1
290
     0
176
     1
 93
        1
176
     1
 44
50.0
176
     1
173
     0
176
     1
1001
ACAD
1000
AcDbSavedByObjectVersion
1070
     0
  0
VISUALSTYLE
  5
39
102
{ACAD_XDICTIONARY
360
146
102
}
102
{ACAD_REACTORS
330
29
102
}
330
29
100
AcDbVisualStyle
  2
ColorChange
 70
    16
177
     2
291
     1
 71
     2
176
     1
 72
     2
176
     1
 73
     3
176
     1
 90
        0
176
     1
 40
0.6
176
     1
 41
30.0
176
     1
 63
     8
421
  8421504
176
     1
 74
     1
176
     1
 91
        4
176
     1
 64
     7
176
     1
 65
   257
176
     1
 75
     1
176
     1
175
     1
176
     1
 42
1.0
176
     1
 92
        8
176
     1
 66
     8
424
  8421504
176
     1
 43
1.0
176
     1
 76
     1
176
     1
 77
     6
176
     1
 78
     2
176
     1
 67
     7
176
     1
 79
     5
176
     1
170
     0
176
     1
171
     0
176
     1
290
     0
176
     1
 93
        1
176
     1
 44
0.0
176
     1
173
     0
176
     1
1001
ACAD
1000
AcDbSavedByObjectVersion
1070
     0
  0
VISUALSTYLE
  5
32
102
{ACAD_XDICTIONARY
360
138
102
}
102
{ACAD_REACTORS
330
29
102
}
330
29
100
AcDbVisualStyle
  2
Conceptual
 70
     9
177
     2
291
     0
 71
     3
176
     1
 72
     2
176
     1
 73
     0
176
     1
 90
        0
176
     1
 40
0.6
176
     1
 41
30.0
176
     1
 63
     7
421
 16777215
176
     1
 74
     2
176
     1
 91
        2
176
     1
 64
     7
176
     1
 65
   257
176
     1
 75
     1
176
     1
175
     1
176
     1
 42
179.0
176
     1
 92
        8
176
     1
 66
     7
176
     1
 43
1.0
176
     1
 76
     1
176
     1
 77
     6
176
     1
 78
     2
176
     1
 67
     7
176
     1
 79
     3
176
     1
170
     0
176
     1
171
     0
176
     1
290
     0
176
     1
 93
        1
176
     1
 44
0.0
176
     1
173
     0
176
     1
1001
ACAD
1000
AcDbSavedByObjectVersion
1070
     0
  0
VISUALSTYLE
  5
34
102
{ACAD_XDICTIONARY
360
13C
102
}
102
{ACAD_REACTORS
330
29
102
}
330
29
100
AcDbVisualStyle
  2
Dim
 70
    11
177
     2
291
     1
 71
     2
176
     1
 72
     2
176
     1
 73
     0
176
     1
 90
        0
176
     1
 40
0.6
176
     1
 41
30.0
176
     1
 63
     7
421
 16777215
176
     1
 74
     1
176
     1
 91
        4
176
     1
 64
     7
176
     1
 65
   257
176
     1
 75
     1
176
     1
175
     1
176
     1
 42
1.0
176
     1
 92
        8
176
     1
 66
     7
176
     1
 43
1.0
176
     1
 76
     1
176
     1
 77
     6
176
     1
 78
     2
176
     1
 67
     7
176
     1
 79
     5
176
     1
170
     0
176
     1
171
     0
176
     1
290
     0
176
     1
 93
        1
176
     1
 44
-50.0
176
     1
173
     0
176
     1
1001
ACAD
1000
AcDbSavedByObjectVersion
1070
     0
  0
VISUALSTYLE
  5
41
102
{ACAD_XDICTIONARY
360
156
102
}
102
{ACAD_REACTORS
330
29
102
}
330
29
100
AcDbVisualStyle
  2
EdgeColorOff
 70
    22
177
     2
291
     1
 71
     2
176
     0
 72
     2
176
     0
 73
     0
176
     0
 90
        0
176
     0
 40
0.6
176
     0
 41
30.0
176
     0
 63
     7
421
 16777215
176
     0
 74
     1
176
     0
 91
        4
176
     0
 64
     7
176
     0
 65
   257
176
     0
 75
     1
176
     0
175
     1
176
     0
 42
1.0
176
     0
 92
        8
176
     2
 66
     7
176
     0
 43
1.0
176
     0
 76
     1
176
     0
 77
     6
176
     0
 78
     2
176
     0
 67
     7
176
     0
 79
     5
176
     0
170
     0
176
     0
171
     0
176
     0
290
     0
176
     0
 93
        1
176
     0
 44
0.0
176
     0
173
     0
176
     0
1001
ACAD
1000
AcDbSavedByObjectVersion
1070
     0
  0
VISUALSTYLE
  5
38
102
{ACAD_XDICTIONARY
360
144
102
}
102
{ACAD_REACTORS
330
29
102
}
330
29
100
AcDbVisualStyle
  2
Facepattern
 70
    15
177
     2
291
     1
 71
     2
176
     1
 72
     2
176
     1
 73
     0
176
     1
 90
        0
176
     1
 40
0.6
176
     1
 41
30.0
176
     1
 63
     7
421
 16777215
176
     1
 74
     1
176
     1
 91
        4
176
     1
 64
     7
176
     1
 65
   257
176
     1
 75
     1
176
     1
175
     1
176
     1
 42
1.0
176
     1
 92
        8
176
     1
 66
     7
176
     1
 43
1.0
176
     1
 76
     1
176
     1
 77
     6
176
     1
 78
     2
176
     1
 67
     7
176
     1
 79
     5
176
     1
170
     0
176
     1
171
     0
176
     1
290
     0
176
     1
 93
        1
176
     1
 44
0.0
176
     1
173
     0
176
     1
1001
ACAD
1000
AcDbSavedByObjectVersion
1070
     0
  0
VISUALSTYLE
  5
2A
102
{ACAD_XDICTIONARY
360
128
102
}
102
{ACAD_REACTORS
330
29
102
}
330
29
100
AcDbVisualStyle
  2
Flat
 70
     0
177
     2
291
     1
 71
     2
176
     1
 72
     1
176
     1
 73
     1
176
     1
 90
        2
176
     1
 40
0.6
176
     1
 41
30.0
176
     1
 63
     7
421
 16777215
176
     1
 74
     0
176
     1
 91
        0
176
     1
 64
     7
176
     1
 65
   257
176
     1
 75
     1
176
     1
175
     1
176
     1
 42
1.0
176
     1
 92
        8
176
     1
 66
     7
176
     1
 43
1.0
176
     1
 76
     1
176
     1
 77
     6
176
     1
 78
     2
176
     1
 67
     7
176
     1
 79
     5
176
     1
170
     0
176
     1
171
     0
176
     1
290
     0
176
     1
 93
       13
176
     1
 44
0.0
176
     1
173
     0
176
     1
1001
ACAD
1000
AcDbSavedByObjectVersion
1070
     0
  0
VISUALSTYLE
  5
2B
102
{ACAD_XDICTIONARY
360
12A
102
}
102
{ACAD_REACTORS
330
29
102
}
330
29
100
AcDbVisualStyle
  2
FlatWithEdges
 70
     1
177
     2
291
     1
 71
     2
176
     1
 72
     1
176
     1
 73
     1
176
     1
 90
        2
176
     1
 40
0.6
176
     1
 41
30.0
176
     1
 63
     7
421
 16777215
176
     1
 74
     1
176
     1
 91
        0
176
     1
 64
     7
176
     1
 65
   257
176
     1
 75
     1
176
     1
175
     1
176
     1
 42
1.0
176
     1
 92
        0
176
     1
 66
   257
176
     1
 43
1.0
176
     1
 76
     1
176
     1
 77
     6
176
     1
 78
     2
176
     1
 67
     7
176
     1
 79
     5
176
     1
170
     0
176
     1
171
     0
176
     1
290
     0
176
     1
 93
       13
176
     1
 44
0.0
176
     1
173
     0
176
     1
1001
ACAD
1000
AcDbSavedByObjectVersion
1070
     0
  0
VISUALSTYLE
  5
2C
102
{ACAD_XDICTIONARY
360
12C
102
}
102
{ACAD_REACTORS
330
29
102
}
330
29
100
AcDbVisualStyle
  2
Gouraud
 70
     2
177
     2
291
     1
 71
     2
176
     1
 72
     2
176
     1
 73
     1
176
     1
 90
        2
176
     1
 40
0.6
176
     1
 41
30.0
176
     1
 63
     7
421
 16777215
176
     1
 74
     0
176
     1
 91
        0
176
     1
 64
     7
176
     1
 65
   257
176
     1
 75
     1
176
     1
175
     1
176
     1
 42
1.0
176
     1
 92
        0
176
     1
 66
     7
176
     1
 43
1.0
176
     1
 76
     1
176
     1
 77
     6
176
     1
 78
     2
176
     1
 67
     7
176
     1
 79
     5
176
     1
170
     0
176
     1
171
     0
176
     1
290
     0
176
     1
 93
       13
176
     1
 44
0.0
176
     1
173
     0
176
     1
1001
ACAD
1000
AcDbSavedByObjectVersion
1070
     0
  0
VISUALSTYLE
  5
2D
102
{ACAD_XDICTIONARY
360
12E
102
}
102
{ACAD_REACTORS
330
29
102
}
330
29
100
AcDbVisualStyle
  2
GouraudWithEdges
 70
     3
177
     2
291
     1
 71
     2
176
     1
 72
     2
176
     1
 73
     1
176
     1
 90
        2
176
     1
 40
0.6
176
     1
 41
30.0
176
     1
 63
     7
421
 16777215
176
     1
 74
     1
176
     1
 91
        0
176
     1
 64
     7
176
     1
 65
   257
176
     1
 75
     1
176
     1
175
     1
176
     1
 42
1.0
176
     1
 92
        0
176
     1
 66
   257
176
     1
 43
1.0
176
     1
 76
     1
176
     1
 77
     6
176
     1
 78
     2
176
     1
 67
     7
176
     1
 79
     5
176
     1
170
     0
176
     1
171
     0
176
     1
290
     0
176
     1
 93
       13
176
     1
 44
0.0
176
     1
173
     0
176
     1
1001
ACAD
1000
AcDbSavedByObjectVersion
1070
     0
  0
VISUALSTYLE
  5
31
102
{ACAD_XDICTIONARY
360
136
102
}
102
{ACAD_REACTORS
330
29
102
}
330
29
100
AcDbVisualStyle
  2
Hidden
 70
     6
177
     2
291
     0
 71
     1
176
     1
 72
     2
176
     1
 73
     2
176
     1
 90
        0
176
     1
 40
0.6
176
     1
 41
30.0
176
     1
 63
     7
421
 16777215
176
     1
 74
     2
176
     1
 91
        2
176
     1
 64
     7
176
     1
 65
   257
176
     1
 75
     2
176
     1
175
     1
176
     1
 42
40.0
176
     1
 92
        0
176
     1
 66
   257
176
     1
 43
1.0
176
     1
 76
     1
176
     1
 77
     6
176
     1
 78
     2
176
     1
 67
     7
176
     1
 79
     3
176
     1
170
     0
176
     1
171
     0
176
     1
290
     0
176
     1
 93
        1
176
     1
 44
0.0
176
     1
173
     0
176
     1
1001
ACAD
1000
AcDbSavedByObjectVersion
1070
     0
  0
VISUALSTYLE
  5
3F
102
{ACAD_XDICTIONARY
360
152
102
}
102
{ACAD_REACTORS
330
29
102
}
330
29
100
AcDbVisualStyle
  2
JitterOff
 70
    20
177
     2
291
     1
 71
     2
176
     0
 72
     2
176
     0
 73
     0
176
     0
 90
        0
176
     0
 40
0.6
176
     0
 41
30.0
176
     0
 63
     7
421
 16777215
176
     0
 74
     1
176
     0
 91
        4
176
     0
 64
     7
176
     0
 65
   257
176
     0
 75
     1
176
     0
175
     1
176
     0
 42
1.0
176
     0
 92
       10
176
     2
 66
     7
176
     0
 43
1.0
176
     0
 76
     1
176
     0
 77
     6
176
     0
 78
     2
176
     0
 67
     7
176
     0
 79
     5
176
     0
170
     0
176
     0
171
     0
176
     0
290
     0
176
     0
 93
        1
176
     0
 44
0.0
176
     0
173
     0
176
     0
1001
ACAD
1000
AcDbSavedByObjectVersion
1070
     0
  0
VISUALSTYLE
  5
37
102
{ACAD_XDICTIONARY
360
142
102
}
102
{ACAD_REACTORS
330
29
102
}
330
29
100
AcDbVisualStyle
  2
Linepattern
 70
    14
177
     2
291
     1
 71
     2
176
     1
 72
     2
176
     1
 73
     0
176
     1
 90
        0
176
     1
 40
0.6
176
     1
 41
30.0
176
     1
 63
     7
421
 16777215
176
     1
 74
     1
176
     1
 91
        4
176
     1
 64
     7
176
     1
 65
   257
176
     1
 75
     7
176
     1
175
     7
176
     1
 42
1.0
176
     1
 92
        8
176
     1
 66
     7
176
     1
 43
1.0
176
     1
 76
     1
176
     1
 77
     6
176
     1
 78
     2
176
     1
 67
     7
176
     1
 79
     5
176
     1
170
     0
176
     1
171
     0
176
     1
290
     0
176
     1
 93
        1
176
     1
 44
0.0
176
     1
173
     0
176
     1
1001
ACAD
1000
AcDbSavedByObjectVersion
1070
     0
  0
VISUALSTYLE
  5
40
102
{ACAD_XDICTIONARY
360
154
102
}
102
{ACAD_REACTORS
330
29
102
}
330
29
100
AcDbVisualStyle
  2
OverhangOff
 70
    21
177
     2
291
     1
 71
     2
176
     0
 72
     2
176
     0
 73
     0
176
     0
 90
        0
176
     0
 40
0.6
176
     0
 41
30.0
176
     0
 63
     7
421
 16777215
176
     0
 74
     1
176
     0
 91
        4
176
     0
 64
     7
176
     0
 65
   257
176
     0
 75
     1
176
     0
175
     1
176
     0
 42
1.0
176
     0
 92
        9
176
     2
 66
     7
176
     0
 43
1.0
176
     0
 76
     1
176
     0
 77
     6
176
     0
 78
     2
176
     0
 67
     7
176
     0
 79
     5
176
     0
170
     0
176
     0
171
     0
176
     0
290
     0
176
     0
 93
        1
176
     0
 44
0.0
176
     0
173
     0
176
     0
1001
ACAD
1000
AcDbSavedByObjectVersion
1070
     0
  0
VISUALSTYLE
  5
33
102
{ACAD_XDICTIONARY
360
13A
102
}
102
{ACAD_REACTORS
330
29
102
}
330
29
100
AcDbVisualStyle
  2
Realistic
 70
     8
177
     2
291
     0
 71
     2
176
     1
 72
     3
176
     1
 73
     0
176
     1
 90
        2
176
     1
 40
0.6
176
     1
 41
30.0
176
     1
 63
     7
421
 16777215
176
     1
 74
     0
176
     1
 91
        0
176
     1
 64
     7
176
     1
 65
   257
176
     1
 75
     1
176
     1
175
     1
176
     1
 42
1.0
176
     1
 92
        8
176
     1
 66
   257
176
     1
 43
1.0
176
     1
 76
     1
176
     1
 77
     6
176
     1
 78
     2
176
     1
 67
     7
176
     1
 79
     3
176
     1
170
     0
176
     1
171
     0
176
     1
290
     0
176
     1
 93
       13
176
     1
 44
0.0
176
     1
173
     0
176
     1
1001
ACAD
1000
AcDbSavedByObjectVersion
1070
     0
  0
VISUALSTYLE
  5
3E
102
{ACAD_XDICTIONARY
360
150
102
}
102
{ACAD_REACTORS
330
29
102
}
330
29
100
AcDbVisualStyle
  2
Shaded
 70
    27
177
     2
291
     0
 71
     2
176
     1
 72
     2
176
     1
 73
     1
176
     1
 90
        2
176
     1
 40
0.6
176
     1
 41
30.0
176
     1
 63
     7
421
 16777215
176
     1
 74
     0
176
     1
 91
        4
176
     1
 64
     7
176
     1
 65
   257
176
     1
 75
     1
176
     1
175
     1
176
     1
 42
1.0
176
     1
 92
        8
176
     1
 66
   257
176
     1
 43
1.0
176
     1
 76
     1
176
     1
 77
     6
176
     1
 78
     2
176
     1
 67
     8
425
  7895160
176
     1
 79
     3
176
     1
170
     0
176
     1
171
     0
176
     1
290
     0
176
     1
 93
        5
176
     1
 44
0.0
176
     1
173
     0
176
     1
1001
ACAD
1000
AcDbSavedByObjectVersion
1070
     0
  0
VISUALSTYLE
  5
3D
102
{ACAD_XDICTIONARY
360
14E
102
}
102
{ACAD_REACTORS
330
29
102
}
330
29
100
AcDbVisualStyle
  2
Shaded with edges
 70
    26
177
     2
291
     0
 71
     2
176
     1
 72
     2
176
     1
 73
     1
176
     1
 90
        2
176
     1
 40
0.6
176
     1
 41
30.0
176
     1
 63
     7
421
 16777215
176
     1
 74
     1
176
     1
 91
        2
176
     1
 64
     7
176
     1
 65
   257
176
     1
 75
     2
176
     1
175
     1
176
     1
 42
1.0
176
     1
 92
        8
176
     1
 66
   257
176
     1
 43
1.0
176
     1
 76
     1
176
     1
 77
     6
176
     1
 78
     2
176
     1
 67
     7
176
     1
 79
     3
176
     1
170
     0
176
     1
171
     0
176
     1
290
     0
176
     1
 93
        5
176
     1
 44
0.0
176
     1
173
     0
176
     1
1001
ACAD
1000
AcDbSavedByObjectVersion
1070
     0
  0
VISUALSTYLE
  5
3A
102
{ACAD_XDICTIONARY
360
148
102
}
102
{ACAD_REACTORS
330
29
102
}
330
29
100
AcDbVisualStyle
  2
Shades of Gray
 70
    23
177
     2
291
     0
 71
     2
176
     1
 72
     2
176
     1
 73
     3
176
     1
 90
        0
176
     1
 40
0.6
176
     1
 41
30.0
176
     1
 63
     7
421
 16777215
176
     1
 74
     2
176
     1
 91
        2
176
     1
 64
     7
176
     1
 65
     7
176
     1
 75
     1
176
     1
175
     1
176
     1
 42
40.0
176
     1
 92
        8
176
     1
 66
     7
176
     1
 43
1.0
176
     1
 76
     1
176
     1
 77
     6
176
     1
 78
     2
176
     1
 67
     7
176
     1
 79
     3
176
     1
170
     0
176
     1
171
     0
176
     1
290
     0
176
     1
 93
        1
176
     1
 44
0.0
176
     1
173
     0
176
     1
1001
ACAD
1000
AcDbSavedByObjectVersion
1070
     0
  0
VISUALSTYLE
  5
3B
102
{ACAD_XDICTIONARY
360
14A
102
}
102
{ACAD_REACTORS
330
29
102
}
330
29
100
AcDbVisualStyle
  2
Sketchy
 70
    24
177
     2
291
     0
 71
     1
176
     1
 72
     2
176
     1
 73
     2
176
     1
 90
        0
176
     1
 40
0.6
176
     1
 41
30.0
176
     1
 63
     7
421
 16777215
176
     1
 74
     2
176
     1
 91
        2
176
     1
 64
     7
176
     1
 65
     7
176
     1
 75
     1
176
     1
175
     1
176
     1
 42
40.0
176
     1
 92
       11
176
     1
 66
     7
176
     1
 43
1.0
176
     1
 76
     1
176
     1
 77
     6
176
     1
 78
     2
176
     1
 67
     7
176
     1
 79
     6
176
     1
170
     0
176
     1
171
     0
176
     1
290
     0
176
     1
 93
        1
176
     1
 44
0.0
176
     1
173
     0
176
     1
1001
ACAD
1000
AcDbSavedByObjectVersion
1070
     0
  0
VISUALSTYLE
  5
36
102
{ACAD_XDICTIONARY
360
140
102
}
102
{ACAD_REACTORS
330
29
102
}
330
29
100
AcDbVisualStyle
  2
Thicken
 70
    13
177
     2
291
     1
 71
     2
176
     1
 72
     2
176
     1
 73
     0
176
     1
 90
        0
176
     1
 40
0.6
176
     1
 41
30.0
176
     1
 63
     7
421
 16777215
176
     1
 74
     1
176
     1
 91
        4
176
     1
 64
     7
176
     1
 65
   257
176
     1
 75
     1
176
     1
175
     1
176
     1
 42
1.0
176
     1
 92
       12
176
     1
 66
     7
176
     1
 43
1.0
176
     1
 76
     1
176
     1
 77
     6
176
     1
 78
     2
176
     1
 67
     7
176
     1
 79
     5
176
     1
170
     0
176
     1
171
     0
176
     1
290
     0
176
     1
 93
        1
176
     1
 44
0.0
176
     1
173
     0
176
     1
1001
ACAD
1000
AcDbSavedByObjectVersion
1070
     0
  0
VISUALSTYLE
  5
30
102
{ACAD_XDICTIONARY
360
134
102
}
102
{ACAD_REACTORS
330
29
102
}
330
29
100
AcDbVisualStyle
  2
Wireframe
 70
     5
177
     2
291
     0
 71
     0
176
     1
 72
     2
176
     1
 73
     0
176
     1
 90
        0
176
     1
 40
0.6
176
     1
 41
30.0
176
     1
 63
     7
421
 16777215
176
     1
 74
     1
176
     1
 91
        4
176
     1
 64
     7
176
     1
 65
   257
176
     1
 75
     1
176
     1
175
     1
176
     1
 42
1.0
176
     1
 92
        0
176
     1
 66
   257
176
     1
 43
1.0
176
     1
 76
     1
176
     1
 77
     6
176
     1
 78
     2
176
     1
 67
     7
176
     1
 79
     3
176
     1
170
     0
176
     1
171
     0
176
     1
290
     0
176
     1
 93
        1
176
     1
 44
0.0
176
     1
173
     0
176
     1
1001
ACAD
1000
AcDbSavedByObjectVersion
1070
     0
  0
VISUALSTYLE
  5
3C
102
{ACAD_XDICTIONARY
360
14C
102
}
102
{ACAD_REACTORS
330
29
102
}
330
29
100
AcDbVisualStyle
  2
X-Ray
 70
    25
177
     2
291
     0
 71
     2
176
     1
 72
     2
176
     1
 73
     1
176
     1
 90
        1
176
     1
 40
0.5
176
     1
 41
30.0
176
     1
 63
     7
421
 16777215
176
     1
 74
     1
176
     1
 91
        0
176
     1
 64
     7
176
     1
 65
   257
176
     1
 75
     1
176
     1
175
     1
176
     1
 42
1.0
176
     1
 92
        8
176
     1
 66
     7
176
     1
 43
1.0
176
     1
 76
     1
176
     1
 77
     6
176
     1
 78
     2
176
     1
 67
     7
176
     1
 79
     3
176
     1
170
     0
176
     1
171
     0
176
     1
290
     0
176
     1
 93
       13
176
     1
 44
0.0
176
     1
173
     0
176
     1
1001
ACAD
1000
AcDbSavedByObjectVersion
1070
     0
  0
DICTIONARYVAR
  5
124
102
{ACAD_REACTORS
330
11F
102
}
330
11F
100
DictionaryVariables
280
     0
  1
1:1
  0
DICTIONARYVAR
  5
121
102
{ACAD_REACTORS
330
11F
102
}
330
11F
100
DictionaryVariables
280
     0
  1
STANDARD
  0
DICTIONARYVAR
  5
120
102
{ACAD_REACTORS
330
11F
102
}
330
11F
100
DictionaryVariables
280
     0
  1
STANDARD
  0
DICTIONARYVAR
  5
122
102
{ACAD_REACTORS
330
11F
102
}
330
11F
100
DictionaryVariables
280
     0
  1
Imperial24
  0
DICTIONARYVAR
  5
123
102
{ACAD_REACTORS
330
11F
102
}
330
11F
100
DictionaryVariables
280
     0
  1
Imperial24
  0
DICTIONARY
  5
15C
330
6B
100
AcDbDictionary
280
     1
281
     1
  3
ACAD_XREC_ROUNDTRIP
360
15D
  0
DICTIONARY
  5
1A
330
19
100
AcDbDictionary
280
     1
281
     1
  3
BUMPTILE
360
1C
  3
DIFFUSETILE
360
1B
  3
OPACITYTILE
360
1F
  3
REFLECTIONTILE
360
1E
  3
REFRACTIONTILE
360
20
  3
SPECULARTILE
360
1D
  0
DICTIONARY
  5
12
330
11
100
AcDbDictionary
280
     1
281
     1
  3
BUMPTILE
360
14
  3
DIFFUSETILE
360
13
  3
OPACITYTILE
360
17
  3
REFLECTIONTILE
360
16
  3
REFRACTIONTILE
360
18
  3
SPECULARTILE
360
15
  0
DICTIONARY
  5
22
330
21
100
AcDbDictionary
280
     1
281
     1
  3
BUMPTILE
360
24
  3
DIFFUSETILE
360
23
  3
OPACITYTILE
360
27
  3
REFLECTIONTILE
360
26
  3
REFRACTIONTILE
360
28
  3
SPECULARTILE
360
25
  0
DICTIONARY
  5
158
330
67
100
AcDbDictionary
280
     1
281
     1
  3
ACAD_XREC_ROUNDTRIP
360
159
  0
DICTIONARY
  5
15A
330
69
100
AcDbDictionary
280
     1
281
     1
  3
ACAD_XREC_ROUNDTRIP
360
15B
  0
DICTIONARY
  5
125
330
65
100
AcDbDictionary
280
     1
281
     1
  3
ACAD_ROUNDTRIP_2008_TABLESTYLE_CELLSTYLEMAP
360
126
  0
DICTIONARY
  5
132
330
2F
100
AcDbDictionary
280
     1
281
     1
  3
ACAD_XREC_ROUNDTRIP
360
133
  0
DICTIONARY
  5
130
330
2E
100
AcDbDictionary
280
     1
281
     1
  3
ACAD_XREC_ROUNDTRIP
360
131
  0
DICTIONARY
  5
13E
330
35
100
AcDbDictionary
280
     1
281
     1
  3
ACAD_XREC_ROUNDTRIP
360
13F
  0
DICTIONARY
  5
146
330
39
100
AcDbDictionary
280
     1
281
     1
  3
ACAD_XREC_ROUNDTRIP
360
147
  0
DICTIONARY
  5
138
330
32
100
AcDbDictionary
280
     1
281
     1
  3
ACAD_XREC_ROUNDTRIP
360
139
  0
DICTIONARY
  5
13C
330
34
100
AcDbDictionary
280
     1
281
     1
  3
ACAD_XREC_ROUNDTRIP
360
13D
  0
DICTIONARY
  5
156
330
41
100
AcDbDictionary
280
     1
281
     1
  3
ACAD_XREC_ROUNDTRIP
360
157
  0
DICTIONARY
  5
144
330
38
100
AcDbDictionary
280
     1
281
     1
  3
ACAD_XREC_ROUNDTRIP
360
145
  0
DICTIONARY
  5
128
330
2A
100
AcDbDictionary
280
     1
281
     1
  3
ACAD_XREC_ROUNDTRIP
360
129
  0
DICTIONARY
  5
12A
330
2B
100
AcDbDictionary
280
     1
281
     1
  3
ACAD_XREC_ROUNDTRIP
360
12B
  0
DICTIONARY
  5
12C
330
2C
100
AcDbDictionary
280
     1
281
     1
  3
ACAD_XREC_ROUNDTRIP
360
12D
  0
DICTIONARY
  5
12E
330
2D
100
AcDbDictionary
280
     1
281
     1
  3
ACAD_XREC_ROUNDTRIP
360
12F
  0
DICTIONARY
  5
136
330
31
100
AcDbDictionary
280
     1
281
     1
  3
ACAD_XREC_ROUNDTRIP
360
137
  0
DICTIONARY
  5
152
330
3F
100
AcDbDictionary
280
     1
281
     1
  3
ACAD_XREC_ROUNDTRIP
360
153
  0
DICTIONARY
  5
142
330
37
100
AcDbDictionary
280
     1
281
     1
  3
ACAD_XREC_ROUNDTRIP
360
143
  0
DICTIONARY
  5
154
330
40
100
AcDbDictionary
280
     1
281
     1
  3
ACAD_XREC_ROUNDTRIP
360
155
  0
DICTIONARY
  5
13A
330
33
100
AcDbDictionary
280
     1
281
     1
  3
ACAD_XREC_ROUNDTRIP
360
13B
  0
DICTIONARY
  5
150
330
3E
100
AcDbDictionary
280
     1
281
     1
  3
ACAD_XREC_ROUNDTRIP
360
151
  0
DICTIONARY
  5
14E
330
3D
100
AcDbDictionary
280
     1
281
     1
  3
ACAD_XREC_ROUNDTRIP
360
14F
  0
DICTIONARY
  5
148
330
3A
100
AcDbDictionary
280
     1
281
     1
  3
ACAD_XREC_ROUNDTRIP
360
149
  0
DICTIONARY
  5
14A
330
3B
100
AcDbDictionary
280
     1
281
     1
  3
ACAD_XREC_ROUNDTRIP
360
14B
  0
DICTIONARY
  5
140
330
36
100
AcDbDictionary
280
     1
281
     1
  3
ACAD_XREC_ROUNDTRIP
360
141
  0
DICTIONARY
  5
134
330
30
100
AcDbDictionary
280
     1
281
     1
  3
ACAD_XREC_ROUNDTRIP
360
135
  0
DICTIONARY
  5
14C
330
3C
100
AcDbDictionary
280
     1
281
     1
  3
ACAD_XREC_ROUNDTRIP
360
14D
  0
XRECORD
  5
15D
102
{ACAD_REACTORS
330
15C
102
}
330
15C
100
AcDbXrecord
280
     1
102
DISPLAYNAME
  1
Imperial24
102
FLAGS
 90
        0
  0
XRECORD
  5
1C
102
{ACAD_REACTORS
330
1A
102
}
330
1A
100
AcDbXrecord
280
     1
270
     1
271
     1
  0
XRECORD
  5
1B
102
{ACAD_REACTORS
330
1A
102
}
330
1A
100
AcDbXrecord
280
     1
270
     1
271
     1
  0
XRECORD
  5
1F
102
{ACAD_REACTORS
330
1A
102
}
330
1A
100
AcDbXrecord
280
     1
270
     1
271
     1
  0
XRECORD
  5
1E
102
{ACAD_REACTORS
330
1A
102
}
330
1A
100
AcDbXrecord
280
     1
270
     1
271
     1
  0
XRECORD
  5
20
102
{ACAD_REACTORS
330
1A
102
}
330
1A
100
AcDbXrecord
280
     1
270
     1
271
     1
  0
XRECORD
  5
1D
102
{ACAD_REACTORS
330
1A
102
}
330
1A
100
AcDbXrecord
280
     1
270
     1
271
     1
  0
XRECORD
  5
14
102
{ACAD_REACTORS
330
12
102
}
330
12
100
AcDbXrecord
280
     1
270
     1
271
     1
  0
XRECORD
  5
13
102
{ACAD_REACTORS
330
12
102
}
330
12
100
AcDbXrecord
280
     1
270
     1
271
     1
  0
XRECORD
  5
17
102
{ACAD_REACTORS
330
12
102
}
330
12
100
AcDbXrecord
280
     1
270
     1
271
     1
  0
XRECORD
  5
16
102
{ACAD_REACTORS
330
12
102
}
330
12
100
AcDbXrecord
280
     1
270
     1
271
     1
  0
XRECORD
  5
18
102
{ACAD_REACTORS
330
12
102
}
330
12
100
AcDbXrecord
280
     1
270
     1
271
     1
  0
XRECORD
  5
15
102
{ACAD_REACTORS
330
12
102
}
330
12
100
AcDbXrecord
280
     1
270
     1
271
     1
  0
XRECORD
  5
24
102
{ACAD_REACTORS
330
22
102
}
330
22
100
AcDbXrecord
280
     1
270
     1
271
     1
  0
XRECORD
  5
23
102
{ACAD_REACTORS
330
22
102
}
330
22
100
AcDbXrecord
280
     1
270
     1
271
     1
  0
XRECORD
  5
27
102
{ACAD_REACTORS
330
22
102
}
330
22
100
AcDbXrecord
280
     1
270
     1
271
     1
  0
XRECORD
  5
26
102
{ACAD_REACTORS
330
22
102
}
330
22
100
AcDbXrecord
280
     1
270
     1
271
     1
  0
XRECORD
  5
28
102
{ACAD_REACTORS
330
22
102
}
330
22
100
AcDbXrecord
280
     1
270
     1
271
     1
  0
XRECORD
  5
25
102
{ACAD_REACTORS
330
22
102
}
330
22
100
AcDbXrecord
280
     1
270
     1
271
     1
  0
XRECORD
  5
159
102
{ACAD_REACTORS
330
158
102
}
330
158
100
AcDbXrecord
280
     1
102
ACAD_ROUNDTRIP_2012_MLEADER_STYLE
298
     1
  0
XRECORD
  5
15B
102
{ACAD_REACTORS
330
15A
102
}
330
15A
100
AcDbXrecord
280
     1
102
DISPLAYNAME
  1
Imperial24
102
FLAGS
 90
        0
  0
CELLSTYLEMAP
  5
126
102
{ACAD_REACTORS
330
125
102
}
330
125
100
AcDbCellStyleMap
 90
        3
300
CELLSTYLE
  1
TABLEFORMAT_BEGIN
 90
        5
170
     1
 91
        0
 92
    32768
 62
   257
 93
        1
300
CONTENTFORMAT
  1
CONTENTFORMAT_BEGIN
 90
        0
 91
        0
 92
      512
 93
        0
300

 40
0.0
140
1.0
 94
        5
 62
     0
340
55
144
0.25
309
CONTENTFORMAT_END
171
     0
 94
        0
309
TABLEFORMAT_END
  1
CELLSTYLE_BEGIN
 90
        1
 91
        1
300
_TITLE
309
CELLSTYLE_END
300
CELLSTYLE
  1
TABLEFORMAT_BEGIN
 90
        5
170
     1
 91
        0
 92
        0
 62
   257
 93
        1
300
CONTENTFORMAT
  1
CONTENTFORMAT_BEGIN
 90
        0
 91
        0
 92
      512
 93
        0
300

 40
0.0
140
1.0
 94
        5
 62
     0
340
55
144
0.18
309
CONTENTFORMAT_END
171
     0
 94
        0
309
TABLEFORMAT_END
  1
CELLSTYLE_BEGIN
 90
        2
 91
        1
300
_HEADER
309
CELLSTYLE_END
300
CELLSTYLE
  1
TABLEFORMAT_BEGIN
 90
        5
170
     1
 91
        0
 92
        0
 62
   257
 93
        1
300
CONTENTFORMAT
  1
CONTENTFORMAT_BEGIN
 90
        0
 91
        0
 92
      512
 93
        0
300

 40
0.0
140
1.0
 94
        2
 62
     0
340
55
144
0.18
309
CONTENTFORMAT_END
171
     0
 94
        0
309
TABLEFORMAT_END
  1
CELLSTYLE_BEGIN
 90
        3
 91
        2
300
_DATA
309
CELLSTYLE_END
  0
XRECORD
  5
133
102
{ACAD_REACTORS
330
132
102
}
330
132
100
AcDbXrecord
280
     1
102
RTVSPost2010Prop28
280
     1
102
RTVSPost2010PropOp28
 70
     1
102
RTVSPost2010Prop29
280
     1
102
RTVSPost2010PropOp29
 70
     1
102
RTVSPost2010Prop30
280
     0
102
RTVSPost2010PropOp30
 70
     1
102
RTVSPost2010Prop31
280
     0
102
RTVSPost2010PropOp31
 70
     1
102
RTVSPost2010Prop32
280
     0
102
RTVSPost2010PropOp32
 70
     1
102
RTVSPost2010Prop33
280
     0
102
RTVSPost2010PropOp33
 70
     1
102
RTVSPost2010Prop34
280
     0
102
RTVSPost2010PropOp34
 70
     1
102
RTVSPost2010Prop35
280
     0
102
RTVSPost2010PropOp35
 70
     1
102
RTVSPost2010Prop36
280
     0
102
RTVSPost2010PropOp36
 70
     1
102
RTVSPost2010Prop37
 90
       50
102
RTVSPost2010PropOp37
 70
     1
102
RTVSPost2010Prop38
140
0.0
102
RTVSPost2010PropOp38
 70
     1
102
RTVSPost2010Prop39
140
1.0
102
RTVSPost2010PropOp39
 70
     1
102
RTVSPost2010Prop40
 90
        0
102
RTVSPost2010PropOp40
 70
     1
102
RTVSPost2010Prop41ColorIndex
 90
       18
102
RTVSPost2010Prop41ColorRGB
 90
        0
102
RTVSPost2010PropOp41
 70
     1
102
RTVSPost2010Prop42
 90
       50
102
RTVSPost2010PropOp42
 70
     1
102
RTVSPost2010Prop43
 90
        3
102
RTVSPost2010PropOp43
 70
     1
102
RTVSPost2010Prop44ColorIndex
 90
        5
102
RTVSPost2010Prop44ColorRGB
 90
      255
102
RTVSPost2010PropOp44
 70
     1
102
RTVSPost2010Prop45
280
     0
102
RTVSPost2010PropOp45
 70
     1
102
RTVSPost2010Prop46
 90
       50
102
RTVSPost2010PropOp46
 70
     1
102
RTVSPost2010Prop47
 90
       50
102
RTVSPost2010PropOp47
 70
     1
102
RTVSPost2010Prop48
 90
       50
102
RTVSPost2010PropOp48
 70
     1
102
RTVSPost2010Prop49
280
     0
102
RTVSPost2010PropOp49
 70
     1
102
RTVSPost2010Prop50
 90
       50
102
RTVSPost2010PropOp50
 70
     1
102
RTVSPost2010Prop51ColorIndex
 90
      256
102
RTVSPost2010Prop51ColorRGB
 90
-16777216
102
RTVSPost2010PropOp51
 70
     0
102
RTVSPost2010Prop52
140
1.0
102
RTVSPost2010PropOp52
 70
     0
102
RTVSPost2010Prop53
 90
        2
102
RTVSPost2010PropOp53
 70
     1
102
RTVSPost2010Prop54
  1
strokes_ogs.tif
102
RTVSPost2010PropOp54
 70
     1
102
RTVSPost2010Prop55
280
     0
102
RTVSPost2010PropOp55
 70
     1
102
RTVSPost2010Prop56
140
1.0
102
RTVSPost2010PropOp56
 70
     1
102
RTVSPost2010Prop57
140
1.0
102
RTVSPost2010PropOp57
 70
     1
  0
XRECORD
  5
131
102
{ACAD_REACTORS
330
130
102
}
330
130
100
AcDbXrecord
280
     1
102
RTVSPost2010Prop28
280
     0
102
RTVSPost2010PropOp28
 70
     1
102
RTVSPost2010Prop29
280
     1
102
RTVSPost2010PropOp29
 70
     1
102
RTVSPost2010Prop30
280
     1
102
RTVSPost2010PropOp30
 70
     1
102
RTVSPost2010Prop31
280
     0
102
RTVSPost2010PropOp31
 70
     1
102
RTVSPost2010Prop32
280
     0
102
RTVSPost2010PropOp32
 70
     1
102
RTVSPost2010Prop33
280
     0
102
RTVSPost2010PropOp33
 70
     1
102
RTVSPost2010Prop34
280
     0
102
RTVSPost2010PropOp34
 70
     1
102
RTVSPost2010Prop35
280
     0
102
RTVSPost2010PropOp35
 70
     1
102
RTVSPost2010Prop36
280
     0
102
RTVSPost2010PropOp36
 70
     1
102
RTVSPost2010Prop37
 90
       50
102
RTVSPost2010PropOp37
 70
     1
102
RTVSPost2010Prop38
140
0.0
102
RTVSPost2010PropOp38
 70
     1
102
RTVSPost2010Prop39
140
1.0
102
RTVSPost2010PropOp39
 70
     1
102
RTVSPost2010Prop40
 90
        0
102
RTVSPost2010PropOp40
 70
     1
102
RTVSPost2010Prop41ColorIndex
 90
       18
102
RTVSPost2010Prop41ColorRGB
 90
        0
102
RTVSPost2010PropOp41
 70
     1
102
RTVSPost2010Prop42
 90
       50
102
RTVSPost2010PropOp42
 70
     1
102
RTVSPost2010Prop43
 90
        3
102
RTVSPost2010PropOp43
 70
     1
102
RTVSPost2010Prop44ColorIndex
 90
        5
102
RTVSPost2010Prop44ColorRGB
 90
      255
102
RTVSPost2010PropOp44
 70
     1
102
RTVSPost2010Prop45
280
     0
102
RTVSPost2010PropOp45
 70
     1
102
RTVSPost2010Prop46
 90
       50
102
RTVSPost2010PropOp46
 70
     1
102
RTVSPost2010Prop47
 90
       50
102
RTVSPost2010PropOp47
 70
     1
102
RTVSPost2010Prop48
 90
       50
102
RTVSPost2010PropOp48
 70
     1
102
RTVSPost2010Prop49
280
     0
102
RTVSPost2010PropOp49
 70
     1
102
RTVSPost2010Prop50
 90
       50
102
RTVSPost2010PropOp50
 70
     1
102
RTVSPost2010Prop51ColorIndex
 90
      256
102
RTVSPost2010Prop51ColorRGB
 90
-16777216
102
RTVSPost2010PropOp51
 70
     0
102
RTVSPost2010Prop52
140
1.0
102
RTVSPost2010PropOp52
 70
     0
102
RTVSPost2010Prop53
 90
        2
102
RTVSPost2010PropOp53
 70
     1
102
RTVSPost2010Prop54
  1
strokes_ogs.tif
102
RTVSPost2010PropOp54
 70
     1
102
RTVSPost2010Prop55
280
     0
102
RTVSPost2010PropOp55
 70
     1
102
RTVSPost2010Prop56
140
1.0
102
RTVSPost2010PropOp56
 70
     1
102
RTVSPost2010Prop57
140
1.0
102
RTVSPost2010PropOp57
 70
     1
  0
XRECORD
  5
13F
102
{ACAD_REACTORS
330
13E
102
}
330
13E
100
AcDbXrecord
280
     1
102
RTVSPost2010Prop28
280
     0
102
RTVSPost2010PropOp28
 70
     1
102
RTVSPost2010Prop29
280
     1
102
RTVSPost2010PropOp29
 70
     1
102
RTVSPost2010Prop30
280
     1
102
RTVSPost2010PropOp30
 70
     1
102
RTVSPost2010Prop31
280
     0
102
RTVSPost2010PropOp31
 70
     1
102
RTVSPost2010Prop32
280
     0
102
RTVSPost2010PropOp32
 70
     1
102
RTVSPost2010Prop33
280
     0
102
RTVSPost2010PropOp33
 70
     1
102
RTVSPost2010Prop34
280
     0
102
RTVSPost2010PropOp34
 70
     1
102
RTVSPost2010Prop35
280
     0
102
RTVSPost2010PropOp35
 70
     1
102
RTVSPost2010Prop36
280
     0
102
RTVSPost2010PropOp36
 70
     1
102
RTVSPost2010Prop37
 90
       50
102
RTVSPost2010PropOp37
 70
     1
102
RTVSPost2010Prop38
140
0.0
102
RTVSPost2010PropOp38
 70
     1
102
RTVSPost2010Prop39
140
1.0
102
RTVSPost2010PropOp39
 70
     1
102
RTVSPost2010Prop40
 90
        0
102
RTVSPost2010PropOp40
 70
     1
102
RTVSPost2010Prop41ColorIndex
 90
       18
102
RTVSPost2010Prop41ColorRGB
 90
        0
102
RTVSPost2010PropOp41
 70
     1
102
RTVSPost2010Prop42
 90
       50
102
RTVSPost2010PropOp42
 70
     1
102
RTVSPost2010Prop43
 90
        3
102
RTVSPost2010PropOp43
 70
     1
102
RTVSPost2010Prop44ColorIndex
 90
        5
102
RTVSPost2010Prop44ColorRGB
 90
      255
102
RTVSPost2010PropOp44
 70
     1
102
RTVSPost2010Prop45
280
     0
102
RTVSPost2010PropOp45
 70
     1
102
RTVSPost2010Prop46
 90
       50
102
RTVSPost2010PropOp46
 70
     1
102
RTVSPost2010Prop47
 90
       50
102
RTVSPost2010PropOp47
 70
     1
102
RTVSPost2010Prop48
 90
       50
102
RTVSPost2010PropOp48
 70
     1
102
RTVSPost2010Prop49
280
     0
102
RTVSPost2010PropOp49
 70
     1
102
RTVSPost2010Prop50
 90
       50
102
RTVSPost2010PropOp50
 70
     1
102
RTVSPost2010Prop51ColorIndex
 90
      256
102
RTVSPost2010Prop51ColorRGB
 90
-16777216
102
RTVSPost2010PropOp51
 70
     0
102
RTVSPost2010Prop52
140
1.0
102
RTVSPost2010PropOp52
 70
     0
102
RTVSPost2010Prop53
 90
        2
102
RTVSPost2010PropOp53
 70
     1
102
RTVSPost2010Prop54
  1
strokes_ogs.tif
102
RTVSPost2010PropOp54
 70
     1
102
RTVSPost2010Prop55
280
     0
102
RTVSPost2010PropOp55
 70
     1
102
RTVSPost2010Prop56
140
1.0
102
RTVSPost2010PropOp56
 70
     1
102
RTVSPost2010Prop57
140
1.0
102
RTVSPost2010PropOp57
 70
     1
  0
XRECORD
  5
147
102
{ACAD_REACTORS
330
146
102
}
330
146
100
AcDbXrecord
280
     1
102
RTVSPost2010Prop28
280
     0
102
RTVSPost2010PropOp28
 70
     1
102
RTVSPost2010Prop29
280
     1
102
RTVSPost2010PropOp29
 70
     1
102
RTVSPost2010Prop30
280
     1
102
RTVSPost2010PropOp30
 70
     1
102
RTVSPost2010Prop31
280
     0
102
RTVSPost2010PropOp31
 70
     1
102
RTVSPost2010Prop32
280
     0
102
RTVSPost2010PropOp32
 70
     1
102
RTVSPost2010Prop33
280
     0
102
RTVSPost2010PropOp33
 70
     1
102
RTVSPost2010Prop34
280
     0
102
RTVSPost2010PropOp34
 70
     1
102
RTVSPost2010Prop35
280
     0
102
RTVSPost2010PropOp35
 70
     1
102
RTVSPost2010Prop36
280
     0
102
RTVSPost2010PropOp36
 70
     1
102
RTVSPost2010Prop37
 90
       50
102
RTVSPost2010PropOp37
 70
     1
102
RTVSPost2010Prop38
140
0.0
102
RTVSPost2010PropOp38
 70
     1
102
RTVSPost2010Prop39
140
1.0
102
RTVSPost2010PropOp39
 70
     1
102
RTVSPost2010Prop40
 90
        0
102
RTVSPost2010PropOp40
 70
     1
102
RTVSPost2010Prop41ColorIndex
 90
       18
102
RTVSPost2010Prop41ColorRGB
 90
        0
102
RTVSPost2010PropOp41
 70
     1
102
RTVSPost2010Prop42
 90
       50
102
RTVSPost2010PropOp42
 70
     1
102
RTVSPost2010Prop43
 90
        3
102
RTVSPost2010PropOp43
 70
     1
102
RTVSPost2010Prop44ColorIndex
 90
        5
102
RTVSPost2010Prop44ColorRGB
 90
      255
102
RTVSPost2010PropOp44
 70
     1
102
RTVSPost2010Prop45
280
     0
102
RTVSPost2010PropOp45
 70
     1
102
RTVSPost2010Prop46
 90
       50
102
RTVSPost2010PropOp46
 70
     1
102
RTVSPost2010Prop47
 90
       50
102
RTVSPost2010PropOp47
 70
     1
102
RTVSPost2010Prop48
 90
       50
102
RTVSPost2010PropOp48
 70
     1
102
RTVSPost2010Prop49
280
     0
102
RTVSPost2010PropOp49
 70
     1
102
RTVSPost2010Prop50
 90
       50
102
RTVSPost2010PropOp50
 70
     1
102
RTVSPost2010Prop51ColorIndex
 90
      256
102
RTVSPost2010Prop51ColorRGB
 90
-16777216
102
RTVSPost2010PropOp51
 70
     0
102
RTVSPost2010Prop52
140
1.0
102
RTVSPost2010PropOp52
 70
     0
102
RTVSPost2010Prop53
 90
        2
102
RTVSPost2010PropOp53
 70
     1
102
RTVSPost2010Prop54
  1
strokes_ogs.tif
102
RTVSPost2010PropOp54
 70
     1
102
RTVSPost2010Prop55
280
     0
102
RTVSPost2010PropOp55
 70
     1
102
RTVSPost2010Prop56
140
1.0
102
RTVSPost2010PropOp56
 70
     1
102
RTVSPost2010Prop57
140
1.0
102
RTVSPost2010PropOp57
 70
     1
  0
XRECORD
  5
139
102
{ACAD_REACTORS
330
138
102
}
330
138
100
AcDbXrecord
280
     1
102
RTVSPost2010Prop28
280
     0
102
RTVSPost2010PropOp28
 70
     1
102
RTVSPost2010Prop29
280
     1
102
RTVSPost2010PropOp29
 70
     1
102
RTVSPost2010Prop30
280
     1
102
RTVSPost2010PropOp30
 70
     1
102
RTVSPost2010Prop31
280
     0
102
RTVSPost2010PropOp31
 70
     1
102
RTVSPost2010Prop32
280
     0
102
RTVSPost2010PropOp32
 70
     1
102
RTVSPost2010Prop33
280
     0
102
RTVSPost2010PropOp33
 70
     1
102
RTVSPost2010Prop34
280
     0
102
RTVSPost2010PropOp34
 70
     1
102
RTVSPost2010Prop35
280
     0
102
RTVSPost2010PropOp35
 70
     1
102
RTVSPost2010Prop36
280
     0
102
RTVSPost2010PropOp36
 70
     1
102
RTVSPost2010Prop37
 90
       50
102
RTVSPost2010PropOp37
 70
     1
102
RTVSPost2010Prop38
140
0.0
102
RTVSPost2010PropOp38
 70
     1
102
RTVSPost2010Prop39
140
1.0
102
RTVSPost2010PropOp39
 70
     1
102
RTVSPost2010Prop40
 90
        0
102
RTVSPost2010PropOp40
 70
     1
102
RTVSPost2010Prop41ColorIndex
 90
       18
102
RTVSPost2010Prop41ColorRGB
 90
        0
102
RTVSPost2010PropOp41
 70
     1
102
RTVSPost2010Prop42
 90
       50
102
RTVSPost2010PropOp42
 70
     1
102
RTVSPost2010Prop43
 90
        3
102
RTVSPost2010PropOp43
 70
     1
102
RTVSPost2010Prop44ColorIndex
 90
        5
102
RTVSPost2010Prop44ColorRGB
 90
      255
102
RTVSPost2010PropOp44
 70
     1
102
RTVSPost2010Prop45
280
     0
102
RTVSPost2010PropOp45
 70
     1
102
RTVSPost2010Prop46
 90
       50
102
RTVSPost2010PropOp46
 70
     1
102
RTVSPost2010Prop47
 90
       50
102
RTVSPost2010PropOp47
 70
     1
102
RTVSPost2010Prop48
 90
       50
102
RTVSPost2010PropOp48
 70
     1
102
RTVSPost2010Prop49
280
     0
102
RTVSPost2010PropOp49
 70
     1
102
RTVSPost2010Prop50
 90
       50
102
RTVSPost2010PropOp50
 70
     1
102
RTVSPost2010Prop51ColorIndex
 90
      256
102
RTVSPost2010Prop51ColorRGB
 90
-16777216
102
RTVSPost2010PropOp51
 70
     0
102
RTVSPost2010Prop52
140
1.0
102
RTVSPost2010PropOp52
 70
     0
102
RTVSPost2010Prop53
 90
        2
102
RTVSPost2010PropOp53
 70
     1
102
RTVSPost2010Prop54
  1
strokes_ogs.tif
102
RTVSPost2010PropOp54
 70
     1
102
RTVSPost2010Prop55
280
     0
102
RTVSPost2010PropOp55
 70
     1
102
RTVSPost2010Prop56
140
1.0
102
RTVSPost2010PropOp56
 70
     1
102
RTVSPost2010Prop57
140
1.0
102
RTVSPost2010PropOp57
 70
     1
  0
XRECORD
  5
13D
102
{ACAD_REACTORS
330
13C
102
}
330
13C
100
AcDbXrecord
280
     1
102
RTVSPost2010Prop28
280
     0
102
RTVSPost2010PropOp28
 70
     1
102
RTVSPost2010Prop29
280
     1
102
RTVSPost2010PropOp29
 70
     1
102
RTVSPost2010Prop30
280
     1
102
RTVSPost2010PropOp30
 70
     1
102
RTVSPost2010Prop31
280
     0
102
RTVSPost2010PropOp31
 70
     1
102
RTVSPost2010Prop32
280
     0
102
RTVSPost2010PropOp32
 70
     1
102
RTVSPost2010Prop33
280
     0
102
RTVSPost2010PropOp33
 70
     1
102
RTVSPost2010Prop34
280
     0
102
RTVSPost2010PropOp34
 70
     1
102
RTVSPost2010Prop35
280
     0
102
RTVSPost2010PropOp35
 70
     1
102
RTVSPost2010Prop36
280
     0
102
RTVSPost2010PropOp36
 70
     1
102
RTVSPost2010Prop37
 90
       50
102
RTVSPost2010PropOp37
 70
     1
102
RTVSPost2010Prop38
140
0.0
102
RTVSPost2010PropOp38
 70
     1
102
RTVSPost2010Prop39
140
1.0
102
RTVSPost2010PropOp39
 70
     1
102
RTVSPost2010Prop40
 90
        0
102
RTVSPost2010PropOp40
 70
     1
102
RTVSPost2010Prop41ColorIndex
 90
       18
102
RTVSPost2010Prop41ColorRGB
 90
        0
102
RTVSPost2010PropOp41
 70
     1
102
RTVSPost2010Prop42
 90
       50
102
RTVSPost2010PropOp42
 70
     1
102
RTVSPost2010Prop43
 90
        3
102
RTVSPost2010PropOp43
 70
     1
102
RTVSPost2010Prop44ColorIndex
 90
        5
102
RTVSPost2010Prop44ColorRGB
 90
      255
102
RTVSPost2010PropOp44
 70
     1
102
RTVSPost2010Prop45
280
     0
102
RTVSPost2010PropOp45
 70
     1
102
RTVSPost2010Prop46
 90
       50
102
RTVSPost2010PropOp46
 70
     1
102
RTVSPost2010Prop47
 90
       50
102
RTVSPost2010PropOp47
 70
     1
102
RTVSPost2010Prop48
 90
       50
102
RTVSPost2010PropOp48
 70
     1
102
RTVSPost2010Prop49
280
     0
102
RTVSPost2010PropOp49
 70
     1
102
RTVSPost2010Prop50
 90
       50
102
RTVSPost2010PropOp50
 70
     1
102
RTVSPost2010Prop51ColorIndex
 90
      256
102
RTVSPost2010Prop51ColorRGB
 90
-16777216
102
RTVSPost2010PropOp51
 70
     0
102
RTVSPost2010Prop52
140
1.0
102
RTVSPost2010PropOp52
 70
     0
102
RTVSPost2010Prop53
 90
        2
102
RTVSPost2010PropOp53
 70
     1
102
RTVSPost2010Prop54
  1
strokes_ogs.tif
102
RTVSPost2010PropOp54
 70
     1
102
RTVSPost2010Prop55
280
     0
102
RTVSPost2010PropOp55
 70
     1
102
RTVSPost2010Prop56
140
1.0
102
RTVSPost2010PropOp56
 70
     1
102
RTVSPost2010Prop57
140
1.0
102
RTVSPost2010PropOp57
 70
     1
  0
XRECORD
  5
157
102
{ACAD_REACTORS
330
156
102
}
330
156
100
AcDbXrecord
280
     1
102
RTVSPost2010Prop28
280
     0
102
RTVSPost2010PropOp28
 70
     0
102
RTVSPost2010Prop29
280
     1
102
RTVSPost2010PropOp29
 70
     0
102
RTVSPost2010Prop30
280
     1
102
RTVSPost2010PropOp30
 70
     0
102
RTVSPost2010Prop31
280
     0
102
RTVSPost2010PropOp31
 70
     0
102
RTVSPost2010Prop32
280
     0
102
RTVSPost2010PropOp32
 70
     0
102
RTVSPost2010Prop33
280
     0
102
RTVSPost2010PropOp33
 70
     0
102
RTVSPost2010Prop34
280
     0
102
RTVSPost2010PropOp34
 70
     0
102
RTVSPost2010Prop35
280
     0
102
RTVSPost2010PropOp35
 70
     0
102
RTVSPost2010Prop36
280
     0
102
RTVSPost2010PropOp36
 70
     0
102
RTVSPost2010Prop37
 90
       50
102
RTVSPost2010PropOp37
 70
     0
102
RTVSPost2010Prop38
140
0.0
102
RTVSPost2010PropOp38
 70
     0
102
RTVSPost2010Prop39
140
1.0
102
RTVSPost2010PropOp39
 70
     0
102
RTVSPost2010Prop40
 90
        0
102
RTVSPost2010PropOp40
 70
     0
102
RTVSPost2010Prop41ColorIndex
 90
       18
102
RTVSPost2010Prop41ColorRGB
 90
        0
102
RTVSPost2010PropOp41
 70
     0
102
RTVSPost2010Prop42
 90
       50
102
RTVSPost2010PropOp42
 70
     0
102
RTVSPost2010Prop43
 90
        3
102
RTVSPost2010PropOp43
 70
     0
102
RTVSPost2010Prop44ColorIndex
 90
        5
102
RTVSPost2010Prop44ColorRGB
 90
      255
102
RTVSPost2010PropOp44
 70
     0
102
RTVSPost2010Prop45
280
     0
102
RTVSPost2010PropOp45
 70
     0
102
RTVSPost2010Prop46
 90
       50
102
RTVSPost2010PropOp46
 70
     0
102
RTVSPost2010Prop47
 90
       50
102
RTVSPost2010PropOp47
 70
     0
102
RTVSPost2010Prop48
 90
       50
102
RTVSPost2010PropOp48
 70
     0
102
RTVSPost2010Prop49
280
     0
102
RTVSPost2010PropOp49
 70
     0
102
RTVSPost2010Prop50
 90
       50
102
RTVSPost2010PropOp50
 70
     0
102
RTVSPost2010Prop51ColorIndex
 90
      256
102
RTVSPost2010Prop51ColorRGB
 90
-16777216
102
RTVSPost2010PropOp51
 70
     0
102
RTVSPost2010Prop52
140
1.0
102
RTVSPost2010PropOp52
 70
     0
102
RTVSPost2010Prop53
 90
        2
102
RTVSPost2010PropOp53
 70
     0
102
RTVSPost2010Prop54
  1
strokes_ogs.tif
102
RTVSPost2010PropOp54
 70
     0
102
RTVSPost2010Prop55
280
     0
102
RTVSPost2010PropOp55
 70
     0
102
RTVSPost2010Prop56
140
1.0
102
RTVSPost2010PropOp56
 70
     0
102
RTVSPost2010Prop57
140
1.0
102
RTVSPost2010PropOp57
 70
     0
  0
XRECORD
  5
145
102
{ACAD_REACTORS
330
144
102
}
330
144
100
AcDbXrecord
280
     1
102
RTVSPost2010Prop28
280
     0
102
RTVSPost2010PropOp28
 70
     1
102
RTVSPost2010Prop29
280
     1
102
RTVSPost2010PropOp29
 70
     1
102
RTVSPost2010Prop30
280
     1
102
RTVSPost2010PropOp30
 70
     1
102
RTVSPost2010Prop31
280
     0
102
RTVSPost2010PropOp31
 70
     1
102
RTVSPost2010Prop32
280
     0
102
RTVSPost2010PropOp32
 70
     1
102
RTVSPost2010Prop33
280
     0
102
RTVSPost2010PropOp33
 70
     1
102
RTVSPost2010Prop34
280
     0
102
RTVSPost2010PropOp34
 70
     1
102
RTVSPost2010Prop35
280
     0
102
RTVSPost2010PropOp35
 70
     1
102
RTVSPost2010Prop36
280
     0
102
RTVSPost2010PropOp36
 70
     1
102
RTVSPost2010Prop37
 90
       50
102
RTVSPost2010PropOp37
 70
     1
102
RTVSPost2010Prop38
140
0.0
102
RTVSPost2010PropOp38
 70
     1
102
RTVSPost2010Prop39
140
1.0
102
RTVSPost2010PropOp39
 70
     1
102
RTVSPost2010Prop40
 90
        0
102
RTVSPost2010PropOp40
 70
     1
102
RTVSPost2010Prop41ColorIndex
 90
       18
102
RTVSPost2010Prop41ColorRGB
 90
        0
102
RTVSPost2010PropOp41
 70
     1
102
RTVSPost2010Prop42
 90
       50
102
RTVSPost2010PropOp42
 70
     1
102
RTVSPost2010Prop43
 90
        3
102
RTVSPost2010PropOp43
 70
     1
102
RTVSPost2010Prop44ColorIndex
 90
        5
102
RTVSPost2010Prop44ColorRGB
 90
      255
102
RTVSPost2010PropOp44
 70
     1
102
RTVSPost2010Prop45
280
     0
102
RTVSPost2010PropOp45
 70
     1
102
RTVSPost2010Prop46
 90
       50
102
RTVSPost2010PropOp46
 70
     1
102
RTVSPost2010Prop47
 90
       50
102
RTVSPost2010PropOp47
 70
     1
102
RTVSPost2010Prop48
 90
       50
102
RTVSPost2010PropOp48
 70
     1
102
RTVSPost2010Prop49
280
     0
102
RTVSPost2010PropOp49
 70
     1
102
RTVSPost2010Prop50
 90
       50
102
RTVSPost2010PropOp50
 70
     1
102
RTVSPost2010Prop51ColorIndex
 90
      256
102
RTVSPost2010Prop51ColorRGB
 90
-16777216
102
RTVSPost2010PropOp51
 70
     0
102
RTVSPost2010Prop52
140
1.0
102
RTVSPost2010PropOp52
 70
     0
102
RTVSPost2010Prop53
 90
        2
102
RTVSPost2010PropOp53
 70
     1
102
RTVSPost2010Prop54
  1
strokes_ogs.tif
102
RTVSPost2010PropOp54
 70
     1
102
RTVSPost2010Prop55
280
     0
102
RTVSPost2010PropOp55
 70
     1
102
RTVSPost2010Prop56
140
1.0
102
RTVSPost2010PropOp56
 70
     1
102
RTVSPost2010Prop57
140
1.0
102
RTVSPost2010PropOp57
 70
     1
  0
XRECORD
  5
129
102
{ACAD_REACTORS
330
128
102
}
330
128
100
AcDbXrecord
280
     1
102
RTVSPost2010Prop28
280
     0
102
RTVSPost2010PropOp28
 70
     1
102
RTVSPost2010Prop29
280
     1
102
RTVSPost2010PropOp29
 70
     1
102
RTVSPost2010Prop30
280
     1
102
RTVSPost2010PropOp30
 70
     1
102
RTVSPost2010Prop31
280
     0
102
RTVSPost2010PropOp31
 70
     1
102
RTVSPost2010Prop32
280
     0
102
RTVSPost2010PropOp32
 70
     1
102
RTVSPost2010Prop33
280
     0
102
RTVSPost2010PropOp33
 70
     1
102
RTVSPost2010Prop34
280
     0
102
RTVSPost2010PropOp34
 70
     1
102
RTVSPost2010Prop35
280
     0
102
RTVSPost2010PropOp35
 70
     1
102
RTVSPost2010Prop36
280
     0
102
RTVSPost2010PropOp36
 70
     1
102
RTVSPost2010Prop37
 90
       50
102
RTVSPost2010PropOp37
 70
     1
102
RTVSPost2010Prop38
140
0.0
102
RTVSPost2010PropOp38
 70
     1
102
RTVSPost2010Prop39
140
1.0
102
RTVSPost2010PropOp39
 70
     1
102
RTVSPost2010Prop40
 90
        0
102
RTVSPost2010PropOp40
 70
     1
102
RTVSPost2010Prop41ColorIndex
 90
       18
102
RTVSPost2010Prop41ColorRGB
 90
        0
102
RTVSPost2010PropOp41
 70
     1
102
RTVSPost2010Prop42
 90
       50
102
RTVSPost2010PropOp42
 70
     1
102
RTVSPost2010Prop43
 90
        3
102
RTVSPost2010PropOp43
 70
     1
102
RTVSPost2010Prop44ColorIndex
 90
        5
102
RTVSPost2010Prop44ColorRGB
 90
      255
102
RTVSPost2010PropOp44
 70
     1
102
RTVSPost2010Prop45
280
     0
102
RTVSPost2010PropOp45
 70
     1
102
RTVSPost2010Prop46
 90
       50
102
RTVSPost2010PropOp46
 70
     1
102
RTVSPost2010Prop47
 90
       50
102
RTVSPost2010PropOp47
 70
     1
102
RTVSPost2010Prop48
 90
       50
102
RTVSPost2010PropOp48
 70
     1
102
RTVSPost2010Prop49
280
     0
102
RTVSPost2010PropOp49
 70
     1
102
RTVSPost2010Prop50
 90
       50
102
RTVSPost2010PropOp50
 70
     1
102
RTVSPost2010Prop51ColorIndex
 90
      256
102
RTVSPost2010Prop51ColorRGB
 90
-16777216
102
RTVSPost2010PropOp51
 70
     0
102
RTVSPost2010Prop52
140
1.0
102
RTVSPost2010PropOp52
 70
     0
102
RTVSPost2010Prop53
 90
        2
102
RTVSPost2010PropOp53
 70
     1
102
RTVSPost2010Prop54
  1
strokes_ogs.tif
102
RTVSPost2010PropOp54
 70
     1
102
RTVSPost2010Prop55
280
     0
102
RTVSPost2010PropOp55
 70
     1
102
RTVSPost2010Prop56
140
1.0
102
RTVSPost2010PropOp56
 70
     1
102
RTVSPost2010Prop57
140
1.0
102
RTVSPost2010PropOp57
 70
     1
  0
XRECORD
  5
12B
102
{ACAD_REACTORS
330
12A
102
}
330
12A
100
AcDbXrecord
280
     1
102
RTVSPost2010Prop28
280
     0
102
RTVSPost2010PropOp28
 70
     1
102
RTVSPost2010Prop29
280
     1
102
RTVSPost2010PropOp29
 70
     1
102
RTVSPost2010Prop30
280
     1
102
RTVSPost2010PropOp30
 70
     1
102
RTVSPost2010Prop31
280
     0
102
RTVSPost2010PropOp31
 70
     1
102
RTVSPost2010Prop32
280
     0
102
RTVSPost2010PropOp32
 70
     1
102
RTVSPost2010Prop33
280
     0
102
RTVSPost2010PropOp33
 70
     1
102
RTVSPost2010Prop34
280
     0
102
RTVSPost2010PropOp34
 70
     1
102
RTVSPost2010Prop35
280
     0
102
RTVSPost2010PropOp35
 70
     1
102
RTVSPost2010Prop36
280
     0
102
RTVSPost2010PropOp36
 70
     1
102
RTVSPost2010Prop37
 90
       50
102
RTVSPost2010PropOp37
 70
     1
102
RTVSPost2010Prop38
140
0.0
102
RTVSPost2010PropOp38
 70
     1
102
RTVSPost2010Prop39
140
1.0
102
RTVSPost2010PropOp39
 70
     1
102
RTVSPost2010Prop40
 90
        0
102
RTVSPost2010PropOp40
 70
     1
102
RTVSPost2010Prop41ColorIndex
 90
       18
102
RTVSPost2010Prop41ColorRGB
 90
        0
102
RTVSPost2010PropOp41
 70
     1
102
RTVSPost2010Prop42
 90
       50
102
RTVSPost2010PropOp42
 70
     1
102
RTVSPost2010Prop43
 90
        3
102
RTVSPost2010PropOp43
 70
     1
102
RTVSPost2010Prop44ColorIndex
 90
        5
102
RTVSPost2010Prop44ColorRGB
 90
      255
102
RTVSPost2010PropOp44
 70
     1
102
RTVSPost2010Prop45
280
     0
102
RTVSPost2010PropOp45
 70
     1
102
RTVSPost2010Prop46
 90
       50
102
RTVSPost2010PropOp46
 70
     1
102
RTVSPost2010Prop47
 90
       50
102
RTVSPost2010PropOp47
 70
     1
102
RTVSPost2010Prop48
 90
       50
102
RTVSPost2010PropOp48
 70
     1
102
RTVSPost2010Prop49
280
     0
102
RTVSPost2010PropOp49
 70
     1
102
RTVSPost2010Prop50
 90
       50
102
RTVSPost2010PropOp50
 70
     1
102
RTVSPost2010Prop51ColorIndex
 90
      256
102
RTVSPost2010Prop51ColorRGB
 90
-16777216
102
RTVSPost2010PropOp51
 70
     0
102
RTVSPost2010Prop52
140
1.0
102
RTVSPost2010PropOp52
 70
     0
102
RTVSPost2010Prop53
 90
        2
102
RTVSPost2010PropOp53
 70
     1
102
RTVSPost2010Prop54
  1
strokes_ogs.tif
102
RTVSPost2010PropOp54
 70
     1
102
RTVSPost2010Prop55
280
     0
102
RTVSPost2010PropOp55
 70
     1
102
RTVSPost2010Prop56
140
1.0
102
RTVSPost2010PropOp56
 70
     1
102
RTVSPost2010Prop57
140
1.0
102
RTVSPost2010PropOp57
 70
     1
  0
XRECORD
  5
12D
102
{ACAD_REACTORS
330
12C
102
}
330
12C
100
AcDbXrecord
280
     1
102
RTVSPost2010Prop28
280
     0
102
RTVSPost2010PropOp28
 70
     1
102
RTVSPost2010Prop29
280
     1
102
RTVSPost2010PropOp29
 70
     1
102
RTVSPost2010Prop30
280
     1
102
RTVSPost2010PropOp30
 70
     1
102
RTVSPost2010Prop31
280
     0
102
RTVSPost2010PropOp31
 70
     1
102
RTVSPost2010Prop32
280
     0
102
RTVSPost2010PropOp32
 70
     1
102
RTVSPost2010Prop33
280
     0
102
RTVSPost2010PropOp33
 70
     1
102
RTVSPost2010Prop34
280
     0
102
RTVSPost2010PropOp34
 70
     1
102
RTVSPost2010Prop35
280
     0
102
RTVSPost2010PropOp35
 70
     1
102
RTVSPost2010Prop36
280
     0
102
RTVSPost2010PropOp36
 70
     1
102
RTVSPost2010Prop37
 90
       50
102
RTVSPost2010PropOp37
 70
     1
102
RTVSPost2010Prop38
140
0.0
102
RTVSPost2010PropOp38
 70
     1
102
RTVSPost2010Prop39
140
1.0
102
RTVSPost2010PropOp39
 70
     1
102
RTVSPost2010Prop40
 90
        0
102
RTVSPost2010PropOp40
 70
     1
102
RTVSPost2010Prop41ColorIndex
 90
       18
102
RTVSPost2010Prop41ColorRGB
 90
        0
102
RTVSPost2010PropOp41
 70
     1
102
RTVSPost2010Prop42
 90
       50
102
RTVSPost2010PropOp42
 70
     1
102
RTVSPost2010Prop43
 90
        3
102
RTVSPost2010PropOp43
 70
     1
102
RTVSPost2010Prop44ColorIndex
 90
        5
102
RTVSPost2010Prop44ColorRGB
 90
      255
102
RTVSPost2010PropOp44
 70
     1
102
RTVSPost2010Prop45
280
     0
102
RTVSPost2010PropOp45
 70
     1
102
RTVSPost2010Prop46
 90
       50
102
RTVSPost2010PropOp46
 70
     1
102
RTVSPost2010Prop47
 90
       50
102
RTVSPost2010PropOp47
 70
     1
102
RTVSPost2010Prop48
 90
       50
102
RTVSPost2010PropOp48
 70
     1
102
RTVSPost2010Prop49
280
     0
102
RTVSPost2010PropOp49
 70
     1
102
RTVSPost2010Prop50
 90
       50
102
RTVSPost2010PropOp50
 70
     1
102
RTVSPost2010Prop51ColorIndex
 90
      256
102
RTVSPost2010Prop51ColorRGB
 90
-16777216
102
RTVSPost2010PropOp51
 70
     0
102
RTVSPost2010Prop52
140
1.0
102
RTVSPost2010PropOp52
 70
     0
102
RTVSPost2010Prop53
 90
        2
102
RTVSPost2010PropOp53
 70
     1
102
RTVSPost2010Prop54
  1
strokes_ogs.tif
102
RTVSPost2010PropOp54
 70
     1
102
RTVSPost2010Prop55
280
     0
102
RTVSPost2010PropOp55
 70
     1
102
RTVSPost2010Prop56
140
1.0
102
RTVSPost2010PropOp56
 70
     1
102
RTVSPost2010Prop57
140
1.0
102
RTVSPost2010PropOp57
 70
     1
  0
XRECORD
  5
12F
102
{ACAD_REACTORS
330
12E
102
}
330
12E
100
AcDbXrecord
280
     1
102
RTVSPost2010Prop28
280
     0
102
RTVSPost2010PropOp28
 70
     1
102
RTVSPost2010Prop29
280
     1
102
RTVSPost2010PropOp29
 70
     1
102
RTVSPost2010Prop30
280
     1
102
RTVSPost2010PropOp30
 70
     1
102
RTVSPost2010Prop31
280
     0
102
RTVSPost2010PropOp31
 70
     1
102
RTVSPost2010Prop32
280
     0
102
RTVSPost2010PropOp32
 70
     1
102
RTVSPost2010Prop33
280
     0
102
RTVSPost2010PropOp33
 70
     1
102
RTVSPost2010Prop34
280
     0
102
RTVSPost2010PropOp34
 70
     1
102
RTVSPost2010Prop35
280
     0
102
RTVSPost2010PropOp35
 70
     1
102
RTVSPost2010Prop36
280
     0
102
RTVSPost2010PropOp36
 70
     1
102
RTVSPost2010Prop37
 90
       50
102
RTVSPost2010PropOp37
 70
     1
102
RTVSPost2010Prop38
140
0.0
102
RTVSPost2010PropOp38
 70
     1
102
RTVSPost2010Prop39
140
1.0
102
RTVSPost2010PropOp39
 70
     1
102
RTVSPost2010Prop40
 90
        0
102
RTVSPost2010PropOp40
 70
     1
102
RTVSPost2010Prop41ColorIndex
 90
       18
102
RTVSPost2010Prop41ColorRGB
 90
        0
102
RTVSPost2010PropOp41
 70
     1
102
RTVSPost2010Prop42
 90
       50
102
RTVSPost2010PropOp42
 70
     1
102
RTVSPost2010Prop43
 90
        3
102
RTVSPost2010PropOp43
 70
     1
102
RTVSPost2010Prop44ColorIndex
 90
        5
102
RTVSPost2010Prop44ColorRGB
 90
      255
102
RTVSPost2010PropOp44
 70
     1
102
RTVSPost2010Prop45
280
     0
102
RTVSPost2010PropOp45
 70
     1
102
RTVSPost2010Prop46
 90
       50
102
RTVSPost2010PropOp46
 70
     1
102
RTVSPost2010Prop47
 90
       50
102
RTVSPost2010PropOp47
 70
     1
102
RTVSPost2010Prop48
 90
       50
102
RTVSPost2010PropOp48
 70
     1
102
RTVSPost2010Prop49
280
     0
102
RTVSPost2010PropOp49
 70
     1
102
RTVSPost2010Prop50
 90
       50
102
RTVSPost2010PropOp50
 70
     1
102
RTVSPost2010Prop51ColorIndex
 90
      256
102
RTVSPost2010Prop51ColorRGB
 90
-16777216
102
RTVSPost2010PropOp51
 70
     0
102
RTVSPost2010Prop52
140
1.0
102
RTVSPost2010PropOp52
 70
     0
102
RTVSPost2010Prop53
 90
        2
102
RTVSPost2010PropOp53
 70
     1
102
RTVSPost2010Prop54
  1
strokes_ogs.tif
102
RTVSPost2010PropOp54
 70
     1
102
RTVSPost2010Prop55
280
     0
102
RTVSPost2010PropOp55
 70
     1
102
RTVSPost2010Prop56
140
1.0
102
RTVSPost2010PropOp56
 70
     1
102
RTVSPost2010Prop57
140
1.0
102
RTVSPost2010PropOp57
 70
     1
  0
XRECORD
  5
137
102
{ACAD_REACTORS
330
136
102
}
330
136
100
AcDbXrecord
280
     1
102
RTVSPost2010Prop28
280
     0
102
RTVSPost2010PropOp28
 70
     1
102
RTVSPost2010Prop29
280
     1
102
RTVSPost2010PropOp29
 70
     1
102
RTVSPost2010Prop30
280
     1
102
RTVSPost2010PropOp30
 70
     1
102
RTVSPost2010Prop31
280
     0
102
RTVSPost2010PropOp31
 70
     1
102
RTVSPost2010Prop32
280
     0
102
RTVSPost2010PropOp32
 70
     1
102
RTVSPost2010Prop33
280
     0
102
RTVSPost2010PropOp33
 70
     1
102
RTVSPost2010Prop34
280
     0
102
RTVSPost2010PropOp34
 70
     1
102
RTVSPost2010Prop35
280
     0
102
RTVSPost2010PropOp35
 70
     1
102
RTVSPost2010Prop36
280
     0
102
RTVSPost2010PropOp36
 70
     1
102
RTVSPost2010Prop37
 90
       50
102
RTVSPost2010PropOp37
 70
     1
102
RTVSPost2010Prop38
140
0.0
102
RTVSPost2010PropOp38
 70
     1
102
RTVSPost2010Prop39
140
1.0
102
RTVSPost2010PropOp39
 70
     1
102
RTVSPost2010Prop40
 90
        0
102
RTVSPost2010PropOp40
 70
     1
102
RTVSPost2010Prop41ColorIndex
 90
       18
102
RTVSPost2010Prop41ColorRGB
 90
        0
102
RTVSPost2010PropOp41
 70
     1
102
RTVSPost2010Prop42
 90
       50
102
RTVSPost2010PropOp42
 70
     1
102
RTVSPost2010Prop43
 90
        3
102
RTVSPost2010PropOp43
 70
     1
102
RTVSPost2010Prop44ColorIndex
 90
        5
102
RTVSPost2010Prop44ColorRGB
 90
      255
102
RTVSPost2010PropOp44
 70
     1
102
RTVSPost2010Prop45
280
     0
102
RTVSPost2010PropOp45
 70
     1
102
RTVSPost2010Prop46
 90
       50
102
RTVSPost2010PropOp46
 70
     1
102
RTVSPost2010Prop47
 90
       50
102
RTVSPost2010PropOp47
 70
     1
102
RTVSPost2010Prop48
 90
       50
102
RTVSPost2010PropOp48
 70
     1
102
RTVSPost2010Prop49
280
     0
102
RTVSPost2010PropOp49
 70
     1
102
RTVSPost2010Prop50
 90
       50
102
RTVSPost2010PropOp50
 70
     1
102
RTVSPost2010Prop51ColorIndex
 90
      256
102
RTVSPost2010Prop51ColorRGB
 90
-16777216
102
RTVSPost2010PropOp51
 70
     0
102
RTVSPost2010Prop52
140
1.0
102
RTVSPost2010PropOp52
 70
     0
102
RTVSPost2010Prop53
 90
        2
102
RTVSPost2010PropOp53
 70
     1
102
RTVSPost2010Prop54
  1
strokes_ogs.tif
102
RTVSPost2010PropOp54
 70
     1
102
RTVSPost2010Prop55
280
     0
102
RTVSPost2010PropOp55
 70
     1
102
RTVSPost2010Prop56
140
1.0
102
RTVSPost2010PropOp56
 70
     1
102
RTVSPost2010Prop57
140
1.0
102
RTVSPost2010PropOp57
 70
     1
  0
XRECORD
  5
153
102
{ACAD_REACTORS
330
152
102
}
330
152
100
AcDbXrecord
280
     1
102
RTVSPost2010Prop28
280
     0
102
RTVSPost2010PropOp28
 70
     0
102
RTVSPost2010Prop29
280
     1
102
RTVSPost2010PropOp29
 70
     0
102
RTVSPost2010Prop30
280
     1
102
RTVSPost2010PropOp30
 70
     0
102
RTVSPost2010Prop31
280
     0
102
RTVSPost2010PropOp31
 70
     0
102
RTVSPost2010Prop32
280
     0
102
RTVSPost2010PropOp32
 70
     0
102
RTVSPost2010Prop33
280
     0
102
RTVSPost2010PropOp33
 70
     0
102
RTVSPost2010Prop34
280
     0
102
RTVSPost2010PropOp34
 70
     0
102
RTVSPost2010Prop35
280
     0
102
RTVSPost2010PropOp35
 70
     0
102
RTVSPost2010Prop36
280
     0
102
RTVSPost2010PropOp36
 70
     0
102
RTVSPost2010Prop37
 90
       50
102
RTVSPost2010PropOp37
 70
     0
102
RTVSPost2010Prop38
140
0.0
102
RTVSPost2010PropOp38
 70
     0
102
RTVSPost2010Prop39
140
1.0
102
RTVSPost2010PropOp39
 70
     0
102
RTVSPost2010Prop40
 90
        0
102
RTVSPost2010PropOp40
 70
     0
102
RTVSPost2010Prop41ColorIndex
 90
       18
102
RTVSPost2010Prop41ColorRGB
 90
        0
102
RTVSPost2010PropOp41
 70
     0
102
RTVSPost2010Prop42
 90
       50
102
RTVSPost2010PropOp42
 70
     0
102
RTVSPost2010Prop43
 90
        3
102
RTVSPost2010PropOp43
 70
     0
102
RTVSPost2010Prop44ColorIndex
 90
        5
102
RTVSPost2010Prop44ColorRGB
 90
      255
102
RTVSPost2010PropOp44
 70
     0
102
RTVSPost2010Prop45
280
     0
102
RTVSPost2010PropOp45
 70
     0
102
RTVSPost2010Prop46
 90
       50
102
RTVSPost2010PropOp46
 70
     0
102
RTVSPost2010Prop47
 90
       50
102
RTVSPost2010PropOp47
 70
     0
102
RTVSPost2010Prop48
 90
       50
102
RTVSPost2010PropOp48
 70
     0
102
RTVSPost2010Prop49
280
     0
102
RTVSPost2010PropOp49
 70
     0
102
RTVSPost2010Prop50
 90
       50
102
RTVSPost2010PropOp50
 70
     0
102
RTVSPost2010Prop51ColorIndex
 90
      256
102
RTVSPost2010Prop51ColorRGB
 90
-16777216
102
RTVSPost2010PropOp51
 70
     0
102
RTVSPost2010Prop52
140
1.0
102
RTVSPost2010PropOp52
 70
     0
102
RTVSPost2010Prop53
 90
        2
102
RTVSPost2010PropOp53
 70
     0
102
RTVSPost2010Prop54
  1
strokes_ogs.tif
102
RTVSPost2010PropOp54
 70
     0
102
RTVSPost2010Prop55
280
     0
102
RTVSPost2010PropOp55
 70
     0
102
RTVSPost2010Prop56
140
1.0
102
RTVSPost2010PropOp56
 70
     0
102
RTVSPost2010Prop57
140
1.0
102
RTVSPost2010PropOp57
 70
     0
  0
XRECORD
  5
143
102
{ACAD_REACTORS
330
142
102
}
330
142
100
AcDbXrecord
280
     1
102
RTVSPost2010Prop28
280
     0
102
RTVSPost2010PropOp28
 70
     1
102
RTVSPost2010Prop29
280
     1
102
RTVSPost2010PropOp29
 70
     1
102
RTVSPost2010Prop30
280
     1
102
RTVSPost2010PropOp30
 70
     1
102
RTVSPost2010Prop31
280
     0
102
RTVSPost2010PropOp31
 70
     1
102
RTVSPost2010Prop32
280
     0
102
RTVSPost2010PropOp32
 70
     1
102
RTVSPost2010Prop33
280
     0
102
RTVSPost2010PropOp33
 70
     1
102
RTVSPost2010Prop34
280
     0
102
RTVSPost2010PropOp34
 70
     1
102
RTVSPost2010Prop35
280
     0
102
RTVSPost2010PropOp35
 70
     1
102
RTVSPost2010Prop36
280
     0
102
RTVSPost2010PropOp36
 70
     1
102
RTVSPost2010Prop37
 90
       50
102
RTVSPost2010PropOp37
 70
     1
102
RTVSPost2010Prop38
140
0.0
102
RTVSPost2010PropOp38
 70
     1
102
RTVSPost2010Prop39
140
1.0
102
RTVSPost2010PropOp39
 70
     1
102
RTVSPost2010Prop40
 90
        0
102
RTVSPost2010PropOp40
 70
     1
102
RTVSPost2010Prop41ColorIndex
 90
       18
102
RTVSPost2010Prop41ColorRGB
 90
        0
102
RTVSPost2010PropOp41
 70
     1
102
RTVSPost2010Prop42
 90
       50
102
RTVSPost2010PropOp42
 70
     1
102
RTVSPost2010Prop43
 90
        3
102
RTVSPost2010PropOp43
 70
     1
102
RTVSPost2010Prop44ColorIndex
 90
        5
102
RTVSPost2010Prop44ColorRGB
 90
      255
102
RTVSPost2010PropOp44
 70
     1
102
RTVSPost2010Prop45
280
     0
102
RTVSPost2010PropOp45
 70
     1
102
RTVSPost2010Prop46
 90
       50
102
RTVSPost2010PropOp46
 70
     1
102
RTVSPost2010Prop47
 90
       50
102
RTVSPost2010PropOp47
 70
     1
102
RTVSPost2010Prop48
 90
       50
102
RTVSPost2010PropOp48
 70
     1
102
RTVSPost2010Prop49
280
     0
102
RTVSPost2010PropOp49
 70
     1
102
RTVSPost2010Prop50
 90
       50
102
RTVSPost2010PropOp50
 70
     1
102
RTVSPost2010Prop51ColorIndex
 90
      256
102
RTVSPost2010Prop51ColorRGB
 90
-16777216
102
RTVSPost2010PropOp51
 70
     0
102
RTVSPost2010Prop52
140
1.0
102
RTVSPost2010PropOp52
 70
     0
102
RTVSPost2010Prop53
 90
        2
102
RTVSPost2010PropOp53
 70
     1
102
RTVSPost2010Prop54
  1
strokes_ogs.tif
102
RTVSPost2010PropOp54
 70
     1
102
RTVSPost2010Prop55
280
     0
102
RTVSPost2010PropOp55
 70
     1
102
RTVSPost2010Prop56
140
1.0
102
RTVSPost2010PropOp56
 70
     1
102
RTVSPost2010Prop57
140
1.0
102
RTVSPost2010PropOp57
 70
     1
  0
XRECORD
  5
155
102
{ACAD_REACTORS
330
154
102
}
330
154
100
AcDbXrecord
280
     1
102
RTVSPost2010Prop28
280
     0
102
RTVSPost2010PropOp28
 70
     0
102
RTVSPost2010Prop29
280
     1
102
RTVSPost2010PropOp29
 70
     0
102
RTVSPost2010Prop30
280
     1
102
RTVSPost2010PropOp30
 70
     0
102
RTVSPost2010Prop31
280
     0
102
RTVSPost2010PropOp31
 70
     0
102
RTVSPost2010Prop32
280
     0
102
RTVSPost2010PropOp32
 70
     0
102
RTVSPost2010Prop33
280
     0
102
RTVSPost2010PropOp33
 70
     0
102
RTVSPost2010Prop34
280
     0
102
RTVSPost2010PropOp34
 70
     0
102
RTVSPost2010Prop35
280
     0
102
RTVSPost2010PropOp35
 70
     0
102
RTVSPost2010Prop36
280
     0
102
RTVSPost2010PropOp36
 70
     0
102
RTVSPost2010Prop37
 90
       50
102
RTVSPost2010PropOp37
 70
     0
102
RTVSPost2010Prop38
140
0.0
102
RTVSPost2010PropOp38
 70
     0
102
RTVSPost2010Prop39
140
1.0
102
RTVSPost2010PropOp39
 70
     0
102
RTVSPost2010Prop40
 90
        0
102
RTVSPost2010PropOp40
 70
     0
102
RTVSPost2010Prop41ColorIndex
 90
       18
102
RTVSPost2010Prop41ColorRGB
 90
        0
102
RTVSPost2010PropOp41
 70
     0
102
RTVSPost2010Prop42
 90
       50
102
RTVSPost2010PropOp42
 70
     0
102
RTVSPost2010Prop43
 90
        3
102
RTVSPost2010PropOp43
 70
     0
102
RTVSPost2010Prop44ColorIndex
 90
        5
102
RTVSPost2010Prop44ColorRGB
 90
      255
102
RTVSPost2010PropOp44
 70
     0
102
RTVSPost2010Prop45
280
     0
102
RTVSPost2010PropOp45
 70
     0
102
RTVSPost2010Prop46
 90
       50
102
RTVSPost2010PropOp46
 70
     0
102
RTVSPost2010Prop47
 90
       50
102
RTVSPost2010PropOp47
 70
     0
102
RTVSPost2010Prop48
 90
       50
102
RTVSPost2010PropOp48
 70
     0
102
RTVSPost2010Prop49
280
     0
102
RTVSPost2010PropOp49
 70
     0
102
RTVSPost2010Prop50
 90
       50
102
RTVSPost2010PropOp50
 70
     0
102
RTVSPost2010Prop51ColorIndex
 90
      256
102
RTVSPost2010Prop51ColorRGB
 90
-16777216
102
RTVSPost2010PropOp51
 70
     0
102
RTVSPost2010Prop52
140
1.0
102
RTVSPost2010PropOp52
 70
     0
102
RTVSPost2010Prop53
 90
        2
102
RTVSPost2010PropOp53
 70
     0
102
RTVSPost2010Prop54
  1
strokes_ogs.tif
102
RTVSPost2010PropOp54
 70
     0
102
RTVSPost2010Prop55
280
     0
102
RTVSPost2010PropOp55
 70
     0
102
RTVSPost2010Prop56
140
1.0
102
RTVSPost2010PropOp56
 70
     0
102
RTVSPost2010Prop57
140
1.0
102
RTVSPost2010PropOp57
 70
     0
  0
XRECORD
  5
13B
102
{ACAD_REACTORS
330
13A
102
}
330
13A
100
AcDbXrecord
280
     1
102
RTVSPost2010Prop28
280
     0
102
RTVSPost2010PropOp28
 70
     1
102
RTVSPost2010Prop29
280
     1
102
RTVSPost2010PropOp29
 70
     1
102
RTVSPost2010Prop30
280
     1
102
RTVSPost2010PropOp30
 70
     1
102
RTVSPost2010Prop31
280
     0
102
RTVSPost2010PropOp31
 70
     1
102
RTVSPost2010Prop32
280
     0
102
RTVSPost2010PropOp32
 70
     1
102
RTVSPost2010Prop33
280
     0
102
RTVSPost2010PropOp33
 70
     1
102
RTVSPost2010Prop34
280
     0
102
RTVSPost2010PropOp34
 70
     1
102
RTVSPost2010Prop35
280
     0
102
RTVSPost2010PropOp35
 70
     1
102
RTVSPost2010Prop36
280
     0
102
RTVSPost2010PropOp36
 70
     1
102
RTVSPost2010Prop37
 90
       50
102
RTVSPost2010PropOp37
 70
     1
102
RTVSPost2010Prop38
140
0.0
102
RTVSPost2010PropOp38
 70
     1
102
RTVSPost2010Prop39
140
1.0
102
RTVSPost2010PropOp39
 70
     1
102
RTVSPost2010Prop40
 90
        0
102
RTVSPost2010PropOp40
 70
     1
102
RTVSPost2010Prop41ColorIndex
 90
       18
102
RTVSPost2010Prop41ColorRGB
 90
        0
102
RTVSPost2010PropOp41
 70
     1
102
RTVSPost2010Prop42
 90
       50
102
RTVSPost2010PropOp42
 70
     1
102
RTVSPost2010Prop43
 90
        3
102
RTVSPost2010PropOp43
 70
     1
102
RTVSPost2010Prop44ColorIndex
 90
        5
102
RTVSPost2010Prop44ColorRGB
 90
      255
102
RTVSPost2010PropOp44
 70
     1
102
RTVSPost2010Prop45
280
     0
102
RTVSPost2010PropOp45
 70
     1
102
RTVSPost2010Prop46
 90
       50
102
RTVSPost2010PropOp46
 70
     1
102
RTVSPost2010Prop47
 90
       50
102
RTVSPost2010PropOp47
 70
     1
102
RTVSPost2010Prop48
 90
       50
102
RTVSPost2010PropOp48
 70
     1
102
RTVSPost2010Prop49
280
     0
102
RTVSPost2010PropOp49
 70
     1
102
RTVSPost2010Prop50
 90
       50
102
RTVSPost2010PropOp50
 70
     1
102
RTVSPost2010Prop51ColorIndex
 90
      256
102
RTVSPost2010Prop51ColorRGB
 90
-16777216
102
RTVSPost2010PropOp51
 70
     0
102
RTVSPost2010Prop52
140
1.0
102
RTVSPost2010PropOp52
 70
     0
102
RTVSPost2010Prop53
 90
        2
102
RTVSPost2010PropOp53
 70
     1
102
RTVSPost2010Prop54
  1
strokes_ogs.tif
102
RTVSPost2010PropOp54
 70
     1
102
RTVSPost2010Prop55
280
     0
102
RTVSPost2010PropOp55
 70
     1
102
RTVSPost2010Prop56
140
1.0
102
RTVSPost2010PropOp56
 70
     1
102
RTVSPost2010Prop57
140
1.0
102
RTVSPost2010PropOp57
 70
     1
  0
XRECORD
  5
151
102
{ACAD_REACTORS
330
150
102
}
330
150
100
AcDbXrecord
280
     1
102
RTVSPost2010Prop28
280
     0
102
RTVSPost2010PropOp28
 70
     1
102
RTVSPost2010Prop29
280
     1
102
RTVSPost2010PropOp29
 70
     1
102
RTVSPost2010Prop30
280
     1
102
RTVSPost2010PropOp30
 70
     1
102
RTVSPost2010Prop31
280
     0
102
RTVSPost2010PropOp31
 70
     1
102
RTVSPost2010Prop32
280
     0
102
RTVSPost2010PropOp32
 70
     1
102
RTVSPost2010Prop33
280
     0
102
RTVSPost2010PropOp33
 70
     1
102
RTVSPost2010Prop34
280
     0
102
RTVSPost2010PropOp34
 70
     1
102
RTVSPost2010Prop35
280
     0
102
RTVSPost2010PropOp35
 70
     1
102
RTVSPost2010Prop36
280
     0
102
RTVSPost2010PropOp36
 70
     1
102
RTVSPost2010Prop37
 90
       50
102
RTVSPost2010PropOp37
 70
     1
102
RTVSPost2010Prop38
140
0.0
102
RTVSPost2010PropOp38
 70
     1
102
RTVSPost2010Prop39
140
1.0
102
RTVSPost2010PropOp39
 70
     1
102
RTVSPost2010Prop40
 90
        0
102
RTVSPost2010PropOp40
 70
     1
102
RTVSPost2010Prop41ColorIndex
 90
       18
102
RTVSPost2010Prop41ColorRGB
 90
        0
102
RTVSPost2010PropOp41
 70
     1
102
RTVSPost2010Prop42
 90
       50
102
RTVSPost2010PropOp42
 70
     1
102
RTVSPost2010Prop43
 90
        3
102
RTVSPost2010PropOp43
 70
     1
102
RTVSPost2010Prop44ColorIndex
 90
        5
102
RTVSPost2010Prop44ColorRGB
 90
      255
102
RTVSPost2010PropOp44
 70
     1
102
RTVSPost2010Prop45
280
     0
102
RTVSPost2010PropOp45
 70
     1
102
RTVSPost2010Prop46
 90
       50
102
RTVSPost2010PropOp46
 70
     1
102
RTVSPost2010Prop47
 90
       50
102
RTVSPost2010PropOp47
 70
     1
102
RTVSPost2010Prop48
 90
       50
102
RTVSPost2010PropOp48
 70
     1
102
RTVSPost2010Prop49
280
     0
102
RTVSPost2010PropOp49
 70
     1
102
RTVSPost2010Prop50
 90
       50
102
RTVSPost2010PropOp50
 70
     1
102
RTVSPost2010Prop51ColorIndex
 90
      256
102
RTVSPost2010Prop51ColorRGB
 90
-16777216
102
RTVSPost2010PropOp51
 70
     0
102
RTVSPost2010Prop52
140
1.0
102
RTVSPost2010PropOp52
 70
     0
102
RTVSPost2010Prop53
 90
        2
102
RTVSPost2010PropOp53
 70
     1
102
RTVSPost2010Prop54
  1
strokes_ogs.tif
102
RTVSPost2010PropOp54
 70
     1
102
RTVSPost2010Prop55
280
     0
102
RTVSPost2010PropOp55
 70
     1
102
RTVSPost2010Prop56
140
1.0
102
RTVSPost2010PropOp56
 70
     1
102
RTVSPost2010Prop57
140
1.0
102
RTVSPost2010PropOp57
 70
     1
  0
XRECORD
  5
14F
102
{ACAD_REACTORS
330
14E
102
}
330
14E
100
AcDbXrecord
280
     1
102
RTVSPost2010Prop28
280
     0
102
RTVSPost2010PropOp28
 70
     1
102
RTVSPost2010Prop29
280
     1
102
RTVSPost2010PropOp29
 70
     1
102
RTVSPost2010Prop30
280
     1
102
RTVSPost2010PropOp30
 70
     1
102
RTVSPost2010Prop31
280
     0
102
RTVSPost2010PropOp31
 70
     1
102
RTVSPost2010Prop32
280
     0
102
RTVSPost2010PropOp32
 70
     1
102
RTVSPost2010Prop33
280
     0
102
RTVSPost2010PropOp33
 70
     1
102
RTVSPost2010Prop34
280
     0
102
RTVSPost2010PropOp34
 70
     1
102
RTVSPost2010Prop35
280
     0
102
RTVSPost2010PropOp35
 70
     1
102
RTVSPost2010Prop36
280
     0
102
RTVSPost2010PropOp36
 70
     1
102
RTVSPost2010Prop37
 90
       50
102
RTVSPost2010PropOp37
 70
     1
102
RTVSPost2010Prop38
140
0.0
102
RTVSPost2010PropOp38
 70
     1
102
RTVSPost2010Prop39
140
1.0
102
RTVSPost2010PropOp39
 70
     1
102
RTVSPost2010Prop40
 90
        0
102
RTVSPost2010PropOp40
 70
     1
102
RTVSPost2010Prop41ColorIndex
 90
       18
102
RTVSPost2010Prop41ColorRGB
 90
        0
102
RTVSPost2010PropOp41
 70
     1
102
RTVSPost2010Prop42
 90
       50
102
RTVSPost2010PropOp42
 70
     1
102
RTVSPost2010Prop43
 90
        3
102
RTVSPost2010PropOp43
 70
     1
102
RTVSPost2010Prop44ColorIndex
 90
        5
102
RTVSPost2010Prop44ColorRGB
 90
      255
102
RTVSPost2010PropOp44
 70
     1
102
RTVSPost2010Prop45
280
     0
102
RTVSPost2010PropOp45
 70
     1
102
RTVSPost2010Prop46
 90
       50
102
RTVSPost2010PropOp46
 70
     1
102
RTVSPost2010Prop47
 90
       50
102
RTVSPost2010PropOp47
 70
     1
102
RTVSPost2010Prop48
 90
       50
102
RTVSPost2010PropOp48
 70
     1
102
RTVSPost2010Prop49
280
     0
102
RTVSPost2010PropOp49
 70
     1
102
RTVSPost2010Prop50
 90
       50
102
RTVSPost2010PropOp50
 70
     1
102
RTVSPost2010Prop51ColorIndex
 90
      256
102
RTVSPost2010Prop51ColorRGB
 90
-16777216
102
RTVSPost2010PropOp51
 70
     0
102
RTVSPost2010Prop52
140
1.0
102
RTVSPost2010PropOp52
 70
     0
102
RTVSPost2010Prop53
 90
        2
102
RTVSPost2010PropOp53
 70
     1
102
RTVSPost2010Prop54
  1
strokes_ogs.tif
102
RTVSPost2010PropOp54
 70
     1
102
RTVSPost2010Prop55
280
     0
102
RTVSPost2010PropOp55
 70
     1
102
RTVSPost2010Prop56
140
1.0
102
RTVSPost2010PropOp56
 70
     1
102
RTVSPost2010Prop57
140
1.0
102
RTVSPost2010PropOp57
 70
     1
  0
XRECORD
  5
149
102
{ACAD_REACTORS
330
148
102
}
330
148
100
AcDbXrecord
280
     1
102
RTVSPost2010Prop28
280
     0
102
RTVSPost2010PropOp28
 70
     1
102
RTVSPost2010Prop29
280
     1
102
RTVSPost2010PropOp29
 70
     1
102
RTVSPost2010Prop30
280
     1
102
RTVSPost2010PropOp30
 70
     1
102
RTVSPost2010Prop31
280
     0
102
RTVSPost2010PropOp31
 70
     1
102
RTVSPost2010Prop32
280
     0
102
RTVSPost2010PropOp32
 70
     1
102
RTVSPost2010Prop33
280
     0
102
RTVSPost2010PropOp33
 70
     1
102
RTVSPost2010Prop34
280
     0
102
RTVSPost2010PropOp34
 70
     1
102
RTVSPost2010Prop35
280
     0
102
RTVSPost2010PropOp35
 70
     1
102
RTVSPost2010Prop36
280
     0
102
RTVSPost2010PropOp36
 70
     1
102
RTVSPost2010Prop37
 90
       50
102
RTVSPost2010PropOp37
 70
     1
102
RTVSPost2010Prop38
140
0.0
102
RTVSPost2010PropOp38
 70
     1
102
RTVSPost2010Prop39
140
1.0
102
RTVSPost2010PropOp39
 70
     1
102
RTVSPost2010Prop40
 90
        0
102
RTVSPost2010PropOp40
 70
     1
102
RTVSPost2010Prop41ColorIndex
 90
       18
102
RTVSPost2010Prop41ColorRGB
 90
        0
102
RTVSPost2010PropOp41
 70
     1
102
RTVSPost2010Prop42
 90
       50
102
RTVSPost2010PropOp42
 70
     1
102
RTVSPost2010Prop43
 90
        3
102
RTVSPost2010PropOp43
 70
     1
102
RTVSPost2010Prop44ColorIndex
 90
        5
102
RTVSPost2010Prop44ColorRGB
 90
      255
102
RTVSPost2010PropOp44
 70
     1
102
RTVSPost2010Prop45
280
     0
102
RTVSPost2010PropOp45
 70
     1
102
RTVSPost2010Prop46
 90
       50
102
RTVSPost2010PropOp46
 70
     1
102
RTVSPost2010Prop47
 90
       50
102
RTVSPost2010PropOp47
 70
     1
102
RTVSPost2010Prop48
 90
       50
102
RTVSPost2010PropOp48
 70
     1
102
RTVSPost2010Prop49
280
     0
102
RTVSPost2010PropOp49
 70
     1
102
RTVSPost2010Prop50
 90
       50
102
RTVSPost2010PropOp50
 70
     1
102
RTVSPost2010Prop51ColorIndex
 90
      256
102
RTVSPost2010Prop51ColorRGB
 90
-16777216
102
RTVSPost2010PropOp51
 70
     0
102
RTVSPost2010Prop52
140
1.0
102
RTVSPost2010PropOp52
 70
     0
102
RTVSPost2010Prop53
 90
        2
102
RTVSPost2010PropOp53
 70
     1
102
RTVSPost2010Prop54
  1
strokes_ogs.tif
102
RTVSPost2010PropOp54
 70
     1
102
RTVSPost2010Prop55
280
     0
102
RTVSPost2010PropOp55
 70
     1
102
RTVSPost2010Prop56
140
1.0
102
RTVSPost2010PropOp56
 70
     1
102
RTVSPost2010Prop57
140
1.0
102
RTVSPost2010PropOp57
 70
     1
  0
XRECORD
  5
14B
102
{ACAD_REACTORS
330
14A
102
}
330
14A
100
AcDbXrecord
280
     1
102
RTVSPost2010Prop28
280
     0
102
RTVSPost2010PropOp28
 70
     1
102
RTVSPost2010Prop29
280
     1
102
RTVSPost2010PropOp29
 70
     1
102
RTVSPost2010Prop30
280
     1
102
RTVSPost2010PropOp30
 70
     1
102
RTVSPost2010Prop31
280
     0
102
RTVSPost2010PropOp31
 70
     1
102
RTVSPost2010Prop32
280
     0
102
RTVSPost2010PropOp32
 70
     1
102
RTVSPost2010Prop33
280
     0
102
RTVSPost2010PropOp33
 70
     1
102
RTVSPost2010Prop34
280
     0
102
RTVSPost2010PropOp34
 70
     1
102
RTVSPost2010Prop35
280
     0
102
RTVSPost2010PropOp35
 70
     1
102
RTVSPost2010Prop36
280
     0
102
RTVSPost2010PropOp36
 70
     1
102
RTVSPost2010Prop37
 90
       50
102
RTVSPost2010PropOp37
 70
     1
102
RTVSPost2010Prop38
140
0.0
102
RTVSPost2010PropOp38
 70
     1
102
RTVSPost2010Prop39
140
1.0
102
RTVSPost2010PropOp39
 70
     1
102
RTVSPost2010Prop40
 90
        0
102
RTVSPost2010PropOp40
 70
     1
102
RTVSPost2010Prop41ColorIndex
 90
       18
102
RTVSPost2010Prop41ColorRGB
 90
        0
102
RTVSPost2010PropOp41
 70
     1
102
RTVSPost2010Prop42
 90
       50
102
RTVSPost2010PropOp42
 70
     1
102
RTVSPost2010Prop43
 90
        3
102
RTVSPost2010PropOp43
 70
     1
102
RTVSPost2010Prop44ColorIndex
 90
        5
102
RTVSPost2010Prop44ColorRGB
 90
      255
102
RTVSPost2010PropOp44
 70
     1
102
RTVSPost2010Prop45
280
     0
102
RTVSPost2010PropOp45
 70
     1
102
RTVSPost2010Prop46
 90
       50
102
RTVSPost2010PropOp46
 70
     1
102
RTVSPost2010Prop47
 90
       50
102
RTVSPost2010PropOp47
 70
     1
102
RTVSPost2010Prop48
 90
       50
102
RTVSPost2010PropOp48
 70
     1
102
RTVSPost2010Prop49
280
     0
102
RTVSPost2010PropOp49
 70
     1
102
RTVSPost2010Prop50
 90
       50
102
RTVSPost2010PropOp50
 70
     1
102
RTVSPost2010Prop51ColorIndex
 90
      256
102
RTVSPost2010Prop51ColorRGB
 90
-16777216
102
RTVSPost2010PropOp51
 70
     0
102
RTVSPost2010Prop52
140
1.0
102
RTVSPost2010PropOp52
 70
     0
102
RTVSPost2010Prop53
 90
        2
102
RTVSPost2010PropOp53
 70
     1
102
RTVSPost2010Prop54
  1
strokes_ogs.tif
102
RTVSPost2010PropOp54
 70
     1
102
RTVSPost2010Prop55
280
     0
102
RTVSPost2010PropOp55
 70
     1
102
RTVSPost2010Prop56
140
1.0
102
RTVSPost2010PropOp56
 70
     1
102
RTVSPost2010Prop57
140
1.0
102
RTVSPost2010PropOp57
 70
     1
  0
XRECORD
  5
141
102
{ACAD_REACTORS
330
140
102
}
330
140
100
AcDbXrecord
280
     1
102
RTVSPost2010Prop28
280
     0
102
RTVSPost2010PropOp28
 70
     1
102
RTVSPost2010Prop29
280
     1
102
RTVSPost2010PropOp29
 70
     1
102
RTVSPost2010Prop30
280
     1
102
RTVSPost2010PropOp30
 70
     1
102
RTVSPost2010Prop31
280
     0
102
RTVSPost2010PropOp31
 70
     1
102
RTVSPost2010Prop32
280
     0
102
RTVSPost2010PropOp32
 70
     1
102
RTVSPost2010Prop33
280
     0
102
RTVSPost2010PropOp33
 70
     1
102
RTVSPost2010Prop34
280
     0
102
RTVSPost2010PropOp34
 70
     1
102
RTVSPost2010Prop35
280
     0
102
RTVSPost2010PropOp35
 70
     1
102
RTVSPost2010Prop36
280
     0
102
RTVSPost2010PropOp36
 70
     1
102
RTVSPost2010Prop37
 90
       50
102
RTVSPost2010PropOp37
 70
     1
102
RTVSPost2010Prop38
140
0.0
102
RTVSPost2010PropOp38
 70
     1
102
RTVSPost2010Prop39
140
1.0
102
RTVSPost2010PropOp39
 70
     1
102
RTVSPost2010Prop40
 90
        0
102
RTVSPost2010PropOp40
 70
     1
102
RTVSPost2010Prop41ColorIndex
 90
       18
102
RTVSPost2010Prop41ColorRGB
 90
        0
102
RTVSPost2010PropOp41
 70
     1
102
RTVSPost2010Prop42
 90
       50
102
RTVSPost2010PropOp42
 70
     1
102
RTVSPost2010Prop43
 90
        3
102
RTVSPost2010PropOp43
 70
     1
102
RTVSPost2010Prop44ColorIndex
 90
        5
102
RTVSPost2010Prop44ColorRGB
 90
      255
102
RTVSPost2010PropOp44
 70
     1
102
RTVSPost2010Prop45
280
     0
102
RTVSPost2010PropOp45
 70
     1
102
RTVSPost2010Prop46
 90
       50
102
RTVSPost2010PropOp46
 70
     1
102
RTVSPost2010Prop47
 90
       50
102
RTVSPost2010PropOp47
 70
     1
102
RTVSPost2010Prop48
 90
       50
102
RTVSPost2010PropOp48
 70
     1
102
RTVSPost2010Prop49
280
     0
102
RTVSPost2010PropOp49
 70
     1
102
RTVSPost2010Prop50
 90
       50
102
RTVSPost2010PropOp50
 70
     1
102
RTVSPost2010Prop51ColorIndex
 90
      256
102
RTVSPost2010Prop51ColorRGB
 90
-16777216
102
RTVSPost2010PropOp51
 70
     0
102
RTVSPost2010Prop52
140
1.0
102
RTVSPost2010PropOp52
 70
     0
102
RTVSPost2010Prop53
 90
        2
102
RTVSPost2010PropOp53
 70
     1
102
RTVSPost2010Prop54
  1
strokes_ogs.tif
102
RTVSPost2010PropOp54
 70
     1
102
RTVSPost2010Prop55
280
     0
102
RTVSPost2010PropOp55
 70
     1
102
RTVSPost2010Prop56
140
1.0
102
RTVSPost2010PropOp56
 70
     1
102
RTVSPost2010Prop57
140
1.0
102
RTVSPost2010PropOp57
 70
     1
  0
XRECORD
  5
135
102
{ACAD_REACTORS
330
134
102
}
330
134
100
AcDbXrecord
280
     1
102
RTVSPost2010Prop28
280
     0
102
RTVSPost2010PropOp28
 70
     1
102
RTVSPost2010Prop29
280
     1
102
RTVSPost2010PropOp29
 70
     1
102
RTVSPost2010Prop30
280
     1
102
RTVSPost2010PropOp30
 70
     1
102
RTVSPost2010Prop31
280
     0
102
RTVSPost2010PropOp31
 70
     1
102
RTVSPost2010Prop32
280
     0
102
RTVSPost2010PropOp32
 70
     1
102
RTVSPost2010Prop33
280
     0
102
RTVSPost2010PropOp33
 70
     1
102
RTVSPost2010Prop34
280
     0
102
RTVSPost2010PropOp34
 70
     1
102
RTVSPost2010Prop35
280
     0
102
RTVSPost2010PropOp35
 70
     1
102
RTVSPost2010Prop36
280
     0
102
RTVSPost2010PropOp36
 70
     1
102
RTVSPost2010Prop37
 90
       50
102
RTVSPost2010PropOp37
 70
     1
102
RTVSPost2010Prop38
140
0.0
102
RTVSPost2010PropOp38
 70
     1
102
RTVSPost2010Prop39
140
1.0
102
RTVSPost2010PropOp39
 70
     1
102
RTVSPost2010Prop40
 90
        0
102
RTVSPost2010PropOp40
 70
     1
102
RTVSPost2010Prop41ColorIndex
 90
       18
102
RTVSPost2010Prop41ColorRGB
 90
        0
102
RTVSPost2010PropOp41
 70
     1
102
RTVSPost2010Prop42
 90
       50
102
RTVSPost2010PropOp42
 70
     1
102
RTVSPost2010Prop43
 90
        3
102
RTVSPost2010PropOp43
 70
     1
102
RTVSPost2010Prop44ColorIndex
 90
        5
102
RTVSPost2010Prop44ColorRGB
 90
      255
102
RTVSPost2010PropOp44
 70
     1
102
RTVSPost2010Prop45
280
     0
102
RTVSPost2010PropOp45
 70
     1
102
RTVSPost2010Prop46
 90
       50
102
RTVSPost2010PropOp46
 70
     1
102
RTVSPost2010Prop47
 90
       50
102
RTVSPost2010PropOp47
 70
     1
102
RTVSPost2010Prop48
 90
       50
102
RTVSPost2010PropOp48
 70
     1
102
RTVSPost2010Prop49
280
     0
102
RTVSPost2010PropOp49
 70
     1
102
RTVSPost2010Prop50
 90
       50
102
RTVSPost2010PropOp50
 70
     1
102
RTVSPost2010Prop51ColorIndex
 90
      256
102
RTVSPost2010Prop51ColorRGB
 90
-16777216
102
RTVSPost2010PropOp51
 70
     0
102
RTVSPost2010Prop52
140
1.0
102
RTVSPost2010PropOp52
 70
     0
102
RTVSPost2010Prop53
 90
        2
102
RTVSPost2010PropOp53
 70
     1
102
RTVSPost2010Prop54
  1
strokes_ogs.tif
102
RTVSPost2010PropOp54
 70
     1
102
RTVSPost2010Prop55
280
     0
102
RTVSPost2010PropOp55
 70
     1
102
RTVSPost2010Prop56
140
1.0
102
RTVSPost2010PropOp56
 70
     1
102
RTVSPost2010Prop57
140
1.0
102
RTVSPost2010PropOp57
 70
     1
  0
XRECORD
  5
14D
102
{ACAD_REACTORS
330
14C
102
}
330
14C
100
AcDbXrecord
280
     1
102
RTVSPost2010Prop28
280
     0
102
RTVSPost2010PropOp28
 70
     1
102
RTVSPost2010Prop29
280
     1
102
RTVSPost2010PropOp29
 70
     1
102
RTVSPost2010Prop30
280
     1
102
RTVSPost2010PropOp30
 70
     1
102
RTVSPost2010Prop31
280
     0
102
RTVSPost2010PropOp31
 70
     1
102
RTVSPost2010Prop32
280
     0
102
RTVSPost2010PropOp32
 70
     1
102
RTVSPost2010Prop33
280
     0
102
RTVSPost2010PropOp33
 70
     1
102
RTVSPost2010Prop34
280
     0
102
RTVSPost2010PropOp34
 70
     1
102
RTVSPost2010Prop35
280
     0
102
RTVSPost2010PropOp35
 70
     1
102
RTVSPost2010Prop36
280
     0
102
RTVSPost2010PropOp36
 70
     1
102
RTVSPost2010Prop37
 90
       50
102
RTVSPost2010PropOp37
 70
     1
102
RTVSPost2010Prop38
140
0.0
102
RTVSPost2010PropOp38
 70
     1
102
RTVSPost2010Prop39
140
1.0
102
RTVSPost2010PropOp39
 70
     1
102
RTVSPost2010Prop40
 90
        0
102
RTVSPost2010PropOp40
 70
     1
102
RTVSPost2010Prop41ColorIndex
 90
       18
102
RTVSPost2010Prop41ColorRGB
 90
        0
102
RTVSPost2010PropOp41
 70
     1
102
RTVSPost2010Prop42
 90
       50
102
RTVSPost2010PropOp42
 70
     1
102
RTVSPost2010Prop43
 90
        3
102
RTVSPost2010PropOp43
 70
     1
102
RTVSPost2010Prop44ColorIndex
 90
        5
102
RTVSPost2010Prop44ColorRGB
 90
      255
102
RTVSPost2010PropOp44
 70
     1
102
RTVSPost2010Prop45
280
     0
102
RTVSPost2010PropOp45
 70
     1
102
RTVSPost2010Prop46
 90
       50
102
RTVSPost2010PropOp46
 70
     1
102
RTVSPost2010Prop47
 90
       50
102
RTVSPost2010PropOp47
 70
     1
102
RTVSPost2010Prop48
 90
       50
102
RTVSPost2010PropOp48
 70
     1
102
RTVSPost2010Prop49
280
     0
102
RTVSPost2010PropOp49
 70
     1
102
RTVSPost2010Prop50
 90
       50
102
RTVSPost2010PropOp50
 70
     1
102
RTVSPost2010Prop51ColorIndex
 90
      256
102
RTVSPost2010Prop51ColorRGB
 90
-16777216
102
RTVSPost2010PropOp51
 70
     0
102
RTVSPost2010Prop52
140
1.0
102
RTVSPost2010PropOp52
 70
     0
102
RTVSPost2010Prop53
 90
        2
102
RTVSPost2010PropOp53
 70
     1
102
RTVSPost2010Prop54
  1
strokes_ogs.tif
102
RTVSPost2010PropOp54
 70
     1
102
RTVSPost2010Prop55
280
     0
102
RTVSPost2010PropOp55
 70
     1
102
RTVSPost2010Prop56
140
1.0
102
RTVSPost2010PropOp56
 70
     1
102
RTVSPost2010Prop57
140
1.0
102
RTVSPost2010PropOp57
 70
     1
  0
ENDSEC
  0
EOF
