  0
SECTION
  2
HEADER
  9
$ACADVER
  1
AC1024
  9
$ACADMAINTVER
 70
   226
  9
$DWGCODEPAGE
  3
ANSI_932
  9
$INSBASE
 10
0.0
 20
0.0
 30
0.0
  9
$EXTMIN
 10
1.000000000000000E+20
 20
1.000000000000000E+20
 30
1.000000000000000E+20
  9
$EXTMAX
 10
-1.000000000000000E+20
 20
-1.000000000000000E+20
 30
-1.000000000000000E+20
  9
$LIMMIN
 10
0.0
 20
0.0
  9
$LIMMAX
 10
12.0
 20
9.0
  9
$ORTHOMODE
 70
     0
  9
$REGENMODE
 70
     1
  9
$FILLMODE
 70
     1
  9
$QTEXTMODE
 70
     0
  9
$MIRRTEXT
 70
     0
  9
$LTSCALE
 40
1.0
  9
$ATTMODE
 70
     1
  9
$TEXTSIZE
 40
0.2
  9
$TRACEWID
 40
0.05
  9
$TEXTSTYLE
  7
Standard
  9
$CLAYER
  8
0
  9
$CELTYPE
  6
ByLayer
  9
$CECOLOR
 62
   256
  9
$CELTSCALE
 40
1.0
  9
$DISPSILH
 70
     0
  9
$DIMSCALE
 40
1.0
  9
$DIMASZ
 40
0.18
  9
$DIMEXO
 40
0.0625
  9
$DIMDLI
 40
0.38
  9
$DIMRND
 40
0.0
  9
$DIMDLE
 40
0.0
  9
$DIMEXE
 40
0.18
  9
$DIMTP
 40
0.0
  9
$DIMTM
 40
0.0
  9
$DIMTXT
 40
0.18
  9
$DIMCEN
 40
0.09
  9
$DIMTSZ
 40
0.0
  9
$DIMTOL
 70
     0
  9
$DIMLIM
 70
     0
  9
$DIMTIH
 70
     1
  9
$DIMTOH
 70
     1
  9
$DIMSE1
 70
     0
  9
$DIMSE2
 70
     0
  9
$DIMTAD
 70
     0
  9
$DIMZIN
 70
     0
  9
$DIMBLK
  1

  9
$DIMASO
 70
     1
  9
$DIMSHO
 70
     1
  9
$DIMPOST
  1

  9
$DIMAPOST
  1

  9
$DIMALT
 70
     0
  9
$DIMALTD
 70
     2
  9
$DIMALTF
 40
25.4
  9
$DIMLFAC
 40
1.0
  9
$DIMTOFL
 70
     0
  9
$DIMTVP
 40
0.0
  9
$DIMTIX
 70
     0
  9
$DIMSOXD
 70
     0
  9
$DIMSAH
 70
     0
  9
$DIMBLK1
  1

  9
$DIMBLK2
  1

  9
$DIMSTYLE
  2
Standard
  9
$DIMCLRD
 70
     0
  9
$DIMCLRE
 70
     0
  9
$DIMCLRT
 70
     0
  9
$DIMTFAC
 40
1.0
  9
$DIMGAP
 40
0.09
  9
$DIMJUST
 70
     0
  9
$DIMSD1
 70
     0
  9
$DIMSD2
 70
     0
  9
$DIMTOLJ
 70
     1
  9
$DIMTZIN
 70
     0
  9
$DIMALTZ
 70
     0
  9
$DIMALTTZ
 70
     0
  9
$DIMUPT
 70
     0
  9
$DIMDEC
 70
     4
  9
$DIMTDEC
 70
     4
  9
$DIMALTU
 70
     2
  9
$DIMALTTD
 70
     2
  9
$DIMTXSTY
  7
Standard
  9
$DIMAUNIT
 70
     0
  9
$DIMADEC
 70
     0
  9
$DIMALTRND
 40
0.0
  9
$DIMAZIN
 70
     0
  9
$DIMDSEP
 70
    46
  9
$DIMATFIT
 70
     3
  9
$DIMFRAC
 70
     0
  9
$DIMLDRBLK
  1

  9
$DIMLUNIT
 70
     2
  9
$DIMLWD
 70
    -2
  9
$DIMLWE
 70
    -2
  9
$DIMTMOVE
 70
     0
  9
$DIMFXL
 40
1.0
  9
$DIMFXLON
 70
     0
  9
$DIMJOGANG
 40
0.7853981633974483
  9
$DIMTFILL
 70
     0
  9
$DIMTFILLCLR
 70
     0
  9
$DIMARCSYM
 70
     0
  9
$DIMLTYPE
  6

  9
$DIMLTEX1
  6

  9
$DIMLTEX2
  6

  9
$DIMTXTDIRECTION
 70
     0
  9
$LUNITS
 70
     2
  9
$LUPREC
 70
     4
  9
$SKETCHINC
 40
0.1
  9
$FILLETRAD
 40
0.0
  9
$AUNITS
 70
     0
  9
$AUPREC
 70
     0
  9
$MENU
  1
.
  9
$ELEVATION
 40
0.0
  9
$PELEVATION
 40
0.0
  9
$THICKNESS
 40
0.0
  9
$LIMCHECK
 70
     0
  9
$CHAMFERA
 40
0.0
  9
$CHAMFERB
 40
0.0
  9
$CHAMFERC
 40
0.0
  9
$CHAMFERD
 40
0.0
  9
$SKPOLY
 70
     0
  9
$TDCREATE
 40
2459569.490358797
  9
$TDUCREATE
 40
2459569.115358797
  9
$TDUPDATE
 40
2459569.490358797
  9
$TDUUPDATE
 40
2459569.115358797
  9
$TDINDWG
 40
0.0000000000
  9
$TDUSRTIMER
 40
0.0000000000
  9
$USRTIMER
 70
     1
  9
$ANGBASE
 50
0.0
  9
$ANGDIR
 70
     0
  9
$PDMODE
 70
     0
  9
$PDSIZE
 40
0.0
  9
$PLINEWID
 40
0.0
  9
$SPLFRAME
 70
     0
  9
$SPLINETYPE
 70
     6
  9
$SPLINESEGS
 70
     8
  9
$HANDSEED
  5
168
  9
$SURFTAB1
 70
     6
  9
$SURFTAB2
 70
     6
  9
$SURFTYPE
 70
     6
  9
$SURFU
 70
     6
  9
$SURFV
 70
     6
  9
$UCSBASE
  2

  9
$UCSNAME
  2

  9
$UCSORG
 10
0.0
 20
0.0
 30
0.0
  9
$UCSXDIR
 10
1.0
 20
0.0
 30
0.0
  9
$UCSYDIR
 10
0.0
 20
1.0
 30
0.0
  9
$UCSORTHOREF
  2

  9
$UCSORTHOVIEW
 70
     0
  9
$UCSORGTOP
 10
0.0
 20
0.0
 30
0.0
  9
$UCSORGBOTTOM
 10
0.0
 20
0.0
 30
0.0
  9
$UCSORGLEFT
 10
0.0
 20
0.0
 30
0.0
  9
$UCSORGRIGHT
 10
0.0
 20
0.0
 30
0.0
  9
$UCSORGFRONT
 10
0.0
 20
0.0
 30
0.0
  9
$UCSORGBACK
 10
0.0
 20
0.0
 30
0.0
  9
$PUCSBASE
  2

  9
$PUCSNAME
  2

  9
$PUCSORG
 10
0.0
 20
0.0
 30
0.0
  9
$PUCSXDIR
 10
1.0
 20
0.0
 30
0.0
  9
$PUCSYDIR
 10
0.0
 20
1.0
 30
0.0
  9
$PUCSORTHOREF
  2

  9
$PUCSORTHOVIEW
 70
     0
  9
$PUCSORGTOP
 10
0.0
 20
0.0
 30
0.0
  9
$PUCSORGBOTTOM
 10
0.0
 20
0.0
 30
0.0
  9
$PUCSORGLEFT
 10
0.0
 20
0.0
 30
0.0
  9
$PUCSORGRIGHT
 10
0.0
 20
0.0
 30
0.0
  9
$PUCSORGFRONT
 10
0.0
 20
0.0
 30
0.0
  9
$PUCSORGBACK
 10
0.0
 20
0.0
 30
0.0
  9
$USERI1
 70
     0
  9
$USERI2
 70
     0
  9
$USERI3
 70
     0
  9
$USERI4
 70
     0
  9
$USERI5
 70
     0
  9
$USERR1
 40
0.0
  9
$USERR2
 40
0.0
  9
$USERR3
 40
0.0
  9
$USERR4
 40
0.0
  9
$USERR5
 40
0.0
  9
$WORLDVIEW
 70
     1
  9
$SHADEDGE
 70
     3
  9
$SHADEDIF
 70
    70
  9
$TILEMODE
 70
     1
  9
$MAXACTVP
 70
    64
  9
$PINSBASE
 10
0.0
 20
0.0
 30
0.0
  9
$PLIMCHECK
 70
     0
  9
$PEXTMIN
 10
1.000000000000000E+20
 20
1.000000000000000E+20
 30
1.000000000000000E+20
  9
$PEXTMAX
 10
-1.000000000000000E+20
 20
-1.000000000000000E+20
 30
-1.000000000000000E+20
  9
$PLIMMIN
 10
0.0
 20
0.0
  9
$PLIMMAX
 10
12.0
 20
9.0
  9
$UNITMODE
 70
     0
  9
$VISRETAIN
 70
     1
  9
$PLINEGEN
 70
     0
  9
$PSLTSCALE
 70
     1
  9
$TREEDEPTH
 70
  3020
  9
$CMLSTYLE
  2
Standard
  9
$CMLJUST
 70
     0
  9
$CMLSCALE
 40
1.0
  9
$PROXYGRAPHICS
 70
     1
  9
$MEASUREMENT
 70
     0
  9
$CELWEIGHT
370
    -1
  9
$ENDCAPS
280
     0
  9
$JOINSTYLE
280
     0
  9
$LWDISPLAY
290
     1
  9
$INSUNITS
 70
     4
  9
$HYPERLINKBASE
  1

  9
$STYLESHEET
  1

  9
$XEDIT
290
     1
  9
$CEPSNTYPE
380
     0
  9
$PSTYLEMODE
290
     1
  9
$FINGERPRINTGUID
  2
{C0A86826-D60C-A349-ACDC-3219CFA07517}
  9
$VERSIONGUID
  2
{E3F0561D-903F-2D43-9F70-2E400A2A8360}
  9
$EXTNAMES
290
     1
  9
$PSVPSCALE
 40
0.0
  9
$OLESTARTUP
290
     0
  9
$SORTENTS
280
   127
  9
$INDEXCTL
280
     0
  9
$HIDETEXT
280
     1
  9
$XCLIPFRAME
280
     2
  9
$HALOGAP
280
     0
  9
$OBSCOLOR
 70
   257
  9
$OBSLTYPE
280
     0
  9
$INTERSECTIONDISPLAY
280
     0
  9
$INTERSECTIONCOLOR
 70
   257
  9
$DIMASSOC
280
     2
  9
$PROJECTNAME
  1

  9
$CAMERADISPLAY
290
     0
  9
$LENSLENGTH
 40
50.0
  9
$CAMERAHEIGHT
 40
0.0
  9
$STEPSPERSEC
 40
2.0
  9
$STEPSIZE
 40
6.0
  9
$3DDWFPREC
 40
2.0
  9
$PSOLWIDTH
 40
0.25
  9
$PSOLHEIGHT
 40
4.0
  9
$LOFTANG1
 40
1.570796326794896
  9
$LOFTANG2
 40
1.570796326794896
  9
$LOFTMAG1
 40
0.0
  9
$LOFTMAG2
 40
0.0
  9
$LOFTPARAM
 70
     7
  9
$LOFTNORMALS
280
     1
  9
$LATITUDE
 40
37.795
  9
$LONGITUDE
 40
-122.394
  9
$NORTHDIRECTION
 40
0.0
  9
$TIMEZONE
 70
 -8000
  9
$LIGHTGLYPHDISPLAY
280
     1
  9
$TILEMODELIGHTSYNCH
280
     1
  9
$CMATERIAL
347
11
  9
$SOLIDHIST
280
     0
  9
$SHOWHIST
280
     1
  9
$DWFFRAME
280
     2
  9
$DGNFRAME
280
     0
  9
$REALWORLDSCALE
290
     1
  9
$INTERFERECOLOR
 62
     1
  9
$INTERFEREOBJVS
345
33
  9
$INTERFEREVPVS
346
30
  9
$CSHADOW
280
     0
  9
$SHADOWPLANELOCATION
 40
0.0
  0
ENDSEC
  0
SECTION
  2
CLASSES
  0
CLASS
  1
ACDBDICTIONARYWDFLT
  2
AcDbDictionaryWithDefault
  3
ObjectDBX Classes
 90
        0
 91
        1
280
     0
281
     0
  0
CLASS
  1
MATERIAL
  2
AcDbMaterial
  3
ObjectDBX Classes
 90
     1153
 91
        3
280
     0
281
     0
  0
CLASS
  1
VISUALSTYLE
  2
AcDbVisualStyle
  3
ObjectDBX Classes
 90
     4095
 91
       24
280
     0
281
     0
  0
CLASS
  1
SCALE
  2
AcDbScale
  3
ObjectDBX Classes
 90
     1153
 91
       17
280
     0
281
     0
  0
CLASS
  1
TABLESTYLE
  2
AcDbTableStyle
  3
ObjectDBX Classes
 90
     4095
 91
        1
280
     0
281
     0
  0
CLASS
  1
MLEADERSTYLE
  2
AcDbMLeaderStyle
  3
ACDB_MLEADERSTYLE_CLASS
 90
     4095
 91
        1
280
     0
281
     0
  0
CLASS
  1
ACDBSECTIONVIEWSTYLE
  2
AcDbSectionViewStyle
  3
ObjectDBX Classes
 90
     1025
 91
        1
280
     0
281
     0
  0
CLASS
  1
ACDBDETAILVIEWSTYLE
  2
AcDbDetailViewStyle
  3
ObjectDBX Classes
 90
     1025
 91
        1
280
     0
281
     0
  0
CLASS
  1
DICTIONARYVAR
  2
AcDbDictionaryVar
  3
ObjectDBX Classes
 90
        0
 91
        5
280
     0
281
     0
  0
CLASS
  1
CELLSTYLEMAP
  2
AcDbCellStyleMap
  3
ObjectDBX Classes
 90
     1152
 91
        1
280
     0
281
     0
  0
ENDSEC
  0
SECTION
  2
TABLES
  0
TABLE
  2
VPORT
  5
8
330
0
100
AcDbSymbolTable
 70
     1
  0
VPORT
  5
57
330
8
100
AcDbSymbolTableRecord
100
AcDbViewportTableRecord
  2
*Active
 70
     0
 10
0.0
 20
0.0
 11
1.0
 21
1.0
 12
0.0
 22
0.0
 13
0.0
 23
0.0
 14
1.0
 24
1.0
 15
0.0
 25
0.0
 16
0.0
 26
0.0
 36
1.0
 17
104.9999999737534
 27
-148.4999999628701
 37
0.0
 40
302.939999924255
 41
0.7070707070707534
 42
50.0
 43
0.0
 44
0.0
 50
0.0
 51
0.0
 71
     0
 72
   100
 73
     1
 74
     0
 75
     1
 76
     0
 77
     0
 78
     0
281
     0
 65
     1
110
0.0
120
0.0
130
0.0
111
1.0
121
0.0
131
0.0
112
0.0
122
1.0
132
0.0
 79
     0
146
0.0
 60
     3
 61
     5
292
     1
282
     1
141
0.0
142
0.0
 63
   250
421
  3355443
  0
ENDTAB
  0
TABLE
  2
LTYPE
  5
5
330
0
100
AcDbSymbolTable
 70
     2
  0
LTYPE
  5
5B
330
5
100
AcDbSymbolTableRecord
100
AcDbLinetypeTableRecord
  2
ByBlock
 70
     0
  3

 72
    65
 73
     0
 40
0.0
  0
LTYPE
  5
5C
330
5
100
AcDbSymbolTableRecord
100
AcDbLinetypeTableRecord
  2
ByLayer
 70
     0
  3

 72
    65
 73
     0
 40
0.0
  0
LTYPE
  5
5D
330
5
100
AcDbSymbolTableRecord
100
AcDbLinetypeTableRecord
  2
Continuous
 70
     0
  3
Solid line
 72
    65
 73
     0
 40
0.0
  0
LTYPE
  5
E7
330
5
100
AcDbSymbolTableRecord
100
AcDbLinetypeTableRecord
  2
AI-Linetype-0
 70
     0
  3
Adobe Illustrator Linetype No. 0
 72
    65
 73
     2
 40
1.411111110758333
 49
0.7055555553791667
 74
     0
 49
-0.7055555553791667
 74
     0
  0
ENDTAB
  0
TABLE
  2
LAYER
  5
2
330
0
100
AcDbSymbolTable
 70
     2
  0
LAYER
  5
54
330
2
100
AcDbSymbolTableRecord
100
AcDbLayerTableRecord
  2
0
 70
     0
 62
     7
  6
Continuous
370
    -3
390
F
347
21
  0
LAYER
  5
78
330
2
100
AcDbSymbolTableRecord
100
AcDbLayerTableRecord
  2
レイヤー 1
 70
     0
 62
     7
  6
Continuous
370
     0
390
F
347
21
  0
ENDTAB
  0
TABLE
  2
STYLE
  5
3
330
0
100
AcDbSymbolTable
 70
     2
  0
STYLE
  5
55
330
3
100
AcDbSymbolTableRecord
100
AcDbTextStyleTableRecord
  2
Standard
 70
     0
 40
0.0
 41
1.0
 50
0.0
 71
     0
 42
0.2
  3
txt
  4

  0
STYLE
  5
5A
330
3
100
AcDbSymbolTableRecord
100
AcDbTextStyleTableRecord
  2
Annotative
 70
     0
 40
0.0
 41
1.0
 50
0.0
 71
     0
 42
0.2
  3
txt
  4

1001
AcadAnnotative
1000
AnnotativeData
1002
{
1070
     1
1070
     1
1002
}
  0
ENDTAB
  0
TABLE
  2
VIEW
  5
6
330
0
100
AcDbSymbolTable
 70
     0
  0
ENDTAB
  0
TABLE
  2
UCS
  5
7
330
0
100
AcDbSymbolTable
 70
     0
  0
ENDTAB
  0
TABLE
  2
APPID
  5
9
330
0
100
AcDbSymbolTable
 70
     2
  0
APPID
  5
56
330
9
100
AcDbSymbolTableRecord
100
AcDbRegAppTableRecord
  2
ACAD
 70
     0
  0
APPID
  5
5E
330
9
100
AcDbSymbolTableRecord
100
AcDbRegAppTableRecord
  2
AcadAnnotative
 70
     0
  0
ENDTAB
  0
TABLE
  2
DIMSTYLE
  5
A
330
0
100
AcDbSymbolTable
 70
     2
100
AcDbDimStyleTable
 71
     0
  0
DIMSTYLE
105
58
330
A
100
AcDbSymbolTableRecord
100
AcDbDimStyleTableRecord
  2
Standard
 70
     0
340
55
  0
DIMSTYLE
105
59
330
A
100
AcDbSymbolTableRecord
100
AcDbDimStyleTableRecord
  2
Annotative
 70
     0
340
55
1001
AcadAnnotative
1000
AnnotativeData
1002
{
1070
     1
1070
     1
1002
}
  0
ENDTAB
  0
TABLE
  2
BLOCK_RECORD
  5
1
330
0
100
AcDbSymbolTable
 70
    16
  0
BLOCK_RECORD
  5
70
330
1
100
AcDbSymbolTableRecord
100
AcDbBlockTableRecord
  2
*Model_Space
340
73
 70
     0
280
     1
281
     0
  0
BLOCK_RECORD
  5
6C
330
1
100
AcDbSymbolTableRecord
100
AcDbBlockTableRecord
  2
*Paper_Space
340
6F
 70
     0
280
     1
281
     0
  0
BLOCK_RECORD
  5
74
330
1
100
AcDbSymbolTableRecord
100
AcDbBlockTableRecord
  2
*Paper_Space0
340
77
 70
     0
280
     1
281
     0
  0
BLOCK_RECORD
  5
79
330
1
100
AcDbSymbolTableRecord
100
AcDbBlockTableRecord
  2
Block_0
340
0
102
{BLKREFS
331
7A
102
}
 70
     0
280
     1
281
     0
  0
BLOCK_RECORD
  5
7D
330
1
100
AcDbSymbolTableRecord
100
AcDbBlockTableRecord
  2
Block_1
340
0
102
{BLKREFS
331
7E
102
}
 70
     0
280
     1
281
     0
  0
BLOCK_RECORD
  5
94
330
1
100
AcDbSymbolTableRecord
100
AcDbBlockTableRecord
  2
Block_2
340
0
102
{BLKREFS
331
95
102
}
 70
     0
280
     1
281
     0
  0
BLOCK_RECORD
  5
9C
330
1
100
AcDbSymbolTableRecord
100
AcDbBlockTableRecord
  2
Block_3
340
0
102
{BLKREFS
331
9D
102
}
 70
     0
280
     1
281
     0
  0
BLOCK_RECORD
  5
A0
330
1
100
AcDbSymbolTableRecord
100
AcDbBlockTableRecord
  2
Block_4
340
0
102
{BLKREFS
331
A1
102
}
 70
     0
280
     1
281
     0
  0
BLOCK_RECORD
  5
AA
330
1
100
AcDbSymbolTableRecord
100
AcDbBlockTableRecord
  2
Block_5
340
0
102
{BLKREFS
331
AB
102
}
 70
     0
280
     1
281
     0
  0
BLOCK_RECORD
  5
AE
330
1
100
AcDbSymbolTableRecord
100
AcDbBlockTableRecord
  2
Block_6
340
0
102
{BLKREFS
331
AF
102
}
 70
     0
280
     1
281
     0
  0
BLOCK_RECORD
  5
BE
330
1
100
AcDbSymbolTableRecord
100
AcDbBlockTableRecord
  2
Block_7
340
0
102
{BLKREFS
331
BF
102
}
 70
     0
280
     1
281
     0
  0
BLOCK_RECORD
  5
C2
330
1
100
AcDbSymbolTableRecord
100
AcDbBlockTableRecord
  2
Block_8
340
0
102
{BLKREFS
331
C3
102
}
 70
     0
280
     1
281
     0
  0
BLOCK_RECORD
  5
D2
330
1
100
AcDbSymbolTableRecord
100
AcDbBlockTableRecord
  2
Block_9
340
0
102
{BLKREFS
331
D3
102
}
 70
     0
280
     1
281
     0
  0
BLOCK_RECORD
  5
D6
330
1
100
AcDbSymbolTableRecord
100
AcDbBlockTableRecord
  2
Block_10
340
0
102
{BLKREFS
331
D7
102
}
 70
     0
280
     1
281
     0
  0
BLOCK_RECORD
  5
E1
330
1
100
AcDbSymbolTableRecord
100
AcDbBlockTableRecord
  2
Block_11
340
0
102
{BLKREFS
331
E2
102
}
 70
     0
280
     1
281
     0
  0
BLOCK_RECORD
  5
E8
330
1
100
AcDbSymbolTableRecord
100
AcDbBlockTableRecord
  2
Block_12
340
0
102
{BLKREFS
331
E9
102
}
 70
     0
280
     1
281
     0
  0
BLOCK_RECORD
  5
EF
330
1
100
AcDbSymbolTableRecord
100
AcDbBlockTableRecord
  2
Block_13
340
0
102
{BLKREFS
331
F0
102
}
 70
     0
280
     1
281
     0
  0
BLOCK_RECORD
  5
F3
330
1
100
AcDbSymbolTableRecord
100
AcDbBlockTableRecord
  2
Block_14
340
0
102
{BLKREFS
331
F4
102
}
 70
     0
280
     1
281
     0
  0
ENDTAB
  0
ENDSEC
  0
SECTION
  2
BLOCKS
  0
BLOCK
  5
71
330
70
100
AcDbEntity
  8
0
100
AcDbBlockBegin
  2
*Model_Space
 70
     0
 10
0.0
 20
0.0
 30
0.0
  3
*Model_Space
  1

  0
ENDBLK
  5
72
330
70
100
AcDbEntity
  8
0
100
AcDbBlockEnd
  0
BLOCK
  5
6D
330
6C
100
AcDbEntity
 67
     1
  8
0
100
AcDbBlockBegin
  2
*Paper_Space
 70
     0
 10
0.0
 20
0.0
 30
0.0
  3
*Paper_Space
  1

  0
ENDBLK
  5
6E
330
6C
100
AcDbEntity
 67
     1
  8
0
100
AcDbBlockEnd
  0
BLOCK
  5
75
330
74
100
AcDbEntity
 67
     1
  8
0
100
AcDbBlockBegin
  2
*Paper_Space0
 70
     0
 10
0.0
 20
0.0
 30
0.0
  3
*Paper_Space0
  1

  0
ENDBLK
  5
76
330
74
100
AcDbEntity
 67
     1
  8
0
100
AcDbBlockEnd
  0
BLOCK
  5
7B
330
79
100
AcDbEntity
  8
0
100
AcDbBlockBegin
  2
Block_0
 70
     0
 10
0.0
 20
0.0
 30
0.0
  3
Block_0
  1

  0
INSERT
  5
7E
330
79
100
AcDbEntity
  8
レイヤー 1
100
AcDbBlockReference
  2
Block_1
 10
0.0
 20
0.0
 30
0.0
  0
INSERT
  5
E2
330
79
100
AcDbEntity
  8
レイヤー 1
100
AcDbBlockReference
  2
Block_11
 10
0.0
 20
0.0
 30
0.0
  0
ENDBLK
  5
7C
330
79
100
AcDbEntity
  8
0
100
AcDbBlockEnd
  0
BLOCK
  5
7F
330
7D
100
AcDbEntity
  8
0
100
AcDbBlockBegin
  2
Block_1
 70
     0
 10
0.0
 20
0.0
 30
0.0
  3
Block_1
  1

  0
LINE
  5
81
330
7D
100
AcDbEntity
  8
レイヤー 1
 62
   250
420
  2299925
370
    25
100
AcDbLine
 10
79.99597774363777
 20
-141.7572075444661
 30
0.0
 11
85.99598524213702
 21
-141.7572075444661
 31
0.0
  0
LINE
  5
82
330
7D
100
AcDbEntity
  8
レイヤー 1
 62
   250
420
  2299925
370
    25
100
AcDbLine
 10
84.99598895085327
 20
-142.7569800060917
 30
0.0
 11
84.99598895085327
 21
-155.2570367933102
 31
0.0
  0
LINE
  5
83
330
7D
100
AcDbEntity
  8
レイヤー 1
 62
   250
420
  2299925
370
    25
100
AcDbLine
 10
79.99597774363777
 20
-142.756979741182
 30
0.0
 11
84.99598885349854
 21
-142.756979741182
 31
0.0
  0
LINE
  5
84
330
7D
100
AcDbEntity
  8
レイヤー 1
 62
   250
420
  2299925
370
    25
100
AcDbLine
 10
79.99597774363777
 20
-141.7572075444661
 30
0.0
 11
79.99597774363777
 21
-142.756979741182
 31
0.0
  0
LINE
  5
85
330
7D
100
AcDbEntity
  8
レイヤー 1
 62
   250
420
  2299925
370
    25
100
AcDbLine
 10
85.99598533460778
 20
-141.7572078093755
 30
0.0
 11
85.99598533460778
 21
-154.2573579324518
 31
0.0
  0
LINE
  5
86
330
7D
100
AcDbEntity
  8
レイヤー 1
 62
   250
420
  2299925
370
    25
100
AcDbLine
 10
101.9959610201466
 20
-154.2573579324518
 30
0.0
 11
101.9959610201466
 21
-154.6573373666919
 31
0.0
  0
LINE
  5
87
330
7D
100
AcDbEntity
  8
レイヤー 1
 62
   250
420
  2299925
370
    25
100
AcDbLine
 10
85.99598533949174
 20
-154.2573579324518
 30
0.0
 11
101.9959610201466
 21
-154.2573579324518
 31
0.0
  0
LINE
  5
88
330
7D
100
AcDbEntity
  8
レイヤー 1
 62
   250
420
  2299925
370
    25
100
AcDbLine
 10
101.9959610201466
 20
-154.6573373666919
 30
0.0
 11
84.99598895085327
 21
-155.2570367933102
 31
0.0
  0
SPLINE
  5
89
330
7D
100
AcDbEntity
  8
レイヤー 1
 62
   250
420
  2299925
370
     9
100
AcDbSpline
210
0.0
220
0.0
230
1.0
 70
    11
 71
     3
 72
    17
 73
    13
 74
     0
 42
0.0000000001
 43
0.0000000001
 40
0.0
 40
0.0
 40
0.0
 40
0.0
 40
1.0
 40
1.0
 40
1.0
 40
2.0
 40
2.0
 40
2.0
 40
3.0
 40
3.0
 40
3.0
 40
4.0
 40
4.0
 40
4.0
 40
4.0
 10
106.0963333900226
 20
-141.7572075444661
 30
0.0
 10
106.0963333900226
 20
-141.7019272680986
 30
0.0
 10
106.0515306122558
 20
-141.6571244914638
 30
0.0
 10
105.9957200847709
 20
-141.6571244914638
 30
0.0
 10
105.9406161972878
 20
-141.6571244914638
 30
0.0
 10
105.8958134206531
 20
-141.7019272680986
 30
0.0
 10
105.8958134206531
 20
-141.7572075444661
 30
0.0
 10
105.8958134206531
 20
-141.8124878208338
 30
0.0
 10
105.9406161972878
 20
-141.8572905974683
 30
0.0
 10
105.9957200847709
 20
-141.8572905974683
 30
0.0
 10
106.0515306122558
 20
-141.8572905974683
 30
0.0
 10
106.0963333900226
 20
-141.8124878208338
 30
0.0
 10
106.0963333900226
 20
-141.7572075444661
 30
0.0
  0
SPLINE
  5
8A
330
7D
100
AcDbEntity
  8
レイヤー 1
 62
   250
420
  2299925
370
     9
100
AcDbSpline
210
0.0
220
0.0
230
1.0
 70
     9
 71
     3
 72
    17
 73
    13
 74
     0
 42
0.0000000001
 43
0.0000000001
 40
0.0
 40
0.0
 40
0.0
 40
0.0
 40
1.0
 40
1.0
 40
1.0
 40
2.0
 40
2.0
 40
2.0
 40
3.0
 40
3.0
 40
3.0
 40
4.0
 40
4.0
 40
4.0
 40
4.0
 10
106.0963333900226
 20
-154.2573579324518
 30
0.0
 10
106.0963333900226
 20
-154.2019012671999
 30
0.0
 10
106.0515306122558
 20
-154.1570984905652
 30
0.0
 10
105.9957200847709
 20
-154.1570984905652
 30
0.0
 10
105.9406161972878
 20
-154.1570984905652
 30
0.0
 10
105.8958134206531
 20
-154.2019012671999
 30
0.0
 10
105.8958134206531
 20
-154.2573579324518
 30
0.0
 10
105.8958134206531
 20
-154.3124618199349
 30
0.0
 10
105.9406161972878
 20
-154.3572645965696
 30
0.0
 10
105.9957200847709
 20
-154.3572645965696
 30
0.0
 10
106.0515306122558
 20
-154.3572645965696
 30
0.0
 10
106.0963333900226
 20
-154.3124618199349
 30
0.0
 10
106.0963333900226
 20
-154.2573579324518
 30
0.0
  0
SPLINE
  5
8B
330
7D
100
AcDbEntity
  8
レイヤー 1
 62
   250
420
  2299925
370
     9
100
AcDbSpline
210
0.0
220
0.0
230
1.0
 70
     9
 71
     3
 72
    17
 73
    13
 74
     0
 42
0.0000000001
 43
0.0000000001
 40
0.0
 40
0.0
 40
0.0
 40
0.0
 40
1.0
 40
1.0
 40
1.0
 40
2.0
 40
2.0
 40
2.0
 40
3.0
 40
3.0
 40
3.0
 40
4.0
 40
4.0
 40
4.0
 40
4.0
 10
106.0963333900226
 20
-154.6573373666919
 30
0.0
 10
106.0963333900226
 20
-154.60188070144
 30
0.0
 10
106.0515306122558
 20
-154.5570779248053
 30
0.0
 10
105.9957200847709
 20
-154.5570779248053
 30
0.0
 10
105.9406161972878
 20
-154.5570779248053
 30
0.0
 10
105.8958134206531
 20
-154.60188070144
 30
0.0
 10
105.8958134206531
 20
-154.6573373666919
 30
0.0
 10
105.8958134206531
 20
-154.712441254175
 30
0.0
 10
105.9406161972878
 20
-154.7572440308097
 30
0.0
 10
105.9957200847709
 20
-154.7572440308097
 30
0.0
 10
106.0515306122558
 20
-154.7572440308097
 30
0.0
 10
106.0963333900226
 20
-154.712441254175
 30
0.0
 10
106.0963333900226
 20
-154.6573373666919
 30
0.0
  0
CIRCLE
  5
8C
330
7D
100
AcDbEntity
  8
レイヤー 1
 62
   250
420
  2299925
370
     9
100
AcDbCircle
 10
101.9959610201466
 20
-159.3569722467942
 30
0.0
 40
0.0999066641178353
  0
SPLINE
  5
8D
330
7D
100
AcDbEntity
  8
レイヤー 1
 62
   250
420
  2299925
370
     9
100
AcDbSpline
210
0.0
220
0.0
230
1.0
 70
     9
 71
     3
 72
    17
 73
    13
 74
     0
 42
0.0000000001
 43
0.0000000001
 40
0.0
 40
0.0
 40
0.0
 40
0.0
 40
1.0
 40
1.0
 40
1.0
 40
2.0
 40
2.0
 40
2.0
 40
3.0
 40
3.0
 40
3.0
 40
4.0
 40
4.0
 40
4.0
 40
4.0
 10
80.09606079916828
 20
-159.3569722467942
 30
0.0
 10
80.09606079916828
 20
-159.3018270908643
 30
0.0
 10
80.05125802140156
 20
-159.2570655826764
 30
0.0
 10
79.99597774363777
 20
-159.2570655826764
 30
0.0
 10
79.94069746587396
 20
-159.2570655826764
 30
0.0
 10
79.89607107699614
 20
-159.3018270908643
 30
0.0
 10
79.89607107699614
 20
-159.3569722467942
 30
0.0
 10
79.89607107699614
 20
-159.4120761342773
 30
0.0
 10
79.94069746587396
 20
-159.4568789109121
 30
0.0
 10
79.99597774363777
 20
-159.4568789109121
 30
0.0
 10
80.05125802140156
 20
-159.4568789109121
 30
0.0
 10
80.09606079916828
 20
-159.4120761342773
 30
0.0
 10
80.09606079916828
 20
-159.3569722467942
 30
0.0
  0
SPLINE
  5
8E
330
7D
100
AcDbEntity
  8
レイヤー 1
 62
   250
420
  2299925
370
     9
100
AcDbSpline
210
0.0
220
0.0
230
1.0
 70
    11
 71
     3
 72
    17
 73
    13
 74
     0
 42
0.0000000001
 43
0.0000000001
 40
0.0
 40
0.0
 40
0.0
 40
0.0
 40
1.0
 40
1.0
 40
1.0
 40
2.0
 40
2.0
 40
2.0
 40
3.0
 40
3.0
 40
3.0
 40
4.0
 40
4.0
 40
4.0
 40
4.0
 10
78.04621024412495
 20
-141.7572075444661
 30
0.0
 10
78.04621024412495
 20
-141.7019272680986
 30
0.0
 10
78.00144274413638
 20
-141.6571244914638
 30
0.0
 10
77.94630357748395
 20
-141.6571244914638
 30
0.0
 10
77.8910232997195
 20
-141.6571244914638
 30
0.0
 10
77.84625579973031
 20
-141.7019272680986
 30
0.0
 10
77.84625579973031
 20
-141.7572075444661
 30
0.0
 10
77.84625579973031
 20
-141.8124878208338
 30
0.0
 10
77.8910232997195
 20
-141.8572905974683
 30
0.0
 10
77.94630357748395
 20
-141.8572905974683
 30
0.0
 10
78.00144274413638
 20
-141.8572905974683
 30
0.0
 10
78.04621024412495
 20
-141.8124878208338
 30
0.0
 10
78.04621024412495
 20
-141.7572075444661
 30
0.0
  0
SPLINE
  5
8F
330
7D
100
AcDbEntity
  8
レイヤー 1
 62
   250
420
  2299925
370
     9
100
AcDbSpline
210
0.0
220
0.0
230
1.0
 70
     9
 71
     3
 72
    17
 73
    13
 74
     0
 42
0.0000000001
 43
0.0000000001
 40
0.0
 40
0.0
 40
0.0
 40
0.0
 40
1.0
 40
1.0
 40
1.0
 40
2.0
 40
2.0
 40
2.0
 40
3.0
 40
3.0
 40
3.0
 40
4.0
 40
4.0
 40
4.0
 40
4.0
 10
78.04621024412495
 20
-142.756979741182
 30
0.0
 10
78.04621024412495
 20
-142.701840575922
 30
0.0
 10
78.00144274413638
 20
-142.6570730770641
 30
0.0
 10
77.94630357748395
 20
-142.6570730770641
 30
0.0
 10
77.8910232997195
 20
-142.6570730770641
 30
0.0
 10
77.84625579973031
 20
-142.701840575922
 30
0.0
 10
77.84625579973031
 20
-142.756979741182
 30
0.0
 10
77.84625579973031
 20
-142.8124364064338
 30
0.0
 10
77.8910232997195
 20
-142.8572391830686
 30
0.0
 10
77.94630357748395
 20
-142.8572391830686
 30
0.0
 10
78.00144274413638
 20
-142.8572391830686
 30
0.0
 10
78.04621024412495
 20
-142.8124364064338
 30
0.0
 10
78.04621024412495
 20
-142.756979741182
 30
0.0
  0
SPLINE
  5
90
330
7D
100
AcDbEntity
  8
レイヤー 1
 62
   250
420
  2299925
370
     9
100
AcDbSpline
210
0.0
220
0.0
230
1.0
 70
     9
 71
     3
 72
    17
 73
    13
 74
     0
 42
0.0000000001
 43
0.0000000001
 40
0.0
 40
0.0
 40
0.0
 40
0.0
 40
1.0
 40
1.0
 40
1.0
 40
2.0
 40
2.0
 40
2.0
 40
3.0
 40
3.0
 40
3.0
 40
4.0
 40
4.0
 40
4.0
 40
4.0
 10
85.09603672860563
 20
-159.3569722467942
 30
0.0
 10
85.09603672860563
 20
-159.3018270908643
 30
0.0
 10
85.05126922861707
 20
-159.2570655826764
 30
0.0
 10
84.99598895085327
 20
-159.2570655826764
 30
0.0
 10
84.94084978420053
 20
-159.2570655826764
 30
0.0
 10
84.89608228421099
 20
-159.3018270908643
 30
0.0
 10
84.89608228421099
 20
-159.3569722467942
 30
0.0
 10
84.89608228421099
 20
-159.4120761342773
 30
0.0
 10
84.94084978420053
 20
-159.4568789109121
 30
0.0
 10
84.99598895085327
 20
-159.4568789109121
 30
0.0
 10
85.05126922861707
 20
-159.4568789109121
 30
0.0
 10
85.09603672860563
 20
-159.4120761342773
 30
0.0
 10
85.09603672860563
 20
-159.3569722467942
 30
0.0
  0
LINE
  5
91
330
7D
100
AcDbEntity
  8
レイヤー 1
 62
   250
420
  2299925
370
     9
100
AcDbLine
 10
79.99615413252666
 20
-159.3569722467942
 30
0.0
 11
84.99598885349854
 21
-159.3569722467942
 31
0.0
  0
LINE
  5
92
330
7D
100
AcDbEntity
  8
レイヤー 1
 62
   250
420
  2299925
370
     9
100
AcDbLine
 10
79.99597774363777
 20
-145.3971335498465
 30
0.0
 11
79.99597774363777
 21
-160.3574147212708
 31
0.0
  0
LINE
  5
93
330
7D
100
AcDbEntity
  8
レイヤー 1
 62
   250
420
  2299925
370
     9
100
AcDbLine
 10
84.99598895085327
 20
-157.8969308951541
 30
0.0
 11
84.99598895085327
 21
-160.3574147212708
 31
0.0
  0
INSERT
  5
95
330
7D
100
AcDbEntity
  8
レイヤー 1
100
AcDbBlockReference
  2
Block_2
 10
0.0
 20
0.0
 30
0.0
  0
LINE
  5
9A
330
7D
100
AcDbEntity
  8
レイヤー 1
 62
   250
420
  2299925
370
     9
100
AcDbLine
 10
84.99598895085327
 20
-159.3569722467942
 30
0.0
 11
101.9959610201466
 21
-159.3569722467942
 31
0.0
  0
LINE
  5
9B
330
7D
100
AcDbEntity
  8
レイヤー 1
 62
   250
420
  2299925
370
     9
100
AcDbLine
 10
101.9959610201466
 20
-157.1968786907917
 30
0.0
 11
101.9959610201466
 21
-160.3574147212708
 31
0.0
  0
INSERT
  5
9D
330
7D
100
AcDbEntity
  8
レイヤー 1
100
AcDbBlockReference
  2
Block_3
 10
0.0
 20
0.0
 30
0.0
  0
LINE
  5
A8
330
7D
100
AcDbEntity
  8
レイヤー 1
 62
   250
420
  2299925
370
     9
100
AcDbLine
 10
105.9957200847709
 20
-154.2573579324518
 30
0.0
 11
105.9957200847709
 21
-141.7572078093755
 31
0.0
  0
LINE
  5
A9
330
7D
100
AcDbEntity
  8
レイヤー 1
 62
   250
420
  2299925
370
     9
100
AcDbLine
 10
88.63605589438735
 20
-141.7572075444661
 30
0.0
 11
106.9961625592475
 21
-141.7572075444661
 31
0.0
  0
INSERT
  5
AB
330
7D
100
AcDbEntity
  8
レイヤー 1
100
AcDbBlockReference
  2
Block_5
 10
0.0
 20
0.0
 30
0.0
  0
LINE
  5
BA
330
7D
100
AcDbEntity
  8
レイヤー 1
 62
   250
420
  2299925
370
     9
100
AcDbLine
 10
105.9957200847709
 20
-154.6573373666919
 30
0.0
 11
105.9957200847709
 21
-155.6571095634078
 31
0.0
  0
LINE
  5
BB
330
7D
100
AcDbEntity
  8
レイヤー 1
 62
   250
420
  2299925
370
     9
100
AcDbLine
 10
105.9957200847709
 20
-154.2573579324518
 30
0.0
 11
105.9957200847709
 21
-154.6573373666919
 31
0.0
  0
LINE
  5
BC
330
7D
100
AcDbEntity
  8
レイヤー 1
 62
   250
420
  2299925
370
     9
100
AcDbLine
 10
104.5356787331308
 20
-154.2573579324518
 30
0.0
 11
106.9961625592475
 21
-154.2573579324518
 31
0.0
  0
LINE
  5
BD
330
7D
100
AcDbEntity
  8
レイヤー 1
 62
   250
420
  2299925
370
     9
100
AcDbLine
 10
104.5356787331308
 20
-154.6573373666919
 30
0.0
 11
106.9961625592475
 21
-154.6573373666919
 31
0.0
  0
INSERT
  5
BF
330
7D
100
AcDbEntity
  8
レイヤー 1
100
AcDbBlockReference
  2
Block_7
 10
0.0
 20
0.0
 30
0.0
  0
LINE
  5
CE
330
7D
100
AcDbEntity
  8
レイヤー 1
 62
   250
420
  2299925
370
     9
100
AcDbLine
 10
77.94630357748395
 20
-141.7572075444661
 30
0.0
 11
77.94630357748395
 21
-140.7572589588657
 31
0.0
  0
LINE
  5
CF
330
7D
100
AcDbEntity
  8
レイヤー 1
 62
   250
420
  2299925
370
     9
100
AcDbLine
 10
77.94630357748395
 20
-141.7572075444661
 30
0.0
 11
77.94630357748395
 21
-143.7570694378898
 31
0.0
  0
LINE
  5
D0
330
7D
100
AcDbEntity
  8
レイヤー 1
 62
   250
420
  2299925
370
     9
100
AcDbLine
 10
79.40616857711813
 20
-141.7572075444661
 30
0.0
 11
76.94621385551117
 21
-141.7572075444661
 31
0.0
  0
LINE
  5
D1
330
7D
100
AcDbEntity
  8
レイヤー 1
 62
   250
420
  2299925
370
     9
100
AcDbLine
 10
79.40616857711813
 20
-142.756979741182
 30
0.0
 11
76.94621385551117
 21
-142.756979741182
 31
0.0
  0
INSERT
  5
D3
330
7D
100
AcDbEntity
  8
レイヤー 1
100
AcDbBlockReference
  2
Block_9
 10
0.0
 20
0.0
 30
0.0
  0
ENDBLK
  5
80
330
7D
100
AcDbEntity
  8
0
100
AcDbBlockEnd
  0
BLOCK
  5
96
330
94
100
AcDbEntity
  8
0
100
AcDbBlockBegin
  2
Block_2
 70
     0
 10
0.0
 20
0.0
 30
0.0
  3
Block_2
  1

  0
SPLINE
  5
98
330
94
100
AcDbEntity
  8
レイヤー 1
100
AcDbSpline
210
0.0
220
0.0
230
1.0
 70
     9
 71
     3
 72
    53
 73
    49
 74
     0
 42
0.0000000001
 43
0.0000000001
 40
0.0
 40
0.0
 40
0.0
 40
0.0
 40
1.0
 40
1.0
 40
1.0
 40
2.0
 40
2.0
 40
2.0
 40
3.0
 40
3.0
 40
3.0
 40
4.0
 40
4.0
 40
4.0
 40
5.0
 40
5.0
 40
5.0
 40
6.0
 40
6.0
 40
6.0
 40
7.0
 40
7.0
 40
7.0
 40
8.0
 40
8.0
 40
8.0
 40
9.0
 40
9.0
 40
9.0
 40
10.0
 40
10.0
 40
10.0
 40
11.0
 40
11.0
 40
11.0
 40
12.0
 40
12.0
 40
12.0
 40
13.0
 40
13.0
 40
13.0
 40
14.0
 40
14.0
 40
14.0
 40
15.0
 40
15.0
 40
15.0
 40
16.0
 40
16.0
 40
16.0
 40
16.0
 10
82.4802367957862
 20
-158.7620577945109
 30
0.0
 10
82.41340194337235
 20
-158.7620577945109
 30
0.0
 10
82.32693004669258
 20
-158.7451768266331
 30
0.0
 10
82.24028589523854
 20
-158.6817870697045
 30
0.0
 10
82.09231904414705
 20
-158.5718885237251
 30
0.0
 10
82.07440454762375
 20
-158.440630385737
 30
0.0
 10
82.05804034406883
 20
-158.3327988970487
 30
0.0
 10
82.05804034406883
 20
-158.3327988970487
 30
0.0
 10
82.24752059575756
 20
-158.3327988970487
 30
0.0
 10
82.24752059575756
 20
-158.3327988970487
 30
0.0
 10
82.29437389435696
 20
-158.5315809065477
 30
0.0
 10
82.40237763781955
 20
-158.5612087277208
 30
0.0
 10
82.48195934352882
 20
-158.5612087277208
 30
0.0
 10
82.60081513776993
 20
-158.5612087277208
 30
0.0
 10
82.73069523756387
 20
-158.4616454681971
 30
0.0
 10
82.73069523756387
 20
-158.2291015229427
 30
0.0
 10
82.73069523756387
 20
-157.9731309283886
 30
0.0
 10
82.57738848847024
 20
-157.9031954900381
 30
0.0
 10
82.4747246430098
 20
-157.9031954900381
 30
0.0
 10
82.44750838867632
 20
-157.9031954900381
 30
0.0
 10
82.32693004669258
 20
-157.9031954900381
 30
0.0
 10
82.25113794601709
 20
-158.0323865707349
 30
0.0
 10
82.25113794601709
 20
-158.0323865707349
 30
0.0
 10
82.10144854718297
 20
-158.0134385455661
 30
0.0
 10
82.10144854718297
 20
-158.0134385455661
 30
0.0
 10
82.10144854718297
 20
-158.0134385455661
 30
0.0
 10
82.20411239264342
 20
-157.1669785848402
 30
0.0
 10
82.20411239264342
 20
-157.1669785848402
 30
0.0
 10
82.20411239264342
 20
-157.1669785848402
 30
0.0
 10
82.8678100378768
 20
-157.1669785848402
 30
0.0
 10
82.8678100378768
 20
-157.1669785848402
 30
0.0
 10
82.8678100378768
 20
-157.1669785848402
 30
0.0
 10
82.8678100378768
 20
-157.3616264797568
 30
0.0
 10
82.8678100378768
 20
-157.3616264797568
 30
0.0
 10
82.8678100378768
 20
-157.3616264797568
 30
0.0
 10
82.34312199547325
 20
-157.3616264797568
 30
0.0
 10
82.34312199547325
 20
-157.3616264797568
 30
0.0
 10
82.34312199547325
 20
-157.3616264797568
 30
0.0
 10
82.28713919383794
 20
-157.7846842053455
 30
0.0
 10
82.28713919383794
 20
-157.7846842053455
 30
0.0
 10
82.33933239043947
 20
-157.75092226959
 30
0.0
 10
82.40961233833857
 20
-157.7106146524126
 30
0.0
 10
82.51089814560492
 20
-157.7106146524126
 30
0.0
 10
82.7272501420786
 20
-157.7106146524126
 30
0.0
 10
82.92913273751425
 20
-157.8969943181646
 30
0.0
 10
82.92913273751425
 20
-158.2101534977738
 30
0.0
 10
82.92913273751425
 20
-158.5274467919653
 30
0.0
 10
82.73792993808289
 20
-158.7620577945109
 30
0.0
 10
82.4802367957862
 20
-158.7620577945109
 30
0.0
  0
HATCH
  5
99
330
94
100
AcDbEntity
  8
レイヤー 1
 62
   250
420
  2299925
440
 33554687
100
AcDbHatch
 10
0.0
 20
0.0
 30
0.0
210
0.0
220
0.0
230
1.0
  2
SOLID
 70
     1
 71
     1
 91
        1
 92
        1
 93
        1
 72
     4
 94
        3
 73
     0
 74
     0
 95
       53
 96
       49
 40
0.0
 40
0.0
 40
0.0
 40
0.0
 40
1.0
 40
1.0
 40
1.0
 40
2.0
 40
2.0
 40
2.0
 40
3.0
 40
3.0
 40
3.0
 40
4.0
 40
4.0
 40
4.0
 40
5.0
 40
5.0
 40
5.0
 40
6.0
 40
6.0
 40
6.0
 40
7.0
 40
7.0
 40
7.0
 40
8.0
 40
8.0
 40
8.0
 40
9.0
 40
9.0
 40
9.0
 40
10.0
 40
10.0
 40
10.0
 40
11.0
 40
11.0
 40
11.0
 40
12.0
 40
12.0
 40
12.0
 40
13.0
 40
13.0
 40
13.0
 40
14.0
 40
14.0
 40
14.0
 40
15.0
 40
15.0
 40
15.0
 40
16.0
 40
16.0
 40
16.0
 40
16.0
 10
82.4802367957862
 20
-158.7620577945109
 10
82.41340194337235
 20
-158.7620577945109
 10
82.32693004669258
 20
-158.7451768266331
 10
82.24028589523854
 20
-158.6817870697045
 10
82.09231904414705
 20
-158.5718885237251
 10
82.07440454762375
 20
-158.440630385737
 10
82.05804034406883
 20
-158.3327988970487
 10
82.05804034406883
 20
-158.3327988970487
 10
82.24752059575756
 20
-158.3327988970487
 10
82.24752059575756
 20
-158.3327988970487
 10
82.29437389435696
 20
-158.5315809065477
 10
82.40237763781955
 20
-158.5612087277208
 10
82.48195934352882
 20
-158.5612087277208
 10
82.60081513776993
 20
-158.5612087277208
 10
82.73069523756387
 20
-158.4616454681971
 10
82.73069523756387
 20
-158.2291015229427
 10
82.73069523756387
 20
-157.9731309283886
 10
82.57738848847024
 20
-157.9031954900381
 10
82.4747246430098
 20
-157.9031954900381
 10
82.44750838867632
 20
-157.9031954900381
 10
82.32693004669258
 20
-157.9031954900381
 10
82.25113794601709
 20
-158.0323865707349
 10
82.25113794601709
 20
-158.0323865707349
 10
82.10144854718297
 20
-158.0134385455661
 10
82.10144854718297
 20
-158.0134385455661
 10
82.10144854718297
 20
-158.0134385455661
 10
82.20411239264342
 20
-157.1669785848402
 10
82.20411239264342
 20
-157.1669785848402
 10
82.20411239264342
 20
-157.1669785848402
 10
82.8678100378768
 20
-157.1669785848402
 10
82.8678100378768
 20
-157.1669785848402
 10
82.8678100378768
 20
-157.1669785848402
 10
82.8678100378768
 20
-157.3616264797568
 10
82.8678100378768
 20
-157.3616264797568
 10
82.8678100378768
 20
-157.3616264797568
 10
82.34312199547325
 20
-157.3616264797568
 10
82.34312199547325
 20
-157.3616264797568
 10
82.34312199547325
 20
-157.3616264797568
 10
82.28713919383794
 20
-157.7846842053455
 10
82.28713919383794
 20
-157.7846842053455
 10
82.33933239043947
 20
-157.75092226959
 10
82.40961233833857
 20
-157.7106146524126
 10
82.51089814560492
 20
-157.7106146524126
 10
82.7272501420786
 20
-157.7106146524126
 10
82.92913273751425
 20
-157.8969943181646
 10
82.92913273751425
 20
-158.2101534977738
 10
82.92913273751425
 20
-158.5274467919653
 10
82.73792993808289
 20
-158.7620577945109
 10
82.4802367957862
 20
-158.7620577945109
 97
        0
 97
        1
330
98
 75
     2
 76
     1
 98
        1
 10
0.0
 20
0.0
450
        0
451
        0
460
0.0
461
0.0
452
        0
462
0.0
453
        0
470

  0
ENDBLK
  5
97
330
94
100
AcDbEntity
  8
0
100
AcDbBlockEnd
  0
BLOCK
  5
9E
330
9C
100
AcDbEntity
  8
0
100
AcDbBlockBegin
  2
Block_3
 70
     0
 10
0.0
 20
0.0
 30
0.0
  3
Block_3
  1

  0
INSERT
  5
A1
330
9C
100
AcDbEntity
  8
レイヤー 1
100
AcDbBlockReference
  2
Block_4
 10
0.0
 20
0.0
 30
0.0
  0
ENDBLK
  5
9F
330
9C
100
AcDbEntity
  8
0
100
AcDbBlockEnd
  0
BLOCK
  5
A2
330
A0
100
AcDbEntity
  8
0
100
AcDbBlockBegin
  2
Block_4
 70
     0
 10
0.0
 20
0.0
 30
0.0
  3
Block_4
  1

  0
SPLINE
  5
A4
330
A0
100
AcDbEntity
  8
レイヤー 1
100
AcDbSpline
210
0.0
220
0.0
230
1.0
 70
    11
 71
     3
 72
    26
 73
    22
 74
     0
 42
0.0000000001
 43
0.0000000001
 40
0.0
 40
0.0
 40
0.0
 40
0.0
 40
1.0
 40
1.0
 40
1.0
 40
2.0
 40
2.0
 40
2.0
 40
3.0
 40
3.0
 40
3.0
 40
4.0
 40
4.0
 40
4.0
 40
5.0
 40
5.0
 40
5.0
 40
6.0
 40
6.0
 40
6.0
 40
7.0
 40
7.0
 40
7.0
 40
7.0
 10
92.95418834481701
 20
-158.7114148908777
 30
0.0
 10
92.95418834481701
 20
-158.7114148908777
 30
0.0
 10
92.95418834481701
 20
-157.6072617878551
 30
0.0
 10
92.95418834481701
 20
-157.6072617878551
 30
0.0
 10
92.95418834481701
 20
-157.6072617878551
 30
0.0
 10
92.6727240436721
 20
-157.6072617878551
 30
0.0
 10
92.6727240436721
 20
-157.6072617878551
 30
0.0
 10
92.6727240436721
 20
-157.6072617878551
 30
0.0
 10
92.6727240436721
 20
-157.4591226819894
 30
0.0
 10
92.6727240436721
 20
-157.4591226819894
 30
0.0
 10
92.95591089255964
 20
-157.4443087714028
 30
0.0
 10
92.99552949064
 20
-157.2813557549505
 30
0.0
 10
93.02067868768233
 20
-157.1669785848402
 30
0.0
 10
93.02067868768233
 20
-157.1669785848402
 30
0.0
 10
93.14539114424837
 20
-157.1669785848402
 30
0.0
 10
93.14539114424837
 20
-157.1669785848402
 30
0.0
 10
93.14539114424837
 20
-157.1669785848402
 30
0.0
 10
93.14539114424837
 20
-158.7114148908777
 30
0.0
 10
93.14539114424837
 20
-158.7114148908777
 30
0.0
 10
93.14539114424837
 20
-158.7114148908777
 30
0.0
 10
92.95418834481701
 20
-158.7114148908777
 30
0.0
 10
92.95418834481701
 20
-158.7114148908777
 30
0.0
  0
HATCH
  5
A5
330
A0
100
AcDbEntity
  8
レイヤー 1
 62
   250
420
  2299925
440
 33554687
100
AcDbHatch
 10
0.0
 20
0.0
 30
0.0
210
0.0
220
0.0
230
1.0
  2
SOLID
 70
     1
 71
     1
 91
        1
 92
        1
 93
        1
 72
     4
 94
        3
 73
     0
 74
     0
 95
       26
 96
       22
 40
0.0
 40
0.0
 40
0.0
 40
0.0
 40
1.0
 40
1.0
 40
1.0
 40
2.0
 40
2.0
 40
2.0
 40
3.0
 40
3.0
 40
3.0
 40
4.0
 40
4.0
 40
4.0
 40
5.0
 40
5.0
 40
5.0
 40
6.0
 40
6.0
 40
6.0
 40
7.0
 40
7.0
 40
7.0
 40
7.0
 10
92.95418834481701
 20
-158.7114148908777
 10
92.95418834481701
 20
-158.7114148908777
 10
92.95418834481701
 20
-157.6072617878551
 10
92.95418834481701
 20
-157.6072617878551
 10
92.95418834481701
 20
-157.6072617878551
 10
92.6727240436721
 20
-157.6072617878551
 10
92.6727240436721
 20
-157.6072617878551
 10
92.6727240436721
 20
-157.6072617878551
 10
92.6727240436721
 20
-157.4591226819894
 10
92.6727240436721
 20
-157.4591226819894
 10
92.95591089255964
 20
-157.4443087714028
 10
92.99552949064
 20
-157.2813557549505
 10
93.02067868768233
 20
-157.1669785848402
 10
93.02067868768233
 20
-157.1669785848402
 10
93.14539114424837
 20
-157.1669785848402
 10
93.14539114424837
 20
-157.1669785848402
 10
93.14539114424837
 20
-157.1669785848402
 10
93.14539114424837
 20
-158.7114148908777
 10
93.14539114424837
 20
-158.7114148908777
 10
93.14539114424837
 20
-158.7114148908777
 10
92.95418834481701
 20
-158.7114148908777
 10
92.95418834481701
 20
-158.7114148908777
 97
        0
 97
        1
330
A4
 75
     2
 76
     1
 98
        1
 10
0.0
 20
0.0
450
        0
451
        0
460
0.0
461
0.0
452
        0
462
0.0
453
        0
470

  0
SPLINE
  5
A6
330
A0
100
AcDbEntity
  8
レイヤー 1
100
AcDbSpline
210
0.0
220
0.0
230
1.0
 70
     9
 71
     3
 72
    26
 73
    22
 74
     0
 42
0.0000000001
 43
0.0000000001
 40
0.0
 40
0.0
 40
0.0
 40
0.0
 40
1.0
 40
1.0
 40
1.0
 40
2.0
 40
2.0
 40
2.0
 40
3.0
 40
3.0
 40
3.0
 40
4.0
 40
4.0
 40
4.0
 40
5.0
 40
5.0
 40
5.0
 40
6.0
 40
6.0
 40
6.0
 40
7.0
 40
7.0
 40
7.0
 40
7.0
 10
93.92157115707517
 20
-158.7114148908777
 30
0.0
 10
93.92157115707517
 20
-158.7114148908777
 30
0.0
 10
93.71968856163952
 20
-158.7114148908777
 30
0.0
 10
93.71968856163952
 20
-158.7114148908777
 30
0.0
 10
93.7413926631966
 20
-158.4023898258508
 30
0.0
 10
93.9053792082945
 20
-157.8842474648692
 30
0.0
 10
94.2516113045621
 20
-157.3785074476345
 30
0.0
 10
94.2516113045621
 20
-157.3785074476345
 30
0.0
 10
93.53744301046981
 20
-157.3785074476345
 30
0.0
 10
93.53744301046981
 20
-157.3785074476345
 30
0.0
 10
93.53744301046981
 20
-157.3785074476345
 30
0.0
 10
93.53744301046981
 20
-157.1669785848402
 30
0.0
 10
93.53744301046981
 20
-157.1669785848402
 30
0.0
 10
93.53744301046981
 20
-157.1669785848402
 30
0.0
 10
94.45349389999774
 20
-157.1669785848402
 30
0.0
 10
94.45349389999774
 20
-157.1669785848402
 30
0.0
 10
94.45349389999774
 20
-157.1669785848402
 30
0.0
 10
94.45349389999774
 20
-157.3785074476345
 30
0.0
 10
94.45349389999774
 20
-157.3785074476345
 30
0.0
 10
94.17788626117776
 20
-157.6685844874926
 30
0.0
 10
93.95050995915125
 20
-158.260796401407
 30
0.0
 10
93.92157115707517
 20
-158.7114148908777
 30
0.0
  0
HATCH
  5
A7
330
A0
100
AcDbEntity
  8
レイヤー 1
 62
   250
420
  2299925
440
 33554687
100
AcDbHatch
 10
0.0
 20
0.0
 30
0.0
210
0.0
220
0.0
230
1.0
  2
SOLID
 70
     1
 71
     1
 91
        1
 92
        1
 93
        1
 72
     4
 94
        3
 73
     0
 74
     0
 95
       26
 96
       22
 40
0.0
 40
0.0
 40
0.0
 40
0.0
 40
1.0
 40
1.0
 40
1.0
 40
2.0
 40
2.0
 40
2.0
 40
3.0
 40
3.0
 40
3.0
 40
4.0
 40
4.0
 40
4.0
 40
5.0
 40
5.0
 40
5.0
 40
6.0
 40
6.0
 40
6.0
 40
7.0
 40
7.0
 40
7.0
 40
7.0
 10
93.92157115707517
 20
-158.7114148908777
 10
93.92157115707517
 20
-158.7114148908777
 10
93.71968856163952
 20
-158.7114148908777
 10
93.71968856163952
 20
-158.7114148908777
 10
93.7413926631966
 20
-158.4023898258508
 10
93.9053792082945
 20
-157.8842474648692
 10
94.2516113045621
 20
-157.3785074476345
 10
94.2516113045621
 20
-157.3785074476345
 10
93.53744301046981
 20
-157.3785074476345
 10
93.53744301046981
 20
-157.3785074476345
 10
93.53744301046981
 20
-157.3785074476345
 10
93.53744301046981
 20
-157.1669785848402
 10
93.53744301046981
 20
-157.1669785848402
 10
93.53744301046981
 20
-157.1669785848402
 10
94.45349389999774
 20
-157.1669785848402
 10
94.45349389999774
 20
-157.1669785848402
 10
94.45349389999774
 20
-157.1669785848402
 10
94.45349389999774
 20
-157.3785074476345
 10
94.45349389999774
 20
-157.3785074476345
 10
94.17788626117776
 20
-157.6685844874926
 10
93.95050995915125
 20
-158.260796401407
 10
93.92157115707517
 20
-158.7114148908777
 97
        0
 97
        1
330
A6
 75
     2
 76
     1
 98
        1
 10
0.0
 20
0.0
450
        0
451
        0
460
0.0
461
0.0
452
        0
462
0.0
453
        0
470

  0
ENDBLK
  5
A3
330
A0
100
AcDbEntity
  8
0
100
AcDbBlockEnd
  0
BLOCK
  5
AC
330
AA
100
AcDbEntity
  8
0
100
AcDbBlockBegin
  2
Block_5
 70
     0
 10
0.0
 20
0.0
 30
0.0
  3
Block_5
  1

  0
INSERT
  5
AF
330
AA
100
AcDbEntity
  8
レイヤー 1
100
AcDbBlockReference
  2
Block_6
 10
0.0
 20
0.0
 30
0.0
  0
ENDBLK
  5
AD
330
AA
100
AcDbEntity
  8
0
100
AcDbBlockEnd
  0
BLOCK
  5
B0
330
AE
100
AcDbEntity
  8
0
100
AcDbBlockBegin
  2
Block_6
 70
     0
 10
0.0
 20
0.0
 30
0.0
  3
Block_6
  1

  0
SPLINE
  5
B2
330
AE
100
AcDbEntity
  8
レイヤー 1
100
AcDbSpline
210
0.0
220
0.0
230
1.0
 70
    11
 71
     3
 72
    26
 73
    22
 74
     0
 42
0.0000000001
 43
0.0000000001
 40
0.0
 40
0.0
 40
0.0
 40
0.0
 40
1.0
 40
1.0
 40
1.0
 40
2.0
 40
2.0
 40
2.0
 40
3.0
 40
3.0
 40
3.0
 40
4.0
 40
4.0
 40
4.0
 40
5.0
 40
5.0
 40
5.0
 40
6.0
 40
6.0
 40
6.0
 40
7.0
 40
7.0
 40
7.0
 40
7.0
 10
105.3496419007459
 20
-149.283566585943
 30
0.0
 10
105.3496419007459
 20
-149.283566585943
 30
0.0
 10
104.2454887977233
 20
-149.283566585943
 30
0.0
 10
104.2454887977233
 20
-149.283566585943
 30
0.0
 10
104.2454887977233
 20
-149.283566585943
 30
0.0
 10
104.2454887977233
 20
-149.5650308870879
 30
0.0
 10
104.2454887977233
 20
-149.5650308870879
 30
0.0
 10
104.2454887977233
 20
-149.5650308870879
 30
0.0
 10
104.0973496918576
 20
-149.5650308870879
 30
0.0
 10
104.0973496918576
 20
-149.5650308870879
 30
0.0
 10
104.082535781271
 20
-149.2818440382003
 30
0.0
 10
103.9195827648187
 20
-149.24222544012
 30
0.0
 10
103.8052055947084
 20
-149.2170762430777
 30
0.0
 10
103.8052055947084
 20
-149.2170762430777
 30
0.0
 10
103.8052055947084
 20
-149.0923637865116
 30
0.0
 10
103.8052055947084
 20
-149.0923637865116
 30
0.0
 10
103.8052055947084
 20
-149.0923637865116
 30
0.0
 10
105.3496419007459
 20
-149.0923637865116
 30
0.0
 10
105.3496419007459
 20
-149.0923637865116
 30
0.0
 10
105.3496419007459
 20
-149.0923637865116
 30
0.0
 10
105.3496419007459
 20
-149.283566585943
 30
0.0
 10
105.3496419007459
 20
-149.283566585943
 30
0.0
  0
HATCH
  5
B3
330
AE
100
AcDbEntity
  8
レイヤー 1
 62
   250
420
  2299925
440
 33554687
100
AcDbHatch
 10
0.0
 20
0.0
 30
0.0
210
0.0
220
0.0
230
1.0
  2
SOLID
 70
     1
 71
     1
 91
        1
 92
        1
 93
        1
 72
     4
 94
        3
 73
     0
 74
     0
 95
       26
 96
       22
 40
0.0
 40
0.0
 40
0.0
 40
0.0
 40
1.0
 40
1.0
 40
1.0
 40
2.0
 40
2.0
 40
2.0
 40
3.0
 40
3.0
 40
3.0
 40
4.0
 40
4.0
 40
4.0
 40
5.0
 40
5.0
 40
5.0
 40
6.0
 40
6.0
 40
6.0
 40
7.0
 40
7.0
 40
7.0
 40
7.0
 10
105.3496419007459
 20
-149.283566585943
 10
105.3496419007459
 20
-149.283566585943
 10
104.2454887977233
 20
-149.283566585943
 10
104.2454887977233
 20
-149.283566585943
 10
104.2454887977233
 20
-149.283566585943
 10
104.2454887977233
 20
-149.5650308870879
 10
104.2454887977233
 20
-149.5650308870879
 10
104.2454887977233
 20
-149.5650308870879
 10
104.0973496918576
 20
-149.5650308870879
 10
104.0973496918576
 20
-149.5650308870879
 10
104.082535781271
 20
-149.2818440382003
 10
103.9195827648187
 20
-149.24222544012
 10
103.8052055947084
 20
-149.2170762430777
 10
103.8052055947084
 20
-149.2170762430777
 10
103.8052055947084
 20
-149.0923637865116
 10
103.8052055947084
 20
-149.0923637865116
 10
103.8052055947084
 20
-149.0923637865116
 10
105.3496419007459
 20
-149.0923637865116
 10
105.3496419007459
 20
-149.0923637865116
 10
105.3496419007459
 20
-149.0923637865116
 10
105.3496419007459
 20
-149.283566585943
 10
105.3496419007459
 20
-149.283566585943
 97
        0
 97
        1
330
B2
 75
     2
 76
     1
 98
        1
 10
0.0
 20
0.0
450
        0
451
        0
460
0.0
461
0.0
452
        0
462
0.0
453
        0
470

  0
SPLINE
  5
B4
330
AE
100
AcDbEntity
  8
レイヤー 1
100
AcDbSpline
210
0.0
220
0.0
230
1.0
 70
     9
 71
     3
 72
    44
 73
    40
 74
     0
 42
0.0000000001
 43
0.0000000001
 40
0.0
 40
0.0
 40
0.0
 40
0.0
 40
1.0
 40
1.0
 40
1.0
 40
2.0
 40
2.0
 40
2.0
 40
3.0
 40
3.0
 40
3.0
 40
4.0
 40
4.0
 40
4.0
 40
5.0
 40
5.0
 40
5.0
 40
6.0
 40
6.0
 40
6.0
 40
7.0
 40
7.0
 40
7.0
 40
8.0
 40
8.0
 40
8.0
 40
9.0
 40
9.0
 40
9.0
 40
10.0
 40
10.0
 40
10.0
 40
11.0
 40
11.0
 40
11.0
 40
12.0
 40
12.0
 40
12.0
 40
13.0
 40
13.0
 40
13.0
 40
13.0
 10
104.7677652732872
 20
-148.1611544768486
 30
0.0
 10
104.9265841751572
 20
-148.3468451235036
 30
0.0
 10
105.0006537280901
 20
-148.4260823196643
 30
0.0
 10
105.144314209825
 20
-148.4674234654873
 30
0.0
 10
105.144314209825
 20
-148.4674234654873
 30
0.0
 10
105.144314209825
 20
-147.8038980750282
 30
0.0
 10
105.144314209825
 20
-147.8038980750282
 30
0.0
 10
105.144314209825
 20
-147.8038980750282
 30
0.0
 10
105.3496419007459
 20
-147.8038980750282
 30
0.0
 10
105.3496419007459
 20
-147.8038980750282
 30
0.0
 10
105.3496419007459
 20
-147.8038980750282
 30
0.0
 10
105.3496419007459
 20
-148.6803303664757
 30
0.0
 10
105.3496419007459
 20
-148.6803303664757
 30
0.0
 10
104.992040989377
 20
-148.6534586216908
 30
0.0
 10
104.9138373218618
 20
-148.5973035652812
 30
0.0
 10
104.6154920528392
 20
-148.2693304750854
 30
0.0
 10
104.4167100433402
 20
-148.0509114213206
 30
0.0
 10
104.3488416622808
 20
-147.9951008744595
 30
0.0
 10
104.2113823524194
 20
-147.9951008744595
 30
0.0
 10
104.0928710677268
 20
-147.9951008744595
 30
0.0
 10
103.9619574392873
 20
-148.056423574097
 30
0.0
 10
103.9619574392873
 20
-148.2241997242286
 30
0.0
 10
103.9619574392873
 20
-148.4460638734788
 30
0.0
 10
104.1924343272505
 20
-148.4532985739978
 30
0.0
 10
104.3088785546519
 20
-148.456743669483
 30
0.0
 10
104.3088785546519
 20
-148.456743669483
 30
0.0
 10
104.3088785546519
 20
-148.6479464689144
 30
0.0
 10
104.3088785546519
 20
-148.6479464689144
 30
0.0
 10
104.1817545312462
 20
-148.6407117683954
 30
0.0
 10
104.0697889279756
 20
-148.6317545201337
 30
0.0
 10
103.951277643283
 20
-148.5631971199772
 30
0.0
 10
103.7903916841218
 20
-148.4694905227784
 30
0.0
 10
103.7566297483664
 20
-148.3106716209084
 30
0.0
 10
103.7566297483664
 20
-148.2114528709332
 30
0.0
 10
103.7566297483664
 20
-147.9751193206451
 30
0.0
 10
103.9405978472787
 20
-147.7983859222518
 30
0.0
 10
104.2134494097105
 20
-147.7983859222518
 30
0.0
 10
104.4422037499311
 20
-147.7983859222518
 30
0.0
 10
104.5414224999063
 20
-147.897604672227
 30
0.0
 10
104.7677652732872
 20
-148.1611544768486
 30
0.0
  0
HATCH
  5
B5
330
AE
100
AcDbEntity
  8
レイヤー 1
 62
   250
420
  2299925
440
 33554687
100
AcDbHatch
 10
0.0
 20
0.0
 30
0.0
210
0.0
220
0.0
230
1.0
  2
SOLID
 70
     1
 71
     1
 91
        1
 92
        1
 93
        1
 72
     4
 94
        3
 73
     0
 74
     0
 95
       44
 96
       40
 40
0.0
 40
0.0
 40
0.0
 40
0.0
 40
1.0
 40
1.0
 40
1.0
 40
2.0
 40
2.0
 40
2.0
 40
3.0
 40
3.0
 40
3.0
 40
4.0
 40
4.0
 40
4.0
 40
5.0
 40
5.0
 40
5.0
 40
6.0
 40
6.0
 40
6.0
 40
7.0
 40
7.0
 40
7.0
 40
8.0
 40
8.0
 40
8.0
 40
9.0
 40
9.0
 40
9.0
 40
10.0
 40
10.0
 40
10.0
 40
11.0
 40
11.0
 40
11.0
 40
12.0
 40
12.0
 40
12.0
 40
13.0
 40
13.0
 40
13.0
 40
13.0
 10
104.7677652732872
 20
-148.1611544768486
 10
104.9265841751572
 20
-148.3468451235036
 10
105.0006537280901
 20
-148.4260823196643
 10
105.144314209825
 20
-148.4674234654873
 10
105.144314209825
 20
-148.4674234654873
 10
105.144314209825
 20
-147.8038980750282
 10
105.144314209825
 20
-147.8038980750282
 10
105.144314209825
 20
-147.8038980750282
 10
105.3496419007459
 20
-147.8038980750282
 10
105.3496419007459
 20
-147.8038980750282
 10
105.3496419007459
 20
-147.8038980750282
 10
105.3496419007459
 20
-148.6803303664757
 10
105.3496419007459
 20
-148.6803303664757
 10
104.992040989377
 20
-148.6534586216908
 10
104.9138373218618
 20
-148.5973035652812
 10
104.6154920528392
 20
-148.2693304750854
 10
104.4167100433402
 20
-148.0509114213206
 10
104.3488416622808
 20
-147.9951008744595
 10
104.2113823524194
 20
-147.9951008744595
 10
104.0928710677268
 20
-147.9951008744595
 10
103.9619574392873
 20
-148.056423574097
 10
103.9619574392873
 20
-148.2241997242286
 10
103.9619574392873
 20
-148.4460638734788
 10
104.1924343272505
 20
-148.4532985739978
 10
104.3088785546519
 20
-148.456743669483
 10
104.3088785546519
 20
-148.456743669483
 10
104.3088785546519
 20
-148.6479464689144
 10
104.3088785546519
 20
-148.6479464689144
 10
104.1817545312462
 20
-148.6407117683954
 10
104.0697889279756
 20
-148.6317545201337
 10
103.951277643283
 20
-148.5631971199772
 10
103.7903916841218
 20
-148.4694905227784
 10
103.7566297483664
 20
-148.3106716209084
 10
103.7566297483664
 20
-148.2114528709332
 10
103.7566297483664
 20
-147.9751193206451
 10
103.9405978472787
 20
-147.7983859222518
 10
104.2134494097105
 20
-147.7983859222518
 10
104.4422037499311
 20
-147.7983859222518
 10
104.5414224999063
 20
-147.897604672227
 10
104.7677652732872
 20
-148.1611544768486
 97
        0
 97
        1
330
B4
 75
     2
 76
     1
 98
        1
 10
0.0
 20
0.0
450
        0
451
        0
460
0.0
461
0.0
452
        0
462
0.0
453
        0
470

  0
SPLINE
  5
B6
330
AE
100
AcDbEntity
  8
レイヤー 1
100
AcDbSpline
210
0.0
220
0.0
230
1.0
 70
    11
 71
     3
 72
    17
 73
    13
 74
     0
 42
0.0000000001
 43
0.0000000001
 40
0.0
 40
0.0
 40
0.0
 40
0.0
 40
1.0
 40
1.0
 40
1.0
 40
2.0
 40
2.0
 40
2.0
 40
3.0
 40
3.0
 40
3.0
 40
4.0
 40
4.0
 40
4.0
 40
4.0
 10
105.3496419007459
 20
-147.6137288042424
 30
0.0
 10
105.3496419007459
 20
-147.6137288042424
 30
0.0
 10
105.0978054207741
 20
-147.6137288042424
 30
0.0
 10
105.0978054207741
 20
-147.6137288042424
 30
0.0
 10
105.0978054207741
 20
-147.6137288042424
 30
0.0
 10
105.0978054207741
 20
-147.3990993555113
 30
0.0
 10
105.0978054207741
 20
-147.3990993555113
 30
0.0
 10
105.0978054207741
 20
-147.3990993555113
 30
0.0
 10
105.3496419007459
 20
-147.3990993555113
 30
0.0
 10
105.3496419007459
 20
-147.3990993555113
 30
0.0
 10
105.3496419007459
 20
-147.3990993555113
 30
0.0
 10
105.3496419007459
 20
-147.6137288042424
 30
0.0
 10
105.3496419007459
 20
-147.6137288042424
 30
0.0
  0
HATCH
  5
B7
330
AE
100
AcDbEntity
  8
レイヤー 1
 62
   250
420
  2299925
440
 33554687
100
AcDbHatch
 10
0.0
 20
0.0
 30
0.0
210
0.0
220
0.0
230
1.0
  2
SOLID
 70
     1
 71
     1
 91
        1
 92
        1
 93
        1
 72
     4
 94
        3
 73
     0
 74
     0
 95
       17
 96
       13
 40
0.0
 40
0.0
 40
0.0
 40
0.0
 40
1.0
 40
1.0
 40
1.0
 40
2.0
 40
2.0
 40
2.0
 40
3.0
 40
3.0
 40
3.0
 40
4.0
 40
4.0
 40
4.0
 40
4.0
 10
105.3496419007459
 20
-147.6137288042424
 10
105.3496419007459
 20
-147.6137288042424
 10
105.0978054207741
 20
-147.6137288042424
 10
105.0978054207741
 20
-147.6137288042424
 10
105.0978054207741
 20
-147.6137288042424
 10
105.0978054207741
 20
-147.3990993555113
 10
105.0978054207741
 20
-147.3990993555113
 10
105.0978054207741
 20
-147.3990993555113
 10
105.3496419007459
 20
-147.3990993555113
 10
105.3496419007459
 20
-147.3990993555113
 10
105.3496419007459
 20
-147.3990993555113
 10
105.3496419007459
 20
-147.6137288042424
 10
105.3496419007459
 20
-147.6137288042424
 97
        0
 97
        1
330
B6
 75
     2
 76
     1
 98
        1
 10
0.0
 20
0.0
450
        0
451
        0
460
0.0
461
0.0
452
        0
462
0.0
453
        0
470

  0
SPLINE
  5
B8
330
AE
100
AcDbEntity
  8
レイヤー 1
100
AcDbSpline
210
0.0
220
0.0
230
1.0
 70
     9
 71
     3
 72
    53
 73
    49
 74
     0
 42
0.0000000001
 43
0.0000000001
 40
0.0
 40
0.0
 40
0.0
 40
0.0
 40
1.0
 40
1.0
 40
1.0
 40
2.0
 40
2.0
 40
2.0
 40
3.0
 40
3.0
 40
3.0
 40
4.0
 40
4.0
 40
4.0
 40
5.0
 40
5.0
 40
5.0
 40
6.0
 40
6.0
 40
6.0
 40
7.0
 40
7.0
 40
7.0
 40
8.0
 40
8.0
 40
8.0
 40
9.0
 40
9.0
 40
9.0
 40
10.0
 40
10.0
 40
10.0
 40
11.0
 40
11.0
 40
11.0
 40
12.0
 40
12.0
 40
12.0
 40
13.0
 40
13.0
 40
13.0
 40
14.0
 40
14.0
 40
14.0
 40
15.0
 40
15.0
 40
15.0
 40
16.0
 40
16.0
 40
16.0
 40
16.0
 10
105.4002848043791
 20
-146.787939416428
 30
0.0
 10
105.4002848043791
 20
-146.8547742688419
 30
0.0
 10
105.3834038365013
 20
-146.9412461655216
 30
0.0
 10
105.3200140795728
 20
-147.0277180622014
 30
0.0
 10
105.2101155335933
 20
-147.1755126585186
 30
0.0
 10
105.0788573956053
 20
-147.1937716645904
 30
0.0
 10
104.9710259069169
 20
-147.2099636133711
 30
0.0
 10
104.9710259069169
 20
-147.2099636133711
 30
0.0
 10
104.9710259069169
 20
-147.0204833616824
 30
0.0
 10
104.9710259069169
 20
-147.0204833616824
 30
0.0
 10
105.1698079164159
 20
-146.973630063083
 30
0.0
 10
105.199435737589
 20
-146.8654540648461
 30
0.0
 10
105.199435737589
 20
-146.7862168686854
 30
0.0
 10
105.199435737589
 20
-146.6670165648957
 30
0.0
 10
105.0998724780653
 20
-146.5371364651018
 30
0.0
 10
104.8673285328109
 20
-146.5371364651018
 30
0.0
 10
104.6113579382569
 20
-146.5371364651018
 30
0.0
 10
104.5414224999063
 20
-146.6904432141954
 30
0.0
 10
104.5414224999063
 20
-146.7934515692044
 30
0.0
 10
104.5414224999063
 20
-146.8203233139893
 30
0.0
 10
104.5414224999063
 20
-146.9412461655216
 30
0.0
 10
104.6706135806032
 20
-147.0170382661971
 30
0.0
 10
104.6706135806032
 20
-147.0170382661971
 30
0.0
 10
104.6516655554343
 20
-147.166555410257
 30
0.0
 10
104.6516655554343
 20
-147.166555410257
 30
0.0
 10
104.6516655554343
 20
-147.166555410257
 30
0.0
 10
103.8052055947084
 20
-147.0638915647965
 30
0.0
 10
103.8052055947084
 20
-147.0638915647965
 30
0.0
 10
103.8052055947084
 20
-147.0638915647965
 30
0.0
 10
103.8052055947084
 20
-146.4003661743374
 30
0.0
 10
103.8052055947084
 20
-146.4003661743374
 30
0.0
 10
103.8052055947084
 20
-146.4003661743374
 30
0.0
 10
103.999853489625
 20
-146.4003661743374
 30
0.0
 10
103.999853489625
 20
-146.4003661743374
 30
0.0
 10
103.999853489625
 20
-146.4003661743374
 30
0.0
 10
103.999853489625
 20
-146.9250542167409
 30
0.0
 10
103.999853489625
 20
-146.9250542167409
 30
0.0
 10
103.999853489625
 20
-146.9250542167409
 30
0.0
 10
104.4229112152137
 20
-146.980864763602
 30
0.0
 10
104.4229112152137
 20
-146.980864763602
 30
0.0
 10
104.3891492794582
 20
-146.9284993122262
 30
0.0
 10
104.3488416622808
 20
-146.8582193643271
 30
0.0
 10
104.3488416622808
 20
-146.7572780666093
 30
0.0
 10
104.3488416622808
 20
-146.5409260701356
 30
0.0
 10
104.5352213280328
 20
-146.3390434746999
 30
0.0
 10
104.848380507642
 20
-146.3390434746999
 30
0.0
 10
105.1656738018336
 20
-146.3390434746999
 30
0.0
 10
105.4002848043791
 20
-146.5299017645828
 30
0.0
 10
105.4002848043791
 20
-146.787939416428
 30
0.0
  0
HATCH
  5
B9
330
AE
100
AcDbEntity
  8
レイヤー 1
 62
   250
420
  2299925
440
 33554687
100
AcDbHatch
 10
0.0
 20
0.0
 30
0.0
210
0.0
220
0.0
230
1.0
  2
SOLID
 70
     1
 71
     1
 91
        1
 92
        1
 93
        1
 72
     4
 94
        3
 73
     0
 74
     0
 95
       53
 96
       49
 40
0.0
 40
0.0
 40
0.0
 40
0.0
 40
1.0
 40
1.0
 40
1.0
 40
2.0
 40
2.0
 40
2.0
 40
3.0
 40
3.0
 40
3.0
 40
4.0
 40
4.0
 40
4.0
 40
5.0
 40
5.0
 40
5.0
 40
6.0
 40
6.0
 40
6.0
 40
7.0
 40
7.0
 40
7.0
 40
8.0
 40
8.0
 40
8.0
 40
9.0
 40
9.0
 40
9.0
 40
10.0
 40
10.0
 40
10.0
 40
11.0
 40
11.0
 40
11.0
 40
12.0
 40
12.0
 40
12.0
 40
13.0
 40
13.0
 40
13.0
 40
14.0
 40
14.0
 40
14.0
 40
15.0
 40
15.0
 40
15.0
 40
16.0
 40
16.0
 40
16.0
 40
16.0
 10
105.4002848043791
 20
-146.787939416428
 10
105.4002848043791
 20
-146.8547742688419
 10
105.3834038365013
 20
-146.9412461655216
 10
105.3200140795728
 20
-147.0277180622014
 10
105.2101155335933
 20
-147.1755126585186
 10
105.0788573956053
 20
-147.1937716645904
 10
104.9710259069169
 20
-147.2099636133711
 10
104.9710259069169
 20
-147.2099636133711
 10
104.9710259069169
 20
-147.0204833616824
 10
104.9710259069169
 20
-147.0204833616824
 10
105.1698079164159
 20
-146.973630063083
 10
105.199435737589
 20
-146.8654540648461
 10
105.199435737589
 20
-146.7862168686854
 10
105.199435737589
 20
-146.6670165648957
 10
105.0998724780653
 20
-146.5371364651018
 10
104.8673285328109
 20
-146.5371364651018
 10
104.6113579382569
 20
-146.5371364651018
 10
104.5414224999063
 20
-146.6904432141954
 10
104.5414224999063
 20
-146.7934515692044
 10
104.5414224999063
 20
-146.8203233139893
 10
104.5414224999063
 20
-146.9412461655216
 10
104.6706135806032
 20
-147.0170382661971
 10
104.6706135806032
 20
-147.0170382661971
 10
104.6516655554343
 20
-147.166555410257
 10
104.6516655554343
 20
-147.166555410257
 10
104.6516655554343
 20
-147.166555410257
 10
103.8052055947084
 20
-147.0638915647965
 10
103.8052055947084
 20
-147.0638915647965
 10
103.8052055947084
 20
-147.0638915647965
 10
103.8052055947084
 20
-146.4003661743374
 10
103.8052055947084
 20
-146.4003661743374
 10
103.8052055947084
 20
-146.4003661743374
 10
103.999853489625
 20
-146.4003661743374
 10
103.999853489625
 20
-146.4003661743374
 10
103.999853489625
 20
-146.4003661743374
 10
103.999853489625
 20
-146.9250542167409
 10
103.999853489625
 20
-146.9250542167409
 10
103.999853489625
 20
-146.9250542167409
 10
104.4229112152137
 20
-146.980864763602
 10
104.4229112152137
 20
-146.980864763602
 10
104.3891492794582
 20
-146.9284993122262
 10
104.3488416622808
 20
-146.8582193643271
 10
104.3488416622808
 20
-146.7572780666093
 10
104.3488416622808
 20
-146.5409260701356
 10
104.5352213280328
 20
-146.3390434746999
 10
104.848380507642
 20
-146.3390434746999
 10
105.1656738018336
 20
-146.3390434746999
 10
105.4002848043791
 20
-146.5299017645828
 10
105.4002848043791
 20
-146.787939416428
 97
        0
 97
        1
330
B8
 75
     2
 76
     1
 98
        1
 10
0.0
 20
0.0
450
        0
451
        0
460
0.0
461
0.0
452
        0
462
0.0
453
        0
470

  0
ENDBLK
  5
B1
330
AE
100
AcDbEntity
  8
0
100
AcDbBlockEnd
  0
BLOCK
  5
C0
330
BE
100
AcDbEntity
  8
0
100
AcDbBlockBegin
  2
Block_7
 70
     0
 10
0.0
 20
0.0
 30
0.0
  3
Block_7
  1

  0
INSERT
  5
C3
330
BE
100
AcDbEntity
  8
レイヤー 1
100
AcDbBlockReference
  2
Block_8
 10
0.0
 20
0.0
 30
0.0
  0
ENDBLK
  5
C1
330
BE
100
AcDbEntity
  8
0
100
AcDbBlockEnd
  0
BLOCK
  5
C4
330
C2
100
AcDbEntity
  8
0
100
AcDbBlockBegin
  2
Block_8
 70
     0
 10
0.0
 20
0.0
 30
0.0
  3
Block_8
  1

  0
SPLINE
  5
C6
330
C2
100
AcDbEntity
  8
レイヤー 1
100
AcDbSpline
210
0.0
220
0.0
230
1.0
 70
     9
 71
     3
 72
    17
 73
    13
 74
     0
 42
0.0000000001
 43
0.0000000001
 40
0.0
 40
0.0
 40
0.0
 40
0.0
 40
1.0
 40
1.0
 40
1.0
 40
2.0
 40
2.0
 40
2.0
 40
3.0
 40
3.0
 40
3.0
 40
4.0
 40
4.0
 40
4.0
 40
4.0
 10
108.1828884278154
 20
-155.3328097484932
 30
0.0
 10
108.1828884278154
 20
-155.5453721399331
 30
0.0
 10
108.4664197862514
 20
-155.585335247562
 30
0.0
 10
108.8112738443249
 20
-155.585335247562
 30
0.0
 10
109.1306341958076
 20
-155.585335247562
 30
0.0
 10
109.439314751286
 20
-155.5546738977432
 30
0.0
 10
109.439314751286
 20
-155.3328097484932
 30
0.0
 10
109.439314751286
 20
-155.1216253952474
 30
0.0
 10
109.1581949596896
 20
-155.0802842494244
 30
0.0
 10
108.8112738443249
 20
-155.0802842494244
 30
0.0
 10
108.4915689832937
 20
-155.0802842494244
 30
0.0
 10
108.1828884278154
 20
-155.1126681469857
 30
0.0
 10
108.1828884278154
 20
-155.3328097484932
 30
0.0
  0
SPLINE
  5
C7
330
C2
100
AcDbEntity
  8
レイヤー 1
100
AcDbSpline
210
0.0
220
0.0
230
1.0
 70
     9
 71
     3
 72
    29
 73
    25
 74
     0
 42
0.0000000001
 43
0.0000000001
 40
0.0
 40
0.0
 40
0.0
 40
0.0
 40
1.0
 40
1.0
 40
1.0
 40
2.0
 40
2.0
 40
2.0
 40
3.0
 40
3.0
 40
3.0
 40
4.0
 40
4.0
 40
4.0
 40
5.0
 40
5.0
 40
5.0
 40
6.0
 40
6.0
 40
6.0
 40
7.0
 40
7.0
 40
7.0
 40
8.0
 40
8.0
 40
8.0
 40
8.0
 10
109.4055528155305
 20
-154.9938123527446
 30
0.0
 10
109.6150146210337
 20
-155.0857964022007
 30
0.0
 10
109.6339626462026
 20
-155.233590998518
 30
0.0
 10
109.6339626462026
 20
-155.3328097484932
 30
0.0
 10
109.6339626462026
 20
-155.4699245488061
 30
0.0
 10
109.5874538571517
 20
-155.5905028907899
 30
0.0
 10
109.4055528155305
 20
-155.6718071442418
 30
0.0
 10
109.2109049206139
 20
-155.7600015886642
 30
0.0
 10
108.9738823512287
 20
-155.7761935374448
 30
0.0
 10
108.8112738443249
 20
-155.7761935374448
 30
0.0
 10
108.6672688530415
 20
-155.7761935374448
 30
0.0
 10
108.4154323730697
 20
-155.7620686459553
 30
0.0
 10
108.2166503635708
 20
-155.6718071442418
 30
0.0
 10
108.0137342394896
 20
-155.5798230947856
 30
0.0
 10
107.9903075901899
 20
-155.4427082944726
 30
0.0
 10
107.9903075901899
 20
-155.3328097484932
 30
0.0
 10
107.9903075901899
 20
-155.1974174959229
 30
0.0
 10
108.0347493219496
 20
-155.074772096648
 30
0.0
 10
108.2166503635708
 20
-154.9938123527446
 30
0.0
 10
108.4092312011963
 20
-154.9090630038074
 30
0.0
 10
108.6376410318683
 20
-154.889081449993
 30
0.0
 10
108.8112738443249
 20
-154.889081449993
 30
0.0
 10
108.9824950899419
 20
-154.889081449993
 30
0.0
 10
109.2129719779051
 20
-154.9073404560648
 30
0.0
 10
109.4055528155305
 20
-154.9938123527446
 30
0.0
  0
HATCH
  5
C8
330
C2
100
AcDbEntity
  8
レイヤー 1
 62
   250
420
  2299925
440
 33554687
100
AcDbHatch
 10
0.0
 20
0.0
 30
0.0
210
0.0
220
0.0
230
1.0
  2
SOLID
 70
     1
 71
     1
 91
        2
 92
        1
 93
        1
 72
     4
 94
        3
 73
     0
 74
     0
 95
       17
 96
       13
 40
0.0
 40
0.0
 40
0.0
 40
0.0
 40
1.0
 40
1.0
 40
1.0
 40
2.0
 40
2.0
 40
2.0
 40
3.0
 40
3.0
 40
3.0
 40
4.0
 40
4.0
 40
4.0
 40
4.0
 10
108.1828884278154
 20
-155.3328097484932
 10
108.1828884278154
 20
-155.5453721399331
 10
108.4664197862514
 20
-155.585335247562
 10
108.8112738443249
 20
-155.585335247562
 10
109.1306341958076
 20
-155.585335247562
 10
109.439314751286
 20
-155.5546738977432
 10
109.439314751286
 20
-155.3328097484932
 10
109.439314751286
 20
-155.1216253952474
 10
109.1581949596896
 20
-155.0802842494244
 10
108.8112738443249
 20
-155.0802842494244
 10
108.4915689832937
 20
-155.0802842494244
 10
108.1828884278154
 20
-155.1126681469857
 10
108.1828884278154
 20
-155.3328097484932
 97
        0
 97
        1
330
C6
 92
        1
 93
        1
 72
     4
 94
        3
 73
     0
 74
     0
 95
       29
 96
       25
 40
0.0
 40
0.0
 40
0.0
 40
0.0
 40
1.0
 40
1.0
 40
1.0
 40
2.0
 40
2.0
 40
2.0
 40
3.0
 40
3.0
 40
3.0
 40
4.0
 40
4.0
 40
4.0
 40
5.0
 40
5.0
 40
5.0
 40
6.0
 40
6.0
 40
6.0
 40
7.0
 40
7.0
 40
7.0
 40
8.0
 40
8.0
 40
8.0
 40
8.0
 10
109.4055528155305
 20
-154.9938123527446
 10
109.6150146210337
 20
-155.0857964022007
 10
109.6339626462026
 20
-155.233590998518
 10
109.6339626462026
 20
-155.3328097484932
 10
109.6339626462026
 20
-155.4699245488061
 10
109.5874538571517
 20
-155.5905028907899
 10
109.4055528155305
 20
-155.6718071442418
 10
109.2109049206139
 20
-155.7600015886642
 10
108.9738823512287
 20
-155.7761935374448
 10
108.8112738443249
 20
-155.7761935374448
 10
108.6672688530415
 20
-155.7761935374448
 10
108.4154323730697
 20
-155.7620686459553
 10
108.2166503635708
 20
-155.6718071442418
 10
108.0137342394896
 20
-155.5798230947856
 10
107.9903075901899
 20
-155.4427082944726
 10
107.9903075901899
 20
-155.3328097484932
 10
107.9903075901899
 20
-155.1974174959229
 10
108.0347493219496
 20
-155.074772096648
 10
108.2166503635708
 20
-154.9938123527446
 10
108.4092312011963
 20
-154.9090630038074
 10
108.6376410318683
 20
-154.889081449993
 10
108.8112738443249
 20
-154.889081449993
 10
108.9824950899419
 20
-154.889081449993
 10
109.2129719779051
 20
-154.9073404560648
 10
109.4055528155305
 20
-154.9938123527446
 97
        0
 97
        1
330
C7
 75
     2
 76
     1
 98
        1
 10
0.0
 20
0.0
450
        0
451
        0
460
0.0
461
0.0
452
        0
462
0.0
453
        0
470

  0
SPLINE
  5
C9
330
C2
100
AcDbEntity
  8
レイヤー 1
100
AcDbSpline
210
0.0
220
0.0
230
1.0
 70
    11
 71
     3
 72
    17
 73
    13
 74
     0
 42
0.0000000001
 43
0.0000000001
 40
0.0
 40
0.0
 40
0.0
 40
0.0
 40
1.0
 40
1.0
 40
1.0
 40
2.0
 40
2.0
 40
2.0
 40
3.0
 40
3.0
 40
3.0
 40
4.0
 40
4.0
 40
4.0
 40
4.0
 10
109.5833197425694
 20
-154.7061468797262
 30
0.0
 10
109.5833197425694
 20
-154.7061468797262
 30
0.0
 10
109.3314832625977
 20
-154.7061468797262
 30
0.0
 10
109.3314832625977
 20
-154.7061468797262
 30
0.0
 10
109.3314832625977
 20
-154.7061468797262
 30
0.0
 10
109.3314832625977
 20
-154.4915174309952
 30
0.0
 10
109.3314832625977
 20
-154.4915174309952
 30
0.0
 10
109.3314832625977
 20
-154.4915174309952
 30
0.0
 10
109.5833197425694
 20
-154.4915174309952
 30
0.0
 10
109.5833197425694
 20
-154.4915174309952
 30
0.0
 10
109.5833197425694
 20
-154.4915174309952
 30
0.0
 10
109.5833197425694
 20
-154.7061468797262
 30
0.0
 10
109.5833197425694
 20
-154.7061468797262
 30
0.0
  0
HATCH
  5
CA
330
C2
100
AcDbEntity
  8
レイヤー 1
 62
   250
420
  2299925
440
 33554687
100
AcDbHatch
 10
0.0
 20
0.0
 30
0.0
210
0.0
220
0.0
230
1.0
  2
SOLID
 70
     1
 71
     1
 91
        1
 92
        1
 93
        1
 72
     4
 94
        3
 73
     0
 74
     0
 95
       17
 96
       13
 40
0.0
 40
0.0
 40
0.0
 40
0.0
 40
1.0
 40
1.0
 40
1.0
 40
2.0
 40
2.0
 40
2.0
 40
3.0
 40
3.0
 40
3.0
 40
4.0
 40
4.0
 40
4.0
 40
4.0
 10
109.5833197425694
 20
-154.7061468797262
 10
109.5833197425694
 20
-154.7061468797262
 10
109.3314832625977
 20
-154.7061468797262
 10
109.3314832625977
 20
-154.7061468797262
 10
109.3314832625977
 20
-154.7061468797262
 10
109.3314832625977
 20
-154.4915174309952
 10
109.3314832625977
 20
-154.4915174309952
 10
109.3314832625977
 20
-154.4915174309952
 10
109.5833197425694
 20
-154.4915174309952
 10
109.5833197425694
 20
-154.4915174309952
 10
109.5833197425694
 20
-154.4915174309952
 10
109.5833197425694
 20
-154.7061468797262
 10
109.5833197425694
 20
-154.7061468797262
 97
        0
 97
        1
330
C9
 75
     2
 76
     1
 98
        1
 10
0.0
 20
0.0
450
        0
451
        0
460
0.0
461
0.0
452
        0
462
0.0
453
        0
470

  0
SPLINE
  5
CB
330
C2
100
AcDbEntity
  8
レイヤー 1
100
AcDbSpline
210
0.0
220
0.0
230
1.0
 70
    11
 71
     3
 72
    14
 73
    10
 74
     0
 42
0.0000000001
 43
0.0000000001
 40
0.0
 40
0.0
 40
0.0
 40
0.0
 40
1.0
 40
1.0
 40
1.0
 40
2.0
 40
2.0
 40
2.0
 40
3.0
 40
3.0
 40
3.0
 40
3.0
 10
108.3816704373143
 20
-153.7666693408986
 30
0.0
 10
108.3816704373143
 20
-153.7666693408986
 30
0.0
 10
109.0376166177059
 20
-154.1563096402803
 30
0.0
 10
109.0376166177059
 20
-154.1563096402803
 30
0.0
 10
109.0376166177059
 20
-154.1563096402803
 30
0.0
 10
109.0376166177059
 20
-153.7666693408986
 30
0.0
 10
109.0376166177059
 20
-153.7666693408986
 30
0.0
 10
109.0376166177059
 20
-153.7666693408986
 30
0.0
 10
108.3816704373143
 20
-153.7666693408986
 30
0.0
 10
108.3816704373143
 20
-153.7666693408986
 30
0.0
  0
SPLINE
  5
CC
330
C2
100
AcDbEntity
  8
レイヤー 1
100
AcDbSpline
210
0.0
220
0.0
230
1.0
 70
    11
 71
     3
 72
    38
 73
    34
 74
     0
 42
0.0000000001
 43
0.0000000001
 40
0.0
 40
0.0
 40
0.0
 40
0.0
 40
1.0
 40
1.0
 40
1.0
 40
2.0
 40
2.0
 40
2.0
 40
3.0
 40
3.0
 40
3.0
 40
4.0
 40
4.0
 40
4.0
 40
5.0
 40
5.0
 40
5.0
 40
6.0
 40
6.0
 40
6.0
 40
7.0
 40
7.0
 40
7.0
 40
8.0
 40
8.0
 40
8.0
 40
9.0
 40
9.0
 40
9.0
 40
10.0
 40
10.0
 40
10.0
 40
11.0
 40
11.0
 40
11.0
 40
11.0
 10
109.2363986272048
 20
-153.5809786942436
 30
0.0
 10
109.2363986272048
 20
-153.5809786942436
 30
0.0
 10
109.5833197425694
 20
-153.5809786942436
 30
0.0
 10
109.5833197425694
 20
-153.5809786942436
 30
0.0
 10
109.5833197425694
 20
-153.5809786942436
 30
0.0
 10
109.5833197425694
 20
-153.7666693408986
 30
0.0
 10
109.5833197425694
 20
-153.7666693408986
 30
0.0
 10
109.5833197425694
 20
-153.7666693408986
 30
0.0
 10
109.2363986272048
 20
-153.7666693408986
 30
0.0
 10
109.2363986272048
 20
-153.7666693408986
 30
0.0
 10
109.2363986272048
 20
-153.7666693408986
 30
0.0
 10
109.2363986272048
 20
-154.3258083381546
 30
0.0
 10
109.2363986272048
 20
-154.3258083381546
 30
0.0
 10
109.2363986272048
 20
-154.3258083381546
 30
0.0
 10
109.012122911115
 20
-154.3258083381546
 30
0.0
 10
109.012122911115
 20
-154.3258083381546
 30
0.0
 10
109.012122911115
 20
-154.3258083381546
 30
0.0
 10
108.0388834365319
 20
-153.7470322966327
 30
0.0
 10
108.0388834365319
 20
-153.7470322966327
 30
0.0
 10
108.0388834365319
 20
-153.7470322966327
 30
0.0
 10
108.0388834365319
 20
-153.5809786942436
 30
0.0
 10
108.0388834365319
 20
-153.5809786942436
 30
0.0
 10
108.0388834365319
 20
-153.5809786942436
 30
0.0
 10
109.0376166177059
 20
-153.5809786942436
 30
0.0
 10
109.0376166177059
 20
-153.5809786942436
 30
0.0
 10
109.0376166177059
 20
-153.5809786942436
 30
0.0
 10
109.0376166177059
 20
-153.4042452958503
 30
0.0
 10
109.0376166177059
 20
-153.4042452958503
 30
0.0
 10
109.0376166177059
 20
-153.4042452958503
 30
0.0
 10
109.2363986272048
 20
-153.4042452958503
 30
0.0
 10
109.2363986272048
 20
-153.4042452958503
 30
0.0
 10
109.2363986272048
 20
-153.4042452958503
 30
0.0
 10
109.2363986272048
 20
-153.5809786942436
 30
0.0
 10
109.2363986272048
 20
-153.5809786942436
 30
0.0
  0
HATCH
  5
CD
330
C2
100
AcDbEntity
  8
レイヤー 1
 62
   250
420
  2299925
440
 33554687
100
AcDbHatch
 10
0.0
 20
0.0
 30
0.0
210
0.0
220
0.0
230
1.0
  2
SOLID
 70
     1
 71
     1
 91
        2
 92
        1
 93
        1
 72
     4
 94
        3
 73
     0
 74
     0
 95
       14
 96
       10
 40
0.0
 40
0.0
 40
0.0
 40
0.0
 40
1.0
 40
1.0
 40
1.0
 40
2.0
 40
2.0
 40
2.0
 40
3.0
 40
3.0
 40
3.0
 40
3.0
 10
108.3816704373143
 20
-153.7666693408986
 10
108.3816704373143
 20
-153.7666693408986
 10
109.0376166177059
 20
-154.1563096402803
 10
109.0376166177059
 20
-154.1563096402803
 10
109.0376166177059
 20
-154.1563096402803
 10
109.0376166177059
 20
-153.7666693408986
 10
109.0376166177059
 20
-153.7666693408986
 10
109.0376166177059
 20
-153.7666693408986
 10
108.3816704373143
 20
-153.7666693408986
 10
108.3816704373143
 20
-153.7666693408986
 97
        0
 97
        1
330
CB
 92
        1
 93
        1
 72
     4
 94
        3
 73
     0
 74
     0
 95
       38
 96
       34
 40
0.0
 40
0.0
 40
0.0
 40
0.0
 40
1.0
 40
1.0
 40
1.0
 40
2.0
 40
2.0
 40
2.0
 40
3.0
 40
3.0
 40
3.0
 40
4.0
 40
4.0
 40
4.0
 40
5.0
 40
5.0
 40
5.0
 40
6.0
 40
6.0
 40
6.0
 40
7.0
 40
7.0
 40
7.0
 40
8.0
 40
8.0
 40
8.0
 40
9.0
 40
9.0
 40
9.0
 40
10.0
 40
10.0
 40
10.0
 40
11.0
 40
11.0
 40
11.0
 40
11.0
 10
109.2363986272048
 20
-153.5809786942436
 10
109.2363986272048
 20
-153.5809786942436
 10
109.5833197425694
 20
-153.5809786942436
 10
109.5833197425694
 20
-153.5809786942436
 10
109.5833197425694
 20
-153.5809786942436
 10
109.5833197425694
 20
-153.7666693408986
 10
109.5833197425694
 20
-153.7666693408986
 10
109.5833197425694
 20
-153.7666693408986
 10
109.2363986272048
 20
-153.7666693408986
 10
109.2363986272048
 20
-153.7666693408986
 10
109.2363986272048
 20
-153.7666693408986
 10
109.2363986272048
 20
-154.3258083381546
 10
109.2363986272048
 20
-154.3258083381546
 10
109.2363986272048
 20
-154.3258083381546
 10
109.012122911115
 20
-154.3258083381546
 10
109.012122911115
 20
-154.3258083381546
 10
109.012122911115
 20
-154.3258083381546
 10
108.0388834365319
 20
-153.7470322966327
 10
108.0388834365319
 20
-153.7470322966327
 10
108.0388834365319
 20
-153.7470322966327
 10
108.0388834365319
 20
-153.5809786942436
 10
108.0388834365319
 20
-153.5809786942436
 10
108.0388834365319
 20
-153.5809786942436
 10
109.0376166177059
 20
-153.5809786942436
 10
109.0376166177059
 20
-153.5809786942436
 10
109.0376166177059
 20
-153.5809786942436
 10
109.0376166177059
 20
-153.4042452958503
 10
109.0376166177059
 20
-153.4042452958503
 10
109.0376166177059
 20
-153.4042452958503
 10
109.2363986272048
 20
-153.4042452958503
 10
109.2363986272048
 20
-153.4042452958503
 10
109.2363986272048
 20
-153.4042452958503
 10
109.2363986272048
 20
-153.5809786942436
 10
109.2363986272048
 20
-153.5809786942436
 97
        0
 97
        1
330
CC
 75
     2
 76
     1
 98
        1
 10
0.0
 20
0.0
450
        0
451
        0
460
0.0
461
0.0
452
        0
462
0.0
453
        0
470

  0
ENDBLK
  5
C5
330
C2
100
AcDbEntity
  8
0
100
AcDbBlockEnd
  0
BLOCK
  5
D4
330
D2
100
AcDbEntity
  8
0
100
AcDbBlockBegin
  2
Block_9
 70
     0
 10
0.0
 20
0.0
 30
0.0
  3
Block_9
  1

  0
INSERT
  5
D7
330
D2
100
AcDbEntity
  8
レイヤー 1
100
AcDbBlockReference
  2
Block_10
 10
0.0
 20
0.0
 30
0.0
  0
ENDBLK
  5
D5
330
D2
100
AcDbEntity
  8
0
100
AcDbBlockEnd
  0
BLOCK
  5
D8
330
D6
100
AcDbEntity
  8
0
100
AcDbBlockBegin
  2
Block_10
 70
     0
 10
0.0
 20
0.0
 30
0.0
  3
Block_10
  1

  0
SPLINE
  5
DA
330
D6
100
AcDbEntity
  8
レイヤー 1
100
AcDbSpline
210
0.0
220
0.0
230
1.0
 70
    11
 71
     3
 72
    26
 73
    22
 74
     0
 42
0.0000000001
 43
0.0000000001
 40
0.0
 40
0.0
 40
0.0
 40
0.0
 40
1.0
 40
1.0
 40
1.0
 40
2.0
 40
2.0
 40
2.0
 40
3.0
 40
3.0
 40
3.0
 40
4.0
 40
4.0
 40
4.0
 40
5.0
 40
5.0
 40
5.0
 40
6.0
 40
6.0
 40
6.0
 40
7.0
 40
7.0
 40
7.0
 40
7.0
 10
77.30019122416454
 20
-141.2602837103446
 30
0.0
 10
77.30019122416454
 20
-141.2602837103446
 30
0.0
 10
76.19603812114196
 20
-141.2602837103446
 30
0.0
 10
76.19603812114196
 20
-141.2602837103446
 30
0.0
 10
76.19603812114196
 20
-141.2602837103446
 30
0.0
 10
76.19603812114196
 20
-141.5417480114895
 30
0.0
 10
76.19603812114196
 20
-141.5417480114895
 30
0.0
 10
76.19603812114196
 20
-141.5417480114895
 30
0.0
 10
76.04789901527623
 20
-141.5417480114895
 30
0.0
 10
76.04789901527623
 20
-141.5417480114895
 30
0.0
 10
76.03308510468965
 20
-141.258561162602
 30
0.0
 10
75.87013208823733
 20
-141.2189425645216
 30
0.0
 10
75.75575491812704
 20
-141.1937933674793
 30
0.0
 10
75.75575491812704
 20
-141.1937933674793
 30
0.0
 10
75.75575491812704
 20
-141.0690809109133
 30
0.0
 10
75.75575491812704
 20
-141.0690809109133
 30
0.0
 10
75.75575491812704
 20
-141.0690809109133
 30
0.0
 10
77.30019122416454
 20
-141.0690809109133
 30
0.0
 10
77.30019122416454
 20
-141.0690809109133
 30
0.0
 10
77.30019122416454
 20
-141.0690809109133
 30
0.0
 10
77.30019122416454
 20
-141.2602837103446
 30
0.0
 10
77.30019122416454
 20
-141.2602837103446
 30
0.0
  0
HATCH
  5
DB
330
D6
100
AcDbEntity
  8
レイヤー 1
 62
   250
420
  2299925
440
 33554687
100
AcDbHatch
 10
0.0
 20
0.0
 30
0.0
210
0.0
220
0.0
230
1.0
  2
SOLID
 70
     1
 71
     1
 91
        1
 92
        1
 93
        1
 72
     4
 94
        3
 73
     0
 74
     0
 95
       26
 96
       22
 40
0.0
 40
0.0
 40
0.0
 40
0.0
 40
1.0
 40
1.0
 40
1.0
 40
2.0
 40
2.0
 40
2.0
 40
3.0
 40
3.0
 40
3.0
 40
4.0
 40
4.0
 40
4.0
 40
5.0
 40
5.0
 40
5.0
 40
6.0
 40
6.0
 40
6.0
 40
7.0
 40
7.0
 40
7.0
 40
7.0
 10
77.30019122416454
 20
-141.2602837103446
 10
77.30019122416454
 20
-141.2602837103446
 10
76.19603812114196
 20
-141.2602837103446
 10
76.19603812114196
 20
-141.2602837103446
 10
76.19603812114196
 20
-141.2602837103446
 10
76.19603812114196
 20
-141.5417480114895
 10
76.19603812114196
 20
-141.5417480114895
 10
76.19603812114196
 20
-141.5417480114895
 10
76.04789901527623
 20
-141.5417480114895
 10
76.04789901527623
 20
-141.5417480114895
 10
76.03308510468965
 20
-141.258561162602
 10
75.87013208823733
 20
-141.2189425645216
 10
75.75575491812704
 20
-141.1937933674793
 10
75.75575491812704
 20
-141.1937933674793
 10
75.75575491812704
 20
-141.0690809109133
 10
75.75575491812704
 20
-141.0690809109133
 10
75.75575491812704
 20
-141.0690809109133
 10
77.30019122416454
 20
-141.0690809109133
 10
77.30019122416454
 20
-141.0690809109133
 10
77.30019122416454
 20
-141.0690809109133
 10
77.30019122416454
 20
-141.2602837103446
 10
77.30019122416454
 20
-141.2602837103446
 97
        0
 97
        1
330
DA
 75
     2
 76
     1
 98
        1
 10
0.0
 20
0.0
450
        0
451
        0
460
0.0
461
0.0
452
        0
462
0.0
453
        0
470

  0
SPLINE
  5
DC
330
D6
100
AcDbEntity
  8
レイヤー 1
100
AcDbSpline
210
0.0
220
0.0
230
1.0
 70
    11
 71
     3
 72
    17
 73
    13
 74
     0
 42
0.0000000001
 43
0.0000000001
 40
0.0
 40
0.0
 40
0.0
 40
0.0
 40
1.0
 40
1.0
 40
1.0
 40
2.0
 40
2.0
 40
2.0
 40
3.0
 40
3.0
 40
3.0
 40
4.0
 40
4.0
 40
4.0
 40
4.0
 10
77.30019122416454
 20
-140.5922796957547
 30
0.0
 10
77.30019122416454
 20
-140.5922796957547
 30
0.0
 10
77.04835474419278
 20
-140.5922796957547
 30
0.0
 10
77.04835474419278
 20
-140.5922796957547
 30
0.0
 10
77.04835474419278
 20
-140.5922796957547
 30
0.0
 10
77.04835474419278
 20
-140.3776502470236
 30
0.0
 10
77.04835474419278
 20
-140.3776502470236
 30
0.0
 10
77.04835474419278
 20
-140.3776502470236
 30
0.0
 10
77.30019122416454
 20
-140.3776502470236
 30
0.0
 10
77.30019122416454
 20
-140.3776502470236
 30
0.0
 10
77.30019122416454
 20
-140.3776502470236
 30
0.0
 10
77.30019122416454
 20
-140.5922796957547
 30
0.0
 10
77.30019122416454
 20
-140.5922796957547
 30
0.0
  0
HATCH
  5
DD
330
D6
100
AcDbEntity
  8
レイヤー 1
 62
   250
420
  2299925
440
 33554687
100
AcDbHatch
 10
0.0
 20
0.0
 30
0.0
210
0.0
220
0.0
230
1.0
  2
SOLID
 70
     1
 71
     1
 91
        1
 92
        1
 93
        1
 72
     4
 94
        3
 73
     0
 74
     0
 95
       17
 96
       13
 40
0.0
 40
0.0
 40
0.0
 40
0.0
 40
1.0
 40
1.0
 40
1.0
 40
2.0
 40
2.0
 40
2.0
 40
3.0
 40
3.0
 40
3.0
 40
4.0
 40
4.0
 40
4.0
 40
4.0
 10
77.30019122416454
 20
-140.5922796957547
 10
77.30019122416454
 20
-140.5922796957547
 10
77.04835474419278
 20
-140.5922796957547
 10
77.04835474419278
 20
-140.5922796957547
 10
77.04835474419278
 20
-140.5922796957547
 10
77.04835474419278
 20
-140.3776502470236
 10
77.04835474419278
 20
-140.3776502470236
 10
77.04835474419278
 20
-140.3776502470236
 10
77.30019122416454
 20
-140.3776502470236
 10
77.30019122416454
 20
-140.3776502470236
 10
77.30019122416454
 20
-140.3776502470236
 10
77.30019122416454
 20
-140.5922796957547
 10
77.30019122416454
 20
-140.5922796957547
 97
        0
 97
        1
330
DC
 75
     2
 76
     1
 98
        1
 10
0.0
 20
0.0
450
        0
451
        0
460
0.0
461
0.0
452
        0
462
0.0
453
        0
470

  0
SPLINE
  5
DE
330
D6
100
AcDbEntity
  8
レイヤー 1
100
AcDbSpline
210
0.0
220
0.0
230
1.0
 70
     9
 71
     3
 72
    17
 73
    13
 74
     0
 42
0.0000000001
 43
0.0000000001
 40
0.0
 40
0.0
 40
0.0
 40
0.0
 40
1.0
 40
1.0
 40
1.0
 40
2.0
 40
2.0
 40
2.0
 40
3.0
 40
3.0
 40
3.0
 40
4.0
 40
4.0
 40
4.0
 40
4.0
 10
75.89975990941048
 20
-139.7502983591596
 30
0.0
 10
75.89975990941048
 20
-139.9632052601481
 30
0.0
 10
76.18329126784654
 20
-140.0028238582284
 30
0.0
 10
76.52814532592005
 20
-140.0028238582284
 30
0.0
 10
76.8475056774027
 20
-140.0028238582284
 30
0.0
 10
77.1561862328811
 20
-139.9721625084097
 30
0.0
 10
77.1561862328811
 20
-139.7502983591596
 30
0.0
 10
77.1561862328811
 20
-139.5391140059138
 30
0.0
 10
76.87506644128472
 20
-139.4977728600908
 30
0.0
 10
76.52814532592005
 20
-139.4977728600908
 30
0.0
 10
76.20844046488887
 20
-139.4977728600908
 30
0.0
 10
75.89975990941048
 20
-139.5301567576522
 30
0.0
 10
75.89975990941048
 20
-139.7502983591596
 30
0.0
  0
SPLINE
  5
DF
330
D6
100
AcDbEntity
  8
レイヤー 1
100
AcDbSpline
210
0.0
220
0.0
230
1.0
 70
     9
 71
     3
 72
    29
 73
    25
 74
     0
 42
0.0000000001
 43
0.0000000001
 40
0.0
 40
0.0
 40
0.0
 40
0.0
 40
1.0
 40
1.0
 40
1.0
 40
2.0
 40
2.0
 40
2.0
 40
3.0
 40
3.0
 40
3.0
 40
4.0
 40
4.0
 40
4.0
 40
5.0
 40
5.0
 40
5.0
 40
6.0
 40
6.0
 40
6.0
 40
7.0
 40
7.0
 40
7.0
 40
8.0
 40
8.0
 40
8.0
 40
8.0
 10
77.12242429712564
 20
-139.4113009634111
 30
0.0
 10
77.33188610262884
 20
-139.5032850128672
 30
0.0
 10
77.35083412779771
 20
-139.6510796091844
 30
0.0
 10
77.35083412779771
 20
-139.7502983591596
 30
0.0
 10
77.35083412779771
 20
-139.8874131594726
 30
0.0
 10
77.30432533874683
 20
-140.0079915014563
 30
0.0
 10
77.12242429712564
 20
-140.0892957549082
 30
0.0
 10
76.92777640220903
 20
-140.1774901993306
 30
0.0
 10
76.69075383282384
 20
-140.1940266576598
 30
0.0
 10
76.52814532592005
 20
-140.1940266576598
 30
0.0
 10
76.38414033463661
 20
-140.1940266576598
 30
0.0
 10
76.13230385466484
 20
-140.1795572566218
 30
0.0
 10
75.93352184516593
 20
-140.0892957549082
 30
0.0
 10
75.73060572108471
 20
-139.997311705452
 30
0.0
 10
75.70717907178502
 20
-139.8601969051391
 30
0.0
 10
75.70717907178502
 20
-139.7502983591596
 30
0.0
 10
75.70717907178502
 20
-139.6149061065893
 30
0.0
 10
75.75162080354473
 20
-139.4922607073144
 30
0.0
 10
75.93352184516593
 20
-139.4113009634111
 30
0.0
 10
76.1261026827914
 20
-139.3265516144739
 30
0.0
 10
76.35451251346346
 20
-139.3065700606594
 30
0.0
 10
76.52814532592005
 20
-139.3065700606594
 30
0.0
 10
76.69936657153697
 20
-139.3065700606594
 30
0.0
 10
76.92984345950018
 20
-139.3248290667313
 30
0.0
 10
77.12242429712564
 20
-139.4113009634111
 30
0.0
  0
HATCH
  5
E0
330
D6
100
AcDbEntity
  8
レイヤー 1
 62
   250
420
  2299925
440
 33554687
100
AcDbHatch
 10
0.0
 20
0.0
 30
0.0
210
0.0
220
0.0
230
1.0
  2
SOLID
 70
     1
 71
     1
 91
        2
 92
        1
 93
        1
 72
     4
 94
        3
 73
     0
 74
     0
 95
       17
 96
       13
 40
0.0
 40
0.0
 40
0.0
 40
0.0
 40
1.0
 40
1.0
 40
1.0
 40
2.0
 40
2.0
 40
2.0
 40
3.0
 40
3.0
 40
3.0
 40
4.0
 40
4.0
 40
4.0
 40
4.0
 10
75.89975990941048
 20
-139.7502983591596
 10
75.89975990941048
 20
-139.9632052601481
 10
76.18329126784654
 20
-140.0028238582284
 10
76.52814532592005
 20
-140.0028238582284
 10
76.8475056774027
 20
-140.0028238582284
 10
77.1561862328811
 20
-139.9721625084097
 10
77.1561862328811
 20
-139.7502983591596
 10
77.1561862328811
 20
-139.5391140059138
 10
76.87506644128472
 20
-139.4977728600908
 10
76.52814532592005
 20
-139.4977728600908
 10
76.20844046488887
 20
-139.4977728600908
 10
75.89975990941048
 20
-139.5301567576522
 10
75.89975990941048
 20
-139.7502983591596
 97
        0
 97
        1
330
DE
 92
        1
 93
        1
 72
     4
 94
        3
 73
     0
 74
     0
 95
       29
 96
       25
 40
0.0
 40
0.0
 40
0.0
 40
0.0
 40
1.0
 40
1.0
 40
1.0
 40
2.0
 40
2.0
 40
2.0
 40
3.0
 40
3.0
 40
3.0
 40
4.0
 40
4.0
 40
4.0
 40
5.0
 40
5.0
 40
5.0
 40
6.0
 40
6.0
 40
6.0
 40
7.0
 40
7.0
 40
7.0
 40
8.0
 40
8.0
 40
8.0
 40
8.0
 10
77.12242429712564
 20
-139.4113009634111
 10
77.33188610262884
 20
-139.5032850128672
 10
77.35083412779771
 20
-139.6510796091844
 10
77.35083412779771
 20
-139.7502983591596
 10
77.35083412779771
 20
-139.8874131594726
 10
77.30432533874683
 20
-140.0079915014563
 10
77.12242429712564
 20
-140.0892957549082
 10
76.92777640220903
 20
-140.1774901993306
 10
76.69075383282384
 20
-140.1940266576598
 10
76.52814532592005
 20
-140.1940266576598
 10
76.38414033463661
 20
-140.1940266576598
 10
76.13230385466484
 20
-140.1795572566218
 10
75.93352184516593
 20
-140.0892957549082
 10
75.73060572108471
 20
-139.997311705452
 10
75.70717907178502
 20
-139.8601969051391
 10
75.70717907178502
 20
-139.7502983591596
 10
75.70717907178502
 20
-139.6149061065893
 10
75.75162080354473
 20
-139.4922607073144
 10
75.93352184516593
 20
-139.4113009634111
 10
76.1261026827914
 20
-139.3265516144739
 10
76.35451251346346
 20
-139.3065700606594
 10
76.52814532592005
 20
-139.3065700606594
 10
76.69936657153697
 20
-139.3065700606594
 10
76.92984345950018
 20
-139.3248290667313
 10
77.12242429712564
 20
-139.4113009634111
 97
        0
 97
        1
330
DF
 75
     2
 76
     1
 98
        1
 10
0.0
 20
0.0
450
        0
451
        0
460
0.0
461
0.0
452
        0
462
0.0
453
        0
470

  0
ENDBLK
  5
D9
330
D6
100
AcDbEntity
  8
0
100
AcDbBlockEnd
  0
BLOCK
  5
E3
330
E1
100
AcDbEntity
  8
0
100
AcDbBlockBegin
  2
Block_11
 70
     0
 10
0.0
 20
0.0
 30
0.0
  3
Block_11
  1

  0
LINE
  5
E5
330
E1
100
AcDbEntity
  8
レイヤー 1
 62
   250
420
  2299925
370
     9
100
AcDbLine
 10
76.04084496684873
 20
-159.3569722467942
 30
0.0
 11
80.04078052140448
 21
-159.3569722467942
 31
0.0
  0
ENDBLK
  5
E4
330
E1
100
AcDbEntity
  8
0
100
AcDbBlockEnd
  0
BLOCK
  5
EA
330
E8
100
AcDbEntity
  8
0
100
AcDbBlockBegin
  2
Block_12
 70
     0
 10
0.0
 20
0.0
 30
0.0
  3
Block_12
  1

  0
LINE
  5
EC
330
E8
100
AcDbEntity
  8
レイヤー 1
 62
    18
420
        0
370
     9
100
AcDbLine
 10
96.6914415624813
 20
-153.4639123693617
 30
0.0
 11
96.42459670462093
 21
-152.5001401360906
 31
0.0
  0
LINE
  5
ED
330
E8
100
AcDbEntity
  8
レイヤー 1
 62
    18
420
        0
370
     9
100
AcDbLine
 10
96.6914415624813
 20
-153.4639123693617
 30
0.0
 11
96.65700735510421
 21
-151.8499518065576
 31
0.0
  0
LINE
  5
EE
330
E8
100
AcDbEntity
  8
レイヤー 1
 62
    18
420
        0
370
     9
100
AcDbLine
 10
96.6914415624813
 20
-153.4639123693617
 30
0.0
 11
96.94228963998719
 21
-152.4957319139749
 31
0.0
  0
ENDBLK
  5
EB
330
E8
100
AcDbEntity
  8
0
100
AcDbBlockEnd
  0
BLOCK
  5
F1
330
EF
100
AcDbEntity
  8
0
100
AcDbBlockBegin
  2
Block_13
 70
     0
 10
0.0
 20
0.0
 30
0.0
  3
Block_13
  1

  0
INSERT
  5
F4
330
EF
100
AcDbEntity
  8
レイヤー 1
100
AcDbBlockReference
  2
Block_14
 10
0.0
 20
0.0
 30
0.0
  0
ENDBLK
  5
F2
330
EF
100
AcDbEntity
  8
0
100
AcDbBlockEnd
  0
BLOCK
  5
F5
330
F3
100
AcDbEntity
  8
0
100
AcDbBlockBegin
  2
Block_14
 70
     0
 10
0.0
 20
0.0
 30
0.0
  3
Block_14
  1

  0
SPLINE
  5
F7
330
F3
100
AcDbEntity
  8
レイヤー 1
100
AcDbSpline
210
0.0
220
0.0
230
1.0
 70
     9
 71
     3
 72
    17
 73
    13
 74
     0
 42
0.0000000001
 43
0.0000000001
 40
0.0
 40
0.0
 40
0.0
 40
0.0
 40
1.0
 40
1.0
 40
1.0
 40
2.0
 40
2.0
 40
2.0
 40
3.0
 40
3.0
 40
3.0
 40
4.0
 40
4.0
 40
4.0
 40
4.0
 10
92.70528019600771
 20
-150.7835611602208
 30
0.0
 10
92.68822697335572
 20
-150.8131889813939
 30
0.0
 10
92.63758406972256
 20
-150.9062065594956
 30
0.0
 10
92.62690427371827
 20
-150.9251545846645
 30
0.0
 10
92.81724579927832
 20
-150.9844102270108
 30
0.0
 10
92.83843313651262
 20
-150.9909559084328
 30
0.0
 10
92.91043563215435
 20
-151.0185166723148
 30
0.0
 10
92.96538490514407
 20
-150.9317002660865
 30
0.0
 10
92.98863929966952
 20
-150.8576307131536
 30
0.0
 10
93.00345321025607
 20
-150.7835611602208
 30
0.0
 10
93.00345321025607
 20
-150.7835611602208
 30
0.0
 10
92.70528019600771
 20
-150.7835611602208
 30
0.0
 10
92.70528019600771
 20
-150.7835611602208
 30
0.0
  0
SPLINE
  5
F8
330
F3
100
AcDbEntity
  8
レイヤー 1
100
AcDbSpline
210
0.0
220
0.0
230
1.0
 70
    11
 71
     3
 72
    20
 73
    16
 74
     0
 42
0.0000000001
 43
0.0000000001
 40
0.0
 40
0.0
 40
0.0
 40
0.0
 40
1.0
 40
1.0
 40
1.0
 40
2.0
 40
2.0
 40
2.0
 40
3.0
 40
3.0
 40
3.0
 40
4.0
 40
4.0
 40
4.0
 40
5.0
 40
5.0
 40
5.0
 40
5.0
 10
92.64171818430485
 20
-149.9333115944611
 30
0.0
 10
92.64171818430485
 20
-149.9333115944611
 30
0.0
 10
92.61002330584055
 20
-149.9333115944611
 30
0.0
 10
92.61002330584055
 20
-149.9333115944611
 30
0.0
 10
92.65653209489142
 20
-150.0325303444363
 30
0.0
 10
92.68822697335572
 20
-150.1128010692426
 30
0.0
 10
92.72216116388543
 20
-150.2399250926483
 30
0.0
 10
92.72216116388543
 20
-150.2399250926483
 30
0.0
 10
92.92938365732322
 20
-150.2399250926483
 30
0.0
 10
92.92938365732322
 20
-150.2399250926483
 30
0.0
 10
92.96125079056178
 20
-150.1469075145466
 30
0.0
 10
92.98450518508721
 20
-150.0621581656095
 30
0.0
 10
93.00775957961265
 20
-149.9333115944611
 30
0.0
 10
93.00775957961265
 20
-149.9333115944611
 30
0.0
 10
92.64171818430485
 20
-149.9333115944611
 30
0.0
 10
92.64171818430485
 20
-149.9333115944611
 30
0.0
  0
SPLINE
  5
F9
330
F3
100
AcDbEntity
  8
レイヤー 1
100
AcDbSpline
210
0.0
220
0.0
230
1.0
 70
     9
 71
     3
 72
   242
 73
   238
 74
     0
 42
0.0000000001
 43
0.0000000001
 40
0.0
 40
0.0
 40
0.0
 40
0.0
 40
1.0
 40
1.0
 40
1.0
 40
2.0
 40
2.0
 40
2.0
 40
3.0
 40
3.0
 40
3.0
 40
4.0
 40
4.0
 40
4.0
 40
5.0
 40
5.0
 40
5.0
 40
6.0
 40
6.0
 40
6.0
 40
7.0
 40
7.0
 40
7.0
 40
8.0
 40
8.0
 40
8.0
 40
9.0
 40
9.0
 40
9.0
 40
10.0
 40
10.0
 40
10.0
 40
11.0
 40
11.0
 40
11.0
 40
12.0
 40
12.0
 40
12.0
 40
13.0
 40
13.0
 40
13.0
 40
14.0
 40
14.0
 40
14.0
 40
15.0
 40
15.0
 40
15.0
 40
16.0
 40
16.0
 40
16.0
 40
17.0
 40
17.0
 40
17.0
 40
18.0
 40
18.0
 40
18.0
 40
19.0
 40
19.0
 40
19.0
 40
20.0
 40
20.0
 40
20.0
 40
21.0
 40
21.0
 40
21.0
 40
22.0
 40
22.0
 40
22.0
 40
23.0
 40
23.0
 40
23.0
 40
24.0
 40
24.0
 40
24.0
 40
25.0
 40
25.0
 40
25.0
 40
26.0
 40
26.0
 40
26.0
 40
27.0
 40
27.0
 40
27.0
 40
28.0
 40
28.0
 40
28.0
 40
29.0
 40
29.0
 40
29.0
 40
30.0
 40
30.0
 40
30.0
 40
31.0
 40
31.0
 40
31.0
 40
32.0
 40
32.0
 40
32.0
 40
33.0
 40
33.0
 40
33.0
 40
34.0
 40
34.0
 40
34.0
 40
35.0
 40
35.0
 40
35.0
 40
36.0
 40
36.0
 40
36.0
 40
37.0
 40
37.0
 40
37.0
 40
38.0
 40
38.0
 40
38.0
 40
39.0
 40
39.0
 40
39.0
 40
40.0
 40
40.0
 40
40.0
 40
41.0
 40
41.0
 40
41.0
 40
42.0
 40
42.0
 40
42.0
 40
43.0
 40
43.0
 40
43.0
 40
44.0
 40
44.0
 40
44.0
 40
45.0
 40
45.0
 40
45.0
 40
46.0
 40
46.0
 40
46.0
 40
47.0
 40
47.0
 40
47.0
 40
48.0
 40
48.0
 40
48.0
 40
49.0
 40
49.0
 40
49.0
 40
50.0
 40
50.0
 40
50.0
 40
51.0
 40
51.0
 40
51.0
 40
52.0
 40
52.0
 40
52.0
 40
53.0
 40
53.0
 40
53.0
 40
54.0
 40
54.0
 40
54.0
 40
55.0
 40
55.0
 40
55.0
 40
56.0
 40
56.0
 40
56.0
 40
57.0
 40
57.0
 40
57.0
 40
58.0
 40
58.0
 40
58.0
 40
59.0
 40
59.0
 40
59.0
 40
60.0
 40
60.0
 40
60.0
 40
61.0
 40
61.0
 40
61.0
 40
62.0
 40
62.0
 40
62.0
 40
63.0
 40
63.0
 40
63.0
 40
64.0
 40
64.0
 40
64.0
 40
65.0
 40
65.0
 40
65.0
 40
66.0
 40
66.0
 40
66.0
 40
67.0
 40
67.0
 40
67.0
 40
68.0
 40
68.0
 40
68.0
 40
69.0
 40
69.0
 40
69.0
 40
70.0
 40
70.0
 40
70.0
 40
71.0
 40
71.0
 40
71.0
 40
72.0
 40
72.0
 40
72.0
 40
73.0
 40
73.0
 40
73.0
 40
74.0
 40
74.0
 40
74.0
 40
75.0
 40
75.0
 40
75.0
 40
76.0
 40
76.0
 40
76.0
 40
77.0
 40
77.0
 40
77.0
 40
78.0
 40
78.0
 40
78.0
 40
79.0
 40
79.0
 40
79.0
 40
79.0
 10
93.27010360081443
 20
-150.3983994849698
 30
0.0
 10
93.27010360081443
 20
-150.3983994849698
 30
0.0
 10
93.0162000635515
 20
-150.3983994849698
 30
0.0
 10
93.0162000635515
 20
-150.3983994849698
 30
0.0
 10
93.0162000635515
 20
-150.3983994849698
 30
0.0
 10
92.73904213176315
 20
-150.3983994849698
 30
0.0
 10
92.73904213176315
 20
-150.3983994849698
 30
0.0
 10
92.73904213176315
 20
-150.3983994849698
 30
0.0
 10
92.8659939003946
 20
-150.4407741594384
 30
0.0
 10
92.8659939003946
 20
-150.4407741594384
 30
0.0
 10
92.87650144162462
 20
-150.4452527835692
 30
0.0
 10
92.88924829492005
 20
-150.4514539554427
 30
0.0
 10
92.88924829492005
 20
-150.4642008087381
 30
0.0
 10
92.88924829492005
 20
-150.4852158911981
 30
0.0
 10
92.85755341645575
 20
-150.4917615726201
 30
0.0
 10
92.83636607922145
 20
-150.4958956872024
 30
0.0
 10
92.82585853799146
 20
-150.5189778269536
 30
0.0
 10
92.79623071681831
 20
-150.5847791507218
 30
0.0
 10
92.77711043687517
 20
-150.6292208824816
 30
0.0
 10
92.77711043687517
 20
-150.6292208824816
 30
0.0
 10
93.0478949420158
 20
-150.6292208824816
 30
0.0
 10
93.0478949420158
 20
-150.6292208824816
 30
0.0
 10
93.13884546282642
 20
-150.6292208824816
 30
0.0
 10
93.33556041503417
 20
-150.6247422583508
 30
0.0
 10
93.4773260942522
 20
-150.6164740291862
 30
0.0
 10
93.4773260942522
 20
-150.6164740291862
 30
0.0
 10
93.4773260942522
 20
-150.794240956225
 30
0.0
 10
93.4773260942522
 20
-150.794240956225
 30
0.0
 10
93.39481605738047
 20
-150.7897623320942
 30
0.0
 10
93.37362872014619
 20
-150.7897623320942
 30
0.0
 10
93.19379473581614
 20
-150.7856282175119
 30
0.0
 10
93.16209985735182
 20
-150.9399684952511
 30
0.0
 10
93.11765812559212
 20
-151.0205837296059
 30
0.0
 10
93.07321639383239
 20
-151.090174658408
 30
0.0
 10
93.19379473581614
 20
-151.1494303007543
 30
0.0
 10
93.29973142198758
 20
-151.2172986818137
 30
0.0
 10
93.40325654131932
 20
-151.2996364639112
 30
0.0
 10
93.40325654131932
 20
-151.2996364639112
 30
0.0
 10
93.28491751140099
 20
-151.4667235949458
 30
0.0
 10
93.28491751140099
 20
-151.4667235949458
 30
0.0
 10
93.26166311687556
 20
-151.4477755697769
 30
0.0
 10
93.24891626358015
 20
-151.4395073406123
 30
0.0
 10
93.13677840553525
 20
-151.3547579916752
 30
0.0
 10
93.08803030441897
 20
-151.3165174317889
 30
0.0
 10
93.02894691684693
 20
-151.2806884387423
 30
0.0
 10
92.94850393726635
 20
-151.2362467069826
 30
0.0
 10
92.73697507447201
 20
-151.4226263727346
 30
0.0
 10
92.53164738355112
 20
-151.4457085124858
 30
0.0
 10
92.2419148532416
 20
-151.4753363336589
 30
0.0
 10
92.2419148532416
 20
-151.4753363336589
 30
0.0
 10
92.13821747913559
 20
-151.2955023493289
 30
0.0
 10
92.13821747913559
 20
-151.2955023493289
 30
0.0
 10
92.45551077332711
 20
-151.2913682347466
 30
0.0
 10
92.63121064307483
 20
-151.2658745281557
 30
0.0
 10
92.78348386352289
 20
-151.1559759821763
 30
0.0
 10
92.66497257883029
 20
-151.1049885689946
 30
0.0
 10
92.57608911531084
 20
-151.0777723146611
 30
0.0
 10
92.54026012226423
 20
-151.0650254613657
 30
0.0
 10
92.5211398423211
 20
-151.0925862252477
 30
0.0
 10
92.50632593173454
 20
-151.1115342504165
 30
0.0
 10
92.47876516785252
 20
-151.145296186172
 30
0.0
 10
92.47876516785252
 20
-151.145296186172
 30
0.0
 10
92.28205021564477
 20
-151.0629584040745
 30
0.0
 10
92.28205021564477
 20
-151.0629584040745
 30
0.0
 10
92.3645602525165
 20
-150.9823431697197
 30
0.0
 10
92.42588295215396
 20
-150.8872585343268
 30
0.0
 10
92.4830715372091
 20
-150.7856282175119
 30
0.0
 10
92.29273001164903
 20
-150.7897623320942
 30
0.0
 10
92.27154267441475
 20
-150.7897623320942
 30
0.0
 10
92.18903263754302
 20
-150.794240956225
 30
0.0
 10
92.18903263754302
 20
-150.794240956225
 30
0.0
 10
92.18903263754302
 20
-150.6164740291862
 30
0.0
 10
92.18903263754302
 20
-150.6164740291862
 30
0.0
 10
92.32855900469564
 20
-150.6226752010596
 30
0.0
 10
92.53802081019882
 20
-150.6271538251904
 30
0.0
 10
92.56351451678968
 20
-150.6271538251904
 30
0.0
 10
92.5803954846674
 20
-150.5930473798864
 30
0.0
 10
92.63534475765714
 20
-150.4724690379027
 30
0.0
 10
92.65446503760028
 20
-150.3983994849698
 30
0.0
 10
92.63534475765714
 20
-150.3983994849698
 30
0.0
 10
92.45775008539251
 20
-150.4049451663918
 30
0.0
 10
92.26310219047588
 20
-150.4176920196872
 30
0.0
 10
92.26310219047588
 20
-150.4176920196872
 30
0.0
 10
92.26310219047588
 20
-150.5510172149664
 30
0.0
 10
92.26310219047588
 20
-150.5510172149664
 30
0.0
 10
92.21435408935962
 20
-150.5761664120087
 30
0.0
 10
92.15509844701331
 20
-150.607861290473
 30
0.0
 10
92.0219455065084
 20
-150.6736626142413
 30
0.0
 10
92.0219455065084
 20
-150.6736626142413
 30
0.0
 10
92.0219455065084
 20
-150.8193901532674
 30
0.0
 10
92.0219455065084
 20
-150.8193901532674
 30
0.0
 10
92.0219455065084
 20
-150.8193901532674
 30
0.0
 10
92.0219455065084
 20
-151.2872341201643
 30
0.0
 10
92.0219455065084
 20
-151.2872341201643
 30
0.0
 10
92.0219455065084
 20
-151.4140136340215
 30
0.0
 10
91.98594425868753
 20
-151.4732692763678
 30
0.0
 10
91.70241290025149
 20
-151.4646565376547
 30
0.0
 10
91.70241290025149
 20
-151.4646565376547
 30
0.0
 10
91.59871552614546
 20
-151.2576062989911
 30
0.0
 10
91.59871552614546
 20
-151.2576062989911
 30
0.0
 10
91.66227753784832
 20
-151.270008642738
 30
0.0
 10
91.71085338419034
 20
-151.2744872668688
 30
0.0
 10
91.75116100136776
 20
-151.2744872668688
 30
0.0
 10
91.82729761159178
 20
-151.2744872668688
 30
0.0
 10
91.8378051528218
 20
-151.2510606175692
 30
0.0
 10
91.8378051528218
 20
-151.1856038033494
 30
0.0
 10
91.8378051528218
 20
-151.1856038033494
 30
0.0
 10
91.8378051528218
 20
-150.7560003963388
 30
0.0
 10
91.8378051528218
 20
-150.7560003963388
 30
0.0
 10
91.74048120536349
 20
-150.7963080135162
 30
0.0
 10
91.72360023748577
 20
-150.8025091853896
 30
0.0
 10
91.6770914484349
 20
-150.821801720107
 30
0.0
 10
91.67278507907834
 20
-150.8428168025671
 30
0.0
 10
91.66865096449603
 20
-150.8724446237402
 30
0.0
 10
91.6495306845529
 20
-150.8724446237402
 30
0.0
 10
91.64109020061403
 20
-150.8724446237402
 30
0.0
 10
91.63058265938403
 20
-150.8683105091579
 30
0.0
 10
91.62420923273632
 20
-150.8448838598582
 30
0.0
 10
91.62420923273632
 20
-150.8448838598582
 30
0.0
 10
91.57132701703773
 20
-150.6523030222327
 30
0.0
 10
91.57132701703773
 20
-150.6523030222327
 30
0.0
 10
91.71722681083805
 20
-150.6057942331818
 30
0.0
 10
91.78285587983207
 20
-150.5827120934307
 30
0.0
 10
91.8378051528218
 20
-150.5613525014221
 30
0.0
 10
91.8378051528218
 20
-150.5613525014221
 30
0.0
 10
91.8378051528218
 20
-150.1489745718377
 30
0.0
 10
91.8378051528218
 20
-150.1489745718377
 30
0.0
 10
91.8378051528218
 20
-150.1489745718377
 30
0.0
 10
91.78492293712322
 20
-150.1489745718377
 30
0.0
 10
91.78492293712322
 20
-150.1489745718377
 30
0.0
 10
91.78492293712322
 20
-150.1489745718377
 30
0.0
 10
91.70671926960805
 20
-150.1489745718377
 30
0.0
 10
91.70671926960805
 20
-150.1489745718377
 30
0.0
 10
91.63902314332288
 20
-150.1489745718377
 30
0.0
 10
91.63058265938403
 20
-150.1489745718377
 30
0.0
 10
91.59458141156317
 20
-150.1551757437112
 30
0.0
 10
91.59458141156317
 20
-150.1551757437112
 30
0.0
 10
91.59458141156317
 20
-149.9605278487946
 30
0.0
 10
91.59458141156317
 20
-149.9605278487946
 30
0.0
 10
91.62214217544516
 20
-149.9670735302165
 30
0.0
 10
91.63058265938403
 20
-149.9670735302165
 30
0.0
 10
91.70034584296033
 20
-149.9670735302165
 30
0.0
 10
91.70034584296033
 20
-149.9670735302165
 30
0.0
 10
91.8336710382395
 20
-149.9670735302165
 30
0.0
 10
91.8336710382395
 20
-149.9670735302165
 30
0.0
 10
91.8336710382395
 20
-149.897138091866
 30
0.0
 10
91.8336710382395
 20
-149.8148003097685
 30
0.0
 10
91.83143172617409
 20
-149.8103216856377
 30
0.0
 10
91.82299124223524
 20
-149.6304877013076
 30
0.0
 10
91.82299124223524
 20
-149.6115396761388
 30
0.0
 10
91.82092418494407
 20
-149.5650308870879
 30
0.0
 10
91.82092418494407
 20
-149.5650308870879
 30
0.0
 10
92.03675941709498
 20
-149.573643625801
 30
0.0
 10
92.03675941709498
 20
-149.573643625801
 30
0.0
 10
92.047266958325
 20
-149.573643625801
 30
0.0
 10
92.06845429555928
 20
-149.5757106830922
 30
0.0
 10
92.06845429555928
 20
-149.5925916509699
 30
0.0
 10
92.06845429555928
 20
-149.6115396761388
 30
0.0
 10
92.0536403849727
 20
-149.622219472143
 30
0.0
 10
92.02831893315611
 20
-149.6411674973119
 30
0.0
 10
92.02831893315611
 20
-149.6918104009451
 30
0.0
 10
92.0219455065084
 20
-149.9205647411657
 30
0.0
 10
92.02401256379955
 20
-149.9670735302165
 30
0.0
 10
92.15303138972215
 20
-149.9670735302165
 30
0.0
 10
92.16577824301758
 20
-149.9670735302165
 30
0.0
 10
92.26310219047588
 20
-149.9584607915034
 30
0.0
 10
92.26310219047588
 20
-149.9584607915034
 30
0.0
 10
92.26310219047588
 20
-150.15310868642
 30
0.0
 10
92.26310219047588
 20
-150.15310868642
 30
0.0
 10
92.22503388536388
 20
-150.1510416291289
 30
0.0
 10
92.15733775907873
 20
-150.1469075145466
 30
0.0
 10
92.0219455065084
 20
-150.1489745718377
 30
0.0
 10
92.0219455065084
 20
-150.1489745718377
 30
0.0
 10
92.0219455065084
 20
-150.4872829484893
 30
0.0
 10
92.0219455065084
 20
-150.4872829484893
 30
0.0
 10
92.07689477949815
 20
-150.4642008087381
 30
0.0
 10
92.14252384849215
 20
-150.4366400448561
 30
0.0
 10
92.19109969483417
 20
-150.4132133955564
 30
0.0
 10
92.19109969483417
 20
-150.4132133955564
 30
0.0
 10
92.19109969483417
 20
-150.235790978066
 30
0.0
 10
92.19109969483417
 20
-150.235790978066
 30
0.0
 10
92.30530461017021
 20
-150.2481933218129
 30
0.0
 10
92.4238158948628
 20
-150.2481933218129
 30
0.0
 10
92.54026012226423
 20
-150.2481933218129
 30
0.0
 10
92.51683347296454
 20
-150.15310868642
 30
0.0
 10
92.4894449638568
 20
-150.0707709043226
 30
0.0
 10
92.42588295215396
 20
-149.9374457090434
 30
0.0
 10
92.38144122039422
 20
-149.9395127663345
 30
0.0
 10
92.29910343829676
 20
-149.9436468809169
 30
0.0
 10
92.26086287841047
 20
-149.945713938208
 30
0.0
 10
92.26086287841047
 20
-149.945713938208
 30
0.0
 10
92.26086287841047
 20
-149.765879953878
 30
0.0
 10
92.26086287841047
 20
-149.765879953878
 30
0.0
 10
92.38574758975079
 20
-149.7744926925911
 30
0.0
 10
92.55920814743312
 20
-149.7786268071734
 30
0.0
 10
92.64171818430485
 20
-149.7786268071734
 30
0.0
 10
92.64171818430485
 20
-149.7786268071734
 30
0.0
 10
92.72422822117659
 20
-149.7786268071734
 30
0.0
 10
92.72422822117659
 20
-149.7786268071734
 30
0.0
 10
92.72422822117659
 20
-149.615673790721
 30
0.0
 10
92.72422822117659
 20
-149.6053385042653
 30
0.0
 10
92.72216116388543
 20
-149.5502169765013
 30
0.0
 10
92.72216116388543
 20
-149.5502169765013
 30
0.0
 10
92.94643687997519
 20
-149.5757106830922
 30
0.0
 10
92.94643687997519
 20
-149.5757106830922
 30
0.0
 10
92.9505709945575
 20
-149.5757106830922
 30
0.0
 10
92.9717583317918
 20
-149.5777777403833
 30
0.0
 10
92.9717583317918
 20
-149.594658708261
 30
0.0
 10
92.9717583317918
 20
-149.6094726188476
 30
0.0
 10
92.96125079056178
 20
-149.6180853575608
 30
0.0
 10
92.93369002667978
 20
-149.6328992681473
 30
0.0
 10
92.92731660003205
 20
-149.6983560823671
 30
0.0
 10
92.92524954274091
 20
-149.7193711648271
 30
0.0
 10
92.92524954274091
 20
-149.7786268071734
 30
0.0
 10
92.92524954274091
 20
-149.7786268071734
 30
0.0
 10
93.02033417813381
 20
-149.7786268071734
 30
0.0
 10
93.02033417813381
 20
-149.7786268071734
 30
0.0
 10
93.10284421500554
 20
-149.7786268071734
 30
0.0
 10
93.27630477268789
 20
-149.7744926925911
 30
0.0
 10
93.40118948402817
 20
-149.765879953878
 30
0.0
 10
93.40118948402817
 20
-149.765879953878
 30
0.0
 10
93.40118948402817
 20
-149.945713938208
 30
0.0
 10
93.40118948402817
 20
-149.945713938208
 30
0.0
 10
93.37156166285502
 20
-149.9436468809169
 30
0.0
 10
93.25305037816244
 20
-149.9395127663345
 30
0.0
 10
93.21291501575927
 20
-149.9374457090434
 30
0.0
 10
93.1981011051727
 20
-149.9880886126766
 30
0.0
 10
93.16433916941724
 20
-150.1003987254957
 30
0.0
 10
93.09871010042325
 20
-150.2399250926483
 30
0.0
 10
93.14091252011754
 20
-150.2399250926483
 30
0.0
 10
93.4180704519059
 20
-150.2209770674794
 30
0.0
 10
93.47939315154334
 20
-150.2185655006398
 30
0.0
 10
93.47939315154334
 20
-150.2185655006398
 30
0.0
 10
93.47939315154334
 20
-150.4028781091006
 30
0.0
 10
93.47939315154334
 20
-150.4028781091006
 30
0.0
 10
93.44993758514446
 20
-150.4028781091006
 30
0.0
 10
93.43288436249247
 20
-150.3983994849698
 30
0.0
 10
93.27010360081443
 20
-150.3983994849698
 30
0.0
  0
HATCH
  5
FA
330
F3
100
AcDbEntity
  8
レイヤー 1
 62
    18
420
        0
440
 33554687
100
AcDbHatch
 10
0.0
 20
0.0
 30
0.0
210
0.0
220
0.0
230
1.0
  2
SOLID
 70
     1
 71
     1
 91
        3
 92
        1
 93
        1
 72
     4
 94
        3
 73
     0
 74
     0
 95
       17
 96
       13
 40
0.0
 40
0.0
 40
0.0
 40
0.0
 40
1.0
 40
1.0
 40
1.0
 40
2.0
 40
2.0
 40
2.0
 40
3.0
 40
3.0
 40
3.0
 40
4.0
 40
4.0
 40
4.0
 40
4.0
 10
92.70528019600771
 20
-150.7835611602208
 10
92.68822697335572
 20
-150.8131889813939
 10
92.63758406972256
 20
-150.9062065594956
 10
92.62690427371827
 20
-150.9251545846645
 10
92.81724579927832
 20
-150.9844102270108
 10
92.83843313651262
 20
-150.9909559084328
 10
92.91043563215435
 20
-151.0185166723148
 10
92.96538490514407
 20
-150.9317002660865
 10
92.98863929966952
 20
-150.8576307131536
 10
93.00345321025607
 20
-150.7835611602208
 10
93.00345321025607
 20
-150.7835611602208
 10
92.70528019600771
 20
-150.7835611602208
 10
92.70528019600771
 20
-150.7835611602208
 97
        0
 97
        1
330
F7
 92
        1
 93
        1
 72
     4
 94
        3
 73
     0
 74
     0
 95
       20
 96
       16
 40
0.0
 40
0.0
 40
0.0
 40
0.0
 40
1.0
 40
1.0
 40
1.0
 40
2.0
 40
2.0
 40
2.0
 40
3.0
 40
3.0
 40
3.0
 40
4.0
 40
4.0
 40
4.0
 40
5.0
 40
5.0
 40
5.0
 40
5.0
 10
92.64171818430485
 20
-149.9333115944611
 10
92.64171818430485
 20
-149.9333115944611
 10
92.61002330584055
 20
-149.9333115944611
 10
92.61002330584055
 20
-149.9333115944611
 10
92.65653209489142
 20
-150.0325303444363
 10
92.68822697335572
 20
-150.1128010692426
 10
92.72216116388543
 20
-150.2399250926483
 10
92.72216116388543
 20
-150.2399250926483
 10
92.92938365732322
 20
-150.2399250926483
 10
92.92938365732322
 20
-150.2399250926483
 10
92.96125079056178
 20
-150.1469075145466
 10
92.98450518508721
 20
-150.0621581656095
 10
93.00775957961265
 20
-149.9333115944611
 10
93.00775957961265
 20
-149.9333115944611
 10
92.64171818430485
 20
-149.9333115944611
 10
92.64171818430485
 20
-149.9333115944611
 97
        0
 97
        1
330
F8
 92
        1
 93
        1
 72
     4
 94
        3
 73
     0
 74
     0
 95
      242
 96
      238
 40
0.0
 40
0.0
 40
0.0
 40
0.0
 40
1.0
 40
1.0
 40
1.0
 40
2.0
 40
2.0
 40
2.0
 40
3.0
 40
3.0
 40
3.0
 40
4.0
 40
4.0
 40
4.0
 40
5.0
 40
5.0
 40
5.0
 40
6.0
 40
6.0
 40
6.0
 40
7.0
 40
7.0
 40
7.0
 40
8.0
 40
8.0
 40
8.0
 40
9.0
 40
9.0
 40
9.0
 40
10.0
 40
10.0
 40
10.0
 40
11.0
 40
11.0
 40
11.0
 40
12.0
 40
12.0
 40
12.0
 40
13.0
 40
13.0
 40
13.0
 40
14.0
 40
14.0
 40
14.0
 40
15.0
 40
15.0
 40
15.0
 40
16.0
 40
16.0
 40
16.0
 40
17.0
 40
17.0
 40
17.0
 40
18.0
 40
18.0
 40
18.0
 40
19.0
 40
19.0
 40
19.0
 40
20.0
 40
20.0
 40
20.0
 40
21.0
 40
21.0
 40
21.0
 40
22.0
 40
22.0
 40
22.0
 40
23.0
 40
23.0
 40
23.0
 40
24.0
 40
24.0
 40
24.0
 40
25.0
 40
25.0
 40
25.0
 40
26.0
 40
26.0
 40
26.0
 40
27.0
 40
27.0
 40
27.0
 40
28.0
 40
28.0
 40
28.0
 40
29.0
 40
29.0
 40
29.0
 40
30.0
 40
30.0
 40
30.0
 40
31.0
 40
31.0
 40
31.0
 40
32.0
 40
32.0
 40
32.0
 40
33.0
 40
33.0
 40
33.0
 40
34.0
 40
34.0
 40
34.0
 40
35.0
 40
35.0
 40
35.0
 40
36.0
 40
36.0
 40
36.0
 40
37.0
 40
37.0
 40
37.0
 40
38.0
 40
38.0
 40
38.0
 40
39.0
 40
39.0
 40
39.0
 40
40.0
 40
40.0
 40
40.0
 40
41.0
 40
41.0
 40
41.0
 40
42.0
 40
42.0
 40
42.0
 40
43.0
 40
43.0
 40
43.0
 40
44.0
 40
44.0
 40
44.0
 40
45.0
 40
45.0
 40
45.0
 40
46.0
 40
46.0
 40
46.0
 40
47.0
 40
47.0
 40
47.0
 40
48.0
 40
48.0
 40
48.0
 40
49.0
 40
49.0
 40
49.0
 40
50.0
 40
50.0
 40
50.0
 40
51.0
 40
51.0
 40
51.0
 40
52.0
 40
52.0
 40
52.0
 40
53.0
 40
53.0
 40
53.0
 40
54.0
 40
54.0
 40
54.0
 40
55.0
 40
55.0
 40
55.0
 40
56.0
 40
56.0
 40
56.0
 40
57.0
 40
57.0
 40
57.0
 40
58.0
 40
58.0
 40
58.0
 40
59.0
 40
59.0
 40
59.0
 40
60.0
 40
60.0
 40
60.0
 40
61.0
 40
61.0
 40
61.0
 40
62.0
 40
62.0
 40
62.0
 40
63.0
 40
63.0
 40
63.0
 40
64.0
 40
64.0
 40
64.0
 40
65.0
 40
65.0
 40
65.0
 40
66.0
 40
66.0
 40
66.0
 40
67.0
 40
67.0
 40
67.0
 40
68.0
 40
68.0
 40
68.0
 40
69.0
 40
69.0
 40
69.0
 40
70.0
 40
70.0
 40
70.0
 40
71.0
 40
71.0
 40
71.0
 40
72.0
 40
72.0
 40
72.0
 40
73.0
 40
73.0
 40
73.0
 40
74.0
 40
74.0
 40
74.0
 40
75.0
 40
75.0
 40
75.0
 40
76.0
 40
76.0
 40
76.0
 40
77.0
 40
77.0
 40
77.0
 40
78.0
 40
78.0
 40
78.0
 40
79.0
 40
79.0
 40
79.0
 40
79.0
 10
93.27010360081443
 20
-150.3983994849698
 10
93.27010360081443
 20
-150.3983994849698
 10
93.0162000635515
 20
-150.3983994849698
 10
93.0162000635515
 20
-150.3983994849698
 10
93.0162000635515
 20
-150.3983994849698
 10
92.73904213176315
 20
-150.3983994849698
 10
92.73904213176315
 20
-150.3983994849698
 10
92.73904213176315
 20
-150.3983994849698
 10
92.8659939003946
 20
-150.4407741594384
 10
92.8659939003946
 20
-150.4407741594384
 10
92.87650144162462
 20
-150.4452527835692
 10
92.88924829492005
 20
-150.4514539554427
 10
92.88924829492005
 20
-150.4642008087381
 10
92.88924829492005
 20
-150.4852158911981
 10
92.85755341645575
 20
-150.4917615726201
 10
92.83636607922145
 20
-150.4958956872024
 10
92.82585853799146
 20
-150.5189778269536
 10
92.79623071681831
 20
-150.5847791507218
 10
92.77711043687517
 20
-150.6292208824816
 10
92.77711043687517
 20
-150.6292208824816
 10
93.0478949420158
 20
-150.6292208824816
 10
93.0478949420158
 20
-150.6292208824816
 10
93.13884546282642
 20
-150.6292208824816
 10
93.33556041503417
 20
-150.6247422583508
 10
93.4773260942522
 20
-150.6164740291862
 10
93.4773260942522
 20
-150.6164740291862
 10
93.4773260942522
 20
-150.794240956225
 10
93.4773260942522
 20
-150.794240956225
 10
93.39481605738047
 20
-150.7897623320942
 10
93.37362872014619
 20
-150.7897623320942
 10
93.19379473581614
 20
-150.7856282175119
 10
93.16209985735182
 20
-150.9399684952511
 10
93.11765812559212
 20
-151.0205837296059
 10
93.07321639383239
 20
-151.090174658408
 10
93.19379473581614
 20
-151.1494303007543
 10
93.29973142198758
 20
-151.2172986818137
 10
93.40325654131932
 20
-151.2996364639112
 10
93.40325654131932
 20
-151.2996364639112
 10
93.28491751140099
 20
-151.4667235949458
 10
93.28491751140099
 20
-151.4667235949458
 10
93.26166311687556
 20
-151.4477755697769
 10
93.24891626358015
 20
-151.4395073406123
 10
93.13677840553525
 20
-151.3547579916752
 10
93.08803030441897
 20
-151.3165174317889
 10
93.02894691684693
 20
-151.2806884387423
 10
92.94850393726635
 20
-151.2362467069826
 10
92.73697507447201
 20
-151.4226263727346
 10
92.53164738355112
 20
-151.4457085124858
 10
92.2419148532416
 20
-151.4753363336589
 10
92.2419148532416
 20
-151.4753363336589
 10
92.13821747913559
 20
-151.2955023493289
 10
92.13821747913559
 20
-151.2955023493289
 10
92.45551077332711
 20
-151.2913682347466
 10
92.63121064307483
 20
-151.2658745281557
 10
92.78348386352289
 20
-151.1559759821763
 10
92.66497257883029
 20
-151.1049885689946
 10
92.57608911531084
 20
-151.0777723146611
 10
92.54026012226423
 20
-151.0650254613657
 10
92.5211398423211
 20
-151.0925862252477
 10
92.50632593173454
 20
-151.1115342504165
 10
92.47876516785252
 20
-151.145296186172
 10
92.47876516785252
 20
-151.145296186172
 10
92.28205021564477
 20
-151.0629584040745
 10
92.28205021564477
 20
-151.0629584040745
 10
92.3645602525165
 20
-150.9823431697197
 10
92.42588295215396
 20
-150.8872585343268
 10
92.4830715372091
 20
-150.7856282175119
 10
92.29273001164903
 20
-150.7897623320942
 10
92.27154267441475
 20
-150.7897623320942
 10
92.18903263754302
 20
-150.794240956225
 10
92.18903263754302
 20
-150.794240956225
 10
92.18903263754302
 20
-150.6164740291862
 10
92.18903263754302
 20
-150.6164740291862
 10
92.32855900469564
 20
-150.6226752010596
 10
92.53802081019882
 20
-150.6271538251904
 10
92.56351451678968
 20
-150.6271538251904
 10
92.5803954846674
 20
-150.5930473798864
 10
92.63534475765714
 20
-150.4724690379027
 10
92.65446503760028
 20
-150.3983994849698
 10
92.63534475765714
 20
-150.3983994849698
 10
92.45775008539251
 20
-150.4049451663918
 10
92.26310219047588
 20
-150.4176920196872
 10
92.26310219047588
 20
-150.4176920196872
 10
92.26310219047588
 20
-150.5510172149664
 10
92.26310219047588
 20
-150.5510172149664
 10
92.21435408935962
 20
-150.5761664120087
 10
92.15509844701331
 20
-150.607861290473
 10
92.0219455065084
 20
-150.6736626142413
 10
92.0219455065084
 20
-150.6736626142413
 10
92.0219455065084
 20
-150.8193901532674
 10
92.0219455065084
 20
-150.8193901532674
 10
92.0219455065084
 20
-150.8193901532674
 10
92.0219455065084
 20
-151.2872341201643
 10
92.0219455065084
 20
-151.2872341201643
 10
92.0219455065084
 20
-151.4140136340215
 10
91.98594425868753
 20
-151.4732692763678
 10
91.70241290025149
 20
-151.4646565376547
 10
91.70241290025149
 20
-151.4646565376547
 10
91.59871552614546
 20
-151.2576062989911
 10
91.59871552614546
 20
-151.2576062989911
 10
91.66227753784832
 20
-151.270008642738
 10
91.71085338419034
 20
-151.2744872668688
 10
91.75116100136776
 20
-151.2744872668688
 10
91.82729761159178
 20
-151.2744872668688
 10
91.8378051528218
 20
-151.2510606175692
 10
91.8378051528218
 20
-151.1856038033494
 10
91.8378051528218
 20
-151.1856038033494
 10
91.8378051528218
 20
-150.7560003963388
 10
91.8378051528218
 20
-150.7560003963388
 10
91.74048120536349
 20
-150.7963080135162
 10
91.72360023748577
 20
-150.8025091853896
 10
91.6770914484349
 20
-150.821801720107
 10
91.67278507907834
 20
-150.8428168025671
 10
91.66865096449603
 20
-150.8724446237402
 10
91.6495306845529
 20
-150.8724446237402
 10
91.64109020061403
 20
-150.8724446237402
 10
91.63058265938403
 20
-150.8683105091579
 10
91.62420923273632
 20
-150.8448838598582
 10
91.62420923273632
 20
-150.8448838598582
 10
91.57132701703773
 20
-150.6523030222327
 10
91.57132701703773
 20
-150.6523030222327
 10
91.71722681083805
 20
-150.6057942331818
 10
91.78285587983207
 20
-150.5827120934307
 10
91.8378051528218
 20
-150.5613525014221
 10
91.8378051528218
 20
-150.5613525014221
 10
91.8378051528218
 20
-150.1489745718377
 10
91.8378051528218
 20
-150.1489745718377
 10
91.8378051528218
 20
-150.1489745718377
 10
91.78492293712322
 20
-150.1489745718377
 10
91.78492293712322
 20
-150.1489745718377
 10
91.78492293712322
 20
-150.1489745718377
 10
91.70671926960805
 20
-150.1489745718377
 10
91.70671926960805
 20
-150.1489745718377
 10
91.63902314332288
 20
-150.1489745718377
 10
91.63058265938403
 20
-150.1489745718377
 10
91.59458141156317
 20
-150.1551757437112
 10
91.59458141156317
 20
-150.1551757437112
 10
91.59458141156317
 20
-149.9605278487946
 10
91.59458141156317
 20
-149.9605278487946
 10
91.62214217544516
 20
-149.9670735302165
 10
91.63058265938403
 20
-149.9670735302165
 10
91.70034584296033
 20
-149.9670735302165
 10
91.70034584296033
 20
-149.9670735302165
 10
91.8336710382395
 20
-149.9670735302165
 10
91.8336710382395
 20
-149.9670735302165
 10
91.8336710382395
 20
-149.897138091866
 10
91.8336710382395
 20
-149.8148003097685
 10
91.83143172617409
 20
-149.8103216856377
 10
91.82299124223524
 20
-149.6304877013076
 10
91.82299124223524
 20
-149.6115396761388
 10
91.82092418494407
 20
-149.5650308870879
 10
91.82092418494407
 20
-149.5650308870879
 10
92.03675941709498
 20
-149.573643625801
 10
92.03675941709498
 20
-149.573643625801
 10
92.047266958325
 20
-149.573643625801
 10
92.06845429555928
 20
-149.5757106830922
 10
92.06845429555928
 20
-149.5925916509699
 10
92.06845429555928
 20
-149.6115396761388
 10
92.0536403849727
 20
-149.622219472143
 10
92.02831893315611
 20
-149.6411674973119
 10
92.02831893315611
 20
-149.6918104009451
 10
92.0219455065084
 20
-149.9205647411657
 10
92.02401256379955
 20
-149.9670735302165
 10
92.15303138972215
 20
-149.9670735302165
 10
92.16577824301758
 20
-149.9670735302165
 10
92.26310219047588
 20
-149.9584607915034
 10
92.26310219047588
 20
-149.9584607915034
 10
92.26310219047588
 20
-150.15310868642
 10
92.26310219047588
 20
-150.15310868642
 10
92.22503388536388
 20
-150.1510416291289
 10
92.15733775907873
 20
-150.1469075145466
 10
92.0219455065084
 20
-150.1489745718377
 10
92.0219455065084
 20
-150.1489745718377
 10
92.0219455065084
 20
-150.4872829484893
 10
92.0219455065084
 20
-150.4872829484893
 10
92.07689477949815
 20
-150.4642008087381
 10
92.14252384849215
 20
-150.4366400448561
 10
92.19109969483417
 20
-150.4132133955564
 10
92.19109969483417
 20
-150.4132133955564
 10
92.19109969483417
 20
-150.235790978066
 10
92.19109969483417
 20
-150.235790978066
 10
92.30530461017021
 20
-150.2481933218129
 10
92.4238158948628
 20
-150.2481933218129
 10
92.54026012226423
 20
-150.2481933218129
 10
92.51683347296454
 20
-150.15310868642
 10
92.4894449638568
 20
-150.0707709043226
 10
92.42588295215396
 20
-149.9374457090434
 10
92.38144122039422
 20
-149.9395127663345
 10
92.29910343829676
 20
-149.9436468809169
 10
92.26086287841047
 20
-149.945713938208
 10
92.26086287841047
 20
-149.945713938208
 10
92.26086287841047
 20
-149.765879953878
 10
92.26086287841047
 20
-149.765879953878
 10
92.38574758975079
 20
-149.7744926925911
 10
92.55920814743312
 20
-149.7786268071734
 10
92.64171818430485
 20
-149.7786268071734
 10
92.64171818430485
 20
-149.7786268071734
 10
92.72422822117659
 20
-149.7786268071734
 10
92.72422822117659
 20
-149.7786268071734
 10
92.72422822117659
 20
-149.615673790721
 10
92.72422822117659
 20
-149.6053385042653
 10
92.72216116388543
 20
-149.5502169765013
 10
92.72216116388543
 20
-149.5502169765013
 10
92.94643687997519
 20
-149.5757106830922
 10
92.94643687997519
 20
-149.5757106830922
 10
92.9505709945575
 20
-149.5757106830922
 10
92.9717583317918
 20
-149.5777777403833
 10
92.9717583317918
 20
-149.594658708261
 10
92.9717583317918
 20
-149.6094726188476
 10
92.96125079056178
 20
-149.6180853575608
 10
92.93369002667978
 20
-149.6328992681473
 10
92.92731660003205
 20
-149.6983560823671
 10
92.92524954274091
 20
-149.7193711648271
 10
92.92524954274091
 20
-149.7786268071734
 10
92.92524954274091
 20
-149.7786268071734
 10
93.02033417813381
 20
-149.7786268071734
 10
93.02033417813381
 20
-149.7786268071734
 10
93.10284421500554
 20
-149.7786268071734
 10
93.27630477268789
 20
-149.7744926925911
 10
93.40118948402817
 20
-149.765879953878
 10
93.40118948402817
 20
-149.765879953878
 10
93.40118948402817
 20
-149.945713938208
 10
93.40118948402817
 20
-149.945713938208
 10
93.37156166285502
 20
-149.9436468809169
 10
93.25305037816244
 20
-149.9395127663345
 10
93.21291501575927
 20
-149.9374457090434
 10
93.1981011051727
 20
-149.9880886126766
 10
93.16433916941724
 20
-150.1003987254957
 10
93.09871010042325
 20
-150.2399250926483
 10
93.14091252011754
 20
-150.2399250926483
 10
93.4180704519059
 20
-150.2209770674794
 10
93.47939315154334
 20
-150.2185655006398
 10
93.47939315154334
 20
-150.2185655006398
 10
93.47939315154334
 20
-150.4028781091006
 10
93.47939315154334
 20
-150.4028781091006
 10
93.44993758514446
 20
-150.4028781091006
 10
93.43288436249247
 20
-150.3983994849698
 10
93.27010360081443
 20
-150.3983994849698
 97
        0
 97
        1
330
F9
 75
     2
 76
     1
 98
        1
 10
0.0
 20
0.0
450
        0
451
        0
460
0.0
461
0.0
452
        0
462
0.0
453
        0
470

  0
SPLINE
  5
FB
330
F3
100
AcDbEntity
  8
レイヤー 1
100
AcDbSpline
210
0.0
220
0.0
230
1.0
 70
    11
 71
     3
 72
    17
 73
    13
 74
     0
 42
0.0000000001
 43
0.0000000001
 40
0.0
 40
0.0
 40
0.0
 40
0.0
 40
1.0
 40
1.0
 40
1.0
 40
2.0
 40
2.0
 40
2.0
 40
3.0
 40
3.0
 40
3.0
 40
4.0
 40
4.0
 40
4.0
 40
4.0
 10
95.1264933030413
 20
-151.1983506566448
 30
0.0
 10
95.1264933030413
 20
-151.1983506566448
 30
0.0
 10
94.41990421901655
 20
-151.1983506566448
 30
0.0
 10
94.41990421901655
 20
-151.1983506566448
 30
0.0
 10
94.41990421901655
 20
-151.1983506566448
 30
0.0
 10
94.41990421901655
 20
-151.3123833172066
 30
0.0
 10
94.41990421901655
 20
-151.3123833172066
 30
0.0
 10
94.41990421901655
 20
-151.3123833172066
 30
0.0
 10
95.1264933030413
 20
-151.3123833172066
 30
0.0
 10
95.1264933030413
 20
-151.3123833172066
 30
0.0
 10
95.1264933030413
 20
-151.3123833172066
 30
0.0
 10
95.1264933030413
 20
-151.1983506566448
 30
0.0
 10
95.1264933030413
 20
-151.1983506566448
 30
0.0
  0
SPLINE
  5
FC
330
F3
100
AcDbEntity
  8
レイヤー 1
100
AcDbSpline
210
0.0
220
0.0
230
1.0
 70
    11
 71
     3
 72
    17
 73
    13
 74
     0
 42
0.0000000001
 43
0.0000000001
 40
0.0
 40
0.0
 40
0.0
 40
0.0
 40
1.0
 40
1.0
 40
1.0
 40
2.0
 40
2.0
 40
2.0
 40
3.0
 40
3.0
 40
3.0
 40
4.0
 40
4.0
 40
4.0
 40
4.0
 10
95.1264933030413
 20
-150.9547824058377
 30
0.0
 10
95.1264933030413
 20
-150.9547824058377
 30
0.0
 10
94.41990421901655
 20
-150.9547824058377
 30
0.0
 10
94.41990421901655
 20
-150.9547824058377
 30
0.0
 10
94.41990421901655
 20
-150.9547824058377
 30
0.0
 10
94.41990421901655
 20
-151.069159575948
 30
0.0
 10
94.41990421901655
 20
-151.069159575948
 30
0.0
 10
94.41990421901655
 20
-151.069159575948
 30
0.0
 10
95.1264933030413
 20
-151.069159575948
 30
0.0
 10
95.1264933030413
 20
-151.069159575948
 30
0.0
 10
95.1264933030413
 20
-151.069159575948
 30
0.0
 10
95.1264933030413
 20
-150.9547824058377
 30
0.0
 10
95.1264933030413
 20
-150.9547824058377
 30
0.0
  0
SPLINE
  5
FD
330
F3
100
AcDbEntity
  8
レイヤー 1
100
AcDbSpline
210
0.0
220
0.0
230
1.0
 70
    11
 71
     3
 72
    17
 73
    13
 74
     0
 42
0.0000000001
 43
0.0000000001
 40
0.0
 40
0.0
 40
0.0
 40
0.0
 40
1.0
 40
1.0
 40
1.0
 40
2.0
 40
2.0
 40
2.0
 40
3.0
 40
3.0
 40
3.0
 40
4.0
 40
4.0
 40
4.0
 40
4.0
 10
95.1264933030413
 20
-150.7222384605833
 30
0.0
 10
95.1264933030413
 20
-150.7222384605833
 30
0.0
 10
94.41990421901655
 20
-150.7222384605833
 30
0.0
 10
94.41990421901655
 20
-150.7222384605833
 30
0.0
 10
94.41990421901655
 20
-150.7222384605833
 30
0.0
 10
94.41990421901655
 20
-150.8300699492716
 30
0.0
 10
94.41990421901655
 20
-150.8300699492716
 30
0.0
 10
94.41990421901655
 20
-150.8300699492716
 30
0.0
 10
95.1264933030413
 20
-150.8300699492716
 30
0.0
 10
95.1264933030413
 20
-150.8300699492716
 30
0.0
 10
95.1264933030413
 20
-150.8300699492716
 30
0.0
 10
95.1264933030413
 20
-150.7222384605833
 30
0.0
 10
95.1264933030413
 20
-150.7222384605833
 30
0.0
  0
SPLINE
  5
FE
330
F3
100
AcDbEntity
  8
レイヤー 1
100
AcDbSpline
210
0.0
220
0.0
230
1.0
 70
     9
 71
     3
 72
   203
 73
   199
 74
     0
 42
0.0000000001
 43
0.0000000001
 40
0.0
 40
0.0
 40
0.0
 40
0.0
 40
1.0
 40
1.0
 40
1.0
 40
2.0
 40
2.0
 40
2.0
 40
3.0
 40
3.0
 40
3.0
 40
4.0
 40
4.0
 40
4.0
 40
5.0
 40
5.0
 40
5.0
 40
6.0
 40
6.0
 40
6.0
 40
7.0
 40
7.0
 40
7.0
 40
8.0
 40
8.0
 40
8.0
 40
9.0
 40
9.0
 40
9.0
 40
10.0
 40
10.0
 40
10.0
 40
11.0
 40
11.0
 40
11.0
 40
12.0
 40
12.0
 40
12.0
 40
13.0
 40
13.0
 40
13.0
 40
14.0
 40
14.0
 40
14.0
 40
15.0
 40
15.0
 40
15.0
 40
16.0
 40
16.0
 40
16.0
 40
17.0
 40
17.0
 40
17.0
 40
18.0
 40
18.0
 40
18.0
 40
19.0
 40
19.0
 40
19.0
 40
20.0
 40
20.0
 40
20.0
 40
21.0
 40
21.0
 40
21.0
 40
22.0
 40
22.0
 40
22.0
 40
23.0
 40
23.0
 40
23.0
 40
24.0
 40
24.0
 40
24.0
 40
25.0
 40
25.0
 40
25.0
 40
26.0
 40
26.0
 40
26.0
 40
27.0
 40
27.0
 40
27.0
 40
28.0
 40
28.0
 40
28.0
 40
29.0
 40
29.0
 40
29.0
 40
30.0
 40
30.0
 40
30.0
 40
31.0
 40
31.0
 40
31.0
 40
32.0
 40
32.0
 40
32.0
 40
33.0
 40
33.0
 40
33.0
 40
34.0
 40
34.0
 40
34.0
 40
35.0
 40
35.0
 40
35.0
 40
36.0
 40
36.0
 40
36.0
 40
37.0
 40
37.0
 40
37.0
 40
38.0
 40
38.0
 40
38.0
 40
39.0
 40
39.0
 40
39.0
 40
40.0
 40
40.0
 40
40.0
 40
41.0
 40
41.0
 40
41.0
 40
42.0
 40
42.0
 40
42.0
 40
43.0
 40
43.0
 40
43.0
 40
44.0
 40
44.0
 40
44.0
 40
45.0
 40
45.0
 40
45.0
 40
46.0
 40
46.0
 40
46.0
 40
47.0
 40
47.0
 40
47.0
 40
48.0
 40
48.0
 40
48.0
 40
49.0
 40
49.0
 40
49.0
 40
50.0
 40
50.0
 40
50.0
 40
51.0
 40
51.0
 40
51.0
 40
52.0
 40
52.0
 40
52.0
 40
53.0
 40
53.0
 40
53.0
 40
54.0
 40
54.0
 40
54.0
 40
55.0
 40
55.0
 40
55.0
 40
56.0
 40
56.0
 40
56.0
 40
57.0
 40
57.0
 40
57.0
 40
58.0
 40
58.0
 40
58.0
 40
59.0
 40
59.0
 40
59.0
 40
60.0
 40
60.0
 40
60.0
 40
61.0
 40
61.0
 40
61.0
 40
62.0
 40
62.0
 40
62.0
 40
63.0
 40
63.0
 40
63.0
 40
64.0
 40
64.0
 40
64.0
 40
65.0
 40
65.0
 40
65.0
 40
66.0
 40
66.0
 40
66.0
 40
66.0
 10
94.96147322929784
 20
-150.4662678660293
 30
0.0
 10
94.96147322929784
 20
-150.4662678660293
 30
0.0
 10
94.40302325113883
 20
-150.4662678660293
 30
0.0
 10
94.40302325113883
 20
-150.4662678660293
 30
0.0
 10
94.39234345513455
 20
-150.510709597789
 30
0.0
 10
94.38390297119569
 20
-150.5424044762533
 30
0.0
 10
94.37132837267453
 20
-150.5806450361395
 30
0.0
 10
94.39664982449112
 20
-150.5806450361395
 30
0.0
 10
94.41146373507768
 20
-150.5827120934307
 30
0.0
 10
94.4178371617254
 20
-150.5827120934307
 30
0.0
 10
94.4178371617254
 20
-150.5827120934307
 30
0.0
 10
94.60611162999432
 20
-150.5827120934307
 30
0.0
 10
94.60611162999432
 20
-150.5827120934307
 30
0.0
 10
94.60611162999432
 20
-150.5827120934307
 30
0.0
 10
94.98059350924096
 20
-150.5827120934307
 30
0.0
 10
94.98059350924096
 20
-150.5827120934307
 30
0.0
 10
95.03123641287414
 20
-150.5827120934307
 30
0.0
 10
95.3147677713102
 20
-150.5699652401353
 30
0.0
 10
95.3464626497745
 20
-150.5699652401353
 30
0.0
 10
95.34439559248335
 20
-150.5975260040172
 30
0.0
 10
95.34232853519219
 20
-150.6164740291862
 30
0.0
 10
95.34232853519219
 20
-150.6461018503593
 30
0.0
 10
95.34008922312677
 20
-150.6777967288236
 30
0.0
 10
95.34008922312677
 20
-150.8131889813939
 30
0.0
 10
95.34008922312677
 20
-150.8407497452759
 30
0.0
 10
95.34008922312677
 20
-150.8407497452759
 30
0.0
 10
95.34008922312677
 20
-151.0860405438257
 30
0.0
 10
95.34008922312677
 20
-151.0860405438257
 30
0.0
 10
95.34008922312677
 20
-151.1304822755854
 30
0.0
 10
95.34439559248335
 20
-151.3271972277932
 30
0.0
 10
95.34870196183991
 20
-151.4794704482412
 30
0.0
 10
95.34870196183991
 20
-151.4794704482412
 30
0.0
 10
95.12218693368472
 20
-151.4794704482412
 30
0.0
 10
95.12218693368472
 20
-151.4794704482412
 30
0.0
 10
95.12218693368472
 20
-151.4794704482412
 30
0.0
 10
95.12442624575013
 20
-151.4457085124858
 30
0.0
 10
95.12442624575013
 20
-151.4457085124858
 30
0.0
 10
95.12442624575013
 20
-151.4457085124858
 30
0.0
 10
94.4219712763077
 20
-151.4457085124858
 30
0.0
 10
94.4219712763077
 20
-151.4457085124858
 30
0.0
 10
94.4219712763077
 20
-151.4457085124858
 30
0.0
 10
94.42421058837311
 20
-151.4794704482412
 30
0.0
 10
94.42421058837311
 20
-151.4794704482412
 30
0.0
 10
94.42421058837311
 20
-151.4794704482412
 30
0.0
 10
94.20630829893106
 20
-151.4794704482412
 30
0.0
 10
94.20630829893106
 20
-151.4794704482412
 30
0.0
 10
94.21044241351337
 20
-151.4246934300258
 30
0.0
 10
94.21044241351337
 20
-151.4119465767303
 30
0.0
 10
94.21681584016107
 20
-151.29756940662
 30
0.0
 10
94.21888289745224
 20
-151.270008642738
 30
0.0
 10
94.22112220951765
 20
-151.1370279570074
 30
0.0
 10
94.22112220951765
 20
-151.11773542229
 30
0.0
 10
94.22112220951765
 20
-151.11773542229
 30
0.0
 10
94.22112220951765
 20
-150.9148192982088
 30
0.0
 10
94.22112220951765
 20
-150.9148192982088
 30
0.0
 10
94.08142358759077
 20
-151.1642442113409
 30
0.0
 10
93.91226939926498
 20
-151.2955023493289
 30
0.0
 10
93.80650496786783
 20
-151.3609591635486
 30
0.0
 10
93.80650496786783
 20
-151.3609591635486
 30
0.0
 10
93.63287215541124
 20
-151.221432796396
 30
0.0
 10
93.63287215541124
 20
-151.221432796396
 30
0.0
 10
93.72175561893067
 20
-151.1707898927628
 30
0.0
 10
93.86558835543985
 20
-151.0839734865345
 30
0.0
 10
94.0032199200756
 20
-150.8893255916179
 30
0.0
 10
94.09417044088618
 20
-150.7625460777607
 30
0.0
 10
94.15979950988019
 20
-150.6185410864773
 30
0.0
 10
94.19356144563563
 20
-150.4662678660293
 30
0.0
 10
93.96515161496358
 20
-150.4683349233204
 30
0.0
 10
93.78531763063355
 20
-150.4748806047424
 30
0.0
 10
93.69006074046637
 20
-150.4769476620335
 30
0.0
 10
93.69006074046637
 20
-150.4769476620335
 30
0.0
 10
93.69006074046637
 20
-150.2991807349946
 30
0.0
 10
93.69006074046637
 20
-150.2991807349946
 30
0.0
 10
93.88677569267414
 20
-150.3053819068681
 30
0.0
 10
94.1703070511102
 20
-150.3098605309989
 30
0.0
 10
94.3205132142671
 20
-150.3098605309989
 30
0.0
 10
94.3205132142671
 20
-150.3098605309989
 30
0.0
 10
94.53410913435259
 20
-150.3098605309989
 30
0.0
 10
94.53410913435259
 20
-150.3098605309989
 30
0.0
 10
94.53410913435259
 20
-150.3098605309989
 30
0.0
 10
94.53410913435259
 20
-150.2016845327621
 30
0.0
 10
94.53410913435259
 20
-150.2016845327621
 30
0.0
 10
94.53410913435259
 20
-150.2016845327621
 30
0.0
 10
94.38820934055225
 20
-150.2016845327621
 30
0.0
 10
94.38820934055225
 20
-150.2016845327621
 30
0.0
 10
94.21888289745224
 20
-150.2016845327621
 30
0.0
 10
94.04972870912645
 20
-150.2061631568929
 30
0.0
 10
93.88264157809185
 20
-150.2123643287663
 30
0.0
 10
93.88264157809185
 20
-150.2123643287663
 30
0.0
 10
93.88264157809185
 20
-150.0411430831494
 30
0.0
 10
93.88264157809185
 20
-150.0411430831494
 30
0.0
 10
94.03698185583102
 20
-150.0514783696052
 30
0.0
 10
94.22318926680878
 20
-150.0514783696052
 30
0.0
 10
94.38820934055225
 20
-150.0514783696052
 30
0.0
 10
94.38820934055225
 20
-150.0514783696052
 30
0.0
 10
94.53410913435259
 20
-150.0514783696052
 30
0.0
 10
94.53410913435259
 20
-150.0514783696052
 30
0.0
 10
94.53410913435259
 20
-150.0514783696052
 30
0.0
 10
94.53410913435259
 20
-149.9333115944611
 30
0.0
 10
94.53410913435259
 20
-149.9333115944611
 30
0.0
 10
94.53410913435259
 20
-149.9333115944611
 30
0.0
 10
94.40302325113883
 20
-149.9333115944611
 30
0.0
 10
94.40302325113883
 20
-149.9333115944611
 30
0.0
 10
94.35651446208796
 20
-149.9333115944611
 30
0.0
 10
94.15342608323248
 20
-149.9415798236257
 30
0.0
 10
94.11105140876392
 20
-149.9415798236257
 30
0.0
 10
93.90796302990843
 20
-149.945713938208
 30
0.0
 10
93.8318264196844
 20
-149.9477809954991
 30
0.0
 10
93.75362275216923
 20
-149.9501925623388
 30
0.0
 10
93.75362275216923
 20
-149.9501925623388
 30
0.0
 10
93.75362275216923
 20
-149.765879953878
 30
0.0
 10
93.75362275216923
 20
-149.765879953878
 30
0.0
 10
93.86782766750526
 20
-149.7744926925911
 30
0.0
 10
93.91226939926498
 20
-149.7744926925911
 30
0.0
 10
94.29519176245051
 20
-149.7831054313042
 30
0.0
 10
94.23162975074765
 20
-149.6876762863628
 30
0.0
 10
94.20406898686565
 20
-149.6601155224808
 30
0.0
 10
94.16823999381906
 20
-149.6242865294342
 30
0.0
 10
94.16823999381906
 20
-149.6242865294342
 30
0.0
 10
94.34376760879253
 20
-149.5416042377882
 30
0.0
 10
94.34376760879253
 20
-149.5416042377882
 30
0.0
 10
94.38390297119569
 20
-149.5777777403833
 30
0.0
 10
94.42834470295542
 20
-149.6201524148519
 30
0.0
 10
94.50241425588828
 20
-149.7300509608314
 30
0.0
 10
94.50241425588828
 20
-149.7300509608314
 30
0.0
 10
94.38820934055225
 20
-149.7851724885953
 30
0.0
 10
94.38820934055225
 20
-149.7851724885953
 30
0.0
 10
94.38820934055225
 20
-149.7851724885953
 30
0.0
 10
94.39871688178227
 20
-149.7851724885953
 30
0.0
 10
94.39871688178227
 20
-149.7851724885953
 30
0.0
 10
94.39871688178227
 20
-149.7851724885953
 30
0.0
 10
94.92133786689468
 20
-149.7851724885953
 30
0.0
 10
94.92133786689468
 20
-149.7851724885953
 30
0.0
 10
94.92133786689468
 20
-149.7851724885953
 30
0.0
 10
94.8260809767275
 20
-149.7407307568356
 30
0.0
 10
94.8260809767275
 20
-149.7407307568356
 30
0.0
 10
94.85364174060951
 20
-149.7024901969494
 30
0.0
 10
94.91065807089039
 20
-149.622219472143
 30
0.0
 10
94.92547198147697
 20
-149.5481499192102
 30
0.0
 10
94.92547198147697
 20
-149.5481499192102
 30
0.0
 10
95.13924015633673
 20
-149.6115396761388
 30
0.0
 10
95.13924015633673
 20
-149.6115396761388
 30
0.0
 10
95.14768064027558
 20
-149.6136067334299
 30
0.0
 10
95.16886797750988
 20
-149.6242865294342
 30
0.0
 10
95.16886797750988
 20
-149.6453016118942
 30
0.0
 10
95.16886797750988
 20
-149.6835421717805
 30
0.0
 10
95.10323890851585
 20
-149.6835421717805
 30
0.0
 10
95.08411862857272
 20
-149.6835421717805
 30
0.0
 10
95.0736110873427
 20
-149.7024901969494
 30
0.0
 10
95.05035669281728
 20
-149.7427978141268
 30
0.0
 10
95.02072887164413
 20
-149.7831054313042
 30
0.0
 10
95.42053220270737
 20
-149.7765597498822
 30
0.0
 10
95.45016002388051
 20
-149.7744926925911
 30
0.0
 10
95.52629663410455
 20
-149.7682915207176
 30
0.0
 10
95.52629663410455
 20
-149.7682915207176
 30
0.0
 10
95.52629663410455
 20
-149.9501925623388
 30
0.0
 10
95.52629663410455
 20
-149.9501925623388
 30
0.0
 10
95.50734860893568
 20
-149.9501925623388
 30
0.0
 10
95.48185490234482
 20
-149.9477809954991
 30
0.0
 10
95.2618855556116
 20
-149.9395127663345
 30
0.0
 10
95.21107039720417
 20
-149.9374457090434
 30
0.0
 10
94.99110105047098
 20
-149.9333115944611
 30
0.0
 10
94.94665931871125
 20
-149.9333115944611
 30
0.0
 10
94.94665931871125
 20
-149.9333115944611
 30
0.0
 10
94.73082408656036
 20
-149.9333115944611
 30
0.0
 10
94.73082408656036
 20
-149.9333115944611
 30
0.0
 10
94.73082408656036
 20
-149.9333115944611
 30
0.0
 10
94.73082408656036
 20
-150.0514783696052
 30
0.0
 10
94.73082408656036
 20
-150.0514783696052
 30
0.0
 10
94.73082408656036
 20
-150.0514783696052
 30
0.0
 10
94.90428464424267
 20
-150.0514783696052
 30
0.0
 10
94.90428464424267
 20
-150.0514783696052
 30
0.0
 10
95.067237660695
 20
-150.0514783696052
 30
0.0
 10
95.25757918625506
 20
-150.0514783696052
 30
0.0
 10
95.41415877605967
 20
-150.0411430831494
 30
0.0
 10
95.41415877605967
 20
-150.0411430831494
 30
0.0
 10
95.41415877605967
 20
-150.2123643287663
 30
0.0
 10
95.41415877605967
 20
-150.2123643287663
 30
0.0
 10
95.20469697055647
 20
-150.2040960996017
 30
0.0
 10
95.0079820183487
 20
-150.2016845327621
 30
0.0
 10
94.90428464424267
 20
-150.2016845327621
 30
0.0
 10
94.90428464424267
 20
-150.2016845327621
 30
0.0
 10
94.73082408656036
 20
-150.2016845327621
 30
0.0
 10
94.73082408656036
 20
-150.2016845327621
 30
0.0
 10
94.73082408656036
 20
-150.2016845327621
 30
0.0
 10
94.73082408656036
 20
-150.3098605309989
 30
0.0
 10
94.73082408656036
 20
-150.3098605309989
 30
0.0
 10
94.73082408656036
 20
-150.3098605309989
 30
0.0
 10
94.96147322929784
 20
-150.3098605309989
 30
0.0
 10
94.96147322929784
 20
-150.3098605309989
 30
0.0
 10
95.09479842457698
 20
-150.3098605309989
 30
0.0
 10
95.38246389759535
 20
-150.3053819068681
 30
0.0
 10
95.59192570309855
 20
-150.2991807349946
 30
0.0
 10
95.59192570309855
 20
-150.2991807349946
 30
0.0
 10
95.59192570309855
 20
-150.4769476620335
 30
0.0
 10
95.59192570309855
 20
-150.4769476620335
 30
0.0
 10
95.39934486547307
 20
-150.4704019806115
 30
0.0
 10
95.08635794063813
 20
-150.4662678660293
 30
0.0
 10
94.96147322929784
 20
-150.4662678660293
 30
0.0
  0
HATCH
  5
FF
330
F3
100
AcDbEntity
  8
レイヤー 1
 62
    18
420
        0
440
 33554687
100
AcDbHatch
 10
0.0
 20
0.0
 30
0.0
210
0.0
220
0.0
230
1.0
  2
SOLID
 70
     1
 71
     1
 91
        4
 92
        1
 93
        1
 72
     4
 94
        3
 73
     0
 74
     0
 95
       17
 96
       13
 40
0.0
 40
0.0
 40
0.0
 40
0.0
 40
1.0
 40
1.0
 40
1.0
 40
2.0
 40
2.0
 40
2.0
 40
3.0
 40
3.0
 40
3.0
 40
4.0
 40
4.0
 40
4.0
 40
4.0
 10
95.1264933030413
 20
-151.1983506566448
 10
95.1264933030413
 20
-151.1983506566448
 10
94.41990421901655
 20
-151.1983506566448
 10
94.41990421901655
 20
-151.1983506566448
 10
94.41990421901655
 20
-151.1983506566448
 10
94.41990421901655
 20
-151.3123833172066
 10
94.41990421901655
 20
-151.3123833172066
 10
94.41990421901655
 20
-151.3123833172066
 10
95.1264933030413
 20
-151.3123833172066
 10
95.1264933030413
 20
-151.3123833172066
 10
95.1264933030413
 20
-151.3123833172066
 10
95.1264933030413
 20
-151.1983506566448
 10
95.1264933030413
 20
-151.1983506566448
 97
        0
 97
        1
330
FB
 92
        1
 93
        1
 72
     4
 94
        3
 73
     0
 74
     0
 95
       17
 96
       13
 40
0.0
 40
0.0
 40
0.0
 40
0.0
 40
1.0
 40
1.0
 40
1.0
 40
2.0
 40
2.0
 40
2.0
 40
3.0
 40
3.0
 40
3.0
 40
4.0
 40
4.0
 40
4.0
 40
4.0
 10
95.1264933030413
 20
-150.9547824058377
 10
95.1264933030413
 20
-150.9547824058377
 10
94.41990421901655
 20
-150.9547824058377
 10
94.41990421901655
 20
-150.9547824058377
 10
94.41990421901655
 20
-150.9547824058377
 10
94.41990421901655
 20
-151.069159575948
 10
94.41990421901655
 20
-151.069159575948
 10
94.41990421901655
 20
-151.069159575948
 10
95.1264933030413
 20
-151.069159575948
 10
95.1264933030413
 20
-151.069159575948
 10
95.1264933030413
 20
-151.069159575948
 10
95.1264933030413
 20
-150.9547824058377
 10
95.1264933030413
 20
-150.9547824058377
 97
        0
 97
        1
330
FC
 92
        1
 93
        1
 72
     4
 94
        3
 73
     0
 74
     0
 95
       17
 96
       13
 40
0.0
 40
0.0
 40
0.0
 40
0.0
 40
1.0
 40
1.0
 40
1.0
 40
2.0
 40
2.0
 40
2.0
 40
3.0
 40
3.0
 40
3.0
 40
4.0
 40
4.0
 40
4.0
 40
4.0
 10
95.1264933030413
 20
-150.7222384605833
 10
95.1264933030413
 20
-150.7222384605833
 10
94.41990421901655
 20
-150.7222384605833
 10
94.41990421901655
 20
-150.7222384605833
 10
94.41990421901655
 20
-150.7222384605833
 10
94.41990421901655
 20
-150.8300699492716
 10
94.41990421901655
 20
-150.8300699492716
 10
94.41990421901655
 20
-150.8300699492716
 10
95.1264933030413
 20
-150.8300699492716
 10
95.1264933030413
 20
-150.8300699492716
 10
95.1264933030413
 20
-150.8300699492716
 10
95.1264933030413
 20
-150.7222384605833
 10
95.1264933030413
 20
-150.7222384605833
 97
        0
 97
        1
330
FD
 92
        1
 93
        1
 72
     4
 94
        3
 73
     0
 74
     0
 95
      203
 96
      199
 40
0.0
 40
0.0
 40
0.0
 40
0.0
 40
1.0
 40
1.0
 40
1.0
 40
2.0
 40
2.0
 40
2.0
 40
3.0
 40
3.0
 40
3.0
 40
4.0
 40
4.0
 40
4.0
 40
5.0
 40
5.0
 40
5.0
 40
6.0
 40
6.0
 40
6.0
 40
7.0
 40
7.0
 40
7.0
 40
8.0
 40
8.0
 40
8.0
 40
9.0
 40
9.0
 40
9.0
 40
10.0
 40
10.0
 40
10.0
 40
11.0
 40
11.0
 40
11.0
 40
12.0
 40
12.0
 40
12.0
 40
13.0
 40
13.0
 40
13.0
 40
14.0
 40
14.0
 40
14.0
 40
15.0
 40
15.0
 40
15.0
 40
16.0
 40
16.0
 40
16.0
 40
17.0
 40
17.0
 40
17.0
 40
18.0
 40
18.0
 40
18.0
 40
19.0
 40
19.0
 40
19.0
 40
20.0
 40
20.0
 40
20.0
 40
21.0
 40
21.0
 40
21.0
 40
22.0
 40
22.0
 40
22.0
 40
23.0
 40
23.0
 40
23.0
 40
24.0
 40
24.0
 40
24.0
 40
25.0
 40
25.0
 40
25.0
 40
26.0
 40
26.0
 40
26.0
 40
27.0
 40
27.0
 40
27.0
 40
28.0
 40
28.0
 40
28.0
 40
29.0
 40
29.0
 40
29.0
 40
30.0
 40
30.0
 40
30.0
 40
31.0
 40
31.0
 40
31.0
 40
32.0
 40
32.0
 40
32.0
 40
33.0
 40
33.0
 40
33.0
 40
34.0
 40
34.0
 40
34.0
 40
35.0
 40
35.0
 40
35.0
 40
36.0
 40
36.0
 40
36.0
 40
37.0
 40
37.0
 40
37.0
 40
38.0
 40
38.0
 40
38.0
 40
39.0
 40
39.0
 40
39.0
 40
40.0
 40
40.0
 40
40.0
 40
41.0
 40
41.0
 40
41.0
 40
42.0
 40
42.0
 40
42.0
 40
43.0
 40
43.0
 40
43.0
 40
44.0
 40
44.0
 40
44.0
 40
45.0
 40
45.0
 40
45.0
 40
46.0
 40
46.0
 40
46.0
 40
47.0
 40
47.0
 40
47.0
 40
48.0
 40
48.0
 40
48.0
 40
49.0
 40
49.0
 40
49.0
 40
50.0
 40
50.0
 40
50.0
 40
51.0
 40
51.0
 40
51.0
 40
52.0
 40
52.0
 40
52.0
 40
53.0
 40
53.0
 40
53.0
 40
54.0
 40
54.0
 40
54.0
 40
55.0
 40
55.0
 40
55.0
 40
56.0
 40
56.0
 40
56.0
 40
57.0
 40
57.0
 40
57.0
 40
58.0
 40
58.0
 40
58.0
 40
59.0
 40
59.0
 40
59.0
 40
60.0
 40
60.0
 40
60.0
 40
61.0
 40
61.0
 40
61.0
 40
62.0
 40
62.0
 40
62.0
 40
63.0
 40
63.0
 40
63.0
 40
64.0
 40
64.0
 40
64.0
 40
65.0
 40
65.0
 40
65.0
 40
66.0
 40
66.0
 40
66.0
 40
66.0
 10
94.96147322929784
 20
-150.4662678660293
 10
94.96147322929784
 20
-150.4662678660293
 10
94.40302325113883
 20
-150.4662678660293
 10
94.40302325113883
 20
-150.4662678660293
 10
94.39234345513455
 20
-150.510709597789
 10
94.38390297119569
 20
-150.5424044762533
 10
94.37132837267453
 20
-150.5806450361395
 10
94.39664982449112
 20
-150.5806450361395
 10
94.41146373507768
 20
-150.5827120934307
 10
94.4178371617254
 20
-150.5827120934307
 10
94.4178371617254
 20
-150.5827120934307
 10
94.60611162999432
 20
-150.5827120934307
 10
94.60611162999432
 20
-150.5827120934307
 10
94.60611162999432
 20
-150.5827120934307
 10
94.98059350924096
 20
-150.5827120934307
 10
94.98059350924096
 20
-150.5827120934307
 10
95.03123641287414
 20
-150.5827120934307
 10
95.3147677713102
 20
-150.5699652401353
 10
95.3464626497745
 20
-150.5699652401353
 10
95.34439559248335
 20
-150.5975260040172
 10
95.34232853519219
 20
-150.6164740291862
 10
95.34232853519219
 20
-150.6461018503593
 10
95.34008922312677
 20
-150.6777967288236
 10
95.34008922312677
 20
-150.8131889813939
 10
95.34008922312677
 20
-150.8407497452759
 10
95.34008922312677
 20
-150.8407497452759
 10
95.34008922312677
 20
-151.0860405438257
 10
95.34008922312677
 20
-151.0860405438257
 10
95.34008922312677
 20
-151.1304822755854
 10
95.34439559248335
 20
-151.3271972277932
 10
95.34870196183991
 20
-151.4794704482412
 10
95.34870196183991
 20
-151.4794704482412
 10
95.12218693368472
 20
-151.4794704482412
 10
95.12218693368472
 20
-151.4794704482412
 10
95.12218693368472
 20
-151.4794704482412
 10
95.12442624575013
 20
-151.4457085124858
 10
95.12442624575013
 20
-151.4457085124858
 10
95.12442624575013
 20
-151.4457085124858
 10
94.4219712763077
 20
-151.4457085124858
 10
94.4219712763077
 20
-151.4457085124858
 10
94.4219712763077
 20
-151.4457085124858
 10
94.42421058837311
 20
-151.4794704482412
 10
94.42421058837311
 20
-151.4794704482412
 10
94.42421058837311
 20
-151.4794704482412
 10
94.20630829893106
 20
-151.4794704482412
 10
94.20630829893106
 20
-151.4794704482412
 10
94.21044241351337
 20
-151.4246934300258
 10
94.21044241351337
 20
-151.4119465767303
 10
94.21681584016107
 20
-151.29756940662
 10
94.21888289745224
 20
-151.270008642738
 10
94.22112220951765
 20
-151.1370279570074
 10
94.22112220951765
 20
-151.11773542229
 10
94.22112220951765
 20
-151.11773542229
 10
94.22112220951765
 20
-150.9148192982088
 10
94.22112220951765
 20
-150.9148192982088
 10
94.08142358759077
 20
-151.1642442113409
 10
93.91226939926498
 20
-151.2955023493289
 10
93.80650496786783
 20
-151.3609591635486
 10
93.80650496786783
 20
-151.3609591635486
 10
93.63287215541124
 20
-151.221432796396
 10
93.63287215541124
 20
-151.221432796396
 10
93.72175561893067
 20
-151.1707898927628
 10
93.86558835543985
 20
-151.0839734865345
 10
94.0032199200756
 20
-150.8893255916179
 10
94.09417044088618
 20
-150.7625460777607
 10
94.15979950988019
 20
-150.6185410864773
 10
94.19356144563563
 20
-150.4662678660293
 10
93.96515161496358
 20
-150.4683349233204
 10
93.78531763063355
 20
-150.4748806047424
 10
93.69006074046637
 20
-150.4769476620335
 10
93.69006074046637
 20
-150.4769476620335
 10
93.69006074046637
 20
-150.2991807349946
 10
93.69006074046637
 20
-150.2991807349946
 10
93.88677569267414
 20
-150.3053819068681
 10
94.1703070511102
 20
-150.3098605309989
 10
94.3205132142671
 20
-150.3098605309989
 10
94.3205132142671
 20
-150.3098605309989
 10
94.53410913435259
 20
-150.3098605309989
 10
94.53410913435259
 20
-150.3098605309989
 10
94.53410913435259
 20
-150.3098605309989
 10
94.53410913435259
 20
-150.2016845327621
 10
94.53410913435259
 20
-150.2016845327621
 10
94.53410913435259
 20
-150.2016845327621
 10
94.38820934055225
 20
-150.2016845327621
 10
94.38820934055225
 20
-150.2016845327621
 10
94.21888289745224
 20
-150.2016845327621
 10
94.04972870912645
 20
-150.2061631568929
 10
93.88264157809185
 20
-150.2123643287663
 10
93.88264157809185
 20
-150.2123643287663
 10
93.88264157809185
 20
-150.0411430831494
 10
93.88264157809185
 20
-150.0411430831494
 10
94.03698185583102
 20
-150.0514783696052
 10
94.22318926680878
 20
-150.0514783696052
 10
94.38820934055225
 20
-150.0514783696052
 10
94.38820934055225
 20
-150.0514783696052
 10
94.53410913435259
 20
-150.0514783696052
 10
94.53410913435259
 20
-150.0514783696052
 10
94.53410913435259
 20
-150.0514783696052
 10
94.53410913435259
 20
-149.9333115944611
 10
94.53410913435259
 20
-149.9333115944611
 10
94.53410913435259
 20
-149.9333115944611
 10
94.40302325113883
 20
-149.9333115944611
 10
94.40302325113883
 20
-149.9333115944611
 10
94.35651446208796
 20
-149.9333115944611
 10
94.15342608323248
 20
-149.9415798236257
 10
94.11105140876392
 20
-149.9415798236257
 10
93.90796302990843
 20
-149.945713938208
 10
93.8318264196844
 20
-149.9477809954991
 10
93.75362275216923
 20
-149.9501925623388
 10
93.75362275216923
 20
-149.9501925623388
 10
93.75362275216923
 20
-149.765879953878
 10
93.75362275216923
 20
-149.765879953878
 10
93.86782766750526
 20
-149.7744926925911
 10
93.91226939926498
 20
-149.7744926925911
 10
94.29519176245051
 20
-149.7831054313042
 10
94.23162975074765
 20
-149.6876762863628
 10
94.20406898686565
 20
-149.6601155224808
 10
94.16823999381906
 20
-149.6242865294342
 10
94.16823999381906
 20
-149.6242865294342
 10
94.34376760879253
 20
-149.5416042377882
 10
94.34376760879253
 20
-149.5416042377882
 10
94.38390297119569
 20
-149.5777777403833
 10
94.42834470295542
 20
-149.6201524148519
 10
94.50241425588828
 20
-149.7300509608314
 10
94.50241425588828
 20
-149.7300509608314
 10
94.38820934055225
 20
-149.7851724885953
 10
94.38820934055225
 20
-149.7851724885953
 10
94.38820934055225
 20
-149.7851724885953
 10
94.39871688178227
 20
-149.7851724885953
 10
94.39871688178227
 20
-149.7851724885953
 10
94.39871688178227
 20
-149.7851724885953
 10
94.92133786689468
 20
-149.7851724885953
 10
94.92133786689468
 20
-149.7851724885953
 10
94.92133786689468
 20
-149.7851724885953
 10
94.8260809767275
 20
-149.7407307568356
 10
94.8260809767275
 20
-149.7407307568356
 10
94.85364174060951
 20
-149.7024901969494
 10
94.91065807089039
 20
-149.622219472143
 10
94.92547198147697
 20
-149.5481499192102
 10
94.92547198147697
 20
-149.5481499192102
 10
95.13924015633673
 20
-149.6115396761388
 10
95.13924015633673
 20
-149.6115396761388
 10
95.14768064027558
 20
-149.6136067334299
 10
95.16886797750988
 20
-149.6242865294342
 10
95.16886797750988
 20
-149.6453016118942
 10
95.16886797750988
 20
-149.6835421717805
 10
95.10323890851585
 20
-149.6835421717805
 10
95.08411862857272
 20
-149.6835421717805
 10
95.0736110873427
 20
-149.7024901969494
 10
95.05035669281728
 20
-149.7427978141268
 10
95.02072887164413
 20
-149.7831054313042
 10
95.42053220270737
 20
-149.7765597498822
 10
95.45016002388051
 20
-149.7744926925911
 10
95.52629663410455
 20
-149.7682915207176
 10
95.52629663410455
 20
-149.7682915207176
 10
95.52629663410455
 20
-149.9501925623388
 10
95.52629663410455
 20
-149.9501925623388
 10
95.50734860893568
 20
-149.9501925623388
 10
95.48185490234482
 20
-149.9477809954991
 10
95.2618855556116
 20
-149.9395127663345
 10
95.21107039720417
 20
-149.9374457090434
 10
94.99110105047098
 20
-149.9333115944611
 10
94.94665931871125
 20
-149.9333115944611
 10
94.94665931871125
 20
-149.9333115944611
 10
94.73082408656036
 20
-149.9333115944611
 10
94.73082408656036
 20
-149.9333115944611
 10
94.73082408656036
 20
-149.9333115944611
 10
94.73082408656036
 20
-150.0514783696052
 10
94.73082408656036
 20
-150.0514783696052
 10
94.73082408656036
 20
-150.0514783696052
 10
94.90428464424267
 20
-150.0514783696052
 10
94.90428464424267
 20
-150.0514783696052
 10
95.067237660695
 20
-150.0514783696052
 10
95.25757918625506
 20
-150.0514783696052
 10
95.41415877605967
 20
-150.0411430831494
 10
95.41415877605967
 20
-150.0411430831494
 10
95.41415877605967
 20
-150.2123643287663
 10
95.41415877605967
 20
-150.2123643287663
 10
95.20469697055647
 20
-150.2040960996017
 10
95.0079820183487
 20
-150.2016845327621
 10
94.90428464424267
 20
-150.2016845327621
 10
94.90428464424267
 20
-150.2016845327621
 10
94.73082408656036
 20
-150.2016845327621
 10
94.73082408656036
 20
-150.2016845327621
 10
94.73082408656036
 20
-150.2016845327621
 10
94.73082408656036
 20
-150.3098605309989
 10
94.73082408656036
 20
-150.3098605309989
 10
94.73082408656036
 20
-150.3098605309989
 10
94.96147322929784
 20
-150.3098605309989
 10
94.96147322929784
 20
-150.3098605309989
 10
95.09479842457698
 20
-150.3098605309989
 10
95.38246389759535
 20
-150.3053819068681
 10
95.59192570309855
 20
-150.2991807349946
 10
95.59192570309855
 20
-150.2991807349946
 10
95.59192570309855
 20
-150.4769476620335
 10
95.59192570309855
 20
-150.4769476620335
 10
95.39934486547307
 20
-150.4704019806115
 10
95.08635794063813
 20
-150.4662678660293
 10
94.96147322929784
 20
-150.4662678660293
 97
        0
 97
        1
330
FE
 75
     2
 76
     1
 98
        1
 10
0.0
 20
0.0
450
        0
451
        0
460
0.0
461
0.0
452
        0
462
0.0
453
        0
470

  0
SPLINE
  5
100
330
F3
100
AcDbEntity
  8
レイヤー 1
100
AcDbSpline
210
0.0
220
0.0
230
1.0
 70
     9
 71
     3
 72
    29
 73
    25
 74
     0
 42
0.0000000001
 43
0.0000000001
 40
0.0
 40
0.0
 40
0.0
 40
0.0
 40
1.0
 40
1.0
 40
1.0
 40
2.0
 40
2.0
 40
2.0
 40
3.0
 40
3.0
 40
3.0
 40
4.0
 40
4.0
 40
4.0
 40
5.0
 40
5.0
 40
5.0
 40
6.0
 40
6.0
 40
6.0
 40
7.0
 40
7.0
 40
7.0
 40
8.0
 40
8.0
 40
8.0
 40
8.0
 10
96.83698321146785
 20
-149.9140190597437
 30
0.0
 10
96.83698321146785
 20
-149.9140190597437
 30
0.0
 10
96.48368866945547
 20
-149.9140190597437
 30
0.0
 10
96.48368866945547
 20
-149.9140190597437
 30
0.0
 10
96.3715508114106
 20
-149.9140190597437
 30
0.0
 10
96.23202444425798
 20
-149.9205647411657
 30
0.0
 10
96.12402070079539
 20
-149.9333115944611
 30
0.0
 10
96.12402070079539
 20
-149.9333115944611
 30
0.0
 10
96.12402070079539
 20
-149.6983560823671
 30
0.0
 10
96.12402070079539
 20
-149.6983560823671
 30
0.0
 10
96.242531985488
 20
-149.7131699929536
 30
0.0
 10
96.42650008440032
 20
-149.7173041075359
 30
0.0
 10
96.48368866945547
 20
-149.7173041075359
 30
0.0
 10
96.48368866945547
 20
-149.7173041075359
 30
0.0
 10
96.83698321146785
 20
-149.7173041075359
 30
0.0
 10
96.83698321146785
 20
-149.7173041075359
 30
0.0
 10
96.85593123663672
 20
-149.7173041075359
 30
0.0
 10
97.05919187026646
 20
-149.7173041075359
 30
0.0
 10
97.20078529471024
 20
-149.6983560823671
 30
0.0
 10
97.20078529471024
 20
-149.6983560823671
 30
0.0
 10
97.20078529471024
 20
-149.9333115944611
 30
0.0
 10
97.20078529471024
 20
-149.9333115944611
 30
0.0
 10
97.04437795967988
 20
-149.9140190597437
 30
0.0
 10
96.85386417934557
 20
-149.9140190597437
 30
0.0
 10
96.83698321146785
 20
-149.9140190597437
 30
0.0
  0
SPLINE
  5
101
330
F3
100
AcDbEntity
  8
レイヤー 1
100
AcDbSpline
210
0.0
220
0.0
230
1.0
 70
     9
 71
     3
 72
    47
 73
    43
 74
     0
 42
0.0000000001
 43
0.0000000001
 40
0.0
 40
0.0
 40
0.0
 40
0.0
 40
1.0
 40
1.0
 40
1.0
 40
2.0
 40
2.0
 40
2.0
 40
3.0
 40
3.0
 40
3.0
 40
4.0
 40
4.0
 40
4.0
 40
5.0
 40
5.0
 40
5.0
 40
6.0
 40
6.0
 40
6.0
 40
7.0
 40
7.0
 40
7.0
 40
8.0
 40
8.0
 40
8.0
 40
9.0
 40
9.0
 40
9.0
 40
10.0
 40
10.0
 40
10.0
 40
11.0
 40
11.0
 40
11.0
 40
12.0
 40
12.0
 40
12.0
 40
13.0
 40
13.0
 40
13.0
 40
14.0
 40
14.0
 40
14.0
 40
14.0
 10
96.93844127350844
 20
-150.4428412167295
 30
0.0
 10
96.93844127350844
 20
-150.4428412167295
 30
0.0
 10
96.83698321146785
 20
-150.4428412167295
 30
0.0
 10
96.83698321146785
 20
-150.4428412167295
 30
0.0
 10
96.83698321146785
 20
-150.5296576229578
 30
0.0
 10
96.81579587423357
 20
-150.9189534127911
 30
0.0
 10
96.6190809220258
 20
-151.1390950142985
 30
0.0
 10
96.46680770157775
 20
-151.3082492026243
 30
0.0
 10
96.25941295336572
 20
-151.3781846409749
 30
0.0
 10
96.17483585920282
 20
-151.4054008953084
 30
0.0
 10
96.17483585920282
 20
-151.4054008953084
 30
0.0
 10
95.9801879642862
 20
-151.2383137642737
 30
0.0
 10
95.9801879642862
 20
-151.2383137642737
 30
0.0
 10
96.0775119117445
 20
-151.2255669109783
 30
0.0
 10
96.25303952671799
 20
-151.2024847712272
 30
0.0
 10
96.44131399498689
 20
-151.014038048184
 30
0.0
 10
96.51538354791977
 20
-150.9423800620908
 30
0.0
 10
96.6190809220258
 20
-150.8025091853896
 30
0.0
 10
96.6190809220258
 20
-150.4428412167295
 30
0.0
 10
96.6190809220258
 20
-150.4428412167295
 30
0.0
 10
96.38843177928832
 20
-150.4428412167295
 30
0.0
 10
96.38843177928832
 20
-150.4428412167295
 30
0.0
 10
96.20239662308483
 20
-150.4428412167295
 30
0.0
 10
96.01618921210707
 20
-150.4473198408604
 30
0.0
 10
95.82998180112932
 20
-150.4621337514469
 30
0.0
 10
95.82998180112932
 20
-150.4621337514469
 30
0.0
 10
95.82998180112932
 20
-150.2419921499395
 30
0.0
 10
95.82998180112932
 20
-150.2419921499395
 30
0.0
 10
96.01825626939822
 20
-150.2568060605261
 30
0.0
 10
96.30385468512542
 20
-150.2609401751084
 30
0.0
 10
96.38843177928832
 20
-150.2609401751084
 30
0.0
 10
96.38843177928832
 20
-150.2609401751084
 30
0.0
 10
96.93844127350844
 20
-150.2609401751084
 30
0.0
 10
96.93844127350844
 20
-150.2609401751084
 30
0.0
 10
96.95756155345158
 20
-150.2609401751084
 30
0.0
 10
97.2748548476431
 20
-150.2609401751084
 30
0.0
 10
97.50343693308941
 20
-150.2419921499395
 30
0.0
 10
97.50343693308941
 20
-150.2419921499395
 30
0.0
 10
97.50343693308941
 20
-150.4621337514469
 30
0.0
 10
97.50343693308941
 20
-150.4621337514469
 30
0.0
 10
97.31516246482051
 20
-150.4473198408604
 30
0.0
 10
97.12671574177736
 20
-150.4428412167295
 30
0.0
 10
96.93844127350844
 20
-150.4428412167295
 30
0.0
  0
HATCH
  5
102
330
F3
100
AcDbEntity
  8
レイヤー 1
 62
    18
420
        0
440
 33554687
100
AcDbHatch
 10
0.0
 20
0.0
 30
0.0
210
0.0
220
0.0
230
1.0
  2
SOLID
 70
     1
 71
     1
 91
        2
 92
        1
 93
        1
 72
     4
 94
        3
 73
     0
 74
     0
 95
       29
 96
       25
 40
0.0
 40
0.0
 40
0.0
 40
0.0
 40
1.0
 40
1.0
 40
1.0
 40
2.0
 40
2.0
 40
2.0
 40
3.0
 40
3.0
 40
3.0
 40
4.0
 40
4.0
 40
4.0
 40
5.0
 40
5.0
 40
5.0
 40
6.0
 40
6.0
 40
6.0
 40
7.0
 40
7.0
 40
7.0
 40
8.0
 40
8.0
 40
8.0
 40
8.0
 10
96.83698321146785
 20
-149.9140190597437
 10
96.83698321146785
 20
-149.9140190597437
 10
96.48368866945547
 20
-149.9140190597437
 10
96.48368866945547
 20
-149.9140190597437
 10
96.3715508114106
 20
-149.9140190597437
 10
96.23202444425798
 20
-149.9205647411657
 10
96.12402070079539
 20
-149.9333115944611
 10
96.12402070079539
 20
-149.9333115944611
 10
96.12402070079539
 20
-149.6983560823671
 10
96.12402070079539
 20
-149.6983560823671
 10
96.242531985488
 20
-149.7131699929536
 10
96.42650008440032
 20
-149.7173041075359
 10
96.48368866945547
 20
-149.7173041075359
 10
96.48368866945547
 20
-149.7173041075359
 10
96.83698321146785
 20
-149.7173041075359
 10
96.83698321146785
 20
-149.7173041075359
 10
96.85593123663672
 20
-149.7173041075359
 10
97.05919187026646
 20
-149.7173041075359
 10
97.20078529471024
 20
-149.6983560823671
 10
97.20078529471024
 20
-149.6983560823671
 10
97.20078529471024
 20
-149.9333115944611
 10
97.20078529471024
 20
-149.9333115944611
 10
97.04437795967988
 20
-149.9140190597437
 10
96.85386417934557
 20
-149.9140190597437
 10
96.83698321146785
 20
-149.9140190597437
 97
        0
 97
        1
330
100
 92
        1
 93
        1
 72
     4
 94
        3
 73
     0
 74
     0
 95
       47
 96
       43
 40
0.0
 40
0.0
 40
0.0
 40
0.0
 40
1.0
 40
1.0
 40
1.0
 40
2.0
 40
2.0
 40
2.0
 40
3.0
 40
3.0
 40
3.0
 40
4.0
 40
4.0
 40
4.0
 40
5.0
 40
5.0
 40
5.0
 40
6.0
 40
6.0
 40
6.0
 40
7.0
 40
7.0
 40
7.0
 40
8.0
 40
8.0
 40
8.0
 40
9.0
 40
9.0
 40
9.0
 40
10.0
 40
10.0
 40
10.0
 40
11.0
 40
11.0
 40
11.0
 40
12.0
 40
12.0
 40
12.0
 40
13.0
 40
13.0
 40
13.0
 40
14.0
 40
14.0
 40
14.0
 40
14.0
 10
96.93844127350844
 20
-150.4428412167295
 10
96.93844127350844
 20
-150.4428412167295
 10
96.83698321146785
 20
-150.4428412167295
 10
96.83698321146785
 20
-150.4428412167295
 10
96.83698321146785
 20
-150.5296576229578
 10
96.81579587423357
 20
-150.9189534127911
 10
96.6190809220258
 20
-151.1390950142985
 10
96.46680770157775
 20
-151.3082492026243
 10
96.25941295336572
 20
-151.3781846409749
 10
96.17483585920282
 20
-151.4054008953084
 10
96.17483585920282
 20
-151.4054008953084
 10
95.9801879642862
 20
-151.2383137642737
 10
95.9801879642862
 20
-151.2383137642737
 10
96.0775119117445
 20
-151.2255669109783
 10
96.25303952671799
 20
-151.2024847712272
 10
96.44131399498689
 20
-151.014038048184
 10
96.51538354791977
 20
-150.9423800620908
 10
96.6190809220258
 20
-150.8025091853896
 10
96.6190809220258
 20
-150.4428412167295
 10
96.6190809220258
 20
-150.4428412167295
 10
96.38843177928832
 20
-150.4428412167295
 10
96.38843177928832
 20
-150.4428412167295
 10
96.20239662308483
 20
-150.4428412167295
 10
96.01618921210707
 20
-150.4473198408604
 10
95.82998180112932
 20
-150.4621337514469
 10
95.82998180112932
 20
-150.4621337514469
 10
95.82998180112932
 20
-150.2419921499395
 10
95.82998180112932
 20
-150.2419921499395
 10
96.01825626939822
 20
-150.2568060605261
 10
96.30385468512542
 20
-150.2609401751084
 10
96.38843177928832
 20
-150.2609401751084
 10
96.38843177928832
 20
-150.2609401751084
 10
96.93844127350844
 20
-150.2609401751084
 10
96.93844127350844
 20
-150.2609401751084
 10
96.95756155345158
 20
-150.2609401751084
 10
97.2748548476431
 20
-150.2609401751084
 10
97.50343693308941
 20
-150.2419921499395
 10
97.50343693308941
 20
-150.2419921499395
 10
97.50343693308941
 20
-150.4621337514469
 10
97.50343693308941
 20
-150.4621337514469
 10
97.31516246482051
 20
-150.4473198408604
 10
97.12671574177736
 20
-150.4428412167295
 10
96.93844127350844
 20
-150.4428412167295
 97
        0
 97
        1
330
101
 75
     2
 76
     1
 98
        1
 10
0.0
 20
0.0
450
        0
451
        0
460
0.0
461
0.0
452
        0
462
0.0
453
        0
470

  0
SPLINE
  5
103
330
F3
100
AcDbEntity
  8
レイヤー 1
100
AcDbSpline
210
0.0
220
0.0
230
1.0
 70
     9
 71
     3
 72
    29
 73
    25
 74
     0
 42
0.0000000001
 43
0.0000000001
 40
0.0
 40
0.0
 40
0.0
 40
0.0
 40
1.0
 40
1.0
 40
1.0
 40
2.0
 40
2.0
 40
2.0
 40
3.0
 40
3.0
 40
3.0
 40
4.0
 40
4.0
 40
4.0
 40
5.0
 40
5.0
 40
5.0
 40
6.0
 40
6.0
 40
6.0
 40
7.0
 40
7.0
 40
7.0
 40
8.0
 40
8.0
 40
8.0
 40
8.0
 10
98.78432343450532
 20
-150.6057942331818
 30
0.0
 10
98.78432343450532
 20
-150.6057942331818
 30
0.0
 10
98.2999430092792
 20
-150.6057942331818
 30
0.0
 10
98.2999430092792
 20
-150.6057942331818
 30
0.0
 10
98.27238224539719
 20
-150.6057942331818
 30
0.0
 10
97.95508895120569
 20
-150.6057942331818
 30
0.0
 10
97.74356008841134
 20
-150.6312879397727
 30
0.0
 10
97.74356008841134
 20
-150.6312879397727
 30
0.0
 10
97.74356008841134
 20
-150.4008110518095
 30
0.0
 10
97.74356008841134
 20
-150.4008110518095
 30
0.0
 10
97.9022067355071
 20
-150.4238931915607
 30
0.0
 10
98.09254826106716
 20
-150.4259602488518
 30
0.0
 10
98.2999430092792
 20
-150.4259602488518
 30
0.0
 10
98.2999430092792
 20
-150.4259602488518
 30
0.0
 10
98.78432343450532
 20
-150.4259602488518
 30
0.0
 10
98.78432343450532
 20
-150.4259602488518
 30
0.0
 10
98.97053084548307
 20
-150.4259602488518
 30
0.0
 10
99.15673825646083
 20
-150.4238931915607
 30
0.0
 10
99.34070635537317
 20
-150.4008110518095
 30
0.0
 10
99.34070635537317
 20
-150.4008110518095
 30
0.0
 10
99.34070635537317
 20
-150.6312879397727
 30
0.0
 10
99.34070635537317
 20
-150.6312879397727
 30
0.0
 10
99.15673825646083
 20
-150.607861290473
 30
0.0
 10
98.90920814584562
 20
-150.6057942331818
 30
0.0
 10
98.78432343450532
 20
-150.6057942331818
 30
0.0
  0
HATCH
  5
104
330
F3
100
AcDbEntity
  8
レイヤー 1
 62
    18
420
        0
440
 33554687
100
AcDbHatch
 10
0.0
 20
0.0
 30
0.0
210
0.0
220
0.0
230
1.0
  2
SOLID
 70
     1
 71
     1
 91
        1
 92
        1
 93
        1
 72
     4
 94
        3
 73
     0
 74
     0
 95
       29
 96
       25
 40
0.0
 40
0.0
 40
0.0
 40
0.0
 40
1.0
 40
1.0
 40
1.0
 40
2.0
 40
2.0
 40
2.0
 40
3.0
 40
3.0
 40
3.0
 40
4.0
 40
4.0
 40
4.0
 40
5.0
 40
5.0
 40
5.0
 40
6.0
 40
6.0
 40
6.0
 40
7.0
 40
7.0
 40
7.0
 40
8.0
 40
8.0
 40
8.0
 40
8.0
 10
98.78432343450532
 20
-150.6057942331818
 10
98.78432343450532
 20
-150.6057942331818
 10
98.2999430092792
 20
-150.6057942331818
 10
98.2999430092792
 20
-150.6057942331818
 10
98.27238224539719
 20
-150.6057942331818
 10
97.95508895120569
 20
-150.6057942331818
 10
97.74356008841134
 20
-150.6312879397727
 10
97.74356008841134
 20
-150.6312879397727
 10
97.74356008841134
 20
-150.4008110518095
 10
97.74356008841134
 20
-150.4008110518095
 10
97.9022067355071
 20
-150.4238931915607
 10
98.09254826106716
 20
-150.4259602488518
 10
98.2999430092792
 20
-150.4259602488518
 10
98.2999430092792
 20
-150.4259602488518
 10
98.78432343450532
 20
-150.4259602488518
 10
98.78432343450532
 20
-150.4259602488518
 10
98.97053084548307
 20
-150.4259602488518
 10
99.15673825646083
 20
-150.4238931915607
 10
99.34070635537317
 20
-150.4008110518095
 10
99.34070635537317
 20
-150.4008110518095
 10
99.34070635537317
 20
-150.6312879397727
 10
99.34070635537317
 20
-150.6312879397727
 10
99.15673825646083
 20
-150.607861290473
 10
98.90920814584562
 20
-150.6057942331818
 10
98.78432343450532
 20
-150.6057942331818
 97
        0
 97
        1
330
103
 75
     2
 76
     1
 98
        1
 10
0.0
 20
0.0
450
        0
451
        0
460
0.0
461
0.0
452
        0
462
0.0
453
        0
470

  0
SPLINE
  5
105
330
F3
100
AcDbEntity
  8
レイヤー 1
100
AcDbSpline
210
0.0
220
0.0
230
1.0
 70
     9
 71
     3
 72
    47
 73
    43
 74
     0
 42
0.0000000001
 43
0.0000000001
 40
0.0
 40
0.0
 40
0.0
 40
0.0
 40
1.0
 40
1.0
 40
1.0
 40
2.0
 40
2.0
 40
2.0
 40
3.0
 40
3.0
 40
3.0
 40
4.0
 40
4.0
 40
4.0
 40
5.0
 40
5.0
 40
5.0
 40
6.0
 40
6.0
 40
6.0
 40
7.0
 40
7.0
 40
7.0
 40
8.0
 40
8.0
 40
8.0
 40
9.0
 40
9.0
 40
9.0
 40
10.0
 40
10.0
 40
10.0
 40
11.0
 40
11.0
 40
11.0
 40
12.0
 40
12.0
 40
12.0
 40
13.0
 40
13.0
 40
13.0
 40
14.0
 40
14.0
 40
14.0
 40
14.0
 10
101.0045152199745
 20
-150.0115152619763
 30
0.0
 10
100.934579781624
 20
-150.2905679962815
 30
0.0
 10
100.8584431714
 20
-150.5954589467261
 30
0.0
 10
100.545456246565
 20
-150.9275661515042
 30
0.0
 10
100.3084336771798
 20
-151.1769910646363
 30
0.0
 10
100.06314287863
 20
-151.27655432416
 30
0.0
 10
99.95737844723288
 20
-151.3189289986286
 30
0.0
 10
99.95737844723288
 20
-151.3189289986286
 30
0.0
 10
99.76273055231628
 20
-151.1370279570074
 30
0.0
 10
99.76273055231628
 20
-151.1370279570074
 30
0.0
 10
99.94876570851976
 20
-151.090174658408
 30
0.0
 10
100.3106729892452
 20
-150.9971570803062
 30
0.0
 10
100.6067789462025
 20
-150.5020968590758
 30
0.0
 10
100.7674926505893
 20
-150.235790978066
 30
0.0
 10
100.7802395038848
 20
-150.0621581656095
 30
0.0
 10
100.7886799878237
 20
-149.9712076447988
 30
0.0
 10
100.7886799878237
 20
-149.9712076447988
 30
0.0
 10
100.2831122253632
 20
-149.9712076447988
 30
0.0
 10
100.2831122253632
 20
-149.9712076447988
 30
0.0
 10
100.1646009406707
 20
-149.9712076447988
 30
0.0
 10
99.74361027237314
 20
-149.9901556699677
 30
0.0
 10
99.59133705192508
 20
-150.000835465972
 30
0.0
 10
99.59133705192508
 20
-150.000835465972
 30
0.0
 10
99.59133705192508
 20
-149.7913736604688
 30
0.0
 10
99.59133705192508
 20
-149.7913736604688
 30
0.0
 10
99.73310273114313
 20
-149.8041205137642
 30
0.0
 10
100.0102606629315
 20
-149.8082546283465
 30
0.0
 10
100.1265326355586
 20
-149.8082546283465
 30
0.0
 10
100.1265326355586
 20
-149.8082546283465
 30
0.0
 10
100.4818942348622
 20
-149.8082546283465
 30
0.0
 10
100.4818942348622
 20
-149.8082546283465
 30
0.0
 10
100.5094549987441
 20
-149.8082546283465
 30
0.0
 10
100.6701687031311
 20
-149.8061875710554
 30
0.0
 10
100.7802395038848
 20
-149.7913736604688
 30
0.0
 10
100.8374280889399
 20
-149.7851724885953
 30
0.0
 10
100.8543090568177
 20
-149.765879953878
 30
0.0
 10
100.8775634513431
 20
-149.7427978141268
 30
0.0
 10
100.8775634513431
 20
-149.7427978141268
 30
0.0
 10
101.065837919612
 20
-149.8930039772837
 30
0.0
 10
101.065837919612
 20
-149.8930039772837
 30
0.0
 10
101.0510240090254
 20
-149.9226317984568
 30
0.0
 10
101.0405164677954
 20
-149.9415798236257
 30
0.0
 10
101.0045152199745
 20
-150.0115152619763
 30
0.0
  0
HATCH
  5
106
330
F3
100
AcDbEntity
  8
レイヤー 1
 62
    18
420
        0
440
 33554687
100
AcDbHatch
 10
0.0
 20
0.0
 30
0.0
210
0.0
220
0.0
230
1.0
  2
SOLID
 70
     1
 71
     1
 91
        1
 92
        1
 93
        1
 72
     4
 94
        3
 73
     0
 74
     0
 95
       47
 96
       43
 40
0.0
 40
0.0
 40
0.0
 40
0.0
 40
1.0
 40
1.0
 40
1.0
 40
2.0
 40
2.0
 40
2.0
 40
3.0
 40
3.0
 40
3.0
 40
4.0
 40
4.0
 40
4.0
 40
5.0
 40
5.0
 40
5.0
 40
6.0
 40
6.0
 40
6.0
 40
7.0
 40
7.0
 40
7.0
 40
8.0
 40
8.0
 40
8.0
 40
9.0
 40
9.0
 40
9.0
 40
10.0
 40
10.0
 40
10.0
 40
11.0
 40
11.0
 40
11.0
 40
12.0
 40
12.0
 40
12.0
 40
13.0
 40
13.0
 40
13.0
 40
14.0
 40
14.0
 40
14.0
 40
14.0
 10
101.0045152199745
 20
-150.0115152619763
 10
100.934579781624
 20
-150.2905679962815
 10
100.8584431714
 20
-150.5954589467261
 10
100.545456246565
 20
-150.9275661515042
 10
100.3084336771798
 20
-151.1769910646363
 10
100.06314287863
 20
-151.27655432416
 10
99.95737844723288
 20
-151.3189289986286
 10
99.95737844723288
 20
-151.3189289986286
 10
99.76273055231628
 20
-151.1370279570074
 10
99.76273055231628
 20
-151.1370279570074
 10
99.94876570851976
 20
-151.090174658408
 10
100.3106729892452
 20
-150.9971570803062
 10
100.6067789462025
 20
-150.5020968590758
 10
100.7674926505893
 20
-150.235790978066
 10
100.7802395038848
 20
-150.0621581656095
 10
100.7886799878237
 20
-149.9712076447988
 10
100.7886799878237
 20
-149.9712076447988
 10
100.2831122253632
 20
-149.9712076447988
 10
100.2831122253632
 20
-149.9712076447988
 10
100.1646009406707
 20
-149.9712076447988
 10
99.74361027237314
 20
-149.9901556699677
 10
99.59133705192508
 20
-150.000835465972
 10
99.59133705192508
 20
-150.000835465972
 10
99.59133705192508
 20
-149.7913736604688
 10
99.59133705192508
 20
-149.7913736604688
 10
99.73310273114313
 20
-149.8041205137642
 10
100.0102606629315
 20
-149.8082546283465
 10
100.1265326355586
 20
-149.8082546283465
 10
100.1265326355586
 20
-149.8082546283465
 10
100.4818942348622
 20
-149.8082546283465
 10
100.4818942348622
 20
-149.8082546283465
 10
100.5094549987441
 20
-149.8082546283465
 10
100.6701687031311
 20
-149.8061875710554
 10
100.7802395038848
 20
-149.7913736604688
 10
100.8374280889399
 20
-149.7851724885953
 10
100.8543090568177
 20
-149.765879953878
 10
100.8775634513431
 20
-149.7427978141268
 10
100.8775634513431
 20
-149.7427978141268
 10
101.065837919612
 20
-149.8930039772837
 10
101.065837919612
 20
-149.8930039772837
 10
101.0510240090254
 20
-149.9226317984568
 10
101.0405164677954
 20
-149.9415798236257
 10
101.0045152199745
 20
-150.0115152619763
 97
        0
 97
        1
330
105
 75
     2
 76
     1
 98
        1
 10
0.0
 20
0.0
450
        0
451
        0
460
0.0
461
0.0
452
        0
462
0.0
453
        0
470

  0
SPLINE
  5
107
330
F3
100
AcDbEntity
  8
レイヤー 1
100
AcDbSpline
210
0.0
220
0.0
230
1.0
 70
    11
 71
     3
 72
    17
 73
    13
 74
     0
 42
0.0000000001
 43
0.0000000001
 40
0.0
 40
0.0
 40
0.0
 40
0.0
 40
1.0
 40
1.0
 40
1.0
 40
2.0
 40
2.0
 40
2.0
 40
3.0
 40
3.0
 40
3.0
 40
4.0
 40
4.0
 40
4.0
 40
4.0
 10
101.3948445384533
 20
-149.7934407177599
 30
0.0
 10
101.3948445384533
 20
-149.8526963601062
 30
0.0
 10
101.4413533275042
 20
-149.8992051491571
 30
0.0
 10
101.5006089698505
 20
-149.8992051491571
 30
0.0
 10
101.5598646121968
 20
-149.8992051491571
 30
0.0
 10
101.6084404585388
 20
-149.8526963601062
 30
0.0
 10
101.6084404585388
 20
-149.7934407177599
 30
0.0
 10
101.6084404585388
 20
-149.7341850754136
 30
0.0
 10
101.5598646121968
 20
-149.6856092290717
 30
0.0
 10
101.5006089698505
 20
-149.6856092290717
 30
0.0
 10
101.4413533275042
 20
-149.6856092290717
 30
0.0
 10
101.3948445384533
 20
-149.7341850754136
 30
0.0
 10
101.3948445384533
 20
-149.7934407177599
 30
0.0
  0
SPLINE
  5
108
330
F3
100
AcDbEntity
  8
レイヤー 1
100
AcDbSpline
210
0.0
220
0.0
230
1.0
 70
     9
 71
     3
 72
    17
 73
    13
 74
     0
 42
0.0000000001
 43
0.0000000001
 40
0.0
 40
0.0
 40
0.0
 40
0.0
 40
1.0
 40
1.0
 40
1.0
 40
2.0
 40
2.0
 40
2.0
 40
3.0
 40
3.0
 40
3.0
 40
4.0
 40
4.0
 40
4.0
 40
4.0
 10
101.7098985205795
 20
-149.7934407177599
 30
0.0
 10
101.7098985205795
 20
-149.9078178878702
 30
0.0
 10
101.6168809424777
 20
-150.0029025232632
 30
0.0
 10
101.5006089698505
 20
-150.0029025232632
 30
0.0
 10
101.3862317997402
 20
-150.0029025232632
 30
0.0
 10
101.2911471643473
 20
-149.9078178878702
 30
0.0
 10
101.2911471643473
 20
-149.7934407177599
 30
0.0
 10
101.2911471643473
 20
-149.6769964903585
 30
0.0
 10
101.3862317997402
 20
-149.5839789122568
 30
0.0
 10
101.5006089698505
 20
-149.5839789122568
 30
0.0
 10
101.6148138851866
 20
-149.5839789122568
 30
0.0
 10
101.7098985205795
 20
-149.6769964903585
 30
0.0
 10
101.7098985205795
 20
-149.7934407177599
 30
0.0
  0
HATCH
  5
109
330
F3
100
AcDbEntity
  8
レイヤー 1
 62
    18
420
        0
440
 33554687
100
AcDbHatch
 10
0.0
 20
0.0
 30
0.0
210
0.0
220
0.0
230
1.0
  2
SOLID
 70
     1
 71
     1
 91
        2
 92
        1
 93
        1
 72
     4
 94
        3
 73
     0
 74
     0
 95
       17
 96
       13
 40
0.0
 40
0.0
 40
0.0
 40
0.0
 40
1.0
 40
1.0
 40
1.0
 40
2.0
 40
2.0
 40
2.0
 40
3.0
 40
3.0
 40
3.0
 40
4.0
 40
4.0
 40
4.0
 40
4.0
 10
101.3948445384533
 20
-149.7934407177599
 10
101.3948445384533
 20
-149.8526963601062
 10
101.4413533275042
 20
-149.8992051491571
 10
101.5006089698505
 20
-149.8992051491571
 10
101.5598646121968
 20
-149.8992051491571
 10
101.6084404585388
 20
-149.8526963601062
 10
101.6084404585388
 20
-149.7934407177599
 10
101.6084404585388
 20
-149.7341850754136
 10
101.5598646121968
 20
-149.6856092290717
 10
101.5006089698505
 20
-149.6856092290717
 10
101.4413533275042
 20
-149.6856092290717
 10
101.3948445384533
 20
-149.7341850754136
 10
101.3948445384533
 20
-149.7934407177599
 97
        0
 97
        1
330
107
 92
        1
 93
        1
 72
     4
 94
        3
 73
     0
 74
     0
 95
       17
 96
       13
 40
0.0
 40
0.0
 40
0.0
 40
0.0
 40
1.0
 40
1.0
 40
1.0
 40
2.0
 40
2.0
 40
2.0
 40
3.0
 40
3.0
 40
3.0
 40
4.0
 40
4.0
 40
4.0
 40
4.0
 10
101.7098985205795
 20
-149.7934407177599
 10
101.7098985205795
 20
-149.9078178878702
 10
101.6168809424777
 20
-150.0029025232632
 10
101.5006089698505
 20
-150.0029025232632
 10
101.3862317997402
 20
-150.0029025232632
 10
101.2911471643473
 20
-149.9078178878702
 10
101.2911471643473
 20
-149.7934407177599
 10
101.2911471643473
 20
-149.6769964903585
 10
101.3862317997402
 20
-149.5839789122568
 10
101.5006089698505
 20
-149.5839789122568
 10
101.6148138851866
 20
-149.5839789122568
 10
101.7098985205795
 20
-149.6769964903585
 10
101.7098985205795
 20
-149.7934407177599
 97
        0
 97
        1
330
108
 75
     2
 76
     1
 98
        1
 10
0.0
 20
0.0
450
        0
451
        0
460
0.0
461
0.0
452
        0
462
0.0
453
        0
470

  0
ENDBLK
  5
F6
330
F3
100
AcDbEntity
  8
0
100
AcDbBlockEnd
  0
ENDSEC
  0
SECTION
  2
ENTITIES
  0
INSERT
  5
7A
330
70
100
AcDbEntity
  8
レイヤー 1
100
AcDbBlockReference
  2
Block_0
 10
0.0
 20
0.0
 30
0.0
  0
LINE
  5
E6
330
70
100
AcDbEntity
  8
レイヤー 1
  6
AI-Linetype-0
 62
   154
420
    23468
370
    25
100
AcDbLine
 10
91.99596108092672
 20
-153.6699900328897
 30
0.0
 11
101.9303183879758
 21
-153.6699900328897
 31
0.0
  0
INSERT
  5
E9
330
70
100
AcDbEntity
  8
レイヤー 1
100
AcDbBlockReference
  2
Block_12
 10
0.0
 20
0.0
 30
0.0
  0
INSERT
  5
F0
330
70
100
AcDbEntity
  8
レイヤー 1
100
AcDbBlockReference
  2
Block_13
 10
0.0
 20
0.0
 30
0.0
  0
LWPOLYLINE
  5
10A
330
70
100
AcDbEntity
  8
レイヤー 1
100
AcDbPolyline
 90
        4
 70
     1
 43
0.0
 10
120.5725640043366
 20
-153.7765573061121
 10
116.5725640053368
 20
-153.7765573061121
 10
116.5725640053368
 20
-153.2765573062375
 10
120.5725640043366
 20
-153.2765573062375
  0
HATCH
  5
10B
330
70
100
AcDbEntity
  8
レイヤー 1
 62
   250
420
  2299925
440
 33554687
100
AcDbHatch
 10
0.0
 20
0.0
 30
0.0
210
0.0
220
0.0
230
1.0
  2
SOLID
 70
     1
 71
     1
 91
        1
 92
        1
 93
        4
 72
     1
 10
120.5725640043366
 20
-153.7765573061121
 11
116.5725640053368
 21
-153.7765573061121
 72
     1
 10
116.5725640053368
 20
-153.7765573061121
 11
116.5725640053368
 21
-153.2765573062375
 72
     1
 10
116.5725640053368
 20
-153.2765573062375
 11
120.5725640043366
 21
-153.2765573062375
 72
     1
 10
120.5725640043366
 20
-153.2765573062375
 11
120.5725640043366
 21
-153.7765573061121
 97
        1
330
10A
 75
     2
 76
     1
 98
        1
 10
0.0
 20
0.0
450
        0
451
        0
460
0.0
461
0.0
452
        0
462
0.0
453
        0
470

  0
LWPOLYLINE
  5
10C
330
70
100
AcDbEntity
  8
レイヤー 1
100
AcDbPolyline
 90
        4
 70
     1
 43
0.0
 10
120.5717331845552
 20
-153.3025874652388
 10
120.5717331843755
 20
-157.3025874642391
 10
120.0717331845003
 20
-157.302587464216
 10
120.07173318468
 20
-153.3025874652163
  0
HATCH
  5
10D
330
70
100
AcDbEntity
  8
レイヤー 1
 62
   250
420
  2299925
440
 33554687
100
AcDbHatch
 10
0.0
 20
0.0
 30
0.0
210
0.0
220
0.0
230
1.0
  2
SOLID
 70
     1
 71
     1
 91
        1
 92
        1
 93
        4
 72
     1
 10
120.5717331845552
 20
-153.3025874652388
 11
120.5717331843755
 21
-157.3025874642391
 72
     1
 10
120.5717331843755
 20
-157.3025874642391
 11
120.0717331845003
 21
-157.302587464216
 72
     1
 10
120.0717331845003
 20
-157.302587464216
 11
120.07173318468
 21
-153.3025874652163
 72
     1
 10
120.07173318468
 20
-153.3025874652163
 11
120.5717331845552
 21
-153.3025874652388
 97
        1
330
10C
 75
     2
 76
     1
 98
        1
 10
0.0
 20
0.0
450
        0
451
        0
460
0.0
461
0.0
452
        0
462
0.0
453
        0
470

  0
LWPOLYLINE
  5
10E
330
70
100
AcDbEntity
  8
レイヤー 1
100
AcDbPolyline
 90
        4
 70
     1
 43
0.0
 10
128.5698813076032
 20
-157.016476250323
 10
120.0698813097279
 20
-157.3164762502476
 10
120.0698813097279
 20
-156.8164762503724
 10
128.5698813076032
 20
-156.8164762503724
  0
HATCH
  5
10F
330
70
100
AcDbEntity
  8
レイヤー 1
 62
   250
420
  2299925
440
 33554687
100
AcDbHatch
 10
0.0
 20
0.0
 30
0.0
210
0.0
220
0.0
230
1.0
  2
SOLID
 70
     1
 71
     1
 91
        1
 92
        1
 93
        4
 72
     1
 10
128.5698813076032
 20
-157.016476250323
 11
120.0698813097279
 21
-157.3164762502476
 72
     1
 10
120.0698813097279
 20
-157.3164762502476
 11
120.0698813097279
 21
-156.8164762503724
 72
     1
 10
120.0698813097279
 20
-156.8164762503724
 11
128.5698813076032
 21
-156.8164762503724
 72
     1
 10
128.5698813076032
 20
-156.8164762503724
 11
128.5698813076032
 21
-157.016476250323
 97
        1
330
10E
 75
     2
 76
     1
 98
        1
 10
0.0
 20
0.0
450
        0
451
        0
460
0.0
461
0.0
452
        0
462
0.0
453
        0
470

  0
LINE
  5
110
330
70
100
AcDbEntity
  8
レイヤー 1
 62
   250
420
  2299925
370
     9
100
AcDbLine
 10
120.5635602773508
 20
-153.3611261444167
 30
0.0
 11
126.7629472516136
 21
-149.6361586496002
 31
0.0
  0
LINE
  5
111
330
70
100
AcDbEntity
  8
レイヤー 1
 62
   250
420
  2299925
370
     9
100
AcDbLine
 10
116.6181962943477
 20
-153.3111315214779
 30
0.0
 11
122.7344300111885
 21
-149.6361206908971
 31
0.0
  0
LWPOLYLINE
  5
112
330
70
100
AcDbEntity
  8
レイヤー 1
 62
   250
420
  2299925
370
     9
100
AcDbPolyline
 90
        3
 70
     0
 43
0.0
 10
120.6135602773388
 20
-156.8098210201708
 10
129.9472747981903
 20
-151.2015595355414
 10
133.3904085965335
 20
-149.1327160301469
  0
LINE
  5
113
330
70
100
AcDbEntity
  8
レイヤー 1
 62
   250
420
  2299925
370
     9
100
AcDbLine
 10
128.5085129858342
 20
-156.8598210201581
 30
0.0
 11
136.4538445052028
 21
-152.0857842052185
 31
0.0
  0
LINE
  5
114
330
70
100
AcDbEntity
  8
レイヤー 1
 62
   250
420
  2299925
370
     9
100
AcDbLine
 10
128.5585129882638
 20
-156.9598210250174
 30
0.0
 11
136.4950211513475
 21
-152.1910858173964
 31
0.0
  0
SPLINE
  5
115
330
70
100
AcDbEntity
  8
レイヤー 1
 62
   250
420
  2299925
370
     9
100
AcDbSpline
210
0.0
220
0.0
230
1.0
 70
     9
 71
     3
 72
    17
 73
    13
 74
     0
 42
0.0000000001
 43
0.0000000001
 40
0.0
 40
0.0
 40
0.0
 40
0.0
 40
1.0
 40
1.0
 40
1.0
 40
2.0
 40
2.0
 40
2.0
 40
3.0
 40
3.0
 40
3.0
 40
4.0
 40
4.0
 40
4.0
 40
4.0
 10
124.9331167401412
 20
-155.5059858240845
 30
0.0
 10
125.0212399867775
 20
-155.7249246894725
 30
0.0
 10
124.7864339928595
 20
-156.0255092614061
 30
0.0
 10
124.4086781133709
 20
-156.1775566125104
 30
0.0
 10
124.0309476580612
 20
-156.3295937303425
 30
0.0
 10
123.6540338958577
 20
-156.275227347423
 30
0.0
 10
123.565910649222
 20
-156.056288482035
 30
0.0
 10
123.4778005749703
 20
-155.8373823429348
 30
0.0
 10
123.7116754230909
 20
-155.5363739666254
 30
0.0
 10
124.0894058784006
 20
-155.3843368487932
 30
0.0
 10
124.4671617578898
 20
-155.2322894976876
 30
0.0
 10
124.8450066658888
 20
-155.2870796849849
 30
0.0
 10
124.9331167401412
 20
-155.5059858240845
 30
0.0
  0
SPLINE
  5
116
330
70
100
AcDbEntity
  8
レイヤー 1
 62
   250
420
  2299925
370
     9
100
AcDbSpline
210
0.0
220
0.0
230
1.0
 70
     8
 71
     3
 72
    11
 73
     7
 74
     0
 42
0.0000000001
 43
0.0000000001
 40
0.0
 40
0.0
 40
0.0
 40
0.0
 40
1.0
 40
1.0
 40
1.0
 40
2.0
 40
2.0
 40
2.0
 40
2.0
 10
123.7724347367199
 20
-156.2262398311326
 30
0.0
 10
123.7724347367199
 20
-156.2262398311326
 30
0.0
 10
123.5603226252155
 20
-155.7583050832048
 30
0.0
 10
124.3492573357986
 20
-155.487342126048
 30
0.0
 10
124.3492573357986
 20
-155.487342126048
 30
0.0
 10
124.8288392410923
 20
-155.3632167218149
 30
0.0
 10
124.8939150606626
 20
-155.751835133881
 30
0.0
  0
SPLINE
  5
117
330
70
100
AcDbEntity
  8
レイヤー 1
 62
   250
420
  2299925
370
     9
100
AcDbSpline
210
0.0
220
0.0
230
1.0
 70
     9
 71
     3
 72
    17
 73
    13
 74
     0
 42
0.0000000001
 43
0.0000000001
 40
0.0
 40
0.0
 40
0.0
 40
0.0
 40
1.0
 40
1.0
 40
1.0
 40
2.0
 40
2.0
 40
2.0
 40
3.0
 40
3.0
 40
3.0
 40
4.0
 40
4.0
 40
4.0
 40
4.0
 10
128.9606629057629
 20
-155.535570061141
 30
0.0
 10
129.0487861523992
 20
-155.754508926529
 30
0.0
 10
128.8139801584812
 20
-156.0550934984626
 30
0.0
 10
128.4362242789927
 20
-156.2071408495669
 30
0.0
 10
128.0584938236829
 20
-156.3591779673991
 30
0.0
 10
127.6815800614794
 20
-156.3048115844795
 30
0.0
 10
127.5934568148437
 20
-156.0858727190915
 30
0.0
 10
127.505346740592
 20
-155.8669665799913
 30
0.0
 10
127.7392215887126
 20
-155.5659582036819
 30
0.0
 10
128.1169520440223
 20
-155.4139210858497
 30
0.0
 10
128.4947079235115
 20
-155.2618737347442
 30
0.0
 10
128.8725528315105
 20
-155.3166639220414
 30
0.0
 10
128.9606629057629
 20
-155.535570061141
 30
0.0
  0
SPLINE
  5
118
330
70
100
AcDbEntity
  8
レイヤー 1
 62
   250
420
  2299925
370
     9
100
AcDbSpline
210
0.0
220
0.0
230
1.0
 70
     8
 71
     3
 72
    11
 73
     7
 74
     0
 42
0.0000000001
 43
0.0000000001
 40
0.0
 40
0.0
 40
0.0
 40
0.0
 40
1.0
 40
1.0
 40
1.0
 40
2.0
 40
2.0
 40
2.0
 40
2.0
 10
127.7999809023416
 20
-156.2558240681891
 30
0.0
 10
127.7999809023416
 20
-156.2558240681891
 30
0.0
 10
127.5878687908372
 20
-155.7878893202613
 30
0.0
 10
128.3768035014203
 20
-155.5169263631045
 30
0.0
 10
128.3768035014203
 20
-155.5169263631045
 30
0.0
 10
128.856385406714
 20
-155.3928009588714
 30
0.0
 10
128.9214612262843
 20
-155.7814193709375
 30
0.0
  0
SPLINE
  5
119
330
70
100
AcDbEntity
  8
レイヤー 1
 62
   250
420
  2299925
370
     9
100
AcDbSpline
210
0.0
220
0.0
230
1.0
 70
     9
 71
     3
 72
    17
 73
    13
 74
     0
 42
0.0000000001
 43
0.0000000001
 40
0.0
 40
0.0
 40
0.0
 40
0.0
 40
1.0
 40
1.0
 40
1.0
 40
2.0
 40
2.0
 40
2.0
 40
3.0
 40
3.0
 40
3.0
 40
4.0
 40
4.0
 40
4.0
 40
4.0
 10
128.3360110559671
 20
-154.7018968667048
 30
0.0
 10
128.4241869921374
 20
-154.9209666372434
 30
0.0
 10
128.188900362277
 20
-155.2221629760479
 30
0.0
 10
127.8117953574735
 20
-155.3739483490416
 30
0.0
 10
127.4340358269311
 20
-155.5259971697022
 30
0.0
 10
127.0569771685083
 20
-155.4712707976161
 30
0.0
 10
126.9688012323379
 20
-155.2522010270775
 30
0.0
 10
126.8806252961675
 20
-155.0331312565382
 30
0.0
 10
127.11482945388
 20
-154.7329410374228
 30
0.0
 10
127.4925889844218
 20
-154.5808922167629
 30
0.0
 10
127.869693989226
 20
-154.4291068437686
 30
0.0
 10
128.2478351197974
 20
-154.4828270961656
 30
0.0
 10
128.3360110559671
 20
-154.7018968667048
 30
0.0
  0
SPLINE
  5
11A
330
70
100
AcDbEntity
  8
レイヤー 1
 62
   250
420
  2299925
370
     9
100
AcDbSpline
210
0.0
220
0.0
230
1.0
 70
     8
 71
     3
 72
    11
 73
     7
 74
     0
 42
0.0000000001
 43
0.0000000001
 40
0.0
 40
0.0
 40
0.0
 40
0.0
 40
1.0
 40
1.0
 40
1.0
 40
2.0
 40
2.0
 40
2.0
 40
2.0
 10
127.1754570436718
 20
-155.4224796390526
 30
0.0
 10
127.1754570436718
 20
-155.4224796390526
 30
0.0
 10
126.963924124282
 20
-154.9540835962038
 30
0.0
 10
127.7529014422027
 20
-154.6833316586838
 30
0.0
 10
127.7529014422027
 20
-154.6833316586838
 30
0.0
 10
128.2330915652205
 20
-154.5587332766749
 30
0.0
 10
128.2969900571478
 20
-154.9482058469522
 30
0.0
  0
SPLINE
  5
11B
330
70
100
AcDbEntity
  8
レイヤー 1
 62
   250
420
  2299925
370
     9
100
AcDbSpline
210
0.0
220
0.0
230
1.0
 70
     9
 71
     3
 72
    17
 73
    13
 74
     0
 42
0.0000000001
 43
0.0000000001
 40
0.0
 40
0.0
 40
0.0
 40
0.0
 40
1.0
 40
1.0
 40
1.0
 40
2.0
 40
2.0
 40
2.0
 40
3.0
 40
3.0
 40
3.0
 40
4.0
 40
4.0
 40
4.0
 40
4.0
 10
127.6108557278712
 20
-153.8970379182575
 30
0.0
 10
127.6989789745076
 20
-154.1159767836455
 30
0.0
 10
127.4641729805896
 20
-154.4165613555791
 30
0.0
 10
127.086417101101
 20
-154.5686087066834
 30
0.0
 10
126.7086866457913
 20
-154.7206458245155
 30
0.0
 10
126.3317728835878
 20
-154.666279441596
 30
0.0
 10
126.2436496369521
 20
-154.447340576208
 30
0.0
 10
126.1555395627004
 20
-154.2284344371078
 30
0.0
 10
126.389414410821
 20
-153.9274260607984
 30
0.0
 10
126.7671448661307
 20
-153.7753889429662
 30
0.0
 10
127.1449007456199
 20
-153.6233415918606
 30
0.0
 10
127.5227456536189
 20
-153.6781317791579
 30
0.0
 10
127.6108557278712
 20
-153.8970379182575
 30
0.0
  0
SPLINE
  5
11C
330
70
100
AcDbEntity
  8
レイヤー 1
 62
   250
420
  2299925
370
     9
100
AcDbSpline
210
0.0
220
0.0
230
1.0
 70
     8
 71
     3
 72
    11
 73
     7
 74
     0
 42
0.0000000001
 43
0.0000000001
 40
0.0
 40
0.0
 40
0.0
 40
0.0
 40
1.0
 40
1.0
 40
1.0
 40
2.0
 40
2.0
 40
2.0
 40
2.0
 10
126.45017372445
 20
-154.6172919253056
 30
0.0
 10
126.45017372445
 20
-154.6172919253056
 30
0.0
 10
126.2380616129456
 20
-154.1493571773778
 30
0.0
 10
127.0269963235286
 20
-153.878394220221
 30
0.0
 10
127.0269963235286
 20
-153.878394220221
 30
0.0
 10
127.5065782288224
 20
-153.7542688159879
 30
0.0
 10
127.5716540483927
 20
-154.142887228054
 30
0.0
  0
SPLINE
  5
11D
330
70
100
AcDbEntity
  8
レイヤー 1
 62
   250
420
  2299925
370
     9
100
AcDbSpline
210
0.0
220
0.0
230
1.0
 70
     9
 71
     3
 72
    17
 73
    13
 74
     0
 42
0.0000000001
 43
0.0000000001
 40
0.0
 40
0.0
 40
0.0
 40
0.0
 40
1.0
 40
1.0
 40
1.0
 40
2.0
 40
2.0
 40
2.0
 40
3.0
 40
3.0
 40
3.0
 40
4.0
 40
4.0
 40
4.0
 40
4.0
 10
131.638401893493
 20
-153.926622155314
 30
0.0
 10
131.7265251401293
 20
-154.145561020702
 30
0.0
 10
131.4917191462113
 20
-154.4461455926356
 30
0.0
 10
131.1139632667227
 20
-154.5981929437399
 30
0.0
 10
130.736232811413
 20
-154.7502300615721
 30
0.0
 10
130.3593190492095
 20
-154.6958636786525
 30
0.0
 10
130.2711958025738
 20
-154.4769248132645
 30
0.0
 10
130.1830857283221
 20
-154.2580186741643
 30
0.0
 10
130.4169605764427
 20
-153.9570102978549
 30
0.0
 10
130.7946910317524
 20
-153.8049731800227
 30
0.0
 10
131.1724469112416
 20
-153.6529258289172
 30
0.0
 10
131.5502918192406
 20
-153.7077160162144
 30
0.0
 10
131.638401893493
 20
-153.926622155314
 30
0.0
  0
SPLINE
  5
11E
330
70
100
AcDbEntity
  8
レイヤー 1
 62
   250
420
  2299925
370
     9
100
AcDbSpline
210
0.0
220
0.0
230
1.0
 70
     8
 71
     3
 72
    11
 73
     7
 74
     0
 42
0.0000000001
 43
0.0000000001
 40
0.0
 40
0.0
 40
0.0
 40
0.0
 40
1.0
 40
1.0
 40
1.0
 40
2.0
 40
2.0
 40
2.0
 40
2.0
 10
130.4777198900717
 20
-154.6468761623621
 30
0.0
 10
130.4777198900717
 20
-154.6468761623621
 30
0.0
 10
130.2656077785673
 20
-154.1789414144343
 30
0.0
 10
131.0545424891504
 20
-153.9079784572775
 30
0.0
 10
131.0545424891504
 20
-153.9079784572775
 30
0.0
 10
131.5341243944441
 20
-153.7838530530445
 30
0.0
 10
131.5992002140144
 20
-154.1724714651105
 30
0.0
  0
SPLINE
  5
11F
330
70
100
AcDbEntity
  8
レイヤー 1
 62
   250
420
  2299925
370
     9
100
AcDbSpline
210
0.0
220
0.0
230
1.0
 70
     9
 71
     3
 72
    17
 73
    13
 74
     0
 42
0.0000000001
 43
0.0000000001
 40
0.0
 40
0.0
 40
0.0
 40
0.0
 40
1.0
 40
1.0
 40
1.0
 40
2.0
 40
2.0
 40
2.0
 40
3.0
 40
3.0
 40
3.0
 40
4.0
 40
4.0
 40
4.0
 40
4.0
 10
131.0137500436971
 20
-153.0929489608778
 30
0.0
 10
131.1019259798675
 20
-153.3120187314164
 30
0.0
 10
130.8666393500071
 20
-153.613215070221
 30
0.0
 10
130.4895343452035
 20
-153.7650004432146
 30
0.0
 10
130.1117748146612
 20
-153.9170492638752
 30
0.0
 10
129.7347161562383
 20
-153.8623228917891
 30
0.0
 10
129.646540220068
 20
-153.6432531212505
 30
0.0
 10
129.5583642838976
 20
-153.4241833507112
 30
0.0
 10
129.7925684416101
 20
-153.1239931315958
 30
0.0
 10
130.1703279721519
 20
-152.9719443109359
 30
0.0
 10
130.5474329769561
 20
-152.8201589379416
 30
0.0
 10
130.9255741075274
 20
-152.8738791903386
 30
0.0
 10
131.0137500436971
 20
-153.0929489608778
 30
0.0
  0
SPLINE
  5
120
330
70
100
AcDbEntity
  8
レイヤー 1
 62
   250
420
  2299925
370
     9
100
AcDbSpline
210
0.0
220
0.0
230
1.0
 70
     8
 71
     3
 72
    11
 73
     7
 74
     0
 42
0.0000000001
 43
0.0000000001
 40
0.0
 40
0.0
 40
0.0
 40
0.0
 40
1.0
 40
1.0
 40
1.0
 40
2.0
 40
2.0
 40
2.0
 40
2.0
 10
129.8531960314018
 20
-153.8135317332256
 30
0.0
 10
129.8531960314018
 20
-153.8135317332256
 30
0.0
 10
129.641663112012
 20
-153.3451356903768
 30
0.0
 10
130.4306404299328
 20
-153.0743837528568
 30
0.0
 10
130.4306404299328
 20
-153.0743837528568
 30
0.0
 10
130.9108305529506
 20
-152.9497853708479
 30
0.0
 10
130.9747290448779
 20
-153.3392579411252
 30
0.0
  0
SPLINE
  5
121
330
70
100
AcDbEntity
  8
レイヤー 1
 62
   250
420
  2299925
370
     9
100
AcDbSpline
210
0.0
220
0.0
230
1.0
 70
     9
 71
     3
 72
    17
 73
    13
 74
     0
 42
0.0000000001
 43
0.0000000001
 40
0.0
 40
0.0
 40
0.0
 40
0.0
 40
1.0
 40
1.0
 40
1.0
 40
2.0
 40
2.0
 40
2.0
 40
3.0
 40
3.0
 40
3.0
 40
4.0
 40
4.0
 40
4.0
 40
4.0
 10
130.2885947156013
 20
-152.2880900124305
 30
0.0
 10
130.3767179622377
 20
-152.5070288778185
 30
0.0
 10
130.1419119683197
 20
-152.8076134497521
 30
0.0
 10
129.7641560888311
 20
-152.9596608008564
 30
0.0
 10
129.3864256335214
 20
-153.1116979186885
 30
0.0
 10
129.0095118713179
 20
-153.057331535769
 30
0.0
 10
128.9213886246822
 20
-152.838392670381
 30
0.0
 10
128.8332785504304
 20
-152.6194865312808
 30
0.0
 10
129.067153398551
 20
-152.3184781549714
 30
0.0
 10
129.4448838538608
 20
-152.1664410371392
 30
0.0
 10
129.82263973335
 20
-152.0143936860336
 30
0.0
 10
130.2004846413489
 20
-152.0691838733309
 30
0.0
 10
130.2885947156013
 20
-152.2880900124305
 30
0.0
  0
SPLINE
  5
122
330
70
100
AcDbEntity
  8
レイヤー 1
 62
   250
420
  2299925
370
     9
100
AcDbSpline
210
0.0
220
0.0
230
1.0
 70
     8
 71
     3
 72
    11
 73
     7
 74
     0
 42
0.0000000001
 43
0.0000000001
 40
0.0
 40
0.0
 40
0.0
 40
0.0
 40
1.0
 40
1.0
 40
1.0
 40
2.0
 40
2.0
 40
2.0
 40
2.0
 10
129.12791271218
 20
-153.0083440194786
 30
0.0
 10
129.12791271218
 20
-153.0083440194786
 30
0.0
 10
128.9158006006757
 20
-152.5404092715508
 30
0.0
 10
129.7047353112587
 20
-152.269446314394
 30
0.0
 10
129.7047353112587
 20
-152.269446314394
 30
0.0
 10
130.1843172165525
 20
-152.1453209101609
 30
0.0
 10
130.2493930361228
 20
-152.533939322227
 30
0.0
  0
SPLINE
  5
123
330
70
100
AcDbEntity
  8
レイヤー 1
 62
   250
420
  2299925
370
     9
100
AcDbSpline
210
0.0
220
0.0
230
1.0
 70
     9
 71
     3
 72
    17
 73
    13
 74
     0
 42
0.0000000001
 43
0.0000000001
 40
0.0
 40
0.0
 40
0.0
 40
0.0
 40
1.0
 40
1.0
 40
1.0
 40
2.0
 40
2.0
 40
2.0
 40
3.0
 40
3.0
 40
3.0
 40
4.0
 40
4.0
 40
4.0
 40
4.0
 10
134.316140881223
 20
-152.317674249487
 30
0.0
 10
134.4042641278594
 20
-152.536613114875
 30
0.0
 10
134.1694581339414
 20
-152.8371976868086
 30
0.0
 10
133.7917022544528
 20
-152.9892450379129
 30
0.0
 10
133.4139717991431
 20
-153.1412821557451
 30
0.0
 10
133.0370580369396
 20
-153.0869157728255
 30
0.0
 10
132.9489347903039
 20
-152.8679769074375
 30
0.0
 10
132.8608247160522
 20
-152.6490707683373
 30
0.0
 10
133.0946995641727
 20
-152.3480623920279
 30
0.0
 10
133.4724300194825
 20
-152.1960252741957
 30
0.0
 10
133.8501858989717
 20
-152.0439779230902
 30
0.0
 10
134.2280308069706
 20
-152.0987681103874
 30
0.0
 10
134.316140881223
 20
-152.317674249487
 30
0.0
  0
SPLINE
  5
124
330
70
100
AcDbEntity
  8
レイヤー 1
 62
   250
420
  2299925
370
     9
100
AcDbSpline
210
0.0
220
0.0
230
1.0
 70
     8
 71
     3
 72
    11
 73
     7
 74
     0
 42
0.0000000001
 43
0.0000000001
 40
0.0
 40
0.0
 40
0.0
 40
0.0
 40
1.0
 40
1.0
 40
1.0
 40
2.0
 40
2.0
 40
2.0
 40
2.0
 10
133.1554588778018
 20
-153.0379282565351
 30
0.0
 10
133.1554588778018
 20
-153.0379282565351
 30
0.0
 10
132.9433467662974
 20
-152.5699935086073
 30
0.0
 10
133.7322814768804
 20
-152.2990305514506
 30
0.0
 10
133.7322814768804
 20
-152.2990305514506
 30
0.0
 10
134.2118633821741
 20
-152.1749051472175
 30
0.0
 10
134.2769392017445
 20
-152.5635235592835
 30
0.0
  0
SPLINE
  5
125
330
70
100
AcDbEntity
  8
レイヤー 1
 62
   250
420
  2299925
370
     9
100
AcDbSpline
210
0.0
220
0.0
230
1.0
 70
     9
 71
     3
 72
    17
 73
    13
 74
     0
 42
0.0000000001
 43
0.0000000001
 40
0.0
 40
0.0
 40
0.0
 40
0.0
 40
1.0
 40
1.0
 40
1.0
 40
2.0
 40
2.0
 40
2.0
 40
3.0
 40
3.0
 40
3.0
 40
4.0
 40
4.0
 40
4.0
 40
4.0
 10
133.6914890314272
 20
-151.4840010550508
 30
0.0
 10
133.7796649675976
 20
-151.7030708255894
 30
0.0
 10
133.5443783377372
 20
-152.004267164394
 30
0.0
 10
133.1672733329336
 20
-152.1560525373876
 30
0.0
 10
132.7895138023912
 20
-152.3081013580482
 30
0.0
 10
132.4124551439684
 20
-152.2533749859621
 30
0.0
 10
132.324279207798
 20
-152.0343052154235
 30
0.0
 10
132.2361032716277
 20
-151.8152354448842
 30
0.0
 10
132.4703074293402
 20
-151.5150452257688
 30
0.0
 10
132.848066959882
 20
-151.3629964051089
 30
0.0
 10
133.2251719646861
 20
-151.2112110321146
 30
0.0
 10
133.6033130952575
 20
-151.2649312845116
 30
0.0
 10
133.6914890314272
 20
-151.4840010550508
 30
0.0
  0
SPLINE
  5
126
330
70
100
AcDbEntity
  8
レイヤー 1
 62
   250
420
  2299925
370
     9
100
AcDbSpline
210
0.0
220
0.0
230
1.0
 70
     8
 71
     3
 72
    11
 73
     7
 74
     0
 42
0.0000000001
 43
0.0000000001
 40
0.0
 40
0.0
 40
0.0
 40
0.0
 40
1.0
 40
1.0
 40
1.0
 40
2.0
 40
2.0
 40
2.0
 40
2.0
 10
132.5309350191319
 20
-152.2045838273986
 30
0.0
 10
132.5309350191319
 20
-152.2045838273986
 30
0.0
 10
132.3194020997421
 20
-151.7361877845498
 30
0.0
 10
133.1083794176629
 20
-151.4654358470298
 30
0.0
 10
133.1083794176629
 20
-151.4654358470298
 30
0.0
 10
133.5885695406806
 20
-151.3408374650209
 30
0.0
 10
133.652468032608
 20
-151.7303100352982
 30
0.0
  0
SPLINE
  5
127
330
70
100
AcDbEntity
  8
レイヤー 1
 62
   250
420
  2299925
370
     9
100
AcDbSpline
210
0.0
220
0.0
230
1.0
 70
     9
 71
     3
 72
    17
 73
    13
 74
     0
 42
0.0000000001
 43
0.0000000001
 40
0.0
 40
0.0
 40
0.0
 40
0.0
 40
1.0
 40
1.0
 40
1.0
 40
2.0
 40
2.0
 40
2.0
 40
3.0
 40
3.0
 40
3.0
 40
4.0
 40
4.0
 40
4.0
 40
4.0
 10
132.9663337033314
 20
-150.6791421066035
 30
0.0
 10
133.0544569499677
 20
-150.8980809719915
 30
0.0
 10
132.8196509560497
 20
-151.1986655439251
 30
0.0
 10
132.4418950765612
 20
-151.3507128950294
 30
0.0
 10
132.0641646212514
 20
-151.5027500128615
 30
0.0
 10
131.6872508590479
 20
-151.448383629942
 30
0.0
 10
131.5991276124123
 20
-151.229444764554
 30
0.0
 10
131.5110175381605
 20
-151.0105386254538
 30
0.0
 10
131.7448923862811
 20
-150.7095302491444
 30
0.0
 10
132.1226228415908
 20
-150.5574931313122
 30
0.0
 10
132.50037872108
 20
-150.4054457802066
 30
0.0
 10
132.878223629079
 20
-150.4602359675039
 30
0.0
 10
132.9663337033314
 20
-150.6791421066035
 30
0.0
  0
SPLINE
  5
128
330
70
100
AcDbEntity
  8
レイヤー 1
 62
   250
420
  2299925
370
     9
100
AcDbSpline
210
0.0
220
0.0
230
1.0
 70
     8
 71
     3
 72
    11
 73
     7
 74
     0
 42
0.0000000001
 43
0.0000000001
 40
0.0
 40
0.0
 40
0.0
 40
0.0
 40
1.0
 40
1.0
 40
1.0
 40
2.0
 40
2.0
 40
2.0
 40
2.0
 10
131.8056516999101
 20
-151.3993961136516
 30
0.0
 10
131.8056516999101
 20
-151.3993961136516
 30
0.0
 10
131.5935395884058
 20
-150.9314613657238
 30
0.0
 10
132.3824742989888
 20
-150.6604984085671
 30
0.0
 10
132.3824742989888
 20
-150.6604984085671
 30
0.0
 10
132.8620562042825
 20
-150.536373004334
 30
0.0
 10
132.9271320238528
 20
-150.9249914164
 30
0.0
  0
ENDSEC
  0
SECTION
  2
OBJECTS
  0
DICTIONARY
  5
C
330
0
100
AcDbDictionary
281
     1
  3
ACAD_COLOR
350
63
  3
ACAD_DETAILVIEWSTYLE
350
6A
  3
ACAD_GROUP
350
D
  3
ACAD_LAYOUT
350
62
  3
ACAD_MATERIAL
350
10
  3
ACAD_MLEADERSTYLE
350
66
  3
ACAD_MLINESTYLE
350
5F
  3
ACAD_PLOTSETTINGS
350
61
  3
ACAD_PLOTSTYLENAME
350
E
  3
ACAD_SCALELIST
350
42
  3
ACAD_SECTIONVIEWSTYLE
350
68
  3
ACAD_TABLESTYLE
350
64
  3
ACAD_VISUALSTYLE
350
29
  3
ACDB_RECOMPOSE_DATA
350
131
  3
AcDbVariableDictionary
350
129
  0
DICTIONARY
  5
63
102
{ACAD_REACTORS
330
C
102
}
330
C
100
AcDbDictionary
281
     1
  0
DICTIONARY
  5
6A
102
{ACAD_REACTORS
330
C
102
}
330
C
100
AcDbDictionary
281
     1
  3
Imperial24
350
6B
  0
DICTIONARY
  5
D
102
{ACAD_REACTORS
330
C
102
}
330
C
100
AcDbDictionary
281
     1
  0
DICTIONARY
  5
62
102
{ACAD_REACTORS
330
C
102
}
330
C
100
AcDbDictionary
281
     1
  3
Layout1
350
6F
  3
Layout2
350
77
  3
Model
350
73
  0
DICTIONARY
  5
10
102
{ACAD_REACTORS
330
C
102
}
330
C
100
AcDbDictionary
281
     1
  3
ByBlock
350
19
  3
ByLayer
350
11
  3
Global
350
21
  0
DICTIONARY
  5
66
102
{ACAD_REACTORS
330
C
102
}
330
C
100
AcDbDictionary
281
     1
  3
Standard
350
67
  0
DICTIONARY
  5
5F
102
{ACAD_REACTORS
330
C
102
}
330
C
100
AcDbDictionary
281
     1
  3
Standard
350
60
  0
DICTIONARY
  5
61
102
{ACAD_REACTORS
330
C
102
}
330
C
100
AcDbDictionary
281
     1
  0
ACDBDICTIONARYWDFLT
  5
E
102
{ACAD_REACTORS
330
C
102
}
330
C
100
AcDbDictionary
281
     1
  3
Normal
350
F
100
AcDbDictionaryWithDefault
340
F
  0
DICTIONARY
  5
42
102
{ACAD_REACTORS
330
C
102
}
330
C
100
AcDbDictionary
281
     1
  3
A0
350
43
  3
A1
350
44
  3
A2
350
45
  3
A3
350
46
  3
A4
350
47
  3
A5
350
48
  3
A6
350
49
  3
A7
350
4A
  3
A8
350
4B
  3
A9
350
4C
  3
B0
350
4D
  3
B1
350
4E
  3
B2
350
4F
  3
B3
350
50
  3
B4
350
51
  3
B5
350
52
  3
B6
350
53
  0
DICTIONARY
  5
68
102
{ACAD_REACTORS
330
C
102
}
330
C
100
AcDbDictionary
281
     1
  3
Imperial24
350
69
  0
DICTIONARY
  5
64
102
{ACAD_REACTORS
330
C
102
}
330
C
100
AcDbDictionary
281
     1
  3
Standard
350
65
  0
DICTIONARY
  5
29
102
{ACAD_REACTORS
330
C
102
}
330
C
100
AcDbDictionary
281
     1
  3
2dWireframe
350
2F
  3
Basic
350
2E
  3
Brighten
350
35
  3
ColorChange
350
39
  3
Conceptual
350
32
  3
Dim
350
34
  3
EdgeColorOff
350
41
  3
Facepattern
350
38
  3
Flat
350
2A
  3
FlatWithEdges
350
2B
  3
Gouraud
350
2C
  3
GouraudWithEdges
350
2D
  3
Hidden
350
31
  3
JitterOff
350
3F
  3
Linepattern
350
37
  3
OverhangOff
350
40
  3
Realistic
350
33
  3
Shaded
350
3E
  3
Shaded with edges
350
3D
  3
Shades of Gray
350
3A
  3
Sketchy
350
3B
  3
Thicken
350
36
  3
Wireframe
350
30
  3
X-Ray
350
3C
  0
XRECORD
  5
131
102
{ACAD_REACTORS
330
C
102
}
330
C
100
AcDbXrecord
280
     1
 90
        1
330
65
  0
DICTIONARY
  5
129
102
{ACAD_REACTORS
330
C
102
}
330
C
100
AcDbDictionary
281
     1
  3
CANNOSCALE
350
12E
  3
CMLEADERSTYLE
350
12B
  3
CTABLESTYLE
350
12A
  3
CVIEWDETAILSTYLE
350
12C
  3
CVIEWSECTIONSTYLE
350
12D
  0
ACDBDETAILVIEWSTYLE
  5
6B
102
{ACAD_XDICTIONARY
360
166
102
}
102
{ACAD_REACTORS
330
6A
102
}
330
6A
100
AcDbModelDocViewStyle
 70
     0
  3
Imperial24
290
     0
100
AcDbDetailViewStyle
 70
     0
 71
     0
 90
        3
 71
     1
340
55
 62
   256
 40
0.24
340
0
 62
   256
 40
0.24
300

 40
0.36
280
     3
 71
     2
340
5D
 90
       25
 62
   256
 71
     3
340
55
 62
   256
 40
0.24
 90
        1
 40
0.75
 90
        1
300
%<\AcVar ViewType \f "%tc1">% %<\AcVar ViewDetailId>%\PSCALE %<\AcVar ViewScale \f "%sn">%
 71
     4
340
5D
 90
       25
 62
   256
340
5D
 90
       25
 62
   256
280
     0
  0
LAYOUT
  5
6F
102
{ACAD_REACTORS
330
62
102
}
330
62
100
AcDbPlotSettings
  1

  2

  4

  6

 40
0.0
 41
0.0
 42
0.0
 43
0.0
 44
0.0
 45
0.0
 46
0.0
 47
0.0
 48
0.0
 49
0.0
140
0.0
141
0.0
142
1.0
143
1.0
 70
   688
 72
     0
 73
     0
 74
     5
  7

 75
    16
147
1.0
 76
     0
 77
     2
 78
   300
148
0.0
149
0.0
100
AcDbLayout
  1
Layout1
 70
     1
 71
     1
 10
0.0
 20
0.0
 11
12.0
 21
9.0
 12
0.0
 22
0.0
 32
0.0
 14
0.0
 24
0.0
 34
0.0
 15
0.0
 25
0.0
 35
0.0
146
0.0
 13
0.0
 23
0.0
 33
0.0
 16
1.0
 26
0.0
 36
0.0
 17
0.0
 27
1.0
 37
0.0
 76
     0
330
6C
  0
LAYOUT
  5
77
102
{ACAD_REACTORS
330
62
102
}
330
62
100
AcDbPlotSettings
  1

  2

  4

  6

 40
0.0
 41
0.0
 42
0.0
 43
0.0
 44
0.0
 45
0.0
 46
0.0
 47
0.0
 48
0.0
 49
0.0
140
0.0
141
0.0
142
1.0
143
1.0
 70
   688
 72
     0
 73
     0
 74
     5
  7

 75
    16
147
1.0
 76
     0
 77
     2
 78
   300
148
0.0
149
0.0
100
AcDbLayout
  1
Layout2
 70
     1
 71
     2
 10
0.0
 20
0.0
 11
12.0
 21
9.0
 12
0.0
 22
0.0
 32
0.0
 14
0.0
 24
0.0
 34
0.0
 15
0.0
 25
0.0
 35
0.0
146
0.0
 13
0.0
 23
0.0
 33
0.0
 16
1.0
 26
0.0
 36
0.0
 17
0.0
 27
1.0
 37
0.0
 76
     0
330
74
  0
LAYOUT
  5
73
102
{ACAD_REACTORS
330
62
102
}
330
62
100
AcDbPlotSettings
  1

  2

  4

  6

 40
0.0
 41
0.0
 42
0.0
 43
0.0
 44
0.0
 45
0.0
 46
0.0
 47
0.0
 48
0.0
 49
0.0
140
0.0
141
0.0
142
1.0
143
1.0
 70
  1712
 72
     0
 73
     0
 74
     0
  7

 75
     0
147
1.0
 76
     0
 77
     2
 78
   300
148
0.0
149
0.0
100
AcDbLayout
  1
Model
 70
     1
 71
     0
 10
0.0
 20
0.0
 11
12.0
 21
9.0
 12
0.0
 22
0.0
 32
0.0
 14
0.0
 24
0.0
 34
0.0
 15
0.0
 25
0.0
 35
0.0
146
0.0
 13
0.0
 23
0.0
 33
0.0
 16
1.0
 26
0.0
 36
0.0
 17
0.0
 27
1.0
 37
0.0
 76
     0
330
70
  0
MATERIAL
  5
19
102
{ACAD_XDICTIONARY
360
1A
102
}
102
{ACAD_REACTORS
330
10
102
}
330
10
100
AcDbMaterial
  1
ByBlock
 72
     0
 43
0.0208333333333333
 43
0.0
 43
0.0
 43
0.0
 43
0.0
 43
0.0208333333333333
 43
0.0
 43
0.0
 43
0.0
 43
0.0
 43
1.0
 43
0.0
 43
0.0
 43
0.0
 43
0.0
 43
1.0
 77
     0
 47
0.0208333333333333
 47
0.0
 47
0.0
 47
0.0
 47
0.0
 47
0.0208333333333333
 47
0.0
 47
0.0
 47
0.0
 47
0.0
 47
1.0
 47
0.0
 47
0.0
 47
0.0
 47
0.0
 47
1.0
171
     0
 49
0.0208333333333333
 49
0.0
 49
0.0
 49
0.0
 49
0.0
 49
0.0208333333333333
 49
0.0
 49
0.0
 49
0.0
 49
0.0
 49
1.0
 49
0.0
 49
0.0
 49
0.0
 49
0.0
 49
1.0
175
     0
142
0.0208333333333333
142
0.0
142
0.0
142
0.0
142
0.0
142
0.0208333333333333
142
0.0
142
0.0
142
0.0
142
0.0
142
1.0
142
0.0
142
0.0
142
0.0
142
0.0
142
1.0
179
     0
144
0.0208333333333333
144
0.0
144
0.0
144
0.0
144
0.0
144
0.0208333333333333
144
0.0
144
0.0
144
0.0
144
0.0
144
1.0
144
0.0
144
0.0
144
0.0
144
0.0
144
1.0
147
0.0208333333333333
147
0.0
147
0.0
147
0.0
147
0.0
147
0.0208333333333333
147
0.0
147
0.0
147
0.0
147
0.0
147
1.0
147
0.0
147
0.0
147
0.0
147
0.0
147
1.0
  0
MATERIAL
  5
11
102
{ACAD_XDICTIONARY
360
12
102
}
102
{ACAD_REACTORS
330
10
102
}
330
10
100
AcDbMaterial
  1
ByLayer
 72
     0
 43
0.0208333333333333
 43
0.0
 43
0.0
 43
0.0
 43
0.0
 43
0.0208333333333333
 43
0.0
 43
0.0
 43
0.0
 43
0.0
 43
1.0
 43
0.0
 43
0.0
 43
0.0
 43
0.0
 43
1.0
 77
     0
 47
0.0208333333333333
 47
0.0
 47
0.0
 47
0.0
 47
0.0
 47
0.0208333333333333
 47
0.0
 47
0.0
 47
0.0
 47
0.0
 47
1.0
 47
0.0
 47
0.0
 47
0.0
 47
0.0
 47
1.0
171
     0
 49
0.0208333333333333
 49
0.0
 49
0.0
 49
0.0
 49
0.0
 49
0.0208333333333333
 49
0.0
 49
0.0
 49
0.0
 49
0.0
 49
1.0
 49
0.0
 49
0.0
 49
0.0
 49
0.0
 49
1.0
175
     0
142
0.0208333333333333
142
0.0
142
0.0
142
0.0
142
0.0
142
0.0208333333333333
142
0.0
142
0.0
142
0.0
142
0.0
142
1.0
142
0.0
142
0.0
142
0.0
142
0.0
142
1.0
179
     0
144
0.0208333333333333
144
0.0
144
0.0
144
0.0
144
0.0
144
0.0208333333333333
144
0.0
144
0.0
144
0.0
144
0.0
144
1.0
144
0.0
144
0.0
144
0.0
144
0.0
144
1.0
147
0.0208333333333333
147
0.0
147
0.0
147
0.0
147
0.0
147
0.0208333333333333
147
0.0
147
0.0
147
0.0
147
0.0
147
1.0
147
0.0
147
0.0
147
0.0
147
0.0
147
1.0
  0
MATERIAL
  5
21
102
{ACAD_XDICTIONARY
360
22
102
}
102
{ACAD_REACTORS
330
10
102
}
330
10
100
AcDbMaterial
  1
Global
 72
     0
 43
0.0208333333333333
 43
0.0
 43
0.0
 43
0.0
 43
0.0
 43
0.0208333333333333
 43
0.0
 43
0.0
 43
0.0
 43
0.0
 43
1.0
 43
0.0
 43
0.0
 43
0.0
 43
0.0
 43
1.0
 77
     0
 47
0.0208333333333333
 47
0.0
 47
0.0
 47
0.0
 47
0.0
 47
0.0208333333333333
 47
0.0
 47
0.0
 47
0.0
 47
0.0
 47
1.0
 47
0.0
 47
0.0
 47
0.0
 47
0.0
 47
1.0
171
     0
 49
0.0208333333333333
 49
0.0
 49
0.0
 49
0.0
 49
0.0
 49
0.0208333333333333
 49
0.0
 49
0.0
 49
0.0
 49
0.0
 49
1.0
 49
0.0
 49
0.0
 49
0.0
 49
0.0
 49
1.0
175
     0
142
0.0208333333333333
142
0.0
142
0.0
142
0.0
142
0.0
142
0.0208333333333333
142
0.0
142
0.0
142
0.0
142
0.0
142
1.0
142
0.0
142
0.0
142
0.0
142
0.0
142
1.0
179
     0
144
0.0208333333333333
144
0.0
144
0.0
144
0.0
144
0.0
144
0.0208333333333333
144
0.0
144
0.0
144
0.0
144
0.0
144
1.0
144
0.0
144
0.0
144
0.0
144
0.0
144
1.0
147
0.0208333333333333
147
0.0
147
0.0
147
0.0
147
0.0
147
0.0208333333333333
147
0.0
147
0.0
147
0.0
147
0.0
147
1.0
147
0.0
147
0.0
147
0.0
147
0.0
147
1.0
  0
MLEADERSTYLE
  5
67
102
{ACAD_XDICTIONARY
360
162
102
}
102
{ACAD_REACTORS
330
66
102
}
330
66
100
AcDbMLeaderStyle
179
     2
170
     2
171
     1
172
     0
 90
        2
 40
0.0
 41
0.0
173
     1
 91
-1056964608
340
5B
 92
       -2
290
     1
 42
0.09
291
     1
 43
0.36
  3
Standard
 44
0.18
300

342
55
174
     1
178
     6
175
     1
176
     0
 93
-1056964608
 45
0.18
292
     0
297
     0
 46
0.18
 94
-1056964608
 47
1.0
 49
1.0
140
1.0
293
     1
141
0.0
294
     1
177
     0
142
1.0
295
     0
296
     0
143
0.125
271
     0
272
     9
273
     9
  0
MLINESTYLE
  5
60
102
{ACAD_REACTORS
330
5F
102
}
330
5F
100
AcDbMlineStyle
  2
STANDARD
 70
     0
  3

 62
   256
 51
90.0
 52
90.0
 71
     2
 49
0.5
 62
   256
  6
BYLAYER
 49
-0.5
 62
   256
  6
BYLAYER
  0
ACDBPLACEHOLDER
  5
F
102
{ACAD_REACTORS
330
E
102
}
330
E
  0
SCALE
  5
43
102
{ACAD_REACTORS
330
42
102
}
330
42
100
AcDbScale
 70
     0
300
1:1
140
1.0
141
1.0
290
     1
  0
SCALE
  5
44
102
{ACAD_REACTORS
330
42
102
}
330
42
100
AcDbScale
 70
     0
300
1/128" = 1'-0"
140
0.0078125
141
12.0
290
     0
  0
SCALE
  5
45
102
{ACAD_REACTORS
330
42
102
}
330
42
100
AcDbScale
 70
     0
300
1/64" = 1'-0"
140
0.015625
141
12.0
290
     0
  0
SCALE
  5
46
102
{ACAD_REACTORS
330
42
102
}
330
42
100
AcDbScale
 70
     0
300
1/32" = 1'-0"
140
0.03125
141
12.0
290
     0
  0
SCALE
  5
47
102
{ACAD_REACTORS
330
42
102
}
330
42
100
AcDbScale
 70
     0
300
1/16" = 1'-0"
140
0.0625
141
12.0
290
     0
  0
SCALE
  5
48
102
{ACAD_REACTORS
330
42
102
}
330
42
100
AcDbScale
 70
     0
300
3/32" = 1'-0"
140
0.09375
141
12.0
290
     0
  0
SCALE
  5
49
102
{ACAD_REACTORS
330
42
102
}
330
42
100
AcDbScale
 70
     0
300
1/8" = 1'-0"
140
0.125
141
12.0
290
     0
  0
SCALE
  5
4A
102
{ACAD_REACTORS
330
42
102
}
330
42
100
AcDbScale
 70
     0
300
3/16" = 1'-0"
140
0.1875
141
12.0
290
     0
  0
SCALE
  5
4B
102
{ACAD_REACTORS
330
42
102
}
330
42
100
AcDbScale
 70
     0
300
1/4" = 1'-0"
140
0.25
141
12.0
290
     0
  0
SCALE
  5
4C
102
{ACAD_REACTORS
330
42
102
}
330
42
100
AcDbScale
 70
     0
300
3/8" = 1'-0"
140
0.375
141
12.0
290
     0
  0
SCALE
  5
4D
102
{ACAD_REACTORS
330
42
102
}
330
42
100
AcDbScale
 70
     0
300
1/2" = 1'-0"
140
0.5
141
12.0
290
     0
  0
SCALE
  5
4E
102
{ACAD_REACTORS
330
42
102
}
330
42
100
AcDbScale
 70
     0
300
3/4" = 1'-0"
140
0.75
141
12.0
290
     0
  0
SCALE
  5
4F
102
{ACAD_REACTORS
330
42
102
}
330
42
100
AcDbScale
 70
     0
300
1" = 1'-0"
140
1.0
141
12.0
290
     0
  0
SCALE
  5
50
102
{ACAD_REACTORS
330
42
102
}
330
42
100
AcDbScale
 70
     0
300
1-1/2" = 1'-0"
140
1.5
141
12.0
290
     0
  0
SCALE
  5
51
102
{ACAD_REACTORS
330
42
102
}
330
42
100
AcDbScale
 70
     0
300
3" = 1'-0"
140
3.0
141
12.0
290
     0
  0
SCALE
  5
52
102
{ACAD_REACTORS
330
42
102
}
330
42
100
AcDbScale
 70
     0
300
6" = 1'-0"
140
6.0
141
12.0
290
     0
  0
SCALE
  5
53
102
{ACAD_REACTORS
330
42
102
}
330
42
100
AcDbScale
 70
     0
300
1'-0" = 1'-0"
140
12.0
141
12.0
290
     0
  0
ACDBSECTIONVIEWSTYLE
  5
69
102
{ACAD_XDICTIONARY
360
164
102
}
102
{ACAD_REACTORS
330
68
102
}
330
68
100
AcDbModelDocViewStyle
 70
     0
  3
Imperial24
290
     0
100
AcDbSectionViewStyle
 70
     0
 71
     0
 90
       78
 71
     1
340
55
 62
   256
 40
0.24
340
0
340
0
 62
   256
 40
0.24
300
I, O, Q, S, X, Z
 40
0.48
 90
        3
 40
0.18
 90
        1
 71
     2
340
5D
 90
       25
 62
   256
340
5D
 90
       50
 62
   256
 40
0.24
 40
0.0
 40
0.24
 71
     3
340
55
 62
   256
 40
0.24
 90
        1
 40
0.75
 90
        1
300
%<\AcVar ViewType \f "%tc1">% %<\AcVar ViewSectionStartId>%-%<\AcVar ViewSectionEndId>%\PSCALE %<\AcVar ViewScale \f "%sn">%
 71
     4
 62
   256
 62
   257
300
ANSI31
 40
1.0
 90
        0
290
     0
290
     0
 90
        6
 40
0.0
 40
1.570796326794896
 40
0.2617993877991494
 40
1.308996938995747
 40
-0.2617993877991494
 40
1.832595714594046
  0
TABLESTYLE
  5
65
102
{ACAD_XDICTIONARY
360
12F
102
}
102
{ACAD_REACTORS
330
64
102
}
330
64
100
AcDbTableStyle
280
     0
  3
Standard
 70
     0
 71
     0
 40
0.06
 41
0.06
280
     0
281
     0
  7
Standard
140
0.18
170
     2
 62
     0
 63
     7
283
     0
 90
      512
 91
        0
  1

274
    -2
284
     1
 64
     0
275
    -2
285
     1
 65
     0
276
    -2
286
     1
 66
     0
277
    -2
287
     1
 67
     0
278
    -2
288
     1
 68
     0
279
    -2
289
     1
 69
     0
  7
Standard
140
0.25
170
     5
 62
     0
 63
     7
283
     0
 90
      512
 91
        0
  1

274
    -2
284
     1
 64
     0
275
    -2
285
     1
 65
     0
276
    -2
286
     1
 66
     0
277
    -2
287
     1
 67
     0
278
    -2
288
     1
 68
     0
279
    -2
289
     1
 69
     0
  7
Standard
140
0.18
170
     5
 62
     0
 63
     7
283
     0
 90
      512
 91
        0
  1

274
    -2
284
     1
 64
     0
275
    -2
285
     1
 65
     0
276
    -2
286
     1
 66
     0
277
    -2
287
     1
 67
     0
278
    -2
288
     1
 68
     0
279
    -2
289
     1
 69
     0
  0
VISUALSTYLE
  5
2F
102
{ACAD_XDICTIONARY
360
13C
102
}
102
{ACAD_REACTORS
330
29
102
}
330
29
100
AcDbVisualStyle
  2
2dWireframe
 70
     4
177
     2
291
     0
 71
     0
176
     1
 72
     2
176
     1
 73
     0
176
     1
 90
        0
176
     1
 40
0.6
176
     1
 41
30.0
176
     1
 63
     7
421
 16777215
176
     1
 74
     1
176
     1
 91
        4
176
     1
 64
     7
176
     1
 65
   257
176
     1
 75
     1
176
     1
175
     1
176
     1
 42
1.0
176
     1
 92
        0
176
     1
 66
   257
176
     1
 43
1.0
176
     1
 76
     1
176
     1
 77
     6
176
     1
 78
     2
176
     1
 67
     7
176
     1
 79
     5
176
     1
170
     0
176
     1
171
     0
176
     1
290
     0
176
     1
 93
        1
176
     1
 44
0.0
176
     1
173
     0
176
     1
1001
ACAD
1000
AcDbSavedByObjectVersion
1070
     0
  0
VISUALSTYLE
  5
2E
102
{ACAD_XDICTIONARY
360
13A
102
}
102
{ACAD_REACTORS
330
29
102
}
330
29
100
AcDbVisualStyle
  2
Basic
 70
     7
177
     2
291
     1
 71
     1
176
     1
 72
     0
176
     1
 73
     1
176
     1
 90
        0
176
     1
 40
0.6
176
     1
 41
30.0
176
     1
 63
     7
421
 16777215
176
     1
 74
     0
176
     1
 91
        4
176
     1
 64
     7
176
     1
 65
   257
176
     1
 75
     1
176
     1
175
     1
176
     1
 42
1.0
176
     1
 92
        8
176
     1
 66
     7
176
     1
 43
1.0
176
     1
 76
     1
176
     1
 77
     6
176
     1
 78
     2
176
     1
 67
     7
176
     1
 79
     5
176
     1
170
     0
176
     1
171
     0
176
     1
290
     0
176
     1
 93
        1
176
     1
 44
0.0
176
     1
173
     0
176
     1
1001
ACAD
1000
AcDbSavedByObjectVersion
1070
     0
  0
VISUALSTYLE
  5
35
102
{ACAD_XDICTIONARY
360
148
102
}
102
{ACAD_REACTORS
330
29
102
}
330
29
100
AcDbVisualStyle
  2
Brighten
 70
    12
177
     2
291
     1
 71
     2
176
     1
 72
     2
176
     1
 73
     0
176
     1
 90
        0
176
     1
 40
0.6
176
     1
 41
30.0
176
     1
 63
     7
421
 16777215
176
     1
 74
     1
176
     1
 91
        4
176
     1
 64
     7
176
     1
 65
   257
176
     1
 75
     1
176
     1
175
     1
176
     1
 42
1.0
176
     1
 92
        8
176
     1
 66
     7
176
     1
 43
1.0
176
     1
 76
     1
176
     1
 77
     6
176
     1
 78
     2
176
     1
 67
     7
176
     1
 79
     5
176
     1
170
     0
176
     1
171
     0
176
     1
290
     0
176
     1
 93
        1
176
     1
 44
50.0
176
     1
173
     0
176
     1
1001
ACAD
1000
AcDbSavedByObjectVersion
1070
     0
  0
VISUALSTYLE
  5
39
102
{ACAD_XDICTIONARY
360
150
102
}
102
{ACAD_REACTORS
330
29
102
}
330
29
100
AcDbVisualStyle
  2
ColorChange
 70
    16
177
     2
291
     1
 71
     2
176
     1
 72
     2
176
     1
 73
     3
176
     1
 90
        0
176
     1
 40
0.6
176
     1
 41
30.0
176
     1
 63
     8
421
  8421504
176
     1
 74
     1
176
     1
 91
        4
176
     1
 64
     7
176
     1
 65
   257
176
     1
 75
     1
176
     1
175
     1
176
     1
 42
1.0
176
     1
 92
        8
176
     1
 66
     8
424
  8421504
176
     1
 43
1.0
176
     1
 76
     1
176
     1
 77
     6
176
     1
 78
     2
176
     1
 67
     7
176
     1
 79
     5
176
     1
170
     0
176
     1
171
     0
176
     1
290
     0
176
     1
 93
        1
176
     1
 44
0.0
176
     1
173
     0
176
     1
1001
ACAD
1000
AcDbSavedByObjectVersion
1070
     0
  0
VISUALSTYLE
  5
32
102
{ACAD_XDICTIONARY
360
142
102
}
102
{ACAD_REACTORS
330
29
102
}
330
29
100
AcDbVisualStyle
  2
Conceptual
 70
     9
177
     2
291
     0
 71
     3
176
     1
 72
     2
176
     1
 73
     0
176
     1
 90
        0
176
     1
 40
0.6
176
     1
 41
30.0
176
     1
 63
     7
421
 16777215
176
     1
 74
     2
176
     1
 91
        2
176
     1
 64
     7
176
     1
 65
   257
176
     1
 75
     1
176
     1
175
     1
176
     1
 42
179.0
176
     1
 92
        8
176
     1
 66
     7
176
     1
 43
1.0
176
     1
 76
     1
176
     1
 77
     6
176
     1
 78
     2
176
     1
 67
     7
176
     1
 79
     3
176
     1
170
     0
176
     1
171
     0
176
     1
290
     0
176
     1
 93
        1
176
     1
 44
0.0
176
     1
173
     0
176
     1
1001
ACAD
1000
AcDbSavedByObjectVersion
1070
     0
  0
VISUALSTYLE
  5
34
102
{ACAD_XDICTIONARY
360
146
102
}
102
{ACAD_REACTORS
330
29
102
}
330
29
100
AcDbVisualStyle
  2
Dim
 70
    11
177
     2
291
     1
 71
     2
176
     1
 72
     2
176
     1
 73
     0
176
     1
 90
        0
176
     1
 40
0.6
176
     1
 41
30.0
176
     1
 63
     7
421
 16777215
176
     1
 74
     1
176
     1
 91
        4
176
     1
 64
     7
176
     1
 65
   257
176
     1
 75
     1
176
     1
175
     1
176
     1
 42
1.0
176
     1
 92
        8
176
     1
 66
     7
176
     1
 43
1.0
176
     1
 76
     1
176
     1
 77
     6
176
     1
 78
     2
176
     1
 67
     7
176
     1
 79
     5
176
     1
170
     0
176
     1
171
     0
176
     1
290
     0
176
     1
 93
        1
176
     1
 44
-50.0
176
     1
173
     0
176
     1
1001
ACAD
1000
AcDbSavedByObjectVersion
1070
     0
  0
VISUALSTYLE
  5
41
102
{ACAD_XDICTIONARY
360
160
102
}
102
{ACAD_REACTORS
330
29
102
}
330
29
100
AcDbVisualStyle
  2
EdgeColorOff
 70
    22
177
     2
291
     1
 71
     2
176
     0
 72
     2
176
     0
 73
     0
176
     0
 90
        0
176
     0
 40
0.6
176
     0
 41
30.0
176
     0
 63
     7
421
 16777215
176
     0
 74
     1
176
     0
 91
        4
176
     0
 64
     7
176
     0
 65
   257
176
     0
 75
     1
176
     0
175
     1
176
     0
 42
1.0
176
     0
 92
        8
176
     2
 66
     7
176
     0
 43
1.0
176
     0
 76
     1
176
     0
 77
     6
176
     0
 78
     2
176
     0
 67
     7
176
     0
 79
     5
176
     0
170
     0
176
     0
171
     0
176
     0
290
     0
176
     0
 93
        1
176
     0
 44
0.0
176
     0
173
     0
176
     0
1001
ACAD
1000
AcDbSavedByObjectVersion
1070
     0
  0
VISUALSTYLE
  5
38
102
{ACAD_XDICTIONARY
360
14E
102
}
102
{ACAD_REACTORS
330
29
102
}
330
29
100
AcDbVisualStyle
  2
Facepattern
 70
    15
177
     2
291
     1
 71
     2
176
     1
 72
     2
176
     1
 73
     0
176
     1
 90
        0
176
     1
 40
0.6
176
     1
 41
30.0
176
     1
 63
     7
421
 16777215
176
     1
 74
     1
176
     1
 91
        4
176
     1
 64
     7
176
     1
 65
   257
176
     1
 75
     1
176
     1
175
     1
176
     1
 42
1.0
176
     1
 92
        8
176
     1
 66
     7
176
     1
 43
1.0
176
     1
 76
     1
176
     1
 77
     6
176
     1
 78
     2
176
     1
 67
     7
176
     1
 79
     5
176
     1
170
     0
176
     1
171
     0
176
     1
290
     0
176
     1
 93
        1
176
     1
 44
0.0
176
     1
173
     0
176
     1
1001
ACAD
1000
AcDbSavedByObjectVersion
1070
     0
  0
VISUALSTYLE
  5
2A
102
{ACAD_XDICTIONARY
360
132
102
}
102
{ACAD_REACTORS
330
29
102
}
330
29
100
AcDbVisualStyle
  2
Flat
 70
     0
177
     2
291
     1
 71
     2
176
     1
 72
     1
176
     1
 73
     1
176
     1
 90
        2
176
     1
 40
0.6
176
     1
 41
30.0
176
     1
 63
     7
421
 16777215
176
     1
 74
     0
176
     1
 91
        0
176
     1
 64
     7
176
     1
 65
   257
176
     1
 75
     1
176
     1
175
     1
176
     1
 42
1.0
176
     1
 92
        8
176
     1
 66
     7
176
     1
 43
1.0
176
     1
 76
     1
176
     1
 77
     6
176
     1
 78
     2
176
     1
 67
     7
176
     1
 79
     5
176
     1
170
     0
176
     1
171
     0
176
     1
290
     0
176
     1
 93
       13
176
     1
 44
0.0
176
     1
173
     0
176
     1
1001
ACAD
1000
AcDbSavedByObjectVersion
1070
     0
  0
VISUALSTYLE
  5
2B
102
{ACAD_XDICTIONARY
360
134
102
}
102
{ACAD_REACTORS
330
29
102
}
330
29
100
AcDbVisualStyle
  2
FlatWithEdges
 70
     1
177
     2
291
     1
 71
     2
176
     1
 72
     1
176
     1
 73
     1
176
     1
 90
        2
176
     1
 40
0.6
176
     1
 41
30.0
176
     1
 63
     7
421
 16777215
176
     1
 74
     1
176
     1
 91
        0
176
     1
 64
     7
176
     1
 65
   257
176
     1
 75
     1
176
     1
175
     1
176
     1
 42
1.0
176
     1
 92
        0
176
     1
 66
   257
176
     1
 43
1.0
176
     1
 76
     1
176
     1
 77
     6
176
     1
 78
     2
176
     1
 67
     7
176
     1
 79
     5
176
     1
170
     0
176
     1
171
     0
176
     1
290
     0
176
     1
 93
       13
176
     1
 44
0.0
176
     1
173
     0
176
     1
1001
ACAD
1000
AcDbSavedByObjectVersion
1070
     0
  0
VISUALSTYLE
  5
2C
102
{ACAD_XDICTIONARY
360
136
102
}
102
{ACAD_REACTORS
330
29
102
}
330
29
100
AcDbVisualStyle
  2
Gouraud
 70
     2
177
     2
291
     1
 71
     2
176
     1
 72
     2
176
     1
 73
     1
176
     1
 90
        2
176
     1
 40
0.6
176
     1
 41
30.0
176
     1
 63
     7
421
 16777215
176
     1
 74
     0
176
     1
 91
        0
176
     1
 64
     7
176
     1
 65
   257
176
     1
 75
     1
176
     1
175
     1
176
     1
 42
1.0
176
     1
 92
        0
176
     1
 66
     7
176
     1
 43
1.0
176
     1
 76
     1
176
     1
 77
     6
176
     1
 78
     2
176
     1
 67
     7
176
     1
 79
     5
176
     1
170
     0
176
     1
171
     0
176
     1
290
     0
176
     1
 93
       13
176
     1
 44
0.0
176
     1
173
     0
176
     1
1001
ACAD
1000
AcDbSavedByObjectVersion
1070
     0
  0
VISUALSTYLE
  5
2D
102
{ACAD_XDICTIONARY
360
138
102
}
102
{ACAD_REACTORS
330
29
102
}
330
29
100
AcDbVisualStyle
  2
GouraudWithEdges
 70
     3
177
     2
291
     1
 71
     2
176
     1
 72
     2
176
     1
 73
     1
176
     1
 90
        2
176
     1
 40
0.6
176
     1
 41
30.0
176
     1
 63
     7
421
 16777215
176
     1
 74
     1
176
     1
 91
        0
176
     1
 64
     7
176
     1
 65
   257
176
     1
 75
     1
176
     1
175
     1
176
     1
 42
1.0
176
     1
 92
        0
176
     1
 66
   257
176
     1
 43
1.0
176
     1
 76
     1
176
     1
 77
     6
176
     1
 78
     2
176
     1
 67
     7
176
     1
 79
     5
176
     1
170
     0
176
     1
171
     0
176
     1
290
     0
176
     1
 93
       13
176
     1
 44
0.0
176
     1
173
     0
176
     1
1001
ACAD
1000
AcDbSavedByObjectVersion
1070
     0
  0
VISUALSTYLE
  5
31
102
{ACAD_XDICTIONARY
360
140
102
}
102
{ACAD_REACTORS
330
29
102
}
330
29
100
AcDbVisualStyle
  2
Hidden
 70
     6
177
     2
291
     0
 71
     1
176
     1
 72
     2
176
     1
 73
     2
176
     1
 90
        0
176
     1
 40
0.6
176
     1
 41
30.0
176
     1
 63
     7
421
 16777215
176
     1
 74
     2
176
     1
 91
        2
176
     1
 64
     7
176
     1
 65
   257
176
     1
 75
     2
176
     1
175
     1
176
     1
 42
40.0
176
     1
 92
        0
176
     1
 66
   257
176
     1
 43
1.0
176
     1
 76
     1
176
     1
 77
     6
176
     1
 78
     2
176
     1
 67
     7
176
     1
 79
     3
176
     1
170
     0
176
     1
171
     0
176
     1
290
     0
176
     1
 93
        1
176
     1
 44
0.0
176
     1
173
     0
176
     1
1001
ACAD
1000
AcDbSavedByObjectVersion
1070
     0
  0
VISUALSTYLE
  5
3F
102
{ACAD_XDICTIONARY
360
15C
102
}
102
{ACAD_REACTORS
330
29
102
}
330
29
100
AcDbVisualStyle
  2
JitterOff
 70
    20
177
     2
291
     1
 71
     2
176
     0
 72
     2
176
     0
 73
     0
176
     0
 90
        0
176
     0
 40
0.6
176
     0
 41
30.0
176
     0
 63
     7
421
 16777215
176
     0
 74
     1
176
     0
 91
        4
176
     0
 64
     7
176
     0
 65
   257
176
     0
 75
     1
176
     0
175
     1
176
     0
 42
1.0
176
     0
 92
       10
176
     2
 66
     7
176
     0
 43
1.0
176
     0
 76
     1
176
     0
 77
     6
176
     0
 78
     2
176
     0
 67
     7
176
     0
 79
     5
176
     0
170
     0
176
     0
171
     0
176
     0
290
     0
176
     0
 93
        1
176
     0
 44
0.0
176
     0
173
     0
176
     0
1001
ACAD
1000
AcDbSavedByObjectVersion
1070
     0
  0
VISUALSTYLE
  5
37
102
{ACAD_XDICTIONARY
360
14C
102
}
102
{ACAD_REACTORS
330
29
102
}
330
29
100
AcDbVisualStyle
  2
Linepattern
 70
    14
177
     2
291
     1
 71
     2
176
     1
 72
     2
176
     1
 73
     0
176
     1
 90
        0
176
     1
 40
0.6
176
     1
 41
30.0
176
     1
 63
     7
421
 16777215
176
     1
 74
     1
176
     1
 91
        4
176
     1
 64
     7
176
     1
 65
   257
176
     1
 75
     7
176
     1
175
     7
176
     1
 42
1.0
176
     1
 92
        8
176
     1
 66
     7
176
     1
 43
1.0
176
     1
 76
     1
176
     1
 77
     6
176
     1
 78
     2
176
     1
 67
     7
176
     1
 79
     5
176
     1
170
     0
176
     1
171
     0
176
     1
290
     0
176
     1
 93
        1
176
     1
 44
0.0
176
     1
173
     0
176
     1
1001
ACAD
1000
AcDbSavedByObjectVersion
1070
     0
  0
VISUALSTYLE
  5
40
102
{ACAD_XDICTIONARY
360
15E
102
}
102
{ACAD_REACTORS
330
29
102
}
330
29
100
AcDbVisualStyle
  2
OverhangOff
 70
    21
177
     2
291
     1
 71
     2
176
     0
 72
     2
176
     0
 73
     0
176
     0
 90
        0
176
     0
 40
0.6
176
     0
 41
30.0
176
     0
 63
     7
421
 16777215
176
     0
 74
     1
176
     0
 91
        4
176
     0
 64
     7
176
     0
 65
   257
176
     0
 75
     1
176
     0
175
     1
176
     0
 42
1.0
176
     0
 92
        9
176
     2
 66
     7
176
     0
 43
1.0
176
     0
 76
     1
176
     0
 77
     6
176
     0
 78
     2
176
     0
 67
     7
176
     0
 79
     5
176
     0
170
     0
176
     0
171
     0
176
     0
290
     0
176
     0
 93
        1
176
     0
 44
0.0
176
     0
173
     0
176
     0
1001
ACAD
1000
AcDbSavedByObjectVersion
1070
     0
  0
VISUALSTYLE
  5
33
102
{ACAD_XDICTIONARY
360
144
102
}
102
{ACAD_REACTORS
330
29
102
}
330
29
100
AcDbVisualStyle
  2
Realistic
 70
     8
177
     2
291
     0
 71
     2
176
     1
 72
     3
176
     1
 73
     0
176
     1
 90
        2
176
     1
 40
0.6
176
     1
 41
30.0
176
     1
 63
     7
421
 16777215
176
     1
 74
     0
176
     1
 91
        0
176
     1
 64
     7
176
     1
 65
   257
176
     1
 75
     1
176
     1
175
     1
176
     1
 42
1.0
176
     1
 92
        8
176
     1
 66
   257
176
     1
 43
1.0
176
     1
 76
     1
176
     1
 77
     6
176
     1
 78
     2
176
     1
 67
     7
176
     1
 79
     3
176
     1
170
     0
176
     1
171
     0
176
     1
290
     0
176
     1
 93
       13
176
     1
 44
0.0
176
     1
173
     0
176
     1
1001
ACAD
1000
AcDbSavedByObjectVersion
1070
     0
  0
VISUALSTYLE
  5
3E
102
{ACAD_XDICTIONARY
360
15A
102
}
102
{ACAD_REACTORS
330
29
102
}
330
29
100
AcDbVisualStyle
  2
Shaded
 70
    27
177
     2
291
     0
 71
     2
176
     1
 72
     2
176
     1
 73
     1
176
     1
 90
        2
176
     1
 40
0.6
176
     1
 41
30.0
176
     1
 63
     7
421
 16777215
176
     1
 74
     0
176
     1
 91
        4
176
     1
 64
     7
176
     1
 65
   257
176
     1
 75
     1
176
     1
175
     1
176
     1
 42
1.0
176
     1
 92
        8
176
     1
 66
   257
176
     1
 43
1.0
176
     1
 76
     1
176
     1
 77
     6
176
     1
 78
     2
176
     1
 67
     8
425
  7895160
176
     1
 79
     3
176
     1
170
     0
176
     1
171
     0
176
     1
290
     0
176
     1
 93
        5
176
     1
 44
0.0
176
     1
173
     0
176
     1
1001
ACAD
1000
AcDbSavedByObjectVersion
1070
     0
  0
VISUALSTYLE
  5
3D
102
{ACAD_XDICTIONARY
360
158
102
}
102
{ACAD_REACTORS
330
29
102
}
330
29
100
AcDbVisualStyle
  2
Shaded with edges
 70
    26
177
     2
291
     0
 71
     2
176
     1
 72
     2
176
     1
 73
     1
176
     1
 90
        2
176
     1
 40
0.6
176
     1
 41
30.0
176
     1
 63
     7
421
 16777215
176
     1
 74
     1
176
     1
 91
        2
176
     1
 64
     7
176
     1
 65
   257
176
     1
 75
     2
176
     1
175
     1
176
     1
 42
1.0
176
     1
 92
        8
176
     1
 66
   257
176
     1
 43
1.0
176
     1
 76
     1
176
     1
 77
     6
176
     1
 78
     2
176
     1
 67
     7
176
     1
 79
     3
176
     1
170
     0
176
     1
171
     0
176
     1
290
     0
176
     1
 93
        5
176
     1
 44
0.0
176
     1
173
     0
176
     1
1001
ACAD
1000
AcDbSavedByObjectVersion
1070
     0
  0
VISUALSTYLE
  5
3A
102
{ACAD_XDICTIONARY
360
152
102
}
102
{ACAD_REACTORS
330
29
102
}
330
29
100
AcDbVisualStyle
  2
Shades of Gray
 70
    23
177
     2
291
     0
 71
     2
176
     1
 72
     2
176
     1
 73
     3
176
     1
 90
        0
176
     1
 40
0.6
176
     1
 41
30.0
176
     1
 63
     7
421
 16777215
176
     1
 74
     2
176
     1
 91
        2
176
     1
 64
     7
176
     1
 65
     7
176
     1
 75
     1
176
     1
175
     1
176
     1
 42
40.0
176
     1
 92
        8
176
     1
 66
     7
176
     1
 43
1.0
176
     1
 76
     1
176
     1
 77
     6
176
     1
 78
     2
176
     1
 67
     7
176
     1
 79
     3
176
     1
170
     0
176
     1
171
     0
176
     1
290
     0
176
     1
 93
        1
176
     1
 44
0.0
176
     1
173
     0
176
     1
1001
ACAD
1000
AcDbSavedByObjectVersion
1070
     0
  0
VISUALSTYLE
  5
3B
102
{ACAD_XDICTIONARY
360
154
102
}
102
{ACAD_REACTORS
330
29
102
}
330
29
100
AcDbVisualStyle
  2
Sketchy
 70
    24
177
     2
291
     0
 71
     1
176
     1
 72
     2
176
     1
 73
     2
176
     1
 90
        0
176
     1
 40
0.6
176
     1
 41
30.0
176
     1
 63
     7
421
 16777215
176
     1
 74
     2
176
     1
 91
        2
176
     1
 64
     7
176
     1
 65
     7
176
     1
 75
     1
176
     1
175
     1
176
     1
 42
40.0
176
     1
 92
       11
176
     1
 66
     7
176
     1
 43
1.0
176
     1
 76
     1
176
     1
 77
     6
176
     1
 78
     2
176
     1
 67
     7
176
     1
 79
     6
176
     1
170
     0
176
     1
171
     0
176
     1
290
     0
176
     1
 93
        1
176
     1
 44
0.0
176
     1
173
     0
176
     1
1001
ACAD
1000
AcDbSavedByObjectVersion
1070
     0
  0
VISUALSTYLE
  5
36
102
{ACAD_XDICTIONARY
360
14A
102
}
102
{ACAD_REACTORS
330
29
102
}
330
29
100
AcDbVisualStyle
  2
Thicken
 70
    13
177
     2
291
     1
 71
     2
176
     1
 72
     2
176
     1
 73
     0
176
     1
 90
        0
176
     1
 40
0.6
176
     1
 41
30.0
176
     1
 63
     7
421
 16777215
176
     1
 74
     1
176
     1
 91
        4
176
     1
 64
     7
176
     1
 65
   257
176
     1
 75
     1
176
     1
175
     1
176
     1
 42
1.0
176
     1
 92
       12
176
     1
 66
     7
176
     1
 43
1.0
176
     1
 76
     1
176
     1
 77
     6
176
     1
 78
     2
176
     1
 67
     7
176
     1
 79
     5
176
     1
170
     0
176
     1
171
     0
176
     1
290
     0
176
     1
 93
        1
176
     1
 44
0.0
176
     1
173
     0
176
     1
1001
ACAD
1000
AcDbSavedByObjectVersion
1070
     0
  0
VISUALSTYLE
  5
30
102
{ACAD_XDICTIONARY
360
13E
102
}
102
{ACAD_REACTORS
330
29
102
}
330
29
100
AcDbVisualStyle
  2
Wireframe
 70
     5
177
     2
291
     0
 71
     0
176
     1
 72
     2
176
     1
 73
     0
176
     1
 90
        0
176
     1
 40
0.6
176
     1
 41
30.0
176
     1
 63
     7
421
 16777215
176
     1
 74
     1
176
     1
 91
        4
176
     1
 64
     7
176
     1
 65
   257
176
     1
 75
     1
176
     1
175
     1
176
     1
 42
1.0
176
     1
 92
        0
176
     1
 66
   257
176
     1
 43
1.0
176
     1
 76
     1
176
     1
 77
     6
176
     1
 78
     2
176
     1
 67
     7
176
     1
 79
     3
176
     1
170
     0
176
     1
171
     0
176
     1
290
     0
176
     1
 93
        1
176
     1
 44
0.0
176
     1
173
     0
176
     1
1001
ACAD
1000
AcDbSavedByObjectVersion
1070
     0
  0
VISUALSTYLE
  5
3C
102
{ACAD_XDICTIONARY
360
156
102
}
102
{ACAD_REACTORS
330
29
102
}
330
29
100
AcDbVisualStyle
  2
X-Ray
 70
    25
177
     2
291
     0
 71
     2
176
     1
 72
     2
176
     1
 73
     1
176
     1
 90
        1
176
     1
 40
0.5
176
     1
 41
30.0
176
     1
 63
     7
421
 16777215
176
     1
 74
     1
176
     1
 91
        0
176
     1
 64
     7
176
     1
 65
   257
176
     1
 75
     1
176
     1
175
     1
176
     1
 42
1.0
176
     1
 92
        8
176
     1
 66
     7
176
     1
 43
1.0
176
     1
 76
     1
176
     1
 77
     6
176
     1
 78
     2
176
     1
 67
     7
176
     1
 79
     3
176
     1
170
     0
176
     1
171
     0
176
     1
290
     0
176
     1
 93
       13
176
     1
 44
0.0
176
     1
173
     0
176
     1
1001
ACAD
1000
AcDbSavedByObjectVersion
1070
     0
  0
DICTIONARYVAR
  5
12E
102
{ACAD_REACTORS
330
129
102
}
330
129
100
DictionaryVariables
280
     0
  1
1:1
  0
DICTIONARYVAR
  5
12B
102
{ACAD_REACTORS
330
129
102
}
330
129
100
DictionaryVariables
280
     0
  1
STANDARD
  0
DICTIONARYVAR
  5
12A
102
{ACAD_REACTORS
330
129
102
}
330
129
100
DictionaryVariables
280
     0
  1
STANDARD
  0
DICTIONARYVAR
  5
12C
102
{ACAD_REACTORS
330
129
102
}
330
129
100
DictionaryVariables
280
     0
  1
Imperial24
  0
DICTIONARYVAR
  5
12D
102
{ACAD_REACTORS
330
129
102
}
330
129
100
DictionaryVariables
280
     0
  1
Imperial24
  0
DICTIONARY
  5
166
330
6B
100
AcDbDictionary
280
     1
281
     1
  3
ACAD_XREC_ROUNDTRIP
360
167
  0
DICTIONARY
  5
1A
330
19
100
AcDbDictionary
280
     1
281
     1
  3
BUMPTILE
360
1C
  3
DIFFUSETILE
360
1B
  3
OPACITYTILE
360
1F
  3
REFLECTIONTILE
360
1E
  3
REFRACTIONTILE
360
20
  3
SPECULARTILE
360
1D
  0
DICTIONARY
  5
12
330
11
100
AcDbDictionary
280
     1
281
     1
  3
BUMPTILE
360
14
  3
DIFFUSETILE
360
13
  3
OPACITYTILE
360
17
  3
REFLECTIONTILE
360
16
  3
REFRACTIONTILE
360
18
  3
SPECULARTILE
360
15
  0
DICTIONARY
  5
22
330
21
100
AcDbDictionary
280
     1
281
     1
  3
BUMPTILE
360
24
  3
DIFFUSETILE
360
23
  3
OPACITYTILE
360
27
  3
REFLECTIONTILE
360
26
  3
REFRACTIONTILE
360
28
  3
SPECULARTILE
360
25
  0
DICTIONARY
  5
162
330
67
100
AcDbDictionary
280
     1
281
     1
  3
ACAD_XREC_ROUNDTRIP
360
163
  0
DICTIONARY
  5
164
330
69
100
AcDbDictionary
280
     1
281
     1
  3
ACAD_XREC_ROUNDTRIP
360
165
  0
DICTIONARY
  5
12F
330
65
100
AcDbDictionary
280
     1
281
     1
  3
ACAD_ROUNDTRIP_2008_TABLESTYLE_CELLSTYLEMAP
360
130
  0
DICTIONARY
  5
13C
330
2F
100
AcDbDictionary
280
     1
281
     1
  3
ACAD_XREC_ROUNDTRIP
360
13D
  0
DICTIONARY
  5
13A
330
2E
100
AcDbDictionary
280
     1
281
     1
  3
ACAD_XREC_ROUNDTRIP
360
13B
  0
DICTIONARY
  5
148
330
35
100
AcDbDictionary
280
     1
281
     1
  3
ACAD_XREC_ROUNDTRIP
360
149
  0
DICTIONARY
  5
150
330
39
100
AcDbDictionary
280
     1
281
     1
  3
ACAD_XREC_ROUNDTRIP
360
151
  0
DICTIONARY
  5
142
330
32
100
AcDbDictionary
280
     1
281
     1
  3
ACAD_XREC_ROUNDTRIP
360
143
  0
DICTIONARY
  5
146
330
34
100
AcDbDictionary
280
     1
281
     1
  3
ACAD_XREC_ROUNDTRIP
360
147
  0
DICTIONARY
  5
160
330
41
100
AcDbDictionary
280
     1
281
     1
  3
ACAD_XREC_ROUNDTRIP
360
161
  0
DICTIONARY
  5
14E
330
38
100
AcDbDictionary
280
     1
281
     1
  3
ACAD_XREC_ROUNDTRIP
360
14F
  0
DICTIONARY
  5
132
330
2A
100
AcDbDictionary
280
     1
281
     1
  3
ACAD_XREC_ROUNDTRIP
360
133
  0
DICTIONARY
  5
134
330
2B
100
AcDbDictionary
280
     1
281
     1
  3
ACAD_XREC_ROUNDTRIP
360
135
  0
DICTIONARY
  5
136
330
2C
100
AcDbDictionary
280
     1
281
     1
  3
ACAD_XREC_ROUNDTRIP
360
137
  0
DICTIONARY
  5
138
330
2D
100
AcDbDictionary
280
     1
281
     1
  3
ACAD_XREC_ROUNDTRIP
360
139
  0
DICTIONARY
  5
140
330
31
100
AcDbDictionary
280
     1
281
     1
  3
ACAD_XREC_ROUNDTRIP
360
141
  0
DICTIONARY
  5
15C
330
3F
100
AcDbDictionary
280
     1
281
     1
  3
ACAD_XREC_ROUNDTRIP
360
15D
  0
DICTIONARY
  5
14C
330
37
100
AcDbDictionary
280
     1
281
     1
  3
ACAD_XREC_ROUNDTRIP
360
14D
  0
DICTIONARY
  5
15E
330
40
100
AcDbDictionary
280
     1
281
     1
  3
ACAD_XREC_ROUNDTRIP
360
15F
  0
DICTIONARY
  5
144
330
33
100
AcDbDictionary
280
     1
281
     1
  3
ACAD_XREC_ROUNDTRIP
360
145
  0
DICTIONARY
  5
15A
330
3E
100
AcDbDictionary
280
     1
281
     1
  3
ACAD_XREC_ROUNDTRIP
360
15B
  0
DICTIONARY
  5
158
330
3D
100
AcDbDictionary
280
     1
281
     1
  3
ACAD_XREC_ROUNDTRIP
360
159
  0
DICTIONARY
  5
152
330
3A
100
AcDbDictionary
280
     1
281
     1
  3
ACAD_XREC_ROUNDTRIP
360
153
  0
DICTIONARY
  5
154
330
3B
100
AcDbDictionary
280
     1
281
     1
  3
ACAD_XREC_ROUNDTRIP
360
155
  0
DICTIONARY
  5
14A
330
36
100
AcDbDictionary
280
     1
281
     1
  3
ACAD_XREC_ROUNDTRIP
360
14B
  0
DICTIONARY
  5
13E
330
30
100
AcDbDictionary
280
     1
281
     1
  3
ACAD_XREC_ROUNDTRIP
360
13F
  0
DICTIONARY
  5
156
330
3C
100
AcDbDictionary
280
     1
281
     1
  3
ACAD_XREC_ROUNDTRIP
360
157
  0
XRECORD
  5
167
102
{ACAD_REACTORS
330
166
102
}
330
166
100
AcDbXrecord
280
     1
102
DISPLAYNAME
  1
Imperial24
102
FLAGS
 90
        0
  0
XRECORD
  5
1C
102
{ACAD_REACTORS
330
1A
102
}
330
1A
100
AcDbXrecord
280
     1
270
     1
271
     1
  0
XRECORD
  5
1B
102
{ACAD_REACTORS
330
1A
102
}
330
1A
100
AcDbXrecord
280
     1
270
     1
271
     1
  0
XRECORD
  5
1F
102
{ACAD_REACTORS
330
1A
102
}
330
1A
100
AcDbXrecord
280
     1
270
     1
271
     1
  0
XRECORD
  5
1E
102
{ACAD_REACTORS
330
1A
102
}
330
1A
100
AcDbXrecord
280
     1
270
     1
271
     1
  0
XRECORD
  5
20
102
{ACAD_REACTORS
330
1A
102
}
330
1A
100
AcDbXrecord
280
     1
270
     1
271
     1
  0
XRECORD
  5
1D
102
{ACAD_REACTORS
330
1A
102
}
330
1A
100
AcDbXrecord
280
     1
270
     1
271
     1
  0
XRECORD
  5
14
102
{ACAD_REACTORS
330
12
102
}
330
12
100
AcDbXrecord
280
     1
270
     1
271
     1
  0
XRECORD
  5
13
102
{ACAD_REACTORS
330
12
102
}
330
12
100
AcDbXrecord
280
     1
270
     1
271
     1
  0
XRECORD
  5
17
102
{ACAD_REACTORS
330
12
102
}
330
12
100
AcDbXrecord
280
     1
270
     1
271
     1
  0
XRECORD
  5
16
102
{ACAD_REACTORS
330
12
102
}
330
12
100
AcDbXrecord
280
     1
270
     1
271
     1
  0
XRECORD
  5
18
102
{ACAD_REACTORS
330
12
102
}
330
12
100
AcDbXrecord
280
     1
270
     1
271
     1
  0
XRECORD
  5
15
102
{ACAD_REACTORS
330
12
102
}
330
12
100
AcDbXrecord
280
     1
270
     1
271
     1
  0
XRECORD
  5
24
102
{ACAD_REACTORS
330
22
102
}
330
22
100
AcDbXrecord
280
     1
270
     1
271
     1
  0
XRECORD
  5
23
102
{ACAD_REACTORS
330
22
102
}
330
22
100
AcDbXrecord
280
     1
270
     1
271
     1
  0
XRECORD
  5
27
102
{ACAD_REACTORS
330
22
102
}
330
22
100
AcDbXrecord
280
     1
270
     1
271
     1
  0
XRECORD
  5
26
102
{ACAD_REACTORS
330
22
102
}
330
22
100
AcDbXrecord
280
     1
270
     1
271
     1
  0
XRECORD
  5
28
102
{ACAD_REACTORS
330
22
102
}
330
22
100
AcDbXrecord
280
     1
270
     1
271
     1
  0
XRECORD
  5
25
102
{ACAD_REACTORS
330
22
102
}
330
22
100
AcDbXrecord
280
     1
270
     1
271
     1
  0
XRECORD
  5
163
102
{ACAD_REACTORS
330
162
102
}
330
162
100
AcDbXrecord
280
     1
102
ACAD_ROUNDTRIP_2012_MLEADER_STYLE
298
     1
  0
XRECORD
  5
165
102
{ACAD_REACTORS
330
164
102
}
330
164
100
AcDbXrecord
280
     1
102
DISPLAYNAME
  1
Imperial24
102
FLAGS
 90
        0
  0
CELLSTYLEMAP
  5
130
102
{ACAD_REACTORS
330
12F
102
}
330
12F
100
AcDbCellStyleMap
 90
        3
300
CELLSTYLE
  1
TABLEFORMAT_BEGIN
 90
        5
170
     1
 91
        0
 92
    32768
 62
   257
 93
        1
300
CONTENTFORMAT
  1
CONTENTFORMAT_BEGIN
 90
        0
 91
        0
 92
      512
 93
        0
300

 40
0.0
140
1.0
 94
        5
 62
     0
340
55
144
0.25
309
CONTENTFORMAT_END
171
     0
 94
        0
309
TABLEFORMAT_END
  1
CELLSTYLE_BEGIN
 90
        1
 91
        1
300
_TITLE
309
CELLSTYLE_END
300
CELLSTYLE
  1
TABLEFORMAT_BEGIN
 90
        5
170
     1
 91
        0
 92
        0
 62
   257
 93
        1
300
CONTENTFORMAT
  1
CONTENTFORMAT_BEGIN
 90
        0
 91
        0
 92
      512
 93
        0
300

 40
0.0
140
1.0
 94
        5
 62
     0
340
55
144
0.18
309
CONTENTFORMAT_END
171
     0
 94
        0
309
TABLEFORMAT_END
  1
CELLSTYLE_BEGIN
 90
        2
 91
        1
300
_HEADER
309
CELLSTYLE_END
300
CELLSTYLE
  1
TABLEFORMAT_BEGIN
 90
        5
170
     1
 91
        0
 92
        0
 62
   257
 93
        1
300
CONTENTFORMAT
  1
CONTENTFORMAT_BEGIN
 90
        0
 91
        0
 92
      512
 93
        0
300

 40
0.0
140
1.0
 94
        2
 62
     0
340
55
144
0.18
309
CONTENTFORMAT_END
171
     0
 94
        0
309
TABLEFORMAT_END
  1
CELLSTYLE_BEGIN
 90
        3
 91
        2
300
_DATA
309
CELLSTYLE_END
  0
XRECORD
  5
13D
102
{ACAD_REACTORS
330
13C
102
}
330
13C
100
AcDbXrecord
280
     1
102
RTVSPost2010Prop28
280
     1
102
RTVSPost2010PropOp28
 70
     1
102
RTVSPost2010Prop29
280
     1
102
RTVSPost2010PropOp29
 70
     1
102
RTVSPost2010Prop30
280
     0
102
RTVSPost2010PropOp30
 70
     1
102
RTVSPost2010Prop31
280
     0
102
RTVSPost2010PropOp31
 70
     1
102
RTVSPost2010Prop32
280
     0
102
RTVSPost2010PropOp32
 70
     1
102
RTVSPost2010Prop33
280
     0
102
RTVSPost2010PropOp33
 70
     1
102
RTVSPost2010Prop34
280
     0
102
RTVSPost2010PropOp34
 70
     1
102
RTVSPost2010Prop35
280
     0
102
RTVSPost2010PropOp35
 70
     1
102
RTVSPost2010Prop36
280
     0
102
RTVSPost2010PropOp36
 70
     1
102
RTVSPost2010Prop37
 90
       50
102
RTVSPost2010PropOp37
 70
     1
102
RTVSPost2010Prop38
140
0.0
102
RTVSPost2010PropOp38
 70
     1
102
RTVSPost2010Prop39
140
1.0
102
RTVSPost2010PropOp39
 70
     1
102
RTVSPost2010Prop40
 90
        0
102
RTVSPost2010PropOp40
 70
     1
102
RTVSPost2010Prop41ColorIndex
 90
       18
102
RTVSPost2010Prop41ColorRGB
 90
        0
102
RTVSPost2010PropOp41
 70
     1
102
RTVSPost2010Prop42
 90
       50
102
RTVSPost2010PropOp42
 70
     1
102
RTVSPost2010Prop43
 90
        3
102
RTVSPost2010PropOp43
 70
     1
102
RTVSPost2010Prop44ColorIndex
 90
        5
102
RTVSPost2010Prop44ColorRGB
 90
      255
102
RTVSPost2010PropOp44
 70
     1
102
RTVSPost2010Prop45
280
     0
102
RTVSPost2010PropOp45
 70
     1
102
RTVSPost2010Prop46
 90
       50
102
RTVSPost2010PropOp46
 70
     1
102
RTVSPost2010Prop47
 90
       50
102
RTVSPost2010PropOp47
 70
     1
102
RTVSPost2010Prop48
 90
       50
102
RTVSPost2010PropOp48
 70
     1
102
RTVSPost2010Prop49
280
     0
102
RTVSPost2010PropOp49
 70
     1
102
RTVSPost2010Prop50
 90
       50
102
RTVSPost2010PropOp50
 70
     1
102
RTVSPost2010Prop51ColorIndex
 90
      256
102
RTVSPost2010Prop51ColorRGB
 90
-16777216
102
RTVSPost2010PropOp51
 70
     0
102
RTVSPost2010Prop52
140
1.0
102
RTVSPost2010PropOp52
 70
     0
102
RTVSPost2010Prop53
 90
        2
102
RTVSPost2010PropOp53
 70
     1
102
RTVSPost2010Prop54
  1
strokes_ogs.tif
102
RTVSPost2010PropOp54
 70
     1
102
RTVSPost2010Prop55
280
     0
102
RTVSPost2010PropOp55
 70
     1
102
RTVSPost2010Prop56
140
1.0
102
RTVSPost2010PropOp56
 70
     1
102
RTVSPost2010Prop57
140
1.0
102
RTVSPost2010PropOp57
 70
     1
  0
XRECORD
  5
13B
102
{ACAD_REACTORS
330
13A
102
}
330
13A
100
AcDbXrecord
280
     1
102
RTVSPost2010Prop28
280
     0
102
RTVSPost2010PropOp28
 70
     1
102
RTVSPost2010Prop29
280
     1
102
RTVSPost2010PropOp29
 70
     1
102
RTVSPost2010Prop30
280
     1
102
RTVSPost2010PropOp30
 70
     1
102
RTVSPost2010Prop31
280
     0
102
RTVSPost2010PropOp31
 70
     1
102
RTVSPost2010Prop32
280
     0
102
RTVSPost2010PropOp32
 70
     1
102
RTVSPost2010Prop33
280
     0
102
RTVSPost2010PropOp33
 70
     1
102
RTVSPost2010Prop34
280
     0
102
RTVSPost2010PropOp34
 70
     1
102
RTVSPost2010Prop35
280
     0
102
RTVSPost2010PropOp35
 70
     1
102
RTVSPost2010Prop36
280
     0
102
RTVSPost2010PropOp36
 70
     1
102
RTVSPost2010Prop37
 90
       50
102
RTVSPost2010PropOp37
 70
     1
102
RTVSPost2010Prop38
140
0.0
102
RTVSPost2010PropOp38
 70
     1
102
RTVSPost2010Prop39
140
1.0
102
RTVSPost2010PropOp39
 70
     1
102
RTVSPost2010Prop40
 90
        0
102
RTVSPost2010PropOp40
 70
     1
102
RTVSPost2010Prop41ColorIndex
 90
       18
102
RTVSPost2010Prop41ColorRGB
 90
        0
102
RTVSPost2010PropOp41
 70
     1
102
RTVSPost2010Prop42
 90
       50
102
RTVSPost2010PropOp42
 70
     1
102
RTVSPost2010Prop43
 90
        3
102
RTVSPost2010PropOp43
 70
     1
102
RTVSPost2010Prop44ColorIndex
 90
        5
102
RTVSPost2010Prop44ColorRGB
 90
      255
102
RTVSPost2010PropOp44
 70
     1
102
RTVSPost2010Prop45
280
     0
102
RTVSPost2010PropOp45
 70
     1
102
RTVSPost2010Prop46
 90
       50
102
RTVSPost2010PropOp46
 70
     1
102
RTVSPost2010Prop47
 90
       50
102
RTVSPost2010PropOp47
 70
     1
102
RTVSPost2010Prop48
 90
       50
102
RTVSPost2010PropOp48
 70
     1
102
RTVSPost2010Prop49
280
     0
102
RTVSPost2010PropOp49
 70
     1
102
RTVSPost2010Prop50
 90
       50
102
RTVSPost2010PropOp50
 70
     1
102
RTVSPost2010Prop51ColorIndex
 90
      256
102
RTVSPost2010Prop51ColorRGB
 90
-16777216
102
RTVSPost2010PropOp51
 70
     0
102
RTVSPost2010Prop52
140
1.0
102
RTVSPost2010PropOp52
 70
     0
102
RTVSPost2010Prop53
 90
        2
102
RTVSPost2010PropOp53
 70
     1
102
RTVSPost2010Prop54
  1
strokes_ogs.tif
102
RTVSPost2010PropOp54
 70
     1
102
RTVSPost2010Prop55
280
     0
102
RTVSPost2010PropOp55
 70
     1
102
RTVSPost2010Prop56
140
1.0
102
RTVSPost2010PropOp56
 70
     1
102
RTVSPost2010Prop57
140
1.0
102
RTVSPost2010PropOp57
 70
     1
  0
XRECORD
  5
149
102
{ACAD_REACTORS
330
148
102
}
330
148
100
AcDbXrecord
280
     1
102
RTVSPost2010Prop28
280
     0
102
RTVSPost2010PropOp28
 70
     1
102
RTVSPost2010Prop29
280
     1
102
RTVSPost2010PropOp29
 70
     1
102
RTVSPost2010Prop30
280
     1
102
RTVSPost2010PropOp30
 70
     1
102
RTVSPost2010Prop31
280
     0
102
RTVSPost2010PropOp31
 70
     1
102
RTVSPost2010Prop32
280
     0
102
RTVSPost2010PropOp32
 70
     1
102
RTVSPost2010Prop33
280
     0
102
RTVSPost2010PropOp33
 70
     1
102
RTVSPost2010Prop34
280
     0
102
RTVSPost2010PropOp34
 70
     1
102
RTVSPost2010Prop35
280
     0
102
RTVSPost2010PropOp35
 70
     1
102
RTVSPost2010Prop36
280
     0
102
RTVSPost2010PropOp36
 70
     1
102
RTVSPost2010Prop37
 90
       50
102
RTVSPost2010PropOp37
 70
     1
102
RTVSPost2010Prop38
140
0.0
102
RTVSPost2010PropOp38
 70
     1
102
RTVSPost2010Prop39
140
1.0
102
RTVSPost2010PropOp39
 70
     1
102
RTVSPost2010Prop40
 90
        0
102
RTVSPost2010PropOp40
 70
     1
102
RTVSPost2010Prop41ColorIndex
 90
       18
102
RTVSPost2010Prop41ColorRGB
 90
        0
102
RTVSPost2010PropOp41
 70
     1
102
RTVSPost2010Prop42
 90
       50
102
RTVSPost2010PropOp42
 70
     1
102
RTVSPost2010Prop43
 90
        3
102
RTVSPost2010PropOp43
 70
     1
102
RTVSPost2010Prop44ColorIndex
 90
        5
102
RTVSPost2010Prop44ColorRGB
 90
      255
102
RTVSPost2010PropOp44
 70
     1
102
RTVSPost2010Prop45
280
     0
102
RTVSPost2010PropOp45
 70
     1
102
RTVSPost2010Prop46
 90
       50
102
RTVSPost2010PropOp46
 70
     1
102
RTVSPost2010Prop47
 90
       50
102
RTVSPost2010PropOp47
 70
     1
102
RTVSPost2010Prop48
 90
       50
102
RTVSPost2010PropOp48
 70
     1
102
RTVSPost2010Prop49
280
     0
102
RTVSPost2010PropOp49
 70
     1
102
RTVSPost2010Prop50
 90
       50
102
RTVSPost2010PropOp50
 70
     1
102
RTVSPost2010Prop51ColorIndex
 90
      256
102
RTVSPost2010Prop51ColorRGB
 90
-16777216
102
RTVSPost2010PropOp51
 70
     0
102
RTVSPost2010Prop52
140
1.0
102
RTVSPost2010PropOp52
 70
     0
102
RTVSPost2010Prop53
 90
        2
102
RTVSPost2010PropOp53
 70
     1
102
RTVSPost2010Prop54
  1
strokes_ogs.tif
102
RTVSPost2010PropOp54
 70
     1
102
RTVSPost2010Prop55
280
     0
102
RTVSPost2010PropOp55
 70
     1
102
RTVSPost2010Prop56
140
1.0
102
RTVSPost2010PropOp56
 70
     1
102
RTVSPost2010Prop57
140
1.0
102
RTVSPost2010PropOp57
 70
     1
  0
XRECORD
  5
151
102
{ACAD_REACTORS
330
150
102
}
330
150
100
AcDbXrecord
280
     1
102
RTVSPost2010Prop28
280
     0
102
RTVSPost2010PropOp28
 70
     1
102
RTVSPost2010Prop29
280
     1
102
RTVSPost2010PropOp29
 70
     1
102
RTVSPost2010Prop30
280
     1
102
RTVSPost2010PropOp30
 70
     1
102
RTVSPost2010Prop31
280
     0
102
RTVSPost2010PropOp31
 70
     1
102
RTVSPost2010Prop32
280
     0
102
RTVSPost2010PropOp32
 70
     1
102
RTVSPost2010Prop33
280
     0
102
RTVSPost2010PropOp33
 70
     1
102
RTVSPost2010Prop34
280
     0
102
RTVSPost2010PropOp34
 70
     1
102
RTVSPost2010Prop35
280
     0
102
RTVSPost2010PropOp35
 70
     1
102
RTVSPost2010Prop36
280
     0
102
RTVSPost2010PropOp36
 70
     1
102
RTVSPost2010Prop37
 90
       50
102
RTVSPost2010PropOp37
 70
     1
102
RTVSPost2010Prop38
140
0.0
102
RTVSPost2010PropOp38
 70
     1
102
RTVSPost2010Prop39
140
1.0
102
RTVSPost2010PropOp39
 70
     1
102
RTVSPost2010Prop40
 90
        0
102
RTVSPost2010PropOp40
 70
     1
102
RTVSPost2010Prop41ColorIndex
 90
       18
102
RTVSPost2010Prop41ColorRGB
 90
        0
102
RTVSPost2010PropOp41
 70
     1
102
RTVSPost2010Prop42
 90
       50
102
RTVSPost2010PropOp42
 70
     1
102
RTVSPost2010Prop43
 90
        3
102
RTVSPost2010PropOp43
 70
     1
102
RTVSPost2010Prop44ColorIndex
 90
        5
102
RTVSPost2010Prop44ColorRGB
 90
      255
102
RTVSPost2010PropOp44
 70
     1
102
RTVSPost2010Prop45
280
     0
102
RTVSPost2010PropOp45
 70
     1
102
RTVSPost2010Prop46
 90
       50
102
RTVSPost2010PropOp46
 70
     1
102
RTVSPost2010Prop47
 90
       50
102
RTVSPost2010PropOp47
 70
     1
102
RTVSPost2010Prop48
 90
       50
102
RTVSPost2010PropOp48
 70
     1
102
RTVSPost2010Prop49
280
     0
102
RTVSPost2010PropOp49
 70
     1
102
RTVSPost2010Prop50
 90
       50
102
RTVSPost2010PropOp50
 70
     1
102
RTVSPost2010Prop51ColorIndex
 90
      256
102
RTVSPost2010Prop51ColorRGB
 90
-16777216
102
RTVSPost2010PropOp51
 70
     0
102
RTVSPost2010Prop52
140
1.0
102
RTVSPost2010PropOp52
 70
     0
102
RTVSPost2010Prop53
 90
        2
102
RTVSPost2010PropOp53
 70
     1
102
RTVSPost2010Prop54
  1
strokes_ogs.tif
102
RTVSPost2010PropOp54
 70
     1
102
RTVSPost2010Prop55
280
     0
102
RTVSPost2010PropOp55
 70
     1
102
RTVSPost2010Prop56
140
1.0
102
RTVSPost2010PropOp56
 70
     1
102
RTVSPost2010Prop57
140
1.0
102
RTVSPost2010PropOp57
 70
     1
  0
XRECORD
  5
143
102
{ACAD_REACTORS
330
142
102
}
330
142
100
AcDbXrecord
280
     1
102
RTVSPost2010Prop28
280
     0
102
RTVSPost2010PropOp28
 70
     1
102
RTVSPost2010Prop29
280
     1
102
RTVSPost2010PropOp29
 70
     1
102
RTVSPost2010Prop30
280
     1
102
RTVSPost2010PropOp30
 70
     1
102
RTVSPost2010Prop31
280
     0
102
RTVSPost2010PropOp31
 70
     1
102
RTVSPost2010Prop32
280
     0
102
RTVSPost2010PropOp32
 70
     1
102
RTVSPost2010Prop33
280
     0
102
RTVSPost2010PropOp33
 70
     1
102
RTVSPost2010Prop34
280
     0
102
RTVSPost2010PropOp34
 70
     1
102
RTVSPost2010Prop35
280
     0
102
RTVSPost2010PropOp35
 70
     1
102
RTVSPost2010Prop36
280
     0
102
RTVSPost2010PropOp36
 70
     1
102
RTVSPost2010Prop37
 90
       50
102
RTVSPost2010PropOp37
 70
     1
102
RTVSPost2010Prop38
140
0.0
102
RTVSPost2010PropOp38
 70
     1
102
RTVSPost2010Prop39
140
1.0
102
RTVSPost2010PropOp39
 70
     1
102
RTVSPost2010Prop40
 90
        0
102
RTVSPost2010PropOp40
 70
     1
102
RTVSPost2010Prop41ColorIndex
 90
       18
102
RTVSPost2010Prop41ColorRGB
 90
        0
102
RTVSPost2010PropOp41
 70
     1
102
RTVSPost2010Prop42
 90
       50
102
RTVSPost2010PropOp42
 70
     1
102
RTVSPost2010Prop43
 90
        3
102
RTVSPost2010PropOp43
 70
     1
102
RTVSPost2010Prop44ColorIndex
 90
        5
102
RTVSPost2010Prop44ColorRGB
 90
      255
102
RTVSPost2010PropOp44
 70
     1
102
RTVSPost2010Prop45
280
     0
102
RTVSPost2010PropOp45
 70
     1
102
RTVSPost2010Prop46
 90
       50
102
RTVSPost2010PropOp46
 70
     1
102
RTVSPost2010Prop47
 90
       50
102
RTVSPost2010PropOp47
 70
     1
102
RTVSPost2010Prop48
 90
       50
102
RTVSPost2010PropOp48
 70
     1
102
RTVSPost2010Prop49
280
     0
102
RTVSPost2010PropOp49
 70
     1
102
RTVSPost2010Prop50
 90
       50
102
RTVSPost2010PropOp50
 70
     1
102
RTVSPost2010Prop51ColorIndex
 90
      256
102
RTVSPost2010Prop51ColorRGB
 90
-16777216
102
RTVSPost2010PropOp51
 70
     0
102
RTVSPost2010Prop52
140
1.0
102
RTVSPost2010PropOp52
 70
     0
102
RTVSPost2010Prop53
 90
        2
102
RTVSPost2010PropOp53
 70
     1
102
RTVSPost2010Prop54
  1
strokes_ogs.tif
102
RTVSPost2010PropOp54
 70
     1
102
RTVSPost2010Prop55
280
     0
102
RTVSPost2010PropOp55
 70
     1
102
RTVSPost2010Prop56
140
1.0
102
RTVSPost2010PropOp56
 70
     1
102
RTVSPost2010Prop57
140
1.0
102
RTVSPost2010PropOp57
 70
     1
  0
XRECORD
  5
147
102
{ACAD_REACTORS
330
146
102
}
330
146
100
AcDbXrecord
280
     1
102
RTVSPost2010Prop28
280
     0
102
RTVSPost2010PropOp28
 70
     1
102
RTVSPost2010Prop29
280
     1
102
RTVSPost2010PropOp29
 70
     1
102
RTVSPost2010Prop30
280
     1
102
RTVSPost2010PropOp30
 70
     1
102
RTVSPost2010Prop31
280
     0
102
RTVSPost2010PropOp31
 70
     1
102
RTVSPost2010Prop32
280
     0
102
RTVSPost2010PropOp32
 70
     1
102
RTVSPost2010Prop33
280
     0
102
RTVSPost2010PropOp33
 70
     1
102
RTVSPost2010Prop34
280
     0
102
RTVSPost2010PropOp34
 70
     1
102
RTVSPost2010Prop35
280
     0
102
RTVSPost2010PropOp35
 70
     1
102
RTVSPost2010Prop36
280
     0
102
RTVSPost2010PropOp36
 70
     1
102
RTVSPost2010Prop37
 90
       50
102
RTVSPost2010PropOp37
 70
     1
102
RTVSPost2010Prop38
140
0.0
102
RTVSPost2010PropOp38
 70
     1
102
RTVSPost2010Prop39
140
1.0
102
RTVSPost2010PropOp39
 70
     1
102
RTVSPost2010Prop40
 90
        0
102
RTVSPost2010PropOp40
 70
     1
102
RTVSPost2010Prop41ColorIndex
 90
       18
102
RTVSPost2010Prop41ColorRGB
 90
        0
102
RTVSPost2010PropOp41
 70
     1
102
RTVSPost2010Prop42
 90
       50
102
RTVSPost2010PropOp42
 70
     1
102
RTVSPost2010Prop43
 90
        3
102
RTVSPost2010PropOp43
 70
     1
102
RTVSPost2010Prop44ColorIndex
 90
        5
102
RTVSPost2010Prop44ColorRGB
 90
      255
102
RTVSPost2010PropOp44
 70
     1
102
RTVSPost2010Prop45
280
     0
102
RTVSPost2010PropOp45
 70
     1
102
RTVSPost2010Prop46
 90
       50
102
RTVSPost2010PropOp46
 70
     1
102
RTVSPost2010Prop47
 90
       50
102
RTVSPost2010PropOp47
 70
     1
102
RTVSPost2010Prop48
 90
       50
102
RTVSPost2010PropOp48
 70
     1
102
RTVSPost2010Prop49
280
     0
102
RTVSPost2010PropOp49
 70
     1
102
RTVSPost2010Prop50
 90
       50
102
RTVSPost2010PropOp50
 70
     1
102
RTVSPost2010Prop51ColorIndex
 90
      256
102
RTVSPost2010Prop51ColorRGB
 90
-16777216
102
RTVSPost2010PropOp51
 70
     0
102
RTVSPost2010Prop52
140
1.0
102
RTVSPost2010PropOp52
 70
     0
102
RTVSPost2010Prop53
 90
        2
102
RTVSPost2010PropOp53
 70
     1
102
RTVSPost2010Prop54
  1
strokes_ogs.tif
102
RTVSPost2010PropOp54
 70
     1
102
RTVSPost2010Prop55
280
     0
102
RTVSPost2010PropOp55
 70
     1
102
RTVSPost2010Prop56
140
1.0
102
RTVSPost2010PropOp56
 70
     1
102
RTVSPost2010Prop57
140
1.0
102
RTVSPost2010PropOp57
 70
     1
  0
XRECORD
  5
161
102
{ACAD_REACTORS
330
160
102
}
330
160
100
AcDbXrecord
280
     1
102
RTVSPost2010Prop28
280
     0
102
RTVSPost2010PropOp28
 70
     0
102
RTVSPost2010Prop29
280
     1
102
RTVSPost2010PropOp29
 70
     0
102
RTVSPost2010Prop30
280
     1
102
RTVSPost2010PropOp30
 70
     0
102
RTVSPost2010Prop31
280
     0
102
RTVSPost2010PropOp31
 70
     0
102
RTVSPost2010Prop32
280
     0
102
RTVSPost2010PropOp32
 70
     0
102
RTVSPost2010Prop33
280
     0
102
RTVSPost2010PropOp33
 70
     0
102
RTVSPost2010Prop34
280
     0
102
RTVSPost2010PropOp34
 70
     0
102
RTVSPost2010Prop35
280
     0
102
RTVSPost2010PropOp35
 70
     0
102
RTVSPost2010Prop36
280
     0
102
RTVSPost2010PropOp36
 70
     0
102
RTVSPost2010Prop37
 90
       50
102
RTVSPost2010PropOp37
 70
     0
102
RTVSPost2010Prop38
140
0.0
102
RTVSPost2010PropOp38
 70
     0
102
RTVSPost2010Prop39
140
1.0
102
RTVSPost2010PropOp39
 70
     0
102
RTVSPost2010Prop40
 90
        0
102
RTVSPost2010PropOp40
 70
     0
102
RTVSPost2010Prop41ColorIndex
 90
       18
102
RTVSPost2010Prop41ColorRGB
 90
        0
102
RTVSPost2010PropOp41
 70
     0
102
RTVSPost2010Prop42
 90
       50
102
RTVSPost2010PropOp42
 70
     0
102
RTVSPost2010Prop43
 90
        3
102
RTVSPost2010PropOp43
 70
     0
102
RTVSPost2010Prop44ColorIndex
 90
        5
102
RTVSPost2010Prop44ColorRGB
 90
      255
102
RTVSPost2010PropOp44
 70
     0
102
RTVSPost2010Prop45
280
     0
102
RTVSPost2010PropOp45
 70
     0
102
RTVSPost2010Prop46
 90
       50
102
RTVSPost2010PropOp46
 70
     0
102
RTVSPost2010Prop47
 90
       50
102
RTVSPost2010PropOp47
 70
     0
102
RTVSPost2010Prop48
 90
       50
102
RTVSPost2010PropOp48
 70
     0
102
RTVSPost2010Prop49
280
     0
102
RTVSPost2010PropOp49
 70
     0
102
RTVSPost2010Prop50
 90
       50
102
RTVSPost2010PropOp50
 70
     0
102
RTVSPost2010Prop51ColorIndex
 90
      256
102
RTVSPost2010Prop51ColorRGB
 90
-16777216
102
RTVSPost2010PropOp51
 70
     0
102
RTVSPost2010Prop52
140
1.0
102
RTVSPost2010PropOp52
 70
     0
102
RTVSPost2010Prop53
 90
        2
102
RTVSPost2010PropOp53
 70
     0
102
RTVSPost2010Prop54
  1
strokes_ogs.tif
102
RTVSPost2010PropOp54
 70
     0
102
RTVSPost2010Prop55
280
     0
102
RTVSPost2010PropOp55
 70
     0
102
RTVSPost2010Prop56
140
1.0
102
RTVSPost2010PropOp56
 70
     0
102
RTVSPost2010Prop57
140
1.0
102
RTVSPost2010PropOp57
 70
     0
  0
XRECORD
  5
14F
102
{ACAD_REACTORS
330
14E
102
}
330
14E
100
AcDbXrecord
280
     1
102
RTVSPost2010Prop28
280
     0
102
RTVSPost2010PropOp28
 70
     1
102
RTVSPost2010Prop29
280
     1
102
RTVSPost2010PropOp29
 70
     1
102
RTVSPost2010Prop30
280
     1
102
RTVSPost2010PropOp30
 70
     1
102
RTVSPost2010Prop31
280
     0
102
RTVSPost2010PropOp31
 70
     1
102
RTVSPost2010Prop32
280
     0
102
RTVSPost2010PropOp32
 70
     1
102
RTVSPost2010Prop33
280
     0
102
RTVSPost2010PropOp33
 70
     1
102
RTVSPost2010Prop34
280
     0
102
RTVSPost2010PropOp34
 70
     1
102
RTVSPost2010Prop35
280
     0
102
RTVSPost2010PropOp35
 70
     1
102
RTVSPost2010Prop36
280
     0
102
RTVSPost2010PropOp36
 70
     1
102
RTVSPost2010Prop37
 90
       50
102
RTVSPost2010PropOp37
 70
     1
102
RTVSPost2010Prop38
140
0.0
102
RTVSPost2010PropOp38
 70
     1
102
RTVSPost2010Prop39
140
1.0
102
RTVSPost2010PropOp39
 70
     1
102
RTVSPost2010Prop40
 90
        0
102
RTVSPost2010PropOp40
 70
     1
102
RTVSPost2010Prop41ColorIndex
 90
       18
102
RTVSPost2010Prop41ColorRGB
 90
        0
102
RTVSPost2010PropOp41
 70
     1
102
RTVSPost2010Prop42
 90
       50
102
RTVSPost2010PropOp42
 70
     1
102
RTVSPost2010Prop43
 90
        3
102
RTVSPost2010PropOp43
 70
     1
102
RTVSPost2010Prop44ColorIndex
 90
        5
102
RTVSPost2010Prop44ColorRGB
 90
      255
102
RTVSPost2010PropOp44
 70
     1
102
RTVSPost2010Prop45
280
     0
102
RTVSPost2010PropOp45
 70
     1
102
RTVSPost2010Prop46
 90
       50
102
RTVSPost2010PropOp46
 70
     1
102
RTVSPost2010Prop47
 90
       50
102
RTVSPost2010PropOp47
 70
     1
102
RTVSPost2010Prop48
 90
       50
102
RTVSPost2010PropOp48
 70
     1
102
RTVSPost2010Prop49
280
     0
102
RTVSPost2010PropOp49
 70
     1
102
RTVSPost2010Prop50
 90
       50
102
RTVSPost2010PropOp50
 70
     1
102
RTVSPost2010Prop51ColorIndex
 90
      256
102
RTVSPost2010Prop51ColorRGB
 90
-16777216
102
RTVSPost2010PropOp51
 70
     0
102
RTVSPost2010Prop52
140
1.0
102
RTVSPost2010PropOp52
 70
     0
102
RTVSPost2010Prop53
 90
        2
102
RTVSPost2010PropOp53
 70
     1
102
RTVSPost2010Prop54
  1
strokes_ogs.tif
102
RTVSPost2010PropOp54
 70
     1
102
RTVSPost2010Prop55
280
     0
102
RTVSPost2010PropOp55
 70
     1
102
RTVSPost2010Prop56
140
1.0
102
RTVSPost2010PropOp56
 70
     1
102
RTVSPost2010Prop57
140
1.0
102
RTVSPost2010PropOp57
 70
     1
  0
XRECORD
  5
133
102
{ACAD_REACTORS
330
132
102
}
330
132
100
AcDbXrecord
280
     1
102
RTVSPost2010Prop28
280
     0
102
RTVSPost2010PropOp28
 70
     1
102
RTVSPost2010Prop29
280
     1
102
RTVSPost2010PropOp29
 70
     1
102
RTVSPost2010Prop30
280
     1
102
RTVSPost2010PropOp30
 70
     1
102
RTVSPost2010Prop31
280
     0
102
RTVSPost2010PropOp31
 70
     1
102
RTVSPost2010Prop32
280
     0
102
RTVSPost2010PropOp32
 70
     1
102
RTVSPost2010Prop33
280
     0
102
RTVSPost2010PropOp33
 70
     1
102
RTVSPost2010Prop34
280
     0
102
RTVSPost2010PropOp34
 70
     1
102
RTVSPost2010Prop35
280
     0
102
RTVSPost2010PropOp35
 70
     1
102
RTVSPost2010Prop36
280
     0
102
RTVSPost2010PropOp36
 70
     1
102
RTVSPost2010Prop37
 90
       50
102
RTVSPost2010PropOp37
 70
     1
102
RTVSPost2010Prop38
140
0.0
102
RTVSPost2010PropOp38
 70
     1
102
RTVSPost2010Prop39
140
1.0
102
RTVSPost2010PropOp39
 70
     1
102
RTVSPost2010Prop40
 90
        0
102
RTVSPost2010PropOp40
 70
     1
102
RTVSPost2010Prop41ColorIndex
 90
       18
102
RTVSPost2010Prop41ColorRGB
 90
        0
102
RTVSPost2010PropOp41
 70
     1
102
RTVSPost2010Prop42
 90
       50
102
RTVSPost2010PropOp42
 70
     1
102
RTVSPost2010Prop43
 90
        3
102
RTVSPost2010PropOp43
 70
     1
102
RTVSPost2010Prop44ColorIndex
 90
        5
102
RTVSPost2010Prop44ColorRGB
 90
      255
102
RTVSPost2010PropOp44
 70
     1
102
RTVSPost2010Prop45
280
     0
102
RTVSPost2010PropOp45
 70
     1
102
RTVSPost2010Prop46
 90
       50
102
RTVSPost2010PropOp46
 70
     1
102
RTVSPost2010Prop47
 90
       50
102
RTVSPost2010PropOp47
 70
     1
102
RTVSPost2010Prop48
 90
       50
102
RTVSPost2010PropOp48
 70
     1
102
RTVSPost2010Prop49
280
     0
102
RTVSPost2010PropOp49
 70
     1
102
RTVSPost2010Prop50
 90
       50
102
RTVSPost2010PropOp50
 70
     1
102
RTVSPost2010Prop51ColorIndex
 90
      256
102
RTVSPost2010Prop51ColorRGB
 90
-16777216
102
RTVSPost2010PropOp51
 70
     0
102
RTVSPost2010Prop52
140
1.0
102
RTVSPost2010PropOp52
 70
     0
102
RTVSPost2010Prop53
 90
        2
102
RTVSPost2010PropOp53
 70
     1
102
RTVSPost2010Prop54
  1
strokes_ogs.tif
102
RTVSPost2010PropOp54
 70
     1
102
RTVSPost2010Prop55
280
     0
102
RTVSPost2010PropOp55
 70
     1
102
RTVSPost2010Prop56
140
1.0
102
RTVSPost2010PropOp56
 70
     1
102
RTVSPost2010Prop57
140
1.0
102
RTVSPost2010PropOp57
 70
     1
  0
XRECORD
  5
135
102
{ACAD_REACTORS
330
134
102
}
330
134
100
AcDbXrecord
280
     1
102
RTVSPost2010Prop28
280
     0
102
RTVSPost2010PropOp28
 70
     1
102
RTVSPost2010Prop29
280
     1
102
RTVSPost2010PropOp29
 70
     1
102
RTVSPost2010Prop30
280
     1
102
RTVSPost2010PropOp30
 70
     1
102
RTVSPost2010Prop31
280
     0
102
RTVSPost2010PropOp31
 70
     1
102
RTVSPost2010Prop32
280
     0
102
RTVSPost2010PropOp32
 70
     1
102
RTVSPost2010Prop33
280
     0
102
RTVSPost2010PropOp33
 70
     1
102
RTVSPost2010Prop34
280
     0
102
RTVSPost2010PropOp34
 70
     1
102
RTVSPost2010Prop35
280
     0
102
RTVSPost2010PropOp35
 70
     1
102
RTVSPost2010Prop36
280
     0
102
RTVSPost2010PropOp36
 70
     1
102
RTVSPost2010Prop37
 90
       50
102
RTVSPost2010PropOp37
 70
     1
102
RTVSPost2010Prop38
140
0.0
102
RTVSPost2010PropOp38
 70
     1
102
RTVSPost2010Prop39
140
1.0
102
RTVSPost2010PropOp39
 70
     1
102
RTVSPost2010Prop40
 90
        0
102
RTVSPost2010PropOp40
 70
     1
102
RTVSPost2010Prop41ColorIndex
 90
       18
102
RTVSPost2010Prop41ColorRGB
 90
        0
102
RTVSPost2010PropOp41
 70
     1
102
RTVSPost2010Prop42
 90
       50
102
RTVSPost2010PropOp42
 70
     1
102
RTVSPost2010Prop43
 90
        3
102
RTVSPost2010PropOp43
 70
     1
102
RTVSPost2010Prop44ColorIndex
 90
        5
102
RTVSPost2010Prop44ColorRGB
 90
      255
102
RTVSPost2010PropOp44
 70
     1
102
RTVSPost2010Prop45
280
     0
102
RTVSPost2010PropOp45
 70
     1
102
RTVSPost2010Prop46
 90
       50
102
RTVSPost2010PropOp46
 70
     1
102
RTVSPost2010Prop47
 90
       50
102
RTVSPost2010PropOp47
 70
     1
102
RTVSPost2010Prop48
 90
       50
102
RTVSPost2010PropOp48
 70
     1
102
RTVSPost2010Prop49
280
     0
102
RTVSPost2010PropOp49
 70
     1
102
RTVSPost2010Prop50
 90
       50
102
RTVSPost2010PropOp50
 70
     1
102
RTVSPost2010Prop51ColorIndex
 90
      256
102
RTVSPost2010Prop51ColorRGB
 90
-16777216
102
RTVSPost2010PropOp51
 70
     0
102
RTVSPost2010Prop52
140
1.0
102
RTVSPost2010PropOp52
 70
     0
102
RTVSPost2010Prop53
 90
        2
102
RTVSPost2010PropOp53
 70
     1
102
RTVSPost2010Prop54
  1
strokes_ogs.tif
102
RTVSPost2010PropOp54
 70
     1
102
RTVSPost2010Prop55
280
     0
102
RTVSPost2010PropOp55
 70
     1
102
RTVSPost2010Prop56
140
1.0
102
RTVSPost2010PropOp56
 70
     1
102
RTVSPost2010Prop57
140
1.0
102
RTVSPost2010PropOp57
 70
     1
  0
XRECORD
  5
137
102
{ACAD_REACTORS
330
136
102
}
330
136
100
AcDbXrecord
280
     1
102
RTVSPost2010Prop28
280
     0
102
RTVSPost2010PropOp28
 70
     1
102
RTVSPost2010Prop29
280
     1
102
RTVSPost2010PropOp29
 70
     1
102
RTVSPost2010Prop30
280
     1
102
RTVSPost2010PropOp30
 70
     1
102
RTVSPost2010Prop31
280
     0
102
RTVSPost2010PropOp31
 70
     1
102
RTVSPost2010Prop32
280
     0
102
RTVSPost2010PropOp32
 70
     1
102
RTVSPost2010Prop33
280
     0
102
RTVSPost2010PropOp33
 70
     1
102
RTVSPost2010Prop34
280
     0
102
RTVSPost2010PropOp34
 70
     1
102
RTVSPost2010Prop35
280
     0
102
RTVSPost2010PropOp35
 70
     1
102
RTVSPost2010Prop36
280
     0
102
RTVSPost2010PropOp36
 70
     1
102
RTVSPost2010Prop37
 90
       50
102
RTVSPost2010PropOp37
 70
     1
102
RTVSPost2010Prop38
140
0.0
102
RTVSPost2010PropOp38
 70
     1
102
RTVSPost2010Prop39
140
1.0
102
RTVSPost2010PropOp39
 70
     1
102
RTVSPost2010Prop40
 90
        0
102
RTVSPost2010PropOp40
 70
     1
102
RTVSPost2010Prop41ColorIndex
 90
       18
102
RTVSPost2010Prop41ColorRGB
 90
        0
102
RTVSPost2010PropOp41
 70
     1
102
RTVSPost2010Prop42
 90
       50
102
RTVSPost2010PropOp42
 70
     1
102
RTVSPost2010Prop43
 90
        3
102
RTVSPost2010PropOp43
 70
     1
102
RTVSPost2010Prop44ColorIndex
 90
        5
102
RTVSPost2010Prop44ColorRGB
 90
      255
102
RTVSPost2010PropOp44
 70
     1
102
RTVSPost2010Prop45
280
     0
102
RTVSPost2010PropOp45
 70
     1
102
RTVSPost2010Prop46
 90
       50
102
RTVSPost2010PropOp46
 70
     1
102
RTVSPost2010Prop47
 90
       50
102
RTVSPost2010PropOp47
 70
     1
102
RTVSPost2010Prop48
 90
       50
102
RTVSPost2010PropOp48
 70
     1
102
RTVSPost2010Prop49
280
     0
102
RTVSPost2010PropOp49
 70
     1
102
RTVSPost2010Prop50
 90
       50
102
RTVSPost2010PropOp50
 70
     1
102
RTVSPost2010Prop51ColorIndex
 90
      256
102
RTVSPost2010Prop51ColorRGB
 90
-16777216
102
RTVSPost2010PropOp51
 70
     0
102
RTVSPost2010Prop52
140
1.0
102
RTVSPost2010PropOp52
 70
     0
102
RTVSPost2010Prop53
 90
        2
102
RTVSPost2010PropOp53
 70
     1
102
RTVSPost2010Prop54
  1
strokes_ogs.tif
102
RTVSPost2010PropOp54
 70
     1
102
RTVSPost2010Prop55
280
     0
102
RTVSPost2010PropOp55
 70
     1
102
RTVSPost2010Prop56
140
1.0
102
RTVSPost2010PropOp56
 70
     1
102
RTVSPost2010Prop57
140
1.0
102
RTVSPost2010PropOp57
 70
     1
  0
XRECORD
  5
139
102
{ACAD_REACTORS
330
138
102
}
330
138
100
AcDbXrecord
280
     1
102
RTVSPost2010Prop28
280
     0
102
RTVSPost2010PropOp28
 70
     1
102
RTVSPost2010Prop29
280
     1
102
RTVSPost2010PropOp29
 70
     1
102
RTVSPost2010Prop30
280
     1
102
RTVSPost2010PropOp30
 70
     1
102
RTVSPost2010Prop31
280
     0
102
RTVSPost2010PropOp31
 70
     1
102
RTVSPost2010Prop32
280
     0
102
RTVSPost2010PropOp32
 70
     1
102
RTVSPost2010Prop33
280
     0
102
RTVSPost2010PropOp33
 70
     1
102
RTVSPost2010Prop34
280
     0
102
RTVSPost2010PropOp34
 70
     1
102
RTVSPost2010Prop35
280
     0
102
RTVSPost2010PropOp35
 70
     1
102
RTVSPost2010Prop36
280
     0
102
RTVSPost2010PropOp36
 70
     1
102
RTVSPost2010Prop37
 90
       50
102
RTVSPost2010PropOp37
 70
     1
102
RTVSPost2010Prop38
140
0.0
102
RTVSPost2010PropOp38
 70
     1
102
RTVSPost2010Prop39
140
1.0
102
RTVSPost2010PropOp39
 70
     1
102
RTVSPost2010Prop40
 90
        0
102
RTVSPost2010PropOp40
 70
     1
102
RTVSPost2010Prop41ColorIndex
 90
       18
102
RTVSPost2010Prop41ColorRGB
 90
        0
102
RTVSPost2010PropOp41
 70
     1
102
RTVSPost2010Prop42
 90
       50
102
RTVSPost2010PropOp42
 70
     1
102
RTVSPost2010Prop43
 90
        3
102
RTVSPost2010PropOp43
 70
     1
102
RTVSPost2010Prop44ColorIndex
 90
        5
102
RTVSPost2010Prop44ColorRGB
 90
      255
102
RTVSPost2010PropOp44
 70
     1
102
RTVSPost2010Prop45
280
     0
102
RTVSPost2010PropOp45
 70
     1
102
RTVSPost2010Prop46
 90
       50
102
RTVSPost2010PropOp46
 70
     1
102
RTVSPost2010Prop47
 90
       50
102
RTVSPost2010PropOp47
 70
     1
102
RTVSPost2010Prop48
 90
       50
102
RTVSPost2010PropOp48
 70
     1
102
RTVSPost2010Prop49
280
     0
102
RTVSPost2010PropOp49
 70
     1
102
RTVSPost2010Prop50
 90
       50
102
RTVSPost2010PropOp50
 70
     1
102
RTVSPost2010Prop51ColorIndex
 90
      256
102
RTVSPost2010Prop51ColorRGB
 90
-16777216
102
RTVSPost2010PropOp51
 70
     0
102
RTVSPost2010Prop52
140
1.0
102
RTVSPost2010PropOp52
 70
     0
102
RTVSPost2010Prop53
 90
        2
102
RTVSPost2010PropOp53
 70
     1
102
RTVSPost2010Prop54
  1
strokes_ogs.tif
102
RTVSPost2010PropOp54
 70
     1
102
RTVSPost2010Prop55
280
     0
102
RTVSPost2010PropOp55
 70
     1
102
RTVSPost2010Prop56
140
1.0
102
RTVSPost2010PropOp56
 70
     1
102
RTVSPost2010Prop57
140
1.0
102
RTVSPost2010PropOp57
 70
     1
  0
XRECORD
  5
141
102
{ACAD_REACTORS
330
140
102
}
330
140
100
AcDbXrecord
280
     1
102
RTVSPost2010Prop28
280
     0
102
RTVSPost2010PropOp28
 70
     1
102
RTVSPost2010Prop29
280
     1
102
RTVSPost2010PropOp29
 70
     1
102
RTVSPost2010Prop30
280
     1
102
RTVSPost2010PropOp30
 70
     1
102
RTVSPost2010Prop31
280
     0
102
RTVSPost2010PropOp31
 70
     1
102
RTVSPost2010Prop32
280
     0
102
RTVSPost2010PropOp32
 70
     1
102
RTVSPost2010Prop33
280
     0
102
RTVSPost2010PropOp33
 70
     1
102
RTVSPost2010Prop34
280
     0
102
RTVSPost2010PropOp34
 70
     1
102
RTVSPost2010Prop35
280
     0
102
RTVSPost2010PropOp35
 70
     1
102
RTVSPost2010Prop36
280
     0
102
RTVSPost2010PropOp36
 70
     1
102
RTVSPost2010Prop37
 90
       50
102
RTVSPost2010PropOp37
 70
     1
102
RTVSPost2010Prop38
140
0.0
102
RTVSPost2010PropOp38
 70
     1
102
RTVSPost2010Prop39
140
1.0
102
RTVSPost2010PropOp39
 70
     1
102
RTVSPost2010Prop40
 90
        0
102
RTVSPost2010PropOp40
 70
     1
102
RTVSPost2010Prop41ColorIndex
 90
       18
102
RTVSPost2010Prop41ColorRGB
 90
        0
102
RTVSPost2010PropOp41
 70
     1
102
RTVSPost2010Prop42
 90
       50
102
RTVSPost2010PropOp42
 70
     1
102
RTVSPost2010Prop43
 90
        3
102
RTVSPost2010PropOp43
 70
     1
102
RTVSPost2010Prop44ColorIndex
 90
        5
102
RTVSPost2010Prop44ColorRGB
 90
      255
102
RTVSPost2010PropOp44
 70
     1
102
RTVSPost2010Prop45
280
     0
102
RTVSPost2010PropOp45
 70
     1
102
RTVSPost2010Prop46
 90
       50
102
RTVSPost2010PropOp46
 70
     1
102
RTVSPost2010Prop47
 90
       50
102
RTVSPost2010PropOp47
 70
     1
102
RTVSPost2010Prop48
 90
       50
102
RTVSPost2010PropOp48
 70
     1
102
RTVSPost2010Prop49
280
     0
102
RTVSPost2010PropOp49
 70
     1
102
RTVSPost2010Prop50
 90
       50
102
RTVSPost2010PropOp50
 70
     1
102
RTVSPost2010Prop51ColorIndex
 90
      256
102
RTVSPost2010Prop51ColorRGB
 90
-16777216
102
RTVSPost2010PropOp51
 70
     0
102
RTVSPost2010Prop52
140
1.0
102
RTVSPost2010PropOp52
 70
     0
102
RTVSPost2010Prop53
 90
        2
102
RTVSPost2010PropOp53
 70
     1
102
RTVSPost2010Prop54
  1
strokes_ogs.tif
102
RTVSPost2010PropOp54
 70
     1
102
RTVSPost2010Prop55
280
     0
102
RTVSPost2010PropOp55
 70
     1
102
RTVSPost2010Prop56
140
1.0
102
RTVSPost2010PropOp56
 70
     1
102
RTVSPost2010Prop57
140
1.0
102
RTVSPost2010PropOp57
 70
     1
  0
XRECORD
  5
15D
102
{ACAD_REACTORS
330
15C
102
}
330
15C
100
AcDbXrecord
280
     1
102
RTVSPost2010Prop28
280
     0
102
RTVSPost2010PropOp28
 70
     0
102
RTVSPost2010Prop29
280
     1
102
RTVSPost2010PropOp29
 70
     0
102
RTVSPost2010Prop30
280
     1
102
RTVSPost2010PropOp30
 70
     0
102
RTVSPost2010Prop31
280
     0
102
RTVSPost2010PropOp31
 70
     0
102
RTVSPost2010Prop32
280
     0
102
RTVSPost2010PropOp32
 70
     0
102
RTVSPost2010Prop33
280
     0
102
RTVSPost2010PropOp33
 70
     0
102
RTVSPost2010Prop34
280
     0
102
RTVSPost2010PropOp34
 70
     0
102
RTVSPost2010Prop35
280
     0
102
RTVSPost2010PropOp35
 70
     0
102
RTVSPost2010Prop36
280
     0
102
RTVSPost2010PropOp36
 70
     0
102
RTVSPost2010Prop37
 90
       50
102
RTVSPost2010PropOp37
 70
     0
102
RTVSPost2010Prop38
140
0.0
102
RTVSPost2010PropOp38
 70
     0
102
RTVSPost2010Prop39
140
1.0
102
RTVSPost2010PropOp39
 70
     0
102
RTVSPost2010Prop40
 90
        0
102
RTVSPost2010PropOp40
 70
     0
102
RTVSPost2010Prop41ColorIndex
 90
       18
102
RTVSPost2010Prop41ColorRGB
 90
        0
102
RTVSPost2010PropOp41
 70
     0
102
RTVSPost2010Prop42
 90
       50
102
RTVSPost2010PropOp42
 70
     0
102
RTVSPost2010Prop43
 90
        3
102
RTVSPost2010PropOp43
 70
     0
102
RTVSPost2010Prop44ColorIndex
 90
        5
102
RTVSPost2010Prop44ColorRGB
 90
      255
102
RTVSPost2010PropOp44
 70
     0
102
RTVSPost2010Prop45
280
     0
102
RTVSPost2010PropOp45
 70
     0
102
RTVSPost2010Prop46
 90
       50
102
RTVSPost2010PropOp46
 70
     0
102
RTVSPost2010Prop47
 90
       50
102
RTVSPost2010PropOp47
 70
     0
102
RTVSPost2010Prop48
 90
       50
102
RTVSPost2010PropOp48
 70
     0
102
RTVSPost2010Prop49
280
     0
102
RTVSPost2010PropOp49
 70
     0
102
RTVSPost2010Prop50
 90
       50
102
RTVSPost2010PropOp50
 70
     0
102
RTVSPost2010Prop51ColorIndex
 90
      256
102
RTVSPost2010Prop51ColorRGB
 90
-16777216
102
RTVSPost2010PropOp51
 70
     0
102
RTVSPost2010Prop52
140
1.0
102
RTVSPost2010PropOp52
 70
     0
102
RTVSPost2010Prop53
 90
        2
102
RTVSPost2010PropOp53
 70
     0
102
RTVSPost2010Prop54
  1
strokes_ogs.tif
102
RTVSPost2010PropOp54
 70
     0
102
RTVSPost2010Prop55
280
     0
102
RTVSPost2010PropOp55
 70
     0
102
RTVSPost2010Prop56
140
1.0
102
RTVSPost2010PropOp56
 70
     0
102
RTVSPost2010Prop57
140
1.0
102
RTVSPost2010PropOp57
 70
     0
  0
XRECORD
  5
14D
102
{ACAD_REACTORS
330
14C
102
}
330
14C
100
AcDbXrecord
280
     1
102
RTVSPost2010Prop28
280
     0
102
RTVSPost2010PropOp28
 70
     1
102
RTVSPost2010Prop29
280
     1
102
RTVSPost2010PropOp29
 70
     1
102
RTVSPost2010Prop30
280
     1
102
RTVSPost2010PropOp30
 70
     1
102
RTVSPost2010Prop31
280
     0
102
RTVSPost2010PropOp31
 70
     1
102
RTVSPost2010Prop32
280
     0
102
RTVSPost2010PropOp32
 70
     1
102
RTVSPost2010Prop33
280
     0
102
RTVSPost2010PropOp33
 70
     1
102
RTVSPost2010Prop34
280
     0
102
RTVSPost2010PropOp34
 70
     1
102
RTVSPost2010Prop35
280
     0
102
RTVSPost2010PropOp35
 70
     1
102
RTVSPost2010Prop36
280
     0
102
RTVSPost2010PropOp36
 70
     1
102
RTVSPost2010Prop37
 90
       50
102
RTVSPost2010PropOp37
 70
     1
102
RTVSPost2010Prop38
140
0.0
102
RTVSPost2010PropOp38
 70
     1
102
RTVSPost2010Prop39
140
1.0
102
RTVSPost2010PropOp39
 70
     1
102
RTVSPost2010Prop40
 90
        0
102
RTVSPost2010PropOp40
 70
     1
102
RTVSPost2010Prop41ColorIndex
 90
       18
102
RTVSPost2010Prop41ColorRGB
 90
        0
102
RTVSPost2010PropOp41
 70
     1
102
RTVSPost2010Prop42
 90
       50
102
RTVSPost2010PropOp42
 70
     1
102
RTVSPost2010Prop43
 90
        3
102
RTVSPost2010PropOp43
 70
     1
102
RTVSPost2010Prop44ColorIndex
 90
        5
102
RTVSPost2010Prop44ColorRGB
 90
      255
102
RTVSPost2010PropOp44
 70
     1
102
RTVSPost2010Prop45
280
     0
102
RTVSPost2010PropOp45
 70
     1
102
RTVSPost2010Prop46
 90
       50
102
RTVSPost2010PropOp46
 70
     1
102
RTVSPost2010Prop47
 90
       50
102
RTVSPost2010PropOp47
 70
     1
102
RTVSPost2010Prop48
 90
       50
102
RTVSPost2010PropOp48
 70
     1
102
RTVSPost2010Prop49
280
     0
102
RTVSPost2010PropOp49
 70
     1
102
RTVSPost2010Prop50
 90
       50
102
RTVSPost2010PropOp50
 70
     1
102
RTVSPost2010Prop51ColorIndex
 90
      256
102
RTVSPost2010Prop51ColorRGB
 90
-16777216
102
RTVSPost2010PropOp51
 70
     0
102
RTVSPost2010Prop52
140
1.0
102
RTVSPost2010PropOp52
 70
     0
102
RTVSPost2010Prop53
 90
        2
102
RTVSPost2010PropOp53
 70
     1
102
RTVSPost2010Prop54
  1
strokes_ogs.tif
102
RTVSPost2010PropOp54
 70
     1
102
RTVSPost2010Prop55
280
     0
102
RTVSPost2010PropOp55
 70
     1
102
RTVSPost2010Prop56
140
1.0
102
RTVSPost2010PropOp56
 70
     1
102
RTVSPost2010Prop57
140
1.0
102
RTVSPost2010PropOp57
 70
     1
  0
XRECORD
  5
15F
102
{ACAD_REACTORS
330
15E
102
}
330
15E
100
AcDbXrecord
280
     1
102
RTVSPost2010Prop28
280
     0
102
RTVSPost2010PropOp28
 70
     0
102
RTVSPost2010Prop29
280
     1
102
RTVSPost2010PropOp29
 70
     0
102
RTVSPost2010Prop30
280
     1
102
RTVSPost2010PropOp30
 70
     0
102
RTVSPost2010Prop31
280
     0
102
RTVSPost2010PropOp31
 70
     0
102
RTVSPost2010Prop32
280
     0
102
RTVSPost2010PropOp32
 70
     0
102
RTVSPost2010Prop33
280
     0
102
RTVSPost2010PropOp33
 70
     0
102
RTVSPost2010Prop34
280
     0
102
RTVSPost2010PropOp34
 70
     0
102
RTVSPost2010Prop35
280
     0
102
RTVSPost2010PropOp35
 70
     0
102
RTVSPost2010Prop36
280
     0
102
RTVSPost2010PropOp36
 70
     0
102
RTVSPost2010Prop37
 90
       50
102
RTVSPost2010PropOp37
 70
     0
102
RTVSPost2010Prop38
140
0.0
102
RTVSPost2010PropOp38
 70
     0
102
RTVSPost2010Prop39
140
1.0
102
RTVSPost2010PropOp39
 70
     0
102
RTVSPost2010Prop40
 90
        0
102
RTVSPost2010PropOp40
 70
     0
102
RTVSPost2010Prop41ColorIndex
 90
       18
102
RTVSPost2010Prop41ColorRGB
 90
        0
102
RTVSPost2010PropOp41
 70
     0
102
RTVSPost2010Prop42
 90
       50
102
RTVSPost2010PropOp42
 70
     0
102
RTVSPost2010Prop43
 90
        3
102
RTVSPost2010PropOp43
 70
     0
102
RTVSPost2010Prop44ColorIndex
 90
        5
102
RTVSPost2010Prop44ColorRGB
 90
      255
102
RTVSPost2010PropOp44
 70
     0
102
RTVSPost2010Prop45
280
     0
102
RTVSPost2010PropOp45
 70
     0
102
RTVSPost2010Prop46
 90
       50
102
RTVSPost2010PropOp46
 70
     0
102
RTVSPost2010Prop47
 90
       50
102
RTVSPost2010PropOp47
 70
     0
102
RTVSPost2010Prop48
 90
       50
102
RTVSPost2010PropOp48
 70
     0
102
RTVSPost2010Prop49
280
     0
102
RTVSPost2010PropOp49
 70
     0
102
RTVSPost2010Prop50
 90
       50
102
RTVSPost2010PropOp50
 70
     0
102
RTVSPost2010Prop51ColorIndex
 90
      256
102
RTVSPost2010Prop51ColorRGB
 90
-16777216
102
RTVSPost2010PropOp51
 70
     0
102
RTVSPost2010Prop52
140
1.0
102
RTVSPost2010PropOp52
 70
     0
102
RTVSPost2010Prop53
 90
        2
102
RTVSPost2010PropOp53
 70
     0
102
RTVSPost2010Prop54
  1
strokes_ogs.tif
102
RTVSPost2010PropOp54
 70
     0
102
RTVSPost2010Prop55
280
     0
102
RTVSPost2010PropOp55
 70
     0
102
RTVSPost2010Prop56
140
1.0
102
RTVSPost2010PropOp56
 70
     0
102
RTVSPost2010Prop57
140
1.0
102
RTVSPost2010PropOp57
 70
     0
  0
XRECORD
  5
145
102
{ACAD_REACTORS
330
144
102
}
330
144
100
AcDbXrecord
280
     1
102
RTVSPost2010Prop28
280
     0
102
RTVSPost2010PropOp28
 70
     1
102
RTVSPost2010Prop29
280
     1
102
RTVSPost2010PropOp29
 70
     1
102
RTVSPost2010Prop30
280
     1
102
RTVSPost2010PropOp30
 70
     1
102
RTVSPost2010Prop31
280
     0
102
RTVSPost2010PropOp31
 70
     1
102
RTVSPost2010Prop32
280
     0
102
RTVSPost2010PropOp32
 70
     1
102
RTVSPost2010Prop33
280
     0
102
RTVSPost2010PropOp33
 70
     1
102
RTVSPost2010Prop34
280
     0
102
RTVSPost2010PropOp34
 70
     1
102
RTVSPost2010Prop35
280
     0
102
RTVSPost2010PropOp35
 70
     1
102
RTVSPost2010Prop36
280
     0
102
RTVSPost2010PropOp36
 70
     1
102
RTVSPost2010Prop37
 90
       50
102
RTVSPost2010PropOp37
 70
     1
102
RTVSPost2010Prop38
140
0.0
102
RTVSPost2010PropOp38
 70
     1
102
RTVSPost2010Prop39
140
1.0
102
RTVSPost2010PropOp39
 70
     1
102
RTVSPost2010Prop40
 90
        0
102
RTVSPost2010PropOp40
 70
     1
102
RTVSPost2010Prop41ColorIndex
 90
       18
102
RTVSPost2010Prop41ColorRGB
 90
        0
102
RTVSPost2010PropOp41
 70
     1
102
RTVSPost2010Prop42
 90
       50
102
RTVSPost2010PropOp42
 70
     1
102
RTVSPost2010Prop43
 90
        3
102
RTVSPost2010PropOp43
 70
     1
102
RTVSPost2010Prop44ColorIndex
 90
        5
102
RTVSPost2010Prop44ColorRGB
 90
      255
102
RTVSPost2010PropOp44
 70
     1
102
RTVSPost2010Prop45
280
     0
102
RTVSPost2010PropOp45
 70
     1
102
RTVSPost2010Prop46
 90
       50
102
RTVSPost2010PropOp46
 70
     1
102
RTVSPost2010Prop47
 90
       50
102
RTVSPost2010PropOp47
 70
     1
102
RTVSPost2010Prop48
 90
       50
102
RTVSPost2010PropOp48
 70
     1
102
RTVSPost2010Prop49
280
     0
102
RTVSPost2010PropOp49
 70
     1
102
RTVSPost2010Prop50
 90
       50
102
RTVSPost2010PropOp50
 70
     1
102
RTVSPost2010Prop51ColorIndex
 90
      256
102
RTVSPost2010Prop51ColorRGB
 90
-16777216
102
RTVSPost2010PropOp51
 70
     0
102
RTVSPost2010Prop52
140
1.0
102
RTVSPost2010PropOp52
 70
     0
102
RTVSPost2010Prop53
 90
        2
102
RTVSPost2010PropOp53
 70
     1
102
RTVSPost2010Prop54
  1
strokes_ogs.tif
102
RTVSPost2010PropOp54
 70
     1
102
RTVSPost2010Prop55
280
     0
102
RTVSPost2010PropOp55
 70
     1
102
RTVSPost2010Prop56
140
1.0
102
RTVSPost2010PropOp56
 70
     1
102
RTVSPost2010Prop57
140
1.0
102
RTVSPost2010PropOp57
 70
     1
  0
XRECORD
  5
15B
102
{ACAD_REACTORS
330
15A
102
}
330
15A
100
AcDbXrecord
280
     1
102
RTVSPost2010Prop28
280
     0
102
RTVSPost2010PropOp28
 70
     1
102
RTVSPost2010Prop29
280
     1
102
RTVSPost2010PropOp29
 70
     1
102
RTVSPost2010Prop30
280
     1
102
RTVSPost2010PropOp30
 70
     1
102
RTVSPost2010Prop31
280
     0
102
RTVSPost2010PropOp31
 70
     1
102
RTVSPost2010Prop32
280
     0
102
RTVSPost2010PropOp32
 70
     1
102
RTVSPost2010Prop33
280
     0
102
RTVSPost2010PropOp33
 70
     1
102
RTVSPost2010Prop34
280
     0
102
RTVSPost2010PropOp34
 70
     1
102
RTVSPost2010Prop35
280
     0
102
RTVSPost2010PropOp35
 70
     1
102
RTVSPost2010Prop36
280
     0
102
RTVSPost2010PropOp36
 70
     1
102
RTVSPost2010Prop37
 90
       50
102
RTVSPost2010PropOp37
 70
     1
102
RTVSPost2010Prop38
140
0.0
102
RTVSPost2010PropOp38
 70
     1
102
RTVSPost2010Prop39
140
1.0
102
RTVSPost2010PropOp39
 70
     1
102
RTVSPost2010Prop40
 90
        0
102
RTVSPost2010PropOp40
 70
     1
102
RTVSPost2010Prop41ColorIndex
 90
       18
102
RTVSPost2010Prop41ColorRGB
 90
        0
102
RTVSPost2010PropOp41
 70
     1
102
RTVSPost2010Prop42
 90
       50
102
RTVSPost2010PropOp42
 70
     1
102
RTVSPost2010Prop43
 90
        3
102
RTVSPost2010PropOp43
 70
     1
102
RTVSPost2010Prop44ColorIndex
 90
        5
102
RTVSPost2010Prop44ColorRGB
 90
      255
102
RTVSPost2010PropOp44
 70
     1
102
RTVSPost2010Prop45
280
     0
102
RTVSPost2010PropOp45
 70
     1
102
RTVSPost2010Prop46
 90
       50
102
RTVSPost2010PropOp46
 70
     1
102
RTVSPost2010Prop47
 90
       50
102
RTVSPost2010PropOp47
 70
     1
102
RTVSPost2010Prop48
 90
       50
102
RTVSPost2010PropOp48
 70
     1
102
RTVSPost2010Prop49
280
     0
102
RTVSPost2010PropOp49
 70
     1
102
RTVSPost2010Prop50
 90
       50
102
RTVSPost2010PropOp50
 70
     1
102
RTVSPost2010Prop51ColorIndex
 90
      256
102
RTVSPost2010Prop51ColorRGB
 90
-16777216
102
RTVSPost2010PropOp51
 70
     0
102
RTVSPost2010Prop52
140
1.0
102
RTVSPost2010PropOp52
 70
     0
102
RTVSPost2010Prop53
 90
        2
102
RTVSPost2010PropOp53
 70
     1
102
RTVSPost2010Prop54
  1
strokes_ogs.tif
102
RTVSPost2010PropOp54
 70
     1
102
RTVSPost2010Prop55
280
     0
102
RTVSPost2010PropOp55
 70
     1
102
RTVSPost2010Prop56
140
1.0
102
RTVSPost2010PropOp56
 70
     1
102
RTVSPost2010Prop57
140
1.0
102
RTVSPost2010PropOp57
 70
     1
  0
XRECORD
  5
159
102
{ACAD_REACTORS
330
158
102
}
330
158
100
AcDbXrecord
280
     1
102
RTVSPost2010Prop28
280
     0
102
RTVSPost2010PropOp28
 70
     1
102
RTVSPost2010Prop29
280
     1
102
RTVSPost2010PropOp29
 70
     1
102
RTVSPost2010Prop30
280
     1
102
RTVSPost2010PropOp30
 70
     1
102
RTVSPost2010Prop31
280
     0
102
RTVSPost2010PropOp31
 70
     1
102
RTVSPost2010Prop32
280
     0
102
RTVSPost2010PropOp32
 70
     1
102
RTVSPost2010Prop33
280
     0
102
RTVSPost2010PropOp33
 70
     1
102
RTVSPost2010Prop34
280
     0
102
RTVSPost2010PropOp34
 70
     1
102
RTVSPost2010Prop35
280
     0
102
RTVSPost2010PropOp35
 70
     1
102
RTVSPost2010Prop36
280
     0
102
RTVSPost2010PropOp36
 70
     1
102
RTVSPost2010Prop37
 90
       50
102
RTVSPost2010PropOp37
 70
     1
102
RTVSPost2010Prop38
140
0.0
102
RTVSPost2010PropOp38
 70
     1
102
RTVSPost2010Prop39
140
1.0
102
RTVSPost2010PropOp39
 70
     1
102
RTVSPost2010Prop40
 90
        0
102
RTVSPost2010PropOp40
 70
     1
102
RTVSPost2010Prop41ColorIndex
 90
       18
102
RTVSPost2010Prop41ColorRGB
 90
        0
102
RTVSPost2010PropOp41
 70
     1
102
RTVSPost2010Prop42
 90
       50
102
RTVSPost2010PropOp42
 70
     1
102
RTVSPost2010Prop43
 90
        3
102
RTVSPost2010PropOp43
 70
     1
102
RTVSPost2010Prop44ColorIndex
 90
        5
102
RTVSPost2010Prop44ColorRGB
 90
      255
102
RTVSPost2010PropOp44
 70
     1
102
RTVSPost2010Prop45
280
     0
102
RTVSPost2010PropOp45
 70
     1
102
RTVSPost2010Prop46
 90
       50
102
RTVSPost2010PropOp46
 70
     1
102
RTVSPost2010Prop47
 90
       50
102
RTVSPost2010PropOp47
 70
     1
102
RTVSPost2010Prop48
 90
       50
102
RTVSPost2010PropOp48
 70
     1
102
RTVSPost2010Prop49
280
     0
102
RTVSPost2010PropOp49
 70
     1
102
RTVSPost2010Prop50
 90
       50
102
RTVSPost2010PropOp50
 70
     1
102
RTVSPost2010Prop51ColorIndex
 90
      256
102
RTVSPost2010Prop51ColorRGB
 90
-16777216
102
RTVSPost2010PropOp51
 70
     0
102
RTVSPost2010Prop52
140
1.0
102
RTVSPost2010PropOp52
 70
     0
102
RTVSPost2010Prop53
 90
        2
102
RTVSPost2010PropOp53
 70
     1
102
RTVSPost2010Prop54
  1
strokes_ogs.tif
102
RTVSPost2010PropOp54
 70
     1
102
RTVSPost2010Prop55
280
     0
102
RTVSPost2010PropOp55
 70
     1
102
RTVSPost2010Prop56
140
1.0
102
RTVSPost2010PropOp56
 70
     1
102
RTVSPost2010Prop57
140
1.0
102
RTVSPost2010PropOp57
 70
     1
  0
XRECORD
  5
153
102
{ACAD_REACTORS
330
152
102
}
330
152
100
AcDbXrecord
280
     1
102
RTVSPost2010Prop28
280
     0
102
RTVSPost2010PropOp28
 70
     1
102
RTVSPost2010Prop29
280
     1
102
RTVSPost2010PropOp29
 70
     1
102
RTVSPost2010Prop30
280
     1
102
RTVSPost2010PropOp30
 70
     1
102
RTVSPost2010Prop31
280
     0
102
RTVSPost2010PropOp31
 70
     1
102
RTVSPost2010Prop32
280
     0
102
RTVSPost2010PropOp32
 70
     1
102
RTVSPost2010Prop33
280
     0
102
RTVSPost2010PropOp33
 70
     1
102
RTVSPost2010Prop34
280
     0
102
RTVSPost2010PropOp34
 70
     1
102
RTVSPost2010Prop35
280
     0
102
RTVSPost2010PropOp35
 70
     1
102
RTVSPost2010Prop36
280
     0
102
RTVSPost2010PropOp36
 70
     1
102
RTVSPost2010Prop37
 90
       50
102
RTVSPost2010PropOp37
 70
     1
102
RTVSPost2010Prop38
140
0.0
102
RTVSPost2010PropOp38
 70
     1
102
RTVSPost2010Prop39
140
1.0
102
RTVSPost2010PropOp39
 70
     1
102
RTVSPost2010Prop40
 90
        0
102
RTVSPost2010PropOp40
 70
     1
102
RTVSPost2010Prop41ColorIndex
 90
       18
102
RTVSPost2010Prop41ColorRGB
 90
        0
102
RTVSPost2010PropOp41
 70
     1
102
RTVSPost2010Prop42
 90
       50
102
RTVSPost2010PropOp42
 70
     1
102
RTVSPost2010Prop43
 90
        3
102
RTVSPost2010PropOp43
 70
     1
102
RTVSPost2010Prop44ColorIndex
 90
        5
102
RTVSPost2010Prop44ColorRGB
 90
      255
102
RTVSPost2010PropOp44
 70
     1
102
RTVSPost2010Prop45
280
     0
102
RTVSPost2010PropOp45
 70
     1
102
RTVSPost2010Prop46
 90
       50
102
RTVSPost2010PropOp46
 70
     1
102
RTVSPost2010Prop47
 90
       50
102
RTVSPost2010PropOp47
 70
     1
102
RTVSPost2010Prop48
 90
       50
102
RTVSPost2010PropOp48
 70
     1
102
RTVSPost2010Prop49
280
     0
102
RTVSPost2010PropOp49
 70
     1
102
RTVSPost2010Prop50
 90
       50
102
RTVSPost2010PropOp50
 70
     1
102
RTVSPost2010Prop51ColorIndex
 90
      256
102
RTVSPost2010Prop51ColorRGB
 90
-16777216
102
RTVSPost2010PropOp51
 70
     0
102
RTVSPost2010Prop52
140
1.0
102
RTVSPost2010PropOp52
 70
     0
102
RTVSPost2010Prop53
 90
        2
102
RTVSPost2010PropOp53
 70
     1
102
RTVSPost2010Prop54
  1
strokes_ogs.tif
102
RTVSPost2010PropOp54
 70
     1
102
RTVSPost2010Prop55
280
     0
102
RTVSPost2010PropOp55
 70
     1
102
RTVSPost2010Prop56
140
1.0
102
RTVSPost2010PropOp56
 70
     1
102
RTVSPost2010Prop57
140
1.0
102
RTVSPost2010PropOp57
 70
     1
  0
XRECORD
  5
155
102
{ACAD_REACTORS
330
154
102
}
330
154
100
AcDbXrecord
280
     1
102
RTVSPost2010Prop28
280
     0
102
RTVSPost2010PropOp28
 70
     1
102
RTVSPost2010Prop29
280
     1
102
RTVSPost2010PropOp29
 70
     1
102
RTVSPost2010Prop30
280
     1
102
RTVSPost2010PropOp30
 70
     1
102
RTVSPost2010Prop31
280
     0
102
RTVSPost2010PropOp31
 70
     1
102
RTVSPost2010Prop32
280
     0
102
RTVSPost2010PropOp32
 70
     1
102
RTVSPost2010Prop33
280
     0
102
RTVSPost2010PropOp33
 70
     1
102
RTVSPost2010Prop34
280
     0
102
RTVSPost2010PropOp34
 70
     1
102
RTVSPost2010Prop35
280
     0
102
RTVSPost2010PropOp35
 70
     1
102
RTVSPost2010Prop36
280
     0
102
RTVSPost2010PropOp36
 70
     1
102
RTVSPost2010Prop37
 90
       50
102
RTVSPost2010PropOp37
 70
     1
102
RTVSPost2010Prop38
140
0.0
102
RTVSPost2010PropOp38
 70
     1
102
RTVSPost2010Prop39
140
1.0
102
RTVSPost2010PropOp39
 70
     1
102
RTVSPost2010Prop40
 90
        0
102
RTVSPost2010PropOp40
 70
     1
102
RTVSPost2010Prop41ColorIndex
 90
       18
102
RTVSPost2010Prop41ColorRGB
 90
        0
102
RTVSPost2010PropOp41
 70
     1
102
RTVSPost2010Prop42
 90
       50
102
RTVSPost2010PropOp42
 70
     1
102
RTVSPost2010Prop43
 90
        3
102
RTVSPost2010PropOp43
 70
     1
102
RTVSPost2010Prop44ColorIndex
 90
        5
102
RTVSPost2010Prop44ColorRGB
 90
      255
102
RTVSPost2010PropOp44
 70
     1
102
RTVSPost2010Prop45
280
     0
102
RTVSPost2010PropOp45
 70
     1
102
RTVSPost2010Prop46
 90
       50
102
RTVSPost2010PropOp46
 70
     1
102
RTVSPost2010Prop47
 90
       50
102
RTVSPost2010PropOp47
 70
     1
102
RTVSPost2010Prop48
 90
       50
102
RTVSPost2010PropOp48
 70
     1
102
RTVSPost2010Prop49
280
     0
102
RTVSPost2010PropOp49
 70
     1
102
RTVSPost2010Prop50
 90
       50
102
RTVSPost2010PropOp50
 70
     1
102
RTVSPost2010Prop51ColorIndex
 90
      256
102
RTVSPost2010Prop51ColorRGB
 90
-16777216
102
RTVSPost2010PropOp51
 70
     0
102
RTVSPost2010Prop52
140
1.0
102
RTVSPost2010PropOp52
 70
     0
102
RTVSPost2010Prop53
 90
        2
102
RTVSPost2010PropOp53
 70
     1
102
RTVSPost2010Prop54
  1
strokes_ogs.tif
102
RTVSPost2010PropOp54
 70
     1
102
RTVSPost2010Prop55
280
     0
102
RTVSPost2010PropOp55
 70
     1
102
RTVSPost2010Prop56
140
1.0
102
RTVSPost2010PropOp56
 70
     1
102
RTVSPost2010Prop57
140
1.0
102
RTVSPost2010PropOp57
 70
     1
  0
XRECORD
  5
14B
102
{ACAD_REACTORS
330
14A
102
}
330
14A
100
AcDbXrecord
280
     1
102
RTVSPost2010Prop28
280
     0
102
RTVSPost2010PropOp28
 70
     1
102
RTVSPost2010Prop29
280
     1
102
RTVSPost2010PropOp29
 70
     1
102
RTVSPost2010Prop30
280
     1
102
RTVSPost2010PropOp30
 70
     1
102
RTVSPost2010Prop31
280
     0
102
RTVSPost2010PropOp31
 70
     1
102
RTVSPost2010Prop32
280
     0
102
RTVSPost2010PropOp32
 70
     1
102
RTVSPost2010Prop33
280
     0
102
RTVSPost2010PropOp33
 70
     1
102
RTVSPost2010Prop34
280
     0
102
RTVSPost2010PropOp34
 70
     1
102
RTVSPost2010Prop35
280
     0
102
RTVSPost2010PropOp35
 70
     1
102
RTVSPost2010Prop36
280
     0
102
RTVSPost2010PropOp36
 70
     1
102
RTVSPost2010Prop37
 90
       50
102
RTVSPost2010PropOp37
 70
     1
102
RTVSPost2010Prop38
140
0.0
102
RTVSPost2010PropOp38
 70
     1
102
RTVSPost2010Prop39
140
1.0
102
RTVSPost2010PropOp39
 70
     1
102
RTVSPost2010Prop40
 90
        0
102
RTVSPost2010PropOp40
 70
     1
102
RTVSPost2010Prop41ColorIndex
 90
       18
102
RTVSPost2010Prop41ColorRGB
 90
        0
102
RTVSPost2010PropOp41
 70
     1
102
RTVSPost2010Prop42
 90
       50
102
RTVSPost2010PropOp42
 70
     1
102
RTVSPost2010Prop43
 90
        3
102
RTVSPost2010PropOp43
 70
     1
102
RTVSPost2010Prop44ColorIndex
 90
        5
102
RTVSPost2010Prop44ColorRGB
 90
      255
102
RTVSPost2010PropOp44
 70
     1
102
RTVSPost2010Prop45
280
     0
102
RTVSPost2010PropOp45
 70
     1
102
RTVSPost2010Prop46
 90
       50
102
RTVSPost2010PropOp46
 70
     1
102
RTVSPost2010Prop47
 90
       50
102
RTVSPost2010PropOp47
 70
     1
102
RTVSPost2010Prop48
 90
       50
102
RTVSPost2010PropOp48
 70
     1
102
RTVSPost2010Prop49
280
     0
102
RTVSPost2010PropOp49
 70
     1
102
RTVSPost2010Prop50
 90
       50
102
RTVSPost2010PropOp50
 70
     1
102
RTVSPost2010Prop51ColorIndex
 90
      256
102
RTVSPost2010Prop51ColorRGB
 90
-16777216
102
RTVSPost2010PropOp51
 70
     0
102
RTVSPost2010Prop52
140
1.0
102
RTVSPost2010PropOp52
 70
     0
102
RTVSPost2010Prop53
 90
        2
102
RTVSPost2010PropOp53
 70
     1
102
RTVSPost2010Prop54
  1
strokes_ogs.tif
102
RTVSPost2010PropOp54
 70
     1
102
RTVSPost2010Prop55
280
     0
102
RTVSPost2010PropOp55
 70
     1
102
RTVSPost2010Prop56
140
1.0
102
RTVSPost2010PropOp56
 70
     1
102
RTVSPost2010Prop57
140
1.0
102
RTVSPost2010PropOp57
 70
     1
  0
XRECORD
  5
13F
102
{ACAD_REACTORS
330
13E
102
}
330
13E
100
AcDbXrecord
280
     1
102
RTVSPost2010Prop28
280
     0
102
RTVSPost2010PropOp28
 70
     1
102
RTVSPost2010Prop29
280
     1
102
RTVSPost2010PropOp29
 70
     1
102
RTVSPost2010Prop30
280
     1
102
RTVSPost2010PropOp30
 70
     1
102
RTVSPost2010Prop31
280
     0
102
RTVSPost2010PropOp31
 70
     1
102
RTVSPost2010Prop32
280
     0
102
RTVSPost2010PropOp32
 70
     1
102
RTVSPost2010Prop33
280
     0
102
RTVSPost2010PropOp33
 70
     1
102
RTVSPost2010Prop34
280
     0
102
RTVSPost2010PropOp34
 70
     1
102
RTVSPost2010Prop35
280
     0
102
RTVSPost2010PropOp35
 70
     1
102
RTVSPost2010Prop36
280
     0
102
RTVSPost2010PropOp36
 70
     1
102
RTVSPost2010Prop37
 90
       50
102
RTVSPost2010PropOp37
 70
     1
102
RTVSPost2010Prop38
140
0.0
102
RTVSPost2010PropOp38
 70
     1
102
RTVSPost2010Prop39
140
1.0
102
RTVSPost2010PropOp39
 70
     1
102
RTVSPost2010Prop40
 90
        0
102
RTVSPost2010PropOp40
 70
     1
102
RTVSPost2010Prop41ColorIndex
 90
       18
102
RTVSPost2010Prop41ColorRGB
 90
        0
102
RTVSPost2010PropOp41
 70
     1
102
RTVSPost2010Prop42
 90
       50
102
RTVSPost2010PropOp42
 70
     1
102
RTVSPost2010Prop43
 90
        3
102
RTVSPost2010PropOp43
 70
     1
102
RTVSPost2010Prop44ColorIndex
 90
        5
102
RTVSPost2010Prop44ColorRGB
 90
      255
102
RTVSPost2010PropOp44
 70
     1
102
RTVSPost2010Prop45
280
     0
102
RTVSPost2010PropOp45
 70
     1
102
RTVSPost2010Prop46
 90
       50
102
RTVSPost2010PropOp46
 70
     1
102
RTVSPost2010Prop47
 90
       50
102
RTVSPost2010PropOp47
 70
     1
102
RTVSPost2010Prop48
 90
       50
102
RTVSPost2010PropOp48
 70
     1
102
RTVSPost2010Prop49
280
     0
102
RTVSPost2010PropOp49
 70
     1
102
RTVSPost2010Prop50
 90
       50
102
RTVSPost2010PropOp50
 70
     1
102
RTVSPost2010Prop51ColorIndex
 90
      256
102
RTVSPost2010Prop51ColorRGB
 90
-16777216
102
RTVSPost2010PropOp51
 70
     0
102
RTVSPost2010Prop52
140
1.0
102
RTVSPost2010PropOp52
 70
     0
102
RTVSPost2010Prop53
 90
        2
102
RTVSPost2010PropOp53
 70
     1
102
RTVSPost2010Prop54
  1
strokes_ogs.tif
102
RTVSPost2010PropOp54
 70
     1
102
RTVSPost2010Prop55
280
     0
102
RTVSPost2010PropOp55
 70
     1
102
RTVSPost2010Prop56
140
1.0
102
RTVSPost2010PropOp56
 70
     1
102
RTVSPost2010Prop57
140
1.0
102
RTVSPost2010PropOp57
 70
     1
  0
XRECORD
  5
157
102
{ACAD_REACTORS
330
156
102
}
330
156
100
AcDbXrecord
280
     1
102
RTVSPost2010Prop28
280
     0
102
RTVSPost2010PropOp28
 70
     1
102
RTVSPost2010Prop29
280
     1
102
RTVSPost2010PropOp29
 70
     1
102
RTVSPost2010Prop30
280
     1
102
RTVSPost2010PropOp30
 70
     1
102
RTVSPost2010Prop31
280
     0
102
RTVSPost2010PropOp31
 70
     1
102
RTVSPost2010Prop32
280
     0
102
RTVSPost2010PropOp32
 70
     1
102
RTVSPost2010Prop33
280
     0
102
RTVSPost2010PropOp33
 70
     1
102
RTVSPost2010Prop34
280
     0
102
RTVSPost2010PropOp34
 70
     1
102
RTVSPost2010Prop35
280
     0
102
RTVSPost2010PropOp35
 70
     1
102
RTVSPost2010Prop36
280
     0
102
RTVSPost2010PropOp36
 70
     1
102
RTVSPost2010Prop37
 90
       50
102
RTVSPost2010PropOp37
 70
     1
102
RTVSPost2010Prop38
140
0.0
102
RTVSPost2010PropOp38
 70
     1
102
RTVSPost2010Prop39
140
1.0
102
RTVSPost2010PropOp39
 70
     1
102
RTVSPost2010Prop40
 90
        0
102
RTVSPost2010PropOp40
 70
     1
102
RTVSPost2010Prop41ColorIndex
 90
       18
102
RTVSPost2010Prop41ColorRGB
 90
        0
102
RTVSPost2010PropOp41
 70
     1
102
RTVSPost2010Prop42
 90
       50
102
RTVSPost2010PropOp42
 70
     1
102
RTVSPost2010Prop43
 90
        3
102
RTVSPost2010PropOp43
 70
     1
102
RTVSPost2010Prop44ColorIndex
 90
        5
102
RTVSPost2010Prop44ColorRGB
 90
      255
102
RTVSPost2010PropOp44
 70
     1
102
RTVSPost2010Prop45
280
     0
102
RTVSPost2010PropOp45
 70
     1
102
RTVSPost2010Prop46
 90
       50
102
RTVSPost2010PropOp46
 70
     1
102
RTVSPost2010Prop47
 90
       50
102
RTVSPost2010PropOp47
 70
     1
102
RTVSPost2010Prop48
 90
       50
102
RTVSPost2010PropOp48
 70
     1
102
RTVSPost2010Prop49
280
     0
102
RTVSPost2010PropOp49
 70
     1
102
RTVSPost2010Prop50
 90
       50
102
RTVSPost2010PropOp50
 70
     1
102
RTVSPost2010Prop51ColorIndex
 90
      256
102
RTVSPost2010Prop51ColorRGB
 90
-16777216
102
RTVSPost2010PropOp51
 70
     0
102
RTVSPost2010Prop52
140
1.0
102
RTVSPost2010PropOp52
 70
     0
102
RTVSPost2010Prop53
 90
        2
102
RTVSPost2010PropOp53
 70
     1
102
RTVSPost2010Prop54
  1
strokes_ogs.tif
102
RTVSPost2010PropOp54
 70
     1
102
RTVSPost2010Prop55
280
     0
102
RTVSPost2010PropOp55
 70
     1
102
RTVSPost2010Prop56
140
1.0
102
RTVSPost2010PropOp56
 70
     1
102
RTVSPost2010Prop57
140
1.0
102
RTVSPost2010PropOp57
 70
     1
  0
ENDSEC
  0
EOF
