  0
SECTION
  2
HEADER
  9
$ACADVER
  1
AC1024
  9
$ACADMAINTVER
 70
   226
  9
$DWGCODEPAGE
  3
ANSI_932
  9
$INSBASE
 10
0.0
 20
0.0
 30
0.0
  9
$EXTMIN
 10
1.000000000000000E+20
 20
1.000000000000000E+20
 30
1.000000000000000E+20
  9
$EXTMAX
 10
-1.000000000000000E+20
 20
-1.000000000000000E+20
 30
-1.000000000000000E+20
  9
$LIMMIN
 10
0.0
 20
0.0
  9
$LIMMAX
 10
12.0
 20
9.0
  9
$ORTHOMODE
 70
     0
  9
$REGENMODE
 70
     1
  9
$FILLMODE
 70
     1
  9
$QTEXTMODE
 70
     0
  9
$MIRRTEXT
 70
     0
  9
$LTSCALE
 40
1.0
  9
$ATTMODE
 70
     1
  9
$TEXTSIZE
 40
0.2
  9
$TRACEWID
 40
0.05
  9
$TEXTSTYLE
  7
Standard
  9
$CLAYER
  8
0
  9
$CELTYPE
  6
ByLayer
  9
$CECOLOR
 62
   256
  9
$CELTSCALE
 40
1.0
  9
$DISPSILH
 70
     0
  9
$DIMSCALE
 40
1.0
  9
$DIMASZ
 40
0.18
  9
$DIMEXO
 40
0.0625
  9
$DIMDLI
 40
0.38
  9
$DIMRND
 40
0.0
  9
$DIMDLE
 40
0.0
  9
$DIMEXE
 40
0.18
  9
$DIMTP
 40
0.0
  9
$DIMTM
 40
0.0
  9
$DIMTXT
 40
0.18
  9
$DIMCEN
 40
0.09
  9
$DIMTSZ
 40
0.0
  9
$DIMTOL
 70
     0
  9
$DIMLIM
 70
     0
  9
$DIMTIH
 70
     1
  9
$DIMTOH
 70
     1
  9
$DIMSE1
 70
     0
  9
$DIMSE2
 70
     0
  9
$DIMTAD
 70
     0
  9
$DIMZIN
 70
     0
  9
$DIMBLK
  1

  9
$DIMASO
 70
     1
  9
$DIMSHO
 70
     1
  9
$DIMPOST
  1

  9
$DIMAPOST
  1

  9
$DIMALT
 70
     0
  9
$DIMALTD
 70
     2
  9
$DIMALTF
 40
25.4
  9
$DIMLFAC
 40
1.0
  9
$DIMTOFL
 70
     0
  9
$DIMTVP
 40
0.0
  9
$DIMTIX
 70
     0
  9
$DIMSOXD
 70
     0
  9
$DIMSAH
 70
     0
  9
$DIMBLK1
  1

  9
$DIMBLK2
  1

  9
$DIMSTYLE
  2
Standard
  9
$DIMCLRD
 70
     0
  9
$DIMCLRE
 70
     0
  9
$DIMCLRT
 70
     0
  9
$DIMTFAC
 40
1.0
  9
$DIMGAP
 40
0.09
  9
$DIMJUST
 70
     0
  9
$DIMSD1
 70
     0
  9
$DIMSD2
 70
     0
  9
$DIMTOLJ
 70
     1
  9
$DIMTZIN
 70
     0
  9
$DIMALTZ
 70
     0
  9
$DIMALTTZ
 70
     0
  9
$DIMUPT
 70
     0
  9
$DIMDEC
 70
     4
  9
$DIMTDEC
 70
     4
  9
$DIMALTU
 70
     2
  9
$DIMALTTD
 70
     2
  9
$DIMTXSTY
  7
Standard
  9
$DIMAUNIT
 70
     0
  9
$DIMADEC
 70
     0
  9
$DIMALTRND
 40
0.0
  9
$DIMAZIN
 70
     0
  9
$DIMDSEP
 70
    46
  9
$DIMATFIT
 70
     3
  9
$DIMFRAC
 70
     0
  9
$DIMLDRBLK
  1

  9
$DIMLUNIT
 70
     2
  9
$DIMLWD
 70
    -2
  9
$DIMLWE
 70
    -2
  9
$DIMTMOVE
 70
     0
  9
$DIMFXL
 40
1.0
  9
$DIMFXLON
 70
     0
  9
$DIMJOGANG
 40
0.7853981633974483
  9
$DIMTFILL
 70
     0
  9
$DIMTFILLCLR
 70
     0
  9
$DIMARCSYM
 70
     0
  9
$DIMLTYPE
  6

  9
$DIMLTEX1
  6

  9
$DIMLTEX2
  6

  9
$DIMTXTDIRECTION
 70
     0
  9
$LUNITS
 70
     2
  9
$LUPREC
 70
     4
  9
$SKETCHINC
 40
0.1
  9
$FILLETRAD
 40
0.0
  9
$AUNITS
 70
     0
  9
$AUPREC
 70
     0
  9
$MENU
  1
.
  9
$ELEVATION
 40
0.0
  9
$PELEVATION
 40
0.0
  9
$THICKNESS
 40
0.0
  9
$LIMCHECK
 70
     0
  9
$CHAMFERA
 40
0.0
  9
$CHAMFERB
 40
0.0
  9
$CHAMFERC
 40
0.0
  9
$CHAMFERD
 40
0.0
  9
$SKPOLY
 70
     0
  9
$TDCREATE
 40
2459569.490335648
  9
$TDUCREATE
 40
2459569.115335648
  9
$TDUPDATE
 40
2459569.490335648
  9
$TDUUPDATE
 40
2459569.115335648
  9
$TDINDWG
 40
0.0000000000
  9
$TDUSRTIMER
 40
0.0000000000
  9
$USRTIMER
 70
     1
  9
$ANGBASE
 50
0.0
  9
$ANGDIR
 70
     0
  9
$PDMODE
 70
     0
  9
$PDSIZE
 40
0.0
  9
$PLINEWID
 40
0.0
  9
$SPLFRAME
 70
     0
  9
$SPLINETYPE
 70
     6
  9
$SPLINESEGS
 70
     8
  9
$HANDSEED
  5
162
  9
$SURFTAB1
 70
     6
  9
$SURFTAB2
 70
     6
  9
$SURFTYPE
 70
     6
  9
$SURFU
 70
     6
  9
$SURFV
 70
     6
  9
$UCSBASE
  2

  9
$UCSNAME
  2

  9
$UCSORG
 10
0.0
 20
0.0
 30
0.0
  9
$UCSXDIR
 10
1.0
 20
0.0
 30
0.0
  9
$UCSYDIR
 10
0.0
 20
1.0
 30
0.0
  9
$UCSORTHOREF
  2

  9
$UCSORTHOVIEW
 70
     0
  9
$UCSORGTOP
 10
0.0
 20
0.0
 30
0.0
  9
$UCSORGBOTTOM
 10
0.0
 20
0.0
 30
0.0
  9
$UCSORGLEFT
 10
0.0
 20
0.0
 30
0.0
  9
$UCSORGRIGHT
 10
0.0
 20
0.0
 30
0.0
  9
$UCSORGFRONT
 10
0.0
 20
0.0
 30
0.0
  9
$UCSORGBACK
 10
0.0
 20
0.0
 30
0.0
  9
$PUCSBASE
  2

  9
$PUCSNAME
  2

  9
$PUCSORG
 10
0.0
 20
0.0
 30
0.0
  9
$PUCSXDIR
 10
1.0
 20
0.0
 30
0.0
  9
$PUCSYDIR
 10
0.0
 20
1.0
 30
0.0
  9
$PUCSORTHOREF
  2

  9
$PUCSORTHOVIEW
 70
     0
  9
$PUCSORGTOP
 10
0.0
 20
0.0
 30
0.0
  9
$PUCSORGBOTTOM
 10
0.0
 20
0.0
 30
0.0
  9
$PUCSORGLEFT
 10
0.0
 20
0.0
 30
0.0
  9
$PUCSORGRIGHT
 10
0.0
 20
0.0
 30
0.0
  9
$PUCSORGFRONT
 10
0.0
 20
0.0
 30
0.0
  9
$PUCSORGBACK
 10
0.0
 20
0.0
 30
0.0
  9
$USERI1
 70
     0
  9
$USERI2
 70
     0
  9
$USERI3
 70
     0
  9
$USERI4
 70
     0
  9
$USERI5
 70
     0
  9
$USERR1
 40
0.0
  9
$USERR2
 40
0.0
  9
$USERR3
 40
0.0
  9
$USERR4
 40
0.0
  9
$USERR5
 40
0.0
  9
$WORLDVIEW
 70
     1
  9
$SHADEDGE
 70
     3
  9
$SHADEDIF
 70
    70
  9
$TILEMODE
 70
     1
  9
$MAXACTVP
 70
    64
  9
$PINSBASE
 10
0.0
 20
0.0
 30
0.0
  9
$PLIMCHECK
 70
     0
  9
$PEXTMIN
 10
1.000000000000000E+20
 20
1.000000000000000E+20
 30
1.000000000000000E+20
  9
$PEXTMAX
 10
-1.000000000000000E+20
 20
-1.000000000000000E+20
 30
-1.000000000000000E+20
  9
$PLIMMIN
 10
0.0
 20
0.0
  9
$PLIMMAX
 10
12.0
 20
9.0
  9
$UNITMODE
 70
     0
  9
$VISRETAIN
 70
     1
  9
$PLINEGEN
 70
     0
  9
$PSLTSCALE
 70
     1
  9
$TREEDEPTH
 70
  3020
  9
$CMLSTYLE
  2
Standard
  9
$CMLJUST
 70
     0
  9
$CMLSCALE
 40
1.0
  9
$PROXYGRAPHICS
 70
     1
  9
$MEASUREMENT
 70
     0
  9
$CELWEIGHT
370
    -1
  9
$ENDCAPS
280
     0
  9
$JOINSTYLE
280
     0
  9
$LWDISPLAY
290
     1
  9
$INSUNITS
 70
     4
  9
$HYPERLINKBASE
  1

  9
$STYLESHEET
  1

  9
$XEDIT
290
     1
  9
$CEPSNTYPE
380
     0
  9
$PSTYLEMODE
290
     1
  9
$FINGERPRINTGUID
  2
{8816EC86-755A-0842-AA28-D9489D95985D}
  9
$VERSIONGUID
  2
{591EA212-A25A-8147-9801-A39CA97A5C4E}
  9
$EXTNAMES
290
     1
  9
$PSVPSCALE
 40
0.0
  9
$OLESTARTUP
290
     0
  9
$SORTENTS
280
   127
  9
$INDEXCTL
280
     0
  9
$HIDETEXT
280
     1
  9
$XCLIPFRAME
280
     2
  9
$HALOGAP
280
     0
  9
$OBSCOLOR
 70
   257
  9
$OBSLTYPE
280
     0
  9
$INTERSECTIONDISPLAY
280
     0
  9
$INTERSECTIONCOLOR
 70
   257
  9
$DIMASSOC
280
     2
  9
$PROJECTNAME
  1

  9
$CAMERADISPLAY
290
     0
  9
$LENSLENGTH
 40
50.0
  9
$CAMERAHEIGHT
 40
0.0
  9
$STEPSPERSEC
 40
2.0
  9
$STEPSIZE
 40
6.0
  9
$3DDWFPREC
 40
2.0
  9
$PSOLWIDTH
 40
0.25
  9
$PSOLHEIGHT
 40
4.0
  9
$LOFTANG1
 40
1.570796326794896
  9
$LOFTANG2
 40
1.570796326794896
  9
$LOFTMAG1
 40
0.0
  9
$LOFTMAG2
 40
0.0
  9
$LOFTPARAM
 70
     7
  9
$LOFTNORMALS
280
     1
  9
$LATITUDE
 40
37.795
  9
$LONGITUDE
 40
-122.394
  9
$NORTHDIRECTION
 40
0.0
  9
$TIMEZONE
 70
 -8000
  9
$LIGHTGLYPHDISPLAY
280
     1
  9
$TILEMODELIGHTSYNCH
280
     1
  9
$CMATERIAL
347
11
  9
$SOLIDHIST
280
     0
  9
$SHOWHIST
280
     1
  9
$DWFFRAME
280
     2
  9
$DGNFRAME
280
     0
  9
$REALWORLDSCALE
290
     1
  9
$INTERFERECOLOR
 62
     1
  9
$INTERFEREOBJVS
345
33
  9
$INTERFEREVPVS
346
30
  9
$CSHADOW
280
     0
  9
$SHADOWPLANELOCATION
 40
0.0
  0
ENDSEC
  0
SECTION
  2
CLASSES
  0
CLASS
  1
ACDBDICTIONARYWDFLT
  2
AcDbDictionaryWithDefault
  3
ObjectDBX Classes
 90
        0
 91
        1
280
     0
281
     0
  0
CLASS
  1
MATERIAL
  2
AcDbMaterial
  3
ObjectDBX Classes
 90
     1153
 91
        3
280
     0
281
     0
  0
CLASS
  1
VISUALSTYLE
  2
AcDbVisualStyle
  3
ObjectDBX Classes
 90
     4095
 91
       24
280
     0
281
     0
  0
CLASS
  1
SCALE
  2
AcDbScale
  3
ObjectDBX Classes
 90
     1153
 91
       17
280
     0
281
     0
  0
CLASS
  1
TABLESTYLE
  2
AcDbTableStyle
  3
ObjectDBX Classes
 90
     4095
 91
        1
280
     0
281
     0
  0
CLASS
  1
MLEADERSTYLE
  2
AcDbMLeaderStyle
  3
ACDB_MLEADERSTYLE_CLASS
 90
     4095
 91
        1
280
     0
281
     0
  0
CLASS
  1
ACDBSECTIONVIEWSTYLE
  2
AcDbSectionViewStyle
  3
ObjectDBX Classes
 90
     1025
 91
        1
280
     0
281
     0
  0
CLASS
  1
ACDBDETAILVIEWSTYLE
  2
AcDbDetailViewStyle
  3
ObjectDBX Classes
 90
     1025
 91
        1
280
     0
281
     0
  0
CLASS
  1
DICTIONARYVAR
  2
AcDbDictionaryVar
  3
ObjectDBX Classes
 90
        0
 91
        5
280
     0
281
     0
  0
CLASS
  1
CELLSTYLEMAP
  2
AcDbCellStyleMap
  3
ObjectDBX Classes
 90
     1152
 91
        1
280
     0
281
     0
  0
ENDSEC
  0
SECTION
  2
TABLES
  0
TABLE
  2
VPORT
  5
8
330
0
100
AcDbSymbolTable
 70
     1
  0
VPORT
  5
57
330
8
100
AcDbSymbolTableRecord
100
AcDbViewportTableRecord
  2
*Active
 70
     0
 10
0.0
 20
0.0
 11
1.0
 21
1.0
 12
0.0
 22
0.0
 13
0.0
 23
0.0
 14
1.0
 24
1.0
 15
0.0
 25
0.0
 16
0.0
 26
0.0
 36
1.0
 17
104.9999999737534
 27
-148.4999999628701
 37
0.0
 40
302.939999924255
 41
0.7070707070707534
 42
50.0
 43
0.0
 44
0.0
 50
0.0
 51
0.0
 71
     0
 72
   100
 73
     1
 74
     0
 75
     1
 76
     0
 77
     0
 78
     0
281
     0
 65
     1
110
0.0
120
0.0
130
0.0
111
1.0
121
0.0
131
0.0
112
0.0
122
1.0
132
0.0
 79
     0
146
0.0
 60
     3
 61
     5
292
     1
282
     1
141
0.0
142
0.0
 63
   250
421
  3355443
  0
ENDTAB
  0
TABLE
  2
LTYPE
  5
5
330
0
100
AcDbSymbolTable
 70
     2
  0
LTYPE
  5
5B
330
5
100
AcDbSymbolTableRecord
100
AcDbLinetypeTableRecord
  2
ByBlock
 70
     0
  3

 72
    65
 73
     0
 40
0.0
  0
LTYPE
  5
5C
330
5
100
AcDbSymbolTableRecord
100
AcDbLinetypeTableRecord
  2
ByLayer
 70
     0
  3

 72
    65
 73
     0
 40
0.0
  0
LTYPE
  5
5D
330
5
100
AcDbSymbolTableRecord
100
AcDbLinetypeTableRecord
  2
Continuous
 70
     0
  3
Solid line
 72
    65
 73
     0
 40
0.0
  0
LTYPE
  5
E1
330
5
100
AcDbSymbolTableRecord
100
AcDbLinetypeTableRecord
  2
AI-Linetype-0
 70
     0
  3
Adobe Illustrator Linetype No. 0
 72
    65
 73
     2
 40
1.411111110758333
 49
0.7055555553791667
 74
     0
 49
-0.7055555553791667
 74
     0
  0
ENDTAB
  0
TABLE
  2
LAYER
  5
2
330
0
100
AcDbSymbolTable
 70
     2
  0
LAYER
  5
54
330
2
100
AcDbSymbolTableRecord
100
AcDbLayerTableRecord
  2
0
 70
     0
 62
     7
  6
Continuous
370
    -3
390
F
347
21
  0
LAYER
  5
78
330
2
100
AcDbSymbolTableRecord
100
AcDbLayerTableRecord
  2
レイヤー 1
 70
     0
 62
     7
  6
Continuous
370
     0
390
F
347
21
  0
ENDTAB
  0
TABLE
  2
STYLE
  5
3
330
0
100
AcDbSymbolTable
 70
     2
  0
STYLE
  5
55
330
3
100
AcDbSymbolTableRecord
100
AcDbTextStyleTableRecord
  2
Standard
 70
     0
 40
0.0
 41
1.0
 50
0.0
 71
     0
 42
0.2
  3
txt
  4

  0
STYLE
  5
5A
330
3
100
AcDbSymbolTableRecord
100
AcDbTextStyleTableRecord
  2
Annotative
 70
     0
 40
0.0
 41
1.0
 50
0.0
 71
     0
 42
0.2
  3
txt
  4

1001
AcadAnnotative
1000
AnnotativeData
1002
{
1070
     1
1070
     1
1002
}
  0
ENDTAB
  0
TABLE
  2
VIEW
  5
6
330
0
100
AcDbSymbolTable
 70
     0
  0
ENDTAB
  0
TABLE
  2
UCS
  5
7
330
0
100
AcDbSymbolTable
 70
     0
  0
ENDTAB
  0
TABLE
  2
APPID
  5
9
330
0
100
AcDbSymbolTable
 70
     2
  0
APPID
  5
56
330
9
100
AcDbSymbolTableRecord
100
AcDbRegAppTableRecord
  2
ACAD
 70
     0
  0
APPID
  5
5E
330
9
100
AcDbSymbolTableRecord
100
AcDbRegAppTableRecord
  2
AcadAnnotative
 70
     0
  0
ENDTAB
  0
TABLE
  2
DIMSTYLE
  5
A
330
0
100
AcDbSymbolTable
 70
     2
100
AcDbDimStyleTable
 71
     0
  0
DIMSTYLE
105
58
330
A
100
AcDbSymbolTableRecord
100
AcDbDimStyleTableRecord
  2
Standard
 70
     0
340
55
  0
DIMSTYLE
105
59
330
A
100
AcDbSymbolTableRecord
100
AcDbDimStyleTableRecord
  2
Annotative
 70
     0
340
55
1001
AcadAnnotative
1000
AnnotativeData
1002
{
1070
     1
1070
     1
1002
}
  0
ENDTAB
  0
TABLE
  2
BLOCK_RECORD
  5
1
330
0
100
AcDbSymbolTable
 70
    15
  0
BLOCK_RECORD
  5
70
330
1
100
AcDbSymbolTableRecord
100
AcDbBlockTableRecord
  2
*Model_Space
340
73
 70
     0
280
     1
281
     0
  0
BLOCK_RECORD
  5
6C
330
1
100
AcDbSymbolTableRecord
100
AcDbBlockTableRecord
  2
*Paper_Space
340
6F
 70
     0
280
     1
281
     0
  0
BLOCK_RECORD
  5
74
330
1
100
AcDbSymbolTableRecord
100
AcDbBlockTableRecord
  2
*Paper_Space0
340
77
 70
     0
280
     1
281
     0
  0
BLOCK_RECORD
  5
79
330
1
100
AcDbSymbolTableRecord
100
AcDbBlockTableRecord
  2
Block_0
340
0
102
{BLKREFS
331
7A
102
}
 70
     0
280
     1
281
     0
  0
BLOCK_RECORD
  5
7D
330
1
100
AcDbSymbolTableRecord
100
AcDbBlockTableRecord
  2
Block_1
340
0
102
{BLKREFS
331
7E
102
}
 70
     0
280
     1
281
     0
  0
BLOCK_RECORD
  5
94
330
1
100
AcDbSymbolTableRecord
100
AcDbBlockTableRecord
  2
Block_2
340
0
102
{BLKREFS
331
95
102
}
 70
     0
280
     1
281
     0
  0
BLOCK_RECORD
  5
9C
330
1
100
AcDbSymbolTableRecord
100
AcDbBlockTableRecord
  2
Block_3
340
0
102
{BLKREFS
331
9D
102
}
 70
     0
280
     1
281
     0
  0
BLOCK_RECORD
  5
A0
330
1
100
AcDbSymbolTableRecord
100
AcDbBlockTableRecord
  2
Block_4
340
0
102
{BLKREFS
331
A1
102
}
 70
     0
280
     1
281
     0
  0
BLOCK_RECORD
  5
AA
330
1
100
AcDbSymbolTableRecord
100
AcDbBlockTableRecord
  2
Block_5
340
0
102
{BLKREFS
331
AB
102
}
 70
     0
280
     1
281
     0
  0
BLOCK_RECORD
  5
AE
330
1
100
AcDbSymbolTableRecord
100
AcDbBlockTableRecord
  2
Block_6
340
0
102
{BLKREFS
331
AF
102
}
 70
     0
280
     1
281
     0
  0
BLOCK_RECORD
  5
BD
330
1
100
AcDbSymbolTableRecord
100
AcDbBlockTableRecord
  2
Block_7
340
0
102
{BLKREFS
331
BE
102
}
 70
     0
280
     1
281
     0
  0
BLOCK_RECORD
  5
C1
330
1
100
AcDbSymbolTableRecord
100
AcDbBlockTableRecord
  2
Block_8
340
0
102
{BLKREFS
331
C2
102
}
 70
     0
280
     1
281
     0
  0
BLOCK_RECORD
  5
D1
330
1
100
AcDbSymbolTableRecord
100
AcDbBlockTableRecord
  2
Block_9
340
0
102
{BLKREFS
331
D2
102
}
 70
     0
280
     1
281
     0
  0
BLOCK_RECORD
  5
D5
330
1
100
AcDbSymbolTableRecord
100
AcDbBlockTableRecord
  2
Block_10
340
0
102
{BLKREFS
331
D6
102
}
 70
     0
280
     1
281
     0
  0
BLOCK_RECORD
  5
E2
330
1
100
AcDbSymbolTableRecord
100
AcDbBlockTableRecord
  2
Block_11
340
0
102
{BLKREFS
331
E3
102
}
 70
     0
280
     1
281
     0
  0
BLOCK_RECORD
  5
E9
330
1
100
AcDbSymbolTableRecord
100
AcDbBlockTableRecord
  2
Block_12
340
0
102
{BLKREFS
331
EA
102
}
 70
     0
280
     1
281
     0
  0
BLOCK_RECORD
  5
ED
330
1
100
AcDbSymbolTableRecord
100
AcDbBlockTableRecord
  2
Block_13
340
0
102
{BLKREFS
331
EE
102
}
 70
     0
280
     1
281
     0
  0
ENDTAB
  0
ENDSEC
  0
SECTION
  2
BLOCKS
  0
BLOCK
  5
71
330
70
100
AcDbEntity
  8
0
100
AcDbBlockBegin
  2
*Model_Space
 70
     0
 10
0.0
 20
0.0
 30
0.0
  3
*Model_Space
  1

  0
ENDBLK
  5
72
330
70
100
AcDbEntity
  8
0
100
AcDbBlockEnd
  0
BLOCK
  5
6D
330
6C
100
AcDbEntity
 67
     1
  8
0
100
AcDbBlockBegin
  2
*Paper_Space
 70
     0
 10
0.0
 20
0.0
 30
0.0
  3
*Paper_Space
  1

  0
ENDBLK
  5
6E
330
6C
100
AcDbEntity
 67
     1
  8
0
100
AcDbBlockEnd
  0
BLOCK
  5
75
330
74
100
AcDbEntity
 67
     1
  8
0
100
AcDbBlockBegin
  2
*Paper_Space0
 70
     0
 10
0.0
 20
0.0
 30
0.0
  3
*Paper_Space0
  1

  0
ENDBLK
  5
76
330
74
100
AcDbEntity
 67
     1
  8
0
100
AcDbBlockEnd
  0
BLOCK
  5
7B
330
79
100
AcDbEntity
  8
0
100
AcDbBlockBegin
  2
Block_0
 70
     0
 10
0.0
 20
0.0
 30
0.0
  3
Block_0
  1

  0
INSERT
  5
7E
330
79
100
AcDbEntity
  8
レイヤー 1
100
AcDbBlockReference
  2
Block_1
 10
0.0
 20
0.0
 30
0.0
  0
ENDBLK
  5
7C
330
79
100
AcDbEntity
  8
0
100
AcDbBlockEnd
  0
BLOCK
  5
7F
330
7D
100
AcDbEntity
  8
0
100
AcDbBlockBegin
  2
Block_1
 70
     0
 10
0.0
 20
0.0
 30
0.0
  3
Block_1
  1

  0
LINE
  5
81
330
7D
100
AcDbEntity
  8
レイヤー 1
 62
   250
420
  2299925
370
    25
100
AcDbLine
 10
79.99597774363777
 20
-143.2572011094385
 30
0.0
 11
85.99598524213702
 21
-143.2572011094385
 31
0.0
  0
LINE
  5
82
330
7D
100
AcDbEntity
  8
レイヤー 1
 62
   250
420
  2299925
370
    25
100
AcDbLine
 10
84.99598895085327
 20
-144.2569733194
 30
0.0
 11
84.99598895085327
 21
-153.7570301073686
 31
0.0
  0
LINE
  5
83
330
7D
100
AcDbEntity
  8
レイヤー 1
 62
   250
420
  2299925
370
    25
100
AcDbLine
 10
79.99597774363777
 20
-144.2569733061544
 30
0.0
 11
84.99598885349854
 21
-144.2569733061544
 31
0.0
  0
LINE
  5
84
330
7D
100
AcDbEntity
  8
レイヤー 1
 62
   250
420
  2299925
370
    25
100
AcDbLine
 10
79.99597774363777
 20
-143.2572011094385
 30
0.0
 11
79.99597774363777
 21
-144.2569733061544
 31
0.0
  0
LINE
  5
85
330
7D
100
AcDbEntity
  8
レイヤー 1
 62
   250
420
  2299925
370
    25
100
AcDbLine
 10
85.99598533460778
 20
-143.2572011226841
 30
0.0
 11
85.99598533460778
 21
-152.7573512465102
 31
0.0
  0
LINE
  5
86
330
7D
100
AcDbEntity
  8
レイヤー 1
 62
   250
420
  2299925
370
    25
100
AcDbLine
 10
101.9959610201466
 20
-152.7573512465102
 30
0.0
 11
101.9959610201466
 21
-153.1573306807503
 31
0.0
  0
LINE
  5
87
330
7D
100
AcDbEntity
  8
レイヤー 1
 62
   250
420
  2299925
370
    25
100
AcDbLine
 10
85.99598533949174
 20
-152.7573512465102
 30
0.0
 11
101.9959610201466
 21
-152.7573512465102
 31
0.0
  0
LINE
  5
88
330
7D
100
AcDbEntity
  8
レイヤー 1
 62
   250
420
  2299925
370
    25
100
AcDbLine
 10
101.9959610201466
 20
-153.1573306807503
 30
0.0
 11
84.99598895085327
 21
-153.7570301073686
 31
0.0
  0
SPLINE
  5
89
330
7D
100
AcDbEntity
  8
レイヤー 1
 62
   250
420
  2299925
370
     9
100
AcDbSpline
210
0.0
220
0.0
230
1.0
 70
    11
 71
     3
 72
    17
 73
    13
 74
     0
 42
0.0000000001
 43
0.0000000001
 40
0.0
 40
0.0
 40
0.0
 40
0.0
 40
1.0
 40
1.0
 40
1.0
 40
2.0
 40
2.0
 40
2.0
 40
3.0
 40
3.0
 40
3.0
 40
4.0
 40
4.0
 40
4.0
 40
4.0
 10
106.0963333900226
 20
-143.2572011094385
 30
0.0
 10
106.0963333900226
 20
-143.201920833071
 30
0.0
 10
106.0515306122558
 20
-143.1571180564363
 30
0.0
 10
105.9957200847709
 20
-143.1571180564363
 30
0.0
 10
105.9406161972878
 20
-143.1571180564363
 30
0.0
 10
105.8958134206531
 20
-143.201920833071
 30
0.0
 10
105.8958134206531
 20
-143.2572011094385
 30
0.0
 10
105.8958134206531
 20
-143.312481385806
 30
0.0
 10
105.9406161972878
 20
-143.3572841624407
 30
0.0
 10
105.9957200847709
 20
-143.3572841624407
 30
0.0
 10
106.0515306122558
 20
-143.3572841624407
 30
0.0
 10
106.0963333900226
 20
-143.312481385806
 30
0.0
 10
106.0963333900226
 20
-143.2572011094385
 30
0.0
  0
SPLINE
  5
8A
330
7D
100
AcDbEntity
  8
レイヤー 1
 62
   250
420
  2299925
370
     9
100
AcDbSpline
210
0.0
220
0.0
230
1.0
 70
     9
 71
     3
 72
    17
 73
    13
 74
     0
 42
0.0000000001
 43
0.0000000001
 40
0.0
 40
0.0
 40
0.0
 40
0.0
 40
1.0
 40
1.0
 40
1.0
 40
2.0
 40
2.0
 40
2.0
 40
3.0
 40
3.0
 40
3.0
 40
4.0
 40
4.0
 40
4.0
 40
4.0
 10
106.0963333900226
 20
-152.7573512465102
 30
0.0
 10
106.0963333900226
 20
-152.7018945812583
 30
0.0
 10
106.0515306122558
 20
-152.6570918046236
 30
0.0
 10
105.9957200847709
 20
-152.6570918046236
 30
0.0
 10
105.9406161972878
 20
-152.6570918046236
 30
0.0
 10
105.8958134206531
 20
-152.7018945812583
 30
0.0
 10
105.8958134206531
 20
-152.7573512465102
 30
0.0
 10
105.8958134206531
 20
-152.8124551339932
 30
0.0
 10
105.9406161972878
 20
-152.857257910628
 30
0.0
 10
105.9957200847709
 20
-152.857257910628
 30
0.0
 10
106.0515306122558
 20
-152.857257910628
 30
0.0
 10
106.0963333900226
 20
-152.8124551339932
 30
0.0
 10
106.0963333900226
 20
-152.7573512465102
 30
0.0
  0
SPLINE
  5
8B
330
7D
100
AcDbEntity
  8
レイヤー 1
 62
   250
420
  2299925
370
     9
100
AcDbSpline
210
0.0
220
0.0
230
1.0
 70
     9
 71
     3
 72
    17
 73
    13
 74
     0
 42
0.0000000001
 43
0.0000000001
 40
0.0
 40
0.0
 40
0.0
 40
0.0
 40
1.0
 40
1.0
 40
1.0
 40
2.0
 40
2.0
 40
2.0
 40
3.0
 40
3.0
 40
3.0
 40
4.0
 40
4.0
 40
4.0
 40
4.0
 10
106.0963333900226
 20
-153.1573306807503
 30
0.0
 10
106.0963333900226
 20
-153.1018740154985
 30
0.0
 10
106.0515306122558
 20
-153.0570712388637
 30
0.0
 10
105.9957200847709
 20
-153.0570712388637
 30
0.0
 10
105.9406161972878
 20
-153.0570712388637
 30
0.0
 10
105.8958134206531
 20
-153.1018740154985
 30
0.0
 10
105.8958134206531
 20
-153.1573306807503
 30
0.0
 10
105.8958134206531
 20
-153.2124345682334
 30
0.0
 10
105.9406161972878
 20
-153.2572373448681
 30
0.0
 10
105.9957200847709
 20
-153.2572373448681
 30
0.0
 10
106.0515306122558
 20
-153.2572373448681
 30
0.0
 10
106.0963333900226
 20
-153.2124345682334
 30
0.0
 10
106.0963333900226
 20
-153.1573306807503
 30
0.0
  0
CIRCLE
  5
8C
330
7D
100
AcDbEntity
  8
レイヤー 1
 62
   250
420
  2299925
370
     9
100
AcDbCircle
 10
101.9959610201466
 20
-157.8569655608526
 30
0.0
 40
0.0999066641178353
  0
SPLINE
  5
8D
330
7D
100
AcDbEntity
  8
レイヤー 1
 62
   250
420
  2299925
370
     9
100
AcDbSpline
210
0.0
220
0.0
230
1.0
 70
     9
 71
     3
 72
    17
 73
    13
 74
     0
 42
0.0000000001
 43
0.0000000001
 40
0.0
 40
0.0
 40
0.0
 40
0.0
 40
1.0
 40
1.0
 40
1.0
 40
2.0
 40
2.0
 40
2.0
 40
3.0
 40
3.0
 40
3.0
 40
4.0
 40
4.0
 40
4.0
 40
4.0
 10
80.09606079916828
 20
-157.8569655608526
 30
0.0
 10
80.09606079916828
 20
-157.8018204049221
 30
0.0
 10
80.05125802140156
 20
-157.7570588967348
 30
0.0
 10
79.99597774363777
 20
-157.7570588967348
 30
0.0
 10
79.94069746587396
 20
-157.7570588967348
 30
0.0
 10
79.89607107699614
 20
-157.8018204049221
 30
0.0
 10
79.89607107699614
 20
-157.8569655608526
 30
0.0
 10
79.89607107699614
 20
-157.9120694483357
 30
0.0
 10
79.94069746587396
 20
-157.9568722249705
 30
0.0
 10
79.99597774363777
 20
-157.9568722249705
 30
0.0
 10
80.05125802140156
 20
-157.9568722249705
 30
0.0
 10
80.09606079916828
 20
-157.9120694483357
 30
0.0
 10
80.09606079916828
 20
-157.8569655608526
 30
0.0
  0
SPLINE
  5
8E
330
7D
100
AcDbEntity
  8
レイヤー 1
 62
   250
420
  2299925
370
     9
100
AcDbSpline
210
0.0
220
0.0
230
1.0
 70
    11
 71
     3
 72
    17
 73
    13
 74
     0
 42
0.0000000001
 43
0.0000000001
 40
0.0
 40
0.0
 40
0.0
 40
0.0
 40
1.0
 40
1.0
 40
1.0
 40
2.0
 40
2.0
 40
2.0
 40
3.0
 40
3.0
 40
3.0
 40
4.0
 40
4.0
 40
4.0
 40
4.0
 10
78.04621024412495
 20
-143.2572011094385
 30
0.0
 10
78.04621024412495
 20
-143.201920833071
 30
0.0
 10
78.00144274413638
 20
-143.1571180564363
 30
0.0
 10
77.94630357748395
 20
-143.1571180564363
 30
0.0
 10
77.8910232997195
 20
-143.1571180564363
 30
0.0
 10
77.84625579973031
 20
-143.201920833071
 30
0.0
 10
77.84625579973031
 20
-143.2572011094385
 30
0.0
 10
77.84625579973031
 20
-143.312481385806
 30
0.0
 10
77.8910232997195
 20
-143.3572841624407
 30
0.0
 10
77.94630357748395
 20
-143.3572841624407
 30
0.0
 10
78.00144274413638
 20
-143.3572841624407
 30
0.0
 10
78.04621024412495
 20
-143.312481385806
 30
0.0
 10
78.04621024412495
 20
-143.2572011094385
 30
0.0
  0
SPLINE
  5
8F
330
7D
100
AcDbEntity
  8
レイヤー 1
 62
   250
420
  2299925
370
     9
100
AcDbSpline
210
0.0
220
0.0
230
1.0
 70
     9
 71
     3
 72
    17
 73
    13
 74
     0
 42
0.0000000001
 43
0.0000000001
 40
0.0
 40
0.0
 40
0.0
 40
0.0
 40
1.0
 40
1.0
 40
1.0
 40
2.0
 40
2.0
 40
2.0
 40
3.0
 40
3.0
 40
3.0
 40
4.0
 40
4.0
 40
4.0
 40
4.0
 10
78.04621024412495
 20
-144.2569733061544
 30
0.0
 10
78.04621024412495
 20
-144.2018341408944
 30
0.0
 10
78.00144274413638
 20
-144.1570666420369
 30
0.0
 10
77.94630357748395
 20
-144.1570666420369
 30
0.0
 10
77.8910232997195
 20
-144.1570666420369
 30
0.0
 10
77.84625579973031
 20
-144.2018341408944
 30
0.0
 10
77.84625579973031
 20
-144.2569733061544
 30
0.0
 10
77.84625579973031
 20
-144.3124299714063
 30
0.0
 10
77.8910232997195
 20
-144.357232748041
 30
0.0
 10
77.94630357748395
 20
-144.357232748041
 30
0.0
 10
78.00144274413638
 20
-144.357232748041
 30
0.0
 10
78.04621024412495
 20
-144.3124299714063
 30
0.0
 10
78.04621024412495
 20
-144.2569733061544
 30
0.0
  0
SPLINE
  5
90
330
7D
100
AcDbEntity
  8
レイヤー 1
 62
   250
420
  2299925
370
     9
100
AcDbSpline
210
0.0
220
0.0
230
1.0
 70
     9
 71
     3
 72
    17
 73
    13
 74
     0
 42
0.0000000001
 43
0.0000000001
 40
0.0
 40
0.0
 40
0.0
 40
0.0
 40
1.0
 40
1.0
 40
1.0
 40
2.0
 40
2.0
 40
2.0
 40
3.0
 40
3.0
 40
3.0
 40
4.0
 40
4.0
 40
4.0
 40
4.0
 10
85.09603672860563
 20
-157.8569655608526
 30
0.0
 10
85.09603672860563
 20
-157.8018204049221
 30
0.0
 10
85.05126922861707
 20
-157.7570588967348
 30
0.0
 10
84.99598895085327
 20
-157.7570588967348
 30
0.0
 10
84.94084978420053
 20
-157.7570588967348
 30
0.0
 10
84.89608228421099
 20
-157.8018204049221
 30
0.0
 10
84.89608228421099
 20
-157.8569655608526
 30
0.0
 10
84.89608228421099
 20
-157.9120694483357
 30
0.0
 10
84.94084978420053
 20
-157.9568722249705
 30
0.0
 10
84.99598895085327
 20
-157.9568722249705
 30
0.0
 10
85.05126922861707
 20
-157.9568722249705
 30
0.0
 10
85.09603672860563
 20
-157.9120694483357
 30
0.0
 10
85.09603672860563
 20
-157.8569655608526
 30
0.0
  0
LINE
  5
91
330
7D
100
AcDbEntity
  8
レイヤー 1
 62
   250
420
  2299925
370
     9
100
AcDbLine
 10
79.99615413252666
 20
-157.8569655608526
 30
0.0
 11
84.99598885349854
 21
-157.8569655608526
 31
0.0
  0
LINE
  5
92
330
7D
100
AcDbEntity
  8
レイヤー 1
 62
   250
420
  2299925
370
     9
100
AcDbLine
 10
79.99597774363777
 20
-146.8971268631555
 30
0.0
 11
79.99597774363777
 21
-158.8574080353292
 31
0.0
  0
LINE
  5
93
330
7D
100
AcDbEntity
  8
レイヤー 1
 62
   250
420
  2299925
370
     9
100
AcDbLine
 10
84.99598897866901
 20
-156.3969242092125
 30
0.0
 11
84.99598897866901
 21
-158.8574080353292
 31
0.0
  0
INSERT
  5
95
330
7D
100
AcDbEntity
  8
レイヤー 1
100
AcDbBlockReference
  2
Block_2
 10
0.0
 20
0.0
 30
0.0
  0
LINE
  5
9A
330
7D
100
AcDbEntity
  8
レイヤー 1
 62
   250
420
  2299925
370
     9
100
AcDbLine
 10
84.99598895085327
 20
-157.8569655608526
 30
0.0
 11
101.9959610201466
 21
-157.8569655608526
 31
0.0
  0
LINE
  5
9B
330
7D
100
AcDbEntity
  8
レイヤー 1
 62
   250
420
  2299925
370
     9
100
AcDbLine
 10
101.9959610479623
 20
-155.6968720048501
 30
0.0
 11
101.9959610479623
 21
-158.8574080353292
 31
0.0
  0
INSERT
  5
9D
330
7D
100
AcDbEntity
  8
レイヤー 1
100
AcDbBlockReference
  2
Block_3
 10
0.0
 20
0.0
 30
0.0
  0
LINE
  5
A8
330
7D
100
AcDbEntity
  8
レイヤー 1
 62
   250
420
  2299925
370
     9
100
AcDbLine
 10
105.9957200847709
 20
-152.7573512465102
 30
0.0
 11
105.9957200847709
 21
-143.2572011226841
 31
0.0
  0
LINE
  5
A9
330
7D
100
AcDbEntity
  8
レイヤー 1
 62
   250
420
  2299925
370
     9
100
AcDbLine
 10
88.63605589438735
 20
-143.2572011094385
 30
0.0
 11
106.9961625592475
 21
-143.2572011094385
 31
0.0
  0
INSERT
  5
AB
330
7D
100
AcDbEntity
  8
レイヤー 1
100
AcDbBlockReference
  2
Block_5
 10
0.0
 20
0.0
 30
0.0
  0
LINE
  5
B9
330
7D
100
AcDbEntity
  8
レイヤー 1
 62
   250
420
  2299925
370
     9
100
AcDbLine
 10
105.9957200847709
 20
-153.1573306807503
 30
0.0
 11
105.9957200847709
 21
-154.1571028774662
 31
0.0
  0
LINE
  5
BA
330
7D
100
AcDbEntity
  8
レイヤー 1
 62
   250
420
  2299925
370
     9
100
AcDbLine
 10
105.9957200847709
 20
-152.7573512465102
 30
0.0
 11
105.9957200847709
 21
-153.1573306807503
 31
0.0
  0
LINE
  5
BB
330
7D
100
AcDbEntity
  8
レイヤー 1
 62
   250
420
  2299925
370
     9
100
AcDbLine
 10
104.5356787331308
 20
-152.7573512465102
 30
0.0
 11
106.9961625592475
 21
-152.7573512465102
 31
0.0
  0
LINE
  5
BC
330
7D
100
AcDbEntity
  8
レイヤー 1
 62
   250
420
  2299925
370
     9
100
AcDbLine
 10
104.5356787331308
 20
-153.1573306807503
 30
0.0
 11
106.9961625592475
 21
-153.1573306807503
 31
0.0
  0
INSERT
  5
BE
330
7D
100
AcDbEntity
  8
レイヤー 1
100
AcDbBlockReference
  2
Block_7
 10
0.0
 20
0.0
 30
0.0
  0
LINE
  5
CD
330
7D
100
AcDbEntity
  8
レイヤー 1
 62
   250
420
  2299925
370
     9
100
AcDbLine
 10
77.94630357748395
 20
-143.2572011094385
 30
0.0
 11
77.94630357748395
 21
-142.2572525238382
 31
0.0
  0
LINE
  5
CE
330
7D
100
AcDbEntity
  8
レイヤー 1
 62
   250
420
  2299925
370
     9
100
AcDbLine
 10
77.94630357748395
 20
-143.2572011094385
 30
0.0
 11
77.94630357748395
 21
-145.2570630028619
 31
0.0
  0
LINE
  5
CF
330
7D
100
AcDbEntity
  8
レイヤー 1
 62
   250
420
  2299925
370
     9
100
AcDbLine
 10
79.40616857711813
 20
-143.2572011094385
 30
0.0
 11
76.94621385551117
 21
-143.2572011094385
 31
0.0
  0
LINE
  5
D0
330
7D
100
AcDbEntity
  8
レイヤー 1
 62
   250
420
  2299925
370
     9
100
AcDbLine
 10
79.40616857711813
 20
-144.2569733061544
 30
0.0
 11
76.94621385551117
 21
-144.2569733061544
 31
0.0
  0
INSERT
  5
D2
330
7D
100
AcDbEntity
  8
レイヤー 1
100
AcDbBlockReference
  2
Block_9
 10
0.0
 20
0.0
 30
0.0
  0
ENDBLK
  5
80
330
7D
100
AcDbEntity
  8
0
100
AcDbBlockEnd
  0
BLOCK
  5
96
330
94
100
AcDbEntity
  8
0
100
AcDbBlockBegin
  2
Block_2
 70
     0
 10
0.0
 20
0.0
 30
0.0
  3
Block_2
  1

  0
SPLINE
  5
98
330
94
100
AcDbEntity
  8
レイヤー 1
100
AcDbSpline
210
0.0
220
0.0
230
1.0
 70
     9
 71
     3
 72
    53
 73
    49
 74
     0
 42
0.0000000001
 43
0.0000000001
 40
0.0
 40
0.0
 40
0.0
 40
0.0
 40
1.0
 40
1.0
 40
1.0
 40
2.0
 40
2.0
 40
2.0
 40
3.0
 40
3.0
 40
3.0
 40
4.0
 40
4.0
 40
4.0
 40
5.0
 40
5.0
 40
5.0
 40
6.0
 40
6.0
 40
6.0
 40
7.0
 40
7.0
 40
7.0
 40
8.0
 40
8.0
 40
8.0
 40
9.0
 40
9.0
 40
9.0
 40
10.0
 40
10.0
 40
10.0
 40
11.0
 40
11.0
 40
11.0
 40
12.0
 40
12.0
 40
12.0
 40
13.0
 40
13.0
 40
13.0
 40
14.0
 40
14.0
 40
14.0
 40
15.0
 40
15.0
 40
15.0
 40
16.0
 40
16.0
 40
16.0
 40
16.0
 10
82.43837888564041
 20
-157.2617187106846
 30
0.0
 10
82.37154403322655
 20
-157.2617187106846
 30
0.0
 10
82.28507213654678
 20
-157.2448377428068
 30
0.0
 10
82.19860023986703
 20
-157.1814479858782
 30
0.0
 10
82.05080564354981
 20
-157.0715494398988
 30
0.0
 10
82.03254663747797
 20
-156.9402913019108
 30
0.0
 10
82.0163546886973
 20
-156.8324598132224
 30
0.0
 10
82.0163546886973
 20
-156.8324598132224
 30
0.0
 10
82.20583494038605
 20
-156.8324598132224
 30
0.0
 10
82.20583494038605
 20
-156.8324598132224
 30
0.0
 10
82.25268823898543
 20
-157.0312418227213
 30
0.0
 10
82.36086423722229
 20
-157.0608696438945
 30
0.0
 10
82.44010143338304
 20
-157.0608696438945
 30
0.0
 10
82.55930173717267
 20
-157.0608696438945
 30
0.0
 10
82.6891818369666
 20
-156.9613063843708
 30
0.0
 10
82.6891818369666
 20
-156.7287624391164
 30
0.0
 10
82.6891818369666
 20
-156.4727918445623
 30
0.0
 10
82.53587508787298
 20
-156.4028564062118
 30
0.0
 10
82.43286673286402
 20
-156.4028564062118
 30
0.0
 10
82.40599498807906
 20
-156.4028564062118
 30
0.0
 10
82.28507213654678
 20
-156.4028564062118
 30
0.0
 10
82.20928003587129
 20
-156.5320474869086
 30
0.0
 10
82.20928003587129
 20
-156.5320474869086
 30
0.0
 10
82.05976289181144
 20
-156.5130994617398
 30
0.0
 10
82.05976289181144
 20
-156.5130994617398
 30
0.0
 10
82.05976289181144
 20
-156.5130994617398
 30
0.0
 10
82.1624267372719
 20
-155.6666395010139
 30
0.0
 10
82.1624267372719
 20
-155.6666395010139
 30
0.0
 10
82.1624267372719
 20
-155.6666395010139
 30
0.0
 10
82.82595212773101
 20
-155.6666395010139
 30
0.0
 10
82.82595212773101
 20
-155.6666395010139
 30
0.0
 10
82.82595212773101
 20
-155.6666395010139
 30
0.0
 10
82.82595212773101
 20
-155.8612873959305
 30
0.0
 10
82.82595212773101
 20
-155.8612873959305
 30
0.0
 10
82.82595212773101
 20
-155.8612873959305
 30
0.0
 10
82.30126408532745
 20
-155.8612873959305
 30
0.0
 10
82.30126408532745
 20
-155.8612873959305
 30
0.0
 10
82.30126408532745
 20
-155.8612873959305
 30
0.0
 10
82.24545353846641
 20
-156.2843451215192
 30
0.0
 10
82.24545353846641
 20
-156.2843451215192
 30
0.0
 10
82.29781898984221
 20
-156.2505831857637
 30
0.0
 10
82.36809893774131
 20
-156.2102755685863
 30
0.0
 10
82.46904023545914
 20
-156.2102755685863
 30
0.0
 10
82.68539223193283
 20
-156.2102755685863
 30
0.0
 10
82.88727482736845
 20
-156.3966552343383
 30
0.0
 10
82.88727482736845
 20
-156.7098144139475
 30
0.0
 10
82.88727482736845
 20
-157.027107708139
 30
0.0
 10
82.69641653748562
 20
-157.2617187106846
 30
0.0
 10
82.43837888564041
 20
-157.2617187106846
 30
0.0
  0
HATCH
  5
99
330
94
100
AcDbEntity
  8
レイヤー 1
 62
   250
420
  2299925
440
 33554687
100
AcDbHatch
 10
0.0
 20
0.0
 30
0.0
210
0.0
220
0.0
230
1.0
  2
SOLID
 70
     1
 71
     1
 91
        1
 92
        1
 93
        1
 72
     4
 94
        3
 73
     0
 74
     0
 95
       53
 96
       49
 40
0.0
 40
0.0
 40
0.0
 40
0.0
 40
1.0
 40
1.0
 40
1.0
 40
2.0
 40
2.0
 40
2.0
 40
3.0
 40
3.0
 40
3.0
 40
4.0
 40
4.0
 40
4.0
 40
5.0
 40
5.0
 40
5.0
 40
6.0
 40
6.0
 40
6.0
 40
7.0
 40
7.0
 40
7.0
 40
8.0
 40
8.0
 40
8.0
 40
9.0
 40
9.0
 40
9.0
 40
10.0
 40
10.0
 40
10.0
 40
11.0
 40
11.0
 40
11.0
 40
12.0
 40
12.0
 40
12.0
 40
13.0
 40
13.0
 40
13.0
 40
14.0
 40
14.0
 40
14.0
 40
15.0
 40
15.0
 40
15.0
 40
16.0
 40
16.0
 40
16.0
 40
16.0
 10
82.43837888564041
 20
-157.2617187106846
 10
82.37154403322655
 20
-157.2617187106846
 10
82.28507213654678
 20
-157.2448377428068
 10
82.19860023986703
 20
-157.1814479858782
 10
82.05080564354981
 20
-157.0715494398988
 10
82.03254663747797
 20
-156.9402913019108
 10
82.0163546886973
 20
-156.8324598132224
 10
82.0163546886973
 20
-156.8324598132224
 10
82.20583494038605
 20
-156.8324598132224
 10
82.20583494038605
 20
-156.8324598132224
 10
82.25268823898543
 20
-157.0312418227213
 10
82.36086423722229
 20
-157.0608696438945
 10
82.44010143338304
 20
-157.0608696438945
 10
82.55930173717267
 20
-157.0608696438945
 10
82.6891818369666
 20
-156.9613063843708
 10
82.6891818369666
 20
-156.7287624391164
 10
82.6891818369666
 20
-156.4727918445623
 10
82.53587508787298
 20
-156.4028564062118
 10
82.43286673286402
 20
-156.4028564062118
 10
82.40599498807906
 20
-156.4028564062118
 10
82.28507213654678
 20
-156.4028564062118
 10
82.20928003587129
 20
-156.5320474869086
 10
82.20928003587129
 20
-156.5320474869086
 10
82.05976289181144
 20
-156.5130994617398
 10
82.05976289181144
 20
-156.5130994617398
 10
82.05976289181144
 20
-156.5130994617398
 10
82.1624267372719
 20
-155.6666395010139
 10
82.1624267372719
 20
-155.6666395010139
 10
82.1624267372719
 20
-155.6666395010139
 10
82.82595212773101
 20
-155.6666395010139
 10
82.82595212773101
 20
-155.6666395010139
 10
82.82595212773101
 20
-155.6666395010139
 10
82.82595212773101
 20
-155.8612873959305
 10
82.82595212773101
 20
-155.8612873959305
 10
82.82595212773101
 20
-155.8612873959305
 10
82.30126408532745
 20
-155.8612873959305
 10
82.30126408532745
 20
-155.8612873959305
 10
82.30126408532745
 20
-155.8612873959305
 10
82.24545353846641
 20
-156.2843451215192
 10
82.24545353846641
 20
-156.2843451215192
 10
82.29781898984221
 20
-156.2505831857637
 10
82.36809893774131
 20
-156.2102755685863
 10
82.46904023545914
 20
-156.2102755685863
 10
82.68539223193283
 20
-156.2102755685863
 10
82.88727482736845
 20
-156.3966552343383
 10
82.88727482736845
 20
-156.7098144139475
 10
82.88727482736845
 20
-157.027107708139
 10
82.69641653748562
 20
-157.2617187106846
 10
82.43837888564041
 20
-157.2617187106846
 97
        0
 97
        1
330
98
 75
     2
 76
     1
 98
        1
 10
0.0
 20
0.0
450
        0
451
        0
460
0.0
461
0.0
452
        0
462
0.0
453
        0
470

  0
ENDBLK
  5
97
330
94
100
AcDbEntity
  8
0
100
AcDbBlockEnd
  0
BLOCK
  5
9E
330
9C
100
AcDbEntity
  8
0
100
AcDbBlockBegin
  2
Block_3
 70
     0
 10
0.0
 20
0.0
 30
0.0
  3
Block_3
  1

  0
INSERT
  5
A1
330
9C
100
AcDbEntity
  8
レイヤー 1
100
AcDbBlockReference
  2
Block_4
 10
0.0
 20
0.0
 30
0.0
  0
ENDBLK
  5
9F
330
9C
100
AcDbEntity
  8
0
100
AcDbBlockEnd
  0
BLOCK
  5
A2
330
A0
100
AcDbEntity
  8
0
100
AcDbBlockBegin
  2
Block_4
 70
     0
 10
0.0
 20
0.0
 30
0.0
  3
Block_4
  1

  0
SPLINE
  5
A4
330
A0
100
AcDbEntity
  8
レイヤー 1
100
AcDbSpline
210
0.0
220
0.0
230
1.0
 70
    11
 71
     3
 72
    26
 73
    22
 74
     0
 42
0.0000000001
 43
0.0000000001
 40
0.0
 40
0.0
 40
0.0
 40
0.0
 40
1.0
 40
1.0
 40
1.0
 40
2.0
 40
2.0
 40
2.0
 40
3.0
 40
3.0
 40
3.0
 40
4.0
 40
4.0
 40
4.0
 40
5.0
 40
5.0
 40
5.0
 40
6.0
 40
6.0
 40
6.0
 40
7.0
 40
7.0
 40
7.0
 40
7.0
 10
92.95418834481701
 20
-157.2114203165999
 30
0.0
 10
92.95418834481701
 20
-157.2114203165999
 30
0.0
 10
92.95418834481701
 20
-156.1072672135773
 30
0.0
 10
92.95418834481701
 20
-156.1072672135773
 30
0.0
 10
92.95418834481701
 20
-156.1072672135773
 30
0.0
 10
92.6727240436721
 20
-156.1072672135773
 30
0.0
 10
92.6727240436721
 20
-156.1072672135773
 30
0.0
 10
92.6727240436721
 20
-156.1072672135773
 30
0.0
 10
92.6727240436721
 20
-155.9591281077116
 30
0.0
 10
92.6727240436721
 20
-155.9591281077116
 30
0.0
 10
92.95591089255964
 20
-155.944314197125
 30
0.0
 10
92.99552949064
 20
-155.7813611806727
 30
0.0
 10
93.02067868768233
 20
-155.6669840105624
 30
0.0
 10
93.02067868768233
 20
-155.6669840105624
 30
0.0
 10
93.14539114424837
 20
-155.6669840105624
 30
0.0
 10
93.14539114424837
 20
-155.6669840105624
 30
0.0
 10
93.14539114424837
 20
-155.6669840105624
 30
0.0
 10
93.14539114424837
 20
-157.2114203165999
 30
0.0
 10
93.14539114424837
 20
-157.2114203165999
 30
0.0
 10
93.14539114424837
 20
-157.2114203165999
 30
0.0
 10
92.95418834481701
 20
-157.2114203165999
 30
0.0
 10
92.95418834481701
 20
-157.2114203165999
 30
0.0
  0
HATCH
  5
A5
330
A0
100
AcDbEntity
  8
レイヤー 1
 62
   250
420
  2299925
440
 33554687
100
AcDbHatch
 10
0.0
 20
0.0
 30
0.0
210
0.0
220
0.0
230
1.0
  2
SOLID
 70
     1
 71
     1
 91
        1
 92
        1
 93
        1
 72
     4
 94
        3
 73
     0
 74
     0
 95
       26
 96
       22
 40
0.0
 40
0.0
 40
0.0
 40
0.0
 40
1.0
 40
1.0
 40
1.0
 40
2.0
 40
2.0
 40
2.0
 40
3.0
 40
3.0
 40
3.0
 40
4.0
 40
4.0
 40
4.0
 40
5.0
 40
5.0
 40
5.0
 40
6.0
 40
6.0
 40
6.0
 40
7.0
 40
7.0
 40
7.0
 40
7.0
 10
92.95418834481701
 20
-157.2114203165999
 10
92.95418834481701
 20
-157.2114203165999
 10
92.95418834481701
 20
-156.1072672135773
 10
92.95418834481701
 20
-156.1072672135773
 10
92.95418834481701
 20
-156.1072672135773
 10
92.6727240436721
 20
-156.1072672135773
 10
92.6727240436721
 20
-156.1072672135773
 10
92.6727240436721
 20
-156.1072672135773
 10
92.6727240436721
 20
-155.9591281077116
 10
92.6727240436721
 20
-155.9591281077116
 10
92.95591089255964
 20
-155.944314197125
 10
92.99552949064
 20
-155.7813611806727
 10
93.02067868768233
 20
-155.6669840105624
 10
93.02067868768233
 20
-155.6669840105624
 10
93.14539114424837
 20
-155.6669840105624
 10
93.14539114424837
 20
-155.6669840105624
 10
93.14539114424837
 20
-155.6669840105624
 10
93.14539114424837
 20
-157.2114203165999
 10
93.14539114424837
 20
-157.2114203165999
 10
93.14539114424837
 20
-157.2114203165999
 10
92.95418834481701
 20
-157.2114203165999
 10
92.95418834481701
 20
-157.2114203165999
 97
        0
 97
        1
330
A4
 75
     2
 76
     1
 98
        1
 10
0.0
 20
0.0
450
        0
451
        0
460
0.0
461
0.0
452
        0
462
0.0
453
        0
470

  0
SPLINE
  5
A6
330
A0
100
AcDbEntity
  8
レイヤー 1
100
AcDbSpline
210
0.0
220
0.0
230
1.0
 70
     9
 71
     3
 72
    26
 73
    22
 74
     0
 42
0.0000000001
 43
0.0000000001
 40
0.0
 40
0.0
 40
0.0
 40
0.0
 40
1.0
 40
1.0
 40
1.0
 40
2.0
 40
2.0
 40
2.0
 40
3.0
 40
3.0
 40
3.0
 40
4.0
 40
4.0
 40
4.0
 40
5.0
 40
5.0
 40
5.0
 40
6.0
 40
6.0
 40
6.0
 40
7.0
 40
7.0
 40
7.0
 40
7.0
 10
93.92157115707517
 20
-157.2114203165999
 30
0.0
 10
93.92157115707517
 20
-157.2114203165999
 30
0.0
 10
93.71968856163952
 20
-157.2114203165999
 30
0.0
 10
93.71968856163952
 20
-157.2114203165999
 30
0.0
 10
93.7413926631966
 20
-156.902395251573
 30
0.0
 10
93.9053792082945
 20
-156.3842528905914
 30
0.0
 10
94.2516113045621
 20
-155.8785128733567
 30
0.0
 10
94.2516113045621
 20
-155.8785128733567
 30
0.0
 10
93.53744301046981
 20
-155.8785128733567
 30
0.0
 10
93.53744301046981
 20
-155.8785128733567
 30
0.0
 10
93.53744301046981
 20
-155.8785128733567
 30
0.0
 10
93.53744301046981
 20
-155.6669840105624
 30
0.0
 10
93.53744301046981
 20
-155.6669840105624
 30
0.0
 10
93.53744301046981
 20
-155.6669840105624
 30
0.0
 10
94.45349389999774
 20
-155.6669840105624
 30
0.0
 10
94.45349389999774
 20
-155.6669840105624
 30
0.0
 10
94.45349389999774
 20
-155.6669840105624
 30
0.0
 10
94.45349389999774
 20
-155.8785128733567
 30
0.0
 10
94.45349389999774
 20
-155.8785128733567
 30
0.0
 10
94.17788626117776
 20
-156.1685899132148
 30
0.0
 10
93.95050995915125
 20
-156.7608018271292
 30
0.0
 10
93.92157115707517
 20
-157.2114203165999
 30
0.0
  0
HATCH
  5
A7
330
A0
100
AcDbEntity
  8
レイヤー 1
 62
   250
420
  2299925
440
 33554687
100
AcDbHatch
 10
0.0
 20
0.0
 30
0.0
210
0.0
220
0.0
230
1.0
  2
SOLID
 70
     1
 71
     1
 91
        1
 92
        1
 93
        1
 72
     4
 94
        3
 73
     0
 74
     0
 95
       26
 96
       22
 40
0.0
 40
0.0
 40
0.0
 40
0.0
 40
1.0
 40
1.0
 40
1.0
 40
2.0
 40
2.0
 40
2.0
 40
3.0
 40
3.0
 40
3.0
 40
4.0
 40
4.0
 40
4.0
 40
5.0
 40
5.0
 40
5.0
 40
6.0
 40
6.0
 40
6.0
 40
7.0
 40
7.0
 40
7.0
 40
7.0
 10
93.92157115707517
 20
-157.2114203165999
 10
93.92157115707517
 20
-157.2114203165999
 10
93.71968856163952
 20
-157.2114203165999
 10
93.71968856163952
 20
-157.2114203165999
 10
93.7413926631966
 20
-156.902395251573
 10
93.9053792082945
 20
-156.3842528905914
 10
94.2516113045621
 20
-155.8785128733567
 10
94.2516113045621
 20
-155.8785128733567
 10
93.53744301046981
 20
-155.8785128733567
 10
93.53744301046981
 20
-155.8785128733567
 10
93.53744301046981
 20
-155.8785128733567
 10
93.53744301046981
 20
-155.6669840105624
 10
93.53744301046981
 20
-155.6669840105624
 10
93.53744301046981
 20
-155.6669840105624
 10
94.45349389999774
 20
-155.6669840105624
 10
94.45349389999774
 20
-155.6669840105624
 10
94.45349389999774
 20
-155.6669840105624
 10
94.45349389999774
 20
-155.8785128733567
 10
94.45349389999774
 20
-155.8785128733567
 10
94.17788626117776
 20
-156.1685899132148
 10
93.95050995915125
 20
-156.7608018271292
 10
93.92157115707517
 20
-157.2114203165999
 97
        0
 97
        1
330
A6
 75
     2
 76
     1
 98
        1
 10
0.0
 20
0.0
450
        0
451
        0
460
0.0
461
0.0
452
        0
462
0.0
453
        0
470

  0
ENDBLK
  5
A3
330
A0
100
AcDbEntity
  8
0
100
AcDbBlockEnd
  0
BLOCK
  5
AC
330
AA
100
AcDbEntity
  8
0
100
AcDbBlockBegin
  2
Block_5
 70
     0
 10
0.0
 20
0.0
 30
0.0
  3
Block_5
  1

  0
INSERT
  5
AF
330
AA
100
AcDbEntity
  8
レイヤー 1
100
AcDbBlockReference
  2
Block_6
 10
0.0
 20
0.0
 30
0.0
  0
ENDBLK
  5
AD
330
AA
100
AcDbEntity
  8
0
100
AcDbBlockEnd
  0
BLOCK
  5
B0
330
AE
100
AcDbEntity
  8
0
100
AcDbBlockBegin
  2
Block_6
 70
     0
 10
0.0
 20
0.0
 30
0.0
  3
Block_6
  1

  0
SPLINE
  5
B2
330
AE
100
AcDbEntity
  8
レイヤー 1
100
AcDbSpline
210
0.0
220
0.0
230
1.0
 70
     9
 71
     3
 72
    17
 73
    13
 74
     0
 42
0.0000000001
 43
0.0000000001
 40
0.0
 40
0.0
 40
0.0
 40
0.0
 40
1.0
 40
1.0
 40
1.0
 40
2.0
 40
2.0
 40
2.0
 40
3.0
 40
3.0
 40
3.0
 40
4.0
 40
4.0
 40
4.0
 40
4.0
 10
103.9492105859918
 20
-148.7430311043073
 30
0.0
 10
103.9492105859918
 20
-148.8439724020251
 30
0.0
 10
104.006399171047
 20
-148.9938340556335
 30
0.0
 10
104.2919975867742
 20
-148.9938340556335
 30
0.0
 10
104.5183403601551
 20
-148.9938340556335
 30
0.0
 10
104.613424995548
 20
-148.8746337518438
 30
0.0
 10
104.613424995548
 20
-148.7592230530879
 30
0.0
 10
104.613424995548
 20
-148.5356363560953
 30
0.0
 10
104.4039631900448
 20
-148.5032524585339
 30
0.0
 10
104.2875189626434
 20
-148.5032524585339
 30
0.0
 10
104.1121636024442
 20
-148.5032524585339
 30
0.0
 10
103.9492105859918
 20
-148.5842122024373
 30
0.0
 10
103.9492105859918
 20
-148.7430311043073
 30
0.0
  0
SPLINE
  5
B3
330
AE
100
AcDbEntity
  8
レイヤー 1
100
AcDbSpline
210
0.0
220
0.0
230
1.0
 70
     9
 71
     3
 72
    32
 73
    28
 74
     0
 42
0.0000000001
 43
0.0000000001
 40
0.0
 40
0.0
 40
0.0
 40
0.0
 40
1.0
 40
1.0
 40
1.0
 40
2.0
 40
2.0
 40
2.0
 40
3.0
 40
3.0
 40
3.0
 40
4.0
 40
4.0
 40
4.0
 40
5.0
 40
5.0
 40
5.0
 40
6.0
 40
6.0
 40
6.0
 40
7.0
 40
7.0
 40
7.0
 40
8.0
 40
8.0
 40
8.0
 40
9.0
 40
9.0
 40
9.0
 40
9.0
 10
105.4002848043791
 20
-148.7774820591598
 30
0.0
 10
105.4002848043791
 20
-148.925276655477
 30
0.0
 10
105.330693875577
 20
-149.1343939514317
 30
0.0
 10
104.9985866707989
 20
-149.166777848993
 30
0.0
 10
104.9985866707989
 20
-149.166777848993
 30
0.0
 10
104.9985866707989
 20
-148.9845322978233
 30
0.0
 10
104.9985866707989
 20
-148.9845322978233
 30
0.0
 10
105.0578423131452
 20
-148.9755750495616
 30
0.0
 10
105.2056369094625
 20
-148.9487033047767
 30
0.0
 10
105.2056369094625
 20
-148.7754150018686
 30
0.0
 10
105.2056369094625
 20
-148.5266791078336
 30
0.0
 10
104.8755967619755
 20
-148.4942952102722
 30
0.0
 10
104.6706135806032
 20
-148.4832709047194
 30
0.0
 10
104.7508843054095
 20
-148.5607855531376
 30
0.0
 10
104.8080728904646
 20
-148.6186631572897
 30
0.0
 10
104.8080728904646
 20
-148.773692454126
 30
0.0
 10
104.8080728904646
 20
-148.9269992032196
 30
0.0
 10
104.7023084590674
 20
-149.1850368550648
 30
0.0
 10
104.2961317013565
 20
-149.1850368550648
 30
0.0
 10
103.9767713498738
 20
-149.1850368550648
 30
0.0
 10
103.7566297483664
 20
-149.015193647642
 30
0.0
 10
103.7566297483664
 20
-148.7447536520499
 30
0.0
 10
103.7566297483664
 20
-148.3065375063261
 30
0.0
 10
104.3109456119431
 20
-148.2975802580645
 30
0.0
 10
104.5245415320286
 20
-148.2975802580645
 30
0.0
 10
104.7550184199918
 20
-148.2975802580645
 30
0.0
 10
105.4002848043791
 20
-148.3137722068452
 30
0.0
 10
105.4002848043791
 20
-148.7774820591598
 30
0.0
  0
HATCH
  5
B4
330
AE
100
AcDbEntity
  8
レイヤー 1
 62
   250
420
  2299925
440
 33554687
100
AcDbHatch
 10
0.0
 20
0.0
 30
0.0
210
0.0
220
0.0
230
1.0
  2
SOLID
 70
     1
 71
     1
 91
        2
 92
        1
 93
        1
 72
     4
 94
        3
 73
     0
 74
     0
 95
       17
 96
       13
 40
0.0
 40
0.0
 40
0.0
 40
0.0
 40
1.0
 40
1.0
 40
1.0
 40
2.0
 40
2.0
 40
2.0
 40
3.0
 40
3.0
 40
3.0
 40
4.0
 40
4.0
 40
4.0
 40
4.0
 10
103.9492105859918
 20
-148.7430311043073
 10
103.9492105859918
 20
-148.8439724020251
 10
104.006399171047
 20
-148.9938340556335
 10
104.2919975867742
 20
-148.9938340556335
 10
104.5183403601551
 20
-148.9938340556335
 10
104.613424995548
 20
-148.8746337518438
 10
104.613424995548
 20
-148.7592230530879
 10
104.613424995548
 20
-148.5356363560953
 10
104.4039631900448
 20
-148.5032524585339
 10
104.2875189626434
 20
-148.5032524585339
 10
104.1121636024442
 20
-148.5032524585339
 10
103.9492105859918
 20
-148.5842122024373
 10
103.9492105859918
 20
-148.7430311043073
 97
        0
 97
        1
330
B2
 92
        1
 93
        1
 72
     4
 94
        3
 73
     0
 74
     0
 95
       32
 96
       28
 40
0.0
 40
0.0
 40
0.0
 40
0.0
 40
1.0
 40
1.0
 40
1.0
 40
2.0
 40
2.0
 40
2.0
 40
3.0
 40
3.0
 40
3.0
 40
4.0
 40
4.0
 40
4.0
 40
5.0
 40
5.0
 40
5.0
 40
6.0
 40
6.0
 40
6.0
 40
7.0
 40
7.0
 40
7.0
 40
8.0
 40
8.0
 40
8.0
 40
9.0
 40
9.0
 40
9.0
 40
9.0
 10
105.4002848043791
 20
-148.7774820591598
 10
105.4002848043791
 20
-148.925276655477
 10
105.330693875577
 20
-149.1343939514317
 10
104.9985866707989
 20
-149.166777848993
 10
104.9985866707989
 20
-149.166777848993
 10
104.9985866707989
 20
-148.9845322978233
 10
104.9985866707989
 20
-148.9845322978233
 10
105.0578423131452
 20
-148.9755750495616
 10
105.2056369094625
 20
-148.9487033047767
 10
105.2056369094625
 20
-148.7754150018686
 10
105.2056369094625
 20
-148.5266791078336
 10
104.8755967619755
 20
-148.4942952102722
 10
104.6706135806032
 20
-148.4832709047194
 10
104.7508843054095
 20
-148.5607855531376
 10
104.8080728904646
 20
-148.6186631572897
 10
104.8080728904646
 20
-148.773692454126
 10
104.8080728904646
 20
-148.9269992032196
 10
104.7023084590674
 20
-149.1850368550648
 10
104.2961317013565
 20
-149.1850368550648
 10
103.9767713498738
 20
-149.1850368550648
 10
103.7566297483664
 20
-149.015193647642
 10
103.7566297483664
 20
-148.7447536520499
 10
103.7566297483664
 20
-148.3065375063261
 10
104.3109456119431
 20
-148.2975802580645
 10
104.5245415320286
 20
-148.2975802580645
 10
104.7550184199918
 20
-148.2975802580645
 10
105.4002848043791
 20
-148.3137722068452
 10
105.4002848043791
 20
-148.7774820591598
 97
        0
 97
        1
330
B3
 75
     2
 76
     1
 98
        1
 10
0.0
 20
0.0
450
        0
451
        0
460
0.0
461
0.0
452
        0
462
0.0
453
        0
470

  0
SPLINE
  5
B5
330
AE
100
AcDbEntity
  8
レイヤー 1
100
AcDbSpline
210
0.0
220
0.0
230
1.0
 70
    11
 71
     3
 72
    17
 73
    13
 74
     0
 42
0.0000000001
 43
0.0000000001
 40
0.0
 40
0.0
 40
0.0
 40
0.0
 40
1.0
 40
1.0
 40
1.0
 40
2.0
 40
2.0
 40
2.0
 40
3.0
 40
3.0
 40
3.0
 40
4.0
 40
4.0
 40
4.0
 40
4.0
 10
105.3496419007459
 20
-148.1146456877977
 30
0.0
 10
105.3496419007459
 20
-148.1146456877977
 30
0.0
 10
105.0978054207741
 20
-148.1146456877977
 30
0.0
 10
105.0978054207741
 20
-148.1146456877977
 30
0.0
 10
105.0978054207741
 20
-148.1146456877977
 30
0.0
 10
105.0978054207741
 20
-147.9000162390667
 30
0.0
 10
105.0978054207741
 20
-147.9000162390667
 30
0.0
 10
105.0978054207741
 20
-147.9000162390667
 30
0.0
 10
105.3496419007459
 20
-147.9000162390667
 30
0.0
 10
105.3496419007459
 20
-147.9000162390667
 30
0.0
 10
105.3496419007459
 20
-147.9000162390667
 30
0.0
 10
105.3496419007459
 20
-148.1146456877977
 30
0.0
 10
105.3496419007459
 20
-148.1146456877977
 30
0.0
  0
HATCH
  5
B6
330
AE
100
AcDbEntity
  8
レイヤー 1
 62
   250
420
  2299925
440
 33554687
100
AcDbHatch
 10
0.0
 20
0.0
 30
0.0
210
0.0
220
0.0
230
1.0
  2
SOLID
 70
     1
 71
     1
 91
        1
 92
        1
 93
        1
 72
     4
 94
        3
 73
     0
 74
     0
 95
       17
 96
       13
 40
0.0
 40
0.0
 40
0.0
 40
0.0
 40
1.0
 40
1.0
 40
1.0
 40
2.0
 40
2.0
 40
2.0
 40
3.0
 40
3.0
 40
3.0
 40
4.0
 40
4.0
 40
4.0
 40
4.0
 10
105.3496419007459
 20
-148.1146456877977
 10
105.3496419007459
 20
-148.1146456877977
 10
105.0978054207741
 20
-148.1146456877977
 10
105.0978054207741
 20
-148.1146456877977
 10
105.0978054207741
 20
-148.1146456877977
 10
105.0978054207741
 20
-147.9000162390667
 10
105.0978054207741
 20
-147.9000162390667
 10
105.0978054207741
 20
-147.9000162390667
 10
105.3496419007459
 20
-147.9000162390667
 10
105.3496419007459
 20
-147.9000162390667
 10
105.3496419007459
 20
-147.9000162390667
 10
105.3496419007459
 20
-148.1146456877977
 10
105.3496419007459
 20
-148.1146456877977
 97
        0
 97
        1
330
B5
 75
     2
 76
     1
 98
        1
 10
0.0
 20
0.0
450
        0
451
        0
460
0.0
461
0.0
452
        0
462
0.0
453
        0
470

  0
SPLINE
  5
B7
330
AE
100
AcDbEntity
  8
レイヤー 1
100
AcDbSpline
210
0.0
220
0.0
230
1.0
 70
     9
 71
     3
 72
    53
 73
    49
 74
     0
 42
0.0000000001
 43
0.0000000001
 40
0.0
 40
0.0
 40
0.0
 40
0.0
 40
1.0
 40
1.0
 40
1.0
 40
2.0
 40
2.0
 40
2.0
 40
3.0
 40
3.0
 40
3.0
 40
4.0
 40
4.0
 40
4.0
 40
5.0
 40
5.0
 40
5.0
 40
6.0
 40
6.0
 40
6.0
 40
7.0
 40
7.0
 40
7.0
 40
8.0
 40
8.0
 40
8.0
 40
9.0
 40
9.0
 40
9.0
 40
10.0
 40
10.0
 40
10.0
 40
11.0
 40
11.0
 40
11.0
 40
12.0
 40
12.0
 40
12.0
 40
13.0
 40
13.0
 40
13.0
 40
14.0
 40
14.0
 40
14.0
 40
15.0
 40
15.0
 40
15.0
 40
16.0
 40
16.0
 40
16.0
 40
16.0
 10
105.4002848043791
 20
-147.2888562999833
 30
0.0
 10
105.4002848043791
 20
-147.3556911523972
 30
0.0
 10
105.3834038365013
 20
-147.4421630490769
 30
0.0
 10
105.3200140795728
 20
-147.5286349457567
 30
0.0
 10
105.2101155335933
 20
-147.6764295420739
 30
0.0
 10
105.0788573956053
 20
-147.6946885481458
 30
0.0
 10
104.9710259069169
 20
-147.7108804969264
 30
0.0
 10
104.9710259069169
 20
-147.7108804969264
 30
0.0
 10
104.9710259069169
 20
-147.5214002452377
 30
0.0
 10
104.9710259069169
 20
-147.5214002452377
 30
0.0
 10
105.1698079164159
 20
-147.4745469466383
 30
0.0
 10
105.199435737589
 20
-147.3663709484014
 30
0.0
 10
105.199435737589
 20
-147.2871337522407
 30
0.0
 10
105.199435737589
 20
-147.167933448451
 30
0.0
 10
105.0998724780653
 20
-147.0380533486572
 30
0.0
 10
104.8673285328109
 20
-147.0380533486572
 30
0.0
 10
104.6113579382569
 20
-147.0380533486572
 30
0.0
 10
104.5414224999063
 20
-147.1913600977508
 30
0.0
 10
104.5414224999063
 20
-147.2943684527597
 30
0.0
 10
104.5414224999063
 20
-147.3212401975447
 30
0.0
 10
104.5414224999063
 20
-147.4421630490769
 30
0.0
 10
104.6706135806032
 20
-147.5179551497524
 30
0.0
 10
104.6706135806032
 20
-147.5179551497524
 30
0.0
 10
104.6516655554343
 20
-147.6674722938123
 30
0.0
 10
104.6516655554343
 20
-147.6674722938123
 30
0.0
 10
104.6516655554343
 20
-147.6674722938123
 30
0.0
 10
103.8052055947084
 20
-147.5648084483518
 30
0.0
 10
103.8052055947084
 20
-147.5648084483518
 30
0.0
 10
103.8052055947084
 20
-147.5648084483518
 30
0.0
 10
103.8052055947084
 20
-146.9012830578927
 30
0.0
 10
103.8052055947084
 20
-146.9012830578927
 30
0.0
 10
103.8052055947084
 20
-146.9012830578927
 30
0.0
 10
103.999853489625
 20
-146.9012830578927
 30
0.0
 10
103.999853489625
 20
-146.9012830578927
 30
0.0
 10
103.999853489625
 20
-146.9012830578927
 30
0.0
 10
103.999853489625
 20
-147.4259711002963
 30
0.0
 10
103.999853489625
 20
-147.4259711002963
 30
0.0
 10
103.999853489625
 20
-147.4259711002963
 30
0.0
 10
104.4229112152137
 20
-147.4817816471573
 30
0.0
 10
104.4229112152137
 20
-147.4817816471573
 30
0.0
 10
104.3891492794582
 20
-147.4294161957815
 30
0.0
 10
104.3488416622808
 20
-147.3591362478824
 30
0.0
 10
104.3488416622808
 20
-147.2581949501646
 30
0.0
 10
104.3488416622808
 20
-147.0418429536909
 30
0.0
 10
104.5352213280328
 20
-146.8399603582553
 30
0.0
 10
104.848380507642
 20
-146.8399603582553
 30
0.0
 10
105.1656738018336
 20
-146.8399603582553
 30
0.0
 10
105.4002848043791
 20
-147.0308186481381
 30
0.0
 10
105.4002848043791
 20
-147.2888562999833
 30
0.0
  0
HATCH
  5
B8
330
AE
100
AcDbEntity
  8
レイヤー 1
 62
   250
420
  2299925
440
 33554687
100
AcDbHatch
 10
0.0
 20
0.0
 30
0.0
210
0.0
220
0.0
230
1.0
  2
SOLID
 70
     1
 71
     1
 91
        1
 92
        1
 93
        1
 72
     4
 94
        3
 73
     0
 74
     0
 95
       53
 96
       49
 40
0.0
 40
0.0
 40
0.0
 40
0.0
 40
1.0
 40
1.0
 40
1.0
 40
2.0
 40
2.0
 40
2.0
 40
3.0
 40
3.0
 40
3.0
 40
4.0
 40
4.0
 40
4.0
 40
5.0
 40
5.0
 40
5.0
 40
6.0
 40
6.0
 40
6.0
 40
7.0
 40
7.0
 40
7.0
 40
8.0
 40
8.0
 40
8.0
 40
9.0
 40
9.0
 40
9.0
 40
10.0
 40
10.0
 40
10.0
 40
11.0
 40
11.0
 40
11.0
 40
12.0
 40
12.0
 40
12.0
 40
13.0
 40
13.0
 40
13.0
 40
14.0
 40
14.0
 40
14.0
 40
15.0
 40
15.0
 40
15.0
 40
16.0
 40
16.0
 40
16.0
 40
16.0
 10
105.4002848043791
 20
-147.2888562999833
 10
105.4002848043791
 20
-147.3556911523972
 10
105.3834038365013
 20
-147.4421630490769
 10
105.3200140795728
 20
-147.5286349457567
 10
105.2101155335933
 20
-147.6764295420739
 10
105.0788573956053
 20
-147.6946885481458
 10
104.9710259069169
 20
-147.7108804969264
 10
104.9710259069169
 20
-147.7108804969264
 10
104.9710259069169
 20
-147.5214002452377
 10
104.9710259069169
 20
-147.5214002452377
 10
105.1698079164159
 20
-147.4745469466383
 10
105.199435737589
 20
-147.3663709484014
 10
105.199435737589
 20
-147.2871337522407
 10
105.199435737589
 20
-147.167933448451
 10
105.0998724780653
 20
-147.0380533486572
 10
104.8673285328109
 20
-147.0380533486572
 10
104.6113579382569
 20
-147.0380533486572
 10
104.5414224999063
 20
-147.1913600977508
 10
104.5414224999063
 20
-147.2943684527597
 10
104.5414224999063
 20
-147.3212401975447
 10
104.5414224999063
 20
-147.4421630490769
 10
104.6706135806032
 20
-147.5179551497524
 10
104.6706135806032
 20
-147.5179551497524
 10
104.6516655554343
 20
-147.6674722938123
 10
104.6516655554343
 20
-147.6674722938123
 10
104.6516655554343
 20
-147.6674722938123
 10
103.8052055947084
 20
-147.5648084483518
 10
103.8052055947084
 20
-147.5648084483518
 10
103.8052055947084
 20
-147.5648084483518
 10
103.8052055947084
 20
-146.9012830578927
 10
103.8052055947084
 20
-146.9012830578927
 10
103.8052055947084
 20
-146.9012830578927
 10
103.999853489625
 20
-146.9012830578927
 10
103.999853489625
 20
-146.9012830578927
 10
103.999853489625
 20
-146.9012830578927
 10
103.999853489625
 20
-147.4259711002963
 10
103.999853489625
 20
-147.4259711002963
 10
103.999853489625
 20
-147.4259711002963
 10
104.4229112152137
 20
-147.4817816471573
 10
104.4229112152137
 20
-147.4817816471573
 10
104.3891492794582
 20
-147.4294161957815
 10
104.3488416622808
 20
-147.3591362478824
 10
104.3488416622808
 20
-147.2581949501646
 10
104.3488416622808
 20
-147.0418429536909
 10
104.5352213280328
 20
-146.8399603582553
 10
104.848380507642
 20
-146.8399603582553
 10
105.1656738018336
 20
-146.8399603582553
 10
105.4002848043791
 20
-147.0308186481381
 10
105.4002848043791
 20
-147.2888562999833
 97
        0
 97
        1
330
B7
 75
     2
 76
     1
 98
        1
 10
0.0
 20
0.0
450
        0
451
        0
460
0.0
461
0.0
452
        0
462
0.0
453
        0
470

  0
ENDBLK
  5
B1
330
AE
100
AcDbEntity
  8
0
100
AcDbBlockEnd
  0
BLOCK
  5
BF
330
BD
100
AcDbEntity
  8
0
100
AcDbBlockBegin
  2
Block_7
 70
     0
 10
0.0
 20
0.0
 30
0.0
  3
Block_7
  1

  0
INSERT
  5
C2
330
BD
100
AcDbEntity
  8
レイヤー 1
100
AcDbBlockReference
  2
Block_8
 10
0.0
 20
0.0
 30
0.0
  0
ENDBLK
  5
C0
330
BD
100
AcDbEntity
  8
0
100
AcDbBlockEnd
  0
BLOCK
  5
C3
330
C1
100
AcDbEntity
  8
0
100
AcDbBlockBegin
  2
Block_8
 70
     0
 10
0.0
 20
0.0
 30
0.0
  3
Block_8
  1

  0
SPLINE
  5
C5
330
C1
100
AcDbEntity
  8
レイヤー 1
100
AcDbSpline
210
0.0
220
0.0
230
1.0
 70
     9
 71
     3
 72
    17
 73
    13
 74
     0
 42
0.0000000001
 43
0.0000000001
 40
0.0
 40
0.0
 40
0.0
 40
0.0
 40
1.0
 40
1.0
 40
1.0
 40
2.0
 40
2.0
 40
2.0
 40
3.0
 40
3.0
 40
3.0
 40
4.0
 40
4.0
 40
4.0
 40
4.0
 10
108.1828884278154
 20
-153.8328151742154
 30
0.0
 10
108.1828884278154
 20
-154.0453775656553
 30
0.0
 10
108.4664197862514
 20
-154.0853406732842
 30
0.0
 10
108.8112738443249
 20
-154.0853406732842
 30
0.0
 10
109.1306341958076
 20
-154.0853406732842
 30
0.0
 10
109.439314751286
 20
-154.0546793234655
 30
0.0
 10
109.439314751286
 20
-153.8328151742154
 30
0.0
 10
109.439314751286
 20
-153.6216308209696
 30
0.0
 10
109.1581949596896
 20
-153.5802896751466
 30
0.0
 10
108.8112738443249
 20
-153.5802896751466
 30
0.0
 10
108.4915689832937
 20
-153.5802896751466
 30
0.0
 10
108.1828884278154
 20
-153.6126735727079
 30
0.0
 10
108.1828884278154
 20
-153.8328151742154
 30
0.0
  0
SPLINE
  5
C6
330
C1
100
AcDbEntity
  8
レイヤー 1
100
AcDbSpline
210
0.0
220
0.0
230
1.0
 70
     9
 71
     3
 72
    29
 73
    25
 74
     0
 42
0.0000000001
 43
0.0000000001
 40
0.0
 40
0.0
 40
0.0
 40
0.0
 40
1.0
 40
1.0
 40
1.0
 40
2.0
 40
2.0
 40
2.0
 40
3.0
 40
3.0
 40
3.0
 40
4.0
 40
4.0
 40
4.0
 40
5.0
 40
5.0
 40
5.0
 40
6.0
 40
6.0
 40
6.0
 40
7.0
 40
7.0
 40
7.0
 40
8.0
 40
8.0
 40
8.0
 40
8.0
 10
109.4055528155305
 20
-153.4938177784668
 30
0.0
 10
109.6150146210337
 20
-153.585801827923
 30
0.0
 10
109.6339626462026
 20
-153.7335964242402
 30
0.0
 10
109.6339626462026
 20
-153.8328151742154
 30
0.0
 10
109.6339626462026
 20
-153.9699299745283
 30
0.0
 10
109.5874538571517
 20
-154.0905083165121
 30
0.0
 10
109.4055528155305
 20
-154.171812569964
 30
0.0
 10
109.2109049206139
 20
-154.2600070143864
 30
0.0
 10
108.9738823512287
 20
-154.2761989631671
 30
0.0
 10
108.8112738443249
 20
-154.2761989631671
 30
0.0
 10
108.6672688530415
 20
-154.2761989631671
 30
0.0
 10
108.4154323730697
 20
-154.2620740716775
 30
0.0
 10
108.2166503635708
 20
-154.171812569964
 30
0.0
 10
108.0137342394896
 20
-154.0798285205078
 30
0.0
 10
107.9903075901899
 20
-153.9427137201949
 30
0.0
 10
107.9903075901899
 20
-153.8328151742154
 30
0.0
 10
107.9903075901899
 20
-153.6974229216451
 30
0.0
 10
108.0347493219496
 20
-153.5747775223702
 30
0.0
 10
108.2166503635708
 20
-153.4938177784668
 30
0.0
 10
108.4092312011963
 20
-153.4090684295297
 30
0.0
 10
108.6376410318683
 20
-153.3890868757152
 30
0.0
 10
108.8112738443249
 20
-153.3890868757152
 30
0.0
 10
108.9824950899419
 20
-153.3890868757152
 30
0.0
 10
109.2129719779051
 20
-153.407345881787
 30
0.0
 10
109.4055528155305
 20
-153.4938177784668
 30
0.0
  0
HATCH
  5
C7
330
C1
100
AcDbEntity
  8
レイヤー 1
 62
   250
420
  2299925
440
 33554687
100
AcDbHatch
 10
0.0
 20
0.0
 30
0.0
210
0.0
220
0.0
230
1.0
  2
SOLID
 70
     1
 71
     1
 91
        2
 92
        1
 93
        1
 72
     4
 94
        3
 73
     0
 74
     0
 95
       17
 96
       13
 40
0.0
 40
0.0
 40
0.0
 40
0.0
 40
1.0
 40
1.0
 40
1.0
 40
2.0
 40
2.0
 40
2.0
 40
3.0
 40
3.0
 40
3.0
 40
4.0
 40
4.0
 40
4.0
 40
4.0
 10
108.1828884278154
 20
-153.8328151742154
 10
108.1828884278154
 20
-154.0453775656553
 10
108.4664197862514
 20
-154.0853406732842
 10
108.8112738443249
 20
-154.0853406732842
 10
109.1306341958076
 20
-154.0853406732842
 10
109.439314751286
 20
-154.0546793234655
 10
109.439314751286
 20
-153.8328151742154
 10
109.439314751286
 20
-153.6216308209696
 10
109.1581949596896
 20
-153.5802896751466
 10
108.8112738443249
 20
-153.5802896751466
 10
108.4915689832937
 20
-153.5802896751466
 10
108.1828884278154
 20
-153.6126735727079
 10
108.1828884278154
 20
-153.8328151742154
 97
        0
 97
        1
330
C5
 92
        1
 93
        1
 72
     4
 94
        3
 73
     0
 74
     0
 95
       29
 96
       25
 40
0.0
 40
0.0
 40
0.0
 40
0.0
 40
1.0
 40
1.0
 40
1.0
 40
2.0
 40
2.0
 40
2.0
 40
3.0
 40
3.0
 40
3.0
 40
4.0
 40
4.0
 40
4.0
 40
5.0
 40
5.0
 40
5.0
 40
6.0
 40
6.0
 40
6.0
 40
7.0
 40
7.0
 40
7.0
 40
8.0
 40
8.0
 40
8.0
 40
8.0
 10
109.4055528155305
 20
-153.4938177784668
 10
109.6150146210337
 20
-153.585801827923
 10
109.6339626462026
 20
-153.7335964242402
 10
109.6339626462026
 20
-153.8328151742154
 10
109.6339626462026
 20
-153.9699299745283
 10
109.5874538571517
 20
-154.0905083165121
 10
109.4055528155305
 20
-154.171812569964
 10
109.2109049206139
 20
-154.2600070143864
 10
108.9738823512287
 20
-154.2761989631671
 10
108.8112738443249
 20
-154.2761989631671
 10
108.6672688530415
 20
-154.2761989631671
 10
108.4154323730697
 20
-154.2620740716775
 10
108.2166503635708
 20
-154.171812569964
 10
108.0137342394896
 20
-154.0798285205078
 10
107.9903075901899
 20
-153.9427137201949
 10
107.9903075901899
 20
-153.8328151742154
 10
107.9903075901899
 20
-153.6974229216451
 10
108.0347493219496
 20
-153.5747775223702
 10
108.2166503635708
 20
-153.4938177784668
 10
108.4092312011963
 20
-153.4090684295297
 10
108.6376410318683
 20
-153.3890868757152
 10
108.8112738443249
 20
-153.3890868757152
 10
108.9824950899419
 20
-153.3890868757152
 10
109.2129719779051
 20
-153.407345881787
 10
109.4055528155305
 20
-153.4938177784668
 97
        0
 97
        1
330
C6
 75
     2
 76
     1
 98
        1
 10
0.0
 20
0.0
450
        0
451
        0
460
0.0
461
0.0
452
        0
462
0.0
453
        0
470

  0
SPLINE
  5
C8
330
C1
100
AcDbEntity
  8
レイヤー 1
100
AcDbSpline
210
0.0
220
0.0
230
1.0
 70
    11
 71
     3
 72
    17
 73
    13
 74
     0
 42
0.0000000001
 43
0.0000000001
 40
0.0
 40
0.0
 40
0.0
 40
0.0
 40
1.0
 40
1.0
 40
1.0
 40
2.0
 40
2.0
 40
2.0
 40
3.0
 40
3.0
 40
3.0
 40
4.0
 40
4.0
 40
4.0
 40
4.0
 10
109.5833197425694
 20
-153.2061523054484
 30
0.0
 10
109.5833197425694
 20
-153.2061523054484
 30
0.0
 10
109.3314832625977
 20
-153.2061523054484
 30
0.0
 10
109.3314832625977
 20
-153.2061523054484
 30
0.0
 10
109.3314832625977
 20
-153.2061523054484
 30
0.0
 10
109.3314832625977
 20
-152.9915228567174
 30
0.0
 10
109.3314832625977
 20
-152.9915228567174
 30
0.0
 10
109.3314832625977
 20
-152.9915228567174
 30
0.0
 10
109.5833197425694
 20
-152.9915228567174
 30
0.0
 10
109.5833197425694
 20
-152.9915228567174
 30
0.0
 10
109.5833197425694
 20
-152.9915228567174
 30
0.0
 10
109.5833197425694
 20
-153.2061523054484
 30
0.0
 10
109.5833197425694
 20
-153.2061523054484
 30
0.0
  0
HATCH
  5
C9
330
C1
100
AcDbEntity
  8
レイヤー 1
 62
   250
420
  2299925
440
 33554687
100
AcDbHatch
 10
0.0
 20
0.0
 30
0.0
210
0.0
220
0.0
230
1.0
  2
SOLID
 70
     1
 71
     1
 91
        1
 92
        1
 93
        1
 72
     4
 94
        3
 73
     0
 74
     0
 95
       17
 96
       13
 40
0.0
 40
0.0
 40
0.0
 40
0.0
 40
1.0
 40
1.0
 40
1.0
 40
2.0
 40
2.0
 40
2.0
 40
3.0
 40
3.0
 40
3.0
 40
4.0
 40
4.0
 40
4.0
 40
4.0
 10
109.5833197425694
 20
-153.2061523054484
 10
109.5833197425694
 20
-153.2061523054484
 10
109.3314832625977
 20
-153.2061523054484
 10
109.3314832625977
 20
-153.2061523054484
 10
109.3314832625977
 20
-153.2061523054484
 10
109.3314832625977
 20
-152.9915228567174
 10
109.3314832625977
 20
-152.9915228567174
 10
109.3314832625977
 20
-152.9915228567174
 10
109.5833197425694
 20
-152.9915228567174
 10
109.5833197425694
 20
-152.9915228567174
 10
109.5833197425694
 20
-152.9915228567174
 10
109.5833197425694
 20
-153.2061523054484
 10
109.5833197425694
 20
-153.2061523054484
 97
        0
 97
        1
330
C8
 75
     2
 76
     1
 98
        1
 10
0.0
 20
0.0
450
        0
451
        0
460
0.0
461
0.0
452
        0
462
0.0
453
        0
470

  0
SPLINE
  5
CA
330
C1
100
AcDbEntity
  8
レイヤー 1
100
AcDbSpline
210
0.0
220
0.0
230
1.0
 70
    11
 71
     3
 72
    14
 73
    10
 74
     0
 42
0.0000000001
 43
0.0000000001
 40
0.0
 40
0.0
 40
0.0
 40
0.0
 40
1.0
 40
1.0
 40
1.0
 40
2.0
 40
2.0
 40
2.0
 40
3.0
 40
3.0
 40
3.0
 40
3.0
 10
108.3816704373143
 20
-152.2666747666208
 30
0.0
 10
108.3816704373143
 20
-152.2666747666208
 30
0.0
 10
109.0376166177059
 20
-152.6563150660026
 30
0.0
 10
109.0376166177059
 20
-152.6563150660026
 30
0.0
 10
109.0376166177059
 20
-152.6563150660026
 30
0.0
 10
109.0376166177059
 20
-152.2666747666208
 30
0.0
 10
109.0376166177059
 20
-152.2666747666208
 30
0.0
 10
109.0376166177059
 20
-152.2666747666208
 30
0.0
 10
108.3816704373143
 20
-152.2666747666208
 30
0.0
 10
108.3816704373143
 20
-152.2666747666208
 30
0.0
  0
SPLINE
  5
CB
330
C1
100
AcDbEntity
  8
レイヤー 1
100
AcDbSpline
210
0.0
220
0.0
230
1.0
 70
    11
 71
     3
 72
    38
 73
    34
 74
     0
 42
0.0000000001
 43
0.0000000001
 40
0.0
 40
0.0
 40
0.0
 40
0.0
 40
1.0
 40
1.0
 40
1.0
 40
2.0
 40
2.0
 40
2.0
 40
3.0
 40
3.0
 40
3.0
 40
4.0
 40
4.0
 40
4.0
 40
5.0
 40
5.0
 40
5.0
 40
6.0
 40
6.0
 40
6.0
 40
7.0
 40
7.0
 40
7.0
 40
8.0
 40
8.0
 40
8.0
 40
9.0
 40
9.0
 40
9.0
 40
10.0
 40
10.0
 40
10.0
 40
11.0
 40
11.0
 40
11.0
 40
11.0
 10
109.2363986272048
 20
-152.0809841199659
 30
0.0
 10
109.2363986272048
 20
-152.0809841199659
 30
0.0
 10
109.5833197425694
 20
-152.0809841199659
 30
0.0
 10
109.5833197425694
 20
-152.0809841199659
 30
0.0
 10
109.5833197425694
 20
-152.0809841199659
 30
0.0
 10
109.5833197425694
 20
-152.2666747666208
 30
0.0
 10
109.5833197425694
 20
-152.2666747666208
 30
0.0
 10
109.5833197425694
 20
-152.2666747666208
 30
0.0
 10
109.2363986272048
 20
-152.2666747666208
 30
0.0
 10
109.2363986272048
 20
-152.2666747666208
 30
0.0
 10
109.2363986272048
 20
-152.2666747666208
 30
0.0
 10
109.2363986272048
 20
-152.8258137638769
 30
0.0
 10
109.2363986272048
 20
-152.8258137638769
 30
0.0
 10
109.2363986272048
 20
-152.8258137638769
 30
0.0
 10
109.012122911115
 20
-152.8258137638769
 30
0.0
 10
109.012122911115
 20
-152.8258137638769
 30
0.0
 10
109.012122911115
 20
-152.8258137638769
 30
0.0
 10
108.0388834365319
 20
-152.2470377223549
 30
0.0
 10
108.0388834365319
 20
-152.2470377223549
 30
0.0
 10
108.0388834365319
 20
-152.2470377223549
 30
0.0
 10
108.0388834365319
 20
-152.0809841199659
 30
0.0
 10
108.0388834365319
 20
-152.0809841199659
 30
0.0
 10
108.0388834365319
 20
-152.0809841199659
 30
0.0
 10
109.0376166177059
 20
-152.0809841199659
 30
0.0
 10
109.0376166177059
 20
-152.0809841199659
 30
0.0
 10
109.0376166177059
 20
-152.0809841199659
 30
0.0
 10
109.0376166177059
 20
-151.9042507215725
 30
0.0
 10
109.0376166177059
 20
-151.9042507215725
 30
0.0
 10
109.0376166177059
 20
-151.9042507215725
 30
0.0
 10
109.2363986272048
 20
-151.9042507215725
 30
0.0
 10
109.2363986272048
 20
-151.9042507215725
 30
0.0
 10
109.2363986272048
 20
-151.9042507215725
 30
0.0
 10
109.2363986272048
 20
-152.0809841199659
 30
0.0
 10
109.2363986272048
 20
-152.0809841199659
 30
0.0
  0
HATCH
  5
CC
330
C1
100
AcDbEntity
  8
レイヤー 1
 62
   250
420
  2299925
440
 33554687
100
AcDbHatch
 10
0.0
 20
0.0
 30
0.0
210
0.0
220
0.0
230
1.0
  2
SOLID
 70
     1
 71
     1
 91
        2
 92
        1
 93
        1
 72
     4
 94
        3
 73
     0
 74
     0
 95
       14
 96
       10
 40
0.0
 40
0.0
 40
0.0
 40
0.0
 40
1.0
 40
1.0
 40
1.0
 40
2.0
 40
2.0
 40
2.0
 40
3.0
 40
3.0
 40
3.0
 40
3.0
 10
108.3816704373143
 20
-152.2666747666208
 10
108.3816704373143
 20
-152.2666747666208
 10
109.0376166177059
 20
-152.6563150660026
 10
109.0376166177059
 20
-152.6563150660026
 10
109.0376166177059
 20
-152.6563150660026
 10
109.0376166177059
 20
-152.2666747666208
 10
109.0376166177059
 20
-152.2666747666208
 10
109.0376166177059
 20
-152.2666747666208
 10
108.3816704373143
 20
-152.2666747666208
 10
108.3816704373143
 20
-152.2666747666208
 97
        0
 97
        1
330
CA
 92
        1
 93
        1
 72
     4
 94
        3
 73
     0
 74
     0
 95
       38
 96
       34
 40
0.0
 40
0.0
 40
0.0
 40
0.0
 40
1.0
 40
1.0
 40
1.0
 40
2.0
 40
2.0
 40
2.0
 40
3.0
 40
3.0
 40
3.0
 40
4.0
 40
4.0
 40
4.0
 40
5.0
 40
5.0
 40
5.0
 40
6.0
 40
6.0
 40
6.0
 40
7.0
 40
7.0
 40
7.0
 40
8.0
 40
8.0
 40
8.0
 40
9.0
 40
9.0
 40
9.0
 40
10.0
 40
10.0
 40
10.0
 40
11.0
 40
11.0
 40
11.0
 40
11.0
 10
109.2363986272048
 20
-152.0809841199659
 10
109.2363986272048
 20
-152.0809841199659
 10
109.5833197425694
 20
-152.0809841199659
 10
109.5833197425694
 20
-152.0809841199659
 10
109.5833197425694
 20
-152.0809841199659
 10
109.5833197425694
 20
-152.2666747666208
 10
109.5833197425694
 20
-152.2666747666208
 10
109.5833197425694
 20
-152.2666747666208
 10
109.2363986272048
 20
-152.2666747666208
 10
109.2363986272048
 20
-152.2666747666208
 10
109.2363986272048
 20
-152.2666747666208
 10
109.2363986272048
 20
-152.8258137638769
 10
109.2363986272048
 20
-152.8258137638769
 10
109.2363986272048
 20
-152.8258137638769
 10
109.012122911115
 20
-152.8258137638769
 10
109.012122911115
 20
-152.8258137638769
 10
109.012122911115
 20
-152.8258137638769
 10
108.0388834365319
 20
-152.2470377223549
 10
108.0388834365319
 20
-152.2470377223549
 10
108.0388834365319
 20
-152.2470377223549
 10
108.0388834365319
 20
-152.0809841199659
 10
108.0388834365319
 20
-152.0809841199659
 10
108.0388834365319
 20
-152.0809841199659
 10
109.0376166177059
 20
-152.0809841199659
 10
109.0376166177059
 20
-152.0809841199659
 10
109.0376166177059
 20
-152.0809841199659
 10
109.0376166177059
 20
-151.9042507215725
 10
109.0376166177059
 20
-151.9042507215725
 10
109.0376166177059
 20
-151.9042507215725
 10
109.2363986272048
 20
-151.9042507215725
 10
109.2363986272048
 20
-151.9042507215725
 10
109.2363986272048
 20
-151.9042507215725
 10
109.2363986272048
 20
-152.0809841199659
 10
109.2363986272048
 20
-152.0809841199659
 97
        0
 97
        1
330
CB
 75
     2
 76
     1
 98
        1
 10
0.0
 20
0.0
450
        0
451
        0
460
0.0
461
0.0
452
        0
462
0.0
453
        0
470

  0
ENDBLK
  5
C4
330
C1
100
AcDbEntity
  8
0
100
AcDbBlockEnd
  0
BLOCK
  5
D3
330
D1
100
AcDbEntity
  8
0
100
AcDbBlockBegin
  2
Block_9
 70
     0
 10
0.0
 20
0.0
 30
0.0
  3
Block_9
  1

  0
INSERT
  5
D6
330
D1
100
AcDbEntity
  8
レイヤー 1
100
AcDbBlockReference
  2
Block_10
 10
0.0
 20
0.0
 30
0.0
  0
ENDBLK
  5
D4
330
D1
100
AcDbEntity
  8
0
100
AcDbBlockEnd
  0
BLOCK
  5
D7
330
D5
100
AcDbEntity
  8
0
100
AcDbBlockBegin
  2
Block_10
 70
     0
 10
0.0
 20
0.0
 30
0.0
  3
Block_10
  1

  0
SPLINE
  5
D9
330
D5
100
AcDbEntity
  8
レイヤー 1
100
AcDbSpline
210
0.0
220
0.0
230
1.0
 70
    11
 71
     3
 72
    26
 73
    22
 74
     0
 42
0.0000000001
 43
0.0000000001
 40
0.0
 40
0.0
 40
0.0
 40
0.0
 40
1.0
 40
1.0
 40
1.0
 40
2.0
 40
2.0
 40
2.0
 40
3.0
 40
3.0
 40
3.0
 40
4.0
 40
4.0
 40
4.0
 40
5.0
 40
5.0
 40
5.0
 40
6.0
 40
6.0
 40
6.0
 40
7.0
 40
7.0
 40
7.0
 40
7.0
 10
77.30019122416454
 20
-142.7602782846224
 30
0.0
 10
77.30019122416454
 20
-142.7602782846224
 30
0.0
 10
76.19603812114196
 20
-142.7602782846224
 30
0.0
 10
76.19603812114196
 20
-142.7602782846224
 30
0.0
 10
76.19603812114196
 20
-142.7602782846224
 30
0.0
 10
76.19603812114196
 20
-143.0417425857673
 30
0.0
 10
76.19603812114196
 20
-143.0417425857673
 30
0.0
 10
76.19603812114196
 20
-143.0417425857673
 30
0.0
 10
76.04789901527623
 20
-143.0417425857673
 30
0.0
 10
76.04789901527623
 20
-143.0417425857673
 30
0.0
 10
76.03308510468965
 20
-142.7585557368798
 30
0.0
 10
75.87013208823733
 20
-142.7189371387994
 30
0.0
 10
75.75575491812704
 20
-142.6937879417571
 30
0.0
 10
75.75575491812704
 20
-142.6937879417571
 30
0.0
 10
75.75575491812704
 20
-142.569075485191
 30
0.0
 10
75.75575491812704
 20
-142.569075485191
 30
0.0
 10
75.75575491812704
 20
-142.569075485191
 30
0.0
 10
77.30019122416454
 20
-142.569075485191
 30
0.0
 10
77.30019122416454
 20
-142.569075485191
 30
0.0
 10
77.30019122416454
 20
-142.569075485191
 30
0.0
 10
77.30019122416454
 20
-142.7602782846224
 30
0.0
 10
77.30019122416454
 20
-142.7602782846224
 30
0.0
  0
HATCH
  5
DA
330
D5
100
AcDbEntity
  8
レイヤー 1
 62
   250
420
  2299925
440
 33554687
100
AcDbHatch
 10
0.0
 20
0.0
 30
0.0
210
0.0
220
0.0
230
1.0
  2
SOLID
 70
     1
 71
     1
 91
        1
 92
        1
 93
        1
 72
     4
 94
        3
 73
     0
 74
     0
 95
       26
 96
       22
 40
0.0
 40
0.0
 40
0.0
 40
0.0
 40
1.0
 40
1.0
 40
1.0
 40
2.0
 40
2.0
 40
2.0
 40
3.0
 40
3.0
 40
3.0
 40
4.0
 40
4.0
 40
4.0
 40
5.0
 40
5.0
 40
5.0
 40
6.0
 40
6.0
 40
6.0
 40
7.0
 40
7.0
 40
7.0
 40
7.0
 10
77.30019122416454
 20
-142.7602782846224
 10
77.30019122416454
 20
-142.7602782846224
 10
76.19603812114196
 20
-142.7602782846224
 10
76.19603812114196
 20
-142.7602782846224
 10
76.19603812114196
 20
-142.7602782846224
 10
76.19603812114196
 20
-143.0417425857673
 10
76.19603812114196
 20
-143.0417425857673
 10
76.19603812114196
 20
-143.0417425857673
 10
76.04789901527623
 20
-143.0417425857673
 10
76.04789901527623
 20
-143.0417425857673
 10
76.03308510468965
 20
-142.7585557368798
 10
75.87013208823733
 20
-142.7189371387994
 10
75.75575491812704
 20
-142.6937879417571
 10
75.75575491812704
 20
-142.6937879417571
 10
75.75575491812704
 20
-142.569075485191
 10
75.75575491812704
 20
-142.569075485191
 10
75.75575491812704
 20
-142.569075485191
 10
77.30019122416454
 20
-142.569075485191
 10
77.30019122416454
 20
-142.569075485191
 10
77.30019122416454
 20
-142.569075485191
 10
77.30019122416454
 20
-142.7602782846224
 10
77.30019122416454
 20
-142.7602782846224
 97
        0
 97
        1
330
D9
 75
     2
 76
     1
 98
        1
 10
0.0
 20
0.0
450
        0
451
        0
460
0.0
461
0.0
452
        0
462
0.0
453
        0
470

  0
SPLINE
  5
DB
330
D5
100
AcDbEntity
  8
レイヤー 1
100
AcDbSpline
210
0.0
220
0.0
230
1.0
 70
    11
 71
     3
 72
    17
 73
    13
 74
     0
 42
0.0000000001
 43
0.0000000001
 40
0.0
 40
0.0
 40
0.0
 40
0.0
 40
1.0
 40
1.0
 40
1.0
 40
2.0
 40
2.0
 40
2.0
 40
3.0
 40
3.0
 40
3.0
 40
4.0
 40
4.0
 40
4.0
 40
4.0
 10
77.30019122416454
 20
-142.0922742700325
 30
0.0
 10
77.30019122416454
 20
-142.0922742700325
 30
0.0
 10
77.04835474419278
 20
-142.0922742700325
 30
0.0
 10
77.04835474419278
 20
-142.0922742700325
 30
0.0
 10
77.04835474419278
 20
-142.0922742700325
 30
0.0
 10
77.04835474419278
 20
-141.8776448213014
 30
0.0
 10
77.04835474419278
 20
-141.8776448213014
 30
0.0
 10
77.04835474419278
 20
-141.8776448213014
 30
0.0
 10
77.30019122416454
 20
-141.8776448213014
 30
0.0
 10
77.30019122416454
 20
-141.8776448213014
 30
0.0
 10
77.30019122416454
 20
-141.8776448213014
 30
0.0
 10
77.30019122416454
 20
-142.0922742700325
 30
0.0
 10
77.30019122416454
 20
-142.0922742700325
 30
0.0
  0
HATCH
  5
DC
330
D5
100
AcDbEntity
  8
レイヤー 1
 62
   250
420
  2299925
440
 33554687
100
AcDbHatch
 10
0.0
 20
0.0
 30
0.0
210
0.0
220
0.0
230
1.0
  2
SOLID
 70
     1
 71
     1
 91
        1
 92
        1
 93
        1
 72
     4
 94
        3
 73
     0
 74
     0
 95
       17
 96
       13
 40
0.0
 40
0.0
 40
0.0
 40
0.0
 40
1.0
 40
1.0
 40
1.0
 40
2.0
 40
2.0
 40
2.0
 40
3.0
 40
3.0
 40
3.0
 40
4.0
 40
4.0
 40
4.0
 40
4.0
 10
77.30019122416454
 20
-142.0922742700325
 10
77.30019122416454
 20
-142.0922742700325
 10
77.04835474419278
 20
-142.0922742700325
 10
77.04835474419278
 20
-142.0922742700325
 10
77.04835474419278
 20
-142.0922742700325
 10
77.04835474419278
 20
-141.8776448213014
 10
77.04835474419278
 20
-141.8776448213014
 10
77.04835474419278
 20
-141.8776448213014
 10
77.30019122416454
 20
-141.8776448213014
 10
77.30019122416454
 20
-141.8776448213014
 10
77.30019122416454
 20
-141.8776448213014
 10
77.30019122416454
 20
-142.0922742700325
 10
77.30019122416454
 20
-142.0922742700325
 97
        0
 97
        1
330
DB
 75
     2
 76
     1
 98
        1
 10
0.0
 20
0.0
450
        0
451
        0
460
0.0
461
0.0
452
        0
462
0.0
453
        0
470

  0
SPLINE
  5
DD
330
D5
100
AcDbEntity
  8
レイヤー 1
100
AcDbSpline
210
0.0
220
0.0
230
1.0
 70
     9
 71
     3
 72
    17
 73
    13
 74
     0
 42
0.0000000001
 43
0.0000000001
 40
0.0
 40
0.0
 40
0.0
 40
0.0
 40
1.0
 40
1.0
 40
1.0
 40
2.0
 40
2.0
 40
2.0
 40
3.0
 40
3.0
 40
3.0
 40
4.0
 40
4.0
 40
4.0
 40
4.0
 10
75.89975990941048
 20
-141.2502929334374
 30
0.0
 10
75.89975990941048
 20
-141.4631998344258
 30
0.0
 10
76.18329126784654
 20
-141.5028184325062
 30
0.0
 10
76.52814532592005
 20
-141.5028184325062
 30
0.0
 10
76.8475056774027
 20
-141.5028184325062
 30
0.0
 10
77.1561862328811
 20
-141.4721570826875
 30
0.0
 10
77.1561862328811
 20
-141.2502929334374
 30
0.0
 10
77.1561862328811
 20
-141.0391085801916
 30
0.0
 10
76.87506644128472
 20
-140.9977674343686
 30
0.0
 10
76.52814532592005
 20
-140.9977674343686
 30
0.0
 10
76.20844046488887
 20
-140.9977674343686
 30
0.0
 10
75.89975990941048
 20
-141.0301513319299
 30
0.0
 10
75.89975990941048
 20
-141.2502929334374
 30
0.0
  0
SPLINE
  5
DE
330
D5
100
AcDbEntity
  8
レイヤー 1
100
AcDbSpline
210
0.0
220
0.0
230
1.0
 70
     9
 71
     3
 72
    29
 73
    25
 74
     0
 42
0.0000000001
 43
0.0000000001
 40
0.0
 40
0.0
 40
0.0
 40
0.0
 40
1.0
 40
1.0
 40
1.0
 40
2.0
 40
2.0
 40
2.0
 40
3.0
 40
3.0
 40
3.0
 40
4.0
 40
4.0
 40
4.0
 40
5.0
 40
5.0
 40
5.0
 40
6.0
 40
6.0
 40
6.0
 40
7.0
 40
7.0
 40
7.0
 40
8.0
 40
8.0
 40
8.0
 40
8.0
 10
77.12242429712564
 20
-140.9112955376888
 30
0.0
 10
77.33188610262884
 20
-141.003279587145
 30
0.0
 10
77.35083412779771
 20
-141.1510741834622
 30
0.0
 10
77.35083412779771
 20
-141.2502929334374
 30
0.0
 10
77.35083412779771
 20
-141.3874077337503
 30
0.0
 10
77.30432533874683
 20
-141.5079860757341
 30
0.0
 10
77.12242429712564
 20
-141.589290329186
 30
0.0
 10
76.92777640220903
 20
-141.6774847736084
 30
0.0
 10
76.69075383282384
 20
-141.6940212319376
 30
0.0
 10
76.52814532592005
 20
-141.6940212319376
 30
0.0
 10
76.38414033463661
 20
-141.6940212319376
 30
0.0
 10
76.13230385466484
 20
-141.6795518308995
 30
0.0
 10
75.93352184516593
 20
-141.589290329186
 30
0.0
 10
75.73060572108471
 20
-141.4973062797298
 30
0.0
 10
75.70717907178502
 20
-141.3601914794169
 30
0.0
 10
75.70717907178502
 20
-141.2502929334374
 30
0.0
 10
75.70717907178502
 20
-141.1149006808671
 30
0.0
 10
75.75162080354473
 20
-140.9922552815922
 30
0.0
 10
75.93352184516593
 20
-140.9112955376888
 30
0.0
 10
76.1261026827914
 20
-140.8265461887517
 30
0.0
 10
76.35451251346346
 20
-140.8065646349372
 30
0.0
 10
76.52814532592005
 20
-140.8065646349372
 30
0.0
 10
76.69936657153697
 20
-140.8065646349372
 30
0.0
 10
76.92984345950018
 20
-140.8248236410091
 30
0.0
 10
77.12242429712564
 20
-140.9112955376888
 30
0.0
  0
HATCH
  5
DF
330
D5
100
AcDbEntity
  8
レイヤー 1
 62
   250
420
  2299925
440
 33554687
100
AcDbHatch
 10
0.0
 20
0.0
 30
0.0
210
0.0
220
0.0
230
1.0
  2
SOLID
 70
     1
 71
     1
 91
        2
 92
        1
 93
        1
 72
     4
 94
        3
 73
     0
 74
     0
 95
       17
 96
       13
 40
0.0
 40
0.0
 40
0.0
 40
0.0
 40
1.0
 40
1.0
 40
1.0
 40
2.0
 40
2.0
 40
2.0
 40
3.0
 40
3.0
 40
3.0
 40
4.0
 40
4.0
 40
4.0
 40
4.0
 10
75.89975990941048
 20
-141.2502929334374
 10
75.89975990941048
 20
-141.4631998344258
 10
76.18329126784654
 20
-141.5028184325062
 10
76.52814532592005
 20
-141.5028184325062
 10
76.8475056774027
 20
-141.5028184325062
 10
77.1561862328811
 20
-141.4721570826875
 10
77.1561862328811
 20
-141.2502929334374
 10
77.1561862328811
 20
-141.0391085801916
 10
76.87506644128472
 20
-140.9977674343686
 10
76.52814532592005
 20
-140.9977674343686
 10
76.20844046488887
 20
-140.9977674343686
 10
75.89975990941048
 20
-141.0301513319299
 10
75.89975990941048
 20
-141.2502929334374
 97
        0
 97
        1
330
DD
 92
        1
 93
        1
 72
     4
 94
        3
 73
     0
 74
     0
 95
       29
 96
       25
 40
0.0
 40
0.0
 40
0.0
 40
0.0
 40
1.0
 40
1.0
 40
1.0
 40
2.0
 40
2.0
 40
2.0
 40
3.0
 40
3.0
 40
3.0
 40
4.0
 40
4.0
 40
4.0
 40
5.0
 40
5.0
 40
5.0
 40
6.0
 40
6.0
 40
6.0
 40
7.0
 40
7.0
 40
7.0
 40
8.0
 40
8.0
 40
8.0
 40
8.0
 10
77.12242429712564
 20
-140.9112955376888
 10
77.33188610262884
 20
-141.003279587145
 10
77.35083412779771
 20
-141.1510741834622
 10
77.35083412779771
 20
-141.2502929334374
 10
77.35083412779771
 20
-141.3874077337503
 10
77.30432533874683
 20
-141.5079860757341
 10
77.12242429712564
 20
-141.589290329186
 10
76.92777640220903
 20
-141.6774847736084
 10
76.69075383282384
 20
-141.6940212319376
 10
76.52814532592005
 20
-141.6940212319376
 10
76.38414033463661
 20
-141.6940212319376
 10
76.13230385466484
 20
-141.6795518308995
 10
75.93352184516593
 20
-141.589290329186
 10
75.73060572108471
 20
-141.4973062797298
 10
75.70717907178502
 20
-141.3601914794169
 10
75.70717907178502
 20
-141.2502929334374
 10
75.70717907178502
 20
-141.1149006808671
 10
75.75162080354473
 20
-140.9922552815922
 10
75.93352184516593
 20
-140.9112955376888
 10
76.1261026827914
 20
-140.8265461887517
 10
76.35451251346346
 20
-140.8065646349372
 10
76.52814532592005
 20
-140.8065646349372
 10
76.69936657153697
 20
-140.8065646349372
 10
76.92984345950018
 20
-140.8248236410091
 10
77.12242429712564
 20
-140.9112955376888
 97
        0
 97
        1
330
DE
 75
     2
 76
     1
 98
        1
 10
0.0
 20
0.0
450
        0
451
        0
460
0.0
461
0.0
452
        0
462
0.0
453
        0
470

  0
ENDBLK
  5
D8
330
D5
100
AcDbEntity
  8
0
100
AcDbBlockEnd
  0
BLOCK
  5
E4
330
E2
100
AcDbEntity
  8
0
100
AcDbBlockBegin
  2
Block_11
 70
     0
 10
0.0
 20
0.0
 30
0.0
  3
Block_11
  1

  0
LINE
  5
E6
330
E2
100
AcDbEntity
  8
レイヤー 1
 62
    18
420
        0
370
     9
100
AcDbLine
 10
96.6914415624813
 20
-151.9639056834201
 30
0.0
 11
96.42459670462093
 21
-151.000133450149
 31
0.0
  0
LINE
  5
E7
330
E2
100
AcDbEntity
  8
レイヤー 1
 62
    18
420
        0
370
     9
100
AcDbLine
 10
96.6914415624813
 20
-151.9639056834201
 30
0.0
 11
96.65700735510421
 21
-150.349945120616
 31
0.0
  0
LINE
  5
E8
330
E2
100
AcDbEntity
  8
レイヤー 1
 62
    18
420
        0
370
     9
100
AcDbLine
 10
96.6914415624813
 20
-151.9639056834201
 30
0.0
 11
96.94228963998719
 21
-150.9957252280333
 31
0.0
  0
ENDBLK
  5
E5
330
E2
100
AcDbEntity
  8
0
100
AcDbBlockEnd
  0
BLOCK
  5
EB
330
E9
100
AcDbEntity
  8
0
100
AcDbBlockBegin
  2
Block_12
 70
     0
 10
0.0
 20
0.0
 30
0.0
  3
Block_12
  1

  0
INSERT
  5
EE
330
E9
100
AcDbEntity
  8
レイヤー 1
100
AcDbBlockReference
  2
Block_13
 10
0.0
 20
0.0
 30
0.0
  0
ENDBLK
  5
EC
330
E9
100
AcDbEntity
  8
0
100
AcDbBlockEnd
  0
BLOCK
  5
EF
330
ED
100
AcDbEntity
  8
0
100
AcDbBlockBegin
  2
Block_13
 70
     0
 10
0.0
 20
0.0
 30
0.0
  3
Block_13
  1

  0
SPLINE
  5
F1
330
ED
100
AcDbEntity
  8
レイヤー 1
100
AcDbSpline
210
0.0
220
0.0
230
1.0
 70
     9
 71
     3
 72
    17
 73
    13
 74
     0
 42
0.0000000001
 43
0.0000000001
 40
0.0
 40
0.0
 40
0.0
 40
0.0
 40
1.0
 40
1.0
 40
1.0
 40
2.0
 40
2.0
 40
2.0
 40
3.0
 40
3.0
 40
3.0
 40
4.0
 40
4.0
 40
4.0
 40
4.0
 10
92.70528019600771
 20
-149.283566585943
 30
0.0
 10
92.68822697335572
 20
-149.3131944071161
 30
0.0
 10
92.63758406972256
 20
-149.4062119852179
 30
0.0
 10
92.62690427371827
 20
-149.4251600103867
 30
0.0
 10
92.81724579927832
 20
-149.484415652733
 30
0.0
 10
92.83843313651262
 20
-149.490961334155
 30
0.0
 10
92.91043563215435
 20
-149.518522098037
 30
0.0
 10
92.96538490514407
 20
-149.4317056918087
 30
0.0
 10
92.98863929966952
 20
-149.3576361388758
 30
0.0
 10
93.00345321025607
 20
-149.283566585943
 30
0.0
 10
93.00345321025607
 20
-149.283566585943
 30
0.0
 10
92.70528019600771
 20
-149.283566585943
 30
0.0
 10
92.70528019600771
 20
-149.283566585943
 30
0.0
  0
SPLINE
  5
F2
330
ED
100
AcDbEntity
  8
レイヤー 1
100
AcDbSpline
210
0.0
220
0.0
230
1.0
 70
    11
 71
     3
 72
    20
 73
    16
 74
     0
 42
0.0000000001
 43
0.0000000001
 40
0.0
 40
0.0
 40
0.0
 40
0.0
 40
1.0
 40
1.0
 40
1.0
 40
2.0
 40
2.0
 40
2.0
 40
3.0
 40
3.0
 40
3.0
 40
4.0
 40
4.0
 40
4.0
 40
5.0
 40
5.0
 40
5.0
 40
5.0
 10
92.64171818430485
 20
-148.433144765409
 30
0.0
 10
92.64171818430485
 20
-148.433144765409
 30
0.0
 10
92.61002330584055
 20
-148.433144765409
 30
0.0
 10
92.61002330584055
 20
-148.433144765409
 30
0.0
 10
92.65653209489142
 20
-148.5325357701585
 30
0.0
 10
92.68822697335572
 20
-148.6128064949648
 30
0.0
 10
92.72216116388543
 20
-148.7397582635963
 30
0.0
 10
92.72216116388543
 20
-148.7397582635963
 30
0.0
 10
92.92938365732322
 20
-148.7397582635963
 30
0.0
 10
92.92938365732322
 20
-148.7397582635963
 30
0.0
 10
92.96125079056178
 20
-148.6467406854945
 30
0.0
 10
92.98450518508721
 20
-148.5621635913316
 30
0.0
 10
93.00775957961265
 20
-148.433144765409
 30
0.0
 10
93.00775957961265
 20
-148.433144765409
 30
0.0
 10
92.64171818430485
 20
-148.433144765409
 30
0.0
 10
92.64171818430485
 20
-148.433144765409
 30
0.0
  0
SPLINE
  5
F3
330
ED
100
AcDbEntity
  8
レイヤー 1
100
AcDbSpline
210
0.0
220
0.0
230
1.0
 70
     9
 71
     3
 72
   242
 73
   238
 74
     0
 42
0.0000000001
 43
0.0000000001
 40
0.0
 40
0.0
 40
0.0
 40
0.0
 40
1.0
 40
1.0
 40
1.0
 40
2.0
 40
2.0
 40
2.0
 40
3.0
 40
3.0
 40
3.0
 40
4.0
 40
4.0
 40
4.0
 40
5.0
 40
5.0
 40
5.0
 40
6.0
 40
6.0
 40
6.0
 40
7.0
 40
7.0
 40
7.0
 40
8.0
 40
8.0
 40
8.0
 40
9.0
 40
9.0
 40
9.0
 40
10.0
 40
10.0
 40
10.0
 40
11.0
 40
11.0
 40
11.0
 40
12.0
 40
12.0
 40
12.0
 40
13.0
 40
13.0
 40
13.0
 40
14.0
 40
14.0
 40
14.0
 40
15.0
 40
15.0
 40
15.0
 40
16.0
 40
16.0
 40
16.0
 40
17.0
 40
17.0
 40
17.0
 40
18.0
 40
18.0
 40
18.0
 40
19.0
 40
19.0
 40
19.0
 40
20.0
 40
20.0
 40
20.0
 40
21.0
 40
21.0
 40
21.0
 40
22.0
 40
22.0
 40
22.0
 40
23.0
 40
23.0
 40
23.0
 40
24.0
 40
24.0
 40
24.0
 40
25.0
 40
25.0
 40
25.0
 40
26.0
 40
26.0
 40
26.0
 40
27.0
 40
27.0
 40
27.0
 40
28.0
 40
28.0
 40
28.0
 40
29.0
 40
29.0
 40
29.0
 40
30.0
 40
30.0
 40
30.0
 40
31.0
 40
31.0
 40
31.0
 40
32.0
 40
32.0
 40
32.0
 40
33.0
 40
33.0
 40
33.0
 40
34.0
 40
34.0
 40
34.0
 40
35.0
 40
35.0
 40
35.0
 40
36.0
 40
36.0
 40
36.0
 40
37.0
 40
37.0
 40
37.0
 40
38.0
 40
38.0
 40
38.0
 40
39.0
 40
39.0
 40
39.0
 40
40.0
 40
40.0
 40
40.0
 40
41.0
 40
41.0
 40
41.0
 40
42.0
 40
42.0
 40
42.0
 40
43.0
 40
43.0
 40
43.0
 40
44.0
 40
44.0
 40
44.0
 40
45.0
 40
45.0
 40
45.0
 40
46.0
 40
46.0
 40
46.0
 40
47.0
 40
47.0
 40
47.0
 40
48.0
 40
48.0
 40
48.0
 40
49.0
 40
49.0
 40
49.0
 40
50.0
 40
50.0
 40
50.0
 40
51.0
 40
51.0
 40
51.0
 40
52.0
 40
52.0
 40
52.0
 40
53.0
 40
53.0
 40
53.0
 40
54.0
 40
54.0
 40
54.0
 40
55.0
 40
55.0
 40
55.0
 40
56.0
 40
56.0
 40
56.0
 40
57.0
 40
57.0
 40
57.0
 40
58.0
 40
58.0
 40
58.0
 40
59.0
 40
59.0
 40
59.0
 40
60.0
 40
60.0
 40
60.0
 40
61.0
 40
61.0
 40
61.0
 40
62.0
 40
62.0
 40
62.0
 40
63.0
 40
63.0
 40
63.0
 40
64.0
 40
64.0
 40
64.0
 40
65.0
 40
65.0
 40
65.0
 40
66.0
 40
66.0
 40
66.0
 40
67.0
 40
67.0
 40
67.0
 40
68.0
 40
68.0
 40
68.0
 40
69.0
 40
69.0
 40
69.0
 40
70.0
 40
70.0
 40
70.0
 40
71.0
 40
71.0
 40
71.0
 40
72.0
 40
72.0
 40
72.0
 40
73.0
 40
73.0
 40
73.0
 40
74.0
 40
74.0
 40
74.0
 40
75.0
 40
75.0
 40
75.0
 40
76.0
 40
76.0
 40
76.0
 40
77.0
 40
77.0
 40
77.0
 40
78.0
 40
78.0
 40
78.0
 40
79.0
 40
79.0
 40
79.0
 40
79.0
 10
93.27010360081443
 20
-148.8984049106921
 30
0.0
 10
93.27010360081443
 20
-148.8984049106921
 30
0.0
 10
93.0162000635515
 20
-148.8984049106921
 30
0.0
 10
93.0162000635515
 20
-148.8984049106921
 30
0.0
 10
93.0162000635515
 20
-148.8984049106921
 30
0.0
 10
92.73904213176315
 20
-148.8984049106921
 30
0.0
 10
92.73904213176315
 20
-148.8984049106921
 30
0.0
 10
92.73904213176315
 20
-148.8984049106921
 30
0.0
 10
92.8659939003946
 20
-148.9407795851606
 30
0.0
 10
92.8659939003946
 20
-148.9407795851606
 30
0.0
 10
92.87650144162462
 20
-148.9452582092915
 30
0.0
 10
92.88924829492005
 20
-148.9514593811649
 30
0.0
 10
92.88924829492005
 20
-148.9642062344603
 30
0.0
 10
92.88924829492005
 20
-148.9852213169203
 30
0.0
 10
92.85755341645575
 20
-148.9917669983423
 30
0.0
 10
92.83636607922145
 20
-148.9959011129246
 30
0.0
 10
92.82585853799146
 20
-149.0189832526758
 30
0.0
 10
92.79623071681831
 20
-149.0847845764441
 30
0.0
 10
92.77711043687517
 20
-149.1292263082038
 30
0.0
 10
92.77711043687517
 20
-149.1292263082038
 30
0.0
 10
93.0478949420158
 20
-149.1292263082038
 30
0.0
 10
93.0478949420158
 20
-149.1292263082038
 30
0.0
 10
93.13884546282642
 20
-149.1292263082038
 30
0.0
 10
93.33556041503417
 20
-149.124747684073
 30
0.0
 10
93.4773260942522
 20
-149.1164794549083
 30
0.0
 10
93.4773260942522
 20
-149.1164794549083
 30
0.0
 10
93.4773260942522
 20
-149.2942463819472
 30
0.0
 10
93.4773260942522
 20
-149.2942463819472
 30
0.0
 10
93.39481605738047
 20
-149.2897677578164
 30
0.0
 10
93.37362872014619
 20
-149.2897677578164
 30
0.0
 10
93.19379473581614
 20
-149.2856336432341
 30
0.0
 10
93.16209985735182
 20
-149.4399739209733
 30
0.0
 10
93.11765812559212
 20
-149.5205891553282
 30
0.0
 10
93.07321639383239
 20
-149.5901800841302
 30
0.0
 10
93.19379473581614
 20
-149.6494357264765
 30
0.0
 10
93.29973142198758
 20
-149.7173041075359
 30
0.0
 10
93.40325654131932
 20
-149.7996418896334
 30
0.0
 10
93.40325654131932
 20
-149.7996418896334
 30
0.0
 10
93.28491751140099
 20
-149.966729020668
 30
0.0
 10
93.28491751140099
 20
-149.966729020668
 30
0.0
 10
93.26166311687556
 20
-149.9477809954991
 30
0.0
 10
93.24891626358015
 20
-149.9395127663345
 30
0.0
 10
93.13677840553525
 20
-149.8547634173974
 30
0.0
 10
93.08803030441897
 20
-149.8165228575111
 30
0.0
 10
93.02894691684693
 20
-149.7806938644645
 30
0.0
 10
92.94850393726635
 20
-149.7362521327048
 30
0.0
 10
92.73697507447201
 20
-149.9226317984568
 30
0.0
 10
92.53164738355112
 20
-149.945713938208
 30
0.0
 10
92.2419148532416
 20
-149.9753417593811
 30
0.0
 10
92.2419148532416
 20
-149.9753417593811
 30
0.0
 10
92.13821747913559
 20
-149.7955077750511
 30
0.0
 10
92.13821747913559
 20
-149.7955077750511
 30
0.0
 10
92.45551077332711
 20
-149.7913736604688
 30
0.0
 10
92.63121064307483
 20
-149.765879953878
 30
0.0
 10
92.78348386352289
 20
-149.6559814078985
 30
0.0
 10
92.66497257883029
 20
-149.6049939947168
 30
0.0
 10
92.57608911531084
 20
-149.5777777403833
 30
0.0
 10
92.54026012226423
 20
-149.5650308870879
 30
0.0
 10
92.5211398423211
 20
-149.5925916509699
 30
0.0
 10
92.50632593173454
 20
-149.6115396761388
 30
0.0
 10
92.47876516785252
 20
-149.6453016118942
 30
0.0
 10
92.47876516785252
 20
-149.6453016118942
 30
0.0
 10
92.28205021564477
 20
-149.5629638297967
 30
0.0
 10
92.28205021564477
 20
-149.5629638297967
 30
0.0
 10
92.3645602525165
 20
-149.4823485954419
 30
0.0
 10
92.42588295215396
 20
-149.387263960049
 30
0.0
 10
92.4830715372091
 20
-149.2856336432341
 30
0.0
 10
92.29273001164903
 20
-149.2897677578164
 30
0.0
 10
92.27154267441475
 20
-149.2897677578164
 30
0.0
 10
92.18903263754302
 20
-149.2942463819472
 30
0.0
 10
92.18903263754302
 20
-149.2942463819472
 30
0.0
 10
92.18903263754302
 20
-149.1164794549083
 30
0.0
 10
92.18903263754302
 20
-149.1164794549083
 30
0.0
 10
92.32855900469564
 20
-149.1226806267818
 30
0.0
 10
92.53802081019882
 20
-149.1271592509126
 30
0.0
 10
92.56351451678968
 20
-149.1271592509126
 30
0.0
 10
92.5803954846674
 20
-149.0930528056087
 30
0.0
 10
92.63534475765714
 20
-148.9724744636249
 30
0.0
 10
92.65446503760028
 20
-148.8984049106921
 30
0.0
 10
92.63534475765714
 20
-148.8984049106921
 30
0.0
 10
92.45775008539251
 20
-148.904950592114
 30
0.0
 10
92.26310219047588
 20
-148.9176974454094
 30
0.0
 10
92.26310219047588
 20
-148.9176974454094
 30
0.0
 10
92.26310219047588
 20
-149.0510226406886
 30
0.0
 10
92.26310219047588
 20
-149.0510226406886
 30
0.0
 10
92.21435408935962
 20
-149.0761718377309
 30
0.0
 10
92.15509844701331
 20
-149.1078667161952
 30
0.0
 10
92.0219455065084
 20
-149.1736680399635
 30
0.0
 10
92.0219455065084
 20
-149.1736680399635
 30
0.0
 10
92.0219455065084
 20
-149.3193955789896
 30
0.0
 10
92.0219455065084
 20
-149.3193955789896
 30
0.0
 10
92.0219455065084
 20
-149.3193955789896
 30
0.0
 10
92.0219455065084
 20
-149.7872395458865
 30
0.0
 10
92.0219455065084
 20
-149.7872395458865
 30
0.0
 10
92.0219455065084
 20
-149.9140190597437
 30
0.0
 10
91.98594425868753
 20
-149.97327470209
 30
0.0
 10
91.70241290025149
 20
-149.9646619633769
 30
0.0
 10
91.70241290025149
 20
-149.9646619633769
 30
0.0
 10
91.59871552614546
 20
-149.7576117247134
 30
0.0
 10
91.59871552614546
 20
-149.7576117247134
 30
0.0
 10
91.66227753784832
 20
-149.7700140684603
 30
0.0
 10
91.71085338419034
 20
-149.7744926925911
 30
0.0
 10
91.75116100136776
 20
-149.7744926925911
 30
0.0
 10
91.82729761159178
 20
-149.7744926925911
 30
0.0
 10
91.8378051528218
 20
-149.7510660432914
 30
0.0
 10
91.8378051528218
 20
-149.6856092290717
 30
0.0
 10
91.8378051528218
 20
-149.6856092290717
 30
0.0
 10
91.8378051528218
 20
-149.256005822061
 30
0.0
 10
91.8378051528218
 20
-149.256005822061
 30
0.0
 10
91.74048120536349
 20
-149.2963134392384
 30
0.0
 10
91.72360023748577
 20
-149.3025146111119
 30
0.0
 10
91.6770914484349
 20
-149.3218071458293
 30
0.0
 10
91.67278507907834
 20
-149.3428222282893
 30
0.0
 10
91.66865096449603
 20
-149.3724500494624
 30
0.0
 10
91.6495306845529
 20
-149.3724500494624
 30
0.0
 10
91.64109020061403
 20
-149.3724500494624
 30
0.0
 10
91.63058265938403
 20
-149.3683159348801
 30
0.0
 10
91.62420923273632
 20
-149.3448892855804
 30
0.0
 10
91.62420923273632
 20
-149.3448892855804
 30
0.0
 10
91.57132701703773
 20
-149.152308447955
 30
0.0
 10
91.57132701703773
 20
-149.152308447955
 30
0.0
 10
91.71722681083805
 20
-149.1057996589041
 30
0.0
 10
91.78285587983207
 20
-149.0827175191529
 30
0.0
 10
91.8378051528218
 20
-149.0613579271444
 30
0.0
 10
91.8378051528218
 20
-149.0613579271444
 30
0.0
 10
91.8378051528218
 20
-148.6488077427857
 30
0.0
 10
91.8378051528218
 20
-148.6488077427857
 30
0.0
 10
91.8378051528218
 20
-148.6488077427857
 30
0.0
 10
91.78492293712322
 20
-148.6488077427857
 30
0.0
 10
91.78492293712322
 20
-148.6488077427857
 30
0.0
 10
91.78492293712322
 20
-148.6488077427857
 30
0.0
 10
91.70671926960805
 20
-148.6488077427857
 30
0.0
 10
91.70671926960805
 20
-148.6488077427857
 30
0.0
 10
91.63902314332288
 20
-148.6488077427857
 30
0.0
 10
91.63058265938403
 20
-148.6488077427857
 30
0.0
 10
91.59458141156317
 20
-148.6551811694334
 30
0.0
 10
91.59458141156317
 20
-148.6551811694334
 30
0.0
 10
91.59458141156317
 20
-148.4605332745168
 30
0.0
 10
91.59458141156317
 20
-148.4605332745168
 30
0.0
 10
91.62214217544516
 20
-148.4669067011645
 30
0.0
 10
91.63058265938403
 20
-148.4669067011645
 30
0.0
 10
91.70034584296033
 20
-148.4669067011645
 30
0.0
 10
91.70034584296033
 20
-148.4669067011645
 30
0.0
 10
91.8336710382395
 20
-148.4669067011645
 30
0.0
 10
91.8336710382395
 20
-148.4669067011645
 30
0.0
 10
91.8336710382395
 20
-148.3971435175882
 30
0.0
 10
91.8336710382395
 20
-148.3146334807164
 30
0.0
 10
91.83143172617409
 20
-148.3103271113599
 30
0.0
 10
91.82299124223524
 20
-148.1304931270299
 30
0.0
 10
91.82299124223524
 20
-148.111545101861
 30
0.0
 10
91.82092418494407
 20
-148.0650363128101
 30
0.0
 10
91.82092418494407
 20
-148.0650363128101
 30
0.0
 10
92.03675941709498
 20
-148.073476796749
 30
0.0
 10
92.03675941709498
 20
-148.073476796749
 30
0.0
 10
92.047266958325
 20
-148.073476796749
 30
0.0
 10
92.06845429555928
 20
-148.0755438540401
 30
0.0
 10
92.06845429555928
 20
-148.0924248219178
 30
0.0
 10
92.06845429555928
 20
-148.111545101861
 30
0.0
 10
92.0536403849727
 20
-148.122052643091
 30
0.0
 10
92.02831893315611
 20
-148.1411729230341
 30
0.0
 10
92.02831893315611
 20
-148.1918158266673
 30
0.0
 10
92.0219455065084
 20
-148.4203979121136
 30
0.0
 10
92.02401256379955
 20
-148.4669067011645
 30
0.0
 10
92.15303138972215
 20
-148.4669067011645
 30
0.0
 10
92.16577824301758
 20
-148.4669067011645
 30
0.0
 10
92.26310219047588
 20
-148.4584662172256
 30
0.0
 10
92.26310219047588
 20
-148.4584662172256
 30
0.0
 10
92.26310219047588
 20
-148.6531141121423
 30
0.0
 10
92.26310219047588
 20
-148.6531141121423
 30
0.0
 10
92.22503388536388
 20
-148.6508748000769
 30
0.0
 10
92.15733775907873
 20
-148.6467406854945
 30
0.0
 10
92.0219455065084
 20
-148.6488077427857
 30
0.0
 10
92.0219455065084
 20
-148.6488077427857
 30
0.0
 10
92.0219455065084
 20
-148.9872883742115
 30
0.0
 10
92.0219455065084
 20
-148.9872883742115
 30
0.0
 10
92.07689477949815
 20
-148.9642062344603
 30
0.0
 10
92.14252384849215
 20
-148.9366454705783
 30
0.0
 10
92.19109969483417
 20
-148.9132188212786
 30
0.0
 10
92.19109969483417
 20
-148.9132188212786
 30
0.0
 10
92.19109969483417
 20
-148.735624149014
 30
0.0
 10
92.19109969483417
 20
-148.735624149014
 30
0.0
 10
92.30530461017021
 20
-148.7481987475351
 30
0.0
 10
92.4238158948628
 20
-148.7481987475351
 30
0.0
 10
92.54026012226423
 20
-148.7481987475351
 30
0.0
 10
92.51683347296454
 20
-148.6531141121423
 30
0.0
 10
92.4894449638568
 20
-148.5706040752705
 30
0.0
 10
92.42588295215396
 20
-148.4372788799913
 30
0.0
 10
92.38144122039422
 20
-148.4393459372825
 30
0.0
 10
92.29910343829676
 20
-148.443652306639
 30
0.0
 10
92.26086287841047
 20
-148.4457193639302
 30
0.0
 10
92.26086287841047
 20
-148.4457193639302
 30
0.0
 10
92.26086287841047
 20
-148.2658853796002
 30
0.0
 10
92.26086287841047
 20
-148.2658853796002
 30
0.0
 10
92.38574758975079
 20
-148.2743258635391
 30
0.0
 10
92.55920814743312
 20
-148.2786322328956
 30
0.0
 10
92.64171818430485
 20
-148.2786322328956
 30
0.0
 10
92.64171818430485
 20
-148.2786322328956
 30
0.0
 10
92.72422822117659
 20
-148.2786322328956
 30
0.0
 10
92.72422822117659
 20
-148.2786322328956
 30
0.0
 10
92.72422822117659
 20
-148.1156792164433
 30
0.0
 10
92.72422822117659
 20
-148.1051716752133
 30
0.0
 10
92.72216116388543
 20
-148.0502224022235
 30
0.0
 10
92.72216116388543
 20
-148.0502224022235
 30
0.0
 10
92.94643687997519
 20
-148.0755438540401
 30
0.0
 10
92.94643687997519
 20
-148.0755438540401
 30
0.0
 10
92.9505709945575
 20
-148.0755438540401
 30
0.0
 10
92.9717583317918
 20
-148.0776109113313
 30
0.0
 10
92.9717583317918
 20
-148.094491879209
 30
0.0
 10
92.9717583317918
 20
-148.1093057897956
 30
0.0
 10
92.96125079056178
 20
-148.1179185285087
 30
0.0
 10
92.93369002667978
 20
-148.1327324390953
 30
0.0
 10
92.92731660003205
 20
-148.198189253315
 30
0.0
 10
92.92524954274091
 20
-148.2193765905493
 30
0.0
 10
92.92524954274091
 20
-148.2786322328956
 30
0.0
 10
92.92524954274091
 20
-148.2786322328956
 30
0.0
 10
93.02033417813381
 20
-148.2786322328956
 30
0.0
 10
93.02033417813381
 20
-148.2786322328956
 30
0.0
 10
93.10284421500554
 20
-148.2786322328956
 30
0.0
 10
93.27630477268789
 20
-148.2743258635391
 30
0.0
 10
93.40118948402817
 20
-148.2658853796002
 30
0.0
 10
93.40118948402817
 20
-148.2658853796002
 30
0.0
 10
93.40118948402817
 20
-148.4457193639302
 30
0.0
 10
93.40118948402817
 20
-148.4457193639302
 30
0.0
 10
93.37156166285502
 20
-148.443652306639
 30
0.0
 10
93.25305037816244
 20
-148.4393459372825
 30
0.0
 10
93.21291501575927
 20
-148.4372788799913
 30
0.0
 10
93.1981011051727
 20
-148.4880940383988
 30
0.0
 10
93.16433916941724
 20
-148.6002318964437
 30
0.0
 10
93.09871010042325
 20
-148.7397582635963
 30
0.0
 10
93.14091252011754
 20
-148.7397582635963
 30
0.0
 10
93.4180704519059
 20
-148.7208102384274
 30
0.0
 10
93.47939315154334
 20
-148.718570926362
 30
0.0
 10
93.47939315154334
 20
-148.718570926362
 30
0.0
 10
93.47939315154334
 20
-148.9028835348229
 30
0.0
 10
93.47939315154334
 20
-148.9028835348229
 30
0.0
 10
93.44993758514446
 20
-148.9028835348229
 30
0.0
 10
93.43288436249247
 20
-148.8984049106921
 30
0.0
 10
93.27010360081443
 20
-148.8984049106921
 30
0.0
  0
HATCH
  5
F4
330
ED
100
AcDbEntity
  8
レイヤー 1
 62
    18
420
        0
440
 33554687
100
AcDbHatch
 10
0.0
 20
0.0
 30
0.0
210
0.0
220
0.0
230
1.0
  2
SOLID
 70
     1
 71
     1
 91
        3
 92
        1
 93
        1
 72
     4
 94
        3
 73
     0
 74
     0
 95
       17
 96
       13
 40
0.0
 40
0.0
 40
0.0
 40
0.0
 40
1.0
 40
1.0
 40
1.0
 40
2.0
 40
2.0
 40
2.0
 40
3.0
 40
3.0
 40
3.0
 40
4.0
 40
4.0
 40
4.0
 40
4.0
 10
92.70528019600771
 20
-149.283566585943
 10
92.68822697335572
 20
-149.3131944071161
 10
92.63758406972256
 20
-149.4062119852179
 10
92.62690427371827
 20
-149.4251600103867
 10
92.81724579927832
 20
-149.484415652733
 10
92.83843313651262
 20
-149.490961334155
 10
92.91043563215435
 20
-149.518522098037
 10
92.96538490514407
 20
-149.4317056918087
 10
92.98863929966952
 20
-149.3576361388758
 10
93.00345321025607
 20
-149.283566585943
 10
93.00345321025607
 20
-149.283566585943
 10
92.70528019600771
 20
-149.283566585943
 10
92.70528019600771
 20
-149.283566585943
 97
        0
 97
        1
330
F1
 92
        1
 93
        1
 72
     4
 94
        3
 73
     0
 74
     0
 95
       20
 96
       16
 40
0.0
 40
0.0
 40
0.0
 40
0.0
 40
1.0
 40
1.0
 40
1.0
 40
2.0
 40
2.0
 40
2.0
 40
3.0
 40
3.0
 40
3.0
 40
4.0
 40
4.0
 40
4.0
 40
5.0
 40
5.0
 40
5.0
 40
5.0
 10
92.64171818430485
 20
-148.433144765409
 10
92.64171818430485
 20
-148.433144765409
 10
92.61002330584055
 20
-148.433144765409
 10
92.61002330584055
 20
-148.433144765409
 10
92.65653209489142
 20
-148.5325357701585
 10
92.68822697335572
 20
-148.6128064949648
 10
92.72216116388543
 20
-148.7397582635963
 10
92.72216116388543
 20
-148.7397582635963
 10
92.92938365732322
 20
-148.7397582635963
 10
92.92938365732322
 20
-148.7397582635963
 10
92.96125079056178
 20
-148.6467406854945
 10
92.98450518508721
 20
-148.5621635913316
 10
93.00775957961265
 20
-148.433144765409
 10
93.00775957961265
 20
-148.433144765409
 10
92.64171818430485
 20
-148.433144765409
 10
92.64171818430485
 20
-148.433144765409
 97
        0
 97
        1
330
F2
 92
        1
 93
        1
 72
     4
 94
        3
 73
     0
 74
     0
 95
      242
 96
      238
 40
0.0
 40
0.0
 40
0.0
 40
0.0
 40
1.0
 40
1.0
 40
1.0
 40
2.0
 40
2.0
 40
2.0
 40
3.0
 40
3.0
 40
3.0
 40
4.0
 40
4.0
 40
4.0
 40
5.0
 40
5.0
 40
5.0
 40
6.0
 40
6.0
 40
6.0
 40
7.0
 40
7.0
 40
7.0
 40
8.0
 40
8.0
 40
8.0
 40
9.0
 40
9.0
 40
9.0
 40
10.0
 40
10.0
 40
10.0
 40
11.0
 40
11.0
 40
11.0
 40
12.0
 40
12.0
 40
12.0
 40
13.0
 40
13.0
 40
13.0
 40
14.0
 40
14.0
 40
14.0
 40
15.0
 40
15.0
 40
15.0
 40
16.0
 40
16.0
 40
16.0
 40
17.0
 40
17.0
 40
17.0
 40
18.0
 40
18.0
 40
18.0
 40
19.0
 40
19.0
 40
19.0
 40
20.0
 40
20.0
 40
20.0
 40
21.0
 40
21.0
 40
21.0
 40
22.0
 40
22.0
 40
22.0
 40
23.0
 40
23.0
 40
23.0
 40
24.0
 40
24.0
 40
24.0
 40
25.0
 40
25.0
 40
25.0
 40
26.0
 40
26.0
 40
26.0
 40
27.0
 40
27.0
 40
27.0
 40
28.0
 40
28.0
 40
28.0
 40
29.0
 40
29.0
 40
29.0
 40
30.0
 40
30.0
 40
30.0
 40
31.0
 40
31.0
 40
31.0
 40
32.0
 40
32.0
 40
32.0
 40
33.0
 40
33.0
 40
33.0
 40
34.0
 40
34.0
 40
34.0
 40
35.0
 40
35.0
 40
35.0
 40
36.0
 40
36.0
 40
36.0
 40
37.0
 40
37.0
 40
37.0
 40
38.0
 40
38.0
 40
38.0
 40
39.0
 40
39.0
 40
39.0
 40
40.0
 40
40.0
 40
40.0
 40
41.0
 40
41.0
 40
41.0
 40
42.0
 40
42.0
 40
42.0
 40
43.0
 40
43.0
 40
43.0
 40
44.0
 40
44.0
 40
44.0
 40
45.0
 40
45.0
 40
45.0
 40
46.0
 40
46.0
 40
46.0
 40
47.0
 40
47.0
 40
47.0
 40
48.0
 40
48.0
 40
48.0
 40
49.0
 40
49.0
 40
49.0
 40
50.0
 40
50.0
 40
50.0
 40
51.0
 40
51.0
 40
51.0
 40
52.0
 40
52.0
 40
52.0
 40
53.0
 40
53.0
 40
53.0
 40
54.0
 40
54.0
 40
54.0
 40
55.0
 40
55.0
 40
55.0
 40
56.0
 40
56.0
 40
56.0
 40
57.0
 40
57.0
 40
57.0
 40
58.0
 40
58.0
 40
58.0
 40
59.0
 40
59.0
 40
59.0
 40
60.0
 40
60.0
 40
60.0
 40
61.0
 40
61.0
 40
61.0
 40
62.0
 40
62.0
 40
62.0
 40
63.0
 40
63.0
 40
63.0
 40
64.0
 40
64.0
 40
64.0
 40
65.0
 40
65.0
 40
65.0
 40
66.0
 40
66.0
 40
66.0
 40
67.0
 40
67.0
 40
67.0
 40
68.0
 40
68.0
 40
68.0
 40
69.0
 40
69.0
 40
69.0
 40
70.0
 40
70.0
 40
70.0
 40
71.0
 40
71.0
 40
71.0
 40
72.0
 40
72.0
 40
72.0
 40
73.0
 40
73.0
 40
73.0
 40
74.0
 40
74.0
 40
74.0
 40
75.0
 40
75.0
 40
75.0
 40
76.0
 40
76.0
 40
76.0
 40
77.0
 40
77.0
 40
77.0
 40
78.0
 40
78.0
 40
78.0
 40
79.0
 40
79.0
 40
79.0
 40
79.0
 10
93.27010360081443
 20
-148.8984049106921
 10
93.27010360081443
 20
-148.8984049106921
 10
93.0162000635515
 20
-148.8984049106921
 10
93.0162000635515
 20
-148.8984049106921
 10
93.0162000635515
 20
-148.8984049106921
 10
92.73904213176315
 20
-148.8984049106921
 10
92.73904213176315
 20
-148.8984049106921
 10
92.73904213176315
 20
-148.8984049106921
 10
92.8659939003946
 20
-148.9407795851606
 10
92.8659939003946
 20
-148.9407795851606
 10
92.87650144162462
 20
-148.9452582092915
 10
92.88924829492005
 20
-148.9514593811649
 10
92.88924829492005
 20
-148.9642062344603
 10
92.88924829492005
 20
-148.9852213169203
 10
92.85755341645575
 20
-148.9917669983423
 10
92.83636607922145
 20
-148.9959011129246
 10
92.82585853799146
 20
-149.0189832526758
 10
92.79623071681831
 20
-149.0847845764441
 10
92.77711043687517
 20
-149.1292263082038
 10
92.77711043687517
 20
-149.1292263082038
 10
93.0478949420158
 20
-149.1292263082038
 10
93.0478949420158
 20
-149.1292263082038
 10
93.13884546282642
 20
-149.1292263082038
 10
93.33556041503417
 20
-149.124747684073
 10
93.4773260942522
 20
-149.1164794549083
 10
93.4773260942522
 20
-149.1164794549083
 10
93.4773260942522
 20
-149.2942463819472
 10
93.4773260942522
 20
-149.2942463819472
 10
93.39481605738047
 20
-149.2897677578164
 10
93.37362872014619
 20
-149.2897677578164
 10
93.19379473581614
 20
-149.2856336432341
 10
93.16209985735182
 20
-149.4399739209733
 10
93.11765812559212
 20
-149.5205891553282
 10
93.07321639383239
 20
-149.5901800841302
 10
93.19379473581614
 20
-149.6494357264765
 10
93.29973142198758
 20
-149.7173041075359
 10
93.40325654131932
 20
-149.7996418896334
 10
93.40325654131932
 20
-149.7996418896334
 10
93.28491751140099
 20
-149.966729020668
 10
93.28491751140099
 20
-149.966729020668
 10
93.26166311687556
 20
-149.9477809954991
 10
93.24891626358015
 20
-149.9395127663345
 10
93.13677840553525
 20
-149.8547634173974
 10
93.08803030441897
 20
-149.8165228575111
 10
93.02894691684693
 20
-149.7806938644645
 10
92.94850393726635
 20
-149.7362521327048
 10
92.73697507447201
 20
-149.9226317984568
 10
92.53164738355112
 20
-149.945713938208
 10
92.2419148532416
 20
-149.9753417593811
 10
92.2419148532416
 20
-149.9753417593811
 10
92.13821747913559
 20
-149.7955077750511
 10
92.13821747913559
 20
-149.7955077750511
 10
92.45551077332711
 20
-149.7913736604688
 10
92.63121064307483
 20
-149.765879953878
 10
92.78348386352289
 20
-149.6559814078985
 10
92.66497257883029
 20
-149.6049939947168
 10
92.57608911531084
 20
-149.5777777403833
 10
92.54026012226423
 20
-149.5650308870879
 10
92.5211398423211
 20
-149.5925916509699
 10
92.50632593173454
 20
-149.6115396761388
 10
92.47876516785252
 20
-149.6453016118942
 10
92.47876516785252
 20
-149.6453016118942
 10
92.28205021564477
 20
-149.5629638297967
 10
92.28205021564477
 20
-149.5629638297967
 10
92.3645602525165
 20
-149.4823485954419
 10
92.42588295215396
 20
-149.387263960049
 10
92.4830715372091
 20
-149.2856336432341
 10
92.29273001164903
 20
-149.2897677578164
 10
92.27154267441475
 20
-149.2897677578164
 10
92.18903263754302
 20
-149.2942463819472
 10
92.18903263754302
 20
-149.2942463819472
 10
92.18903263754302
 20
-149.1164794549083
 10
92.18903263754302
 20
-149.1164794549083
 10
92.32855900469564
 20
-149.1226806267818
 10
92.53802081019882
 20
-149.1271592509126
 10
92.56351451678968
 20
-149.1271592509126
 10
92.5803954846674
 20
-149.0930528056087
 10
92.63534475765714
 20
-148.9724744636249
 10
92.65446503760028
 20
-148.8984049106921
 10
92.63534475765714
 20
-148.8984049106921
 10
92.45775008539251
 20
-148.904950592114
 10
92.26310219047588
 20
-148.9176974454094
 10
92.26310219047588
 20
-148.9176974454094
 10
92.26310219047588
 20
-149.0510226406886
 10
92.26310219047588
 20
-149.0510226406886
 10
92.21435408935962
 20
-149.0761718377309
 10
92.15509844701331
 20
-149.1078667161952
 10
92.0219455065084
 20
-149.1736680399635
 10
92.0219455065084
 20
-149.1736680399635
 10
92.0219455065084
 20
-149.3193955789896
 10
92.0219455065084
 20
-149.3193955789896
 10
92.0219455065084
 20
-149.3193955789896
 10
92.0219455065084
 20
-149.7872395458865
 10
92.0219455065084
 20
-149.7872395458865
 10
92.0219455065084
 20
-149.9140190597437
 10
91.98594425868753
 20
-149.97327470209
 10
91.70241290025149
 20
-149.9646619633769
 10
91.70241290025149
 20
-149.9646619633769
 10
91.59871552614546
 20
-149.7576117247134
 10
91.59871552614546
 20
-149.7576117247134
 10
91.66227753784832
 20
-149.7700140684603
 10
91.71085338419034
 20
-149.7744926925911
 10
91.75116100136776
 20
-149.7744926925911
 10
91.82729761159178
 20
-149.7744926925911
 10
91.8378051528218
 20
-149.7510660432914
 10
91.8378051528218
 20
-149.6856092290717
 10
91.8378051528218
 20
-149.6856092290717
 10
91.8378051528218
 20
-149.256005822061
 10
91.8378051528218
 20
-149.256005822061
 10
91.74048120536349
 20
-149.2963134392384
 10
91.72360023748577
 20
-149.3025146111119
 10
91.6770914484349
 20
-149.3218071458293
 10
91.67278507907834
 20
-149.3428222282893
 10
91.66865096449603
 20
-149.3724500494624
 10
91.6495306845529
 20
-149.3724500494624
 10
91.64109020061403
 20
-149.3724500494624
 10
91.63058265938403
 20
-149.3683159348801
 10
91.62420923273632
 20
-149.3448892855804
 10
91.62420923273632
 20
-149.3448892855804
 10
91.57132701703773
 20
-149.152308447955
 10
91.57132701703773
 20
-149.152308447955
 10
91.71722681083805
 20
-149.1057996589041
 10
91.78285587983207
 20
-149.0827175191529
 10
91.8378051528218
 20
-149.0613579271444
 10
91.8378051528218
 20
-149.0613579271444
 10
91.8378051528218
 20
-148.6488077427857
 10
91.8378051528218
 20
-148.6488077427857
 10
91.8378051528218
 20
-148.6488077427857
 10
91.78492293712322
 20
-148.6488077427857
 10
91.78492293712322
 20
-148.6488077427857
 10
91.78492293712322
 20
-148.6488077427857
 10
91.70671926960805
 20
-148.6488077427857
 10
91.70671926960805
 20
-148.6488077427857
 10
91.63902314332288
 20
-148.6488077427857
 10
91.63058265938403
 20
-148.6488077427857
 10
91.59458141156317
 20
-148.6551811694334
 10
91.59458141156317
 20
-148.6551811694334
 10
91.59458141156317
 20
-148.4605332745168
 10
91.59458141156317
 20
-148.4605332745168
 10
91.62214217544516
 20
-148.4669067011645
 10
91.63058265938403
 20
-148.4669067011645
 10
91.70034584296033
 20
-148.4669067011645
 10
91.70034584296033
 20
-148.4669067011645
 10
91.8336710382395
 20
-148.4669067011645
 10
91.8336710382395
 20
-148.4669067011645
 10
91.8336710382395
 20
-148.3971435175882
 10
91.8336710382395
 20
-148.3146334807164
 10
91.83143172617409
 20
-148.3103271113599
 10
91.82299124223524
 20
-148.1304931270299
 10
91.82299124223524
 20
-148.111545101861
 10
91.82092418494407
 20
-148.0650363128101
 10
91.82092418494407
 20
-148.0650363128101
 10
92.03675941709498
 20
-148.073476796749
 10
92.03675941709498
 20
-148.073476796749
 10
92.047266958325
 20
-148.073476796749
 10
92.06845429555928
 20
-148.0755438540401
 10
92.06845429555928
 20
-148.0924248219178
 10
92.06845429555928
 20
-148.111545101861
 10
92.0536403849727
 20
-148.122052643091
 10
92.02831893315611
 20
-148.1411729230341
 10
92.02831893315611
 20
-148.1918158266673
 10
92.0219455065084
 20
-148.4203979121136
 10
92.02401256379955
 20
-148.4669067011645
 10
92.15303138972215
 20
-148.4669067011645
 10
92.16577824301758
 20
-148.4669067011645
 10
92.26310219047588
 20
-148.4584662172256
 10
92.26310219047588
 20
-148.4584662172256
 10
92.26310219047588
 20
-148.6531141121423
 10
92.26310219047588
 20
-148.6531141121423
 10
92.22503388536388
 20
-148.6508748000769
 10
92.15733775907873
 20
-148.6467406854945
 10
92.0219455065084
 20
-148.6488077427857
 10
92.0219455065084
 20
-148.6488077427857
 10
92.0219455065084
 20
-148.9872883742115
 10
92.0219455065084
 20
-148.9872883742115
 10
92.07689477949815
 20
-148.9642062344603
 10
92.14252384849215
 20
-148.9366454705783
 10
92.19109969483417
 20
-148.9132188212786
 10
92.19109969483417
 20
-148.9132188212786
 10
92.19109969483417
 20
-148.735624149014
 10
92.19109969483417
 20
-148.735624149014
 10
92.30530461017021
 20
-148.7481987475351
 10
92.4238158948628
 20
-148.7481987475351
 10
92.54026012226423
 20
-148.7481987475351
 10
92.51683347296454
 20
-148.6531141121423
 10
92.4894449638568
 20
-148.5706040752705
 10
92.42588295215396
 20
-148.4372788799913
 10
92.38144122039422
 20
-148.4393459372825
 10
92.29910343829676
 20
-148.443652306639
 10
92.26086287841047
 20
-148.4457193639302
 10
92.26086287841047
 20
-148.4457193639302
 10
92.26086287841047
 20
-148.2658853796002
 10
92.26086287841047
 20
-148.2658853796002
 10
92.38574758975079
 20
-148.2743258635391
 10
92.55920814743312
 20
-148.2786322328956
 10
92.64171818430485
 20
-148.2786322328956
 10
92.64171818430485
 20
-148.2786322328956
 10
92.72422822117659
 20
-148.2786322328956
 10
92.72422822117659
 20
-148.2786322328956
 10
92.72422822117659
 20
-148.1156792164433
 10
92.72422822117659
 20
-148.1051716752133
 10
92.72216116388543
 20
-148.0502224022235
 10
92.72216116388543
 20
-148.0502224022235
 10
92.94643687997519
 20
-148.0755438540401
 10
92.94643687997519
 20
-148.0755438540401
 10
92.9505709945575
 20
-148.0755438540401
 10
92.9717583317918
 20
-148.0776109113313
 10
92.9717583317918
 20
-148.094491879209
 10
92.9717583317918
 20
-148.1093057897956
 10
92.96125079056178
 20
-148.1179185285087
 10
92.93369002667978
 20
-148.1327324390953
 10
92.92731660003205
 20
-148.198189253315
 10
92.92524954274091
 20
-148.2193765905493
 10
92.92524954274091
 20
-148.2786322328956
 10
92.92524954274091
 20
-148.2786322328956
 10
93.02033417813381
 20
-148.2786322328956
 10
93.02033417813381
 20
-148.2786322328956
 10
93.10284421500554
 20
-148.2786322328956
 10
93.27630477268789
 20
-148.2743258635391
 10
93.40118948402817
 20
-148.2658853796002
 10
93.40118948402817
 20
-148.2658853796002
 10
93.40118948402817
 20
-148.4457193639302
 10
93.40118948402817
 20
-148.4457193639302
 10
93.37156166285502
 20
-148.443652306639
 10
93.25305037816244
 20
-148.4393459372825
 10
93.21291501575927
 20
-148.4372788799913
 10
93.1981011051727
 20
-148.4880940383988
 10
93.16433916941724
 20
-148.6002318964437
 10
93.09871010042325
 20
-148.7397582635963
 10
93.14091252011754
 20
-148.7397582635963
 10
93.4180704519059
 20
-148.7208102384274
 10
93.47939315154334
 20
-148.718570926362
 10
93.47939315154334
 20
-148.718570926362
 10
93.47939315154334
 20
-148.9028835348229
 10
93.47939315154334
 20
-148.9028835348229
 10
93.44993758514446
 20
-148.9028835348229
 10
93.43288436249247
 20
-148.8984049106921
 10
93.27010360081443
 20
-148.8984049106921
 97
        0
 97
        1
330
F3
 75
     2
 76
     1
 98
        1
 10
0.0
 20
0.0
450
        0
451
        0
460
0.0
461
0.0
452
        0
462
0.0
453
        0
470

  0
SPLINE
  5
F5
330
ED
100
AcDbEntity
  8
レイヤー 1
100
AcDbSpline
210
0.0
220
0.0
230
1.0
 70
    11
 71
     3
 72
    17
 73
    13
 74
     0
 42
0.0000000001
 43
0.0000000001
 40
0.0
 40
0.0
 40
0.0
 40
0.0
 40
1.0
 40
1.0
 40
1.0
 40
2.0
 40
2.0
 40
2.0
 40
3.0
 40
3.0
 40
3.0
 40
4.0
 40
4.0
 40
4.0
 40
4.0
 10
95.1264933030413
 20
-149.6983560823671
 30
0.0
 10
95.1264933030413
 20
-149.6983560823671
 30
0.0
 10
94.41990421901655
 20
-149.6983560823671
 30
0.0
 10
94.41990421901655
 20
-149.6983560823671
 30
0.0
 10
94.41990421901655
 20
-149.6983560823671
 30
0.0
 10
94.41990421901655
 20
-149.8123887429288
 30
0.0
 10
94.41990421901655
 20
-149.8123887429288
 30
0.0
 10
94.41990421901655
 20
-149.8123887429288
 30
0.0
 10
95.1264933030413
 20
-149.8123887429288
 30
0.0
 10
95.1264933030413
 20
-149.8123887429288
 30
0.0
 10
95.1264933030413
 20
-149.8123887429288
 30
0.0
 10
95.1264933030413
 20
-149.6983560823671
 30
0.0
 10
95.1264933030413
 20
-149.6983560823671
 30
0.0
  0
SPLINE
  5
F6
330
ED
100
AcDbEntity
  8
レイヤー 1
100
AcDbSpline
210
0.0
220
0.0
230
1.0
 70
    11
 71
     3
 72
    17
 73
    13
 74
     0
 42
0.0000000001
 43
0.0000000001
 40
0.0
 40
0.0
 40
0.0
 40
0.0
 40
1.0
 40
1.0
 40
1.0
 40
2.0
 40
2.0
 40
2.0
 40
3.0
 40
3.0
 40
3.0
 40
4.0
 40
4.0
 40
4.0
 40
4.0
 10
95.1264933030413
 20
-149.4547878315599
 30
0.0
 10
95.1264933030413
 20
-149.4547878315599
 30
0.0
 10
94.41990421901655
 20
-149.4547878315599
 30
0.0
 10
94.41990421901655
 20
-149.4547878315599
 30
0.0
 10
94.41990421901655
 20
-149.4547878315599
 30
0.0
 10
94.41990421901655
 20
-149.5691650016702
 30
0.0
 10
94.41990421901655
 20
-149.5691650016702
 30
0.0
 10
94.41990421901655
 20
-149.5691650016702
 30
0.0
 10
95.1264933030413
 20
-149.5691650016702
 30
0.0
 10
95.1264933030413
 20
-149.5691650016702
 30
0.0
 10
95.1264933030413
 20
-149.5691650016702
 30
0.0
 10
95.1264933030413
 20
-149.4547878315599
 30
0.0
 10
95.1264933030413
 20
-149.4547878315599
 30
0.0
  0
SPLINE
  5
F7
330
ED
100
AcDbEntity
  8
レイヤー 1
100
AcDbSpline
210
0.0
220
0.0
230
1.0
 70
    11
 71
     3
 72
    17
 73
    13
 74
     0
 42
0.0000000001
 43
0.0000000001
 40
0.0
 40
0.0
 40
0.0
 40
0.0
 40
1.0
 40
1.0
 40
1.0
 40
2.0
 40
2.0
 40
2.0
 40
3.0
 40
3.0
 40
3.0
 40
4.0
 40
4.0
 40
4.0
 40
4.0
 10
95.1264933030413
 20
-149.2222438863055
 30
0.0
 10
95.1264933030413
 20
-149.2222438863055
 30
0.0
 10
94.41990421901655
 20
-149.2222438863055
 30
0.0
 10
94.41990421901655
 20
-149.2222438863055
 30
0.0
 10
94.41990421901655
 20
-149.2222438863055
 30
0.0
 10
94.41990421901655
 20
-149.3300753749938
 30
0.0
 10
94.41990421901655
 20
-149.3300753749938
 30
0.0
 10
94.41990421901655
 20
-149.3300753749938
 30
0.0
 10
95.1264933030413
 20
-149.3300753749938
 30
0.0
 10
95.1264933030413
 20
-149.3300753749938
 30
0.0
 10
95.1264933030413
 20
-149.3300753749938
 30
0.0
 10
95.1264933030413
 20
-149.2222438863055
 30
0.0
 10
95.1264933030413
 20
-149.2222438863055
 30
0.0
  0
SPLINE
  5
F8
330
ED
100
AcDbEntity
  8
レイヤー 1
100
AcDbSpline
210
0.0
220
0.0
230
1.0
 70
     9
 71
     3
 72
   203
 73
   199
 74
     0
 42
0.0000000001
 43
0.0000000001
 40
0.0
 40
0.0
 40
0.0
 40
0.0
 40
1.0
 40
1.0
 40
1.0
 40
2.0
 40
2.0
 40
2.0
 40
3.0
 40
3.0
 40
3.0
 40
4.0
 40
4.0
 40
4.0
 40
5.0
 40
5.0
 40
5.0
 40
6.0
 40
6.0
 40
6.0
 40
7.0
 40
7.0
 40
7.0
 40
8.0
 40
8.0
 40
8.0
 40
9.0
 40
9.0
 40
9.0
 40
10.0
 40
10.0
 40
10.0
 40
11.0
 40
11.0
 40
11.0
 40
12.0
 40
12.0
 40
12.0
 40
13.0
 40
13.0
 40
13.0
 40
14.0
 40
14.0
 40
14.0
 40
15.0
 40
15.0
 40
15.0
 40
16.0
 40
16.0
 40
16.0
 40
17.0
 40
17.0
 40
17.0
 40
18.0
 40
18.0
 40
18.0
 40
19.0
 40
19.0
 40
19.0
 40
20.0
 40
20.0
 40
20.0
 40
21.0
 40
21.0
 40
21.0
 40
22.0
 40
22.0
 40
22.0
 40
23.0
 40
23.0
 40
23.0
 40
24.0
 40
24.0
 40
24.0
 40
25.0
 40
25.0
 40
25.0
 40
26.0
 40
26.0
 40
26.0
 40
27.0
 40
27.0
 40
27.0
 40
28.0
 40
28.0
 40
28.0
 40
29.0
 40
29.0
 40
29.0
 40
30.0
 40
30.0
 40
30.0
 40
31.0
 40
31.0
 40
31.0
 40
32.0
 40
32.0
 40
32.0
 40
33.0
 40
33.0
 40
33.0
 40
34.0
 40
34.0
 40
34.0
 40
35.0
 40
35.0
 40
35.0
 40
36.0
 40
36.0
 40
36.0
 40
37.0
 40
37.0
 40
37.0
 40
38.0
 40
38.0
 40
38.0
 40
39.0
 40
39.0
 40
39.0
 40
40.0
 40
40.0
 40
40.0
 40
41.0
 40
41.0
 40
41.0
 40
42.0
 40
42.0
 40
42.0
 40
43.0
 40
43.0
 40
43.0
 40
44.0
 40
44.0
 40
44.0
 40
45.0
 40
45.0
 40
45.0
 40
46.0
 40
46.0
 40
46.0
 40
47.0
 40
47.0
 40
47.0
 40
48.0
 40
48.0
 40
48.0
 40
49.0
 40
49.0
 40
49.0
 40
50.0
 40
50.0
 40
50.0
 40
51.0
 40
51.0
 40
51.0
 40
52.0
 40
52.0
 40
52.0
 40
53.0
 40
53.0
 40
53.0
 40
54.0
 40
54.0
 40
54.0
 40
55.0
 40
55.0
 40
55.0
 40
56.0
 40
56.0
 40
56.0
 40
57.0
 40
57.0
 40
57.0
 40
58.0
 40
58.0
 40
58.0
 40
59.0
 40
59.0
 40
59.0
 40
60.0
 40
60.0
 40
60.0
 40
61.0
 40
61.0
 40
61.0
 40
62.0
 40
62.0
 40
62.0
 40
63.0
 40
63.0
 40
63.0
 40
64.0
 40
64.0
 40
64.0
 40
65.0
 40
65.0
 40
65.0
 40
66.0
 40
66.0
 40
66.0
 40
66.0
 10
94.96147322929784
 20
-148.9662732917515
 30
0.0
 10
94.96147322929784
 20
-148.9662732917515
 30
0.0
 10
94.40302325113883
 20
-148.9662732917515
 30
0.0
 10
94.40302325113883
 20
-148.9662732917515
 30
0.0
 10
94.39234345513455
 20
-149.0107150235112
 30
0.0
 10
94.38390297119569
 20
-149.0424099019755
 30
0.0
 10
94.37132837267453
 20
-149.0806504618618
 30
0.0
 10
94.39664982449112
 20
-149.0806504618618
 30
0.0
 10
94.41146373507768
 20
-149.0827175191529
 30
0.0
 10
94.4178371617254
 20
-149.0827175191529
 30
0.0
 10
94.4178371617254
 20
-149.0827175191529
 30
0.0
 10
94.60611162999432
 20
-149.0827175191529
 30
0.0
 10
94.60611162999432
 20
-149.0827175191529
 30
0.0
 10
94.60611162999432
 20
-149.0827175191529
 30
0.0
 10
94.98059350924096
 20
-149.0827175191529
 30
0.0
 10
94.98059350924096
 20
-149.0827175191529
 30
0.0
 10
95.03123641287414
 20
-149.0827175191529
 30
0.0
 10
95.3147677713102
 20
-149.0699706658575
 30
0.0
 10
95.3464626497745
 20
-149.0699706658575
 30
0.0
 10
95.34439559248335
 20
-149.0975314297395
 30
0.0
 10
95.34232853519219
 20
-149.1164794549083
 30
0.0
 10
95.34232853519219
 20
-149.1461072760815
 30
0.0
 10
95.34008922312677
 20
-149.1778021545458
 30
0.0
 10
95.34008922312677
 20
-149.3131944071161
 30
0.0
 10
95.34008922312677
 20
-149.3407551709981
 30
0.0
 10
95.34008922312677
 20
-149.3407551709981
 30
0.0
 10
95.34008922312677
 20
-149.5860459695479
 30
0.0
 10
95.34008922312677
 20
-149.5860459695479
 30
0.0
 10
95.34008922312677
 20
-149.6304877013076
 30
0.0
 10
95.34439559248335
 20
-149.8272026535154
 30
0.0
 10
95.34870196183991
 20
-149.9794758739635
 30
0.0
 10
95.34870196183991
 20
-149.9794758739635
 30
0.0
 10
95.12218693368472
 20
-149.9794758739635
 30
0.0
 10
95.12218693368472
 20
-149.9794758739635
 30
0.0
 10
95.12218693368472
 20
-149.9794758739635
 30
0.0
 10
95.12442624575013
 20
-149.945713938208
 30
0.0
 10
95.12442624575013
 20
-149.945713938208
 30
0.0
 10
95.12442624575013
 20
-149.945713938208
 30
0.0
 10
94.4219712763077
 20
-149.945713938208
 30
0.0
 10
94.4219712763077
 20
-149.945713938208
 30
0.0
 10
94.4219712763077
 20
-149.945713938208
 30
0.0
 10
94.42421058837311
 20
-149.9794758739635
 30
0.0
 10
94.42421058837311
 20
-149.9794758739635
 30
0.0
 10
94.42421058837311
 20
-149.9794758739635
 30
0.0
 10
94.20630829893106
 20
-149.9794758739635
 30
0.0
 10
94.20630829893106
 20
-149.9794758739635
 30
0.0
 10
94.21044241351337
 20
-149.924698855748
 30
0.0
 10
94.21044241351337
 20
-149.9119520024525
 30
0.0
 10
94.21681584016107
 20
-149.7975748323423
 30
0.0
 10
94.21888289745224
 20
-149.7700140684603
 30
0.0
 10
94.22112220951765
 20
-149.6370333827296
 30
0.0
 10
94.22112220951765
 20
-149.6177408480122
 30
0.0
 10
94.22112220951765
 20
-149.6177408480122
 30
0.0
 10
94.22112220951765
 20
-149.414824723931
 30
0.0
 10
94.22112220951765
 20
-149.414824723931
 30
0.0
 10
94.08142358759077
 20
-149.6642496370631
 30
0.0
 10
93.91226939926498
 20
-149.7955077750511
 30
0.0
 10
93.80650496786783
 20
-149.8609645892708
 30
0.0
 10
93.80650496786783
 20
-149.8609645892708
 30
0.0
 10
93.63287215541124
 20
-149.7214382221182
 30
0.0
 10
93.63287215541124
 20
-149.7214382221182
 30
0.0
 10
93.72175561893067
 20
-149.6707953184851
 30
0.0
 10
93.86558835543985
 20
-149.5839789122568
 30
0.0
 10
94.0032199200756
 20
-149.3893310173401
 30
0.0
 10
94.09417044088618
 20
-149.262551503483
 30
0.0
 10
94.15979950988019
 20
-149.1185465121995
 30
0.0
 10
94.19356144563563
 20
-148.9662732917515
 30
0.0
 10
93.96515161496358
 20
-148.9683403490426
 30
0.0
 10
93.78531763063355
 20
-148.9748860304646
 30
0.0
 10
93.69006074046637
 20
-148.9769530877557
 30
0.0
 10
93.69006074046637
 20
-148.9769530877557
 30
0.0
 10
93.69006074046637
 20
-148.7990139059426
 30
0.0
 10
93.69006074046637
 20
-148.7990139059426
 30
0.0
 10
93.88677569267414
 20
-148.8053873325903
 30
0.0
 10
94.1703070511102
 20
-148.8096937019468
 30
0.0
 10
94.3205132142671
 20
-148.8096937019468
 30
0.0
 10
94.3205132142671
 20
-148.8096937019468
 30
0.0
 10
94.53410913435259
 20
-148.8096937019468
 30
0.0
 10
94.53410913435259
 20
-148.8096937019468
 30
0.0
 10
94.53410913435259
 20
-148.8096937019468
 30
0.0
 10
94.53410913435259
 20
-148.7016899584843
 30
0.0
 10
94.53410913435259
 20
-148.7016899584843
 30
0.0
 10
94.53410913435259
 20
-148.7016899584843
 30
0.0
 10
94.38820934055225
 20
-148.7016899584843
 30
0.0
 10
94.38820934055225
 20
-148.7016899584843
 30
0.0
 10
94.21888289745224
 20
-148.7016899584843
 30
0.0
 10
94.04972870912645
 20
-148.7059963278408
 30
0.0
 10
93.88264157809185
 20
-148.7123697544886
 30
0.0
 10
93.88264157809185
 20
-148.7123697544886
 30
0.0
 10
93.88264157809185
 20
-148.5409762540974
 30
0.0
 10
93.88264157809185
 20
-148.5409762540974
 30
0.0
 10
94.03698185583102
 20
-148.5514837953274
 30
0.0
 10
94.22318926680878
 20
-148.5514837953274
 30
0.0
 10
94.38820934055225
 20
-148.5514837953274
 30
0.0
 10
94.38820934055225
 20
-148.5514837953274
 30
0.0
 10
94.53410913435259
 20
-148.5514837953274
 30
0.0
 10
94.53410913435259
 20
-148.5514837953274
 30
0.0
 10
94.53410913435259
 20
-148.5514837953274
 30
0.0
 10
94.53410913435259
 20
-148.433144765409
 30
0.0
 10
94.53410913435259
 20
-148.433144765409
 30
0.0
 10
94.53410913435259
 20
-148.433144765409
 30
0.0
 10
94.40302325113883
 20
-148.433144765409
 30
0.0
 10
94.40302325113883
 20
-148.433144765409
 30
0.0
 10
94.35651446208796
 20
-148.433144765409
 30
0.0
 10
94.15342608323248
 20
-148.4415852493479
 30
0.0
 10
94.11105140876392
 20
-148.4415852493479
 30
0.0
 10
93.90796302990843
 20
-148.4457193639302
 30
0.0
 10
93.8318264196844
 20
-148.4477864212214
 30
0.0
 10
93.75362275216923
 20
-148.4500257332868
 30
0.0
 10
93.75362275216923
 20
-148.4500257332868
 30
0.0
 10
93.75362275216923
 20
-148.2658853796002
 30
0.0
 10
93.75362275216923
 20
-148.2658853796002
 30
0.0
 10
93.86782766750526
 20
-148.2743258635391
 30
0.0
 10
93.91226939926498
 20
-148.2743258635391
 30
0.0
 10
94.29519176245051
 20
-148.2829386022522
 30
0.0
 10
94.23162975074765
 20
-148.187681712085
 30
0.0
 10
94.20406898686565
 20
-148.160120948203
 30
0.0
 10
94.16823999381906
 20
-148.1241197003821
 30
0.0
 10
94.16823999381906
 20
-148.1241197003821
 30
0.0
 10
94.34376760879253
 20
-148.0416096635104
 30
0.0
 10
94.34376760879253
 20
-148.0416096635104
 30
0.0
 10
94.38390297119569
 20
-148.0776109113313
 30
0.0
 10
94.42834470295542
 20
-148.1199855857998
 30
0.0
 10
94.50241425588828
 20
-148.2298841317793
 30
0.0
 10
94.50241425588828
 20
-148.2298841317793
 30
0.0
 10
94.38820934055225
 20
-148.2850056595433
 30
0.0
 10
94.38820934055225
 20
-148.2850056595433
 30
0.0
 10
94.38820934055225
 20
-148.2850056595433
 30
0.0
 10
94.39871688178227
 20
-148.2850056595433
 30
0.0
 10
94.39871688178227
 20
-148.2850056595433
 30
0.0
 10
94.39871688178227
 20
-148.2850056595433
 30
0.0
 10
94.92133786689468
 20
-148.2850056595433
 30
0.0
 10
94.92133786689468
 20
-148.2850056595433
 30
0.0
 10
94.92133786689468
 20
-148.2850056595433
 30
0.0
 10
94.8260809767275
 20
-148.2405639277836
 30
0.0
 10
94.8260809767275
 20
-148.2405639277836
 30
0.0
 10
94.85364174060951
 20
-148.2024956226716
 30
0.0
 10
94.91065807089039
 20
-148.122052643091
 30
0.0
 10
94.92547198147697
 20
-148.0479830901581
 30
0.0
 10
94.92547198147697
 20
-148.0479830901581
 30
0.0
 10
95.13924015633673
 20
-148.111545101861
 30
0.0
 10
95.13924015633673
 20
-148.111545101861
 30
0.0
 10
95.14768064027558
 20
-148.1136121591521
 30
0.0
 10
95.16886797750988
 20
-148.1241197003821
 30
0.0
 10
95.16886797750988
 20
-148.1453070376164
 30
0.0
 10
95.16886797750988
 20
-148.1833753427284
 30
0.0
 10
95.10323890851585
 20
-148.1833753427284
 30
0.0
 10
95.08411862857272
 20
-148.1833753427284
 30
0.0
 10
95.0736110873427
 20
-148.2024956226716
 30
0.0
 10
95.05035669281728
 20
-148.2426309850747
 30
0.0
 10
95.02072887164413
 20
-148.2829386022522
 30
0.0
 10
95.42053220270737
 20
-148.2765651756045
 30
0.0
 10
95.45016002388051
 20
-148.2743258635391
 30
0.0
 10
95.52629663410455
 20
-148.2681246916656
 30
0.0
 10
95.52629663410455
 20
-148.2681246916656
 30
0.0
 10
95.52629663410455
 20
-148.4500257332868
 30
0.0
 10
95.52629663410455
 20
-148.4500257332868
 30
0.0
 10
95.50734860893568
 20
-148.4500257332868
 30
0.0
 10
95.48185490234482
 20
-148.4477864212214
 30
0.0
 10
95.2618855556116
 20
-148.4393459372825
 30
0.0
 10
95.21107039720417
 20
-148.4372788799913
 30
0.0
 10
94.99110105047098
 20
-148.433144765409
 30
0.0
 10
94.94665931871125
 20
-148.433144765409
 30
0.0
 10
94.94665931871125
 20
-148.433144765409
 30
0.0
 10
94.73082408656036
 20
-148.433144765409
 30
0.0
 10
94.73082408656036
 20
-148.433144765409
 30
0.0
 10
94.73082408656036
 20
-148.433144765409
 30
0.0
 10
94.73082408656036
 20
-148.5514837953274
 30
0.0
 10
94.73082408656036
 20
-148.5514837953274
 30
0.0
 10
94.73082408656036
 20
-148.5514837953274
 30
0.0
 10
94.90428464424267
 20
-148.5514837953274
 30
0.0
 10
94.90428464424267
 20
-148.5514837953274
 30
0.0
 10
95.067237660695
 20
-148.5514837953274
 30
0.0
 10
95.25757918625506
 20
-148.5514837953274
 30
0.0
 10
95.41415877605967
 20
-148.5409762540974
 30
0.0
 10
95.41415877605967
 20
-148.5409762540974
 30
0.0
 10
95.41415877605967
 20
-148.7123697544886
 30
0.0
 10
95.41415877605967
 20
-148.7123697544886
 30
0.0
 10
95.20469697055647
 20
-148.7039292705497
 30
0.0
 10
95.0079820183487
 20
-148.7016899584843
 30
0.0
 10
94.90428464424267
 20
-148.7016899584843
 30
0.0
 10
94.90428464424267
 20
-148.7016899584843
 30
0.0
 10
94.73082408656036
 20
-148.7016899584843
 30
0.0
 10
94.73082408656036
 20
-148.7016899584843
 30
0.0
 10
94.73082408656036
 20
-148.7016899584843
 30
0.0
 10
94.73082408656036
 20
-148.8096937019468
 30
0.0
 10
94.73082408656036
 20
-148.8096937019468
 30
0.0
 10
94.73082408656036
 20
-148.8096937019468
 30
0.0
 10
94.96147322929784
 20
-148.8096937019468
 30
0.0
 10
94.96147322929784
 20
-148.8096937019468
 30
0.0
 10
95.09479842457698
 20
-148.8096937019468
 30
0.0
 10
95.38246389759535
 20
-148.8053873325903
 30
0.0
 10
95.59192570309855
 20
-148.7990139059426
 30
0.0
 10
95.59192570309855
 20
-148.7990139059426
 30
0.0
 10
95.59192570309855
 20
-148.9769530877557
 30
0.0
 10
95.59192570309855
 20
-148.9769530877557
 30
0.0
 10
95.39934486547307
 20
-148.9704074063338
 30
0.0
 10
95.08635794063813
 20
-148.9662732917515
 30
0.0
 10
94.96147322929784
 20
-148.9662732917515
 30
0.0
  0
HATCH
  5
F9
330
ED
100
AcDbEntity
  8
レイヤー 1
 62
    18
420
        0
440
 33554687
100
AcDbHatch
 10
0.0
 20
0.0
 30
0.0
210
0.0
220
0.0
230
1.0
  2
SOLID
 70
     1
 71
     1
 91
        4
 92
        1
 93
        1
 72
     4
 94
        3
 73
     0
 74
     0
 95
       17
 96
       13
 40
0.0
 40
0.0
 40
0.0
 40
0.0
 40
1.0
 40
1.0
 40
1.0
 40
2.0
 40
2.0
 40
2.0
 40
3.0
 40
3.0
 40
3.0
 40
4.0
 40
4.0
 40
4.0
 40
4.0
 10
95.1264933030413
 20
-149.6983560823671
 10
95.1264933030413
 20
-149.6983560823671
 10
94.41990421901655
 20
-149.6983560823671
 10
94.41990421901655
 20
-149.6983560823671
 10
94.41990421901655
 20
-149.6983560823671
 10
94.41990421901655
 20
-149.8123887429288
 10
94.41990421901655
 20
-149.8123887429288
 10
94.41990421901655
 20
-149.8123887429288
 10
95.1264933030413
 20
-149.8123887429288
 10
95.1264933030413
 20
-149.8123887429288
 10
95.1264933030413
 20
-149.8123887429288
 10
95.1264933030413
 20
-149.6983560823671
 10
95.1264933030413
 20
-149.6983560823671
 97
        0
 97
        1
330
F5
 92
        1
 93
        1
 72
     4
 94
        3
 73
     0
 74
     0
 95
       17
 96
       13
 40
0.0
 40
0.0
 40
0.0
 40
0.0
 40
1.0
 40
1.0
 40
1.0
 40
2.0
 40
2.0
 40
2.0
 40
3.0
 40
3.0
 40
3.0
 40
4.0
 40
4.0
 40
4.0
 40
4.0
 10
95.1264933030413
 20
-149.4547878315599
 10
95.1264933030413
 20
-149.4547878315599
 10
94.41990421901655
 20
-149.4547878315599
 10
94.41990421901655
 20
-149.4547878315599
 10
94.41990421901655
 20
-149.4547878315599
 10
94.41990421901655
 20
-149.5691650016702
 10
94.41990421901655
 20
-149.5691650016702
 10
94.41990421901655
 20
-149.5691650016702
 10
95.1264933030413
 20
-149.5691650016702
 10
95.1264933030413
 20
-149.5691650016702
 10
95.1264933030413
 20
-149.5691650016702
 10
95.1264933030413
 20
-149.4547878315599
 10
95.1264933030413
 20
-149.4547878315599
 97
        0
 97
        1
330
F6
 92
        1
 93
        1
 72
     4
 94
        3
 73
     0
 74
     0
 95
       17
 96
       13
 40
0.0
 40
0.0
 40
0.0
 40
0.0
 40
1.0
 40
1.0
 40
1.0
 40
2.0
 40
2.0
 40
2.0
 40
3.0
 40
3.0
 40
3.0
 40
4.0
 40
4.0
 40
4.0
 40
4.0
 10
95.1264933030413
 20
-149.2222438863055
 10
95.1264933030413
 20
-149.2222438863055
 10
94.41990421901655
 20
-149.2222438863055
 10
94.41990421901655
 20
-149.2222438863055
 10
94.41990421901655
 20
-149.2222438863055
 10
94.41990421901655
 20
-149.3300753749938
 10
94.41990421901655
 20
-149.3300753749938
 10
94.41990421901655
 20
-149.3300753749938
 10
95.1264933030413
 20
-149.3300753749938
 10
95.1264933030413
 20
-149.3300753749938
 10
95.1264933030413
 20
-149.3300753749938
 10
95.1264933030413
 20
-149.2222438863055
 10
95.1264933030413
 20
-149.2222438863055
 97
        0
 97
        1
330
F7
 92
        1
 93
        1
 72
     4
 94
        3
 73
     0
 74
     0
 95
      203
 96
      199
 40
0.0
 40
0.0
 40
0.0
 40
0.0
 40
1.0
 40
1.0
 40
1.0
 40
2.0
 40
2.0
 40
2.0
 40
3.0
 40
3.0
 40
3.0
 40
4.0
 40
4.0
 40
4.0
 40
5.0
 40
5.0
 40
5.0
 40
6.0
 40
6.0
 40
6.0
 40
7.0
 40
7.0
 40
7.0
 40
8.0
 40
8.0
 40
8.0
 40
9.0
 40
9.0
 40
9.0
 40
10.0
 40
10.0
 40
10.0
 40
11.0
 40
11.0
 40
11.0
 40
12.0
 40
12.0
 40
12.0
 40
13.0
 40
13.0
 40
13.0
 40
14.0
 40
14.0
 40
14.0
 40
15.0
 40
15.0
 40
15.0
 40
16.0
 40
16.0
 40
16.0
 40
17.0
 40
17.0
 40
17.0
 40
18.0
 40
18.0
 40
18.0
 40
19.0
 40
19.0
 40
19.0
 40
20.0
 40
20.0
 40
20.0
 40
21.0
 40
21.0
 40
21.0
 40
22.0
 40
22.0
 40
22.0
 40
23.0
 40
23.0
 40
23.0
 40
24.0
 40
24.0
 40
24.0
 40
25.0
 40
25.0
 40
25.0
 40
26.0
 40
26.0
 40
26.0
 40
27.0
 40
27.0
 40
27.0
 40
28.0
 40
28.0
 40
28.0
 40
29.0
 40
29.0
 40
29.0
 40
30.0
 40
30.0
 40
30.0
 40
31.0
 40
31.0
 40
31.0
 40
32.0
 40
32.0
 40
32.0
 40
33.0
 40
33.0
 40
33.0
 40
34.0
 40
34.0
 40
34.0
 40
35.0
 40
35.0
 40
35.0
 40
36.0
 40
36.0
 40
36.0
 40
37.0
 40
37.0
 40
37.0
 40
38.0
 40
38.0
 40
38.0
 40
39.0
 40
39.0
 40
39.0
 40
40.0
 40
40.0
 40
40.0
 40
41.0
 40
41.0
 40
41.0
 40
42.0
 40
42.0
 40
42.0
 40
43.0
 40
43.0
 40
43.0
 40
44.0
 40
44.0
 40
44.0
 40
45.0
 40
45.0
 40
45.0
 40
46.0
 40
46.0
 40
46.0
 40
47.0
 40
47.0
 40
47.0
 40
48.0
 40
48.0
 40
48.0
 40
49.0
 40
49.0
 40
49.0
 40
50.0
 40
50.0
 40
50.0
 40
51.0
 40
51.0
 40
51.0
 40
52.0
 40
52.0
 40
52.0
 40
53.0
 40
53.0
 40
53.0
 40
54.0
 40
54.0
 40
54.0
 40
55.0
 40
55.0
 40
55.0
 40
56.0
 40
56.0
 40
56.0
 40
57.0
 40
57.0
 40
57.0
 40
58.0
 40
58.0
 40
58.0
 40
59.0
 40
59.0
 40
59.0
 40
60.0
 40
60.0
 40
60.0
 40
61.0
 40
61.0
 40
61.0
 40
62.0
 40
62.0
 40
62.0
 40
63.0
 40
63.0
 40
63.0
 40
64.0
 40
64.0
 40
64.0
 40
65.0
 40
65.0
 40
65.0
 40
66.0
 40
66.0
 40
66.0
 40
66.0
 10
94.96147322929784
 20
-148.9662732917515
 10
94.96147322929784
 20
-148.9662732917515
 10
94.40302325113883
 20
-148.9662732917515
 10
94.40302325113883
 20
-148.9662732917515
 10
94.39234345513455
 20
-149.0107150235112
 10
94.38390297119569
 20
-149.0424099019755
 10
94.37132837267453
 20
-149.0806504618618
 10
94.39664982449112
 20
-149.0806504618618
 10
94.41146373507768
 20
-149.0827175191529
 10
94.4178371617254
 20
-149.0827175191529
 10
94.4178371617254
 20
-149.0827175191529
 10
94.60611162999432
 20
-149.0827175191529
 10
94.60611162999432
 20
-149.0827175191529
 10
94.60611162999432
 20
-149.0827175191529
 10
94.98059350924096
 20
-149.0827175191529
 10
94.98059350924096
 20
-149.0827175191529
 10
95.03123641287414
 20
-149.0827175191529
 10
95.3147677713102
 20
-149.0699706658575
 10
95.3464626497745
 20
-149.0699706658575
 10
95.34439559248335
 20
-149.0975314297395
 10
95.34232853519219
 20
-149.1164794549083
 10
95.34232853519219
 20
-149.1461072760815
 10
95.34008922312677
 20
-149.1778021545458
 10
95.34008922312677
 20
-149.3131944071161
 10
95.34008922312677
 20
-149.3407551709981
 10
95.34008922312677
 20
-149.3407551709981
 10
95.34008922312677
 20
-149.5860459695479
 10
95.34008922312677
 20
-149.5860459695479
 10
95.34008922312677
 20
-149.6304877013076
 10
95.34439559248335
 20
-149.8272026535154
 10
95.34870196183991
 20
-149.9794758739635
 10
95.34870196183991
 20
-149.9794758739635
 10
95.12218693368472
 20
-149.9794758739635
 10
95.12218693368472
 20
-149.9794758739635
 10
95.12218693368472
 20
-149.9794758739635
 10
95.12442624575013
 20
-149.945713938208
 10
95.12442624575013
 20
-149.945713938208
 10
95.12442624575013
 20
-149.945713938208
 10
94.4219712763077
 20
-149.945713938208
 10
94.4219712763077
 20
-149.945713938208
 10
94.4219712763077
 20
-149.945713938208
 10
94.42421058837311
 20
-149.9794758739635
 10
94.42421058837311
 20
-149.9794758739635
 10
94.42421058837311
 20
-149.9794758739635
 10
94.20630829893106
 20
-149.9794758739635
 10
94.20630829893106
 20
-149.9794758739635
 10
94.21044241351337
 20
-149.924698855748
 10
94.21044241351337
 20
-149.9119520024525
 10
94.21681584016107
 20
-149.7975748323423
 10
94.21888289745224
 20
-149.7700140684603
 10
94.22112220951765
 20
-149.6370333827296
 10
94.22112220951765
 20
-149.6177408480122
 10
94.22112220951765
 20
-149.6177408480122
 10
94.22112220951765
 20
-149.414824723931
 10
94.22112220951765
 20
-149.414824723931
 10
94.08142358759077
 20
-149.6642496370631
 10
93.91226939926498
 20
-149.7955077750511
 10
93.80650496786783
 20
-149.8609645892708
 10
93.80650496786783
 20
-149.8609645892708
 10
93.63287215541124
 20
-149.7214382221182
 10
93.63287215541124
 20
-149.7214382221182
 10
93.72175561893067
 20
-149.6707953184851
 10
93.86558835543985
 20
-149.5839789122568
 10
94.0032199200756
 20
-149.3893310173401
 10
94.09417044088618
 20
-149.262551503483
 10
94.15979950988019
 20
-149.1185465121995
 10
94.19356144563563
 20
-148.9662732917515
 10
93.96515161496358
 20
-148.9683403490426
 10
93.78531763063355
 20
-148.9748860304646
 10
93.69006074046637
 20
-148.9769530877557
 10
93.69006074046637
 20
-148.9769530877557
 10
93.69006074046637
 20
-148.7990139059426
 10
93.69006074046637
 20
-148.7990139059426
 10
93.88677569267414
 20
-148.8053873325903
 10
94.1703070511102
 20
-148.8096937019468
 10
94.3205132142671
 20
-148.8096937019468
 10
94.3205132142671
 20
-148.8096937019468
 10
94.53410913435259
 20
-148.8096937019468
 10
94.53410913435259
 20
-148.8096937019468
 10
94.53410913435259
 20
-148.8096937019468
 10
94.53410913435259
 20
-148.7016899584843
 10
94.53410913435259
 20
-148.7016899584843
 10
94.53410913435259
 20
-148.7016899584843
 10
94.38820934055225
 20
-148.7016899584843
 10
94.38820934055225
 20
-148.7016899584843
 10
94.21888289745224
 20
-148.7016899584843
 10
94.04972870912645
 20
-148.7059963278408
 10
93.88264157809185
 20
-148.7123697544886
 10
93.88264157809185
 20
-148.7123697544886
 10
93.88264157809185
 20
-148.5409762540974
 10
93.88264157809185
 20
-148.5409762540974
 10
94.03698185583102
 20
-148.5514837953274
 10
94.22318926680878
 20
-148.5514837953274
 10
94.38820934055225
 20
-148.5514837953274
 10
94.38820934055225
 20
-148.5514837953274
 10
94.53410913435259
 20
-148.5514837953274
 10
94.53410913435259
 20
-148.5514837953274
 10
94.53410913435259
 20
-148.5514837953274
 10
94.53410913435259
 20
-148.433144765409
 10
94.53410913435259
 20
-148.433144765409
 10
94.53410913435259
 20
-148.433144765409
 10
94.40302325113883
 20
-148.433144765409
 10
94.40302325113883
 20
-148.433144765409
 10
94.35651446208796
 20
-148.433144765409
 10
94.15342608323248
 20
-148.4415852493479
 10
94.11105140876392
 20
-148.4415852493479
 10
93.90796302990843
 20
-148.4457193639302
 10
93.8318264196844
 20
-148.4477864212214
 10
93.75362275216923
 20
-148.4500257332868
 10
93.75362275216923
 20
-148.4500257332868
 10
93.75362275216923
 20
-148.2658853796002
 10
93.75362275216923
 20
-148.2658853796002
 10
93.86782766750526
 20
-148.2743258635391
 10
93.91226939926498
 20
-148.2743258635391
 10
94.29519176245051
 20
-148.2829386022522
 10
94.23162975074765
 20
-148.187681712085
 10
94.20406898686565
 20
-148.160120948203
 10
94.16823999381906
 20
-148.1241197003821
 10
94.16823999381906
 20
-148.1241197003821
 10
94.34376760879253
 20
-148.0416096635104
 10
94.34376760879253
 20
-148.0416096635104
 10
94.38390297119569
 20
-148.0776109113313
 10
94.42834470295542
 20
-148.1199855857998
 10
94.50241425588828
 20
-148.2298841317793
 10
94.50241425588828
 20
-148.2298841317793
 10
94.38820934055225
 20
-148.2850056595433
 10
94.38820934055225
 20
-148.2850056595433
 10
94.38820934055225
 20
-148.2850056595433
 10
94.39871688178227
 20
-148.2850056595433
 10
94.39871688178227
 20
-148.2850056595433
 10
94.39871688178227
 20
-148.2850056595433
 10
94.92133786689468
 20
-148.2850056595433
 10
94.92133786689468
 20
-148.2850056595433
 10
94.92133786689468
 20
-148.2850056595433
 10
94.8260809767275
 20
-148.2405639277836
 10
94.8260809767275
 20
-148.2405639277836
 10
94.85364174060951
 20
-148.2024956226716
 10
94.91065807089039
 20
-148.122052643091
 10
94.92547198147697
 20
-148.0479830901581
 10
94.92547198147697
 20
-148.0479830901581
 10
95.13924015633673
 20
-148.111545101861
 10
95.13924015633673
 20
-148.111545101861
 10
95.14768064027558
 20
-148.1136121591521
 10
95.16886797750988
 20
-148.1241197003821
 10
95.16886797750988
 20
-148.1453070376164
 10
95.16886797750988
 20
-148.1833753427284
 10
95.10323890851585
 20
-148.1833753427284
 10
95.08411862857272
 20
-148.1833753427284
 10
95.0736110873427
 20
-148.2024956226716
 10
95.05035669281728
 20
-148.2426309850747
 10
95.02072887164413
 20
-148.2829386022522
 10
95.42053220270737
 20
-148.2765651756045
 10
95.45016002388051
 20
-148.2743258635391
 10
95.52629663410455
 20
-148.2681246916656
 10
95.52629663410455
 20
-148.2681246916656
 10
95.52629663410455
 20
-148.4500257332868
 10
95.52629663410455
 20
-148.4500257332868
 10
95.50734860893568
 20
-148.4500257332868
 10
95.48185490234482
 20
-148.4477864212214
 10
95.2618855556116
 20
-148.4393459372825
 10
95.21107039720417
 20
-148.4372788799913
 10
94.99110105047098
 20
-148.433144765409
 10
94.94665931871125
 20
-148.433144765409
 10
94.94665931871125
 20
-148.433144765409
 10
94.73082408656036
 20
-148.433144765409
 10
94.73082408656036
 20
-148.433144765409
 10
94.73082408656036
 20
-148.433144765409
 10
94.73082408656036
 20
-148.5514837953274
 10
94.73082408656036
 20
-148.5514837953274
 10
94.73082408656036
 20
-148.5514837953274
 10
94.90428464424267
 20
-148.5514837953274
 10
94.90428464424267
 20
-148.5514837953274
 10
95.067237660695
 20
-148.5514837953274
 10
95.25757918625506
 20
-148.5514837953274
 10
95.41415877605967
 20
-148.5409762540974
 10
95.41415877605967
 20
-148.5409762540974
 10
95.41415877605967
 20
-148.7123697544886
 10
95.41415877605967
 20
-148.7123697544886
 10
95.20469697055647
 20
-148.7039292705497
 10
95.0079820183487
 20
-148.7016899584843
 10
94.90428464424267
 20
-148.7016899584843
 10
94.90428464424267
 20
-148.7016899584843
 10
94.73082408656036
 20
-148.7016899584843
 10
94.73082408656036
 20
-148.7016899584843
 10
94.73082408656036
 20
-148.7016899584843
 10
94.73082408656036
 20
-148.8096937019468
 10
94.73082408656036
 20
-148.8096937019468
 10
94.73082408656036
 20
-148.8096937019468
 10
94.96147322929784
 20
-148.8096937019468
 10
94.96147322929784
 20
-148.8096937019468
 10
95.09479842457698
 20
-148.8096937019468
 10
95.38246389759535
 20
-148.8053873325903
 10
95.59192570309855
 20
-148.7990139059426
 10
95.59192570309855
 20
-148.7990139059426
 10
95.59192570309855
 20
-148.9769530877557
 10
95.59192570309855
 20
-148.9769530877557
 10
95.39934486547307
 20
-148.9704074063338
 10
95.08635794063813
 20
-148.9662732917515
 10
94.96147322929784
 20
-148.9662732917515
 97
        0
 97
        1
330
F8
 75
     2
 76
     1
 98
        1
 10
0.0
 20
0.0
450
        0
451
        0
460
0.0
461
0.0
452
        0
462
0.0
453
        0
470

  0
SPLINE
  5
FA
330
ED
100
AcDbEntity
  8
レイヤー 1
100
AcDbSpline
210
0.0
220
0.0
230
1.0
 70
     9
 71
     3
 72
    29
 73
    25
 74
     0
 42
0.0000000001
 43
0.0000000001
 40
0.0
 40
0.0
 40
0.0
 40
0.0
 40
1.0
 40
1.0
 40
1.0
 40
2.0
 40
2.0
 40
2.0
 40
3.0
 40
3.0
 40
3.0
 40
4.0
 40
4.0
 40
4.0
 40
5.0
 40
5.0
 40
5.0
 40
6.0
 40
6.0
 40
6.0
 40
7.0
 40
7.0
 40
7.0
 40
8.0
 40
8.0
 40
8.0
 40
8.0
 10
96.83698321146785
 20
-148.4140244854659
 30
0.0
 10
96.83698321146785
 20
-148.4140244854659
 30
0.0
 10
96.48368866945547
 20
-148.4140244854659
 30
0.0
 10
96.48368866945547
 20
-148.4140244854659
 30
0.0
 10
96.3715508114106
 20
-148.4140244854659
 30
0.0
 10
96.23202444425798
 20
-148.4203979121136
 30
0.0
 10
96.12402070079539
 20
-148.433144765409
 30
0.0
 10
96.12402070079539
 20
-148.433144765409
 30
0.0
 10
96.12402070079539
 20
-148.198189253315
 30
0.0
 10
96.12402070079539
 20
-148.198189253315
 30
0.0
 10
96.242531985488
 20
-148.2130031639016
 30
0.0
 10
96.42650008440032
 20
-148.2173095332582
 30
0.0
 10
96.48368866945547
 20
-148.2173095332582
 30
0.0
 10
96.48368866945547
 20
-148.2173095332582
 30
0.0
 10
96.83698321146785
 20
-148.2173095332582
 30
0.0
 10
96.83698321146785
 20
-148.2173095332582
 30
0.0
 10
96.85593123663672
 20
-148.2173095332582
 30
0.0
 10
97.05919187026646
 20
-148.2173095332582
 30
0.0
 10
97.20078529471024
 20
-148.198189253315
 30
0.0
 10
97.20078529471024
 20
-148.198189253315
 30
0.0
 10
97.20078529471024
 20
-148.433144765409
 30
0.0
 10
97.20078529471024
 20
-148.433144765409
 30
0.0
 10
97.04437795967988
 20
-148.4140244854659
 30
0.0
 10
96.85386417934557
 20
-148.4140244854659
 30
0.0
 10
96.83698321146785
 20
-148.4140244854659
 30
0.0
  0
SPLINE
  5
FB
330
ED
100
AcDbEntity
  8
レイヤー 1
100
AcDbSpline
210
0.0
220
0.0
230
1.0
 70
     9
 71
     3
 72
    47
 73
    43
 74
     0
 42
0.0000000001
 43
0.0000000001
 40
0.0
 40
0.0
 40
0.0
 40
0.0
 40
1.0
 40
1.0
 40
1.0
 40
2.0
 40
2.0
 40
2.0
 40
3.0
 40
3.0
 40
3.0
 40
4.0
 40
4.0
 40
4.0
 40
5.0
 40
5.0
 40
5.0
 40
6.0
 40
6.0
 40
6.0
 40
7.0
 40
7.0
 40
7.0
 40
8.0
 40
8.0
 40
8.0
 40
9.0
 40
9.0
 40
9.0
 40
10.0
 40
10.0
 40
10.0
 40
11.0
 40
11.0
 40
11.0
 40
12.0
 40
12.0
 40
12.0
 40
13.0
 40
13.0
 40
13.0
 40
14.0
 40
14.0
 40
14.0
 40
14.0
 10
96.93844127350844
 20
-148.9428466424518
 30
0.0
 10
96.93844127350844
 20
-148.9428466424518
 30
0.0
 10
96.83698321146785
 20
-148.9428466424518
 30
0.0
 10
96.83698321146785
 20
-148.9428466424518
 30
0.0
 10
96.83698321146785
 20
-149.0296630486801
 30
0.0
 10
96.81579587423357
 20
-149.4189588385133
 30
0.0
 10
96.6190809220258
 20
-149.6391004400208
 30
0.0
 10
96.46680770157775
 20
-149.8082546283465
 30
0.0
 10
96.25941295336572
 20
-149.8781900666971
 30
0.0
 10
96.17483585920282
 20
-149.9054063210306
 30
0.0
 10
96.17483585920282
 20
-149.9054063210306
 30
0.0
 10
95.9801879642862
 20
-149.738319189996
 30
0.0
 10
95.9801879642862
 20
-149.738319189996
 30
0.0
 10
96.0775119117445
 20
-149.7255723367005
 30
0.0
 10
96.25303952671799
 20
-149.7024901969494
 30
0.0
 10
96.44131399498689
 20
-149.5140434739062
 30
0.0
 10
96.51538354791977
 20
-149.442385487813
 30
0.0
 10
96.6190809220258
 20
-149.3025146111119
 30
0.0
 10
96.6190809220258
 20
-148.9428466424518
 30
0.0
 10
96.6190809220258
 20
-148.9428466424518
 30
0.0
 10
96.38843177928832
 20
-148.9428466424518
 30
0.0
 10
96.38843177928832
 20
-148.9428466424518
 30
0.0
 10
96.20239662308483
 20
-148.9428466424518
 30
0.0
 10
96.01618921210707
 20
-148.9473252665826
 30
0.0
 10
95.82998180112932
 20
-148.9621391771692
 30
0.0
 10
95.82998180112932
 20
-148.9621391771692
 30
0.0
 10
95.82998180112932
 20
-148.7419975756617
 30
0.0
 10
95.82998180112932
 20
-148.7419975756617
 30
0.0
 10
96.01825626939822
 20
-148.7568114862483
 30
0.0
 10
96.30385468512542
 20
-148.7609456008306
 30
0.0
 10
96.38843177928832
 20
-148.7609456008306
 30
0.0
 10
96.38843177928832
 20
-148.7609456008306
 30
0.0
 10
96.93844127350844
 20
-148.7609456008306
 30
0.0
 10
96.93844127350844
 20
-148.7609456008306
 30
0.0
 10
96.95756155345158
 20
-148.7609456008306
 30
0.0
 10
97.2748548476431
 20
-148.7609456008306
 30
0.0
 10
97.50343693308941
 20
-148.7419975756617
 30
0.0
 10
97.50343693308941
 20
-148.7419975756617
 30
0.0
 10
97.50343693308941
 20
-148.9621391771692
 30
0.0
 10
97.50343693308941
 20
-148.9621391771692
 30
0.0
 10
97.31516246482051
 20
-148.9473252665826
 30
0.0
 10
97.12671574177736
 20
-148.9428466424518
 30
0.0
 10
96.93844127350844
 20
-148.9428466424518
 30
0.0
  0
HATCH
  5
FC
330
ED
100
AcDbEntity
  8
レイヤー 1
 62
    18
420
        0
440
 33554687
100
AcDbHatch
 10
0.0
 20
0.0
 30
0.0
210
0.0
220
0.0
230
1.0
  2
SOLID
 70
     1
 71
     1
 91
        2
 92
        1
 93
        1
 72
     4
 94
        3
 73
     0
 74
     0
 95
       29
 96
       25
 40
0.0
 40
0.0
 40
0.0
 40
0.0
 40
1.0
 40
1.0
 40
1.0
 40
2.0
 40
2.0
 40
2.0
 40
3.0
 40
3.0
 40
3.0
 40
4.0
 40
4.0
 40
4.0
 40
5.0
 40
5.0
 40
5.0
 40
6.0
 40
6.0
 40
6.0
 40
7.0
 40
7.0
 40
7.0
 40
8.0
 40
8.0
 40
8.0
 40
8.0
 10
96.83698321146785
 20
-148.4140244854659
 10
96.83698321146785
 20
-148.4140244854659
 10
96.48368866945547
 20
-148.4140244854659
 10
96.48368866945547
 20
-148.4140244854659
 10
96.3715508114106
 20
-148.4140244854659
 10
96.23202444425798
 20
-148.4203979121136
 10
96.12402070079539
 20
-148.433144765409
 10
96.12402070079539
 20
-148.433144765409
 10
96.12402070079539
 20
-148.198189253315
 10
96.12402070079539
 20
-148.198189253315
 10
96.242531985488
 20
-148.2130031639016
 10
96.42650008440032
 20
-148.2173095332582
 10
96.48368866945547
 20
-148.2173095332582
 10
96.48368866945547
 20
-148.2173095332582
 10
96.83698321146785
 20
-148.2173095332582
 10
96.83698321146785
 20
-148.2173095332582
 10
96.85593123663672
 20
-148.2173095332582
 10
97.05919187026646
 20
-148.2173095332582
 10
97.20078529471024
 20
-148.198189253315
 10
97.20078529471024
 20
-148.198189253315
 10
97.20078529471024
 20
-148.433144765409
 10
97.20078529471024
 20
-148.433144765409
 10
97.04437795967988
 20
-148.4140244854659
 10
96.85386417934557
 20
-148.4140244854659
 10
96.83698321146785
 20
-148.4140244854659
 97
        0
 97
        1
330
FA
 92
        1
 93
        1
 72
     4
 94
        3
 73
     0
 74
     0
 95
       47
 96
       43
 40
0.0
 40
0.0
 40
0.0
 40
0.0
 40
1.0
 40
1.0
 40
1.0
 40
2.0
 40
2.0
 40
2.0
 40
3.0
 40
3.0
 40
3.0
 40
4.0
 40
4.0
 40
4.0
 40
5.0
 40
5.0
 40
5.0
 40
6.0
 40
6.0
 40
6.0
 40
7.0
 40
7.0
 40
7.0
 40
8.0
 40
8.0
 40
8.0
 40
9.0
 40
9.0
 40
9.0
 40
10.0
 40
10.0
 40
10.0
 40
11.0
 40
11.0
 40
11.0
 40
12.0
 40
12.0
 40
12.0
 40
13.0
 40
13.0
 40
13.0
 40
14.0
 40
14.0
 40
14.0
 40
14.0
 10
96.93844127350844
 20
-148.9428466424518
 10
96.93844127350844
 20
-148.9428466424518
 10
96.83698321146785
 20
-148.9428466424518
 10
96.83698321146785
 20
-148.9428466424518
 10
96.83698321146785
 20
-149.0296630486801
 10
96.81579587423357
 20
-149.4189588385133
 10
96.6190809220258
 20
-149.6391004400208
 10
96.46680770157775
 20
-149.8082546283465
 10
96.25941295336572
 20
-149.8781900666971
 10
96.17483585920282
 20
-149.9054063210306
 10
96.17483585920282
 20
-149.9054063210306
 10
95.9801879642862
 20
-149.738319189996
 10
95.9801879642862
 20
-149.738319189996
 10
96.0775119117445
 20
-149.7255723367005
 10
96.25303952671799
 20
-149.7024901969494
 10
96.44131399498689
 20
-149.5140434739062
 10
96.51538354791977
 20
-149.442385487813
 10
96.6190809220258
 20
-149.3025146111119
 10
96.6190809220258
 20
-148.9428466424518
 10
96.6190809220258
 20
-148.9428466424518
 10
96.38843177928832
 20
-148.9428466424518
 10
96.38843177928832
 20
-148.9428466424518
 10
96.20239662308483
 20
-148.9428466424518
 10
96.01618921210707
 20
-148.9473252665826
 10
95.82998180112932
 20
-148.9621391771692
 10
95.82998180112932
 20
-148.9621391771692
 10
95.82998180112932
 20
-148.7419975756617
 10
95.82998180112932
 20
-148.7419975756617
 10
96.01825626939822
 20
-148.7568114862483
 10
96.30385468512542
 20
-148.7609456008306
 10
96.38843177928832
 20
-148.7609456008306
 10
96.38843177928832
 20
-148.7609456008306
 10
96.93844127350844
 20
-148.7609456008306
 10
96.93844127350844
 20
-148.7609456008306
 10
96.95756155345158
 20
-148.7609456008306
 10
97.2748548476431
 20
-148.7609456008306
 10
97.50343693308941
 20
-148.7419975756617
 10
97.50343693308941
 20
-148.7419975756617
 10
97.50343693308941
 20
-148.9621391771692
 10
97.50343693308941
 20
-148.9621391771692
 10
97.31516246482051
 20
-148.9473252665826
 10
97.12671574177736
 20
-148.9428466424518
 10
96.93844127350844
 20
-148.9428466424518
 97
        0
 97
        1
330
FB
 75
     2
 76
     1
 98
        1
 10
0.0
 20
0.0
450
        0
451
        0
460
0.0
461
0.0
452
        0
462
0.0
453
        0
470

  0
SPLINE
  5
FD
330
ED
100
AcDbEntity
  8
レイヤー 1
100
AcDbSpline
210
0.0
220
0.0
230
1.0
 70
     9
 71
     3
 72
    29
 73
    25
 74
     0
 42
0.0000000001
 43
0.0000000001
 40
0.0
 40
0.0
 40
0.0
 40
0.0
 40
1.0
 40
1.0
 40
1.0
 40
2.0
 40
2.0
 40
2.0
 40
3.0
 40
3.0
 40
3.0
 40
4.0
 40
4.0
 40
4.0
 40
5.0
 40
5.0
 40
5.0
 40
6.0
 40
6.0
 40
6.0
 40
7.0
 40
7.0
 40
7.0
 40
8.0
 40
8.0
 40
8.0
 40
8.0
 10
98.78432343450532
 20
-149.1057996589041
 30
0.0
 10
98.78432343450532
 20
-149.1057996589041
 30
0.0
 10
98.2999430092792
 20
-149.1057996589041
 30
0.0
 10
98.2999430092792
 20
-149.1057996589041
 30
0.0
 10
98.27238224539719
 20
-149.1057996589041
 30
0.0
 10
97.95508895120569
 20
-149.1057996589041
 30
0.0
 10
97.74356008841134
 20
-149.1312933654949
 30
0.0
 10
97.74356008841134
 20
-149.1312933654949
 30
0.0
 10
97.74356008841134
 20
-148.9008164775317
 30
0.0
 10
97.74356008841134
 20
-148.9008164775317
 30
0.0
 10
97.9022067355071
 20
-148.9238986172829
 30
0.0
 10
98.09254826106716
 20
-148.925965674574
 30
0.0
 10
98.2999430092792
 20
-148.925965674574
 30
0.0
 10
98.2999430092792
 20
-148.925965674574
 30
0.0
 10
98.78432343450532
 20
-148.925965674574
 30
0.0
 10
98.78432343450532
 20
-148.925965674574
 30
0.0
 10
98.97053084548307
 20
-148.925965674574
 30
0.0
 10
99.15673825646083
 20
-148.9238986172829
 30
0.0
 10
99.34070635537317
 20
-148.9008164775317
 30
0.0
 10
99.34070635537317
 20
-148.9008164775317
 30
0.0
 10
99.34070635537317
 20
-149.1312933654949
 30
0.0
 10
99.34070635537317
 20
-149.1312933654949
 30
0.0
 10
99.15673825646083
 20
-149.1078667161952
 30
0.0
 10
98.90920814584562
 20
-149.1057996589041
 30
0.0
 10
98.78432343450532
 20
-149.1057996589041
 30
0.0
  0
HATCH
  5
FE
330
ED
100
AcDbEntity
  8
レイヤー 1
 62
    18
420
        0
440
 33554687
100
AcDbHatch
 10
0.0
 20
0.0
 30
0.0
210
0.0
220
0.0
230
1.0
  2
SOLID
 70
     1
 71
     1
 91
        1
 92
        1
 93
        1
 72
     4
 94
        3
 73
     0
 74
     0
 95
       29
 96
       25
 40
0.0
 40
0.0
 40
0.0
 40
0.0
 40
1.0
 40
1.0
 40
1.0
 40
2.0
 40
2.0
 40
2.0
 40
3.0
 40
3.0
 40
3.0
 40
4.0
 40
4.0
 40
4.0
 40
5.0
 40
5.0
 40
5.0
 40
6.0
 40
6.0
 40
6.0
 40
7.0
 40
7.0
 40
7.0
 40
8.0
 40
8.0
 40
8.0
 40
8.0
 10
98.78432343450532
 20
-149.1057996589041
 10
98.78432343450532
 20
-149.1057996589041
 10
98.2999430092792
 20
-149.1057996589041
 10
98.2999430092792
 20
-149.1057996589041
 10
98.27238224539719
 20
-149.1057996589041
 10
97.95508895120569
 20
-149.1057996589041
 10
97.74356008841134
 20
-149.1312933654949
 10
97.74356008841134
 20
-149.1312933654949
 10
97.74356008841134
 20
-148.9008164775317
 10
97.74356008841134
 20
-148.9008164775317
 10
97.9022067355071
 20
-148.9238986172829
 10
98.09254826106716
 20
-148.925965674574
 10
98.2999430092792
 20
-148.925965674574
 10
98.2999430092792
 20
-148.925965674574
 10
98.78432343450532
 20
-148.925965674574
 10
98.78432343450532
 20
-148.925965674574
 10
98.97053084548307
 20
-148.925965674574
 10
99.15673825646083
 20
-148.9238986172829
 10
99.34070635537317
 20
-148.9008164775317
 10
99.34070635537317
 20
-148.9008164775317
 10
99.34070635537317
 20
-149.1312933654949
 10
99.34070635537317
 20
-149.1312933654949
 10
99.15673825646083
 20
-149.1078667161952
 10
98.90920814584562
 20
-149.1057996589041
 10
98.78432343450532
 20
-149.1057996589041
 97
        0
 97
        1
330
FD
 75
     2
 76
     1
 98
        1
 10
0.0
 20
0.0
450
        0
451
        0
460
0.0
461
0.0
452
        0
462
0.0
453
        0
470

  0
SPLINE
  5
FF
330
ED
100
AcDbEntity
  8
レイヤー 1
100
AcDbSpline
210
0.0
220
0.0
230
1.0
 70
     9
 71
     3
 72
    47
 73
    43
 74
     0
 42
0.0000000001
 43
0.0000000001
 40
0.0
 40
0.0
 40
0.0
 40
0.0
 40
1.0
 40
1.0
 40
1.0
 40
2.0
 40
2.0
 40
2.0
 40
3.0
 40
3.0
 40
3.0
 40
4.0
 40
4.0
 40
4.0
 40
5.0
 40
5.0
 40
5.0
 40
6.0
 40
6.0
 40
6.0
 40
7.0
 40
7.0
 40
7.0
 40
8.0
 40
8.0
 40
8.0
 40
9.0
 40
9.0
 40
9.0
 40
10.0
 40
10.0
 40
10.0
 40
11.0
 40
11.0
 40
11.0
 40
12.0
 40
12.0
 40
12.0
 40
13.0
 40
13.0
 40
13.0
 40
14.0
 40
14.0
 40
14.0
 40
14.0
 10
101.0045152199745
 20
-148.5113484329242
 30
0.0
 10
100.934579781624
 20
-148.7905734220037
 30
0.0
 10
100.8584431714
 20
-149.0954643724483
 30
0.0
 10
100.545456246565
 20
-149.4275715772264
 30
0.0
 10
100.3084336771798
 20
-149.6769964903585
 30
0.0
 10
100.06314287863
 20
-149.7765597498822
 30
0.0
 10
99.95737844723288
 20
-149.8189344243508
 30
0.0
 10
99.95737844723288
 20
-149.8189344243508
 30
0.0
 10
99.76273055231628
 20
-149.6370333827296
 30
0.0
 10
99.76273055231628
 20
-149.6370333827296
 30
0.0
 10
99.94876570851976
 20
-149.5901800841302
 30
0.0
 10
100.3106729892452
 20
-149.4971625060285
 30
0.0
 10
100.6067789462025
 20
-149.0021022847981
 30
0.0
 10
100.7674926505893
 20
-148.735624149014
 30
0.0
 10
100.7802395038848
 20
-148.5621635913316
 30
0.0
 10
100.7886799878237
 20
-148.4712130705211
 30
0.0
 10
100.7886799878237
 20
-148.4712130705211
 30
0.0
 10
100.2831122253632
 20
-148.4712130705211
 30
0.0
 10
100.2831122253632
 20
-148.4712130705211
 30
0.0
 10
100.1646009406707
 20
-148.4712130705211
 30
0.0
 10
99.74361027237314
 20
-148.4901610956899
 30
0.0
 10
99.59133705192508
 20
-148.5006686369199
 30
0.0
 10
99.59133705192508
 20
-148.5006686369199
 30
0.0
 10
99.59133705192508
 20
-148.291379086191
 30
0.0
 10
99.59133705192508
 20
-148.291379086191
 30
0.0
 10
99.73310273114313
 20
-148.3039536847122
 30
0.0
 10
100.0102606629315
 20
-148.3082600540687
 30
0.0
 10
100.1265326355586
 20
-148.3082600540687
 30
0.0
 10
100.1265326355586
 20
-148.3082600540687
 30
0.0
 10
100.4818942348622
 20
-148.3082600540687
 30
0.0
 10
100.4818942348622
 20
-148.3082600540687
 30
0.0
 10
100.5094549987441
 20
-148.3082600540687
 30
0.0
 10
100.6701687031311
 20
-148.3061929967776
 30
0.0
 10
100.7802395038848
 20
-148.291379086191
 30
0.0
 10
100.8374280889399
 20
-148.2850056595433
 30
0.0
 10
100.8543090568177
 20
-148.2658853796002
 30
0.0
 10
100.8775634513431
 20
-148.2426309850747
 30
0.0
 10
100.8775634513431
 20
-148.2426309850747
 30
0.0
 10
101.065837919612
 20
-148.3928371482316
 30
0.0
 10
101.065837919612
 20
-148.3928371482316
 30
0.0
 10
101.0510240090254
 20
-148.4224649694048
 30
0.0
 10
101.0405164677954
 20
-148.4415852493479
 30
0.0
 10
101.0045152199745
 20
-148.5113484329242
 30
0.0
  0
HATCH
  5
100
330
ED
100
AcDbEntity
  8
レイヤー 1
 62
    18
420
        0
440
 33554687
100
AcDbHatch
 10
0.0
 20
0.0
 30
0.0
210
0.0
220
0.0
230
1.0
  2
SOLID
 70
     1
 71
     1
 91
        1
 92
        1
 93
        1
 72
     4
 94
        3
 73
     0
 74
     0
 95
       47
 96
       43
 40
0.0
 40
0.0
 40
0.0
 40
0.0
 40
1.0
 40
1.0
 40
1.0
 40
2.0
 40
2.0
 40
2.0
 40
3.0
 40
3.0
 40
3.0
 40
4.0
 40
4.0
 40
4.0
 40
5.0
 40
5.0
 40
5.0
 40
6.0
 40
6.0
 40
6.0
 40
7.0
 40
7.0
 40
7.0
 40
8.0
 40
8.0
 40
8.0
 40
9.0
 40
9.0
 40
9.0
 40
10.0
 40
10.0
 40
10.0
 40
11.0
 40
11.0
 40
11.0
 40
12.0
 40
12.0
 40
12.0
 40
13.0
 40
13.0
 40
13.0
 40
14.0
 40
14.0
 40
14.0
 40
14.0
 10
101.0045152199745
 20
-148.5113484329242
 10
100.934579781624
 20
-148.7905734220037
 10
100.8584431714
 20
-149.0954643724483
 10
100.545456246565
 20
-149.4275715772264
 10
100.3084336771798
 20
-149.6769964903585
 10
100.06314287863
 20
-149.7765597498822
 10
99.95737844723288
 20
-149.8189344243508
 10
99.95737844723288
 20
-149.8189344243508
 10
99.76273055231628
 20
-149.6370333827296
 10
99.76273055231628
 20
-149.6370333827296
 10
99.94876570851976
 20
-149.5901800841302
 10
100.3106729892452
 20
-149.4971625060285
 10
100.6067789462025
 20
-149.0021022847981
 10
100.7674926505893
 20
-148.735624149014
 10
100.7802395038848
 20
-148.5621635913316
 10
100.7886799878237
 20
-148.4712130705211
 10
100.7886799878237
 20
-148.4712130705211
 10
100.2831122253632
 20
-148.4712130705211
 10
100.2831122253632
 20
-148.4712130705211
 10
100.1646009406707
 20
-148.4712130705211
 10
99.74361027237314
 20
-148.4901610956899
 10
99.59133705192508
 20
-148.5006686369199
 10
99.59133705192508
 20
-148.5006686369199
 10
99.59133705192508
 20
-148.291379086191
 10
99.59133705192508
 20
-148.291379086191
 10
99.73310273114313
 20
-148.3039536847122
 10
100.0102606629315
 20
-148.3082600540687
 10
100.1265326355586
 20
-148.3082600540687
 10
100.1265326355586
 20
-148.3082600540687
 10
100.4818942348622
 20
-148.3082600540687
 10
100.4818942348622
 20
-148.3082600540687
 10
100.5094549987441
 20
-148.3082600540687
 10
100.6701687031311
 20
-148.3061929967776
 10
100.7802395038848
 20
-148.291379086191
 10
100.8374280889399
 20
-148.2850056595433
 10
100.8543090568177
 20
-148.2658853796002
 10
100.8775634513431
 20
-148.2426309850747
 10
100.8775634513431
 20
-148.2426309850747
 10
101.065837919612
 20
-148.3928371482316
 10
101.065837919612
 20
-148.3928371482316
 10
101.0510240090254
 20
-148.4224649694048
 10
101.0405164677954
 20
-148.4415852493479
 10
101.0045152199745
 20
-148.5113484329242
 97
        0
 97
        1
330
FF
 75
     2
 76
     1
 98
        1
 10
0.0
 20
0.0
450
        0
451
        0
460
0.0
461
0.0
452
        0
462
0.0
453
        0
470

  0
SPLINE
  5
101
330
ED
100
AcDbEntity
  8
レイヤー 1
100
AcDbSpline
210
0.0
220
0.0
230
1.0
 70
    11
 71
     3
 72
    17
 73
    13
 74
     0
 42
0.0000000001
 43
0.0000000001
 40
0.0
 40
0.0
 40
0.0
 40
0.0
 40
1.0
 40
1.0
 40
1.0
 40
2.0
 40
2.0
 40
2.0
 40
3.0
 40
3.0
 40
3.0
 40
4.0
 40
4.0
 40
4.0
 40
4.0
 10
101.3948445384533
 20
-148.2934461434822
 30
0.0
 10
101.3948445384533
 20
-148.3527017858285
 30
0.0
 10
101.4413533275042
 20
-148.3992105748793
 30
0.0
 10
101.5006089698505
 20
-148.3992105748793
 30
0.0
 10
101.5598646121968
 20
-148.3992105748793
 30
0.0
 10
101.6084404585388
 20
-148.3527017858285
 30
0.0
 10
101.6084404585388
 20
-148.2934461434822
 30
0.0
 10
101.6084404585388
 20
-148.2341905011359
 30
0.0
 10
101.5598646121968
 20
-148.1856146547938
 30
0.0
 10
101.5006089698505
 20
-148.1856146547938
 30
0.0
 10
101.4413533275042
 20
-148.1856146547938
 30
0.0
 10
101.3948445384533
 20
-148.2341905011359
 30
0.0
 10
101.3948445384533
 20
-148.2934461434822
 30
0.0
  0
SPLINE
  5
102
330
ED
100
AcDbEntity
  8
レイヤー 1
100
AcDbSpline
210
0.0
220
0.0
230
1.0
 70
     9
 71
     3
 72
    17
 73
    13
 74
     0
 42
0.0000000001
 43
0.0000000001
 40
0.0
 40
0.0
 40
0.0
 40
0.0
 40
1.0
 40
1.0
 40
1.0
 40
2.0
 40
2.0
 40
2.0
 40
3.0
 40
3.0
 40
3.0
 40
4.0
 40
4.0
 40
4.0
 40
4.0
 10
101.7098985205795
 20
-148.2934461434822
 30
0.0
 10
101.7098985205795
 20
-148.4076510588182
 30
0.0
 10
101.6168809424777
 20
-148.5029079489853
 30
0.0
 10
101.5006089698505
 20
-148.5029079489853
 30
0.0
 10
101.3862317997402
 20
-148.5029079489853
 30
0.0
 10
101.2911471643473
 20
-148.4076510588182
 30
0.0
 10
101.2911471643473
 20
-148.2934461434822
 30
0.0
 10
101.2911471643473
 20
-148.1770019160807
 30
0.0
 10
101.3862317997402
 20
-148.083984337979
 30
0.0
 10
101.5006089698505
 20
-148.083984337979
 30
0.0
 10
101.6148138851866
 20
-148.083984337979
 30
0.0
 10
101.7098985205795
 20
-148.1770019160807
 30
0.0
 10
101.7098985205795
 20
-148.2934461434822
 30
0.0
  0
HATCH
  5
103
330
ED
100
AcDbEntity
  8
レイヤー 1
 62
    18
420
        0
440
 33554687
100
AcDbHatch
 10
0.0
 20
0.0
 30
0.0
210
0.0
220
0.0
230
1.0
  2
SOLID
 70
     1
 71
     1
 91
        2
 92
        1
 93
        1
 72
     4
 94
        3
 73
     0
 74
     0
 95
       17
 96
       13
 40
0.0
 40
0.0
 40
0.0
 40
0.0
 40
1.0
 40
1.0
 40
1.0
 40
2.0
 40
2.0
 40
2.0
 40
3.0
 40
3.0
 40
3.0
 40
4.0
 40
4.0
 40
4.0
 40
4.0
 10
101.3948445384533
 20
-148.2934461434822
 10
101.3948445384533
 20
-148.3527017858285
 10
101.4413533275042
 20
-148.3992105748793
 10
101.5006089698505
 20
-148.3992105748793
 10
101.5598646121968
 20
-148.3992105748793
 10
101.6084404585388
 20
-148.3527017858285
 10
101.6084404585388
 20
-148.2934461434822
 10
101.6084404585388
 20
-148.2341905011359
 10
101.5598646121968
 20
-148.1856146547938
 10
101.5006089698505
 20
-148.1856146547938
 10
101.4413533275042
 20
-148.1856146547938
 10
101.3948445384533
 20
-148.2341905011359
 10
101.3948445384533
 20
-148.2934461434822
 97
        0
 97
        1
330
101
 92
        1
 93
        1
 72
     4
 94
        3
 73
     0
 74
     0
 95
       17
 96
       13
 40
0.0
 40
0.0
 40
0.0
 40
0.0
 40
1.0
 40
1.0
 40
1.0
 40
2.0
 40
2.0
 40
2.0
 40
3.0
 40
3.0
 40
3.0
 40
4.0
 40
4.0
 40
4.0
 40
4.0
 10
101.7098985205795
 20
-148.2934461434822
 10
101.7098985205795
 20
-148.4076510588182
 10
101.6168809424777
 20
-148.5029079489853
 10
101.5006089698505
 20
-148.5029079489853
 10
101.3862317997402
 20
-148.5029079489853
 10
101.2911471643473
 20
-148.4076510588182
 10
101.2911471643473
 20
-148.2934461434822
 10
101.2911471643473
 20
-148.1770019160807
 10
101.3862317997402
 20
-148.083984337979
 10
101.5006089698505
 20
-148.083984337979
 10
101.6148138851866
 20
-148.083984337979
 10
101.7098985205795
 20
-148.1770019160807
 10
101.7098985205795
 20
-148.2934461434822
 97
        0
 97
        1
330
102
 75
     2
 76
     1
 98
        1
 10
0.0
 20
0.0
450
        0
451
        0
460
0.0
461
0.0
452
        0
462
0.0
453
        0
470

  0
ENDBLK
  5
F0
330
ED
100
AcDbEntity
  8
0
100
AcDbBlockEnd
  0
ENDSEC
  0
SECTION
  2
ENTITIES
  0
INSERT
  5
7A
330
70
100
AcDbEntity
  8
レイヤー 1
100
AcDbBlockReference
  2
Block_0
 10
0.0
 20
0.0
 30
0.0
  0
LINE
  5
E0
330
70
100
AcDbEntity
  8
レイヤー 1
  6
AI-Linetype-0
 62
   154
420
    23468
370
    25
100
AcDbLine
 10
91.99596108092672
 20
-152.1699833469481
 30
0.0
 11
101.9303183879758
 21
-152.1699833469481
 31
0.0
  0
INSERT
  5
E3
330
70
100
AcDbEntity
  8
レイヤー 1
100
AcDbBlockReference
  2
Block_11
 10
0.0
 20
0.0
 30
0.0
  0
INSERT
  5
EA
330
70
100
AcDbEntity
  8
レイヤー 1
100
AcDbBlockReference
  2
Block_12
 10
0.0
 20
0.0
 30
0.0
  0
LWPOLYLINE
  5
104
330
70
100
AcDbEntity
  8
レイヤー 1
100
AcDbPolyline
 90
        4
 70
     1
 43
0.0
 10
120.5725640043366
 20
-152.2765506201705
 10
116.5725640053368
 20
-152.2765506201705
 10
116.5725640053368
 20
-151.7765506202953
 10
120.5725640043366
 20
-151.7765506202953
  0
HATCH
  5
105
330
70
100
AcDbEntity
  8
レイヤー 1
 62
   250
420
  2299925
440
 33554687
100
AcDbHatch
 10
0.0
 20
0.0
 30
0.0
210
0.0
220
0.0
230
1.0
  2
SOLID
 70
     1
 71
     1
 91
        1
 92
        1
 93
        4
 72
     1
 10
120.5725640043366
 20
-152.2765506201705
 11
116.5725640053368
 21
-152.2765506201705
 72
     1
 10
116.5725640053368
 20
-152.2765506201705
 11
116.5725640053368
 21
-151.7765506202953
 72
     1
 10
116.5725640053368
 20
-151.7765506202953
 11
120.5725640043366
 21
-151.7765506202953
 72
     1
 10
120.5725640043366
 20
-151.7765506202953
 11
120.5725640043366
 21
-152.2765506201705
 97
        1
330
104
 75
     2
 76
     1
 98
        1
 10
0.0
 20
0.0
450
        0
451
        0
460
0.0
461
0.0
452
        0
462
0.0
453
        0
470

  0
LWPOLYLINE
  5
106
330
70
100
AcDbEntity
  8
レイヤー 1
100
AcDbPolyline
 90
        4
 70
     1
 43
0.0
 10
120.5717331845552
 20
-151.8025807792971
 10
120.5717331843755
 20
-155.8025807782969
 10
120.0717331845003
 20
-155.8025807782751
 10
120.07173318468
 20
-151.8025807792747
  0
HATCH
  5
107
330
70
100
AcDbEntity
  8
レイヤー 1
 62
   250
420
  2299925
440
 33554687
100
AcDbHatch
 10
0.0
 20
0.0
 30
0.0
210
0.0
220
0.0
230
1.0
  2
SOLID
 70
     1
 71
     1
 91
        1
 92
        1
 93
        4
 72
     1
 10
120.5717331845552
 20
-151.8025807792971
 11
120.5717331843755
 21
-155.8025807782969
 72
     1
 10
120.5717331843755
 20
-155.8025807782969
 11
120.0717331845003
 21
-155.8025807782751
 72
     1
 10
120.0717331845003
 20
-155.8025807782751
 11
120.07173318468
 21
-151.8025807792747
 72
     1
 10
120.07173318468
 20
-151.8025807792747
 11
120.5717331845552
 21
-151.8025807792971
 97
        1
330
106
 75
     2
 76
     1
 98
        1
 10
0.0
 20
0.0
450
        0
451
        0
460
0.0
461
0.0
452
        0
462
0.0
453
        0
470

  0
LWPOLYLINE
  5
108
330
70
100
AcDbEntity
  8
レイヤー 1
100
AcDbPolyline
 90
        4
 70
     1
 43
0.0
 10
128.5698813076032
 20
-155.5164695643814
 10
120.0698813097279
 20
-155.816469564306
 10
120.0698813097279
 20
-155.3164695644314
 10
128.5698813076032
 20
-155.3164695644314
  0
HATCH
  5
109
330
70
100
AcDbEntity
  8
レイヤー 1
 62
   250
420
  2299925
440
 33554687
100
AcDbHatch
 10
0.0
 20
0.0
 30
0.0
210
0.0
220
0.0
230
1.0
  2
SOLID
 70
     1
 71
     1
 91
        1
 92
        1
 93
        4
 72
     1
 10
128.5698813076032
 20
-155.5164695643814
 11
120.0698813097279
 21
-155.816469564306
 72
     1
 10
120.0698813097279
 20
-155.816469564306
 11
120.0698813097279
 21
-155.3164695644314
 72
     1
 10
120.0698813097279
 20
-155.3164695644314
 11
128.5698813076032
 21
-155.3164695644314
 72
     1
 10
128.5698813076032
 20
-155.3164695644314
 11
128.5698813076032
 21
-155.5164695643814
 97
        1
330
108
 75
     2
 76
     1
 98
        1
 10
0.0
 20
0.0
450
        0
451
        0
460
0.0
461
0.0
452
        0
462
0.0
453
        0
470

  0
LINE
  5
10A
330
70
100
AcDbEntity
  8
レイヤー 1
 62
   250
420
  2299925
370
     9
100
AcDbLine
 10
120.5635602773508
 20
-151.8611194584751
 30
0.0
 11
126.7629472516136
 21
-148.1361519636586
 31
0.0
  0
LINE
  5
10B
330
70
100
AcDbEntity
  8
レイヤー 1
 62
   250
420
  2299925
370
     9
100
AcDbLine
 10
116.6181962943477
 20
-151.8111248355369
 30
0.0
 11
122.7344300111885
 21
-148.1361140049555
 31
0.0
  0
LWPOLYLINE
  5
10C
330
70
100
AcDbEntity
  8
レイヤー 1
 62
   250
420
  2299925
370
     9
100
AcDbPolyline
 90
        3
 70
     0
 43
0.0
 10
120.6135602773388
 20
-155.3098143342292
 10
129.9472747981903
 20
-149.7015528495998
 10
133.3904085965335
 20
-147.6327093442053
  0
LINE
  5
10D
330
70
100
AcDbEntity
  8
レイヤー 1
 62
   250
420
  2299925
370
     9
100
AcDbLine
 10
128.5085129858342
 20
-155.3598143342165
 30
0.0
 11
136.4538445052028
 21
-150.5857775192769
 31
0.0
  0
LINE
  5
10E
330
70
100
AcDbEntity
  8
レイヤー 1
 62
   250
420
  2299925
370
     9
100
AcDbLine
 10
128.5585129882638
 20
-155.4598143390758
 30
0.0
 11
136.4950211513475
 21
-150.6910791314548
 31
0.0
  0
SPLINE
  5
10F
330
70
100
AcDbEntity
  8
レイヤー 1
 62
   250
420
  2299925
370
     9
100
AcDbSpline
210
0.0
220
0.0
230
1.0
 70
     9
 71
     3
 72
    17
 73
    13
 74
     0
 42
0.0000000001
 43
0.0000000001
 40
0.0
 40
0.0
 40
0.0
 40
0.0
 40
1.0
 40
1.0
 40
1.0
 40
2.0
 40
2.0
 40
2.0
 40
3.0
 40
3.0
 40
3.0
 40
4.0
 40
4.0
 40
4.0
 40
4.0
 10
124.9331167401412
 20
-154.0059791381435
 30
0.0
 10
125.0212399867775
 20
-154.2249180035315
 30
0.0
 10
124.7864339928595
 20
-154.5255025754645
 30
0.0
 10
124.4086781133709
 20
-154.6775499265694
 30
0.0
 10
124.0309476580612
 20
-154.8295870444016
 30
0.0
 10
123.6540338958577
 20
-154.7752206614821
 30
0.0
 10
123.565910649222
 20
-154.5562817960934
 30
0.0
 10
123.4778005749703
 20
-154.3373756569938
 30
0.0
 10
123.7116754230909
 20
-154.0363672806831
 30
0.0
 10
124.0894058784006
 20
-153.884330162851
 30
0.0
 10
124.4671617578898
 20
-153.7322828117467
 30
0.0
 10
124.8450066658888
 20
-153.7870729990433
 30
0.0
 10
124.9331167401412
 20
-154.0059791381435
 30
0.0
  0
SPLINE
  5
110
330
70
100
AcDbEntity
  8
レイヤー 1
 62
   250
420
  2299925
370
     9
100
AcDbSpline
210
0.0
220
0.0
230
1.0
 70
     8
 71
     3
 72
    11
 73
     7
 74
     0
 42
0.0000000001
 43
0.0000000001
 40
0.0
 40
0.0
 40
0.0
 40
0.0
 40
1.0
 40
1.0
 40
1.0
 40
2.0
 40
2.0
 40
2.0
 40
2.0
 10
123.7724347367199
 20
-154.7262331451917
 30
0.0
 10
123.7724347367199
 20
-154.7262331451917
 30
0.0
 10
123.5603226252155
 20
-154.2582983972638
 30
0.0
 10
124.3492573357986
 20
-153.9873354401064
 30
0.0
 10
124.3492573357986
 20
-153.9873354401064
 30
0.0
 10
124.8288392410923
 20
-153.8632100358733
 30
0.0
 10
124.8939150606626
 20
-154.2518284479394
 30
0.0
  0
SPLINE
  5
111
330
70
100
AcDbEntity
  8
レイヤー 1
 62
   250
420
  2299925
370
     9
100
AcDbSpline
210
0.0
220
0.0
230
1.0
 70
     9
 71
     3
 72
    17
 73
    13
 74
     0
 42
0.0000000001
 43
0.0000000001
 40
0.0
 40
0.0
 40
0.0
 40
0.0
 40
1.0
 40
1.0
 40
1.0
 40
2.0
 40
2.0
 40
2.0
 40
3.0
 40
3.0
 40
3.0
 40
4.0
 40
4.0
 40
4.0
 40
4.0
 10
128.9606629057629
 20
-154.0355633752001
 30
0.0
 10
129.0487861523992
 20
-154.2545022405881
 30
0.0
 10
128.8139801584812
 20
-154.555086812521
 30
0.0
 10
128.4362242789927
 20
-154.7071341636259
 30
0.0
 10
128.0584938236829
 20
-154.8591712814581
 30
0.0
 10
127.6815800614794
 20
-154.8048048985386
 30
0.0
 10
127.5934568148437
 20
-154.5858660331499
 30
0.0
 10
127.505346740592
 20
-154.3669598940497
 30
0.0
 10
127.7392215887126
 20
-154.0659515177396
 30
0.0
 10
128.1169520440223
 20
-153.9139143999075
 30
0.0
 10
128.4947079235115
 20
-153.7618670488032
 30
0.0
 10
128.8725528315105
 20
-153.8166572360998
 30
0.0
 10
128.9606629057629
 20
-154.0355633752001
 30
0.0
  0
SPLINE
  5
112
330
70
100
AcDbEntity
  8
レイヤー 1
 62
   250
420
  2299925
370
     9
100
AcDbSpline
210
0.0
220
0.0
230
1.0
 70
     8
 71
     3
 72
    11
 73
     7
 74
     0
 42
0.0000000001
 43
0.0000000001
 40
0.0
 40
0.0
 40
0.0
 40
0.0
 40
1.0
 40
1.0
 40
1.0
 40
2.0
 40
2.0
 40
2.0
 40
2.0
 10
127.7999809023416
 20
-154.7558173822482
 30
0.0
 10
127.7999809023416
 20
-154.7558173822482
 30
0.0
 10
127.5878687908372
 20
-154.2878826343203
 30
0.0
 10
128.3768035014203
 20
-154.0169196771629
 30
0.0
 10
128.3768035014203
 20
-154.0169196771629
 30
0.0
 10
128.856385406714
 20
-153.8927942729299
 30
0.0
 10
128.9214612262843
 20
-154.2814126849959
 30
0.0
  0
SPLINE
  5
113
330
70
100
AcDbEntity
  8
レイヤー 1
 62
   250
420
  2299925
370
     9
100
AcDbSpline
210
0.0
220
0.0
230
1.0
 70
     9
 71
     3
 72
    17
 73
    13
 74
     0
 42
0.0000000001
 43
0.0000000001
 40
0.0
 40
0.0
 40
0.0
 40
0.0
 40
1.0
 40
1.0
 40
1.0
 40
2.0
 40
2.0
 40
2.0
 40
3.0
 40
3.0
 40
3.0
 40
4.0
 40
4.0
 40
4.0
 40
4.0
 10
128.3360110559671
 20
-153.2018901807632
 30
0.0
 10
128.4241869921374
 20
-153.4209599513019
 30
0.0
 10
128.188900362277
 20
-153.7221562901057
 30
0.0
 10
127.8117953574735
 20
-153.8739416630994
 30
0.0
 10
127.4340358269311
 20
-154.0259904837599
 30
0.0
 10
127.0569771685083
 20
-153.9712641116745
 30
0.0
 10
126.9688012323379
 20
-153.7521943411352
 30
0.0
 10
126.8806252961675
 20
-153.5331245705966
 30
0.0
 10
127.11482945388
 20
-153.2329343514818
 30
0.0
 10
127.4925889844218
 20
-153.0808855308213
 30
0.0
 10
127.869693989226
 20
-152.9291001578276
 30
0.0
 10
128.2478351197974
 20
-152.982820410224
 30
0.0
 10
128.3360110559671
 20
-153.2018901807632
 30
0.0
  0
SPLINE
  5
114
330
70
100
AcDbEntity
  8
レイヤー 1
 62
   250
420
  2299925
370
     9
100
AcDbSpline
210
0.0
220
0.0
230
1.0
 70
     8
 71
     3
 72
    11
 73
     7
 74
     0
 42
0.0000000001
 43
0.0000000001
 40
0.0
 40
0.0
 40
0.0
 40
0.0
 40
1.0
 40
1.0
 40
1.0
 40
2.0
 40
2.0
 40
2.0
 40
2.0
 10
127.1754570436718
 20
-153.9224729531109
 30
0.0
 10
127.1754570436718
 20
-153.9224729531109
 30
0.0
 10
126.963924124282
 20
-153.4540769102622
 30
0.0
 10
127.7529014422027
 20
-153.1833249727428
 30
0.0
 10
127.7529014422027
 20
-153.1833249727428
 30
0.0
 10
128.2330915652205
 20
-153.058726590734
 30
0.0
 10
128.2969900571478
 20
-153.4481991610112
 30
0.0
  0
SPLINE
  5
115
330
70
100
AcDbEntity
  8
レイヤー 1
 62
   250
420
  2299925
370
     9
100
AcDbSpline
210
0.0
220
0.0
230
1.0
 70
     9
 71
     3
 72
    17
 73
    13
 74
     0
 42
0.0000000001
 43
0.0000000001
 40
0.0
 40
0.0
 40
0.0
 40
0.0
 40
1.0
 40
1.0
 40
1.0
 40
2.0
 40
2.0
 40
2.0
 40
3.0
 40
3.0
 40
3.0
 40
4.0
 40
4.0
 40
4.0
 40
4.0
 10
127.6108557278712
 20
-152.3970312323165
 30
0.0
 10
127.6989789745076
 20
-152.6159700977046
 30
0.0
 10
127.4641729805896
 20
-152.9165546696375
 30
0.0
 10
127.086417101101
 20
-153.0686020207424
 30
0.0
 10
126.7086866457913
 20
-153.2206391385746
 30
0.0
 10
126.3317728835878
 20
-153.1662727556551
 30
0.0
 10
126.2436496369521
 20
-152.9473338902664
 30
0.0
 10
126.1555395627004
 20
-152.7284277511668
 30
0.0
 10
126.389414410821
 20
-152.4274193748561
 30
0.0
 10
126.7671448661307
 20
-152.275382257024
 30
0.0
 10
127.1449007456199
 20
-152.1233349059197
 30
0.0
 10
127.5227456536189
 20
-152.1781250932163
 30
0.0
 10
127.6108557278712
 20
-152.3970312323165
 30
0.0
  0
SPLINE
  5
116
330
70
100
AcDbEntity
  8
レイヤー 1
 62
   250
420
  2299925
370
     9
100
AcDbSpline
210
0.0
220
0.0
230
1.0
 70
     8
 71
     3
 72
    11
 73
     7
 74
     0
 42
0.0000000001
 43
0.0000000001
 40
0.0
 40
0.0
 40
0.0
 40
0.0
 40
1.0
 40
1.0
 40
1.0
 40
2.0
 40
2.0
 40
2.0
 40
2.0
 10
126.45017372445
 20
-153.1172852393647
 30
0.0
 10
126.45017372445
 20
-153.1172852393647
 30
0.0
 10
126.2380616129456
 20
-152.6493504914368
 30
0.0
 10
127.0269963235286
 20
-152.3783875342794
 30
0.0
 10
127.0269963235286
 20
-152.3783875342794
 30
0.0
 10
127.5065782288224
 20
-152.2542621300464
 30
0.0
 10
127.5716540483927
 20
-152.6428805421124
 30
0.0
  0
SPLINE
  5
117
330
70
100
AcDbEntity
  8
レイヤー 1
 62
   250
420
  2299925
370
     9
100
AcDbSpline
210
0.0
220
0.0
230
1.0
 70
     9
 71
     3
 72
    17
 73
    13
 74
     0
 42
0.0000000001
 43
0.0000000001
 40
0.0
 40
0.0
 40
0.0
 40
0.0
 40
1.0
 40
1.0
 40
1.0
 40
2.0
 40
2.0
 40
2.0
 40
3.0
 40
3.0
 40
3.0
 40
4.0
 40
4.0
 40
4.0
 40
4.0
 10
131.638401893493
 20
-152.4266154693731
 30
0.0
 10
131.7265251401293
 20
-152.6455543347611
 30
0.0
 10
131.4917191462113
 20
-152.946138906694
 30
0.0
 10
131.1139632667227
 20
-153.098186257799
 30
0.0
 10
130.736232811413
 20
-153.2502233756305
 30
0.0
 10
130.3593190492095
 20
-153.1958569927116
 30
0.0
 10
130.2711958025738
 20
-152.9769181273229
 30
0.0
 10
130.1830857283221
 20
-152.7580119882234
 30
0.0
 10
130.4169605764427
 20
-152.4570036119127
 30
0.0
 10
130.7946910317524
 20
-152.3049664940805
 30
0.0
 10
131.1724469112416
 20
-152.1529191429762
 30
0.0
 10
131.5502918192406
 20
-152.2077093302729
 30
0.0
 10
131.638401893493
 20
-152.4266154693731
 30
0.0
  0
SPLINE
  5
118
330
70
100
AcDbEntity
  8
レイヤー 1
 62
   250
420
  2299925
370
     9
100
AcDbSpline
210
0.0
220
0.0
230
1.0
 70
     8
 71
     3
 72
    11
 73
     7
 74
     0
 42
0.0000000001
 43
0.0000000001
 40
0.0
 40
0.0
 40
0.0
 40
0.0
 40
1.0
 40
1.0
 40
1.0
 40
2.0
 40
2.0
 40
2.0
 40
2.0
 10
130.4777198900717
 20
-153.1468694764205
 30
0.0
 10
130.4777198900717
 20
-153.1468694764205
 30
0.0
 10
130.2656077785673
 20
-152.6789347284934
 30
0.0
 10
131.0545424891504
 20
-152.407971771336
 30
0.0
 10
131.0545424891504
 20
-152.407971771336
 30
0.0
 10
131.5341243944441
 20
-152.2838463671029
 30
0.0
 10
131.5992002140144
 20
-152.6724647791689
 30
0.0
  0
SPLINE
  5
119
330
70
100
AcDbEntity
  8
レイヤー 1
 62
   250
420
  2299925
370
     9
100
AcDbSpline
210
0.0
220
0.0
230
1.0
 70
     9
 71
     3
 72
    17
 73
    13
 74
     0
 42
0.0000000001
 43
0.0000000001
 40
0.0
 40
0.0
 40
0.0
 40
0.0
 40
1.0
 40
1.0
 40
1.0
 40
2.0
 40
2.0
 40
2.0
 40
3.0
 40
3.0
 40
3.0
 40
4.0
 40
4.0
 40
4.0
 40
4.0
 10
131.0137500436971
 20
-151.5929422749362
 30
0.0
 10
131.1019259798675
 20
-151.8120120454749
 30
0.0
 10
130.8666393500071
 20
-152.1132083842787
 30
0.0
 10
130.4895343452035
 20
-152.2649937572724
 30
0.0
 10
130.1117748146612
 20
-152.4170425779329
 30
0.0
 10
129.7347161562383
 20
-152.3623162058475
 30
0.0
 10
129.646540220068
 20
-152.1432464353082
 30
0.0
 10
129.5583642838976
 20
-151.9241766647696
 30
0.0
 10
129.7925684416101
 20
-151.6239864456548
 30
0.0
 10
130.1703279721519
 20
-151.4719376249943
 30
0.0
 10
130.5474329769561
 20
-151.3201522520006
 30
0.0
 10
130.9255741075274
 20
-151.3738725043969
 30
0.0
 10
131.0137500436971
 20
-151.5929422749362
 30
0.0
  0
SPLINE
  5
11A
330
70
100
AcDbEntity
  8
レイヤー 1
 62
   250
420
  2299925
370
     9
100
AcDbSpline
210
0.0
220
0.0
230
1.0
 70
     8
 71
     3
 72
    11
 73
     7
 74
     0
 42
0.0000000001
 43
0.0000000001
 40
0.0
 40
0.0
 40
0.0
 40
0.0
 40
1.0
 40
1.0
 40
1.0
 40
2.0
 40
2.0
 40
2.0
 40
2.0
 10
129.8531960314018
 20
-152.3135250472839
 30
0.0
 10
129.8531960314018
 20
-152.3135250472839
 30
0.0
 10
129.641663112012
 20
-151.8451290044352
 30
0.0
 10
130.4306404299328
 20
-151.5743770669159
 30
0.0
 10
130.4306404299328
 20
-151.5743770669159
 30
0.0
 10
130.9108305529506
 20
-151.449778684907
 30
0.0
 10
130.9747290448779
 20
-151.8392512551842
 30
0.0
  0
SPLINE
  5
11B
330
70
100
AcDbEntity
  8
レイヤー 1
 62
   250
420
  2299925
370
     9
100
AcDbSpline
210
0.0
220
0.0
230
1.0
 70
     9
 71
     3
 72
    17
 73
    13
 74
     0
 42
0.0000000001
 43
0.0000000001
 40
0.0
 40
0.0
 40
0.0
 40
0.0
 40
1.0
 40
1.0
 40
1.0
 40
2.0
 40
2.0
 40
2.0
 40
3.0
 40
3.0
 40
3.0
 40
4.0
 40
4.0
 40
4.0
 40
4.0
 10
130.2885947156013
 20
-150.7880833264895
 30
0.0
 10
130.3767179622377
 20
-151.0070221918776
 30
0.0
 10
130.1419119683197
 20
-151.3076067638105
 30
0.0
 10
129.7641560888311
 20
-151.4596541149154
 30
0.0
 10
129.3864256335214
 20
-151.6116912327476
 30
0.0
 10
129.0095118713179
 20
-151.5573248498281
 30
0.0
 10
128.9213886246822
 20
-151.3383859844394
 30
0.0
 10
128.8332785504304
 20
-151.1194798453398
 30
0.0
 10
129.067153398551
 20
-150.8184714690291
 30
0.0
 10
129.4448838538608
 20
-150.666434351197
 30
0.0
 10
129.82263973335
 20
-150.5143870000927
 30
0.0
 10
130.2004846413489
 20
-150.5691771873893
 30
0.0
 10
130.2885947156013
 20
-150.7880833264895
 30
0.0
  0
SPLINE
  5
11C
330
70
100
AcDbEntity
  8
レイヤー 1
 62
   250
420
  2299925
370
     9
100
AcDbSpline
210
0.0
220
0.0
230
1.0
 70
     8
 71
     3
 72
    11
 73
     7
 74
     0
 42
0.0000000001
 43
0.0000000001
 40
0.0
 40
0.0
 40
0.0
 40
0.0
 40
1.0
 40
1.0
 40
1.0
 40
2.0
 40
2.0
 40
2.0
 40
2.0
 10
129.12791271218
 20
-151.5083373335377
 30
0.0
 10
129.12791271218
 20
-151.5083373335377
 30
0.0
 10
128.9158006006757
 20
-151.0404025856098
 30
0.0
 10
129.7047353112587
 20
-150.7694396284524
 30
0.0
 10
129.7047353112587
 20
-150.7694396284524
 30
0.0
 10
130.1843172165525
 20
-150.6453142242194
 30
0.0
 10
130.2493930361228
 20
-151.0339326362854
 30
0.0
  0
SPLINE
  5
11D
330
70
100
AcDbEntity
  8
レイヤー 1
 62
   250
420
  2299925
370
     9
100
AcDbSpline
210
0.0
220
0.0
230
1.0
 70
     9
 71
     3
 72
    17
 73
    13
 74
     0
 42
0.0000000001
 43
0.0000000001
 40
0.0
 40
0.0
 40
0.0
 40
0.0
 40
1.0
 40
1.0
 40
1.0
 40
2.0
 40
2.0
 40
2.0
 40
3.0
 40
3.0
 40
3.0
 40
4.0
 40
4.0
 40
4.0
 40
4.0
 10
134.316140881223
 20
-150.8176675635461
 30
0.0
 10
134.4042641278594
 20
-151.0366064289341
 30
0.0
 10
134.1694581339414
 20
-151.337191000867
 30
0.0
 10
133.7917022544528
 20
-151.489238351972
 30
0.0
 10
133.4139717991431
 20
-151.6412754698035
 30
0.0
 10
133.0370580369396
 20
-151.5869090868846
 30
0.0
 10
132.9489347903039
 20
-151.3679702214959
 30
0.0
 10
132.8608247160522
 20
-151.1490640823964
 30
0.0
 10
133.0946995641727
 20
-150.8480557060857
 30
0.0
 10
133.4724300194825
 20
-150.6960185882535
 30
0.0
 10
133.8501858989717
 20
-150.5439712371492
 30
0.0
 10
134.2280308069706
 20
-150.5987614244459
 30
0.0
 10
134.316140881223
 20
-150.8176675635461
 30
0.0
  0
SPLINE
  5
11E
330
70
100
AcDbEntity
  8
レイヤー 1
 62
   250
420
  2299925
370
     9
100
AcDbSpline
210
0.0
220
0.0
230
1.0
 70
     8
 71
     3
 72
    11
 73
     7
 74
     0
 42
0.0000000001
 43
0.0000000001
 40
0.0
 40
0.0
 40
0.0
 40
0.0
 40
1.0
 40
1.0
 40
1.0
 40
2.0
 40
2.0
 40
2.0
 40
2.0
 10
133.1554588778018
 20
-151.5379215705942
 30
0.0
 10
133.1554588778018
 20
-151.5379215705942
 30
0.0
 10
132.9433467662974
 20
-151.0699868226664
 30
0.0
 10
133.7322814768804
 20
-150.799023865509
 30
0.0
 10
133.7322814768804
 20
-150.799023865509
 30
0.0
 10
134.2118633821741
 20
-150.6748984612759
 30
0.0
 10
134.2769392017445
 20
-151.0635168733419
 30
0.0
  0
SPLINE
  5
11F
330
70
100
AcDbEntity
  8
レイヤー 1
 62
   250
420
  2299925
370
     9
100
AcDbSpline
210
0.0
220
0.0
230
1.0
 70
     9
 71
     3
 72
    17
 73
    13
 74
     0
 42
0.0000000001
 43
0.0000000001
 40
0.0
 40
0.0
 40
0.0
 40
0.0
 40
1.0
 40
1.0
 40
1.0
 40
2.0
 40
2.0
 40
2.0
 40
3.0
 40
3.0
 40
3.0
 40
4.0
 40
4.0
 40
4.0
 40
4.0
 10
133.6914890314272
 20
-149.9839943691092
 30
0.0
 10
133.7796649675976
 20
-150.2030641396479
 30
0.0
 10
133.5443783377372
 20
-150.5042604784517
 30
0.0
 10
133.1672733329336
 20
-150.6560458514454
 30
0.0
 10
132.7895138023912
 20
-150.8080946721059
 30
0.0
 10
132.4124551439684
 20
-150.7533683000205
 30
0.0
 10
132.324279207798
 20
-150.5342985294813
 30
0.0
 10
132.2361032716277
 20
-150.3152287589426
 30
0.0
 10
132.4703074293402
 20
-150.0150385398278
 30
0.0
 10
132.848066959882
 20
-149.8629897191673
 30
0.0
 10
133.2251719646861
 20
-149.7112043461736
 30
0.0
 10
133.6033130952575
 20
-149.76492459857
 30
0.0
 10
133.6914890314272
 20
-149.9839943691092
 30
0.0
  0
SPLINE
  5
120
330
70
100
AcDbEntity
  8
レイヤー 1
 62
   250
420
  2299925
370
     9
100
AcDbSpline
210
0.0
220
0.0
230
1.0
 70
     8
 71
     3
 72
    11
 73
     7
 74
     0
 42
0.0000000001
 43
0.0000000001
 40
0.0
 40
0.0
 40
0.0
 40
0.0
 40
1.0
 40
1.0
 40
1.0
 40
2.0
 40
2.0
 40
2.0
 40
2.0
 10
132.5309350191319
 20
-150.704577141457
 30
0.0
 10
132.5309350191319
 20
-150.704577141457
 30
0.0
 10
132.3194020997421
 20
-150.2361810986082
 30
0.0
 10
133.1083794176629
 20
-149.9654291610888
 30
0.0
 10
133.1083794176629
 20
-149.9654291610888
 30
0.0
 10
133.5885695406806
 20
-149.84083077908
 30
0.0
 10
133.652468032608
 20
-150.2303033493572
 30
0.0
  0
SPLINE
  5
121
330
70
100
AcDbEntity
  8
レイヤー 1
 62
   250
420
  2299925
370
     9
100
AcDbSpline
210
0.0
220
0.0
230
1.0
 70
     9
 71
     3
 72
    17
 73
    13
 74
     0
 42
0.0000000001
 43
0.0000000001
 40
0.0
 40
0.0
 40
0.0
 40
0.0
 40
1.0
 40
1.0
 40
1.0
 40
2.0
 40
2.0
 40
2.0
 40
3.0
 40
3.0
 40
3.0
 40
4.0
 40
4.0
 40
4.0
 40
4.0
 10
132.9663337033314
 20
-149.1791354206625
 30
0.0
 10
133.0544569499677
 20
-149.3980742860506
 30
0.0
 10
132.8196509560497
 20
-149.6986588579835
 30
0.0
 10
132.4418950765612
 20
-149.8507062090884
 30
0.0
 10
132.0641646212514
 20
-150.0027433269206
 30
0.0
 10
131.6872508590479
 20
-149.9483769440004
 30
0.0
 10
131.5991276124123
 20
-149.7294380786124
 30
0.0
 10
131.5110175381605
 20
-149.5105319395128
 30
0.0
 10
131.7448923862811
 20
-149.2095235632021
 30
0.0
 10
132.1226228415908
 20
-149.05748644537
 30
0.0
 10
132.50037872108
 20
-148.9054390942657
 30
0.0
 10
132.878223629079
 20
-148.9602292815623
 30
0.0
 10
132.9663337033314
 20
-149.1791354206625
 30
0.0
  0
SPLINE
  5
122
330
70
100
AcDbEntity
  8
レイヤー 1
 62
   250
420
  2299925
370
     9
100
AcDbSpline
210
0.0
220
0.0
230
1.0
 70
     8
 71
     3
 72
    11
 73
     7
 74
     0
 42
0.0000000001
 43
0.0000000001
 40
0.0
 40
0.0
 40
0.0
 40
0.0
 40
1.0
 40
1.0
 40
1.0
 40
2.0
 40
2.0
 40
2.0
 40
2.0
 10
131.8056516999101
 20
-149.8993894277107
 30
0.0
 10
131.8056516999101
 20
-149.8993894277107
 30
0.0
 10
131.5935395884058
 20
-149.4314546797828
 30
0.0
 10
132.3824742989888
 20
-149.1604917226254
 30
0.0
 10
132.3824742989888
 20
-149.1604917226254
 30
0.0
 10
132.8620562042825
 20
-149.0363663183924
 30
0.0
 10
132.9271320238528
 20
-149.4249847304584
 30
0.0
  0
ENDSEC
  0
SECTION
  2
OBJECTS
  0
DICTIONARY
  5
C
330
0
100
AcDbDictionary
281
     1
  3
ACAD_COLOR
350
63
  3
ACAD_DETAILVIEWSTYLE
350
6A
  3
ACAD_GROUP
350
D
  3
ACAD_LAYOUT
350
62
  3
ACAD_MATERIAL
350
10
  3
ACAD_MLEADERSTYLE
350
66
  3
ACAD_MLINESTYLE
350
5F
  3
ACAD_PLOTSETTINGS
350
61
  3
ACAD_PLOTSTYLENAME
350
E
  3
ACAD_SCALELIST
350
42
  3
ACAD_SECTIONVIEWSTYLE
350
68
  3
ACAD_TABLESTYLE
350
64
  3
ACAD_VISUALSTYLE
350
29
  3
ACDB_RECOMPOSE_DATA
350
12B
  3
AcDbVariableDictionary
350
123
  0
DICTIONARY
  5
63
102
{ACAD_REACTORS
330
C
102
}
330
C
100
AcDbDictionary
281
     1
  0
DICTIONARY
  5
6A
102
{ACAD_REACTORS
330
C
102
}
330
C
100
AcDbDictionary
281
     1
  3
Imperial24
350
6B
  0
DICTIONARY
  5
D
102
{ACAD_REACTORS
330
C
102
}
330
C
100
AcDbDictionary
281
     1
  0
DICTIONARY
  5
62
102
{ACAD_REACTORS
330
C
102
}
330
C
100
AcDbDictionary
281
     1
  3
Layout1
350
6F
  3
Layout2
350
77
  3
Model
350
73
  0
DICTIONARY
  5
10
102
{ACAD_REACTORS
330
C
102
}
330
C
100
AcDbDictionary
281
     1
  3
ByBlock
350
19
  3
ByLayer
350
11
  3
Global
350
21
  0
DICTIONARY
  5
66
102
{ACAD_REACTORS
330
C
102
}
330
C
100
AcDbDictionary
281
     1
  3
Standard
350
67
  0
DICTIONARY
  5
5F
102
{ACAD_REACTORS
330
C
102
}
330
C
100
AcDbDictionary
281
     1
  3
Standard
350
60
  0
DICTIONARY
  5
61
102
{ACAD_REACTORS
330
C
102
}
330
C
100
AcDbDictionary
281
     1
  0
ACDBDICTIONARYWDFLT
  5
E
102
{ACAD_REACTORS
330
C
102
}
330
C
100
AcDbDictionary
281
     1
  3
Normal
350
F
100
AcDbDictionaryWithDefault
340
F
  0
DICTIONARY
  5
42
102
{ACAD_REACTORS
330
C
102
}
330
C
100
AcDbDictionary
281
     1
  3
A0
350
43
  3
A1
350
44
  3
A2
350
45
  3
A3
350
46
  3
A4
350
47
  3
A5
350
48
  3
A6
350
49
  3
A7
350
4A
  3
A8
350
4B
  3
A9
350
4C
  3
B0
350
4D
  3
B1
350
4E
  3
B2
350
4F
  3
B3
350
50
  3
B4
350
51
  3
B5
350
52
  3
B6
350
53
  0
DICTIONARY
  5
68
102
{ACAD_REACTORS
330
C
102
}
330
C
100
AcDbDictionary
281
     1
  3
Imperial24
350
69
  0
DICTIONARY
  5
64
102
{ACAD_REACTORS
330
C
102
}
330
C
100
AcDbDictionary
281
     1
  3
Standard
350
65
  0
DICTIONARY
  5
29
102
{ACAD_REACTORS
330
C
102
}
330
C
100
AcDbDictionary
281
     1
  3
2dWireframe
350
2F
  3
Basic
350
2E
  3
Brighten
350
35
  3
ColorChange
350
39
  3
Conceptual
350
32
  3
Dim
350
34
  3
EdgeColorOff
350
41
  3
Facepattern
350
38
  3
Flat
350
2A
  3
FlatWithEdges
350
2B
  3
Gouraud
350
2C
  3
GouraudWithEdges
350
2D
  3
Hidden
350
31
  3
JitterOff
350
3F
  3
Linepattern
350
37
  3
OverhangOff
350
40
  3
Realistic
350
33
  3
Shaded
350
3E
  3
Shaded with edges
350
3D
  3
Shades of Gray
350
3A
  3
Sketchy
350
3B
  3
Thicken
350
36
  3
Wireframe
350
30
  3
X-Ray
350
3C
  0
XRECORD
  5
12B
102
{ACAD_REACTORS
330
C
102
}
330
C
100
AcDbXrecord
280
     1
 90
        1
330
65
  0
DICTIONARY
  5
123
102
{ACAD_REACTORS
330
C
102
}
330
C
100
AcDbDictionary
281
     1
  3
CANNOSCALE
350
128
  3
CMLEADERSTYLE
350
125
  3
CTABLESTYLE
350
124
  3
CVIEWDETAILSTYLE
350
126
  3
CVIEWSECTIONSTYLE
350
127
  0
ACDBDETAILVIEWSTYLE
  5
6B
102
{ACAD_XDICTIONARY
360
160
102
}
102
{ACAD_REACTORS
330
6A
102
}
330
6A
100
AcDbModelDocViewStyle
 70
     0
  3
Imperial24
290
     0
100
AcDbDetailViewStyle
 70
     0
 71
     0
 90
        3
 71
     1
340
55
 62
   256
 40
0.24
340
0
 62
   256
 40
0.24
300

 40
0.36
280
     3
 71
     2
340
5D
 90
       25
 62
   256
 71
     3
340
55
 62
   256
 40
0.24
 90
        1
 40
0.75
 90
        1
300
%<\AcVar ViewType \f "%tc1">% %<\AcVar ViewDetailId>%\PSCALE %<\AcVar ViewScale \f "%sn">%
 71
     4
340
5D
 90
       25
 62
   256
340
5D
 90
       25
 62
   256
280
     0
  0
LAYOUT
  5
6F
102
{ACAD_REACTORS
330
62
102
}
330
62
100
AcDbPlotSettings
  1

  2

  4

  6

 40
0.0
 41
0.0
 42
0.0
 43
0.0
 44
0.0
 45
0.0
 46
0.0
 47
0.0
 48
0.0
 49
0.0
140
0.0
141
0.0
142
1.0
143
1.0
 70
   688
 72
     0
 73
     0
 74
     5
  7

 75
    16
147
1.0
 76
     0
 77
     2
 78
   300
148
0.0
149
0.0
100
AcDbLayout
  1
Layout1
 70
     1
 71
     1
 10
0.0
 20
0.0
 11
12.0
 21
9.0
 12
0.0
 22
0.0
 32
0.0
 14
0.0
 24
0.0
 34
0.0
 15
0.0
 25
0.0
 35
0.0
146
0.0
 13
0.0
 23
0.0
 33
0.0
 16
1.0
 26
0.0
 36
0.0
 17
0.0
 27
1.0
 37
0.0
 76
     0
330
6C
  0
LAYOUT
  5
77
102
{ACAD_REACTORS
330
62
102
}
330
62
100
AcDbPlotSettings
  1

  2

  4

  6

 40
0.0
 41
0.0
 42
0.0
 43
0.0
 44
0.0
 45
0.0
 46
0.0
 47
0.0
 48
0.0
 49
0.0
140
0.0
141
0.0
142
1.0
143
1.0
 70
   688
 72
     0
 73
     0
 74
     5
  7

 75
    16
147
1.0
 76
     0
 77
     2
 78
   300
148
0.0
149
0.0
100
AcDbLayout
  1
Layout2
 70
     1
 71
     2
 10
0.0
 20
0.0
 11
12.0
 21
9.0
 12
0.0
 22
0.0
 32
0.0
 14
0.0
 24
0.0
 34
0.0
 15
0.0
 25
0.0
 35
0.0
146
0.0
 13
0.0
 23
0.0
 33
0.0
 16
1.0
 26
0.0
 36
0.0
 17
0.0
 27
1.0
 37
0.0
 76
     0
330
74
  0
LAYOUT
  5
73
102
{ACAD_REACTORS
330
62
102
}
330
62
100
AcDbPlotSettings
  1

  2

  4

  6

 40
0.0
 41
0.0
 42
0.0
 43
0.0
 44
0.0
 45
0.0
 46
0.0
 47
0.0
 48
0.0
 49
0.0
140
0.0
141
0.0
142
1.0
143
1.0
 70
  1712
 72
     0
 73
     0
 74
     0
  7

 75
     0
147
1.0
 76
     0
 77
     2
 78
   300
148
0.0
149
0.0
100
AcDbLayout
  1
Model
 70
     1
 71
     0
 10
0.0
 20
0.0
 11
12.0
 21
9.0
 12
0.0
 22
0.0
 32
0.0
 14
0.0
 24
0.0
 34
0.0
 15
0.0
 25
0.0
 35
0.0
146
0.0
 13
0.0
 23
0.0
 33
0.0
 16
1.0
 26
0.0
 36
0.0
 17
0.0
 27
1.0
 37
0.0
 76
     0
330
70
  0
MATERIAL
  5
19
102
{ACAD_XDICTIONARY
360
1A
102
}
102
{ACAD_REACTORS
330
10
102
}
330
10
100
AcDbMaterial
  1
ByBlock
 72
     0
 43
0.0208333333333333
 43
0.0
 43
0.0
 43
0.0
 43
0.0
 43
0.0208333333333333
 43
0.0
 43
0.0
 43
0.0
 43
0.0
 43
1.0
 43
0.0
 43
0.0
 43
0.0
 43
0.0
 43
1.0
 77
     0
 47
0.0208333333333333
 47
0.0
 47
0.0
 47
0.0
 47
0.0
 47
0.0208333333333333
 47
0.0
 47
0.0
 47
0.0
 47
0.0
 47
1.0
 47
0.0
 47
0.0
 47
0.0
 47
0.0
 47
1.0
171
     0
 49
0.0208333333333333
 49
0.0
 49
0.0
 49
0.0
 49
0.0
 49
0.0208333333333333
 49
0.0
 49
0.0
 49
0.0
 49
0.0
 49
1.0
 49
0.0
 49
0.0
 49
0.0
 49
0.0
 49
1.0
175
     0
142
0.0208333333333333
142
0.0
142
0.0
142
0.0
142
0.0
142
0.0208333333333333
142
0.0
142
0.0
142
0.0
142
0.0
142
1.0
142
0.0
142
0.0
142
0.0
142
0.0
142
1.0
179
     0
144
0.0208333333333333
144
0.0
144
0.0
144
0.0
144
0.0
144
0.0208333333333333
144
0.0
144
0.0
144
0.0
144
0.0
144
1.0
144
0.0
144
0.0
144
0.0
144
0.0
144
1.0
147
0.0208333333333333
147
0.0
147
0.0
147
0.0
147
0.0
147
0.0208333333333333
147
0.0
147
0.0
147
0.0
147
0.0
147
1.0
147
0.0
147
0.0
147
0.0
147
0.0
147
1.0
  0
MATERIAL
  5
11
102
{ACAD_XDICTIONARY
360
12
102
}
102
{ACAD_REACTORS
330
10
102
}
330
10
100
AcDbMaterial
  1
ByLayer
 72
     0
 43
0.0208333333333333
 43
0.0
 43
0.0
 43
0.0
 43
0.0
 43
0.0208333333333333
 43
0.0
 43
0.0
 43
0.0
 43
0.0
 43
1.0
 43
0.0
 43
0.0
 43
0.0
 43
0.0
 43
1.0
 77
     0
 47
0.0208333333333333
 47
0.0
 47
0.0
 47
0.0
 47
0.0
 47
0.0208333333333333
 47
0.0
 47
0.0
 47
0.0
 47
0.0
 47
1.0
 47
0.0
 47
0.0
 47
0.0
 47
0.0
 47
1.0
171
     0
 49
0.0208333333333333
 49
0.0
 49
0.0
 49
0.0
 49
0.0
 49
0.0208333333333333
 49
0.0
 49
0.0
 49
0.0
 49
0.0
 49
1.0
 49
0.0
 49
0.0
 49
0.0
 49
0.0
 49
1.0
175
     0
142
0.0208333333333333
142
0.0
142
0.0
142
0.0
142
0.0
142
0.0208333333333333
142
0.0
142
0.0
142
0.0
142
0.0
142
1.0
142
0.0
142
0.0
142
0.0
142
0.0
142
1.0
179
     0
144
0.0208333333333333
144
0.0
144
0.0
144
0.0
144
0.0
144
0.0208333333333333
144
0.0
144
0.0
144
0.0
144
0.0
144
1.0
144
0.0
144
0.0
144
0.0
144
0.0
144
1.0
147
0.0208333333333333
147
0.0
147
0.0
147
0.0
147
0.0
147
0.0208333333333333
147
0.0
147
0.0
147
0.0
147
0.0
147
1.0
147
0.0
147
0.0
147
0.0
147
0.0
147
1.0
  0
MATERIAL
  5
21
102
{ACAD_XDICTIONARY
360
22
102
}
102
{ACAD_REACTORS
330
10
102
}
330
10
100
AcDbMaterial
  1
Global
 72
     0
 43
0.0208333333333333
 43
0.0
 43
0.0
 43
0.0
 43
0.0
 43
0.0208333333333333
 43
0.0
 43
0.0
 43
0.0
 43
0.0
 43
1.0
 43
0.0
 43
0.0
 43
0.0
 43
0.0
 43
1.0
 77
     0
 47
0.0208333333333333
 47
0.0
 47
0.0
 47
0.0
 47
0.0
 47
0.0208333333333333
 47
0.0
 47
0.0
 47
0.0
 47
0.0
 47
1.0
 47
0.0
 47
0.0
 47
0.0
 47
0.0
 47
1.0
171
     0
 49
0.0208333333333333
 49
0.0
 49
0.0
 49
0.0
 49
0.0
 49
0.0208333333333333
 49
0.0
 49
0.0
 49
0.0
 49
0.0
 49
1.0
 49
0.0
 49
0.0
 49
0.0
 49
0.0
 49
1.0
175
     0
142
0.0208333333333333
142
0.0
142
0.0
142
0.0
142
0.0
142
0.0208333333333333
142
0.0
142
0.0
142
0.0
142
0.0
142
1.0
142
0.0
142
0.0
142
0.0
142
0.0
142
1.0
179
     0
144
0.0208333333333333
144
0.0
144
0.0
144
0.0
144
0.0
144
0.0208333333333333
144
0.0
144
0.0
144
0.0
144
0.0
144
1.0
144
0.0
144
0.0
144
0.0
144
0.0
144
1.0
147
0.0208333333333333
147
0.0
147
0.0
147
0.0
147
0.0
147
0.0208333333333333
147
0.0
147
0.0
147
0.0
147
0.0
147
1.0
147
0.0
147
0.0
147
0.0
147
0.0
147
1.0
  0
MLEADERSTYLE
  5
67
102
{ACAD_XDICTIONARY
360
15C
102
}
102
{ACAD_REACTORS
330
66
102
}
330
66
100
AcDbMLeaderStyle
179
     2
170
     2
171
     1
172
     0
 90
        2
 40
0.0
 41
0.0
173
     1
 91
-1056964608
340
5B
 92
       -2
290
     1
 42
0.09
291
     1
 43
0.36
  3
Standard
 44
0.18
300

342
55
174
     1
178
     6
175
     1
176
     0
 93
-1056964608
 45
0.18
292
     0
297
     0
 46
0.18
 94
-1056964608
 47
1.0
 49
1.0
140
1.0
293
     1
141
0.0
294
     1
177
     0
142
1.0
295
     0
296
     0
143
0.125
271
     0
272
     9
273
     9
  0
MLINESTYLE
  5
60
102
{ACAD_REACTORS
330
5F
102
}
330
5F
100
AcDbMlineStyle
  2
STANDARD
 70
     0
  3

 62
   256
 51
90.0
 52
90.0
 71
     2
 49
0.5
 62
   256
  6
BYLAYER
 49
-0.5
 62
   256
  6
BYLAYER
  0
ACDBPLACEHOLDER
  5
F
102
{ACAD_REACTORS
330
E
102
}
330
E
  0
SCALE
  5
43
102
{ACAD_REACTORS
330
42
102
}
330
42
100
AcDbScale
 70
     0
300
1:1
140
1.0
141
1.0
290
     1
  0
SCALE
  5
44
102
{ACAD_REACTORS
330
42
102
}
330
42
100
AcDbScale
 70
     0
300
1/128" = 1'-0"
140
0.0078125
141
12.0
290
     0
  0
SCALE
  5
45
102
{ACAD_REACTORS
330
42
102
}
330
42
100
AcDbScale
 70
     0
300
1/64" = 1'-0"
140
0.015625
141
12.0
290
     0
  0
SCALE
  5
46
102
{ACAD_REACTORS
330
42
102
}
330
42
100
AcDbScale
 70
     0
300
1/32" = 1'-0"
140
0.03125
141
12.0
290
     0
  0
SCALE
  5
47
102
{ACAD_REACTORS
330
42
102
}
330
42
100
AcDbScale
 70
     0
300
1/16" = 1'-0"
140
0.0625
141
12.0
290
     0
  0
SCALE
  5
48
102
{ACAD_REACTORS
330
42
102
}
330
42
100
AcDbScale
 70
     0
300
3/32" = 1'-0"
140
0.09375
141
12.0
290
     0
  0
SCALE
  5
49
102
{ACAD_REACTORS
330
42
102
}
330
42
100
AcDbScale
 70
     0
300
1/8" = 1'-0"
140
0.125
141
12.0
290
     0
  0
SCALE
  5
4A
102
{ACAD_REACTORS
330
42
102
}
330
42
100
AcDbScale
 70
     0
300
3/16" = 1'-0"
140
0.1875
141
12.0
290
     0
  0
SCALE
  5
4B
102
{ACAD_REACTORS
330
42
102
}
330
42
100
AcDbScale
 70
     0
300
1/4" = 1'-0"
140
0.25
141
12.0
290
     0
  0
SCALE
  5
4C
102
{ACAD_REACTORS
330
42
102
}
330
42
100
AcDbScale
 70
     0
300
3/8" = 1'-0"
140
0.375
141
12.0
290
     0
  0
SCALE
  5
4D
102
{ACAD_REACTORS
330
42
102
}
330
42
100
AcDbScale
 70
     0
300
1/2" = 1'-0"
140
0.5
141
12.0
290
     0
  0
SCALE
  5
4E
102
{ACAD_REACTORS
330
42
102
}
330
42
100
AcDbScale
 70
     0
300
3/4" = 1'-0"
140
0.75
141
12.0
290
     0
  0
SCALE
  5
4F
102
{ACAD_REACTORS
330
42
102
}
330
42
100
AcDbScale
 70
     0
300
1" = 1'-0"
140
1.0
141
12.0
290
     0
  0
SCALE
  5
50
102
{ACAD_REACTORS
330
42
102
}
330
42
100
AcDbScale
 70
     0
300
1-1/2" = 1'-0"
140
1.5
141
12.0
290
     0
  0
SCALE
  5
51
102
{ACAD_REACTORS
330
42
102
}
330
42
100
AcDbScale
 70
     0
300
3" = 1'-0"
140
3.0
141
12.0
290
     0
  0
SCALE
  5
52
102
{ACAD_REACTORS
330
42
102
}
330
42
100
AcDbScale
 70
     0
300
6" = 1'-0"
140
6.0
141
12.0
290
     0
  0
SCALE
  5
53
102
{ACAD_REACTORS
330
42
102
}
330
42
100
AcDbScale
 70
     0
300
1'-0" = 1'-0"
140
12.0
141
12.0
290
     0
  0
ACDBSECTIONVIEWSTYLE
  5
69
102
{ACAD_XDICTIONARY
360
15E
102
}
102
{ACAD_REACTORS
330
68
102
}
330
68
100
AcDbModelDocViewStyle
 70
     0
  3
Imperial24
290
     0
100
AcDbSectionViewStyle
 70
     0
 71
     0
 90
       78
 71
     1
340
55
 62
   256
 40
0.24
340
0
340
0
 62
   256
 40
0.24
300
I, O, Q, S, X, Z
 40
0.48
 90
        3
 40
0.18
 90
        1
 71
     2
340
5D
 90
       25
 62
   256
340
5D
 90
       50
 62
   256
 40
0.24
 40
0.0
 40
0.24
 71
     3
340
55
 62
   256
 40
0.24
 90
        1
 40
0.75
 90
        1
300
%<\AcVar ViewType \f "%tc1">% %<\AcVar ViewSectionStartId>%-%<\AcVar ViewSectionEndId>%\PSCALE %<\AcVar ViewScale \f "%sn">%
 71
     4
 62
   256
 62
   257
300
ANSI31
 40
1.0
 90
        0
290
     0
290
     0
 90
        6
 40
0.0
 40
1.570796326794896
 40
0.2617993877991494
 40
1.308996938995747
 40
-0.2617993877991494
 40
1.832595714594046
  0
TABLESTYLE
  5
65
102
{ACAD_XDICTIONARY
360
129
102
}
102
{ACAD_REACTORS
330
64
102
}
330
64
100
AcDbTableStyle
280
     0
  3
Standard
 70
     0
 71
     0
 40
0.06
 41
0.06
280
     0
281
     0
  7
Standard
140
0.18
170
     2
 62
     0
 63
     7
283
     0
 90
      512
 91
        0
  1

274
    -2
284
     1
 64
     0
275
    -2
285
     1
 65
     0
276
    -2
286
     1
 66
     0
277
    -2
287
     1
 67
     0
278
    -2
288
     1
 68
     0
279
    -2
289
     1
 69
     0
  7
Standard
140
0.25
170
     5
 62
     0
 63
     7
283
     0
 90
      512
 91
        0
  1

274
    -2
284
     1
 64
     0
275
    -2
285
     1
 65
     0
276
    -2
286
     1
 66
     0
277
    -2
287
     1
 67
     0
278
    -2
288
     1
 68
     0
279
    -2
289
     1
 69
     0
  7
Standard
140
0.18
170
     5
 62
     0
 63
     7
283
     0
 90
      512
 91
        0
  1

274
    -2
284
     1
 64
     0
275
    -2
285
     1
 65
     0
276
    -2
286
     1
 66
     0
277
    -2
287
     1
 67
     0
278
    -2
288
     1
 68
     0
279
    -2
289
     1
 69
     0
  0
VISUALSTYLE
  5
2F
102
{ACAD_XDICTIONARY
360
136
102
}
102
{ACAD_REACTORS
330
29
102
}
330
29
100
AcDbVisualStyle
  2
2dWireframe
 70
     4
177
     2
291
     0
 71
     0
176
     1
 72
     2
176
     1
 73
     0
176
     1
 90
        0
176
     1
 40
0.6
176
     1
 41
30.0
176
     1
 63
     7
421
 16777215
176
     1
 74
     1
176
     1
 91
        4
176
     1
 64
     7
176
     1
 65
   257
176
     1
 75
     1
176
     1
175
     1
176
     1
 42
1.0
176
     1
 92
        0
176
     1
 66
   257
176
     1
 43
1.0
176
     1
 76
     1
176
     1
 77
     6
176
     1
 78
     2
176
     1
 67
     7
176
     1
 79
     5
176
     1
170
     0
176
     1
171
     0
176
     1
290
     0
176
     1
 93
        1
176
     1
 44
0.0
176
     1
173
     0
176
     1
1001
ACAD
1000
AcDbSavedByObjectVersion
1070
     0
  0
VISUALSTYLE
  5
2E
102
{ACAD_XDICTIONARY
360
134
102
}
102
{ACAD_REACTORS
330
29
102
}
330
29
100
AcDbVisualStyle
  2
Basic
 70
     7
177
     2
291
     1
 71
     1
176
     1
 72
     0
176
     1
 73
     1
176
     1
 90
        0
176
     1
 40
0.6
176
     1
 41
30.0
176
     1
 63
     7
421
 16777215
176
     1
 74
     0
176
     1
 91
        4
176
     1
 64
     7
176
     1
 65
   257
176
     1
 75
     1
176
     1
175
     1
176
     1
 42
1.0
176
     1
 92
        8
176
     1
 66
     7
176
     1
 43
1.0
176
     1
 76
     1
176
     1
 77
     6
176
     1
 78
     2
176
     1
 67
     7
176
     1
 79
     5
176
     1
170
     0
176
     1
171
     0
176
     1
290
     0
176
     1
 93
        1
176
     1
 44
0.0
176
     1
173
     0
176
     1
1001
ACAD
1000
AcDbSavedByObjectVersion
1070
     0
  0
VISUALSTYLE
  5
35
102
{ACAD_XDICTIONARY
360
142
102
}
102
{ACAD_REACTORS
330
29
102
}
330
29
100
AcDbVisualStyle
  2
Brighten
 70
    12
177
     2
291
     1
 71
     2
176
     1
 72
     2
176
     1
 73
     0
176
     1
 90
        0
176
     1
 40
0.6
176
     1
 41
30.0
176
     1
 63
     7
421
 16777215
176
     1
 74
     1
176
     1
 91
        4
176
     1
 64
     7
176
     1
 65
   257
176
     1
 75
     1
176
     1
175
     1
176
     1
 42
1.0
176
     1
 92
        8
176
     1
 66
     7
176
     1
 43
1.0
176
     1
 76
     1
176
     1
 77
     6
176
     1
 78
     2
176
     1
 67
     7
176
     1
 79
     5
176
     1
170
     0
176
     1
171
     0
176
     1
290
     0
176
     1
 93
        1
176
     1
 44
50.0
176
     1
173
     0
176
     1
1001
ACAD
1000
AcDbSavedByObjectVersion
1070
     0
  0
VISUALSTYLE
  5
39
102
{ACAD_XDICTIONARY
360
14A
102
}
102
{ACAD_REACTORS
330
29
102
}
330
29
100
AcDbVisualStyle
  2
ColorChange
 70
    16
177
     2
291
     1
 71
     2
176
     1
 72
     2
176
     1
 73
     3
176
     1
 90
        0
176
     1
 40
0.6
176
     1
 41
30.0
176
     1
 63
     8
421
  8421504
176
     1
 74
     1
176
     1
 91
        4
176
     1
 64
     7
176
     1
 65
   257
176
     1
 75
     1
176
     1
175
     1
176
     1
 42
1.0
176
     1
 92
        8
176
     1
 66
     8
424
  8421504
176
     1
 43
1.0
176
     1
 76
     1
176
     1
 77
     6
176
     1
 78
     2
176
     1
 67
     7
176
     1
 79
     5
176
     1
170
     0
176
     1
171
     0
176
     1
290
     0
176
     1
 93
        1
176
     1
 44
0.0
176
     1
173
     0
176
     1
1001
ACAD
1000
AcDbSavedByObjectVersion
1070
     0
  0
VISUALSTYLE
  5
32
102
{ACAD_XDICTIONARY
360
13C
102
}
102
{ACAD_REACTORS
330
29
102
}
330
29
100
AcDbVisualStyle
  2
Conceptual
 70
     9
177
     2
291
     0
 71
     3
176
     1
 72
     2
176
     1
 73
     0
176
     1
 90
        0
176
     1
 40
0.6
176
     1
 41
30.0
176
     1
 63
     7
421
 16777215
176
     1
 74
     2
176
     1
 91
        2
176
     1
 64
     7
176
     1
 65
   257
176
     1
 75
     1
176
     1
175
     1
176
     1
 42
179.0
176
     1
 92
        8
176
     1
 66
     7
176
     1
 43
1.0
176
     1
 76
     1
176
     1
 77
     6
176
     1
 78
     2
176
     1
 67
     7
176
     1
 79
     3
176
     1
170
     0
176
     1
171
     0
176
     1
290
     0
176
     1
 93
        1
176
     1
 44
0.0
176
     1
173
     0
176
     1
1001
ACAD
1000
AcDbSavedByObjectVersion
1070
     0
  0
VISUALSTYLE
  5
34
102
{ACAD_XDICTIONARY
360
140
102
}
102
{ACAD_REACTORS
330
29
102
}
330
29
100
AcDbVisualStyle
  2
Dim
 70
    11
177
     2
291
     1
 71
     2
176
     1
 72
     2
176
     1
 73
     0
176
     1
 90
        0
176
     1
 40
0.6
176
     1
 41
30.0
176
     1
 63
     7
421
 16777215
176
     1
 74
     1
176
     1
 91
        4
176
     1
 64
     7
176
     1
 65
   257
176
     1
 75
     1
176
     1
175
     1
176
     1
 42
1.0
176
     1
 92
        8
176
     1
 66
     7
176
     1
 43
1.0
176
     1
 76
     1
176
     1
 77
     6
176
     1
 78
     2
176
     1
 67
     7
176
     1
 79
     5
176
     1
170
     0
176
     1
171
     0
176
     1
290
     0
176
     1
 93
        1
176
     1
 44
-50.0
176
     1
173
     0
176
     1
1001
ACAD
1000
AcDbSavedByObjectVersion
1070
     0
  0
VISUALSTYLE
  5
41
102
{ACAD_XDICTIONARY
360
15A
102
}
102
{ACAD_REACTORS
330
29
102
}
330
29
100
AcDbVisualStyle
  2
EdgeColorOff
 70
    22
177
     2
291
     1
 71
     2
176
     0
 72
     2
176
     0
 73
     0
176
     0
 90
        0
176
     0
 40
0.6
176
     0
 41
30.0
176
     0
 63
     7
421
 16777215
176
     0
 74
     1
176
     0
 91
        4
176
     0
 64
     7
176
     0
 65
   257
176
     0
 75
     1
176
     0
175
     1
176
     0
 42
1.0
176
     0
 92
        8
176
     2
 66
     7
176
     0
 43
1.0
176
     0
 76
     1
176
     0
 77
     6
176
     0
 78
     2
176
     0
 67
     7
176
     0
 79
     5
176
     0
170
     0
176
     0
171
     0
176
     0
290
     0
176
     0
 93
        1
176
     0
 44
0.0
176
     0
173
     0
176
     0
1001
ACAD
1000
AcDbSavedByObjectVersion
1070
     0
  0
VISUALSTYLE
  5
38
102
{ACAD_XDICTIONARY
360
148
102
}
102
{ACAD_REACTORS
330
29
102
}
330
29
100
AcDbVisualStyle
  2
Facepattern
 70
    15
177
     2
291
     1
 71
     2
176
     1
 72
     2
176
     1
 73
     0
176
     1
 90
        0
176
     1
 40
0.6
176
     1
 41
30.0
176
     1
 63
     7
421
 16777215
176
     1
 74
     1
176
     1
 91
        4
176
     1
 64
     7
176
     1
 65
   257
176
     1
 75
     1
176
     1
175
     1
176
     1
 42
1.0
176
     1
 92
        8
176
     1
 66
     7
176
     1
 43
1.0
176
     1
 76
     1
176
     1
 77
     6
176
     1
 78
     2
176
     1
 67
     7
176
     1
 79
     5
176
     1
170
     0
176
     1
171
     0
176
     1
290
     0
176
     1
 93
        1
176
     1
 44
0.0
176
     1
173
     0
176
     1
1001
ACAD
1000
AcDbSavedByObjectVersion
1070
     0
  0
VISUALSTYLE
  5
2A
102
{ACAD_XDICTIONARY
360
12C
102
}
102
{ACAD_REACTORS
330
29
102
}
330
29
100
AcDbVisualStyle
  2
Flat
 70
     0
177
     2
291
     1
 71
     2
176
     1
 72
     1
176
     1
 73
     1
176
     1
 90
        2
176
     1
 40
0.6
176
     1
 41
30.0
176
     1
 63
     7
421
 16777215
176
     1
 74
     0
176
     1
 91
        0
176
     1
 64
     7
176
     1
 65
   257
176
     1
 75
     1
176
     1
175
     1
176
     1
 42
1.0
176
     1
 92
        8
176
     1
 66
     7
176
     1
 43
1.0
176
     1
 76
     1
176
     1
 77
     6
176
     1
 78
     2
176
     1
 67
     7
176
     1
 79
     5
176
     1
170
     0
176
     1
171
     0
176
     1
290
     0
176
     1
 93
       13
176
     1
 44
0.0
176
     1
173
     0
176
     1
1001
ACAD
1000
AcDbSavedByObjectVersion
1070
     0
  0
VISUALSTYLE
  5
2B
102
{ACAD_XDICTIONARY
360
12E
102
}
102
{ACAD_REACTORS
330
29
102
}
330
29
100
AcDbVisualStyle
  2
FlatWithEdges
 70
     1
177
     2
291
     1
 71
     2
176
     1
 72
     1
176
     1
 73
     1
176
     1
 90
        2
176
     1
 40
0.6
176
     1
 41
30.0
176
     1
 63
     7
421
 16777215
176
     1
 74
     1
176
     1
 91
        0
176
     1
 64
     7
176
     1
 65
   257
176
     1
 75
     1
176
     1
175
     1
176
     1
 42
1.0
176
     1
 92
        0
176
     1
 66
   257
176
     1
 43
1.0
176
     1
 76
     1
176
     1
 77
     6
176
     1
 78
     2
176
     1
 67
     7
176
     1
 79
     5
176
     1
170
     0
176
     1
171
     0
176
     1
290
     0
176
     1
 93
       13
176
     1
 44
0.0
176
     1
173
     0
176
     1
1001
ACAD
1000
AcDbSavedByObjectVersion
1070
     0
  0
VISUALSTYLE
  5
2C
102
{ACAD_XDICTIONARY
360
130
102
}
102
{ACAD_REACTORS
330
29
102
}
330
29
100
AcDbVisualStyle
  2
Gouraud
 70
     2
177
     2
291
     1
 71
     2
176
     1
 72
     2
176
     1
 73
     1
176
     1
 90
        2
176
     1
 40
0.6
176
     1
 41
30.0
176
     1
 63
     7
421
 16777215
176
     1
 74
     0
176
     1
 91
        0
176
     1
 64
     7
176
     1
 65
   257
176
     1
 75
     1
176
     1
175
     1
176
     1
 42
1.0
176
     1
 92
        0
176
     1
 66
     7
176
     1
 43
1.0
176
     1
 76
     1
176
     1
 77
     6
176
     1
 78
     2
176
     1
 67
     7
176
     1
 79
     5
176
     1
170
     0
176
     1
171
     0
176
     1
290
     0
176
     1
 93
       13
176
     1
 44
0.0
176
     1
173
     0
176
     1
1001
ACAD
1000
AcDbSavedByObjectVersion
1070
     0
  0
VISUALSTYLE
  5
2D
102
{ACAD_XDICTIONARY
360
132
102
}
102
{ACAD_REACTORS
330
29
102
}
330
29
100
AcDbVisualStyle
  2
GouraudWithEdges
 70
     3
177
     2
291
     1
 71
     2
176
     1
 72
     2
176
     1
 73
     1
176
     1
 90
        2
176
     1
 40
0.6
176
     1
 41
30.0
176
     1
 63
     7
421
 16777215
176
     1
 74
     1
176
     1
 91
        0
176
     1
 64
     7
176
     1
 65
   257
176
     1
 75
     1
176
     1
175
     1
176
     1
 42
1.0
176
     1
 92
        0
176
     1
 66
   257
176
     1
 43
1.0
176
     1
 76
     1
176
     1
 77
     6
176
     1
 78
     2
176
     1
 67
     7
176
     1
 79
     5
176
     1
170
     0
176
     1
171
     0
176
     1
290
     0
176
     1
 93
       13
176
     1
 44
0.0
176
     1
173
     0
176
     1
1001
ACAD
1000
AcDbSavedByObjectVersion
1070
     0
  0
VISUALSTYLE
  5
31
102
{ACAD_XDICTIONARY
360
13A
102
}
102
{ACAD_REACTORS
330
29
102
}
330
29
100
AcDbVisualStyle
  2
Hidden
 70
     6
177
     2
291
     0
 71
     1
176
     1
 72
     2
176
     1
 73
     2
176
     1
 90
        0
176
     1
 40
0.6
176
     1
 41
30.0
176
     1
 63
     7
421
 16777215
176
     1
 74
     2
176
     1
 91
        2
176
     1
 64
     7
176
     1
 65
   257
176
     1
 75
     2
176
     1
175
     1
176
     1
 42
40.0
176
     1
 92
        0
176
     1
 66
   257
176
     1
 43
1.0
176
     1
 76
     1
176
     1
 77
     6
176
     1
 78
     2
176
     1
 67
     7
176
     1
 79
     3
176
     1
170
     0
176
     1
171
     0
176
     1
290
     0
176
     1
 93
        1
176
     1
 44
0.0
176
     1
173
     0
176
     1
1001
ACAD
1000
AcDbSavedByObjectVersion
1070
     0
  0
VISUALSTYLE
  5
3F
102
{ACAD_XDICTIONARY
360
156
102
}
102
{ACAD_REACTORS
330
29
102
}
330
29
100
AcDbVisualStyle
  2
JitterOff
 70
    20
177
     2
291
     1
 71
     2
176
     0
 72
     2
176
     0
 73
     0
176
     0
 90
        0
176
     0
 40
0.6
176
     0
 41
30.0
176
     0
 63
     7
421
 16777215
176
     0
 74
     1
176
     0
 91
        4
176
     0
 64
     7
176
     0
 65
   257
176
     0
 75
     1
176
     0
175
     1
176
     0
 42
1.0
176
     0
 92
       10
176
     2
 66
     7
176
     0
 43
1.0
176
     0
 76
     1
176
     0
 77
     6
176
     0
 78
     2
176
     0
 67
     7
176
     0
 79
     5
176
     0
170
     0
176
     0
171
     0
176
     0
290
     0
176
     0
 93
        1
176
     0
 44
0.0
176
     0
173
     0
176
     0
1001
ACAD
1000
AcDbSavedByObjectVersion
1070
     0
  0
VISUALSTYLE
  5
37
102
{ACAD_XDICTIONARY
360
146
102
}
102
{ACAD_REACTORS
330
29
102
}
330
29
100
AcDbVisualStyle
  2
Linepattern
 70
    14
177
     2
291
     1
 71
     2
176
     1
 72
     2
176
     1
 73
     0
176
     1
 90
        0
176
     1
 40
0.6
176
     1
 41
30.0
176
     1
 63
     7
421
 16777215
176
     1
 74
     1
176
     1
 91
        4
176
     1
 64
     7
176
     1
 65
   257
176
     1
 75
     7
176
     1
175
     7
176
     1
 42
1.0
176
     1
 92
        8
176
     1
 66
     7
176
     1
 43
1.0
176
     1
 76
     1
176
     1
 77
     6
176
     1
 78
     2
176
     1
 67
     7
176
     1
 79
     5
176
     1
170
     0
176
     1
171
     0
176
     1
290
     0
176
     1
 93
        1
176
     1
 44
0.0
176
     1
173
     0
176
     1
1001
ACAD
1000
AcDbSavedByObjectVersion
1070
     0
  0
VISUALSTYLE
  5
40
102
{ACAD_XDICTIONARY
360
158
102
}
102
{ACAD_REACTORS
330
29
102
}
330
29
100
AcDbVisualStyle
  2
OverhangOff
 70
    21
177
     2
291
     1
 71
     2
176
     0
 72
     2
176
     0
 73
     0
176
     0
 90
        0
176
     0
 40
0.6
176
     0
 41
30.0
176
     0
 63
     7
421
 16777215
176
     0
 74
     1
176
     0
 91
        4
176
     0
 64
     7
176
     0
 65
   257
176
     0
 75
     1
176
     0
175
     1
176
     0
 42
1.0
176
     0
 92
        9
176
     2
 66
     7
176
     0
 43
1.0
176
     0
 76
     1
176
     0
 77
     6
176
     0
 78
     2
176
     0
 67
     7
176
     0
 79
     5
176
     0
170
     0
176
     0
171
     0
176
     0
290
     0
176
     0
 93
        1
176
     0
 44
0.0
176
     0
173
     0
176
     0
1001
ACAD
1000
AcDbSavedByObjectVersion
1070
     0
  0
VISUALSTYLE
  5
33
102
{ACAD_XDICTIONARY
360
13E
102
}
102
{ACAD_REACTORS
330
29
102
}
330
29
100
AcDbVisualStyle
  2
Realistic
 70
     8
177
     2
291
     0
 71
     2
176
     1
 72
     3
176
     1
 73
     0
176
     1
 90
        2
176
     1
 40
0.6
176
     1
 41
30.0
176
     1
 63
     7
421
 16777215
176
     1
 74
     0
176
     1
 91
        0
176
     1
 64
     7
176
     1
 65
   257
176
     1
 75
     1
176
     1
175
     1
176
     1
 42
1.0
176
     1
 92
        8
176
     1
 66
   257
176
     1
 43
1.0
176
     1
 76
     1
176
     1
 77
     6
176
     1
 78
     2
176
     1
 67
     7
176
     1
 79
     3
176
     1
170
     0
176
     1
171
     0
176
     1
290
     0
176
     1
 93
       13
176
     1
 44
0.0
176
     1
173
     0
176
     1
1001
ACAD
1000
AcDbSavedByObjectVersion
1070
     0
  0
VISUALSTYLE
  5
3E
102
{ACAD_XDICTIONARY
360
154
102
}
102
{ACAD_REACTORS
330
29
102
}
330
29
100
AcDbVisualStyle
  2
Shaded
 70
    27
177
     2
291
     0
 71
     2
176
     1
 72
     2
176
     1
 73
     1
176
     1
 90
        2
176
     1
 40
0.6
176
     1
 41
30.0
176
     1
 63
     7
421
 16777215
176
     1
 74
     0
176
     1
 91
        4
176
     1
 64
     7
176
     1
 65
   257
176
     1
 75
     1
176
     1
175
     1
176
     1
 42
1.0
176
     1
 92
        8
176
     1
 66
   257
176
     1
 43
1.0
176
     1
 76
     1
176
     1
 77
     6
176
     1
 78
     2
176
     1
 67
     8
425
  7895160
176
     1
 79
     3
176
     1
170
     0
176
     1
171
     0
176
     1
290
     0
176
     1
 93
        5
176
     1
 44
0.0
176
     1
173
     0
176
     1
1001
ACAD
1000
AcDbSavedByObjectVersion
1070
     0
  0
VISUALSTYLE
  5
3D
102
{ACAD_XDICTIONARY
360
152
102
}
102
{ACAD_REACTORS
330
29
102
}
330
29
100
AcDbVisualStyle
  2
Shaded with edges
 70
    26
177
     2
291
     0
 71
     2
176
     1
 72
     2
176
     1
 73
     1
176
     1
 90
        2
176
     1
 40
0.6
176
     1
 41
30.0
176
     1
 63
     7
421
 16777215
176
     1
 74
     1
176
     1
 91
        2
176
     1
 64
     7
176
     1
 65
   257
176
     1
 75
     2
176
     1
175
     1
176
     1
 42
1.0
176
     1
 92
        8
176
     1
 66
   257
176
     1
 43
1.0
176
     1
 76
     1
176
     1
 77
     6
176
     1
 78
     2
176
     1
 67
     7
176
     1
 79
     3
176
     1
170
     0
176
     1
171
     0
176
     1
290
     0
176
     1
 93
        5
176
     1
 44
0.0
176
     1
173
     0
176
     1
1001
ACAD
1000
AcDbSavedByObjectVersion
1070
     0
  0
VISUALSTYLE
  5
3A
102
{ACAD_XDICTIONARY
360
14C
102
}
102
{ACAD_REACTORS
330
29
102
}
330
29
100
AcDbVisualStyle
  2
Shades of Gray
 70
    23
177
     2
291
     0
 71
     2
176
     1
 72
     2
176
     1
 73
     3
176
     1
 90
        0
176
     1
 40
0.6
176
     1
 41
30.0
176
     1
 63
     7
421
 16777215
176
     1
 74
     2
176
     1
 91
        2
176
     1
 64
     7
176
     1
 65
     7
176
     1
 75
     1
176
     1
175
     1
176
     1
 42
40.0
176
     1
 92
        8
176
     1
 66
     7
176
     1
 43
1.0
176
     1
 76
     1
176
     1
 77
     6
176
     1
 78
     2
176
     1
 67
     7
176
     1
 79
     3
176
     1
170
     0
176
     1
171
     0
176
     1
290
     0
176
     1
 93
        1
176
     1
 44
0.0
176
     1
173
     0
176
     1
1001
ACAD
1000
AcDbSavedByObjectVersion
1070
     0
  0
VISUALSTYLE
  5
3B
102
{ACAD_XDICTIONARY
360
14E
102
}
102
{ACAD_REACTORS
330
29
102
}
330
29
100
AcDbVisualStyle
  2
Sketchy
 70
    24
177
     2
291
     0
 71
     1
176
     1
 72
     2
176
     1
 73
     2
176
     1
 90
        0
176
     1
 40
0.6
176
     1
 41
30.0
176
     1
 63
     7
421
 16777215
176
     1
 74
     2
176
     1
 91
        2
176
     1
 64
     7
176
     1
 65
     7
176
     1
 75
     1
176
     1
175
     1
176
     1
 42
40.0
176
     1
 92
       11
176
     1
 66
     7
176
     1
 43
1.0
176
     1
 76
     1
176
     1
 77
     6
176
     1
 78
     2
176
     1
 67
     7
176
     1
 79
     6
176
     1
170
     0
176
     1
171
     0
176
     1
290
     0
176
     1
 93
        1
176
     1
 44
0.0
176
     1
173
     0
176
     1
1001
ACAD
1000
AcDbSavedByObjectVersion
1070
     0
  0
VISUALSTYLE
  5
36
102
{ACAD_XDICTIONARY
360
144
102
}
102
{ACAD_REACTORS
330
29
102
}
330
29
100
AcDbVisualStyle
  2
Thicken
 70
    13
177
     2
291
     1
 71
     2
176
     1
 72
     2
176
     1
 73
     0
176
     1
 90
        0
176
     1
 40
0.6
176
     1
 41
30.0
176
     1
 63
     7
421
 16777215
176
     1
 74
     1
176
     1
 91
        4
176
     1
 64
     7
176
     1
 65
   257
176
     1
 75
     1
176
     1
175
     1
176
     1
 42
1.0
176
     1
 92
       12
176
     1
 66
     7
176
     1
 43
1.0
176
     1
 76
     1
176
     1
 77
     6
176
     1
 78
     2
176
     1
 67
     7
176
     1
 79
     5
176
     1
170
     0
176
     1
171
     0
176
     1
290
     0
176
     1
 93
        1
176
     1
 44
0.0
176
     1
173
     0
176
     1
1001
ACAD
1000
AcDbSavedByObjectVersion
1070
     0
  0
VISUALSTYLE
  5
30
102
{ACAD_XDICTIONARY
360
138
102
}
102
{ACAD_REACTORS
330
29
102
}
330
29
100
AcDbVisualStyle
  2
Wireframe
 70
     5
177
     2
291
     0
 71
     0
176
     1
 72
     2
176
     1
 73
     0
176
     1
 90
        0
176
     1
 40
0.6
176
     1
 41
30.0
176
     1
 63
     7
421
 16777215
176
     1
 74
     1
176
     1
 91
        4
176
     1
 64
     7
176
     1
 65
   257
176
     1
 75
     1
176
     1
175
     1
176
     1
 42
1.0
176
     1
 92
        0
176
     1
 66
   257
176
     1
 43
1.0
176
     1
 76
     1
176
     1
 77
     6
176
     1
 78
     2
176
     1
 67
     7
176
     1
 79
     3
176
     1
170
     0
176
     1
171
     0
176
     1
290
     0
176
     1
 93
        1
176
     1
 44
0.0
176
     1
173
     0
176
     1
1001
ACAD
1000
AcDbSavedByObjectVersion
1070
     0
  0
VISUALSTYLE
  5
3C
102
{ACAD_XDICTIONARY
360
150
102
}
102
{ACAD_REACTORS
330
29
102
}
330
29
100
AcDbVisualStyle
  2
X-Ray
 70
    25
177
     2
291
     0
 71
     2
176
     1
 72
     2
176
     1
 73
     1
176
     1
 90
        1
176
     1
 40
0.5
176
     1
 41
30.0
176
     1
 63
     7
421
 16777215
176
     1
 74
     1
176
     1
 91
        0
176
     1
 64
     7
176
     1
 65
   257
176
     1
 75
     1
176
     1
175
     1
176
     1
 42
1.0
176
     1
 92
        8
176
     1
 66
     7
176
     1
 43
1.0
176
     1
 76
     1
176
     1
 77
     6
176
     1
 78
     2
176
     1
 67
     7
176
     1
 79
     3
176
     1
170
     0
176
     1
171
     0
176
     1
290
     0
176
     1
 93
       13
176
     1
 44
0.0
176
     1
173
     0
176
     1
1001
ACAD
1000
AcDbSavedByObjectVersion
1070
     0
  0
DICTIONARYVAR
  5
128
102
{ACAD_REACTORS
330
123
102
}
330
123
100
DictionaryVariables
280
     0
  1
1:1
  0
DICTIONARYVAR
  5
125
102
{ACAD_REACTORS
330
123
102
}
330
123
100
DictionaryVariables
280
     0
  1
STANDARD
  0
DICTIONARYVAR
  5
124
102
{ACAD_REACTORS
330
123
102
}
330
123
100
DictionaryVariables
280
     0
  1
STANDARD
  0
DICTIONARYVAR
  5
126
102
{ACAD_REACTORS
330
123
102
}
330
123
100
DictionaryVariables
280
     0
  1
Imperial24
  0
DICTIONARYVAR
  5
127
102
{ACAD_REACTORS
330
123
102
}
330
123
100
DictionaryVariables
280
     0
  1
Imperial24
  0
DICTIONARY
  5
160
330
6B
100
AcDbDictionary
280
     1
281
     1
  3
ACAD_XREC_ROUNDTRIP
360
161
  0
DICTIONARY
  5
1A
330
19
100
AcDbDictionary
280
     1
281
     1
  3
BUMPTILE
360
1C
  3
DIFFUSETILE
360
1B
  3
OPACITYTILE
360
1F
  3
REFLECTIONTILE
360
1E
  3
REFRACTIONTILE
360
20
  3
SPECULARTILE
360
1D
  0
DICTIONARY
  5
12
330
11
100
AcDbDictionary
280
     1
281
     1
  3
BUMPTILE
360
14
  3
DIFFUSETILE
360
13
  3
OPACITYTILE
360
17
  3
REFLECTIONTILE
360
16
  3
REFRACTIONTILE
360
18
  3
SPECULARTILE
360
15
  0
DICTIONARY
  5
22
330
21
100
AcDbDictionary
280
     1
281
     1
  3
BUMPTILE
360
24
  3
DIFFUSETILE
360
23
  3
OPACITYTILE
360
27
  3
REFLECTIONTILE
360
26
  3
REFRACTIONTILE
360
28
  3
SPECULARTILE
360
25
  0
DICTIONARY
  5
15C
330
67
100
AcDbDictionary
280
     1
281
     1
  3
ACAD_XREC_ROUNDTRIP
360
15D
  0
DICTIONARY
  5
15E
330
69
100
AcDbDictionary
280
     1
281
     1
  3
ACAD_XREC_ROUNDTRIP
360
15F
  0
DICTIONARY
  5
129
330
65
100
AcDbDictionary
280
     1
281
     1
  3
ACAD_ROUNDTRIP_2008_TABLESTYLE_CELLSTYLEMAP
360
12A
  0
DICTIONARY
  5
136
330
2F
100
AcDbDictionary
280
     1
281
     1
  3
ACAD_XREC_ROUNDTRIP
360
137
  0
DICTIONARY
  5
134
330
2E
100
AcDbDictionary
280
     1
281
     1
  3
ACAD_XREC_ROUNDTRIP
360
135
  0
DICTIONARY
  5
142
330
35
100
AcDbDictionary
280
     1
281
     1
  3
ACAD_XREC_ROUNDTRIP
360
143
  0
DICTIONARY
  5
14A
330
39
100
AcDbDictionary
280
     1
281
     1
  3
ACAD_XREC_ROUNDTRIP
360
14B
  0
DICTIONARY
  5
13C
330
32
100
AcDbDictionary
280
     1
281
     1
  3
ACAD_XREC_ROUNDTRIP
360
13D
  0
DICTIONARY
  5
140
330
34
100
AcDbDictionary
280
     1
281
     1
  3
ACAD_XREC_ROUNDTRIP
360
141
  0
DICTIONARY
  5
15A
330
41
100
AcDbDictionary
280
     1
281
     1
  3
ACAD_XREC_ROUNDTRIP
360
15B
  0
DICTIONARY
  5
148
330
38
100
AcDbDictionary
280
     1
281
     1
  3
ACAD_XREC_ROUNDTRIP
360
149
  0
DICTIONARY
  5
12C
330
2A
100
AcDbDictionary
280
     1
281
     1
  3
ACAD_XREC_ROUNDTRIP
360
12D
  0
DICTIONARY
  5
12E
330
2B
100
AcDbDictionary
280
     1
281
     1
  3
ACAD_XREC_ROUNDTRIP
360
12F
  0
DICTIONARY
  5
130
330
2C
100
AcDbDictionary
280
     1
281
     1
  3
ACAD_XREC_ROUNDTRIP
360
131
  0
DICTIONARY
  5
132
330
2D
100
AcDbDictionary
280
     1
281
     1
  3
ACAD_XREC_ROUNDTRIP
360
133
  0
DICTIONARY
  5
13A
330
31
100
AcDbDictionary
280
     1
281
     1
  3
ACAD_XREC_ROUNDTRIP
360
13B
  0
DICTIONARY
  5
156
330
3F
100
AcDbDictionary
280
     1
281
     1
  3
ACAD_XREC_ROUNDTRIP
360
157
  0
DICTIONARY
  5
146
330
37
100
AcDbDictionary
280
     1
281
     1
  3
ACAD_XREC_ROUNDTRIP
360
147
  0
DICTIONARY
  5
158
330
40
100
AcDbDictionary
280
     1
281
     1
  3
ACAD_XREC_ROUNDTRIP
360
159
  0
DICTIONARY
  5
13E
330
33
100
AcDbDictionary
280
     1
281
     1
  3
ACAD_XREC_ROUNDTRIP
360
13F
  0
DICTIONARY
  5
154
330
3E
100
AcDbDictionary
280
     1
281
     1
  3
ACAD_XREC_ROUNDTRIP
360
155
  0
DICTIONARY
  5
152
330
3D
100
AcDbDictionary
280
     1
281
     1
  3
ACAD_XREC_ROUNDTRIP
360
153
  0
DICTIONARY
  5
14C
330
3A
100
AcDbDictionary
280
     1
281
     1
  3
ACAD_XREC_ROUNDTRIP
360
14D
  0
DICTIONARY
  5
14E
330
3B
100
AcDbDictionary
280
     1
281
     1
  3
ACAD_XREC_ROUNDTRIP
360
14F
  0
DICTIONARY
  5
144
330
36
100
AcDbDictionary
280
     1
281
     1
  3
ACAD_XREC_ROUNDTRIP
360
145
  0
DICTIONARY
  5
138
330
30
100
AcDbDictionary
280
     1
281
     1
  3
ACAD_XREC_ROUNDTRIP
360
139
  0
DICTIONARY
  5
150
330
3C
100
AcDbDictionary
280
     1
281
     1
  3
ACAD_XREC_ROUNDTRIP
360
151
  0
XRECORD
  5
161
102
{ACAD_REACTORS
330
160
102
}
330
160
100
AcDbXrecord
280
     1
102
DISPLAYNAME
  1
Imperial24
102
FLAGS
 90
        0
  0
XRECORD
  5
1C
102
{ACAD_REACTORS
330
1A
102
}
330
1A
100
AcDbXrecord
280
     1
270
     1
271
     1
  0
XRECORD
  5
1B
102
{ACAD_REACTORS
330
1A
102
}
330
1A
100
AcDbXrecord
280
     1
270
     1
271
     1
  0
XRECORD
  5
1F
102
{ACAD_REACTORS
330
1A
102
}
330
1A
100
AcDbXrecord
280
     1
270
     1
271
     1
  0
XRECORD
  5
1E
102
{ACAD_REACTORS
330
1A
102
}
330
1A
100
AcDbXrecord
280
     1
270
     1
271
     1
  0
XRECORD
  5
20
102
{ACAD_REACTORS
330
1A
102
}
330
1A
100
AcDbXrecord
280
     1
270
     1
271
     1
  0
XRECORD
  5
1D
102
{ACAD_REACTORS
330
1A
102
}
330
1A
100
AcDbXrecord
280
     1
270
     1
271
     1
  0
XRECORD
  5
14
102
{ACAD_REACTORS
330
12
102
}
330
12
100
AcDbXrecord
280
     1
270
     1
271
     1
  0
XRECORD
  5
13
102
{ACAD_REACTORS
330
12
102
}
330
12
100
AcDbXrecord
280
     1
270
     1
271
     1
  0
XRECORD
  5
17
102
{ACAD_REACTORS
330
12
102
}
330
12
100
AcDbXrecord
280
     1
270
     1
271
     1
  0
XRECORD
  5
16
102
{ACAD_REACTORS
330
12
102
}
330
12
100
AcDbXrecord
280
     1
270
     1
271
     1
  0
XRECORD
  5
18
102
{ACAD_REACTORS
330
12
102
}
330
12
100
AcDbXrecord
280
     1
270
     1
271
     1
  0
XRECORD
  5
15
102
{ACAD_REACTORS
330
12
102
}
330
12
100
AcDbXrecord
280
     1
270
     1
271
     1
  0
XRECORD
  5
24
102
{ACAD_REACTORS
330
22
102
}
330
22
100
AcDbXrecord
280
     1
270
     1
271
     1
  0
XRECORD
  5
23
102
{ACAD_REACTORS
330
22
102
}
330
22
100
AcDbXrecord
280
     1
270
     1
271
     1
  0
XRECORD
  5
27
102
{ACAD_REACTORS
330
22
102
}
330
22
100
AcDbXrecord
280
     1
270
     1
271
     1
  0
XRECORD
  5
26
102
{ACAD_REACTORS
330
22
102
}
330
22
100
AcDbXrecord
280
     1
270
     1
271
     1
  0
XRECORD
  5
28
102
{ACAD_REACTORS
330
22
102
}
330
22
100
AcDbXrecord
280
     1
270
     1
271
     1
  0
XRECORD
  5
25
102
{ACAD_REACTORS
330
22
102
}
330
22
100
AcDbXrecord
280
     1
270
     1
271
     1
  0
XRECORD
  5
15D
102
{ACAD_REACTORS
330
15C
102
}
330
15C
100
AcDbXrecord
280
     1
102
ACAD_ROUNDTRIP_2012_MLEADER_STYLE
298
     1
  0
XRECORD
  5
15F
102
{ACAD_REACTORS
330
15E
102
}
330
15E
100
AcDbXrecord
280
     1
102
DISPLAYNAME
  1
Imperial24
102
FLAGS
 90
        0
  0
CELLSTYLEMAP
  5
12A
102
{ACAD_REACTORS
330
129
102
}
330
129
100
AcDbCellStyleMap
 90
        3
300
CELLSTYLE
  1
TABLEFORMAT_BEGIN
 90
        5
170
     1
 91
        0
 92
    32768
 62
   257
 93
        1
300
CONTENTFORMAT
  1
CONTENTFORMAT_BEGIN
 90
        0
 91
        0
 92
      512
 93
        0
300

 40
0.0
140
1.0
 94
        5
 62
     0
340
55
144
0.25
309
CONTENTFORMAT_END
171
     0
 94
        0
309
TABLEFORMAT_END
  1
CELLSTYLE_BEGIN
 90
        1
 91
        1
300
_TITLE
309
CELLSTYLE_END
300
CELLSTYLE
  1
TABLEFORMAT_BEGIN
 90
        5
170
     1
 91
        0
 92
        0
 62
   257
 93
        1
300
CONTENTFORMAT
  1
CONTENTFORMAT_BEGIN
 90
        0
 91
        0
 92
      512
 93
        0
300

 40
0.0
140
1.0
 94
        5
 62
     0
340
55
144
0.18
309
CONTENTFORMAT_END
171
     0
 94
        0
309
TABLEFORMAT_END
  1
CELLSTYLE_BEGIN
 90
        2
 91
        1
300
_HEADER
309
CELLSTYLE_END
300
CELLSTYLE
  1
TABLEFORMAT_BEGIN
 90
        5
170
     1
 91
        0
 92
        0
 62
   257
 93
        1
300
CONTENTFORMAT
  1
CONTENTFORMAT_BEGIN
 90
        0
 91
        0
 92
      512
 93
        0
300

 40
0.0
140
1.0
 94
        2
 62
     0
340
55
144
0.18
309
CONTENTFORMAT_END
171
     0
 94
        0
309
TABLEFORMAT_END
  1
CELLSTYLE_BEGIN
 90
        3
 91
        2
300
_DATA
309
CELLSTYLE_END
  0
XRECORD
  5
137
102
{ACAD_REACTORS
330
136
102
}
330
136
100
AcDbXrecord
280
     1
102
RTVSPost2010Prop28
280
     1
102
RTVSPost2010PropOp28
 70
     1
102
RTVSPost2010Prop29
280
     1
102
RTVSPost2010PropOp29
 70
     1
102
RTVSPost2010Prop30
280
     0
102
RTVSPost2010PropOp30
 70
     1
102
RTVSPost2010Prop31
280
     0
102
RTVSPost2010PropOp31
 70
     1
102
RTVSPost2010Prop32
280
     0
102
RTVSPost2010PropOp32
 70
     1
102
RTVSPost2010Prop33
280
     0
102
RTVSPost2010PropOp33
 70
     1
102
RTVSPost2010Prop34
280
     0
102
RTVSPost2010PropOp34
 70
     1
102
RTVSPost2010Prop35
280
     0
102
RTVSPost2010PropOp35
 70
     1
102
RTVSPost2010Prop36
280
     0
102
RTVSPost2010PropOp36
 70
     1
102
RTVSPost2010Prop37
 90
       50
102
RTVSPost2010PropOp37
 70
     1
102
RTVSPost2010Prop38
140
0.0
102
RTVSPost2010PropOp38
 70
     1
102
RTVSPost2010Prop39
140
1.0
102
RTVSPost2010PropOp39
 70
     1
102
RTVSPost2010Prop40
 90
        0
102
RTVSPost2010PropOp40
 70
     1
102
RTVSPost2010Prop41ColorIndex
 90
       18
102
RTVSPost2010Prop41ColorRGB
 90
        0
102
RTVSPost2010PropOp41
 70
     1
102
RTVSPost2010Prop42
 90
       50
102
RTVSPost2010PropOp42
 70
     1
102
RTVSPost2010Prop43
 90
        3
102
RTVSPost2010PropOp43
 70
     1
102
RTVSPost2010Prop44ColorIndex
 90
        5
102
RTVSPost2010Prop44ColorRGB
 90
      255
102
RTVSPost2010PropOp44
 70
     1
102
RTVSPost2010Prop45
280
     0
102
RTVSPost2010PropOp45
 70
     1
102
RTVSPost2010Prop46
 90
       50
102
RTVSPost2010PropOp46
 70
     1
102
RTVSPost2010Prop47
 90
       50
102
RTVSPost2010PropOp47
 70
     1
102
RTVSPost2010Prop48
 90
       50
102
RTVSPost2010PropOp48
 70
     1
102
RTVSPost2010Prop49
280
     0
102
RTVSPost2010PropOp49
 70
     1
102
RTVSPost2010Prop50
 90
       50
102
RTVSPost2010PropOp50
 70
     1
102
RTVSPost2010Prop51ColorIndex
 90
      256
102
RTVSPost2010Prop51ColorRGB
 90
-16777216
102
RTVSPost2010PropOp51
 70
     0
102
RTVSPost2010Prop52
140
1.0
102
RTVSPost2010PropOp52
 70
     0
102
RTVSPost2010Prop53
 90
        2
102
RTVSPost2010PropOp53
 70
     1
102
RTVSPost2010Prop54
  1
strokes_ogs.tif
102
RTVSPost2010PropOp54
 70
     1
102
RTVSPost2010Prop55
280
     0
102
RTVSPost2010PropOp55
 70
     1
102
RTVSPost2010Prop56
140
1.0
102
RTVSPost2010PropOp56
 70
     1
102
RTVSPost2010Prop57
140
1.0
102
RTVSPost2010PropOp57
 70
     1
  0
XRECORD
  5
135
102
{ACAD_REACTORS
330
134
102
}
330
134
100
AcDbXrecord
280
     1
102
RTVSPost2010Prop28
280
     0
102
RTVSPost2010PropOp28
 70
     1
102
RTVSPost2010Prop29
280
     1
102
RTVSPost2010PropOp29
 70
     1
102
RTVSPost2010Prop30
280
     1
102
RTVSPost2010PropOp30
 70
     1
102
RTVSPost2010Prop31
280
     0
102
RTVSPost2010PropOp31
 70
     1
102
RTVSPost2010Prop32
280
     0
102
RTVSPost2010PropOp32
 70
     1
102
RTVSPost2010Prop33
280
     0
102
RTVSPost2010PropOp33
 70
     1
102
RTVSPost2010Prop34
280
     0
102
RTVSPost2010PropOp34
 70
     1
102
RTVSPost2010Prop35
280
     0
102
RTVSPost2010PropOp35
 70
     1
102
RTVSPost2010Prop36
280
     0
102
RTVSPost2010PropOp36
 70
     1
102
RTVSPost2010Prop37
 90
       50
102
RTVSPost2010PropOp37
 70
     1
102
RTVSPost2010Prop38
140
0.0
102
RTVSPost2010PropOp38
 70
     1
102
RTVSPost2010Prop39
140
1.0
102
RTVSPost2010PropOp39
 70
     1
102
RTVSPost2010Prop40
 90
        0
102
RTVSPost2010PropOp40
 70
     1
102
RTVSPost2010Prop41ColorIndex
 90
       18
102
RTVSPost2010Prop41ColorRGB
 90
        0
102
RTVSPost2010PropOp41
 70
     1
102
RTVSPost2010Prop42
 90
       50
102
RTVSPost2010PropOp42
 70
     1
102
RTVSPost2010Prop43
 90
        3
102
RTVSPost2010PropOp43
 70
     1
102
RTVSPost2010Prop44ColorIndex
 90
        5
102
RTVSPost2010Prop44ColorRGB
 90
      255
102
RTVSPost2010PropOp44
 70
     1
102
RTVSPost2010Prop45
280
     0
102
RTVSPost2010PropOp45
 70
     1
102
RTVSPost2010Prop46
 90
       50
102
RTVSPost2010PropOp46
 70
     1
102
RTVSPost2010Prop47
 90
       50
102
RTVSPost2010PropOp47
 70
     1
102
RTVSPost2010Prop48
 90
       50
102
RTVSPost2010PropOp48
 70
     1
102
RTVSPost2010Prop49
280
     0
102
RTVSPost2010PropOp49
 70
     1
102
RTVSPost2010Prop50
 90
       50
102
RTVSPost2010PropOp50
 70
     1
102
RTVSPost2010Prop51ColorIndex
 90
      256
102
RTVSPost2010Prop51ColorRGB
 90
-16777216
102
RTVSPost2010PropOp51
 70
     0
102
RTVSPost2010Prop52
140
1.0
102
RTVSPost2010PropOp52
 70
     0
102
RTVSPost2010Prop53
 90
        2
102
RTVSPost2010PropOp53
 70
     1
102
RTVSPost2010Prop54
  1
strokes_ogs.tif
102
RTVSPost2010PropOp54
 70
     1
102
RTVSPost2010Prop55
280
     0
102
RTVSPost2010PropOp55
 70
     1
102
RTVSPost2010Prop56
140
1.0
102
RTVSPost2010PropOp56
 70
     1
102
RTVSPost2010Prop57
140
1.0
102
RTVSPost2010PropOp57
 70
     1
  0
XRECORD
  5
143
102
{ACAD_REACTORS
330
142
102
}
330
142
100
AcDbXrecord
280
     1
102
RTVSPost2010Prop28
280
     0
102
RTVSPost2010PropOp28
 70
     1
102
RTVSPost2010Prop29
280
     1
102
RTVSPost2010PropOp29
 70
     1
102
RTVSPost2010Prop30
280
     1
102
RTVSPost2010PropOp30
 70
     1
102
RTVSPost2010Prop31
280
     0
102
RTVSPost2010PropOp31
 70
     1
102
RTVSPost2010Prop32
280
     0
102
RTVSPost2010PropOp32
 70
     1
102
RTVSPost2010Prop33
280
     0
102
RTVSPost2010PropOp33
 70
     1
102
RTVSPost2010Prop34
280
     0
102
RTVSPost2010PropOp34
 70
     1
102
RTVSPost2010Prop35
280
     0
102
RTVSPost2010PropOp35
 70
     1
102
RTVSPost2010Prop36
280
     0
102
RTVSPost2010PropOp36
 70
     1
102
RTVSPost2010Prop37
 90
       50
102
RTVSPost2010PropOp37
 70
     1
102
RTVSPost2010Prop38
140
0.0
102
RTVSPost2010PropOp38
 70
     1
102
RTVSPost2010Prop39
140
1.0
102
RTVSPost2010PropOp39
 70
     1
102
RTVSPost2010Prop40
 90
        0
102
RTVSPost2010PropOp40
 70
     1
102
RTVSPost2010Prop41ColorIndex
 90
       18
102
RTVSPost2010Prop41ColorRGB
 90
        0
102
RTVSPost2010PropOp41
 70
     1
102
RTVSPost2010Prop42
 90
       50
102
RTVSPost2010PropOp42
 70
     1
102
RTVSPost2010Prop43
 90
        3
102
RTVSPost2010PropOp43
 70
     1
102
RTVSPost2010Prop44ColorIndex
 90
        5
102
RTVSPost2010Prop44ColorRGB
 90
      255
102
RTVSPost2010PropOp44
 70
     1
102
RTVSPost2010Prop45
280
     0
102
RTVSPost2010PropOp45
 70
     1
102
RTVSPost2010Prop46
 90
       50
102
RTVSPost2010PropOp46
 70
     1
102
RTVSPost2010Prop47
 90
       50
102
RTVSPost2010PropOp47
 70
     1
102
RTVSPost2010Prop48
 90
       50
102
RTVSPost2010PropOp48
 70
     1
102
RTVSPost2010Prop49
280
     0
102
RTVSPost2010PropOp49
 70
     1
102
RTVSPost2010Prop50
 90
       50
102
RTVSPost2010PropOp50
 70
     1
102
RTVSPost2010Prop51ColorIndex
 90
      256
102
RTVSPost2010Prop51ColorRGB
 90
-16777216
102
RTVSPost2010PropOp51
 70
     0
102
RTVSPost2010Prop52
140
1.0
102
RTVSPost2010PropOp52
 70
     0
102
RTVSPost2010Prop53
 90
        2
102
RTVSPost2010PropOp53
 70
     1
102
RTVSPost2010Prop54
  1
strokes_ogs.tif
102
RTVSPost2010PropOp54
 70
     1
102
RTVSPost2010Prop55
280
     0
102
RTVSPost2010PropOp55
 70
     1
102
RTVSPost2010Prop56
140
1.0
102
RTVSPost2010PropOp56
 70
     1
102
RTVSPost2010Prop57
140
1.0
102
RTVSPost2010PropOp57
 70
     1
  0
XRECORD
  5
14B
102
{ACAD_REACTORS
330
14A
102
}
330
14A
100
AcDbXrecord
280
     1
102
RTVSPost2010Prop28
280
     0
102
RTVSPost2010PropOp28
 70
     1
102
RTVSPost2010Prop29
280
     1
102
RTVSPost2010PropOp29
 70
     1
102
RTVSPost2010Prop30
280
     1
102
RTVSPost2010PropOp30
 70
     1
102
RTVSPost2010Prop31
280
     0
102
RTVSPost2010PropOp31
 70
     1
102
RTVSPost2010Prop32
280
     0
102
RTVSPost2010PropOp32
 70
     1
102
RTVSPost2010Prop33
280
     0
102
RTVSPost2010PropOp33
 70
     1
102
RTVSPost2010Prop34
280
     0
102
RTVSPost2010PropOp34
 70
     1
102
RTVSPost2010Prop35
280
     0
102
RTVSPost2010PropOp35
 70
     1
102
RTVSPost2010Prop36
280
     0
102
RTVSPost2010PropOp36
 70
     1
102
RTVSPost2010Prop37
 90
       50
102
RTVSPost2010PropOp37
 70
     1
102
RTVSPost2010Prop38
140
0.0
102
RTVSPost2010PropOp38
 70
     1
102
RTVSPost2010Prop39
140
1.0
102
RTVSPost2010PropOp39
 70
     1
102
RTVSPost2010Prop40
 90
        0
102
RTVSPost2010PropOp40
 70
     1
102
RTVSPost2010Prop41ColorIndex
 90
       18
102
RTVSPost2010Prop41ColorRGB
 90
        0
102
RTVSPost2010PropOp41
 70
     1
102
RTVSPost2010Prop42
 90
       50
102
RTVSPost2010PropOp42
 70
     1
102
RTVSPost2010Prop43
 90
        3
102
RTVSPost2010PropOp43
 70
     1
102
RTVSPost2010Prop44ColorIndex
 90
        5
102
RTVSPost2010Prop44ColorRGB
 90
      255
102
RTVSPost2010PropOp44
 70
     1
102
RTVSPost2010Prop45
280
     0
102
RTVSPost2010PropOp45
 70
     1
102
RTVSPost2010Prop46
 90
       50
102
RTVSPost2010PropOp46
 70
     1
102
RTVSPost2010Prop47
 90
       50
102
RTVSPost2010PropOp47
 70
     1
102
RTVSPost2010Prop48
 90
       50
102
RTVSPost2010PropOp48
 70
     1
102
RTVSPost2010Prop49
280
     0
102
RTVSPost2010PropOp49
 70
     1
102
RTVSPost2010Prop50
 90
       50
102
RTVSPost2010PropOp50
 70
     1
102
RTVSPost2010Prop51ColorIndex
 90
      256
102
RTVSPost2010Prop51ColorRGB
 90
-16777216
102
RTVSPost2010PropOp51
 70
     0
102
RTVSPost2010Prop52
140
1.0
102
RTVSPost2010PropOp52
 70
     0
102
RTVSPost2010Prop53
 90
        2
102
RTVSPost2010PropOp53
 70
     1
102
RTVSPost2010Prop54
  1
strokes_ogs.tif
102
RTVSPost2010PropOp54
 70
     1
102
RTVSPost2010Prop55
280
     0
102
RTVSPost2010PropOp55
 70
     1
102
RTVSPost2010Prop56
140
1.0
102
RTVSPost2010PropOp56
 70
     1
102
RTVSPost2010Prop57
140
1.0
102
RTVSPost2010PropOp57
 70
     1
  0
XRECORD
  5
13D
102
{ACAD_REACTORS
330
13C
102
}
330
13C
100
AcDbXrecord
280
     1
102
RTVSPost2010Prop28
280
     0
102
RTVSPost2010PropOp28
 70
     1
102
RTVSPost2010Prop29
280
     1
102
RTVSPost2010PropOp29
 70
     1
102
RTVSPost2010Prop30
280
     1
102
RTVSPost2010PropOp30
 70
     1
102
RTVSPost2010Prop31
280
     0
102
RTVSPost2010PropOp31
 70
     1
102
RTVSPost2010Prop32
280
     0
102
RTVSPost2010PropOp32
 70
     1
102
RTVSPost2010Prop33
280
     0
102
RTVSPost2010PropOp33
 70
     1
102
RTVSPost2010Prop34
280
     0
102
RTVSPost2010PropOp34
 70
     1
102
RTVSPost2010Prop35
280
     0
102
RTVSPost2010PropOp35
 70
     1
102
RTVSPost2010Prop36
280
     0
102
RTVSPost2010PropOp36
 70
     1
102
RTVSPost2010Prop37
 90
       50
102
RTVSPost2010PropOp37
 70
     1
102
RTVSPost2010Prop38
140
0.0
102
RTVSPost2010PropOp38
 70
     1
102
RTVSPost2010Prop39
140
1.0
102
RTVSPost2010PropOp39
 70
     1
102
RTVSPost2010Prop40
 90
        0
102
RTVSPost2010PropOp40
 70
     1
102
RTVSPost2010Prop41ColorIndex
 90
       18
102
RTVSPost2010Prop41ColorRGB
 90
        0
102
RTVSPost2010PropOp41
 70
     1
102
RTVSPost2010Prop42
 90
       50
102
RTVSPost2010PropOp42
 70
     1
102
RTVSPost2010Prop43
 90
        3
102
RTVSPost2010PropOp43
 70
     1
102
RTVSPost2010Prop44ColorIndex
 90
        5
102
RTVSPost2010Prop44ColorRGB
 90
      255
102
RTVSPost2010PropOp44
 70
     1
102
RTVSPost2010Prop45
280
     0
102
RTVSPost2010PropOp45
 70
     1
102
RTVSPost2010Prop46
 90
       50
102
RTVSPost2010PropOp46
 70
     1
102
RTVSPost2010Prop47
 90
       50
102
RTVSPost2010PropOp47
 70
     1
102
RTVSPost2010Prop48
 90
       50
102
RTVSPost2010PropOp48
 70
     1
102
RTVSPost2010Prop49
280
     0
102
RTVSPost2010PropOp49
 70
     1
102
RTVSPost2010Prop50
 90
       50
102
RTVSPost2010PropOp50
 70
     1
102
RTVSPost2010Prop51ColorIndex
 90
      256
102
RTVSPost2010Prop51ColorRGB
 90
-16777216
102
RTVSPost2010PropOp51
 70
     0
102
RTVSPost2010Prop52
140
1.0
102
RTVSPost2010PropOp52
 70
     0
102
RTVSPost2010Prop53
 90
        2
102
RTVSPost2010PropOp53
 70
     1
102
RTVSPost2010Prop54
  1
strokes_ogs.tif
102
RTVSPost2010PropOp54
 70
     1
102
RTVSPost2010Prop55
280
     0
102
RTVSPost2010PropOp55
 70
     1
102
RTVSPost2010Prop56
140
1.0
102
RTVSPost2010PropOp56
 70
     1
102
RTVSPost2010Prop57
140
1.0
102
RTVSPost2010PropOp57
 70
     1
  0
XRECORD
  5
141
102
{ACAD_REACTORS
330
140
102
}
330
140
100
AcDbXrecord
280
     1
102
RTVSPost2010Prop28
280
     0
102
RTVSPost2010PropOp28
 70
     1
102
RTVSPost2010Prop29
280
     1
102
RTVSPost2010PropOp29
 70
     1
102
RTVSPost2010Prop30
280
     1
102
RTVSPost2010PropOp30
 70
     1
102
RTVSPost2010Prop31
280
     0
102
RTVSPost2010PropOp31
 70
     1
102
RTVSPost2010Prop32
280
     0
102
RTVSPost2010PropOp32
 70
     1
102
RTVSPost2010Prop33
280
     0
102
RTVSPost2010PropOp33
 70
     1
102
RTVSPost2010Prop34
280
     0
102
RTVSPost2010PropOp34
 70
     1
102
RTVSPost2010Prop35
280
     0
102
RTVSPost2010PropOp35
 70
     1
102
RTVSPost2010Prop36
280
     0
102
RTVSPost2010PropOp36
 70
     1
102
RTVSPost2010Prop37
 90
       50
102
RTVSPost2010PropOp37
 70
     1
102
RTVSPost2010Prop38
140
0.0
102
RTVSPost2010PropOp38
 70
     1
102
RTVSPost2010Prop39
140
1.0
102
RTVSPost2010PropOp39
 70
     1
102
RTVSPost2010Prop40
 90
        0
102
RTVSPost2010PropOp40
 70
     1
102
RTVSPost2010Prop41ColorIndex
 90
       18
102
RTVSPost2010Prop41ColorRGB
 90
        0
102
RTVSPost2010PropOp41
 70
     1
102
RTVSPost2010Prop42
 90
       50
102
RTVSPost2010PropOp42
 70
     1
102
RTVSPost2010Prop43
 90
        3
102
RTVSPost2010PropOp43
 70
     1
102
RTVSPost2010Prop44ColorIndex
 90
        5
102
RTVSPost2010Prop44ColorRGB
 90
      255
102
RTVSPost2010PropOp44
 70
     1
102
RTVSPost2010Prop45
280
     0
102
RTVSPost2010PropOp45
 70
     1
102
RTVSPost2010Prop46
 90
       50
102
RTVSPost2010PropOp46
 70
     1
102
RTVSPost2010Prop47
 90
       50
102
RTVSPost2010PropOp47
 70
     1
102
RTVSPost2010Prop48
 90
       50
102
RTVSPost2010PropOp48
 70
     1
102
RTVSPost2010Prop49
280
     0
102
RTVSPost2010PropOp49
 70
     1
102
RTVSPost2010Prop50
 90
       50
102
RTVSPost2010PropOp50
 70
     1
102
RTVSPost2010Prop51ColorIndex
 90
      256
102
RTVSPost2010Prop51ColorRGB
 90
-16777216
102
RTVSPost2010PropOp51
 70
     0
102
RTVSPost2010Prop52
140
1.0
102
RTVSPost2010PropOp52
 70
     0
102
RTVSPost2010Prop53
 90
        2
102
RTVSPost2010PropOp53
 70
     1
102
RTVSPost2010Prop54
  1
strokes_ogs.tif
102
RTVSPost2010PropOp54
 70
     1
102
RTVSPost2010Prop55
280
     0
102
RTVSPost2010PropOp55
 70
     1
102
RTVSPost2010Prop56
140
1.0
102
RTVSPost2010PropOp56
 70
     1
102
RTVSPost2010Prop57
140
1.0
102
RTVSPost2010PropOp57
 70
     1
  0
XRECORD
  5
15B
102
{ACAD_REACTORS
330
15A
102
}
330
15A
100
AcDbXrecord
280
     1
102
RTVSPost2010Prop28
280
     0
102
RTVSPost2010PropOp28
 70
     0
102
RTVSPost2010Prop29
280
     1
102
RTVSPost2010PropOp29
 70
     0
102
RTVSPost2010Prop30
280
     1
102
RTVSPost2010PropOp30
 70
     0
102
RTVSPost2010Prop31
280
     0
102
RTVSPost2010PropOp31
 70
     0
102
RTVSPost2010Prop32
280
     0
102
RTVSPost2010PropOp32
 70
     0
102
RTVSPost2010Prop33
280
     0
102
RTVSPost2010PropOp33
 70
     0
102
RTVSPost2010Prop34
280
     0
102
RTVSPost2010PropOp34
 70
     0
102
RTVSPost2010Prop35
280
     0
102
RTVSPost2010PropOp35
 70
     0
102
RTVSPost2010Prop36
280
     0
102
RTVSPost2010PropOp36
 70
     0
102
RTVSPost2010Prop37
 90
       50
102
RTVSPost2010PropOp37
 70
     0
102
RTVSPost2010Prop38
140
0.0
102
RTVSPost2010PropOp38
 70
     0
102
RTVSPost2010Prop39
140
1.0
102
RTVSPost2010PropOp39
 70
     0
102
RTVSPost2010Prop40
 90
        0
102
RTVSPost2010PropOp40
 70
     0
102
RTVSPost2010Prop41ColorIndex
 90
       18
102
RTVSPost2010Prop41ColorRGB
 90
        0
102
RTVSPost2010PropOp41
 70
     0
102
RTVSPost2010Prop42
 90
       50
102
RTVSPost2010PropOp42
 70
     0
102
RTVSPost2010Prop43
 90
        3
102
RTVSPost2010PropOp43
 70
     0
102
RTVSPost2010Prop44ColorIndex
 90
        5
102
RTVSPost2010Prop44ColorRGB
 90
      255
102
RTVSPost2010PropOp44
 70
     0
102
RTVSPost2010Prop45
280
     0
102
RTVSPost2010PropOp45
 70
     0
102
RTVSPost2010Prop46
 90
       50
102
RTVSPost2010PropOp46
 70
     0
102
RTVSPost2010Prop47
 90
       50
102
RTVSPost2010PropOp47
 70
     0
102
RTVSPost2010Prop48
 90
       50
102
RTVSPost2010PropOp48
 70
     0
102
RTVSPost2010Prop49
280
     0
102
RTVSPost2010PropOp49
 70
     0
102
RTVSPost2010Prop50
 90
       50
102
RTVSPost2010PropOp50
 70
     0
102
RTVSPost2010Prop51ColorIndex
 90
      256
102
RTVSPost2010Prop51ColorRGB
 90
-16777216
102
RTVSPost2010PropOp51
 70
     0
102
RTVSPost2010Prop52
140
1.0
102
RTVSPost2010PropOp52
 70
     0
102
RTVSPost2010Prop53
 90
        2
102
RTVSPost2010PropOp53
 70
     0
102
RTVSPost2010Prop54
  1
strokes_ogs.tif
102
RTVSPost2010PropOp54
 70
     0
102
RTVSPost2010Prop55
280
     0
102
RTVSPost2010PropOp55
 70
     0
102
RTVSPost2010Prop56
140
1.0
102
RTVSPost2010PropOp56
 70
     0
102
RTVSPost2010Prop57
140
1.0
102
RTVSPost2010PropOp57
 70
     0
  0
XRECORD
  5
149
102
{ACAD_REACTORS
330
148
102
}
330
148
100
AcDbXrecord
280
     1
102
RTVSPost2010Prop28
280
     0
102
RTVSPost2010PropOp28
 70
     1
102
RTVSPost2010Prop29
280
     1
102
RTVSPost2010PropOp29
 70
     1
102
RTVSPost2010Prop30
280
     1
102
RTVSPost2010PropOp30
 70
     1
102
RTVSPost2010Prop31
280
     0
102
RTVSPost2010PropOp31
 70
     1
102
RTVSPost2010Prop32
280
     0
102
RTVSPost2010PropOp32
 70
     1
102
RTVSPost2010Prop33
280
     0
102
RTVSPost2010PropOp33
 70
     1
102
RTVSPost2010Prop34
280
     0
102
RTVSPost2010PropOp34
 70
     1
102
RTVSPost2010Prop35
280
     0
102
RTVSPost2010PropOp35
 70
     1
102
RTVSPost2010Prop36
280
     0
102
RTVSPost2010PropOp36
 70
     1
102
RTVSPost2010Prop37
 90
       50
102
RTVSPost2010PropOp37
 70
     1
102
RTVSPost2010Prop38
140
0.0
102
RTVSPost2010PropOp38
 70
     1
102
RTVSPost2010Prop39
140
1.0
102
RTVSPost2010PropOp39
 70
     1
102
RTVSPost2010Prop40
 90
        0
102
RTVSPost2010PropOp40
 70
     1
102
RTVSPost2010Prop41ColorIndex
 90
       18
102
RTVSPost2010Prop41ColorRGB
 90
        0
102
RTVSPost2010PropOp41
 70
     1
102
RTVSPost2010Prop42
 90
       50
102
RTVSPost2010PropOp42
 70
     1
102
RTVSPost2010Prop43
 90
        3
102
RTVSPost2010PropOp43
 70
     1
102
RTVSPost2010Prop44ColorIndex
 90
        5
102
RTVSPost2010Prop44ColorRGB
 90
      255
102
RTVSPost2010PropOp44
 70
     1
102
RTVSPost2010Prop45
280
     0
102
RTVSPost2010PropOp45
 70
     1
102
RTVSPost2010Prop46
 90
       50
102
RTVSPost2010PropOp46
 70
     1
102
RTVSPost2010Prop47
 90
       50
102
RTVSPost2010PropOp47
 70
     1
102
RTVSPost2010Prop48
 90
       50
102
RTVSPost2010PropOp48
 70
     1
102
RTVSPost2010Prop49
280
     0
102
RTVSPost2010PropOp49
 70
     1
102
RTVSPost2010Prop50
 90
       50
102
RTVSPost2010PropOp50
 70
     1
102
RTVSPost2010Prop51ColorIndex
 90
      256
102
RTVSPost2010Prop51ColorRGB
 90
-16777216
102
RTVSPost2010PropOp51
 70
     0
102
RTVSPost2010Prop52
140
1.0
102
RTVSPost2010PropOp52
 70
     0
102
RTVSPost2010Prop53
 90
        2
102
RTVSPost2010PropOp53
 70
     1
102
RTVSPost2010Prop54
  1
strokes_ogs.tif
102
RTVSPost2010PropOp54
 70
     1
102
RTVSPost2010Prop55
280
     0
102
RTVSPost2010PropOp55
 70
     1
102
RTVSPost2010Prop56
140
1.0
102
RTVSPost2010PropOp56
 70
     1
102
RTVSPost2010Prop57
140
1.0
102
RTVSPost2010PropOp57
 70
     1
  0
XRECORD
  5
12D
102
{ACAD_REACTORS
330
12C
102
}
330
12C
100
AcDbXrecord
280
     1
102
RTVSPost2010Prop28
280
     0
102
RTVSPost2010PropOp28
 70
     1
102
RTVSPost2010Prop29
280
     1
102
RTVSPost2010PropOp29
 70
     1
102
RTVSPost2010Prop30
280
     1
102
RTVSPost2010PropOp30
 70
     1
102
RTVSPost2010Prop31
280
     0
102
RTVSPost2010PropOp31
 70
     1
102
RTVSPost2010Prop32
280
     0
102
RTVSPost2010PropOp32
 70
     1
102
RTVSPost2010Prop33
280
     0
102
RTVSPost2010PropOp33
 70
     1
102
RTVSPost2010Prop34
280
     0
102
RTVSPost2010PropOp34
 70
     1
102
RTVSPost2010Prop35
280
     0
102
RTVSPost2010PropOp35
 70
     1
102
RTVSPost2010Prop36
280
     0
102
RTVSPost2010PropOp36
 70
     1
102
RTVSPost2010Prop37
 90
       50
102
RTVSPost2010PropOp37
 70
     1
102
RTVSPost2010Prop38
140
0.0
102
RTVSPost2010PropOp38
 70
     1
102
RTVSPost2010Prop39
140
1.0
102
RTVSPost2010PropOp39
 70
     1
102
RTVSPost2010Prop40
 90
        0
102
RTVSPost2010PropOp40
 70
     1
102
RTVSPost2010Prop41ColorIndex
 90
       18
102
RTVSPost2010Prop41ColorRGB
 90
        0
102
RTVSPost2010PropOp41
 70
     1
102
RTVSPost2010Prop42
 90
       50
102
RTVSPost2010PropOp42
 70
     1
102
RTVSPost2010Prop43
 90
        3
102
RTVSPost2010PropOp43
 70
     1
102
RTVSPost2010Prop44ColorIndex
 90
        5
102
RTVSPost2010Prop44ColorRGB
 90
      255
102
RTVSPost2010PropOp44
 70
     1
102
RTVSPost2010Prop45
280
     0
102
RTVSPost2010PropOp45
 70
     1
102
RTVSPost2010Prop46
 90
       50
102
RTVSPost2010PropOp46
 70
     1
102
RTVSPost2010Prop47
 90
       50
102
RTVSPost2010PropOp47
 70
     1
102
RTVSPost2010Prop48
 90
       50
102
RTVSPost2010PropOp48
 70
     1
102
RTVSPost2010Prop49
280
     0
102
RTVSPost2010PropOp49
 70
     1
102
RTVSPost2010Prop50
 90
       50
102
RTVSPost2010PropOp50
 70
     1
102
RTVSPost2010Prop51ColorIndex
 90
      256
102
RTVSPost2010Prop51ColorRGB
 90
-16777216
102
RTVSPost2010PropOp51
 70
     0
102
RTVSPost2010Prop52
140
1.0
102
RTVSPost2010PropOp52
 70
     0
102
RTVSPost2010Prop53
 90
        2
102
RTVSPost2010PropOp53
 70
     1
102
RTVSPost2010Prop54
  1
strokes_ogs.tif
102
RTVSPost2010PropOp54
 70
     1
102
RTVSPost2010Prop55
280
     0
102
RTVSPost2010PropOp55
 70
     1
102
RTVSPost2010Prop56
140
1.0
102
RTVSPost2010PropOp56
 70
     1
102
RTVSPost2010Prop57
140
1.0
102
RTVSPost2010PropOp57
 70
     1
  0
XRECORD
  5
12F
102
{ACAD_REACTORS
330
12E
102
}
330
12E
100
AcDbXrecord
280
     1
102
RTVSPost2010Prop28
280
     0
102
RTVSPost2010PropOp28
 70
     1
102
RTVSPost2010Prop29
280
     1
102
RTVSPost2010PropOp29
 70
     1
102
RTVSPost2010Prop30
280
     1
102
RTVSPost2010PropOp30
 70
     1
102
RTVSPost2010Prop31
280
     0
102
RTVSPost2010PropOp31
 70
     1
102
RTVSPost2010Prop32
280
     0
102
RTVSPost2010PropOp32
 70
     1
102
RTVSPost2010Prop33
280
     0
102
RTVSPost2010PropOp33
 70
     1
102
RTVSPost2010Prop34
280
     0
102
RTVSPost2010PropOp34
 70
     1
102
RTVSPost2010Prop35
280
     0
102
RTVSPost2010PropOp35
 70
     1
102
RTVSPost2010Prop36
280
     0
102
RTVSPost2010PropOp36
 70
     1
102
RTVSPost2010Prop37
 90
       50
102
RTVSPost2010PropOp37
 70
     1
102
RTVSPost2010Prop38
140
0.0
102
RTVSPost2010PropOp38
 70
     1
102
RTVSPost2010Prop39
140
1.0
102
RTVSPost2010PropOp39
 70
     1
102
RTVSPost2010Prop40
 90
        0
102
RTVSPost2010PropOp40
 70
     1
102
RTVSPost2010Prop41ColorIndex
 90
       18
102
RTVSPost2010Prop41ColorRGB
 90
        0
102
RTVSPost2010PropOp41
 70
     1
102
RTVSPost2010Prop42
 90
       50
102
RTVSPost2010PropOp42
 70
     1
102
RTVSPost2010Prop43
 90
        3
102
RTVSPost2010PropOp43
 70
     1
102
RTVSPost2010Prop44ColorIndex
 90
        5
102
RTVSPost2010Prop44ColorRGB
 90
      255
102
RTVSPost2010PropOp44
 70
     1
102
RTVSPost2010Prop45
280
     0
102
RTVSPost2010PropOp45
 70
     1
102
RTVSPost2010Prop46
 90
       50
102
RTVSPost2010PropOp46
 70
     1
102
RTVSPost2010Prop47
 90
       50
102
RTVSPost2010PropOp47
 70
     1
102
RTVSPost2010Prop48
 90
       50
102
RTVSPost2010PropOp48
 70
     1
102
RTVSPost2010Prop49
280
     0
102
RTVSPost2010PropOp49
 70
     1
102
RTVSPost2010Prop50
 90
       50
102
RTVSPost2010PropOp50
 70
     1
102
RTVSPost2010Prop51ColorIndex
 90
      256
102
RTVSPost2010Prop51ColorRGB
 90
-16777216
102
RTVSPost2010PropOp51
 70
     0
102
RTVSPost2010Prop52
140
1.0
102
RTVSPost2010PropOp52
 70
     0
102
RTVSPost2010Prop53
 90
        2
102
RTVSPost2010PropOp53
 70
     1
102
RTVSPost2010Prop54
  1
strokes_ogs.tif
102
RTVSPost2010PropOp54
 70
     1
102
RTVSPost2010Prop55
280
     0
102
RTVSPost2010PropOp55
 70
     1
102
RTVSPost2010Prop56
140
1.0
102
RTVSPost2010PropOp56
 70
     1
102
RTVSPost2010Prop57
140
1.0
102
RTVSPost2010PropOp57
 70
     1
  0
XRECORD
  5
131
102
{ACAD_REACTORS
330
130
102
}
330
130
100
AcDbXrecord
280
     1
102
RTVSPost2010Prop28
280
     0
102
RTVSPost2010PropOp28
 70
     1
102
RTVSPost2010Prop29
280
     1
102
RTVSPost2010PropOp29
 70
     1
102
RTVSPost2010Prop30
280
     1
102
RTVSPost2010PropOp30
 70
     1
102
RTVSPost2010Prop31
280
     0
102
RTVSPost2010PropOp31
 70
     1
102
RTVSPost2010Prop32
280
     0
102
RTVSPost2010PropOp32
 70
     1
102
RTVSPost2010Prop33
280
     0
102
RTVSPost2010PropOp33
 70
     1
102
RTVSPost2010Prop34
280
     0
102
RTVSPost2010PropOp34
 70
     1
102
RTVSPost2010Prop35
280
     0
102
RTVSPost2010PropOp35
 70
     1
102
RTVSPost2010Prop36
280
     0
102
RTVSPost2010PropOp36
 70
     1
102
RTVSPost2010Prop37
 90
       50
102
RTVSPost2010PropOp37
 70
     1
102
RTVSPost2010Prop38
140
0.0
102
RTVSPost2010PropOp38
 70
     1
102
RTVSPost2010Prop39
140
1.0
102
RTVSPost2010PropOp39
 70
     1
102
RTVSPost2010Prop40
 90
        0
102
RTVSPost2010PropOp40
 70
     1
102
RTVSPost2010Prop41ColorIndex
 90
       18
102
RTVSPost2010Prop41ColorRGB
 90
        0
102
RTVSPost2010PropOp41
 70
     1
102
RTVSPost2010Prop42
 90
       50
102
RTVSPost2010PropOp42
 70
     1
102
RTVSPost2010Prop43
 90
        3
102
RTVSPost2010PropOp43
 70
     1
102
RTVSPost2010Prop44ColorIndex
 90
        5
102
RTVSPost2010Prop44ColorRGB
 90
      255
102
RTVSPost2010PropOp44
 70
     1
102
RTVSPost2010Prop45
280
     0
102
RTVSPost2010PropOp45
 70
     1
102
RTVSPost2010Prop46
 90
       50
102
RTVSPost2010PropOp46
 70
     1
102
RTVSPost2010Prop47
 90
       50
102
RTVSPost2010PropOp47
 70
     1
102
RTVSPost2010Prop48
 90
       50
102
RTVSPost2010PropOp48
 70
     1
102
RTVSPost2010Prop49
280
     0
102
RTVSPost2010PropOp49
 70
     1
102
RTVSPost2010Prop50
 90
       50
102
RTVSPost2010PropOp50
 70
     1
102
RTVSPost2010Prop51ColorIndex
 90
      256
102
RTVSPost2010Prop51ColorRGB
 90
-16777216
102
RTVSPost2010PropOp51
 70
     0
102
RTVSPost2010Prop52
140
1.0
102
RTVSPost2010PropOp52
 70
     0
102
RTVSPost2010Prop53
 90
        2
102
RTVSPost2010PropOp53
 70
     1
102
RTVSPost2010Prop54
  1
strokes_ogs.tif
102
RTVSPost2010PropOp54
 70
     1
102
RTVSPost2010Prop55
280
     0
102
RTVSPost2010PropOp55
 70
     1
102
RTVSPost2010Prop56
140
1.0
102
RTVSPost2010PropOp56
 70
     1
102
RTVSPost2010Prop57
140
1.0
102
RTVSPost2010PropOp57
 70
     1
  0
XRECORD
  5
133
102
{ACAD_REACTORS
330
132
102
}
330
132
100
AcDbXrecord
280
     1
102
RTVSPost2010Prop28
280
     0
102
RTVSPost2010PropOp28
 70
     1
102
RTVSPost2010Prop29
280
     1
102
RTVSPost2010PropOp29
 70
     1
102
RTVSPost2010Prop30
280
     1
102
RTVSPost2010PropOp30
 70
     1
102
RTVSPost2010Prop31
280
     0
102
RTVSPost2010PropOp31
 70
     1
102
RTVSPost2010Prop32
280
     0
102
RTVSPost2010PropOp32
 70
     1
102
RTVSPost2010Prop33
280
     0
102
RTVSPost2010PropOp33
 70
     1
102
RTVSPost2010Prop34
280
     0
102
RTVSPost2010PropOp34
 70
     1
102
RTVSPost2010Prop35
280
     0
102
RTVSPost2010PropOp35
 70
     1
102
RTVSPost2010Prop36
280
     0
102
RTVSPost2010PropOp36
 70
     1
102
RTVSPost2010Prop37
 90
       50
102
RTVSPost2010PropOp37
 70
     1
102
RTVSPost2010Prop38
140
0.0
102
RTVSPost2010PropOp38
 70
     1
102
RTVSPost2010Prop39
140
1.0
102
RTVSPost2010PropOp39
 70
     1
102
RTVSPost2010Prop40
 90
        0
102
RTVSPost2010PropOp40
 70
     1
102
RTVSPost2010Prop41ColorIndex
 90
       18
102
RTVSPost2010Prop41ColorRGB
 90
        0
102
RTVSPost2010PropOp41
 70
     1
102
RTVSPost2010Prop42
 90
       50
102
RTVSPost2010PropOp42
 70
     1
102
RTVSPost2010Prop43
 90
        3
102
RTVSPost2010PropOp43
 70
     1
102
RTVSPost2010Prop44ColorIndex
 90
        5
102
RTVSPost2010Prop44ColorRGB
 90
      255
102
RTVSPost2010PropOp44
 70
     1
102
RTVSPost2010Prop45
280
     0
102
RTVSPost2010PropOp45
 70
     1
102
RTVSPost2010Prop46
 90
       50
102
RTVSPost2010PropOp46
 70
     1
102
RTVSPost2010Prop47
 90
       50
102
RTVSPost2010PropOp47
 70
     1
102
RTVSPost2010Prop48
 90
       50
102
RTVSPost2010PropOp48
 70
     1
102
RTVSPost2010Prop49
280
     0
102
RTVSPost2010PropOp49
 70
     1
102
RTVSPost2010Prop50
 90
       50
102
RTVSPost2010PropOp50
 70
     1
102
RTVSPost2010Prop51ColorIndex
 90
      256
102
RTVSPost2010Prop51ColorRGB
 90
-16777216
102
RTVSPost2010PropOp51
 70
     0
102
RTVSPost2010Prop52
140
1.0
102
RTVSPost2010PropOp52
 70
     0
102
RTVSPost2010Prop53
 90
        2
102
RTVSPost2010PropOp53
 70
     1
102
RTVSPost2010Prop54
  1
strokes_ogs.tif
102
RTVSPost2010PropOp54
 70
     1
102
RTVSPost2010Prop55
280
     0
102
RTVSPost2010PropOp55
 70
     1
102
RTVSPost2010Prop56
140
1.0
102
RTVSPost2010PropOp56
 70
     1
102
RTVSPost2010Prop57
140
1.0
102
RTVSPost2010PropOp57
 70
     1
  0
XRECORD
  5
13B
102
{ACAD_REACTORS
330
13A
102
}
330
13A
100
AcDbXrecord
280
     1
102
RTVSPost2010Prop28
280
     0
102
RTVSPost2010PropOp28
 70
     1
102
RTVSPost2010Prop29
280
     1
102
RTVSPost2010PropOp29
 70
     1
102
RTVSPost2010Prop30
280
     1
102
RTVSPost2010PropOp30
 70
     1
102
RTVSPost2010Prop31
280
     0
102
RTVSPost2010PropOp31
 70
     1
102
RTVSPost2010Prop32
280
     0
102
RTVSPost2010PropOp32
 70
     1
102
RTVSPost2010Prop33
280
     0
102
RTVSPost2010PropOp33
 70
     1
102
RTVSPost2010Prop34
280
     0
102
RTVSPost2010PropOp34
 70
     1
102
RTVSPost2010Prop35
280
     0
102
RTVSPost2010PropOp35
 70
     1
102
RTVSPost2010Prop36
280
     0
102
RTVSPost2010PropOp36
 70
     1
102
RTVSPost2010Prop37
 90
       50
102
RTVSPost2010PropOp37
 70
     1
102
RTVSPost2010Prop38
140
0.0
102
RTVSPost2010PropOp38
 70
     1
102
RTVSPost2010Prop39
140
1.0
102
RTVSPost2010PropOp39
 70
     1
102
RTVSPost2010Prop40
 90
        0
102
RTVSPost2010PropOp40
 70
     1
102
RTVSPost2010Prop41ColorIndex
 90
       18
102
RTVSPost2010Prop41ColorRGB
 90
        0
102
RTVSPost2010PropOp41
 70
     1
102
RTVSPost2010Prop42
 90
       50
102
RTVSPost2010PropOp42
 70
     1
102
RTVSPost2010Prop43
 90
        3
102
RTVSPost2010PropOp43
 70
     1
102
RTVSPost2010Prop44ColorIndex
 90
        5
102
RTVSPost2010Prop44ColorRGB
 90
      255
102
RTVSPost2010PropOp44
 70
     1
102
RTVSPost2010Prop45
280
     0
102
RTVSPost2010PropOp45
 70
     1
102
RTVSPost2010Prop46
 90
       50
102
RTVSPost2010PropOp46
 70
     1
102
RTVSPost2010Prop47
 90
       50
102
RTVSPost2010PropOp47
 70
     1
102
RTVSPost2010Prop48
 90
       50
102
RTVSPost2010PropOp48
 70
     1
102
RTVSPost2010Prop49
280
     0
102
RTVSPost2010PropOp49
 70
     1
102
RTVSPost2010Prop50
 90
       50
102
RTVSPost2010PropOp50
 70
     1
102
RTVSPost2010Prop51ColorIndex
 90
      256
102
RTVSPost2010Prop51ColorRGB
 90
-16777216
102
RTVSPost2010PropOp51
 70
     0
102
RTVSPost2010Prop52
140
1.0
102
RTVSPost2010PropOp52
 70
     0
102
RTVSPost2010Prop53
 90
        2
102
RTVSPost2010PropOp53
 70
     1
102
RTVSPost2010Prop54
  1
strokes_ogs.tif
102
RTVSPost2010PropOp54
 70
     1
102
RTVSPost2010Prop55
280
     0
102
RTVSPost2010PropOp55
 70
     1
102
RTVSPost2010Prop56
140
1.0
102
RTVSPost2010PropOp56
 70
     1
102
RTVSPost2010Prop57
140
1.0
102
RTVSPost2010PropOp57
 70
     1
  0
XRECORD
  5
157
102
{ACAD_REACTORS
330
156
102
}
330
156
100
AcDbXrecord
280
     1
102
RTVSPost2010Prop28
280
     0
102
RTVSPost2010PropOp28
 70
     0
102
RTVSPost2010Prop29
280
     1
102
RTVSPost2010PropOp29
 70
     0
102
RTVSPost2010Prop30
280
     1
102
RTVSPost2010PropOp30
 70
     0
102
RTVSPost2010Prop31
280
     0
102
RTVSPost2010PropOp31
 70
     0
102
RTVSPost2010Prop32
280
     0
102
RTVSPost2010PropOp32
 70
     0
102
RTVSPost2010Prop33
280
     0
102
RTVSPost2010PropOp33
 70
     0
102
RTVSPost2010Prop34
280
     0
102
RTVSPost2010PropOp34
 70
     0
102
RTVSPost2010Prop35
280
     0
102
RTVSPost2010PropOp35
 70
     0
102
RTVSPost2010Prop36
280
     0
102
RTVSPost2010PropOp36
 70
     0
102
RTVSPost2010Prop37
 90
       50
102
RTVSPost2010PropOp37
 70
     0
102
RTVSPost2010Prop38
140
0.0
102
RTVSPost2010PropOp38
 70
     0
102
RTVSPost2010Prop39
140
1.0
102
RTVSPost2010PropOp39
 70
     0
102
RTVSPost2010Prop40
 90
        0
102
RTVSPost2010PropOp40
 70
     0
102
RTVSPost2010Prop41ColorIndex
 90
       18
102
RTVSPost2010Prop41ColorRGB
 90
        0
102
RTVSPost2010PropOp41
 70
     0
102
RTVSPost2010Prop42
 90
       50
102
RTVSPost2010PropOp42
 70
     0
102
RTVSPost2010Prop43
 90
        3
102
RTVSPost2010PropOp43
 70
     0
102
RTVSPost2010Prop44ColorIndex
 90
        5
102
RTVSPost2010Prop44ColorRGB
 90
      255
102
RTVSPost2010PropOp44
 70
     0
102
RTVSPost2010Prop45
280
     0
102
RTVSPost2010PropOp45
 70
     0
102
RTVSPost2010Prop46
 90
       50
102
RTVSPost2010PropOp46
 70
     0
102
RTVSPost2010Prop47
 90
       50
102
RTVSPost2010PropOp47
 70
     0
102
RTVSPost2010Prop48
 90
       50
102
RTVSPost2010PropOp48
 70
     0
102
RTVSPost2010Prop49
280
     0
102
RTVSPost2010PropOp49
 70
     0
102
RTVSPost2010Prop50
 90
       50
102
RTVSPost2010PropOp50
 70
     0
102
RTVSPost2010Prop51ColorIndex
 90
      256
102
RTVSPost2010Prop51ColorRGB
 90
-16777216
102
RTVSPost2010PropOp51
 70
     0
102
RTVSPost2010Prop52
140
1.0
102
RTVSPost2010PropOp52
 70
     0
102
RTVSPost2010Prop53
 90
        2
102
RTVSPost2010PropOp53
 70
     0
102
RTVSPost2010Prop54
  1
strokes_ogs.tif
102
RTVSPost2010PropOp54
 70
     0
102
RTVSPost2010Prop55
280
     0
102
RTVSPost2010PropOp55
 70
     0
102
RTVSPost2010Prop56
140
1.0
102
RTVSPost2010PropOp56
 70
     0
102
RTVSPost2010Prop57
140
1.0
102
RTVSPost2010PropOp57
 70
     0
  0
XRECORD
  5
147
102
{ACAD_REACTORS
330
146
102
}
330
146
100
AcDbXrecord
280
     1
102
RTVSPost2010Prop28
280
     0
102
RTVSPost2010PropOp28
 70
     1
102
RTVSPost2010Prop29
280
     1
102
RTVSPost2010PropOp29
 70
     1
102
RTVSPost2010Prop30
280
     1
102
RTVSPost2010PropOp30
 70
     1
102
RTVSPost2010Prop31
280
     0
102
RTVSPost2010PropOp31
 70
     1
102
RTVSPost2010Prop32
280
     0
102
RTVSPost2010PropOp32
 70
     1
102
RTVSPost2010Prop33
280
     0
102
RTVSPost2010PropOp33
 70
     1
102
RTVSPost2010Prop34
280
     0
102
RTVSPost2010PropOp34
 70
     1
102
RTVSPost2010Prop35
280
     0
102
RTVSPost2010PropOp35
 70
     1
102
RTVSPost2010Prop36
280
     0
102
RTVSPost2010PropOp36
 70
     1
102
RTVSPost2010Prop37
 90
       50
102
RTVSPost2010PropOp37
 70
     1
102
RTVSPost2010Prop38
140
0.0
102
RTVSPost2010PropOp38
 70
     1
102
RTVSPost2010Prop39
140
1.0
102
RTVSPost2010PropOp39
 70
     1
102
RTVSPost2010Prop40
 90
        0
102
RTVSPost2010PropOp40
 70
     1
102
RTVSPost2010Prop41ColorIndex
 90
       18
102
RTVSPost2010Prop41ColorRGB
 90
        0
102
RTVSPost2010PropOp41
 70
     1
102
RTVSPost2010Prop42
 90
       50
102
RTVSPost2010PropOp42
 70
     1
102
RTVSPost2010Prop43
 90
        3
102
RTVSPost2010PropOp43
 70
     1
102
RTVSPost2010Prop44ColorIndex
 90
        5
102
RTVSPost2010Prop44ColorRGB
 90
      255
102
RTVSPost2010PropOp44
 70
     1
102
RTVSPost2010Prop45
280
     0
102
RTVSPost2010PropOp45
 70
     1
102
RTVSPost2010Prop46
 90
       50
102
RTVSPost2010PropOp46
 70
     1
102
RTVSPost2010Prop47
 90
       50
102
RTVSPost2010PropOp47
 70
     1
102
RTVSPost2010Prop48
 90
       50
102
RTVSPost2010PropOp48
 70
     1
102
RTVSPost2010Prop49
280
     0
102
RTVSPost2010PropOp49
 70
     1
102
RTVSPost2010Prop50
 90
       50
102
RTVSPost2010PropOp50
 70
     1
102
RTVSPost2010Prop51ColorIndex
 90
      256
102
RTVSPost2010Prop51ColorRGB
 90
-16777216
102
RTVSPost2010PropOp51
 70
     0
102
RTVSPost2010Prop52
140
1.0
102
RTVSPost2010PropOp52
 70
     0
102
RTVSPost2010Prop53
 90
        2
102
RTVSPost2010PropOp53
 70
     1
102
RTVSPost2010Prop54
  1
strokes_ogs.tif
102
RTVSPost2010PropOp54
 70
     1
102
RTVSPost2010Prop55
280
     0
102
RTVSPost2010PropOp55
 70
     1
102
RTVSPost2010Prop56
140
1.0
102
RTVSPost2010PropOp56
 70
     1
102
RTVSPost2010Prop57
140
1.0
102
RTVSPost2010PropOp57
 70
     1
  0
XRECORD
  5
159
102
{ACAD_REACTORS
330
158
102
}
330
158
100
AcDbXrecord
280
     1
102
RTVSPost2010Prop28
280
     0
102
RTVSPost2010PropOp28
 70
     0
102
RTVSPost2010Prop29
280
     1
102
RTVSPost2010PropOp29
 70
     0
102
RTVSPost2010Prop30
280
     1
102
RTVSPost2010PropOp30
 70
     0
102
RTVSPost2010Prop31
280
     0
102
RTVSPost2010PropOp31
 70
     0
102
RTVSPost2010Prop32
280
     0
102
RTVSPost2010PropOp32
 70
     0
102
RTVSPost2010Prop33
280
     0
102
RTVSPost2010PropOp33
 70
     0
102
RTVSPost2010Prop34
280
     0
102
RTVSPost2010PropOp34
 70
     0
102
RTVSPost2010Prop35
280
     0
102
RTVSPost2010PropOp35
 70
     0
102
RTVSPost2010Prop36
280
     0
102
RTVSPost2010PropOp36
 70
     0
102
RTVSPost2010Prop37
 90
       50
102
RTVSPost2010PropOp37
 70
     0
102
RTVSPost2010Prop38
140
0.0
102
RTVSPost2010PropOp38
 70
     0
102
RTVSPost2010Prop39
140
1.0
102
RTVSPost2010PropOp39
 70
     0
102
RTVSPost2010Prop40
 90
        0
102
RTVSPost2010PropOp40
 70
     0
102
RTVSPost2010Prop41ColorIndex
 90
       18
102
RTVSPost2010Prop41ColorRGB
 90
        0
102
RTVSPost2010PropOp41
 70
     0
102
RTVSPost2010Prop42
 90
       50
102
RTVSPost2010PropOp42
 70
     0
102
RTVSPost2010Prop43
 90
        3
102
RTVSPost2010PropOp43
 70
     0
102
RTVSPost2010Prop44ColorIndex
 90
        5
102
RTVSPost2010Prop44ColorRGB
 90
      255
102
RTVSPost2010PropOp44
 70
     0
102
RTVSPost2010Prop45
280
     0
102
RTVSPost2010PropOp45
 70
     0
102
RTVSPost2010Prop46
 90
       50
102
RTVSPost2010PropOp46
 70
     0
102
RTVSPost2010Prop47
 90
       50
102
RTVSPost2010PropOp47
 70
     0
102
RTVSPost2010Prop48
 90
       50
102
RTVSPost2010PropOp48
 70
     0
102
RTVSPost2010Prop49
280
     0
102
RTVSPost2010PropOp49
 70
     0
102
RTVSPost2010Prop50
 90
       50
102
RTVSPost2010PropOp50
 70
     0
102
RTVSPost2010Prop51ColorIndex
 90
      256
102
RTVSPost2010Prop51ColorRGB
 90
-16777216
102
RTVSPost2010PropOp51
 70
     0
102
RTVSPost2010Prop52
140
1.0
102
RTVSPost2010PropOp52
 70
     0
102
RTVSPost2010Prop53
 90
        2
102
RTVSPost2010PropOp53
 70
     0
102
RTVSPost2010Prop54
  1
strokes_ogs.tif
102
RTVSPost2010PropOp54
 70
     0
102
RTVSPost2010Prop55
280
     0
102
RTVSPost2010PropOp55
 70
     0
102
RTVSPost2010Prop56
140
1.0
102
RTVSPost2010PropOp56
 70
     0
102
RTVSPost2010Prop57
140
1.0
102
RTVSPost2010PropOp57
 70
     0
  0
XRECORD
  5
13F
102
{ACAD_REACTORS
330
13E
102
}
330
13E
100
AcDbXrecord
280
     1
102
RTVSPost2010Prop28
280
     0
102
RTVSPost2010PropOp28
 70
     1
102
RTVSPost2010Prop29
280
     1
102
RTVSPost2010PropOp29
 70
     1
102
RTVSPost2010Prop30
280
     1
102
RTVSPost2010PropOp30
 70
     1
102
RTVSPost2010Prop31
280
     0
102
RTVSPost2010PropOp31
 70
     1
102
RTVSPost2010Prop32
280
     0
102
RTVSPost2010PropOp32
 70
     1
102
RTVSPost2010Prop33
280
     0
102
RTVSPost2010PropOp33
 70
     1
102
RTVSPost2010Prop34
280
     0
102
RTVSPost2010PropOp34
 70
     1
102
RTVSPost2010Prop35
280
     0
102
RTVSPost2010PropOp35
 70
     1
102
RTVSPost2010Prop36
280
     0
102
RTVSPost2010PropOp36
 70
     1
102
RTVSPost2010Prop37
 90
       50
102
RTVSPost2010PropOp37
 70
     1
102
RTVSPost2010Prop38
140
0.0
102
RTVSPost2010PropOp38
 70
     1
102
RTVSPost2010Prop39
140
1.0
102
RTVSPost2010PropOp39
 70
     1
102
RTVSPost2010Prop40
 90
        0
102
RTVSPost2010PropOp40
 70
     1
102
RTVSPost2010Prop41ColorIndex
 90
       18
102
RTVSPost2010Prop41ColorRGB
 90
        0
102
RTVSPost2010PropOp41
 70
     1
102
RTVSPost2010Prop42
 90
       50
102
RTVSPost2010PropOp42
 70
     1
102
RTVSPost2010Prop43
 90
        3
102
RTVSPost2010PropOp43
 70
     1
102
RTVSPost2010Prop44ColorIndex
 90
        5
102
RTVSPost2010Prop44ColorRGB
 90
      255
102
RTVSPost2010PropOp44
 70
     1
102
RTVSPost2010Prop45
280
     0
102
RTVSPost2010PropOp45
 70
     1
102
RTVSPost2010Prop46
 90
       50
102
RTVSPost2010PropOp46
 70
     1
102
RTVSPost2010Prop47
 90
       50
102
RTVSPost2010PropOp47
 70
     1
102
RTVSPost2010Prop48
 90
       50
102
RTVSPost2010PropOp48
 70
     1
102
RTVSPost2010Prop49
280
     0
102
RTVSPost2010PropOp49
 70
     1
102
RTVSPost2010Prop50
 90
       50
102
RTVSPost2010PropOp50
 70
     1
102
RTVSPost2010Prop51ColorIndex
 90
      256
102
RTVSPost2010Prop51ColorRGB
 90
-16777216
102
RTVSPost2010PropOp51
 70
     0
102
RTVSPost2010Prop52
140
1.0
102
RTVSPost2010PropOp52
 70
     0
102
RTVSPost2010Prop53
 90
        2
102
RTVSPost2010PropOp53
 70
     1
102
RTVSPost2010Prop54
  1
strokes_ogs.tif
102
RTVSPost2010PropOp54
 70
     1
102
RTVSPost2010Prop55
280
     0
102
RTVSPost2010PropOp55
 70
     1
102
RTVSPost2010Prop56
140
1.0
102
RTVSPost2010PropOp56
 70
     1
102
RTVSPost2010Prop57
140
1.0
102
RTVSPost2010PropOp57
 70
     1
  0
XRECORD
  5
155
102
{ACAD_REACTORS
330
154
102
}
330
154
100
AcDbXrecord
280
     1
102
RTVSPost2010Prop28
280
     0
102
RTVSPost2010PropOp28
 70
     1
102
RTVSPost2010Prop29
280
     1
102
RTVSPost2010PropOp29
 70
     1
102
RTVSPost2010Prop30
280
     1
102
RTVSPost2010PropOp30
 70
     1
102
RTVSPost2010Prop31
280
     0
102
RTVSPost2010PropOp31
 70
     1
102
RTVSPost2010Prop32
280
     0
102
RTVSPost2010PropOp32
 70
     1
102
RTVSPost2010Prop33
280
     0
102
RTVSPost2010PropOp33
 70
     1
102
RTVSPost2010Prop34
280
     0
102
RTVSPost2010PropOp34
 70
     1
102
RTVSPost2010Prop35
280
     0
102
RTVSPost2010PropOp35
 70
     1
102
RTVSPost2010Prop36
280
     0
102
RTVSPost2010PropOp36
 70
     1
102
RTVSPost2010Prop37
 90
       50
102
RTVSPost2010PropOp37
 70
     1
102
RTVSPost2010Prop38
140
0.0
102
RTVSPost2010PropOp38
 70
     1
102
RTVSPost2010Prop39
140
1.0
102
RTVSPost2010PropOp39
 70
     1
102
RTVSPost2010Prop40
 90
        0
102
RTVSPost2010PropOp40
 70
     1
102
RTVSPost2010Prop41ColorIndex
 90
       18
102
RTVSPost2010Prop41ColorRGB
 90
        0
102
RTVSPost2010PropOp41
 70
     1
102
RTVSPost2010Prop42
 90
       50
102
RTVSPost2010PropOp42
 70
     1
102
RTVSPost2010Prop43
 90
        3
102
RTVSPost2010PropOp43
 70
     1
102
RTVSPost2010Prop44ColorIndex
 90
        5
102
RTVSPost2010Prop44ColorRGB
 90
      255
102
RTVSPost2010PropOp44
 70
     1
102
RTVSPost2010Prop45
280
     0
102
RTVSPost2010PropOp45
 70
     1
102
RTVSPost2010Prop46
 90
       50
102
RTVSPost2010PropOp46
 70
     1
102
RTVSPost2010Prop47
 90
       50
102
RTVSPost2010PropOp47
 70
     1
102
RTVSPost2010Prop48
 90
       50
102
RTVSPost2010PropOp48
 70
     1
102
RTVSPost2010Prop49
280
     0
102
RTVSPost2010PropOp49
 70
     1
102
RTVSPost2010Prop50
 90
       50
102
RTVSPost2010PropOp50
 70
     1
102
RTVSPost2010Prop51ColorIndex
 90
      256
102
RTVSPost2010Prop51ColorRGB
 90
-16777216
102
RTVSPost2010PropOp51
 70
     0
102
RTVSPost2010Prop52
140
1.0
102
RTVSPost2010PropOp52
 70
     0
102
RTVSPost2010Prop53
 90
        2
102
RTVSPost2010PropOp53
 70
     1
102
RTVSPost2010Prop54
  1
strokes_ogs.tif
102
RTVSPost2010PropOp54
 70
     1
102
RTVSPost2010Prop55
280
     0
102
RTVSPost2010PropOp55
 70
     1
102
RTVSPost2010Prop56
140
1.0
102
RTVSPost2010PropOp56
 70
     1
102
RTVSPost2010Prop57
140
1.0
102
RTVSPost2010PropOp57
 70
     1
  0
XRECORD
  5
153
102
{ACAD_REACTORS
330
152
102
}
330
152
100
AcDbXrecord
280
     1
102
RTVSPost2010Prop28
280
     0
102
RTVSPost2010PropOp28
 70
     1
102
RTVSPost2010Prop29
280
     1
102
RTVSPost2010PropOp29
 70
     1
102
RTVSPost2010Prop30
280
     1
102
RTVSPost2010PropOp30
 70
     1
102
RTVSPost2010Prop31
280
     0
102
RTVSPost2010PropOp31
 70
     1
102
RTVSPost2010Prop32
280
     0
102
RTVSPost2010PropOp32
 70
     1
102
RTVSPost2010Prop33
280
     0
102
RTVSPost2010PropOp33
 70
     1
102
RTVSPost2010Prop34
280
     0
102
RTVSPost2010PropOp34
 70
     1
102
RTVSPost2010Prop35
280
     0
102
RTVSPost2010PropOp35
 70
     1
102
RTVSPost2010Prop36
280
     0
102
RTVSPost2010PropOp36
 70
     1
102
RTVSPost2010Prop37
 90
       50
102
RTVSPost2010PropOp37
 70
     1
102
RTVSPost2010Prop38
140
0.0
102
RTVSPost2010PropOp38
 70
     1
102
RTVSPost2010Prop39
140
1.0
102
RTVSPost2010PropOp39
 70
     1
102
RTVSPost2010Prop40
 90
        0
102
RTVSPost2010PropOp40
 70
     1
102
RTVSPost2010Prop41ColorIndex
 90
       18
102
RTVSPost2010Prop41ColorRGB
 90
        0
102
RTVSPost2010PropOp41
 70
     1
102
RTVSPost2010Prop42
 90
       50
102
RTVSPost2010PropOp42
 70
     1
102
RTVSPost2010Prop43
 90
        3
102
RTVSPost2010PropOp43
 70
     1
102
RTVSPost2010Prop44ColorIndex
 90
        5
102
RTVSPost2010Prop44ColorRGB
 90
      255
102
RTVSPost2010PropOp44
 70
     1
102
RTVSPost2010Prop45
280
     0
102
RTVSPost2010PropOp45
 70
     1
102
RTVSPost2010Prop46
 90
       50
102
RTVSPost2010PropOp46
 70
     1
102
RTVSPost2010Prop47
 90
       50
102
RTVSPost2010PropOp47
 70
     1
102
RTVSPost2010Prop48
 90
       50
102
RTVSPost2010PropOp48
 70
     1
102
RTVSPost2010Prop49
280
     0
102
RTVSPost2010PropOp49
 70
     1
102
RTVSPost2010Prop50
 90
       50
102
RTVSPost2010PropOp50
 70
     1
102
RTVSPost2010Prop51ColorIndex
 90
      256
102
RTVSPost2010Prop51ColorRGB
 90
-16777216
102
RTVSPost2010PropOp51
 70
     0
102
RTVSPost2010Prop52
140
1.0
102
RTVSPost2010PropOp52
 70
     0
102
RTVSPost2010Prop53
 90
        2
102
RTVSPost2010PropOp53
 70
     1
102
RTVSPost2010Prop54
  1
strokes_ogs.tif
102
RTVSPost2010PropOp54
 70
     1
102
RTVSPost2010Prop55
280
     0
102
RTVSPost2010PropOp55
 70
     1
102
RTVSPost2010Prop56
140
1.0
102
RTVSPost2010PropOp56
 70
     1
102
RTVSPost2010Prop57
140
1.0
102
RTVSPost2010PropOp57
 70
     1
  0
XRECORD
  5
14D
102
{ACAD_REACTORS
330
14C
102
}
330
14C
100
AcDbXrecord
280
     1
102
RTVSPost2010Prop28
280
     0
102
RTVSPost2010PropOp28
 70
     1
102
RTVSPost2010Prop29
280
     1
102
RTVSPost2010PropOp29
 70
     1
102
RTVSPost2010Prop30
280
     1
102
RTVSPost2010PropOp30
 70
     1
102
RTVSPost2010Prop31
280
     0
102
RTVSPost2010PropOp31
 70
     1
102
RTVSPost2010Prop32
280
     0
102
RTVSPost2010PropOp32
 70
     1
102
RTVSPost2010Prop33
280
     0
102
RTVSPost2010PropOp33
 70
     1
102
RTVSPost2010Prop34
280
     0
102
RTVSPost2010PropOp34
 70
     1
102
RTVSPost2010Prop35
280
     0
102
RTVSPost2010PropOp35
 70
     1
102
RTVSPost2010Prop36
280
     0
102
RTVSPost2010PropOp36
 70
     1
102
RTVSPost2010Prop37
 90
       50
102
RTVSPost2010PropOp37
 70
     1
102
RTVSPost2010Prop38
140
0.0
102
RTVSPost2010PropOp38
 70
     1
102
RTVSPost2010Prop39
140
1.0
102
RTVSPost2010PropOp39
 70
     1
102
RTVSPost2010Prop40
 90
        0
102
RTVSPost2010PropOp40
 70
     1
102
RTVSPost2010Prop41ColorIndex
 90
       18
102
RTVSPost2010Prop41ColorRGB
 90
        0
102
RTVSPost2010PropOp41
 70
     1
102
RTVSPost2010Prop42
 90
       50
102
RTVSPost2010PropOp42
 70
     1
102
RTVSPost2010Prop43
 90
        3
102
RTVSPost2010PropOp43
 70
     1
102
RTVSPost2010Prop44ColorIndex
 90
        5
102
RTVSPost2010Prop44ColorRGB
 90
      255
102
RTVSPost2010PropOp44
 70
     1
102
RTVSPost2010Prop45
280
     0
102
RTVSPost2010PropOp45
 70
     1
102
RTVSPost2010Prop46
 90
       50
102
RTVSPost2010PropOp46
 70
     1
102
RTVSPost2010Prop47
 90
       50
102
RTVSPost2010PropOp47
 70
     1
102
RTVSPost2010Prop48
 90
       50
102
RTVSPost2010PropOp48
 70
     1
102
RTVSPost2010Prop49
280
     0
102
RTVSPost2010PropOp49
 70
     1
102
RTVSPost2010Prop50
 90
       50
102
RTVSPost2010PropOp50
 70
     1
102
RTVSPost2010Prop51ColorIndex
 90
      256
102
RTVSPost2010Prop51ColorRGB
 90
-16777216
102
RTVSPost2010PropOp51
 70
     0
102
RTVSPost2010Prop52
140
1.0
102
RTVSPost2010PropOp52
 70
     0
102
RTVSPost2010Prop53
 90
        2
102
RTVSPost2010PropOp53
 70
     1
102
RTVSPost2010Prop54
  1
strokes_ogs.tif
102
RTVSPost2010PropOp54
 70
     1
102
RTVSPost2010Prop55
280
     0
102
RTVSPost2010PropOp55
 70
     1
102
RTVSPost2010Prop56
140
1.0
102
RTVSPost2010PropOp56
 70
     1
102
RTVSPost2010Prop57
140
1.0
102
RTVSPost2010PropOp57
 70
     1
  0
XRECORD
  5
14F
102
{ACAD_REACTORS
330
14E
102
}
330
14E
100
AcDbXrecord
280
     1
102
RTVSPost2010Prop28
280
     0
102
RTVSPost2010PropOp28
 70
     1
102
RTVSPost2010Prop29
280
     1
102
RTVSPost2010PropOp29
 70
     1
102
RTVSPost2010Prop30
280
     1
102
RTVSPost2010PropOp30
 70
     1
102
RTVSPost2010Prop31
280
     0
102
RTVSPost2010PropOp31
 70
     1
102
RTVSPost2010Prop32
280
     0
102
RTVSPost2010PropOp32
 70
     1
102
RTVSPost2010Prop33
280
     0
102
RTVSPost2010PropOp33
 70
     1
102
RTVSPost2010Prop34
280
     0
102
RTVSPost2010PropOp34
 70
     1
102
RTVSPost2010Prop35
280
     0
102
RTVSPost2010PropOp35
 70
     1
102
RTVSPost2010Prop36
280
     0
102
RTVSPost2010PropOp36
 70
     1
102
RTVSPost2010Prop37
 90
       50
102
RTVSPost2010PropOp37
 70
     1
102
RTVSPost2010Prop38
140
0.0
102
RTVSPost2010PropOp38
 70
     1
102
RTVSPost2010Prop39
140
1.0
102
RTVSPost2010PropOp39
 70
     1
102
RTVSPost2010Prop40
 90
        0
102
RTVSPost2010PropOp40
 70
     1
102
RTVSPost2010Prop41ColorIndex
 90
       18
102
RTVSPost2010Prop41ColorRGB
 90
        0
102
RTVSPost2010PropOp41
 70
     1
102
RTVSPost2010Prop42
 90
       50
102
RTVSPost2010PropOp42
 70
     1
102
RTVSPost2010Prop43
 90
        3
102
RTVSPost2010PropOp43
 70
     1
102
RTVSPost2010Prop44ColorIndex
 90
        5
102
RTVSPost2010Prop44ColorRGB
 90
      255
102
RTVSPost2010PropOp44
 70
     1
102
RTVSPost2010Prop45
280
     0
102
RTVSPost2010PropOp45
 70
     1
102
RTVSPost2010Prop46
 90
       50
102
RTVSPost2010PropOp46
 70
     1
102
RTVSPost2010Prop47
 90
       50
102
RTVSPost2010PropOp47
 70
     1
102
RTVSPost2010Prop48
 90
       50
102
RTVSPost2010PropOp48
 70
     1
102
RTVSPost2010Prop49
280
     0
102
RTVSPost2010PropOp49
 70
     1
102
RTVSPost2010Prop50
 90
       50
102
RTVSPost2010PropOp50
 70
     1
102
RTVSPost2010Prop51ColorIndex
 90
      256
102
RTVSPost2010Prop51ColorRGB
 90
-16777216
102
RTVSPost2010PropOp51
 70
     0
102
RTVSPost2010Prop52
140
1.0
102
RTVSPost2010PropOp52
 70
     0
102
RTVSPost2010Prop53
 90
        2
102
RTVSPost2010PropOp53
 70
     1
102
RTVSPost2010Prop54
  1
strokes_ogs.tif
102
RTVSPost2010PropOp54
 70
     1
102
RTVSPost2010Prop55
280
     0
102
RTVSPost2010PropOp55
 70
     1
102
RTVSPost2010Prop56
140
1.0
102
RTVSPost2010PropOp56
 70
     1
102
RTVSPost2010Prop57
140
1.0
102
RTVSPost2010PropOp57
 70
     1
  0
XRECORD
  5
145
102
{ACAD_REACTORS
330
144
102
}
330
144
100
AcDbXrecord
280
     1
102
RTVSPost2010Prop28
280
     0
102
RTVSPost2010PropOp28
 70
     1
102
RTVSPost2010Prop29
280
     1
102
RTVSPost2010PropOp29
 70
     1
102
RTVSPost2010Prop30
280
     1
102
RTVSPost2010PropOp30
 70
     1
102
RTVSPost2010Prop31
280
     0
102
RTVSPost2010PropOp31
 70
     1
102
RTVSPost2010Prop32
280
     0
102
RTVSPost2010PropOp32
 70
     1
102
RTVSPost2010Prop33
280
     0
102
RTVSPost2010PropOp33
 70
     1
102
RTVSPost2010Prop34
280
     0
102
RTVSPost2010PropOp34
 70
     1
102
RTVSPost2010Prop35
280
     0
102
RTVSPost2010PropOp35
 70
     1
102
RTVSPost2010Prop36
280
     0
102
RTVSPost2010PropOp36
 70
     1
102
RTVSPost2010Prop37
 90
       50
102
RTVSPost2010PropOp37
 70
     1
102
RTVSPost2010Prop38
140
0.0
102
RTVSPost2010PropOp38
 70
     1
102
RTVSPost2010Prop39
140
1.0
102
RTVSPost2010PropOp39
 70
     1
102
RTVSPost2010Prop40
 90
        0
102
RTVSPost2010PropOp40
 70
     1
102
RTVSPost2010Prop41ColorIndex
 90
       18
102
RTVSPost2010Prop41ColorRGB
 90
        0
102
RTVSPost2010PropOp41
 70
     1
102
RTVSPost2010Prop42
 90
       50
102
RTVSPost2010PropOp42
 70
     1
102
RTVSPost2010Prop43
 90
        3
102
RTVSPost2010PropOp43
 70
     1
102
RTVSPost2010Prop44ColorIndex
 90
        5
102
RTVSPost2010Prop44ColorRGB
 90
      255
102
RTVSPost2010PropOp44
 70
     1
102
RTVSPost2010Prop45
280
     0
102
RTVSPost2010PropOp45
 70
     1
102
RTVSPost2010Prop46
 90
       50
102
RTVSPost2010PropOp46
 70
     1
102
RTVSPost2010Prop47
 90
       50
102
RTVSPost2010PropOp47
 70
     1
102
RTVSPost2010Prop48
 90
       50
102
RTVSPost2010PropOp48
 70
     1
102
RTVSPost2010Prop49
280
     0
102
RTVSPost2010PropOp49
 70
     1
102
RTVSPost2010Prop50
 90
       50
102
RTVSPost2010PropOp50
 70
     1
102
RTVSPost2010Prop51ColorIndex
 90
      256
102
RTVSPost2010Prop51ColorRGB
 90
-16777216
102
RTVSPost2010PropOp51
 70
     0
102
RTVSPost2010Prop52
140
1.0
102
RTVSPost2010PropOp52
 70
     0
102
RTVSPost2010Prop53
 90
        2
102
RTVSPost2010PropOp53
 70
     1
102
RTVSPost2010Prop54
  1
strokes_ogs.tif
102
RTVSPost2010PropOp54
 70
     1
102
RTVSPost2010Prop55
280
     0
102
RTVSPost2010PropOp55
 70
     1
102
RTVSPost2010Prop56
140
1.0
102
RTVSPost2010PropOp56
 70
     1
102
RTVSPost2010Prop57
140
1.0
102
RTVSPost2010PropOp57
 70
     1
  0
XRECORD
  5
139
102
{ACAD_REACTORS
330
138
102
}
330
138
100
AcDbXrecord
280
     1
102
RTVSPost2010Prop28
280
     0
102
RTVSPost2010PropOp28
 70
     1
102
RTVSPost2010Prop29
280
     1
102
RTVSPost2010PropOp29
 70
     1
102
RTVSPost2010Prop30
280
     1
102
RTVSPost2010PropOp30
 70
     1
102
RTVSPost2010Prop31
280
     0
102
RTVSPost2010PropOp31
 70
     1
102
RTVSPost2010Prop32
280
     0
102
RTVSPost2010PropOp32
 70
     1
102
RTVSPost2010Prop33
280
     0
102
RTVSPost2010PropOp33
 70
     1
102
RTVSPost2010Prop34
280
     0
102
RTVSPost2010PropOp34
 70
     1
102
RTVSPost2010Prop35
280
     0
102
RTVSPost2010PropOp35
 70
     1
102
RTVSPost2010Prop36
280
     0
102
RTVSPost2010PropOp36
 70
     1
102
RTVSPost2010Prop37
 90
       50
102
RTVSPost2010PropOp37
 70
     1
102
RTVSPost2010Prop38
140
0.0
102
RTVSPost2010PropOp38
 70
     1
102
RTVSPost2010Prop39
140
1.0
102
RTVSPost2010PropOp39
 70
     1
102
RTVSPost2010Prop40
 90
        0
102
RTVSPost2010PropOp40
 70
     1
102
RTVSPost2010Prop41ColorIndex
 90
       18
102
RTVSPost2010Prop41ColorRGB
 90
        0
102
RTVSPost2010PropOp41
 70
     1
102
RTVSPost2010Prop42
 90
       50
102
RTVSPost2010PropOp42
 70
     1
102
RTVSPost2010Prop43
 90
        3
102
RTVSPost2010PropOp43
 70
     1
102
RTVSPost2010Prop44ColorIndex
 90
        5
102
RTVSPost2010Prop44ColorRGB
 90
      255
102
RTVSPost2010PropOp44
 70
     1
102
RTVSPost2010Prop45
280
     0
102
RTVSPost2010PropOp45
 70
     1
102
RTVSPost2010Prop46
 90
       50
102
RTVSPost2010PropOp46
 70
     1
102
RTVSPost2010Prop47
 90
       50
102
RTVSPost2010PropOp47
 70
     1
102
RTVSPost2010Prop48
 90
       50
102
RTVSPost2010PropOp48
 70
     1
102
RTVSPost2010Prop49
280
     0
102
RTVSPost2010PropOp49
 70
     1
102
RTVSPost2010Prop50
 90
       50
102
RTVSPost2010PropOp50
 70
     1
102
RTVSPost2010Prop51ColorIndex
 90
      256
102
RTVSPost2010Prop51ColorRGB
 90
-16777216
102
RTVSPost2010PropOp51
 70
     0
102
RTVSPost2010Prop52
140
1.0
102
RTVSPost2010PropOp52
 70
     0
102
RTVSPost2010Prop53
 90
        2
102
RTVSPost2010PropOp53
 70
     1
102
RTVSPost2010Prop54
  1
strokes_ogs.tif
102
RTVSPost2010PropOp54
 70
     1
102
RTVSPost2010Prop55
280
     0
102
RTVSPost2010PropOp55
 70
     1
102
RTVSPost2010Prop56
140
1.0
102
RTVSPost2010PropOp56
 70
     1
102
RTVSPost2010Prop57
140
1.0
102
RTVSPost2010PropOp57
 70
     1
  0
XRECORD
  5
151
102
{ACAD_REACTORS
330
150
102
}
330
150
100
AcDbXrecord
280
     1
102
RTVSPost2010Prop28
280
     0
102
RTVSPost2010PropOp28
 70
     1
102
RTVSPost2010Prop29
280
     1
102
RTVSPost2010PropOp29
 70
     1
102
RTVSPost2010Prop30
280
     1
102
RTVSPost2010PropOp30
 70
     1
102
RTVSPost2010Prop31
280
     0
102
RTVSPost2010PropOp31
 70
     1
102
RTVSPost2010Prop32
280
     0
102
RTVSPost2010PropOp32
 70
     1
102
RTVSPost2010Prop33
280
     0
102
RTVSPost2010PropOp33
 70
     1
102
RTVSPost2010Prop34
280
     0
102
RTVSPost2010PropOp34
 70
     1
102
RTVSPost2010Prop35
280
     0
102
RTVSPost2010PropOp35
 70
     1
102
RTVSPost2010Prop36
280
     0
102
RTVSPost2010PropOp36
 70
     1
102
RTVSPost2010Prop37
 90
       50
102
RTVSPost2010PropOp37
 70
     1
102
RTVSPost2010Prop38
140
0.0
102
RTVSPost2010PropOp38
 70
     1
102
RTVSPost2010Prop39
140
1.0
102
RTVSPost2010PropOp39
 70
     1
102
RTVSPost2010Prop40
 90
        0
102
RTVSPost2010PropOp40
 70
     1
102
RTVSPost2010Prop41ColorIndex
 90
       18
102
RTVSPost2010Prop41ColorRGB
 90
        0
102
RTVSPost2010PropOp41
 70
     1
102
RTVSPost2010Prop42
 90
       50
102
RTVSPost2010PropOp42
 70
     1
102
RTVSPost2010Prop43
 90
        3
102
RTVSPost2010PropOp43
 70
     1
102
RTVSPost2010Prop44ColorIndex
 90
        5
102
RTVSPost2010Prop44ColorRGB
 90
      255
102
RTVSPost2010PropOp44
 70
     1
102
RTVSPost2010Prop45
280
     0
102
RTVSPost2010PropOp45
 70
     1
102
RTVSPost2010Prop46
 90
       50
102
RTVSPost2010PropOp46
 70
     1
102
RTVSPost2010Prop47
 90
       50
102
RTVSPost2010PropOp47
 70
     1
102
RTVSPost2010Prop48
 90
       50
102
RTVSPost2010PropOp48
 70
     1
102
RTVSPost2010Prop49
280
     0
102
RTVSPost2010PropOp49
 70
     1
102
RTVSPost2010Prop50
 90
       50
102
RTVSPost2010PropOp50
 70
     1
102
RTVSPost2010Prop51ColorIndex
 90
      256
102
RTVSPost2010Prop51ColorRGB
 90
-16777216
102
RTVSPost2010PropOp51
 70
     0
102
RTVSPost2010Prop52
140
1.0
102
RTVSPost2010PropOp52
 70
     0
102
RTVSPost2010Prop53
 90
        2
102
RTVSPost2010PropOp53
 70
     1
102
RTVSPost2010Prop54
  1
strokes_ogs.tif
102
RTVSPost2010PropOp54
 70
     1
102
RTVSPost2010Prop55
280
     0
102
RTVSPost2010PropOp55
 70
     1
102
RTVSPost2010Prop56
140
1.0
102
RTVSPost2010PropOp56
 70
     1
102
RTVSPost2010Prop57
140
1.0
102
RTVSPost2010PropOp57
 70
     1
  0
ENDSEC
  0
EOF
