  0
SECTION
  2
HEADER
  9
$ACADVER
  1
AC1024
  9
$ACADMAINTVER
 70
   226
  9
$DWGCODEPAGE
  3
ANSI_932
  9
$INSBASE
 10
0.0
 20
0.0
 30
0.0
  9
$EXTMIN
 10
1.000000000000000E+20
 20
1.000000000000000E+20
 30
1.000000000000000E+20
  9
$EXTMAX
 10
-1.000000000000000E+20
 20
-1.000000000000000E+20
 30
-1.000000000000000E+20
  9
$LIMMIN
 10
0.0
 20
0.0
  9
$LIMMAX
 10
12.0
 20
9.0
  9
$ORTHOMODE
 70
     0
  9
$REGENMODE
 70
     1
  9
$FILLMODE
 70
     1
  9
$QTEXTMODE
 70
     0
  9
$MIRRTEXT
 70
     0
  9
$LTSCALE
 40
1.0
  9
$ATTMODE
 70
     1
  9
$TEXTSIZE
 40
0.2
  9
$TRACEWID
 40
0.05
  9
$TEXTSTYLE
  7
Standard
  9
$CLAYER
  8
0
  9
$CELTYPE
  6
ByLayer
  9
$CECOLOR
 62
   256
  9
$CELTSCALE
 40
1.0
  9
$DISPSILH
 70
     0
  9
$DIMSCALE
 40
1.0
  9
$DIMASZ
 40
0.18
  9
$DIMEXO
 40
0.0625
  9
$DIMDLI
 40
0.38
  9
$DIMRND
 40
0.0
  9
$DIMDLE
 40
0.0
  9
$DIMEXE
 40
0.18
  9
$DIMTP
 40
0.0
  9
$DIMTM
 40
0.0
  9
$DIMTXT
 40
0.18
  9
$DIMCEN
 40
0.09
  9
$DIMTSZ
 40
0.0
  9
$DIMTOL
 70
     0
  9
$DIMLIM
 70
     0
  9
$DIMTIH
 70
     1
  9
$DIMTOH
 70
     1
  9
$DIMSE1
 70
     0
  9
$DIMSE2
 70
     0
  9
$DIMTAD
 70
     0
  9
$DIMZIN
 70
     0
  9
$DIMBLK
  1

  9
$DIMASO
 70
     1
  9
$DIMSHO
 70
     1
  9
$DIMPOST
  1

  9
$DIMAPOST
  1

  9
$DIMALT
 70
     0
  9
$DIMALTD
 70
     2
  9
$DIMALTF
 40
25.4
  9
$DIMLFAC
 40
1.0
  9
$DIMTOFL
 70
     0
  9
$DIMTVP
 40
0.0
  9
$DIMTIX
 70
     0
  9
$DIMSOXD
 70
     0
  9
$DIMSAH
 70
     0
  9
$DIMBLK1
  1

  9
$DIMBLK2
  1

  9
$DIMSTYLE
  2
Standard
  9
$DIMCLRD
 70
     0
  9
$DIMCLRE
 70
     0
  9
$DIMCLRT
 70
     0
  9
$DIMTFAC
 40
1.0
  9
$DIMGAP
 40
0.09
  9
$DIMJUST
 70
     0
  9
$DIMSD1
 70
     0
  9
$DIMSD2
 70
     0
  9
$DIMTOLJ
 70
     1
  9
$DIMTZIN
 70
     0
  9
$DIMALTZ
 70
     0
  9
$DIMALTTZ
 70
     0
  9
$DIMUPT
 70
     0
  9
$DIMDEC
 70
     4
  9
$DIMTDEC
 70
     4
  9
$DIMALTU
 70
     2
  9
$DIMALTTD
 70
     2
  9
$DIMTXSTY
  7
Standard
  9
$DIMAUNIT
 70
     0
  9
$DIMADEC
 70
     0
  9
$DIMALTRND
 40
0.0
  9
$DIMAZIN
 70
     0
  9
$DIMDSEP
 70
    46
  9
$DIMATFIT
 70
     3
  9
$DIMFRAC
 70
     0
  9
$DIMLDRBLK
  1

  9
$DIMLUNIT
 70
     2
  9
$DIMLWD
 70
    -2
  9
$DIMLWE
 70
    -2
  9
$DIMTMOVE
 70
     0
  9
$DIMFXL
 40
1.0
  9
$DIMFXLON
 70
     0
  9
$DIMJOGANG
 40
0.7853981633974483
  9
$DIMTFILL
 70
     0
  9
$DIMTFILLCLR
 70
     0
  9
$DIMARCSYM
 70
     0
  9
$DIMLTYPE
  6

  9
$DIMLTEX1
  6

  9
$DIMLTEX2
  6

  9
$DIMTXTDIRECTION
 70
     0
  9
$LUNITS
 70
     2
  9
$LUPREC
 70
     4
  9
$SKETCHINC
 40
0.1
  9
$FILLETRAD
 40
0.0
  9
$AUNITS
 70
     0
  9
$AUPREC
 70
     0
  9
$MENU
  1
.
  9
$ELEVATION
 40
0.0
  9
$PELEVATION
 40
0.0
  9
$THICKNESS
 40
0.0
  9
$LIMCHECK
 70
     0
  9
$CHAMFERA
 40
0.0
  9
$CHAMFERB
 40
0.0
  9
$CHAMFERC
 40
0.0
  9
$CHAMFERD
 40
0.0
  9
$SKPOLY
 70
     0
  9
$TDCREATE
 40
2459569.490324074
  9
$TDUCREATE
 40
2459569.115324074
  9
$TDUPDATE
 40
2459569.490324074
  9
$TDUUPDATE
 40
2459569.115324074
  9
$TDINDWG
 40
0.0000000000
  9
$TDUSRTIMER
 40
0.0000000000
  9
$USRTIMER
 70
     1
  9
$ANGBASE
 50
0.0
  9
$ANGDIR
 70
     0
  9
$PDMODE
 70
     0
  9
$PDSIZE
 40
0.0
  9
$PLINEWID
 40
0.0
  9
$SPLFRAME
 70
     0
  9
$SPLINETYPE
 70
     6
  9
$SPLINESEGS
 70
     8
  9
$HANDSEED
  5
15B
  9
$SURFTAB1
 70
     6
  9
$SURFTAB2
 70
     6
  9
$SURFTYPE
 70
     6
  9
$SURFU
 70
     6
  9
$SURFV
 70
     6
  9
$UCSBASE
  2

  9
$UCSNAME
  2

  9
$UCSORG
 10
0.0
 20
0.0
 30
0.0
  9
$UCSXDIR
 10
1.0
 20
0.0
 30
0.0
  9
$UCSYDIR
 10
0.0
 20
1.0
 30
0.0
  9
$UCSORTHOREF
  2

  9
$UCSORTHOVIEW
 70
     0
  9
$UCSORGTOP
 10
0.0
 20
0.0
 30
0.0
  9
$UCSORGBOTTOM
 10
0.0
 20
0.0
 30
0.0
  9
$UCSORGLEFT
 10
0.0
 20
0.0
 30
0.0
  9
$UCSORGRIGHT
 10
0.0
 20
0.0
 30
0.0
  9
$UCSORGFRONT
 10
0.0
 20
0.0
 30
0.0
  9
$UCSORGBACK
 10
0.0
 20
0.0
 30
0.0
  9
$PUCSBASE
  2

  9
$PUCSNAME
  2

  9
$PUCSORG
 10
0.0
 20
0.0
 30
0.0
  9
$PUCSXDIR
 10
1.0
 20
0.0
 30
0.0
  9
$PUCSYDIR
 10
0.0
 20
1.0
 30
0.0
  9
$PUCSORTHOREF
  2

  9
$PUCSORTHOVIEW
 70
     0
  9
$PUCSORGTOP
 10
0.0
 20
0.0
 30
0.0
  9
$PUCSORGBOTTOM
 10
0.0
 20
0.0
 30
0.0
  9
$PUCSORGLEFT
 10
0.0
 20
0.0
 30
0.0
  9
$PUCSORGRIGHT
 10
0.0
 20
0.0
 30
0.0
  9
$PUCSORGFRONT
 10
0.0
 20
0.0
 30
0.0
  9
$PUCSORGBACK
 10
0.0
 20
0.0
 30
0.0
  9
$USERI1
 70
     0
  9
$USERI2
 70
     0
  9
$USERI3
 70
     0
  9
$USERI4
 70
     0
  9
$USERI5
 70
     0
  9
$USERR1
 40
0.0
  9
$USERR2
 40
0.0
  9
$USERR3
 40
0.0
  9
$USERR4
 40
0.0
  9
$USERR5
 40
0.0
  9
$WORLDVIEW
 70
     1
  9
$SHADEDGE
 70
     3
  9
$SHADEDIF
 70
    70
  9
$TILEMODE
 70
     1
  9
$MAXACTVP
 70
    64
  9
$PINSBASE
 10
0.0
 20
0.0
 30
0.0
  9
$PLIMCHECK
 70
     0
  9
$PEXTMIN
 10
1.000000000000000E+20
 20
1.000000000000000E+20
 30
1.000000000000000E+20
  9
$PEXTMAX
 10
-1.000000000000000E+20
 20
-1.000000000000000E+20
 30
-1.000000000000000E+20
  9
$PLIMMIN
 10
0.0
 20
0.0
  9
$PLIMMAX
 10
12.0
 20
9.0
  9
$UNITMODE
 70
     0
  9
$VISRETAIN
 70
     1
  9
$PLINEGEN
 70
     0
  9
$PSLTSCALE
 70
     1
  9
$TREEDEPTH
 70
  3020
  9
$CMLSTYLE
  2
Standard
  9
$CMLJUST
 70
     0
  9
$CMLSCALE
 40
1.0
  9
$PROXYGRAPHICS
 70
     1
  9
$MEASUREMENT
 70
     0
  9
$CELWEIGHT
370
    -1
  9
$ENDCAPS
280
     0
  9
$JOINSTYLE
280
     0
  9
$LWDISPLAY
290
     1
  9
$INSUNITS
 70
     4
  9
$HYPERLINKBASE
  1

  9
$STYLESHEET
  1

  9
$XEDIT
290
     1
  9
$CEPSNTYPE
380
     0
  9
$PSTYLEMODE
290
     1
  9
$FINGERPRINTGUID
  2
{308676E1-39EF-0F4D-8A97-050A30FB59E7}
  9
$VERSIONGUID
  2
{1C41F7D9-2811-9F4F-A6E9-130CDD7133F2}
  9
$EXTNAMES
290
     1
  9
$PSVPSCALE
 40
0.0
  9
$OLESTARTUP
290
     0
  9
$SORTENTS
280
   127
  9
$INDEXCTL
280
     0
  9
$HIDETEXT
280
     1
  9
$XCLIPFRAME
280
     2
  9
$HALOGAP
280
     0
  9
$OBSCOLOR
 70
   257
  9
$OBSLTYPE
280
     0
  9
$INTERSECTIONDISPLAY
280
     0
  9
$INTERSECTIONCOLOR
 70
   257
  9
$DIMASSOC
280
     2
  9
$PROJECTNAME
  1

  9
$CAMERADISPLAY
290
     0
  9
$LENSLENGTH
 40
50.0
  9
$CAMERAHEIGHT
 40
0.0
  9
$STEPSPERSEC
 40
2.0
  9
$STEPSIZE
 40
6.0
  9
$3DDWFPREC
 40
2.0
  9
$PSOLWIDTH
 40
0.25
  9
$PSOLHEIGHT
 40
4.0
  9
$LOFTANG1
 40
1.570796326794896
  9
$LOFTANG2
 40
1.570796326794896
  9
$LOFTMAG1
 40
0.0
  9
$LOFTMAG2
 40
0.0
  9
$LOFTPARAM
 70
     7
  9
$LOFTNORMALS
280
     1
  9
$LATITUDE
 40
37.795
  9
$LONGITUDE
 40
-122.394
  9
$NORTHDIRECTION
 40
0.0
  9
$TIMEZONE
 70
 -8000
  9
$LIGHTGLYPHDISPLAY
280
     1
  9
$TILEMODELIGHTSYNCH
280
     1
  9
$CMATERIAL
347
11
  9
$SOLIDHIST
280
     0
  9
$SHOWHIST
280
     1
  9
$DWFFRAME
280
     2
  9
$DGNFRAME
280
     0
  9
$REALWORLDSCALE
290
     1
  9
$INTERFERECOLOR
 62
     1
  9
$INTERFEREOBJVS
345
33
  9
$INTERFEREVPVS
346
30
  9
$CSHADOW
280
     0
  9
$SHADOWPLANELOCATION
 40
0.0
  0
ENDSEC
  0
SECTION
  2
CLASSES
  0
CLASS
  1
ACDBDICTIONARYWDFLT
  2
AcDbDictionaryWithDefault
  3
ObjectDBX Classes
 90
        0
 91
        1
280
     0
281
     0
  0
CLASS
  1
MATERIAL
  2
AcDbMaterial
  3
ObjectDBX Classes
 90
     1153
 91
        3
280
     0
281
     0
  0
CLASS
  1
VISUALSTYLE
  2
AcDbVisualStyle
  3
ObjectDBX Classes
 90
     4095
 91
       24
280
     0
281
     0
  0
CLASS
  1
SCALE
  2
AcDbScale
  3
ObjectDBX Classes
 90
     1153
 91
       17
280
     0
281
     0
  0
CLASS
  1
TABLESTYLE
  2
AcDbTableStyle
  3
ObjectDBX Classes
 90
     4095
 91
        1
280
     0
281
     0
  0
CLASS
  1
MLEADERSTYLE
  2
AcDbMLeaderStyle
  3
ACDB_MLEADERSTYLE_CLASS
 90
     4095
 91
        1
280
     0
281
     0
  0
CLASS
  1
ACDBSECTIONVIEWSTYLE
  2
AcDbSectionViewStyle
  3
ObjectDBX Classes
 90
     1025
 91
        1
280
     0
281
     0
  0
CLASS
  1
ACDBDETAILVIEWSTYLE
  2
AcDbDetailViewStyle
  3
ObjectDBX Classes
 90
     1025
 91
        1
280
     0
281
     0
  0
CLASS
  1
DICTIONARYVAR
  2
AcDbDictionaryVar
  3
ObjectDBX Classes
 90
        0
 91
        5
280
     0
281
     0
  0
CLASS
  1
CELLSTYLEMAP
  2
AcDbCellStyleMap
  3
ObjectDBX Classes
 90
     1152
 91
        1
280
     0
281
     0
  0
ENDSEC
  0
SECTION
  2
TABLES
  0
TABLE
  2
VPORT
  5
8
330
0
100
AcDbSymbolTable
 70
     1
  0
VPORT
  5
57
330
8
100
AcDbSymbolTableRecord
100
AcDbViewportTableRecord
  2
*Active
 70
     0
 10
0.0
 20
0.0
 11
1.0
 21
1.0
 12
0.0
 22
0.0
 13
0.0
 23
0.0
 14
1.0
 24
1.0
 15
0.0
 25
0.0
 16
0.0
 26
0.0
 36
1.0
 17
104.9999999737534
 27
-148.4999999628701
 37
0.0
 40
302.939999924255
 41
0.7070707070707534
 42
50.0
 43
0.0
 44
0.0
 50
0.0
 51
0.0
 71
     0
 72
   100
 73
     1
 74
     0
 75
     1
 76
     0
 77
     0
 78
     0
281
     0
 65
     1
110
0.0
120
0.0
130
0.0
111
1.0
121
0.0
131
0.0
112
0.0
122
1.0
132
0.0
 79
     0
146
0.0
 60
     3
 61
     5
292
     1
282
     1
141
0.0
142
0.0
 63
   250
421
  3355443
  0
ENDTAB
  0
TABLE
  2
LTYPE
  5
5
330
0
100
AcDbSymbolTable
 70
     2
  0
LTYPE
  5
5B
330
5
100
AcDbSymbolTableRecord
100
AcDbLinetypeTableRecord
  2
ByBlock
 70
     0
  3

 72
    65
 73
     0
 40
0.0
  0
LTYPE
  5
5C
330
5
100
AcDbSymbolTableRecord
100
AcDbLinetypeTableRecord
  2
ByLayer
 70
     0
  3

 72
    65
 73
     0
 40
0.0
  0
LTYPE
  5
5D
330
5
100
AcDbSymbolTableRecord
100
AcDbLinetypeTableRecord
  2
Continuous
 70
     0
  3
Solid line
 72
    65
 73
     0
 40
0.0
  0
LTYPE
  5
DA
330
5
100
AcDbSymbolTableRecord
100
AcDbLinetypeTableRecord
  2
AI-Linetype-0
 70
     0
  3
Adobe Illustrator Linetype No. 0
 72
    65
 73
     2
 40
1.411111110758333
 49
0.7055555553791667
 74
     0
 49
-0.7055555553791667
 74
     0
  0
ENDTAB
  0
TABLE
  2
LAYER
  5
2
330
0
100
AcDbSymbolTable
 70
     2
  0
LAYER
  5
54
330
2
100
AcDbSymbolTableRecord
100
AcDbLayerTableRecord
  2
0
 70
     0
 62
     7
  6
Continuous
370
    -3
390
F
347
21
  0
LAYER
  5
78
330
2
100
AcDbSymbolTableRecord
100
AcDbLayerTableRecord
  2
レイヤー 1
 70
     0
 62
     7
  6
Continuous
370
     0
390
F
347
21
  0
ENDTAB
  0
TABLE
  2
STYLE
  5
3
330
0
100
AcDbSymbolTable
 70
     2
  0
STYLE
  5
55
330
3
100
AcDbSymbolTableRecord
100
AcDbTextStyleTableRecord
  2
Standard
 70
     0
 40
0.0
 41
1.0
 50
0.0
 71
     0
 42
0.2
  3
txt
  4

  0
STYLE
  5
5A
330
3
100
AcDbSymbolTableRecord
100
AcDbTextStyleTableRecord
  2
Annotative
 70
     0
 40
0.0
 41
1.0
 50
0.0
 71
     0
 42
0.2
  3
txt
  4

1001
AcadAnnotative
1000
AnnotativeData
1002
{
1070
     1
1070
     1
1002
}
  0
ENDTAB
  0
TABLE
  2
VIEW
  5
6
330
0
100
AcDbSymbolTable
 70
     0
  0
ENDTAB
  0
TABLE
  2
UCS
  5
7
330
0
100
AcDbSymbolTable
 70
     0
  0
ENDTAB
  0
TABLE
  2
APPID
  5
9
330
0
100
AcDbSymbolTable
 70
     2
  0
APPID
  5
56
330
9
100
AcDbSymbolTableRecord
100
AcDbRegAppTableRecord
  2
ACAD
 70
     0
  0
APPID
  5
5E
330
9
100
AcDbSymbolTableRecord
100
AcDbRegAppTableRecord
  2
AcadAnnotative
 70
     0
  0
ENDTAB
  0
TABLE
  2
DIMSTYLE
  5
A
330
0
100
AcDbSymbolTable
 70
     2
100
AcDbDimStyleTable
 71
     0
  0
DIMSTYLE
105
58
330
A
100
AcDbSymbolTableRecord
100
AcDbDimStyleTableRecord
  2
Standard
 70
     0
340
55
  0
DIMSTYLE
105
59
330
A
100
AcDbSymbolTableRecord
100
AcDbDimStyleTableRecord
  2
Annotative
 70
     0
340
55
1001
AcadAnnotative
1000
AnnotativeData
1002
{
1070
     1
1070
     1
1002
}
  0
ENDTAB
  0
TABLE
  2
BLOCK_RECORD
  5
1
330
0
100
AcDbSymbolTable
 70
    14
  0
BLOCK_RECORD
  5
70
330
1
100
AcDbSymbolTableRecord
100
AcDbBlockTableRecord
  2
*Model_Space
340
73
 70
     0
280
     1
281
     0
  0
BLOCK_RECORD
  5
6C
330
1
100
AcDbSymbolTableRecord
100
AcDbBlockTableRecord
  2
*Paper_Space
340
6F
 70
     0
280
     1
281
     0
  0
BLOCK_RECORD
  5
74
330
1
100
AcDbSymbolTableRecord
100
AcDbBlockTableRecord
  2
*Paper_Space0
340
77
 70
     0
280
     1
281
     0
  0
BLOCK_RECORD
  5
79
330
1
100
AcDbSymbolTableRecord
100
AcDbBlockTableRecord
  2
Block_0
340
0
102
{BLKREFS
331
7A
102
}
 70
     0
280
     1
281
     0
  0
BLOCK_RECORD
  5
7D
330
1
100
AcDbSymbolTableRecord
100
AcDbBlockTableRecord
  2
Block_1
340
0
102
{BLKREFS
331
7E
102
}
 70
     0
280
     1
281
     0
  0
BLOCK_RECORD
  5
94
330
1
100
AcDbSymbolTableRecord
100
AcDbBlockTableRecord
  2
Block_2
340
0
102
{BLKREFS
331
95
102
}
 70
     0
280
     1
281
     0
  0
BLOCK_RECORD
  5
9C
330
1
100
AcDbSymbolTableRecord
100
AcDbBlockTableRecord
  2
Block_3
340
0
102
{BLKREFS
331
9D
102
}
 70
     0
280
     1
281
     0
  0
BLOCK_RECORD
  5
A0
330
1
100
AcDbSymbolTableRecord
100
AcDbBlockTableRecord
  2
Block_4
340
0
102
{BLKREFS
331
A1
102
}
 70
     0
280
     1
281
     0
  0
BLOCK_RECORD
  5
AA
330
1
100
AcDbSymbolTableRecord
100
AcDbBlockTableRecord
  2
Block_5
340
0
102
{BLKREFS
331
AB
102
}
 70
     0
280
     1
281
     0
  0
BLOCK_RECORD
  5
B6
330
1
100
AcDbSymbolTableRecord
100
AcDbBlockTableRecord
  2
Block_6
340
0
102
{BLKREFS
331
B7
102
}
 70
     0
280
     1
281
     0
  0
BLOCK_RECORD
  5
BA
330
1
100
AcDbSymbolTableRecord
100
AcDbBlockTableRecord
  2
Block_7
340
0
102
{BLKREFS
331
BB
102
}
 70
     0
280
     1
281
     0
  0
BLOCK_RECORD
  5
CA
330
1
100
AcDbSymbolTableRecord
100
AcDbBlockTableRecord
  2
Block_8
340
0
102
{BLKREFS
331
CB
102
}
 70
     0
280
     1
281
     0
  0
BLOCK_RECORD
  5
CE
330
1
100
AcDbSymbolTableRecord
100
AcDbBlockTableRecord
  2
Block_9
340
0
102
{BLKREFS
331
CF
102
}
 70
     0
280
     1
281
     0
  0
BLOCK_RECORD
  5
DB
330
1
100
AcDbSymbolTableRecord
100
AcDbBlockTableRecord
  2
Block_10
340
0
102
{BLKREFS
331
DC
102
}
 70
     0
280
     1
281
     0
  0
BLOCK_RECORD
  5
E2
330
1
100
AcDbSymbolTableRecord
100
AcDbBlockTableRecord
  2
Block_11
340
0
102
{BLKREFS
331
E3
102
}
 70
     0
280
     1
281
     0
  0
BLOCK_RECORD
  5
E6
330
1
100
AcDbSymbolTableRecord
100
AcDbBlockTableRecord
  2
Block_12
340
0
102
{BLKREFS
331
E7
102
}
 70
     0
280
     1
281
     0
  0
ENDTAB
  0
ENDSEC
  0
SECTION
  2
BLOCKS
  0
BLOCK
  5
71
330
70
100
AcDbEntity
  8
0
100
AcDbBlockBegin
  2
*Model_Space
 70
     0
 10
0.0
 20
0.0
 30
0.0
  3
*Model_Space
  1

  0
ENDBLK
  5
72
330
70
100
AcDbEntity
  8
0
100
AcDbBlockEnd
  0
BLOCK
  5
6D
330
6C
100
AcDbEntity
 67
     1
  8
0
100
AcDbBlockBegin
  2
*Paper_Space
 70
     0
 10
0.0
 20
0.0
 30
0.0
  3
*Paper_Space
  1

  0
ENDBLK
  5
6E
330
6C
100
AcDbEntity
 67
     1
  8
0
100
AcDbBlockEnd
  0
BLOCK
  5
75
330
74
100
AcDbEntity
 67
     1
  8
0
100
AcDbBlockBegin
  2
*Paper_Space0
 70
     0
 10
0.0
 20
0.0
 30
0.0
  3
*Paper_Space0
  1

  0
ENDBLK
  5
76
330
74
100
AcDbEntity
 67
     1
  8
0
100
AcDbBlockEnd
  0
BLOCK
  5
7B
330
79
100
AcDbEntity
  8
0
100
AcDbBlockBegin
  2
Block_0
 70
     0
 10
0.0
 20
0.0
 30
0.0
  3
Block_0
  1

  0
INSERT
  5
7E
330
79
100
AcDbEntity
  8
レイヤー 1
100
AcDbBlockReference
  2
Block_1
 10
0.0
 20
0.0
 30
0.0
  0
ENDBLK
  5
7C
330
79
100
AcDbEntity
  8
0
100
AcDbBlockEnd
  0
BLOCK
  5
7F
330
7D
100
AcDbEntity
  8
0
100
AcDbBlockBegin
  2
Block_1
 70
     0
 10
0.0
 20
0.0
 30
0.0
  3
Block_1
  1

  0
LINE
  5
81
330
7D
100
AcDbEntity
  8
レイヤー 1
 62
   250
420
  2299925
370
    25
100
AcDbLine
 10
79.99597774363777
 20
-144.0069840874149
 30
0.0
 11
85.99598524213702
 21
-144.0069840874149
 31
0.0
  0
LINE
  5
82
330
7D
100
AcDbEntity
  8
レイヤー 1
 62
   250
420
  2299925
370
    25
100
AcDbLine
 10
84.99598895085327
 20
-145.0067563397619
 30
0.0
 11
84.99598895085327
 21
-153.0068131281055
 31
0.0
  0
LINE
  5
83
330
7D
100
AcDbEntity
  8
レイヤー 1
 62
   250
420
  2299925
370
    25
100
AcDbLine
 10
79.99597774363777
 20
-145.0067562841305
 30
0.0
 11
84.99598885349854
 21
-145.0067562841305
 31
0.0
  0
LINE
  5
84
330
7D
100
AcDbEntity
  8
レイヤー 1
 62
   250
420
  2299925
370
    25
100
AcDbLine
 10
79.99597774363777
 20
-144.0069840874149
 30
0.0
 11
79.99597774363777
 21
-145.0067562841305
 31
0.0
  0
LINE
  5
85
330
7D
100
AcDbEntity
  8
レイヤー 1
 62
   250
420
  2299925
370
    25
100
AcDbLine
 10
85.99598533460778
 20
-144.006984143046
 30
0.0
 11
85.99598533460778
 21
-152.0071342672471
 31
0.0
  0
LINE
  5
86
330
7D
100
AcDbEntity
  8
レイヤー 1
 62
   250
420
  2299925
370
    25
100
AcDbLine
 10
101.9959610201466
 20
-152.0071342672471
 30
0.0
 11
101.9959610201466
 21
-152.4071137014872
 31
0.0
  0
LINE
  5
87
330
7D
100
AcDbEntity
  8
レイヤー 1
 62
   250
420
  2299925
370
    25
100
AcDbLine
 10
85.99598533949174
 20
-152.0071342672471
 30
0.0
 11
101.9959610201466
 21
-152.0071342672471
 31
0.0
  0
LINE
  5
88
330
7D
100
AcDbEntity
  8
レイヤー 1
 62
   250
420
  2299925
370
    25
100
AcDbLine
 10
101.9959610201466
 20
-152.4071137014872
 30
0.0
 11
84.99598895085327
 21
-153.0068131281055
 31
0.0
  0
SPLINE
  5
89
330
7D
100
AcDbEntity
  8
レイヤー 1
 62
   250
420
  2299925
370
     9
100
AcDbSpline
210
0.0
220
0.0
230
1.0
 70
    11
 71
     3
 72
    17
 73
    13
 74
     0
 42
0.0000000001
 43
0.0000000001
 40
0.0
 40
0.0
 40
0.0
 40
0.0
 40
1.0
 40
1.0
 40
1.0
 40
2.0
 40
2.0
 40
2.0
 40
3.0
 40
3.0
 40
3.0
 40
4.0
 40
4.0
 40
4.0
 40
4.0
 10
106.0963333900226
 20
-144.0069840874149
 30
0.0
 10
106.0963333900226
 20
-143.9517038110474
 30
0.0
 10
106.0515306122558
 20
-143.9069010344127
 30
0.0
 10
105.9957200847709
 20
-143.9069010344127
 30
0.0
 10
105.9406161972878
 20
-143.9069010344127
 30
0.0
 10
105.8958134206531
 20
-143.9517038110474
 30
0.0
 10
105.8958134206531
 20
-144.0069840874149
 30
0.0
 10
105.8958134206531
 20
-144.0622643637823
 30
0.0
 10
105.9406161972878
 20
-144.1070671404168
 30
0.0
 10
105.9957200847709
 20
-144.1070671404168
 30
0.0
 10
106.0515306122558
 20
-144.1070671404168
 30
0.0
 10
106.0963333900226
 20
-144.0622643637823
 30
0.0
 10
106.0963333900226
 20
-144.0069840874149
 30
0.0
  0
SPLINE
  5
8A
330
7D
100
AcDbEntity
  8
レイヤー 1
 62
   250
420
  2299925
370
     9
100
AcDbSpline
210
0.0
220
0.0
230
1.0
 70
     9
 71
     3
 72
    17
 73
    13
 74
     0
 42
0.0000000001
 43
0.0000000001
 40
0.0
 40
0.0
 40
0.0
 40
0.0
 40
1.0
 40
1.0
 40
1.0
 40
2.0
 40
2.0
 40
2.0
 40
3.0
 40
3.0
 40
3.0
 40
4.0
 40
4.0
 40
4.0
 40
4.0
 10
106.0963333900226
 20
-152.0071342672471
 30
0.0
 10
106.0963333900226
 20
-151.9516776019952
 30
0.0
 10
106.0515306122558
 20
-151.9068748253605
 30
0.0
 10
105.9957200847709
 20
-151.9068748253605
 30
0.0
 10
105.9406161972878
 20
-151.9068748253605
 30
0.0
 10
105.8958134206531
 20
-151.9516776019952
 30
0.0
 10
105.8958134206531
 20
-152.0071342672471
 30
0.0
 10
105.8958134206531
 20
-152.0622381547295
 30
0.0
 10
105.9406161972878
 20
-152.1070409313649
 30
0.0
 10
105.9957200847709
 20
-152.1070409313649
 30
0.0
 10
106.0515306122558
 20
-152.1070409313649
 30
0.0
 10
106.0963333900226
 20
-152.0622381547295
 30
0.0
 10
106.0963333900226
 20
-152.0071342672471
 30
0.0
  0
SPLINE
  5
8B
330
7D
100
AcDbEntity
  8
レイヤー 1
 62
   250
420
  2299925
370
     9
100
AcDbSpline
210
0.0
220
0.0
230
1.0
 70
     9
 71
     3
 72
    17
 73
    13
 74
     0
 42
0.0000000001
 43
0.0000000001
 40
0.0
 40
0.0
 40
0.0
 40
0.0
 40
1.0
 40
1.0
 40
1.0
 40
2.0
 40
2.0
 40
2.0
 40
3.0
 40
3.0
 40
3.0
 40
4.0
 40
4.0
 40
4.0
 40
4.0
 10
106.0963333900226
 20
-152.4071137014872
 30
0.0
 10
106.0963333900226
 20
-152.3516570362353
 30
0.0
 10
106.0515306122558
 20
-152.3068542596006
 30
0.0
 10
105.9957200847709
 20
-152.3068542596006
 30
0.0
 10
105.9406161972878
 20
-152.3068542596006
 30
0.0
 10
105.8958134206531
 20
-152.3516570362353
 30
0.0
 10
105.8958134206531
 20
-152.4071137014872
 30
0.0
 10
105.8958134206531
 20
-152.4622175889703
 30
0.0
 10
105.9406161972878
 20
-152.507020365605
 30
0.0
 10
105.9957200847709
 20
-152.507020365605
 30
0.0
 10
106.0515306122558
 20
-152.507020365605
 30
0.0
 10
106.0963333900226
 20
-152.4622175889703
 30
0.0
 10
106.0963333900226
 20
-152.4071137014872
 30
0.0
  0
CIRCLE
  5
8C
330
7D
100
AcDbEntity
  8
レイヤー 1
 62
   250
420
  2299925
370
     9
100
AcDbCircle
 10
101.9959610201466
 20
-157.1067485815894
 30
0.0
 40
0.099906664118076
  0
SPLINE
  5
8D
330
7D
100
AcDbEntity
  8
レイヤー 1
 62
   250
420
  2299925
370
     9
100
AcDbSpline
210
0.0
220
0.0
230
1.0
 70
     9
 71
     3
 72
    17
 73
    13
 74
     0
 42
0.0000000001
 43
0.0000000001
 40
0.0
 40
0.0
 40
0.0
 40
0.0
 40
1.0
 40
1.0
 40
1.0
 40
2.0
 40
2.0
 40
2.0
 40
3.0
 40
3.0
 40
3.0
 40
4.0
 40
4.0
 40
4.0
 40
4.0
 10
80.09606079916828
 20
-157.1067485815895
 30
0.0
 10
80.09606079916828
 20
-157.051603425659
 30
0.0
 10
80.05125802140156
 20
-157.006841917471
 30
0.0
 10
79.99597774363777
 20
-157.006841917471
 30
0.0
 10
79.94069746587396
 20
-157.006841917471
 30
0.0
 10
79.89607107699614
 20
-157.051603425659
 30
0.0
 10
79.89607107699614
 20
-157.1067485815895
 30
0.0
 10
79.89607107699614
 20
-157.1618524690726
 30
0.0
 10
79.94069746587396
 20
-157.2066552457074
 30
0.0
 10
79.99597774363777
 20
-157.2066552457074
 30
0.0
 10
80.05125802140156
 20
-157.2066552457074
 30
0.0
 10
80.09606079916828
 20
-157.1618524690726
 30
0.0
 10
80.09606079916828
 20
-157.1067485815895
 30
0.0
  0
SPLINE
  5
8E
330
7D
100
AcDbEntity
  8
レイヤー 1
 62
   250
420
  2299925
370
     9
100
AcDbSpline
210
0.0
220
0.0
230
1.0
 70
    11
 71
     3
 72
    17
 73
    13
 74
     0
 42
0.0000000001
 43
0.0000000001
 40
0.0
 40
0.0
 40
0.0
 40
0.0
 40
1.0
 40
1.0
 40
1.0
 40
2.0
 40
2.0
 40
2.0
 40
3.0
 40
3.0
 40
3.0
 40
4.0
 40
4.0
 40
4.0
 40
4.0
 10
78.04621024412495
 20
-144.0069840874149
 30
0.0
 10
78.04621024412495
 20
-143.9517038110474
 30
0.0
 10
78.00144274413638
 20
-143.9069010344127
 30
0.0
 10
77.94630357748395
 20
-143.9069010344127
 30
0.0
 10
77.8910232997195
 20
-143.9069010344127
 30
0.0
 10
77.84625579973031
 20
-143.9517038110474
 30
0.0
 10
77.84625579973031
 20
-144.0069840874149
 30
0.0
 10
77.84625579973031
 20
-144.0622643637823
 30
0.0
 10
77.8910232997195
 20
-144.1070671404168
 30
0.0
 10
77.94630357748395
 20
-144.1070671404168
 30
0.0
 10
78.00144274413638
 20
-144.1070671404168
 30
0.0
 10
78.04621024412495
 20
-144.0622643637823
 30
0.0
 10
78.04621024412495
 20
-144.0069840874149
 30
0.0
  0
SPLINE
  5
8F
330
7D
100
AcDbEntity
  8
レイヤー 1
 62
   250
420
  2299925
370
     9
100
AcDbSpline
210
0.0
220
0.0
230
1.0
 70
     9
 71
     3
 72
    17
 73
    13
 74
     0
 42
0.0000000001
 43
0.0000000001
 40
0.0
 40
0.0
 40
0.0
 40
0.0
 40
1.0
 40
1.0
 40
1.0
 40
2.0
 40
2.0
 40
2.0
 40
3.0
 40
3.0
 40
3.0
 40
4.0
 40
4.0
 40
4.0
 40
4.0
 10
78.04621024412495
 20
-145.0067562841305
 30
0.0
 10
78.04621024412495
 20
-144.9516171188709
 30
0.0
 10
78.00144274413638
 20
-144.906849620013
 30
0.0
 10
77.94630357748395
 20
-144.906849620013
 30
0.0
 10
77.8910232997195
 20
-144.906849620013
 30
0.0
 10
77.84625579973031
 20
-144.9516171188709
 30
0.0
 10
77.84625579973031
 20
-145.0067562841305
 30
0.0
 10
77.84625579973031
 20
-145.062212949383
 30
0.0
 10
77.8910232997195
 20
-145.1070157260174
 30
0.0
 10
77.94630357748395
 20
-145.1070157260174
 30
0.0
 10
78.00144274413638
 20
-145.1070157260174
 30
0.0
 10
78.04621024412495
 20
-145.062212949383
 30
0.0
 10
78.04621024412495
 20
-145.0067562841305
 30
0.0
  0
SPLINE
  5
90
330
7D
100
AcDbEntity
  8
レイヤー 1
 62
   250
420
  2299925
370
     9
100
AcDbSpline
210
0.0
220
0.0
230
1.0
 70
     9
 71
     3
 72
    17
 73
    13
 74
     0
 42
0.0000000001
 43
0.0000000001
 40
0.0
 40
0.0
 40
0.0
 40
0.0
 40
1.0
 40
1.0
 40
1.0
 40
2.0
 40
2.0
 40
2.0
 40
3.0
 40
3.0
 40
3.0
 40
4.0
 40
4.0
 40
4.0
 40
4.0
 10
85.09603672860563
 20
-157.1067485815895
 30
0.0
 10
85.09603672860563
 20
-157.051603425659
 30
0.0
 10
85.05126922861707
 20
-157.006841917471
 30
0.0
 10
84.99598895085327
 20
-157.006841917471
 30
0.0
 10
84.94084978420053
 20
-157.006841917471
 30
0.0
 10
84.89608228421099
 20
-157.051603425659
 30
0.0
 10
84.89608228421099
 20
-157.1067485815895
 30
0.0
 10
84.89608228421099
 20
-157.1618524690726
 30
0.0
 10
84.94084978420053
 20
-157.2066552457074
 30
0.0
 10
84.99598895085327
 20
-157.2066552457074
 30
0.0
 10
85.05126922861707
 20
-157.2066552457074
 30
0.0
 10
85.09603672860563
 20
-157.1618524690726
 30
0.0
 10
85.09603672860563
 20
-157.1067485815895
 30
0.0
  0
LINE
  5
91
330
7D
100
AcDbEntity
  8
レイヤー 1
 62
   250
420
  2299925
370
     9
100
AcDbLine
 10
79.99615413252666
 20
-157.1067485815895
 30
0.0
 11
84.99598885349854
 21
-157.1067485815895
 31
0.0
  0
LINE
  5
92
330
7D
100
AcDbEntity
  8
レイヤー 1
 62
   250
420
  2299925
370
     9
100
AcDbLine
 10
79.99597774363777
 20
-147.6469098835171
 30
0.0
 11
79.99597774363777
 21
-158.1071910560661
 31
0.0
  0
LINE
  5
93
330
7D
100
AcDbEntity
  8
レイヤー 1
 62
   250
420
  2299925
370
     9
100
AcDbLine
 10
84.99598895085327
 20
-155.6467072299494
 30
0.0
 11
84.99598895085327
 21
-158.1071910560661
 31
0.0
  0
INSERT
  5
95
330
7D
100
AcDbEntity
  8
レイヤー 1
100
AcDbBlockReference
  2
Block_2
 10
0.0
 20
0.0
 30
0.0
  0
LINE
  5
9A
330
7D
100
AcDbEntity
  8
レイヤー 1
 62
   250
420
  2299925
370
     9
100
AcDbLine
 10
84.99598895085327
 20
-157.1067485815895
 30
0.0
 11
101.9959610201466
 21
-157.1067485815895
 31
0.0
  0
LINE
  5
9B
330
7D
100
AcDbEntity
  8
レイヤー 1
 62
   250
420
  2299925
370
     9
100
AcDbLine
 10
101.9959610201466
 20
-154.946655025587
 30
0.0
 11
101.9959610201466
 21
-158.1071910560661
 31
0.0
  0
INSERT
  5
9D
330
7D
100
AcDbEntity
  8
レイヤー 1
100
AcDbBlockReference
  2
Block_3
 10
0.0
 20
0.0
 30
0.0
  0
LINE
  5
A8
330
7D
100
AcDbEntity
  8
レイヤー 1
 62
   250
420
  2299925
370
     9
100
AcDbLine
 10
105.9957200847709
 20
-152.0071342672471
 30
0.0
 11
105.9957200847709
 21
-144.006984143046
 31
0.0
  0
LINE
  5
A9
330
7D
100
AcDbEntity
  8
レイヤー 1
 62
   250
420
  2299925
370
     9
100
AcDbLine
 10
88.63605589438735
 20
-144.0069840874149
 30
0.0
 11
106.9961625592475
 21
-144.0069840874149
 31
0.0
  0
INSERT
  5
AB
330
7D
100
AcDbEntity
  8
レイヤー 1
100
AcDbBlockReference
  2
Block_5
 10
0.0
 20
0.0
 30
0.0
  0
LINE
  5
B2
330
7D
100
AcDbEntity
  8
レイヤー 1
 62
   250
420
  2299925
370
     9
100
AcDbLine
 10
105.9957200847709
 20
-152.4071137014872
 30
0.0
 11
105.9957200847709
 21
-153.4068858982031
 31
0.0
  0
LINE
  5
B3
330
7D
100
AcDbEntity
  8
レイヤー 1
 62
   250
420
  2299925
370
     9
100
AcDbLine
 10
105.9957200847709
 20
-152.0071342672471
 30
0.0
 11
105.9957200847709
 21
-152.4071137014872
 31
0.0
  0
LINE
  5
B4
330
7D
100
AcDbEntity
  8
レイヤー 1
 62
   250
420
  2299925
370
     9
100
AcDbLine
 10
104.5356787331308
 20
-152.0071342672471
 30
0.0
 11
106.9961625592475
 21
-152.0071342672471
 31
0.0
  0
LINE
  5
B5
330
7D
100
AcDbEntity
  8
レイヤー 1
 62
   250
420
  2299925
370
     9
100
AcDbLine
 10
104.5356787331308
 20
-152.4071137014872
 30
0.0
 11
106.9961625592475
 21
-152.4071137014872
 31
0.0
  0
INSERT
  5
B7
330
7D
100
AcDbEntity
  8
レイヤー 1
100
AcDbBlockReference
  2
Block_6
 10
0.0
 20
0.0
 30
0.0
  0
LINE
  5
C6
330
7D
100
AcDbEntity
  8
レイヤー 1
 62
   250
420
  2299925
370
     9
100
AcDbLine
 10
77.94630357748395
 20
-144.0069840874149
 30
0.0
 11
77.94630357748395
 21
-143.0070355018146
 31
0.0
  0
LINE
  5
C7
330
7D
100
AcDbEntity
  8
レイヤー 1
 62
   250
420
  2299925
370
     9
100
AcDbLine
 10
77.94630357748395
 20
-144.0069840874149
 30
0.0
 11
77.94630357748395
 21
-146.0068459808386
 31
0.0
  0
LINE
  5
C8
330
7D
100
AcDbEntity
  8
レイヤー 1
 62
   250
420
  2299925
370
     9
100
AcDbLine
 10
79.40616857711813
 20
-144.0069840874149
 30
0.0
 11
76.94621385551117
 21
-144.0069840874149
 31
0.0
  0
LINE
  5
C9
330
7D
100
AcDbEntity
  8
レイヤー 1
 62
   250
420
  2299925
370
     9
100
AcDbLine
 10
79.40616857711813
 20
-145.0067562841305
 30
0.0
 11
76.94621385551117
 21
-145.0067562841305
 31
0.0
  0
INSERT
  5
CB
330
7D
100
AcDbEntity
  8
レイヤー 1
100
AcDbBlockReference
  2
Block_8
 10
0.0
 20
0.0
 30
0.0
  0
ENDBLK
  5
80
330
7D
100
AcDbEntity
  8
0
100
AcDbBlockEnd
  0
BLOCK
  5
96
330
94
100
AcDbEntity
  8
0
100
AcDbBlockBegin
  2
Block_2
 70
     0
 10
0.0
 20
0.0
 30
0.0
  3
Block_2
  1

  0
SPLINE
  5
98
330
94
100
AcDbEntity
  8
レイヤー 1
100
AcDbSpline
210
0.0
220
0.0
230
1.0
 70
     9
 71
     3
 72
    53
 73
    49
 74
     0
 42
0.0000000001
 43
0.0000000001
 40
0.0
 40
0.0
 40
0.0
 40
0.0
 40
1.0
 40
1.0
 40
1.0
 40
2.0
 40
2.0
 40
2.0
 40
3.0
 40
3.0
 40
3.0
 40
4.0
 40
4.0
 40
4.0
 40
5.0
 40
5.0
 40
5.0
 40
6.0
 40
6.0
 40
6.0
 40
7.0
 40
7.0
 40
7.0
 40
8.0
 40
8.0
 40
8.0
 40
9.0
 40
9.0
 40
9.0
 40
10.0
 40
10.0
 40
10.0
 40
11.0
 40
11.0
 40
11.0
 40
12.0
 40
12.0
 40
12.0
 40
13.0
 40
13.0
 40
13.0
 40
14.0
 40
14.0
 40
14.0
 40
15.0
 40
15.0
 40
15.0
 40
16.0
 40
16.0
 40
16.0
 40
16.0
 10
82.45353730577551
 20
-156.5113769139971
 30
0.0
 10
82.38670245336166
 20
-156.5113769139971
 30
0.0
 10
82.30023055668189
 20
-156.4944959461194
 30
0.0
 10
82.21375866000212
 20
-156.4311061891908
 30
0.0
 10
82.0659640636849
 20
-156.3212076432114
 30
0.0
 10
82.04770505761308
 20
-156.1899495052233
 30
0.0
 10
82.03151310883241
 20
-156.082118016535
 30
0.0
 10
82.03151310883241
 20
-156.082118016535
 30
0.0
 10
82.22099336052115
 20
-156.082118016535
 30
0.0
 10
82.22099336052115
 20
-156.082118016535
 30
0.0
 10
82.26784665912054
 20
-156.2809000260339
 30
0.0
 10
82.37602265735738
 20
-156.3105278472071
 30
0.0
 10
82.45525985351813
 20
-156.3105278472071
 30
0.0
 10
82.57446015730778
 20
-156.3105278472071
 30
0.0
 10
82.70434025710169
 20
-156.2109645876834
 30
0.0
 10
82.70434025710169
 20
-155.978420642429
 30
0.0
 10
82.70434025710169
 20
-155.7224500478749
 30
0.0
 10
82.55103350800807
 20
-155.6525146095244
 30
0.0
 10
82.44802515299911
 20
-155.6525146095244
 30
0.0
 10
82.42115340821417
 20
-155.6525146095244
 30
0.0
 10
82.30023055668189
 20
-155.6525146095244
 30
0.0
 10
82.2244384560064
 20
-155.7817056902212
 30
0.0
 10
82.2244384560064
 20
-155.7817056902212
 30
0.0
 10
82.07492131194655
 20
-155.7627576650523
 30
0.0
 10
82.07492131194655
 20
-155.7627576650523
 30
0.0
 10
82.07492131194655
 20
-155.7627576650523
 30
0.0
 10
82.17758515740699
 20
-154.9162977043265
 30
0.0
 10
82.17758515740699
 20
-154.9162977043265
 30
0.0
 10
82.17758515740699
 20
-154.9162977043265
 30
0.0
 10
82.84111054786611
 20
-154.9162977043265
 30
0.0
 10
82.84111054786611
 20
-154.9162977043265
 30
0.0
 10
82.84111054786611
 20
-154.9162977043265
 30
0.0
 10
82.84111054786611
 20
-155.1109455992431
 30
0.0
 10
82.84111054786611
 20
-155.1109455992431
 30
0.0
 10
82.84111054786611
 20
-155.1109455992431
 30
0.0
 10
82.31642250546256
 20
-155.1109455992431
 30
0.0
 10
82.31642250546256
 20
-155.1109455992431
 30
0.0
 10
82.31642250546256
 20
-155.1109455992431
 30
0.0
 10
82.26061195860152
 20
-155.5340033248318
 30
0.0
 10
82.26061195860152
 20
-155.5340033248318
 30
0.0
 10
82.31297740997732
 20
-155.5002413890763
 30
0.0
 10
82.38325735787642
 20
-155.4599337718989
 30
0.0
 10
82.48419865559423
 20
-155.4599337718989
 30
0.0
 10
82.70055065206792
 20
-155.4599337718989
 30
0.0
 10
82.90243324750356
 20
-155.6463134376509
 30
0.0
 10
82.90243324750356
 20
-155.9594726172601
 30
0.0
 10
82.90243324750356
 20
-156.2767659114516
 30
0.0
 10
82.71157495762073
 20
-156.5113769139971
 30
0.0
 10
82.45353730577551
 20
-156.5113769139971
 30
0.0
  0
HATCH
  5
99
330
94
100
AcDbEntity
  8
レイヤー 1
 62
   250
420
  2299925
440
 33554687
100
AcDbHatch
 10
0.0
 20
0.0
 30
0.0
210
0.0
220
0.0
230
1.0
  2
SOLID
 70
     1
 71
     1
 91
        1
 92
        1
 93
        1
 72
     4
 94
        3
 73
     0
 74
     0
 95
       53
 96
       49
 40
0.0
 40
0.0
 40
0.0
 40
0.0
 40
1.0
 40
1.0
 40
1.0
 40
2.0
 40
2.0
 40
2.0
 40
3.0
 40
3.0
 40
3.0
 40
4.0
 40
4.0
 40
4.0
 40
5.0
 40
5.0
 40
5.0
 40
6.0
 40
6.0
 40
6.0
 40
7.0
 40
7.0
 40
7.0
 40
8.0
 40
8.0
 40
8.0
 40
9.0
 40
9.0
 40
9.0
 40
10.0
 40
10.0
 40
10.0
 40
11.0
 40
11.0
 40
11.0
 40
12.0
 40
12.0
 40
12.0
 40
13.0
 40
13.0
 40
13.0
 40
14.0
 40
14.0
 40
14.0
 40
15.0
 40
15.0
 40
15.0
 40
16.0
 40
16.0
 40
16.0
 40
16.0
 10
82.45353730577551
 20
-156.5113769139971
 10
82.38670245336166
 20
-156.5113769139971
 10
82.30023055668189
 20
-156.4944959461194
 10
82.21375866000212
 20
-156.4311061891908
 10
82.0659640636849
 20
-156.3212076432114
 10
82.04770505761308
 20
-156.1899495052233
 10
82.03151310883241
 20
-156.082118016535
 10
82.03151310883241
 20
-156.082118016535
 10
82.22099336052115
 20
-156.082118016535
 10
82.22099336052115
 20
-156.082118016535
 10
82.26784665912054
 20
-156.2809000260339
 10
82.37602265735738
 20
-156.3105278472071
 10
82.45525985351813
 20
-156.3105278472071
 10
82.57446015730778
 20
-156.3105278472071
 10
82.70434025710169
 20
-156.2109645876834
 10
82.70434025710169
 20
-155.978420642429
 10
82.70434025710169
 20
-155.7224500478749
 10
82.55103350800807
 20
-155.6525146095244
 10
82.44802515299911
 20
-155.6525146095244
 10
82.42115340821417
 20
-155.6525146095244
 10
82.30023055668189
 20
-155.6525146095244
 10
82.2244384560064
 20
-155.7817056902212
 10
82.2244384560064
 20
-155.7817056902212
 10
82.07492131194655
 20
-155.7627576650523
 10
82.07492131194655
 20
-155.7627576650523
 10
82.07492131194655
 20
-155.7627576650523
 10
82.17758515740699
 20
-154.9162977043265
 10
82.17758515740699
 20
-154.9162977043265
 10
82.17758515740699
 20
-154.9162977043265
 10
82.84111054786611
 20
-154.9162977043265
 10
82.84111054786611
 20
-154.9162977043265
 10
82.84111054786611
 20
-154.9162977043265
 10
82.84111054786611
 20
-155.1109455992431
 10
82.84111054786611
 20
-155.1109455992431
 10
82.84111054786611
 20
-155.1109455992431
 10
82.31642250546256
 20
-155.1109455992431
 10
82.31642250546256
 20
-155.1109455992431
 10
82.31642250546256
 20
-155.1109455992431
 10
82.26061195860152
 20
-155.5340033248318
 10
82.26061195860152
 20
-155.5340033248318
 10
82.31297740997732
 20
-155.5002413890763
 10
82.38325735787642
 20
-155.4599337718989
 10
82.48419865559423
 20
-155.4599337718989
 10
82.70055065206792
 20
-155.4599337718989
 10
82.90243324750356
 20
-155.6463134376509
 10
82.90243324750356
 20
-155.9594726172601
 10
82.90243324750356
 20
-156.2767659114516
 10
82.71157495762073
 20
-156.5113769139971
 10
82.45353730577551
 20
-156.5113769139971
 97
        0
 97
        1
330
98
 75
     2
 76
     1
 98
        1
 10
0.0
 20
0.0
450
        0
451
        0
460
0.0
461
0.0
452
        0
462
0.0
453
        0
470

  0
ENDBLK
  5
97
330
94
100
AcDbEntity
  8
0
100
AcDbBlockEnd
  0
BLOCK
  5
9E
330
9C
100
AcDbEntity
  8
0
100
AcDbBlockBegin
  2
Block_3
 70
     0
 10
0.0
 20
0.0
 30
0.0
  3
Block_3
  1

  0
INSERT
  5
A1
330
9C
100
AcDbEntity
  8
レイヤー 1
100
AcDbBlockReference
  2
Block_4
 10
0.0
 20
0.0
 30
0.0
  0
ENDBLK
  5
9F
330
9C
100
AcDbEntity
  8
0
100
AcDbBlockEnd
  0
BLOCK
  5
A2
330
A0
100
AcDbEntity
  8
0
100
AcDbBlockBegin
  2
Block_4
 70
     0
 10
0.0
 20
0.0
 30
0.0
  3
Block_4
  1

  0
SPLINE
  5
A4
330
A0
100
AcDbEntity
  8
レイヤー 1
100
AcDbSpline
210
0.0
220
0.0
230
1.0
 70
    11
 71
     3
 72
    26
 73
    22
 74
     0
 42
0.0000000001
 43
0.0000000001
 40
0.0
 40
0.0
 40
0.0
 40
0.0
 40
1.0
 40
1.0
 40
1.0
 40
2.0
 40
2.0
 40
2.0
 40
3.0
 40
3.0
 40
3.0
 40
4.0
 40
4.0
 40
4.0
 40
5.0
 40
5.0
 40
5.0
 40
6.0
 40
6.0
 40
6.0
 40
7.0
 40
7.0
 40
7.0
 40
7.0
 10
92.95418834481701
 20
-156.4610785199125
 30
0.0
 10
92.95418834481701
 20
-156.4610785199125
 30
0.0
 10
92.95418834481701
 20
-155.3569254168899
 30
0.0
 10
92.95418834481701
 20
-155.3569254168899
 30
0.0
 10
92.95418834481701
 20
-155.3569254168899
 30
0.0
 10
92.6727240436721
 20
-155.3569254168899
 30
0.0
 10
92.6727240436721
 20
-155.3569254168899
 30
0.0
 10
92.6727240436721
 20
-155.3569254168899
 30
0.0
 10
92.6727240436721
 20
-155.2087863110242
 30
0.0
 10
92.6727240436721
 20
-155.2087863110242
 30
0.0
 10
92.95591089255964
 20
-155.1939724004376
 30
0.0
 10
92.99552949064
 20
-155.0310193839853
 30
0.0
 10
93.02067868768233
 20
-154.916642213875
 30
0.0
 10
93.02067868768233
 20
-154.916642213875
 30
0.0
 10
93.14539114424837
 20
-154.916642213875
 30
0.0
 10
93.14539114424837
 20
-154.916642213875
 30
0.0
 10
93.14539114424837
 20
-154.916642213875
 30
0.0
 10
93.14539114424837
 20
-156.4610785199125
 30
0.0
 10
93.14539114424837
 20
-156.4610785199125
 30
0.0
 10
93.14539114424837
 20
-156.4610785199125
 30
0.0
 10
92.95418834481701
 20
-156.4610785199125
 30
0.0
 10
92.95418834481701
 20
-156.4610785199125
 30
0.0
  0
HATCH
  5
A5
330
A0
100
AcDbEntity
  8
レイヤー 1
 62
   250
420
  2299925
440
 33554687
100
AcDbHatch
 10
0.0
 20
0.0
 30
0.0
210
0.0
220
0.0
230
1.0
  2
SOLID
 70
     1
 71
     1
 91
        1
 92
        1
 93
        1
 72
     4
 94
        3
 73
     0
 74
     0
 95
       26
 96
       22
 40
0.0
 40
0.0
 40
0.0
 40
0.0
 40
1.0
 40
1.0
 40
1.0
 40
2.0
 40
2.0
 40
2.0
 40
3.0
 40
3.0
 40
3.0
 40
4.0
 40
4.0
 40
4.0
 40
5.0
 40
5.0
 40
5.0
 40
6.0
 40
6.0
 40
6.0
 40
7.0
 40
7.0
 40
7.0
 40
7.0
 10
92.95418834481701
 20
-156.4610785199125
 10
92.95418834481701
 20
-156.4610785199125
 10
92.95418834481701
 20
-155.3569254168899
 10
92.95418834481701
 20
-155.3569254168899
 10
92.95418834481701
 20
-155.3569254168899
 10
92.6727240436721
 20
-155.3569254168899
 10
92.6727240436721
 20
-155.3569254168899
 10
92.6727240436721
 20
-155.3569254168899
 10
92.6727240436721
 20
-155.2087863110242
 10
92.6727240436721
 20
-155.2087863110242
 10
92.95591089255964
 20
-155.1939724004376
 10
92.99552949064
 20
-155.0310193839853
 10
93.02067868768233
 20
-154.916642213875
 10
93.02067868768233
 20
-154.916642213875
 10
93.14539114424837
 20
-154.916642213875
 10
93.14539114424837
 20
-154.916642213875
 10
93.14539114424837
 20
-154.916642213875
 10
93.14539114424837
 20
-156.4610785199125
 10
93.14539114424837
 20
-156.4610785199125
 10
93.14539114424837
 20
-156.4610785199125
 10
92.95418834481701
 20
-156.4610785199125
 10
92.95418834481701
 20
-156.4610785199125
 97
        0
 97
        1
330
A4
 75
     2
 76
     1
 98
        1
 10
0.0
 20
0.0
450
        0
451
        0
460
0.0
461
0.0
452
        0
462
0.0
453
        0
470

  0
SPLINE
  5
A6
330
A0
100
AcDbEntity
  8
レイヤー 1
100
AcDbSpline
210
0.0
220
0.0
230
1.0
 70
     9
 71
     3
 72
    26
 73
    22
 74
     0
 42
0.0000000001
 43
0.0000000001
 40
0.0
 40
0.0
 40
0.0
 40
0.0
 40
1.0
 40
1.0
 40
1.0
 40
2.0
 40
2.0
 40
2.0
 40
3.0
 40
3.0
 40
3.0
 40
4.0
 40
4.0
 40
4.0
 40
5.0
 40
5.0
 40
5.0
 40
6.0
 40
6.0
 40
6.0
 40
7.0
 40
7.0
 40
7.0
 40
7.0
 10
93.92157115707517
 20
-156.4610785199125
 30
0.0
 10
93.92157115707517
 20
-156.4610785199125
 30
0.0
 10
93.71968856163952
 20
-156.4610785199125
 30
0.0
 10
93.71968856163952
 20
-156.4610785199125
 30
0.0
 10
93.7413926631966
 20
-156.1520534548856
 30
0.0
 10
93.9053792082945
 20
-155.633911093904
 30
0.0
 10
94.2516113045621
 20
-155.1281710766693
 30
0.0
 10
94.2516113045621
 20
-155.1281710766693
 30
0.0
 10
93.53744301046981
 20
-155.1281710766693
 30
0.0
 10
93.53744301046981
 20
-155.1281710766693
 30
0.0
 10
93.53744301046981
 20
-155.1281710766693
 30
0.0
 10
93.53744301046981
 20
-154.916642213875
 30
0.0
 10
93.53744301046981
 20
-154.916642213875
 30
0.0
 10
93.53744301046981
 20
-154.916642213875
 30
0.0
 10
94.45349389999774
 20
-154.916642213875
 30
0.0
 10
94.45349389999774
 20
-154.916642213875
 30
0.0
 10
94.45349389999774
 20
-154.916642213875
 30
0.0
 10
94.45349389999774
 20
-155.1281710766693
 30
0.0
 10
94.45349389999774
 20
-155.1281710766693
 30
0.0
 10
94.17788626117776
 20
-155.4182481165274
 30
0.0
 10
93.95050995915125
 20
-156.0104600304418
 30
0.0
 10
93.92157115707517
 20
-156.4610785199125
 30
0.0
  0
HATCH
  5
A7
330
A0
100
AcDbEntity
  8
レイヤー 1
 62
   250
420
  2299925
440
 33554687
100
AcDbHatch
 10
0.0
 20
0.0
 30
0.0
210
0.0
220
0.0
230
1.0
  2
SOLID
 70
     1
 71
     1
 91
        1
 92
        1
 93
        1
 72
     4
 94
        3
 73
     0
 74
     0
 95
       26
 96
       22
 40
0.0
 40
0.0
 40
0.0
 40
0.0
 40
1.0
 40
1.0
 40
1.0
 40
2.0
 40
2.0
 40
2.0
 40
3.0
 40
3.0
 40
3.0
 40
4.0
 40
4.0
 40
4.0
 40
5.0
 40
5.0
 40
5.0
 40
6.0
 40
6.0
 40
6.0
 40
7.0
 40
7.0
 40
7.0
 40
7.0
 10
93.92157115707517
 20
-156.4610785199125
 10
93.92157115707517
 20
-156.4610785199125
 10
93.71968856163952
 20
-156.4610785199125
 10
93.71968856163952
 20
-156.4610785199125
 10
93.7413926631966
 20
-156.1520534548856
 10
93.9053792082945
 20
-155.633911093904
 10
94.2516113045621
 20
-155.1281710766693
 10
94.2516113045621
 20
-155.1281710766693
 10
93.53744301046981
 20
-155.1281710766693
 10
93.53744301046981
 20
-155.1281710766693
 10
93.53744301046981
 20
-155.1281710766693
 10
93.53744301046981
 20
-154.916642213875
 10
93.53744301046981
 20
-154.916642213875
 10
93.53744301046981
 20
-154.916642213875
 10
94.45349389999774
 20
-154.916642213875
 10
94.45349389999774
 20
-154.916642213875
 10
94.45349389999774
 20
-154.916642213875
 10
94.45349389999774
 20
-155.1281710766693
 10
94.45349389999774
 20
-155.1281710766693
 10
94.17788626117776
 20
-155.4182481165274
 10
93.95050995915125
 20
-156.0104600304418
 10
93.92157115707517
 20
-156.4610785199125
 97
        0
 97
        1
330
A6
 75
     2
 76
     1
 98
        1
 10
0.0
 20
0.0
450
        0
451
        0
460
0.0
461
0.0
452
        0
462
0.0
453
        0
470

  0
ENDBLK
  5
A3
330
A0
100
AcDbEntity
  8
0
100
AcDbBlockEnd
  0
BLOCK
  5
AC
330
AA
100
AcDbEntity
  8
0
100
AcDbBlockBegin
  2
Block_5
 70
     0
 10
0.0
 20
0.0
 30
0.0
  3
Block_5
  1

  0
SPLINE
  5
AE
330
AA
100
AcDbEntity
  8
レイヤー 1
100
AcDbSpline
210
0.0
220
0.0
230
1.0
 70
     9
 71
     3
 72
    17
 73
    13
 74
     0
 42
0.0000000001
 43
0.0000000001
 40
0.0
 40
0.0
 40
0.0
 40
0.0
 40
1.0
 40
1.0
 40
1.0
 40
2.0
 40
2.0
 40
2.0
 40
3.0
 40
3.0
 40
3.0
 40
4.0
 40
4.0
 40
4.0
 40
4.0
 10
104.6092908809657
 20
-148.0068141991094
 30
0.0
 10
104.6092908809657
 20
-148.1294595983843
 30
0.0
 10
104.696107287194
 20
-148.2593396981782
 30
0.0
 10
104.8990234112752
 20
-148.2593396981782
 30
0.0
 10
105.1043511021961
 20
-148.2593396981782
 30
0.0
 10
105.2056369094625
 20
-148.1511636999414
 30
0.0
 10
105.2056369094625
 20
-148.0068141991094
 30
0.0
 10
105.2056369094625
 20
-147.8479952972394
 30
0.0
 10
105.0829915101876
 20
-147.7542887000406
 30
0.0
 10
104.9052245831487
 20
-147.7542887000406
 30
0.0
 10
104.6833604338986
 20
-147.7542887000406
 30
0.0
 10
104.6092908809657
 20
-147.8931260480962
 30
0.0
 10
104.6092908809657
 20
-148.0068141991094
 30
0.0
  0
SPLINE
  5
AF
330
AA
100
AcDbEntity
  8
レイヤー 1
100
AcDbSpline
210
0.0
220
0.0
230
1.0
 70
     9
 71
     3
 72
    17
 73
    13
 74
     0
 42
0.0000000001
 43
0.0000000001
 40
0.0
 40
0.0
 40
0.0
 40
0.0
 40
1.0
 40
1.0
 40
1.0
 40
2.0
 40
2.0
 40
2.0
 40
3.0
 40
3.0
 40
3.0
 40
4.0
 40
4.0
 40
4.0
 40
4.0
 10
103.9492105859918
 20
-148.0068141991094
 30
0.0
 10
103.9492105859918
 20
-148.1473740949076
 30
0.0
 10
104.0442952213847
 20
-148.2197211000978
 30
0.0
 10
104.1796874739551
 20
-148.2197211000978
 30
0.0
 10
104.3023328732299
 20
-148.2197211000978
 30
0.0
 10
104.4208441579225
 20
-148.1583984004604
 30
0.0
 10
104.4208441579225
 20
-148.0068141991094
 30
0.0
 10
104.4208441579225
 20
-147.8552299977584
 30
0.0
 10
104.3023328732299
 20
-147.793907298121
 30
0.0
 10
104.1796874739551
 20
-147.793907298121
 30
0.0
 10
104.0442952213847
 20
-147.793907298121
 30
0.0
 10
103.9492105859918
 20
-147.8679768510538
 30
0.0
 10
103.9492105859918
 20
-148.0068141991094
 30
0.0
  0
SPLINE
  5
B0
330
AA
100
AcDbEntity
  8
レイヤー 1
100
AcDbSpline
210
0.0
220
0.0
230
1.0
 70
     9
 71
     3
 72
    29
 73
    25
 74
     0
 42
0.0000000001
 43
0.0000000001
 40
0.0
 40
0.0
 40
0.0
 40
0.0
 40
1.0
 40
1.0
 40
1.0
 40
2.0
 40
2.0
 40
2.0
 40
3.0
 40
3.0
 40
3.0
 40
4.0
 40
4.0
 40
4.0
 40
5.0
 40
5.0
 40
5.0
 40
6.0
 40
6.0
 40
6.0
 40
7.0
 40
7.0
 40
7.0
 40
8.0
 40
8.0
 40
8.0
 40
8.0
 10
105.4002848043791
 20
-148.0068141991094
 30
0.0
 10
105.4002848043791
 20
-148.2338459915873
 30
0.0
 10
105.2628254945176
 20
-148.4505424976096
 30
0.0
 10
104.9138373218618
 20
-148.4505424976096
 30
0.0
 10
104.6578667273077
 20
-148.4505424976096
 30
0.0
 10
104.5627820919148
 20
-148.3296196460773
 30
0.0
 10
104.5014593922774
 20
-148.2393581443638
 30
0.0
 10
104.4422037499311
 20
-148.345811594858
 30
0.0
 10
104.3278265798208
 20
-148.4105793899806
 30
0.0
 10
104.1669406206596
 20
-148.4105793899806
 30
0.0
 10
103.8920220009367
 20
-148.4105793899806
 30
0.0
 10
103.7566297483664
 20
-148.2410806921064
 30
0.0
 10
103.7566297483664
 20
-148.0068141991094
 30
0.0
 10
103.7566297483664
 20
-147.7649684960448
 30
0.0
 10
103.9006347396498
 20
-147.6027044986896
 30
0.0
 10
104.1669406206596
 20
-147.6027044986896
 30
0.0
 10
104.3278265798208
 20
-147.6027044986896
 30
0.0
 10
104.4422037499311
 20
-147.6695393511034
 30
0.0
 10
104.5014593922774
 20
-147.7759928015976
 30
0.0
 10
104.5521022959106
 20
-147.7002007009222
 30
0.0
 10
104.6471869313035
 20
-147.5648084483518
 30
0.0
 10
104.9097032072795
 20
-147.5648084483518
 30
0.0
 10
105.2841850865261
 20
-147.5648084483518
 30
0.0
 10
105.4002848043791
 20
-147.8028645463826
 30
0.0
 10
105.4002848043791
 20
-148.0068141991094
 30
0.0
  0
HATCH
  5
B1
330
AA
100
AcDbEntity
  8
レイヤー 1
 62
   250
420
  2299925
440
 33554687
100
AcDbHatch
 10
0.0
 20
0.0
 30
0.0
210
0.0
220
0.0
230
1.0
  2
SOLID
 70
     1
 71
     1
 91
        3
 92
        1
 93
        1
 72
     4
 94
        3
 73
     0
 74
     0
 95
       17
 96
       13
 40
0.0
 40
0.0
 40
0.0
 40
0.0
 40
1.0
 40
1.0
 40
1.0
 40
2.0
 40
2.0
 40
2.0
 40
3.0
 40
3.0
 40
3.0
 40
4.0
 40
4.0
 40
4.0
 40
4.0
 10
104.6092908809657
 20
-148.0068141991094
 10
104.6092908809657
 20
-148.1294595983843
 10
104.696107287194
 20
-148.2593396981782
 10
104.8990234112752
 20
-148.2593396981782
 10
105.1043511021961
 20
-148.2593396981782
 10
105.2056369094625
 20
-148.1511636999414
 10
105.2056369094625
 20
-148.0068141991094
 10
105.2056369094625
 20
-147.8479952972394
 10
105.0829915101876
 20
-147.7542887000406
 10
104.9052245831487
 20
-147.7542887000406
 10
104.6833604338986
 20
-147.7542887000406
 10
104.6092908809657
 20
-147.8931260480962
 10
104.6092908809657
 20
-148.0068141991094
 97
        0
 97
        1
330
AE
 92
        1
 93
        1
 72
     4
 94
        3
 73
     0
 74
     0
 95
       17
 96
       13
 40
0.0
 40
0.0
 40
0.0
 40
0.0
 40
1.0
 40
1.0
 40
1.0
 40
2.0
 40
2.0
 40
2.0
 40
3.0
 40
3.0
 40
3.0
 40
4.0
 40
4.0
 40
4.0
 40
4.0
 10
103.9492105859918
 20
-148.0068141991094
 10
103.9492105859918
 20
-148.1473740949076
 10
104.0442952213847
 20
-148.2197211000978
 10
104.1796874739551
 20
-148.2197211000978
 10
104.3023328732299
 20
-148.2197211000978
 10
104.4208441579225
 20
-148.1583984004604
 10
104.4208441579225
 20
-148.0068141991094
 10
104.4208441579225
 20
-147.8552299977584
 10
104.3023328732299
 20
-147.793907298121
 10
104.1796874739551
 20
-147.793907298121
 10
104.0442952213847
 20
-147.793907298121
 10
103.9492105859918
 20
-147.8679768510538
 10
103.9492105859918
 20
-148.0068141991094
 97
        0
 97
        1
330
AF
 92
        1
 93
        1
 72
     4
 94
        3
 73
     0
 74
     0
 95
       29
 96
       25
 40
0.0
 40
0.0
 40
0.0
 40
0.0
 40
1.0
 40
1.0
 40
1.0
 40
2.0
 40
2.0
 40
2.0
 40
3.0
 40
3.0
 40
3.0
 40
4.0
 40
4.0
 40
4.0
 40
5.0
 40
5.0
 40
5.0
 40
6.0
 40
6.0
 40
6.0
 40
7.0
 40
7.0
 40
7.0
 40
8.0
 40
8.0
 40
8.0
 40
8.0
 10
105.4002848043791
 20
-148.0068141991094
 10
105.4002848043791
 20
-148.2338459915873
 10
105.2628254945176
 20
-148.4505424976096
 10
104.9138373218618
 20
-148.4505424976096
 10
104.6578667273077
 20
-148.4505424976096
 10
104.5627820919148
 20
-148.3296196460773
 10
104.5014593922774
 20
-148.2393581443638
 10
104.4422037499311
 20
-148.345811594858
 10
104.3278265798208
 20
-148.4105793899806
 10
104.1669406206596
 20
-148.4105793899806
 10
103.8920220009367
 20
-148.4105793899806
 10
103.7566297483664
 20
-148.2410806921064
 10
103.7566297483664
 20
-148.0068141991094
 10
103.7566297483664
 20
-147.7649684960448
 10
103.9006347396498
 20
-147.6027044986896
 10
104.1669406206596
 20
-147.6027044986896
 10
104.3278265798208
 20
-147.6027044986896
 10
104.4422037499311
 20
-147.6695393511034
 10
104.5014593922774
 20
-147.7759928015976
 10
104.5521022959106
 20
-147.7002007009222
 10
104.6471869313035
 20
-147.5648084483518
 10
104.9097032072795
 20
-147.5648084483518
 10
105.2841850865261
 20
-147.5648084483518
 10
105.4002848043791
 20
-147.8028645463826
 10
105.4002848043791
 20
-148.0068141991094
 97
        0
 97
        1
330
B0
 75
     2
 76
     1
 98
        1
 10
0.0
 20
0.0
450
        0
451
        0
460
0.0
461
0.0
452
        0
462
0.0
453
        0
470

  0
ENDBLK
  5
AD
330
AA
100
AcDbEntity
  8
0
100
AcDbBlockEnd
  0
BLOCK
  5
B8
330
B6
100
AcDbEntity
  8
0
100
AcDbBlockBegin
  2
Block_6
 70
     0
 10
0.0
 20
0.0
 30
0.0
  3
Block_6
  1

  0
INSERT
  5
BB
330
B6
100
AcDbEntity
  8
レイヤー 1
100
AcDbBlockReference
  2
Block_7
 10
0.0
 20
0.0
 30
0.0
  0
ENDBLK
  5
B9
330
B6
100
AcDbEntity
  8
0
100
AcDbBlockEnd
  0
BLOCK
  5
BC
330
BA
100
AcDbEntity
  8
0
100
AcDbBlockBegin
  2
Block_7
 70
     0
 10
0.0
 20
0.0
 30
0.0
  3
Block_7
  1

  0
SPLINE
  5
BE
330
BA
100
AcDbEntity
  8
レイヤー 1
100
AcDbSpline
210
0.0
220
0.0
230
1.0
 70
     9
 71
     3
 72
    17
 73
    13
 74
     0
 42
0.0000000001
 43
0.0000000001
 40
0.0
 40
0.0
 40
0.0
 40
0.0
 40
1.0
 40
1.0
 40
1.0
 40
2.0
 40
2.0
 40
2.0
 40
3.0
 40
3.0
 40
3.0
 40
4.0
 40
4.0
 40
4.0
 40
4.0
 10
108.1825439182668
 20
-153.083162396625
 30
0.0
 10
108.1825439182668
 20
-153.2957247880649
 30
0.0
 10
108.4660752767029
 20
-153.3356878956938
 30
0.0
 10
108.8109293347764
 20
-153.3356878956938
 30
0.0
 10
109.1302896862591
 20
-153.3356878956938
 30
0.0
 10
109.4389702417374
 20
-153.3050265458751
 30
0.0
 10
109.4389702417374
 20
-153.083162396625
 30
0.0
 10
109.4389702417374
 20
-152.8719780433792
 30
0.0
 10
109.1578504501411
 20
-152.8306368975562
 30
0.0
 10
108.8109293347764
 20
-152.8306368975562
 30
0.0
 10
108.4912244737452
 20
-152.8306368975562
 30
0.0
 10
108.1825439182668
 20
-152.8630207951176
 30
0.0
 10
108.1825439182668
 20
-153.083162396625
 30
0.0
  0
SPLINE
  5
BF
330
BA
100
AcDbEntity
  8
レイヤー 1
100
AcDbSpline
210
0.0
220
0.0
230
1.0
 70
     9
 71
     3
 72
    29
 73
    25
 74
     0
 42
0.0000000001
 43
0.0000000001
 40
0.0
 40
0.0
 40
0.0
 40
0.0
 40
1.0
 40
1.0
 40
1.0
 40
2.0
 40
2.0
 40
2.0
 40
3.0
 40
3.0
 40
3.0
 40
4.0
 40
4.0
 40
4.0
 40
5.0
 40
5.0
 40
5.0
 40
6.0
 40
6.0
 40
6.0
 40
7.0
 40
7.0
 40
7.0
 40
8.0
 40
8.0
 40
8.0
 40
8.0
 10
109.405208305982
 20
-152.7441650008765
 30
0.0
 10
109.6146701114852
 20
-152.8361490503326
 30
0.0
 10
109.6336181366541
 20
-152.9839436466498
 30
0.0
 10
109.6336181366541
 20
-153.083162396625
 30
0.0
 10
109.6336181366541
 20
-153.2202771969379
 30
0.0
 10
109.5871093476032
 20
-153.3408555389217
 30
0.0
 10
109.405208305982
 20
-153.4221597923736
 30
0.0
 10
109.2105604110654
 20
-153.510354236796
 30
0.0
 10
108.9738823512287
 20
-153.5265461855767
 30
0.0
 10
108.8109293347764
 20
-153.5265461855767
 30
0.0
 10
108.666924343493
 20
-153.5265461855767
 30
0.0
 10
108.4150878635212
 20
-153.5124212940871
 30
0.0
 10
108.2163058540223
 20
-153.4221597923736
 30
0.0
 10
108.0133897299411
 20
-153.3301757429175
 30
0.0
 10
107.9899630806414
 20
-153.1930609426045
 30
0.0
 10
107.9899630806414
 20
-153.083162396625
 30
0.0
 10
107.9899630806414
 20
-152.9477701440547
 30
0.0
 10
108.0344048124011
 20
-152.8251247447798
 30
0.0
 10
108.2163058540223
 20
-152.7441650008765
 30
0.0
 10
108.4088866916478
 20
-152.6594156519393
 30
0.0
 10
108.6372965223198
 20
-152.6394340981248
 30
0.0
 10
108.8109293347764
 20
-152.6394340981248
 30
0.0
 10
108.9821505803933
 20
-152.6394340981248
 30
0.0
 10
109.2126274683566
 20
-152.6576931041967
 30
0.0
 10
109.405208305982
 20
-152.7441650008765
 30
0.0
  0
HATCH
  5
C0
330
BA
100
AcDbEntity
  8
レイヤー 1
 62
   250
420
  2299925
440
 33554687
100
AcDbHatch
 10
0.0
 20
0.0
 30
0.0
210
0.0
220
0.0
230
1.0
  2
SOLID
 70
     1
 71
     1
 91
        2
 92
        1
 93
        1
 72
     4
 94
        3
 73
     0
 74
     0
 95
       17
 96
       13
 40
0.0
 40
0.0
 40
0.0
 40
0.0
 40
1.0
 40
1.0
 40
1.0
 40
2.0
 40
2.0
 40
2.0
 40
3.0
 40
3.0
 40
3.0
 40
4.0
 40
4.0
 40
4.0
 40
4.0
 10
108.1825439182668
 20
-153.083162396625
 10
108.1825439182668
 20
-153.2957247880649
 10
108.4660752767029
 20
-153.3356878956938
 10
108.8109293347764
 20
-153.3356878956938
 10
109.1302896862591
 20
-153.3356878956938
 10
109.4389702417374
 20
-153.3050265458751
 10
109.4389702417374
 20
-153.083162396625
 10
109.4389702417374
 20
-152.8719780433792
 10
109.1578504501411
 20
-152.8306368975562
 10
108.8109293347764
 20
-152.8306368975562
 10
108.4912244737452
 20
-152.8306368975562
 10
108.1825439182668
 20
-152.8630207951176
 10
108.1825439182668
 20
-153.083162396625
 97
        0
 97
        1
330
BE
 92
        1
 93
        1
 72
     4
 94
        3
 73
     0
 74
     0
 95
       29
 96
       25
 40
0.0
 40
0.0
 40
0.0
 40
0.0
 40
1.0
 40
1.0
 40
1.0
 40
2.0
 40
2.0
 40
2.0
 40
3.0
 40
3.0
 40
3.0
 40
4.0
 40
4.0
 40
4.0
 40
5.0
 40
5.0
 40
5.0
 40
6.0
 40
6.0
 40
6.0
 40
7.0
 40
7.0
 40
7.0
 40
8.0
 40
8.0
 40
8.0
 40
8.0
 10
109.405208305982
 20
-152.7441650008765
 10
109.6146701114852
 20
-152.8361490503326
 10
109.6336181366541
 20
-152.9839436466498
 10
109.6336181366541
 20
-153.083162396625
 10
109.6336181366541
 20
-153.2202771969379
 10
109.5871093476032
 20
-153.3408555389217
 10
109.405208305982
 20
-153.4221597923736
 10
109.2105604110654
 20
-153.510354236796
 10
108.9738823512287
 20
-153.5265461855767
 10
108.8109293347764
 20
-153.5265461855767
 10
108.666924343493
 20
-153.5265461855767
 10
108.4150878635212
 20
-153.5124212940871
 10
108.2163058540223
 20
-153.4221597923736
 10
108.0133897299411
 20
-153.3301757429175
 10
107.9899630806414
 20
-153.1930609426045
 10
107.9899630806414
 20
-153.083162396625
 10
107.9899630806414
 20
-152.9477701440547
 10
108.0344048124011
 20
-152.8251247447798
 10
108.2163058540223
 20
-152.7441650008765
 10
108.4088866916478
 20
-152.6594156519393
 10
108.6372965223198
 20
-152.6394340981248
 10
108.8109293347764
 20
-152.6394340981248
 10
108.9821505803933
 20
-152.6394340981248
 10
109.2126274683566
 20
-152.6576931041967
 10
109.405208305982
 20
-152.7441650008765
 97
        0
 97
        1
330
BF
 75
     2
 76
     1
 98
        1
 10
0.0
 20
0.0
450
        0
451
        0
460
0.0
461
0.0
452
        0
462
0.0
453
        0
470

  0
SPLINE
  5
C1
330
BA
100
AcDbEntity
  8
レイヤー 1
100
AcDbSpline
210
0.0
220
0.0
230
1.0
 70
    11
 71
     3
 72
    17
 73
    13
 74
     0
 42
0.0000000001
 43
0.0000000001
 40
0.0
 40
0.0
 40
0.0
 40
0.0
 40
1.0
 40
1.0
 40
1.0
 40
2.0
 40
2.0
 40
2.0
 40
3.0
 40
3.0
 40
3.0
 40
4.0
 40
4.0
 40
4.0
 40
4.0
 10
109.5829752330209
 20
-152.4564995278581
 30
0.0
 10
109.5829752330209
 20
-152.4564995278581
 30
0.0
 10
109.3311387530491
 20
-152.4564995278581
 30
0.0
 10
109.3311387530491
 20
-152.4564995278581
 30
0.0
 10
109.3311387530491
 20
-152.4564995278581
 30
0.0
 10
109.3311387530491
 20
-152.241870079127
 30
0.0
 10
109.3311387530491
 20
-152.241870079127
 30
0.0
 10
109.3311387530491
 20
-152.241870079127
 30
0.0
 10
109.5829752330209
 20
-152.241870079127
 30
0.0
 10
109.5829752330209
 20
-152.241870079127
 30
0.0
 10
109.5829752330209
 20
-152.241870079127
 30
0.0
 10
109.5829752330209
 20
-152.4564995278581
 30
0.0
 10
109.5829752330209
 20
-152.4564995278581
 30
0.0
  0
HATCH
  5
C2
330
BA
100
AcDbEntity
  8
レイヤー 1
 62
   250
420
  2299925
440
 33554687
100
AcDbHatch
 10
0.0
 20
0.0
 30
0.0
210
0.0
220
0.0
230
1.0
  2
SOLID
 70
     1
 71
     1
 91
        1
 92
        1
 93
        1
 72
     4
 94
        3
 73
     0
 74
     0
 95
       17
 96
       13
 40
0.0
 40
0.0
 40
0.0
 40
0.0
 40
1.0
 40
1.0
 40
1.0
 40
2.0
 40
2.0
 40
2.0
 40
3.0
 40
3.0
 40
3.0
 40
4.0
 40
4.0
 40
4.0
 40
4.0
 10
109.5829752330209
 20
-152.4564995278581
 10
109.5829752330209
 20
-152.4564995278581
 10
109.3311387530491
 20
-152.4564995278581
 10
109.3311387530491
 20
-152.4564995278581
 10
109.3311387530491
 20
-152.4564995278581
 10
109.3311387530491
 20
-152.241870079127
 10
109.3311387530491
 20
-152.241870079127
 10
109.3311387530491
 20
-152.241870079127
 10
109.5829752330209
 20
-152.241870079127
 10
109.5829752330209
 20
-152.241870079127
 10
109.5829752330209
 20
-152.241870079127
 10
109.5829752330209
 20
-152.4564995278581
 10
109.5829752330209
 20
-152.4564995278581
 97
        0
 97
        1
330
C1
 75
     2
 76
     1
 98
        1
 10
0.0
 20
0.0
450
        0
451
        0
460
0.0
461
0.0
452
        0
462
0.0
453
        0
470

  0
SPLINE
  5
C3
330
BA
100
AcDbEntity
  8
レイヤー 1
100
AcDbSpline
210
0.0
220
0.0
230
1.0
 70
    11
 71
     3
 72
    14
 73
    10
 74
     0
 42
0.0000000001
 43
0.0000000001
 40
0.0
 40
0.0
 40
0.0
 40
0.0
 40
1.0
 40
1.0
 40
1.0
 40
2.0
 40
2.0
 40
2.0
 40
3.0
 40
3.0
 40
3.0
 40
3.0
 10
108.3813259277658
 20
-151.5170219890304
 30
0.0
 10
108.3813259277658
 20
-151.5170219890304
 30
0.0
 10
109.0372721081573
 20
-151.9066622884122
 30
0.0
 10
109.0372721081573
 20
-151.9066622884122
 30
0.0
 10
109.0372721081573
 20
-151.9066622884122
 30
0.0
 10
109.0372721081573
 20
-151.5170219890304
 30
0.0
 10
109.0372721081573
 20
-151.5170219890304
 30
0.0
 10
109.0372721081573
 20
-151.5170219890304
 30
0.0
 10
108.3813259277658
 20
-151.5170219890304
 30
0.0
 10
108.3813259277658
 20
-151.5170219890304
 30
0.0
  0
SPLINE
  5
C4
330
BA
100
AcDbEntity
  8
レイヤー 1
100
AcDbSpline
210
0.0
220
0.0
230
1.0
 70
    11
 71
     3
 72
    38
 73
    34
 74
     0
 42
0.0000000001
 43
0.0000000001
 40
0.0
 40
0.0
 40
0.0
 40
0.0
 40
1.0
 40
1.0
 40
1.0
 40
2.0
 40
2.0
 40
2.0
 40
3.0
 40
3.0
 40
3.0
 40
4.0
 40
4.0
 40
4.0
 40
5.0
 40
5.0
 40
5.0
 40
6.0
 40
6.0
 40
6.0
 40
7.0
 40
7.0
 40
7.0
 40
8.0
 40
8.0
 40
8.0
 40
9.0
 40
9.0
 40
9.0
 40
10.0
 40
10.0
 40
10.0
 40
11.0
 40
11.0
 40
11.0
 40
11.0
 10
109.2360541176562
 20
-151.3313313423755
 30
0.0
 10
109.2360541176562
 20
-151.3313313423755
 30
0.0
 10
109.5829752330209
 20
-151.3313313423755
 30
0.0
 10
109.5829752330209
 20
-151.3313313423755
 30
0.0
 10
109.5829752330209
 20
-151.3313313423755
 30
0.0
 10
109.5829752330209
 20
-151.5170219890304
 30
0.0
 10
109.5829752330209
 20
-151.5170219890304
 30
0.0
 10
109.5829752330209
 20
-151.5170219890304
 30
0.0
 10
109.2360541176562
 20
-151.5170219890304
 30
0.0
 10
109.2360541176562
 20
-151.5170219890304
 30
0.0
 10
109.2360541176562
 20
-151.5170219890304
 30
0.0
 10
109.2360541176562
 20
-152.0761609862865
 30
0.0
 10
109.2360541176562
 20
-152.0761609862865
 30
0.0
 10
109.2360541176562
 20
-152.0761609862865
 30
0.0
 10
109.0117784015665
 20
-152.0761609862865
 30
0.0
 10
109.0117784015665
 20
-152.0761609862865
 30
0.0
 10
109.0117784015665
 20
-152.0761609862865
 30
0.0
 10
108.0385389269834
 20
-151.4973849447645
 30
0.0
 10
108.0385389269834
 20
-151.4973849447645
 30
0.0
 10
108.0385389269834
 20
-151.4973849447645
 30
0.0
 10
108.0385389269834
 20
-151.3313313423755
 30
0.0
 10
108.0385389269834
 20
-151.3313313423755
 30
0.0
 10
108.0385389269834
 20
-151.3313313423755
 30
0.0
 10
109.0372721081573
 20
-151.3313313423755
 30
0.0
 10
109.0372721081573
 20
-151.3313313423755
 30
0.0
 10
109.0372721081573
 20
-151.3313313423755
 30
0.0
 10
109.0372721081573
 20
-151.1545979439822
 30
0.0
 10
109.0372721081573
 20
-151.1545979439822
 30
0.0
 10
109.0372721081573
 20
-151.1545979439822
 30
0.0
 10
109.2360541176562
 20
-151.1545979439822
 30
0.0
 10
109.2360541176562
 20
-151.1545979439822
 30
0.0
 10
109.2360541176562
 20
-151.1545979439822
 30
0.0
 10
109.2360541176562
 20
-151.3313313423755
 30
0.0
 10
109.2360541176562
 20
-151.3313313423755
 30
0.0
  0
HATCH
  5
C5
330
BA
100
AcDbEntity
  8
レイヤー 1
 62
   250
420
  2299925
440
 33554687
100
AcDbHatch
 10
0.0
 20
0.0
 30
0.0
210
0.0
220
0.0
230
1.0
  2
SOLID
 70
     1
 71
     1
 91
        2
 92
        1
 93
        1
 72
     4
 94
        3
 73
     0
 74
     0
 95
       14
 96
       10
 40
0.0
 40
0.0
 40
0.0
 40
0.0
 40
1.0
 40
1.0
 40
1.0
 40
2.0
 40
2.0
 40
2.0
 40
3.0
 40
3.0
 40
3.0
 40
3.0
 10
108.3813259277658
 20
-151.5170219890304
 10
108.3813259277658
 20
-151.5170219890304
 10
109.0372721081573
 20
-151.9066622884122
 10
109.0372721081573
 20
-151.9066622884122
 10
109.0372721081573
 20
-151.9066622884122
 10
109.0372721081573
 20
-151.5170219890304
 10
109.0372721081573
 20
-151.5170219890304
 10
109.0372721081573
 20
-151.5170219890304
 10
108.3813259277658
 20
-151.5170219890304
 10
108.3813259277658
 20
-151.5170219890304
 97
        0
 97
        1
330
C3
 92
        1
 93
        1
 72
     4
 94
        3
 73
     0
 74
     0
 95
       38
 96
       34
 40
0.0
 40
0.0
 40
0.0
 40
0.0
 40
1.0
 40
1.0
 40
1.0
 40
2.0
 40
2.0
 40
2.0
 40
3.0
 40
3.0
 40
3.0
 40
4.0
 40
4.0
 40
4.0
 40
5.0
 40
5.0
 40
5.0
 40
6.0
 40
6.0
 40
6.0
 40
7.0
 40
7.0
 40
7.0
 40
8.0
 40
8.0
 40
8.0
 40
9.0
 40
9.0
 40
9.0
 40
10.0
 40
10.0
 40
10.0
 40
11.0
 40
11.0
 40
11.0
 40
11.0
 10
109.2360541176562
 20
-151.3313313423755
 10
109.2360541176562
 20
-151.3313313423755
 10
109.5829752330209
 20
-151.3313313423755
 10
109.5829752330209
 20
-151.3313313423755
 10
109.5829752330209
 20
-151.3313313423755
 10
109.5829752330209
 20
-151.5170219890304
 10
109.5829752330209
 20
-151.5170219890304
 10
109.5829752330209
 20
-151.5170219890304
 10
109.2360541176562
 20
-151.5170219890304
 10
109.2360541176562
 20
-151.5170219890304
 10
109.2360541176562
 20
-151.5170219890304
 10
109.2360541176562
 20
-152.0761609862865
 10
109.2360541176562
 20
-152.0761609862865
 10
109.2360541176562
 20
-152.0761609862865
 10
109.0117784015665
 20
-152.0761609862865
 10
109.0117784015665
 20
-152.0761609862865
 10
109.0117784015665
 20
-152.0761609862865
 10
108.0385389269834
 20
-151.4973849447645
 10
108.0385389269834
 20
-151.4973849447645
 10
108.0385389269834
 20
-151.4973849447645
 10
108.0385389269834
 20
-151.3313313423755
 10
108.0385389269834
 20
-151.3313313423755
 10
108.0385389269834
 20
-151.3313313423755
 10
109.0372721081573
 20
-151.3313313423755
 10
109.0372721081573
 20
-151.3313313423755
 10
109.0372721081573
 20
-151.3313313423755
 10
109.0372721081573
 20
-151.1545979439822
 10
109.0372721081573
 20
-151.1545979439822
 10
109.0372721081573
 20
-151.1545979439822
 10
109.2360541176562
 20
-151.1545979439822
 10
109.2360541176562
 20
-151.1545979439822
 10
109.2360541176562
 20
-151.1545979439822
 10
109.2360541176562
 20
-151.3313313423755
 10
109.2360541176562
 20
-151.3313313423755
 97
        0
 97
        1
330
C4
 75
     2
 76
     1
 98
        1
 10
0.0
 20
0.0
450
        0
451
        0
460
0.0
461
0.0
452
        0
462
0.0
453
        0
470

  0
ENDBLK
  5
BD
330
BA
100
AcDbEntity
  8
0
100
AcDbBlockEnd
  0
BLOCK
  5
CC
330
CA
100
AcDbEntity
  8
0
100
AcDbBlockBegin
  2
Block_8
 70
     0
 10
0.0
 20
0.0
 30
0.0
  3
Block_8
  1

  0
INSERT
  5
CF
330
CA
100
AcDbEntity
  8
レイヤー 1
100
AcDbBlockReference
  2
Block_9
 10
0.0
 20
0.0
 30
0.0
  0
ENDBLK
  5
CD
330
CA
100
AcDbEntity
  8
0
100
AcDbBlockEnd
  0
BLOCK
  5
D0
330
CE
100
AcDbEntity
  8
0
100
AcDbBlockBegin
  2
Block_9
 70
     0
 10
0.0
 20
0.0
 30
0.0
  3
Block_9
  1

  0
SPLINE
  5
D2
330
CE
100
AcDbEntity
  8
レイヤー 1
100
AcDbSpline
210
0.0
220
0.0
230
1.0
 70
    11
 71
     3
 72
    26
 73
    22
 74
     0
 42
0.0000000001
 43
0.0000000001
 40
0.0
 40
0.0
 40
0.0
 40
0.0
 40
1.0
 40
1.0
 40
1.0
 40
2.0
 40
2.0
 40
2.0
 40
3.0
 40
3.0
 40
3.0
 40
4.0
 40
4.0
 40
4.0
 40
5.0
 40
5.0
 40
5.0
 40
6.0
 40
6.0
 40
6.0
 40
7.0
 40
7.0
 40
7.0
 40
7.0
 10
77.30019122416454
 20
-143.5106200813098
 30
0.0
 10
77.30019122416454
 20
-143.5106200813098
 30
0.0
 10
76.19603812114196
 20
-143.5106200813098
 30
0.0
 10
76.19603812114196
 20
-143.5106200813098
 30
0.0
 10
76.19603812114196
 20
-143.5106200813098
 30
0.0
 10
76.19603812114196
 20
-143.7920843824547
 30
0.0
 10
76.19603812114196
 20
-143.7920843824547
 30
0.0
 10
76.19603812114196
 20
-143.7920843824547
 30
0.0
 10
76.04789901527623
 20
-143.7920843824547
 30
0.0
 10
76.04789901527623
 20
-143.7920843824547
 30
0.0
 10
76.03308510468965
 20
-143.5088975335672
 30
0.0
 10
75.87013208823733
 20
-143.4692789354868
 30
0.0
 10
75.75575491812704
 20
-143.4441297384445
 30
0.0
 10
75.75575491812704
 20
-143.4441297384445
 30
0.0
 10
75.75575491812704
 20
-143.3194172818785
 30
0.0
 10
75.75575491812704
 20
-143.3194172818785
 30
0.0
 10
75.75575491812704
 20
-143.3194172818785
 30
0.0
 10
77.30019122416454
 20
-143.3194172818785
 30
0.0
 10
77.30019122416454
 20
-143.3194172818785
 30
0.0
 10
77.30019122416454
 20
-143.3194172818785
 30
0.0
 10
77.30019122416454
 20
-143.5106200813098
 30
0.0
 10
77.30019122416454
 20
-143.5106200813098
 30
0.0
  0
HATCH
  5
D3
330
CE
100
AcDbEntity
  8
レイヤー 1
 62
   250
420
  2299925
440
 33554687
100
AcDbHatch
 10
0.0
 20
0.0
 30
0.0
210
0.0
220
0.0
230
1.0
  2
SOLID
 70
     1
 71
     1
 91
        1
 92
        1
 93
        1
 72
     4
 94
        3
 73
     0
 74
     0
 95
       26
 96
       22
 40
0.0
 40
0.0
 40
0.0
 40
0.0
 40
1.0
 40
1.0
 40
1.0
 40
2.0
 40
2.0
 40
2.0
 40
3.0
 40
3.0
 40
3.0
 40
4.0
 40
4.0
 40
4.0
 40
5.0
 40
5.0
 40
5.0
 40
6.0
 40
6.0
 40
6.0
 40
7.0
 40
7.0
 40
7.0
 40
7.0
 10
77.30019122416454
 20
-143.5106200813098
 10
77.30019122416454
 20
-143.5106200813098
 10
76.19603812114196
 20
-143.5106200813098
 10
76.19603812114196
 20
-143.5106200813098
 10
76.19603812114196
 20
-143.5106200813098
 10
76.19603812114196
 20
-143.7920843824547
 10
76.19603812114196
 20
-143.7920843824547
 10
76.19603812114196
 20
-143.7920843824547
 10
76.04789901527623
 20
-143.7920843824547
 10
76.04789901527623
 20
-143.7920843824547
 10
76.03308510468965
 20
-143.5088975335672
 10
75.87013208823733
 20
-143.4692789354868
 10
75.75575491812704
 20
-143.4441297384445
 10
75.75575491812704
 20
-143.4441297384445
 10
75.75575491812704
 20
-143.3194172818785
 10
75.75575491812704
 20
-143.3194172818785
 10
75.75575491812704
 20
-143.3194172818785
 10
77.30019122416454
 20
-143.3194172818785
 10
77.30019122416454
 20
-143.3194172818785
 10
77.30019122416454
 20
-143.3194172818785
 10
77.30019122416454
 20
-143.5106200813098
 10
77.30019122416454
 20
-143.5106200813098
 97
        0
 97
        1
330
D2
 75
     2
 76
     1
 98
        1
 10
0.0
 20
0.0
450
        0
451
        0
460
0.0
461
0.0
452
        0
462
0.0
453
        0
470

  0
SPLINE
  5
D4
330
CE
100
AcDbEntity
  8
レイヤー 1
100
AcDbSpline
210
0.0
220
0.0
230
1.0
 70
    11
 71
     3
 72
    17
 73
    13
 74
     0
 42
0.0000000001
 43
0.0000000001
 40
0.0
 40
0.0
 40
0.0
 40
0.0
 40
1.0
 40
1.0
 40
1.0
 40
2.0
 40
2.0
 40
2.0
 40
3.0
 40
3.0
 40
3.0
 40
4.0
 40
4.0
 40
4.0
 40
4.0
 10
77.30019122416454
 20
-142.8426160667199
 30
0.0
 10
77.30019122416454
 20
-142.8426160667199
 30
0.0
 10
77.04835474419278
 20
-142.8426160667199
 30
0.0
 10
77.04835474419278
 20
-142.8426160667199
 30
0.0
 10
77.04835474419278
 20
-142.8426160667199
 30
0.0
 10
77.04835474419278
 20
-142.6279866179888
 30
0.0
 10
77.04835474419278
 20
-142.6279866179888
 30
0.0
 10
77.04835474419278
 20
-142.6279866179888
 30
0.0
 10
77.30019122416454
 20
-142.6279866179888
 30
0.0
 10
77.30019122416454
 20
-142.6279866179888
 30
0.0
 10
77.30019122416454
 20
-142.6279866179888
 30
0.0
 10
77.30019122416454
 20
-142.8426160667199
 30
0.0
 10
77.30019122416454
 20
-142.8426160667199
 30
0.0
  0
HATCH
  5
D5
330
CE
100
AcDbEntity
  8
レイヤー 1
 62
   250
420
  2299925
440
 33554687
100
AcDbHatch
 10
0.0
 20
0.0
 30
0.0
210
0.0
220
0.0
230
1.0
  2
SOLID
 70
     1
 71
     1
 91
        1
 92
        1
 93
        1
 72
     4
 94
        3
 73
     0
 74
     0
 95
       17
 96
       13
 40
0.0
 40
0.0
 40
0.0
 40
0.0
 40
1.0
 40
1.0
 40
1.0
 40
2.0
 40
2.0
 40
2.0
 40
3.0
 40
3.0
 40
3.0
 40
4.0
 40
4.0
 40
4.0
 40
4.0
 10
77.30019122416454
 20
-142.8426160667199
 10
77.30019122416454
 20
-142.8426160667199
 10
77.04835474419278
 20
-142.8426160667199
 10
77.04835474419278
 20
-142.8426160667199
 10
77.04835474419278
 20
-142.8426160667199
 10
77.04835474419278
 20
-142.6279866179888
 10
77.04835474419278
 20
-142.6279866179888
 10
77.04835474419278
 20
-142.6279866179888
 10
77.30019122416454
 20
-142.6279866179888
 10
77.30019122416454
 20
-142.6279866179888
 10
77.30019122416454
 20
-142.6279866179888
 10
77.30019122416454
 20
-142.8426160667199
 10
77.30019122416454
 20
-142.8426160667199
 97
        0
 97
        1
330
D4
 75
     2
 76
     1
 98
        1
 10
0.0
 20
0.0
450
        0
451
        0
460
0.0
461
0.0
452
        0
462
0.0
453
        0
470

  0
SPLINE
  5
D6
330
CE
100
AcDbEntity
  8
レイヤー 1
100
AcDbSpline
210
0.0
220
0.0
230
1.0
 70
     9
 71
     3
 72
    17
 73
    13
 74
     0
 42
0.0000000001
 43
0.0000000001
 40
0.0
 40
0.0
 40
0.0
 40
0.0
 40
1.0
 40
1.0
 40
1.0
 40
2.0
 40
2.0
 40
2.0
 40
3.0
 40
3.0
 40
3.0
 40
4.0
 40
4.0
 40
4.0
 40
4.0
 10
75.89975990941048
 20
-142.0006347301248
 30
0.0
 10
75.89975990941048
 20
-142.2135416311133
 30
0.0
 10
76.18329126784654
 20
-142.2531602291936
 30
0.0
 10
76.52814532592005
 20
-142.2531602291936
 30
0.0
 10
76.8475056774027
 20
-142.2531602291936
 30
0.0
 10
77.1561862328811
 20
-142.2224988793749
 30
0.0
 10
77.1561862328811
 20
-142.0006347301248
 30
0.0
 10
77.1561862328811
 20
-141.789450376879
 30
0.0
 10
76.87506644128472
 20
-141.748109231056
 30
0.0
 10
76.52814532592005
 20
-141.748109231056
 30
0.0
 10
76.20844046488887
 20
-141.748109231056
 30
0.0
 10
75.89975990941048
 20
-141.7804931286174
 30
0.0
 10
75.89975990941048
 20
-142.0006347301248
 30
0.0
  0
SPLINE
  5
D7
330
CE
100
AcDbEntity
  8
レイヤー 1
100
AcDbSpline
210
0.0
220
0.0
230
1.0
 70
     9
 71
     3
 72
    29
 73
    25
 74
     0
 42
0.0000000001
 43
0.0000000001
 40
0.0
 40
0.0
 40
0.0
 40
0.0
 40
1.0
 40
1.0
 40
1.0
 40
2.0
 40
2.0
 40
2.0
 40
3.0
 40
3.0
 40
3.0
 40
4.0
 40
4.0
 40
4.0
 40
5.0
 40
5.0
 40
5.0
 40
6.0
 40
6.0
 40
6.0
 40
7.0
 40
7.0
 40
7.0
 40
8.0
 40
8.0
 40
8.0
 40
8.0
 10
77.12242429712564
 20
-141.6616373343762
 30
0.0
 10
77.33188610262884
 20
-141.7536213838324
 30
0.0
 10
77.35083412779771
 20
-141.9014159801496
 30
0.0
 10
77.35083412779771
 20
-142.0006347301248
 30
0.0
 10
77.35083412779771
 20
-142.1377495304378
 30
0.0
 10
77.30432533874683
 20
-142.2583278724215
 30
0.0
 10
77.12242429712564
 20
-142.3396321258734
 30
0.0
 10
76.92777640220903
 20
-142.4278265702958
 30
0.0
 10
76.69075383282384
 20
-142.444363028625
 30
0.0
 10
76.52814532592005
 20
-142.444363028625
 30
0.0
 10
76.38414033463661
 20
-142.444363028625
 30
0.0
 10
76.13230385466484
 20
-142.429893627587
 30
0.0
 10
75.93352184516593
 20
-142.3396321258734
 30
0.0
 10
75.73060572108471
 20
-142.2476480764172
 30
0.0
 10
75.70717907178502
 20
-142.1105332761043
 30
0.0
 10
75.70717907178502
 20
-142.0006347301248
 30
0.0
 10
75.70717907178502
 20
-141.8652424775545
 30
0.0
 10
75.75162080354473
 20
-141.7425970782796
 30
0.0
 10
75.93352184516593
 20
-141.6616373343762
 30
0.0
 10
76.1261026827914
 20
-141.5768879854391
 30
0.0
 10
76.35451251346346
 20
-141.5569064316246
 30
0.0
 10
76.52814532592005
 20
-141.5569064316246
 30
0.0
 10
76.69936657153697
 20
-141.5569064316246
 30
0.0
 10
76.92984345950018
 20
-141.5751654376965
 30
0.0
 10
77.12242429712564
 20
-141.6616373343762
 30
0.0
  0
HATCH
  5
D8
330
CE
100
AcDbEntity
  8
レイヤー 1
 62
   250
420
  2299925
440
 33554687
100
AcDbHatch
 10
0.0
 20
0.0
 30
0.0
210
0.0
220
0.0
230
1.0
  2
SOLID
 70
     1
 71
     1
 91
        2
 92
        1
 93
        1
 72
     4
 94
        3
 73
     0
 74
     0
 95
       17
 96
       13
 40
0.0
 40
0.0
 40
0.0
 40
0.0
 40
1.0
 40
1.0
 40
1.0
 40
2.0
 40
2.0
 40
2.0
 40
3.0
 40
3.0
 40
3.0
 40
4.0
 40
4.0
 40
4.0
 40
4.0
 10
75.89975990941048
 20
-142.0006347301248
 10
75.89975990941048
 20
-142.2135416311133
 10
76.18329126784654
 20
-142.2531602291936
 10
76.52814532592005
 20
-142.2531602291936
 10
76.8475056774027
 20
-142.2531602291936
 10
77.1561862328811
 20
-142.2224988793749
 10
77.1561862328811
 20
-142.0006347301248
 10
77.1561862328811
 20
-141.789450376879
 10
76.87506644128472
 20
-141.748109231056
 10
76.52814532592005
 20
-141.748109231056
 10
76.20844046488887
 20
-141.748109231056
 10
75.89975990941048
 20
-141.7804931286174
 10
75.89975990941048
 20
-142.0006347301248
 97
        0
 97
        1
330
D6
 92
        1
 93
        1
 72
     4
 94
        3
 73
     0
 74
     0
 95
       29
 96
       25
 40
0.0
 40
0.0
 40
0.0
 40
0.0
 40
1.0
 40
1.0
 40
1.0
 40
2.0
 40
2.0
 40
2.0
 40
3.0
 40
3.0
 40
3.0
 40
4.0
 40
4.0
 40
4.0
 40
5.0
 40
5.0
 40
5.0
 40
6.0
 40
6.0
 40
6.0
 40
7.0
 40
7.0
 40
7.0
 40
8.0
 40
8.0
 40
8.0
 40
8.0
 10
77.12242429712564
 20
-141.6616373343762
 10
77.33188610262884
 20
-141.7536213838324
 10
77.35083412779771
 20
-141.9014159801496
 10
77.35083412779771
 20
-142.0006347301248
 10
77.35083412779771
 20
-142.1377495304378
 10
77.30432533874683
 20
-142.2583278724215
 10
77.12242429712564
 20
-142.3396321258734
 10
76.92777640220903
 20
-142.4278265702958
 10
76.69075383282384
 20
-142.444363028625
 10
76.52814532592005
 20
-142.444363028625
 10
76.38414033463661
 20
-142.444363028625
 10
76.13230385466484
 20
-142.429893627587
 10
75.93352184516593
 20
-142.3396321258734
 10
75.73060572108471
 20
-142.2476480764172
 10
75.70717907178502
 20
-142.1105332761043
 10
75.70717907178502
 20
-142.0006347301248
 10
75.70717907178502
 20
-141.8652424775545
 10
75.75162080354473
 20
-141.7425970782796
 10
75.93352184516593
 20
-141.6616373343762
 10
76.1261026827914
 20
-141.5768879854391
 10
76.35451251346346
 20
-141.5569064316246
 10
76.52814532592005
 20
-141.5569064316246
 10
76.69936657153697
 20
-141.5569064316246
 10
76.92984345950018
 20
-141.5751654376965
 10
77.12242429712564
 20
-141.6616373343762
 97
        0
 97
        1
330
D7
 75
     2
 76
     1
 98
        1
 10
0.0
 20
0.0
450
        0
451
        0
460
0.0
461
0.0
452
        0
462
0.0
453
        0
470

  0
ENDBLK
  5
D1
330
CE
100
AcDbEntity
  8
0
100
AcDbBlockEnd
  0
BLOCK
  5
DD
330
DB
100
AcDbEntity
  8
0
100
AcDbBlockBegin
  2
Block_10
 70
     0
 10
0.0
 20
0.0
 30
0.0
  3
Block_10
  1

  0
LINE
  5
DF
330
DB
100
AcDbEntity
  8
レイヤー 1
 62
    18
420
        0
370
     9
100
AcDbLine
 10
96.6914415624813
 20
-151.2136887041564
 30
0.0
 11
96.42459670462093
 21
-150.249916470886
 31
0.0
  0
LINE
  5
E0
330
DB
100
AcDbEntity
  8
レイヤー 1
 62
    18
420
        0
370
     9
100
AcDbLine
 10
96.6914415624813
 20
-151.2136887041564
 30
0.0
 11
96.65700735510421
 21
-149.5997281413529
 31
0.0
  0
LINE
  5
E1
330
DB
100
AcDbEntity
  8
レイヤー 1
 62
    18
420
        0
370
     9
100
AcDbLine
 10
96.6914415624813
 20
-151.2136887041564
 30
0.0
 11
96.94228963998719
 21
-150.2455082487702
 31
0.0
  0
ENDBLK
  5
DE
330
DB
100
AcDbEntity
  8
0
100
AcDbBlockEnd
  0
BLOCK
  5
E4
330
E2
100
AcDbEntity
  8
0
100
AcDbBlockBegin
  2
Block_11
 70
     0
 10
0.0
 20
0.0
 30
0.0
  3
Block_11
  1

  0
INSERT
  5
E7
330
E2
100
AcDbEntity
  8
レイヤー 1
100
AcDbBlockReference
  2
Block_12
 10
0.0
 20
0.0
 30
0.0
  0
ENDBLK
  5
E5
330
E2
100
AcDbEntity
  8
0
100
AcDbBlockEnd
  0
BLOCK
  5
E8
330
E6
100
AcDbEntity
  8
0
100
AcDbBlockBegin
  2
Block_12
 70
     0
 10
0.0
 20
0.0
 30
0.0
  3
Block_12
  1

  0
SPLINE
  5
EA
330
E6
100
AcDbEntity
  8
レイヤー 1
100
AcDbSpline
210
0.0
220
0.0
230
1.0
 70
     9
 71
     3
 72
    17
 73
    13
 74
     0
 42
0.0000000001
 43
0.0000000001
 40
0.0
 40
0.0
 40
0.0
 40
0.0
 40
1.0
 40
1.0
 40
1.0
 40
2.0
 40
2.0
 40
2.0
 40
3.0
 40
3.0
 40
3.0
 40
4.0
 40
4.0
 40
4.0
 40
4.0
 10
92.70528019600771
 20
-148.5333970440298
 30
0.0
 10
92.68822697335572
 20
-148.5628526104287
 30
0.0
 10
92.63758406972256
 20
-148.6560424433047
 30
0.0
 10
92.62690427371827
 20
-148.6749904684736
 30
0.0
 10
92.81724579927832
 20
-148.7342461108199
 30
0.0
 10
92.83843313651262
 20
-148.7406195374676
 30
0.0
 10
92.91043563215435
 20
-148.7681803013496
 30
0.0
 10
92.96538490514407
 20
-148.6813638951213
 30
0.0
 10
92.98863929966952
 20
-148.6072943421884
 30
0.0
 10
93.00345321025607
 20
-148.5333970440298
 30
0.0
 10
93.00345321025607
 20
-148.5333970440298
 30
0.0
 10
92.70528019600771
 20
-148.5333970440298
 30
0.0
 10
92.70528019600771
 20
-148.5333970440298
 30
0.0
  0
SPLINE
  5
EB
330
E6
100
AcDbEntity
  8
レイヤー 1
100
AcDbSpline
210
0.0
220
0.0
230
1.0
 70
    11
 71
     3
 72
    20
 73
    16
 74
     0
 42
0.0000000001
 43
0.0000000001
 40
0.0
 40
0.0
 40
0.0
 40
0.0
 40
1.0
 40
1.0
 40
1.0
 40
2.0
 40
2.0
 40
2.0
 40
3.0
 40
3.0
 40
3.0
 40
4.0
 40
4.0
 40
4.0
 40
5.0
 40
5.0
 40
5.0
 40
5.0
 10
92.64171818430485
 20
-147.6829752234959
 30
0.0
 10
92.64171818430485
 20
-147.6829752234959
 30
0.0
 10
92.61002330584055
 20
-147.6829752234959
 30
0.0
 10
92.61002330584055
 20
-147.6829752234959
 30
0.0
 10
92.65653209489142
 20
-147.7823662282454
 30
0.0
 10
92.68822697335572
 20
-147.8626369530517
 30
0.0
 10
92.72216116388543
 20
-147.9895887216831
 30
0.0
 10
92.72216116388543
 20
-147.9895887216831
 30
0.0
 10
92.92938365732322
 20
-147.9895887216831
 30
0.0
 10
92.92938365732322
 20
-147.9895887216831
 30
0.0
 10
92.96125079056178
 20
-147.8965711435814
 30
0.0
 10
92.98450518508721
 20
-147.8119940494185
 30
0.0
 10
93.00775957961265
 20
-147.6829752234959
 30
0.0
 10
93.00775957961265
 20
-147.6829752234959
 30
0.0
 10
92.64171818430485
 20
-147.6829752234959
 30
0.0
 10
92.64171818430485
 20
-147.6829752234959
 30
0.0
  0
SPLINE
  5
EC
330
E6
100
AcDbEntity
  8
レイヤー 1
100
AcDbSpline
210
0.0
220
0.0
230
1.0
 70
     9
 71
     3
 72
   242
 73
   238
 74
     0
 42
0.0000000001
 43
0.0000000001
 40
0.0
 40
0.0
 40
0.0
 40
0.0
 40
1.0
 40
1.0
 40
1.0
 40
2.0
 40
2.0
 40
2.0
 40
3.0
 40
3.0
 40
3.0
 40
4.0
 40
4.0
 40
4.0
 40
5.0
 40
5.0
 40
5.0
 40
6.0
 40
6.0
 40
6.0
 40
7.0
 40
7.0
 40
7.0
 40
8.0
 40
8.0
 40
8.0
 40
9.0
 40
9.0
 40
9.0
 40
10.0
 40
10.0
 40
10.0
 40
11.0
 40
11.0
 40
11.0
 40
12.0
 40
12.0
 40
12.0
 40
13.0
 40
13.0
 40
13.0
 40
14.0
 40
14.0
 40
14.0
 40
15.0
 40
15.0
 40
15.0
 40
16.0
 40
16.0
 40
16.0
 40
17.0
 40
17.0
 40
17.0
 40
18.0
 40
18.0
 40
18.0
 40
19.0
 40
19.0
 40
19.0
 40
20.0
 40
20.0
 40
20.0
 40
21.0
 40
21.0
 40
21.0
 40
22.0
 40
22.0
 40
22.0
 40
23.0
 40
23.0
 40
23.0
 40
24.0
 40
24.0
 40
24.0
 40
25.0
 40
25.0
 40
25.0
 40
26.0
 40
26.0
 40
26.0
 40
27.0
 40
27.0
 40
27.0
 40
28.0
 40
28.0
 40
28.0
 40
29.0
 40
29.0
 40
29.0
 40
30.0
 40
30.0
 40
30.0
 40
31.0
 40
31.0
 40
31.0
 40
32.0
 40
32.0
 40
32.0
 40
33.0
 40
33.0
 40
33.0
 40
34.0
 40
34.0
 40
34.0
 40
35.0
 40
35.0
 40
35.0
 40
36.0
 40
36.0
 40
36.0
 40
37.0
 40
37.0
 40
37.0
 40
38.0
 40
38.0
 40
38.0
 40
39.0
 40
39.0
 40
39.0
 40
40.0
 40
40.0
 40
40.0
 40
41.0
 40
41.0
 40
41.0
 40
42.0
 40
42.0
 40
42.0
 40
43.0
 40
43.0
 40
43.0
 40
44.0
 40
44.0
 40
44.0
 40
45.0
 40
45.0
 40
45.0
 40
46.0
 40
46.0
 40
46.0
 40
47.0
 40
47.0
 40
47.0
 40
48.0
 40
48.0
 40
48.0
 40
49.0
 40
49.0
 40
49.0
 40
50.0
 40
50.0
 40
50.0
 40
51.0
 40
51.0
 40
51.0
 40
52.0
 40
52.0
 40
52.0
 40
53.0
 40
53.0
 40
53.0
 40
54.0
 40
54.0
 40
54.0
 40
55.0
 40
55.0
 40
55.0
 40
56.0
 40
56.0
 40
56.0
 40
57.0
 40
57.0
 40
57.0
 40
58.0
 40
58.0
 40
58.0
 40
59.0
 40
59.0
 40
59.0
 40
60.0
 40
60.0
 40
60.0
 40
61.0
 40
61.0
 40
61.0
 40
62.0
 40
62.0
 40
62.0
 40
63.0
 40
63.0
 40
63.0
 40
64.0
 40
64.0
 40
64.0
 40
65.0
 40
65.0
 40
65.0
 40
66.0
 40
66.0
 40
66.0
 40
67.0
 40
67.0
 40
67.0
 40
68.0
 40
68.0
 40
68.0
 40
69.0
 40
69.0
 40
69.0
 40
70.0
 40
70.0
 40
70.0
 40
71.0
 40
71.0
 40
71.0
 40
72.0
 40
72.0
 40
72.0
 40
73.0
 40
73.0
 40
73.0
 40
74.0
 40
74.0
 40
74.0
 40
75.0
 40
75.0
 40
75.0
 40
76.0
 40
76.0
 40
76.0
 40
77.0
 40
77.0
 40
77.0
 40
78.0
 40
78.0
 40
78.0
 40
79.0
 40
79.0
 40
79.0
 40
79.0
 10
93.27010360081443
 20
-148.1482353687789
 30
0.0
 10
93.27010360081443
 20
-148.1482353687789
 30
0.0
 10
93.0162000635515
 20
-148.1482353687789
 30
0.0
 10
93.0162000635515
 20
-148.1482353687789
 30
0.0
 10
93.0162000635515
 20
-148.1482353687789
 30
0.0
 10
92.73904213176315
 20
-148.1482353687789
 30
0.0
 10
92.73904213176315
 20
-148.1482353687789
 30
0.0
 10
92.73904213176315
 20
-148.1482353687789
 30
0.0
 10
92.8659939003946
 20
-148.1906100432475
 30
0.0
 10
92.8659939003946
 20
-148.1906100432475
 30
0.0
 10
92.87650144162462
 20
-148.194916412604
 30
0.0
 10
92.88924829492005
 20
-148.2011175844775
 30
0.0
 10
92.88924829492005
 20
-148.2138644377729
 30
0.0
 10
92.88924829492005
 20
-148.2350517750072
 30
0.0
 10
92.85755341645575
 20
-148.2414252016549
 30
0.0
 10
92.83636607922145
 20
-148.2455593162372
 30
0.0
 10
92.82585853799146
 20
-148.2688137107626
 30
0.0
 10
92.79623071681831
 20
-148.3344427797566
 30
0.0
 10
92.77711043687517
 20
-148.3788845115164
 30
0.0
 10
92.77711043687517
 20
-148.3788845115164
 30
0.0
 10
93.0478949420158
 20
-148.3788845115164
 30
0.0
 10
93.0478949420158
 20
-148.3788845115164
 30
0.0
 10
93.13884546282642
 20
-148.3788845115164
 30
0.0
 10
93.33556041503417
 20
-148.3745781421598
 30
0.0
 10
93.4773260942522
 20
-148.3661376582209
 30
0.0
 10
93.4773260942522
 20
-148.3661376582209
 30
0.0
 10
93.4773260942522
 20
-148.5439045852599
 30
0.0
 10
93.4773260942522
 20
-148.5439045852599
 30
0.0
 10
93.39481605738047
 20
-148.5395982159033
 30
0.0
 10
93.37362872014619
 20
-148.5395982159033
 30
0.0
 10
93.19379473581614
 20
-148.535464101321
 30
0.0
 10
93.16209985735182
 20
-148.6898043790602
 30
0.0
 10
93.11765812559212
 20
-148.7702473586407
 30
0.0
 10
93.07321639383239
 20
-148.8400105422171
 30
0.0
 10
93.19379473581614
 20
-148.8994384393376
 30
0.0
 10
93.29973142198758
 20
-148.9669623108485
 30
0.0
 10
93.40325654131932
 20
-149.0496446024945
 30
0.0
 10
93.40325654131932
 20
-149.0496446024945
 30
0.0
 10
93.28491751140099
 20
-149.2167317335291
 30
0.0
 10
93.28491751140099
 20
-149.2167317335291
 30
0.0
 10
93.26166311687556
 20
-149.1977837083602
 30
0.0
 10
93.24891626358015
 20
-149.1891709696471
 30
0.0
 10
93.13677840553525
 20
-149.10442162071
 30
0.0
 10
93.08803030441897
 20
-149.0665255703722
 30
0.0
 10
93.02894691684693
 20
-149.0306965773257
 30
0.0
 10
92.94850393726635
 20
-148.9862548455659
 30
0.0
 10
92.73697507447201
 20
-149.1722900017694
 30
0.0
 10
92.53164738355112
 20
-149.1957166510691
 30
0.0
 10
92.2419148532416
 20
-149.2253444722423
 30
0.0
 10
92.2419148532416
 20
-149.2253444722423
 30
0.0
 10
92.13821747913559
 20
-149.0455104879122
 30
0.0
 10
92.13821747913559
 20
-149.0455104879122
 30
0.0
 10
92.45551077332711
 20
-149.0410318637814
 30
0.0
 10
92.63121064307483
 20
-149.0158826667391
 30
0.0
 10
92.78348386352289
 20
-148.9056396112111
 30
0.0
 10
92.66497257883029
 20
-148.8548244528036
 30
0.0
 10
92.57608911531084
 20
-148.8274359436959
 30
0.0
 10
92.54026012226423
 20
-148.8146890904005
 30
0.0
 10
92.5211398423211
 20
-148.8422498542825
 30
0.0
 10
92.50632593173454
 20
-148.8611978794514
 30
0.0
 10
92.47876516785252
 20
-148.8953043247553
 30
0.0
 10
92.47876516785252
 20
-148.8953043247553
 30
0.0
 10
92.28205021564477
 20
-148.8126220331093
 30
0.0
 10
92.28205021564477
 20
-148.8126220331093
 30
0.0
 10
92.3645602525165
 20
-148.7321790535288
 30
0.0
 10
92.42588295215396
 20
-148.6369221633616
 30
0.0
 10
92.4830715372091
 20
-148.535464101321
 30
0.0
 10
92.29273001164903
 20
-148.5395982159033
 30
0.0
 10
92.27154267441475
 20
-148.5395982159033
 30
0.0
 10
92.18903263754302
 20
-148.5439045852599
 30
0.0
 10
92.18903263754302
 20
-148.5439045852599
 30
0.0
 10
92.18903263754302
 20
-148.3661376582209
 30
0.0
 10
92.18903263754302
 20
-148.3661376582209
 30
0.0
 10
92.32855900469564
 20
-148.3725110848687
 30
0.0
 10
92.53802081019882
 20
-148.3768174542252
 30
0.0
 10
92.56351451678968
 20
-148.3768174542252
 30
0.0
 10
92.5803954846674
 20
-148.3428832636955
 30
0.0
 10
92.63534475765714
 20
-148.2223049217117
 30
0.0
 10
92.65446503760028
 20
-148.1482353687789
 30
0.0
 10
92.63534475765714
 20
-148.1482353687789
 30
0.0
 10
92.45775008539251
 20
-148.1546087954266
 30
0.0
 10
92.26310219047588
 20
-148.167355648722
 30
0.0
 10
92.26310219047588
 20
-148.167355648722
 30
0.0
 10
92.26310219047588
 20
-148.3006808440012
 30
0.0
 10
92.26310219047588
 20
-148.3006808440012
 30
0.0
 10
92.21435408935962
 20
-148.3260022958178
 30
0.0
 10
92.15509844701331
 20
-148.3576971742821
 30
0.0
 10
92.0219455065084
 20
-148.4233262432761
 30
0.0
 10
92.0219455065084
 20
-148.4233262432761
 30
0.0
 10
92.0219455065084
 20
-148.5692260370764
 30
0.0
 10
92.0219455065084
 20
-148.5692260370764
 30
0.0
 10
92.0219455065084
 20
-148.5692260370764
 30
0.0
 10
92.0219455065084
 20
-149.0368977491991
 30
0.0
 10
92.0219455065084
 20
-149.0368977491991
 30
0.0
 10
92.0219455065084
 20
-149.1636772630563
 30
0.0
 10
91.98594425868753
 20
-149.2229329054026
 30
0.0
 10
91.70241290025149
 20
-149.214664676238
 30
0.0
 10
91.70241290025149
 20
-149.214664676238
 30
0.0
 10
91.59871552614546
 20
-149.0072699280259
 30
0.0
 10
91.59871552614546
 20
-149.0072699280259
 30
0.0
 10
91.66227753784832
 20
-149.0200167813214
 30
0.0
 10
91.71085338419034
 20
-149.0241508959037
 30
0.0
 10
91.75116100136776
 20
-149.0241508959037
 30
0.0
 10
91.82729761159178
 20
-149.0241508959037
 30
0.0
 10
91.8378051528218
 20
-149.0010687561525
 30
0.0
 10
91.8378051528218
 20
-148.9352674323842
 30
0.0
 10
91.8378051528218
 20
-148.9352674323842
 30
0.0
 10
91.8378051528218
 20
-148.5058362801478
 30
0.0
 10
91.8378051528218
 20
-148.5058362801478
 30
0.0
 10
91.74048120536349
 20
-148.545971642551
 30
0.0
 10
91.72360023748577
 20
-148.5523450691987
 30
0.0
 10
91.6770914484349
 20
-148.5714653491418
 30
0.0
 10
91.67278507907834
 20
-148.5924804316019
 30
0.0
 10
91.66865096449603
 20
-148.622108252775
 30
0.0
 10
91.6495306845529
 20
-148.622108252775
 30
0.0
 10
91.64109020061403
 20
-148.622108252775
 30
0.0
 10
91.63058265938403
 20
-148.6179741381927
 30
0.0
 10
91.62420923273632
 20
-148.5947197436673
 30
0.0
 10
91.62420923273632
 20
-148.5947197436673
 30
0.0
 10
91.57132701703773
 20
-148.4021389060418
 30
0.0
 10
91.57132701703773
 20
-148.4021389060418
 30
0.0
 10
91.71722681083805
 20
-148.3556301169909
 30
0.0
 10
91.78285587983207
 20
-148.3323757224655
 30
0.0
 10
91.8378051528218
 20
-148.3111883852312
 30
0.0
 10
91.8378051528218
 20
-148.3111883852312
 30
0.0
 10
91.8378051528218
 20
-147.8986382008725
 30
0.0
 10
91.8378051528218
 20
-147.8986382008725
 30
0.0
 10
91.8378051528218
 20
-147.8986382008725
 30
0.0
 10
91.78492293712322
 20
-147.8986382008725
 30
0.0
 10
91.78492293712322
 20
-147.8986382008725
 30
0.0
 10
91.78492293712322
 20
-147.8986382008725
 30
0.0
 10
91.70671926960805
 20
-147.8986382008725
 30
0.0
 10
91.70671926960805
 20
-147.8986382008725
 30
0.0
 10
91.63902314332288
 20
-147.8986382008725
 30
0.0
 10
91.63058265938403
 20
-147.8986382008725
 30
0.0
 10
91.59458141156317
 20
-147.9050116275202
 30
0.0
 10
91.59458141156317
 20
-147.9050116275202
 30
0.0
 10
91.59458141156317
 20
-147.7103637326036
 30
0.0
 10
91.59458141156317
 20
-147.7103637326036
 30
0.0
 10
91.62214217544516
 20
-147.7167371592513
 30
0.0
 10
91.63058265938403
 20
-147.7167371592513
 30
0.0
 10
91.70034584296033
 20
-147.7167371592513
 30
0.0
 10
91.70034584296033
 20
-147.7167371592513
 30
0.0
 10
91.8336710382395
 20
-147.7167371592513
 30
0.0
 10
91.8336710382395
 20
-147.7167371592513
 30
0.0
 10
91.8336710382395
 20
-147.646973975675
 30
0.0
 10
91.8336710382395
 20
-147.5644639388033
 30
0.0
 10
91.83143172617409
 20
-147.5601575694468
 30
0.0
 10
91.82299124223524
 20
-147.3803235851167
 30
0.0
 10
91.82299124223524
 20
-147.3613755599478
 30
0.0
 10
91.82092418494407
 20
-147.314866770897
 30
0.0
 10
91.82092418494407
 20
-147.314866770897
 30
0.0
 10
92.03675941709498
 20
-147.3233072548358
 30
0.0
 10
92.03675941709498
 20
-147.3233072548358
 30
0.0
 10
92.047266958325
 20
-147.3233072548358
 30
0.0
 10
92.06845429555928
 20
-147.325374312127
 30
0.0
 10
92.06845429555928
 20
-147.3422552800047
 30
0.0
 10
92.06845429555928
 20
-147.3613755599478
 30
0.0
 10
92.0536403849727
 20
-147.3718831011779
 30
0.0
 10
92.02831893315611
 20
-147.391003381121
 30
0.0
 10
92.02831893315611
 20
-147.4416462847542
 30
0.0
 10
92.0219455065084
 20
-147.6702283702005
 30
0.0
 10
92.02401256379955
 20
-147.7167371592513
 30
0.0
 10
92.15303138972215
 20
-147.7167371592513
 30
0.0
 10
92.16577824301758
 20
-147.7167371592513
 30
0.0
 10
92.26310219047588
 20
-147.7082966753125
 30
0.0
 10
92.26310219047588
 20
-147.7082966753125
 30
0.0
 10
92.26310219047588
 20
-147.9029445702291
 30
0.0
 10
92.26310219047588
 20
-147.9029445702291
 30
0.0
 10
92.22503388536388
 20
-147.9007052581637
 30
0.0
 10
92.15733775907873
 20
-147.8965711435814
 30
0.0
 10
92.0219455065084
 20
-147.8986382008725
 30
0.0
 10
92.0219455065084
 20
-147.8986382008725
 30
0.0
 10
92.0219455065084
 20
-148.2371188322983
 30
0.0
 10
92.0219455065084
 20
-148.2371188322983
 30
0.0
 10
92.07689477949815
 20
-148.2138644377729
 30
0.0
 10
92.14252384849215
 20
-148.1863036738909
 30
0.0
 10
92.19109969483417
 20
-148.1630492793654
 30
0.0
 10
92.19109969483417
 20
-148.1630492793654
 30
0.0
 10
92.19109969483417
 20
-147.9854546071009
 30
0.0
 10
92.19109969483417
 20
-147.9854546071009
 30
0.0
 10
92.30530461017021
 20
-147.998029205622
 30
0.0
 10
92.4238158948628
 20
-147.998029205622
 30
0.0
 10
92.54026012226423
 20
-147.998029205622
 30
0.0
 10
92.51683347296454
 20
-147.9029445702291
 30
0.0
 10
92.4894449638568
 20
-147.8204345333574
 30
0.0
 10
92.42588295215396
 20
-147.6871093380782
 30
0.0
 10
92.38144122039422
 20
-147.6891763953694
 30
0.0
 10
92.29910343829676
 20
-147.6934827647259
 30
0.0
 10
92.26086287841047
 20
-147.6955498220171
 30
0.0
 10
92.26086287841047
 20
-147.6955498220171
 30
0.0
 10
92.26086287841047
 20
-147.515715837687
 30
0.0
 10
92.26086287841047
 20
-147.515715837687
 30
0.0
 10
92.38574758975079
 20
-147.5241563216259
 30
0.0
 10
92.55920814743312
 20
-147.5284626909824
 30
0.0
 10
92.64171818430485
 20
-147.5284626909824
 30
0.0
 10
92.64171818430485
 20
-147.5284626909824
 30
0.0
 10
92.72422822117659
 20
-147.5284626909824
 30
0.0
 10
92.72422822117659
 20
-147.5284626909824
 30
0.0
 10
92.72422822117659
 20
-147.3655096745301
 30
0.0
 10
92.72422822117659
 20
-147.3550021333001
 30
0.0
 10
92.72216116388543
 20
-147.3000528603104
 30
0.0
 10
92.72216116388543
 20
-147.3000528603104
 30
0.0
 10
92.94643687997519
 20
-147.325374312127
 30
0.0
 10
92.94643687997519
 20
-147.325374312127
 30
0.0
 10
92.9505709945575
 20
-147.325374312127
 30
0.0
 10
92.9717583317918
 20
-147.3274413694181
 30
0.0
 10
92.9717583317918
 20
-147.3443223372958
 30
0.0
 10
92.9717583317918
 20
-147.3591362478824
 30
0.0
 10
92.96125079056178
 20
-147.3677489865955
 30
0.0
 10
92.93369002667978
 20
-147.3825628971821
 30
0.0
 10
92.92731660003205
 20
-147.4480197114019
 30
0.0
 10
92.92524954274091
 20
-147.4692070486361
 30
0.0
 10
92.92524954274091
 20
-147.5284626909824
 30
0.0
 10
92.92524954274091
 20
-147.5284626909824
 30
0.0
 10
93.02033417813381
 20
-147.5284626909824
 30
0.0
 10
93.02033417813381
 20
-147.5284626909824
 30
0.0
 10
93.10284421500554
 20
-147.5284626909824
 30
0.0
 10
93.27630477268789
 20
-147.5241563216259
 30
0.0
 10
93.40118948402817
 20
-147.515715837687
 30
0.0
 10
93.40118948402817
 20
-147.515715837687
 30
0.0
 10
93.40118948402817
 20
-147.6955498220171
 30
0.0
 10
93.40118948402817
 20
-147.6955498220171
 30
0.0
 10
93.37156166285502
 20
-147.6934827647259
 30
0.0
 10
93.25305037816244
 20
-147.6891763953694
 30
0.0
 10
93.21291501575927
 20
-147.6871093380782
 30
0.0
 10
93.1981011051727
 20
-147.7379244964857
 30
0.0
 10
93.16433916941724
 20
-147.8500623545305
 30
0.0
 10
93.09871010042325
 20
-147.9895887216831
 30
0.0
 10
93.14091252011754
 20
-147.9895887216831
 30
0.0
 10
93.4180704519059
 20
-147.9706406965143
 30
0.0
 10
93.47939315154334
 20
-147.9684013844488
 30
0.0
 10
93.47939315154334
 20
-147.9684013844488
 30
0.0
 10
93.47939315154334
 20
-148.1525417381354
 30
0.0
 10
93.47939315154334
 20
-148.1525417381354
 30
0.0
 10
93.44993758514446
 20
-148.1525417381354
 30
0.0
 10
93.43288436249247
 20
-148.1482353687789
 30
0.0
 10
93.27010360081443
 20
-148.1482353687789
 30
0.0
  0
HATCH
  5
ED
330
E6
100
AcDbEntity
  8
レイヤー 1
 62
    18
420
        0
440
 33554687
100
AcDbHatch
 10
0.0
 20
0.0
 30
0.0
210
0.0
220
0.0
230
1.0
  2
SOLID
 70
     1
 71
     1
 91
        3
 92
        1
 93
        1
 72
     4
 94
        3
 73
     0
 74
     0
 95
       17
 96
       13
 40
0.0
 40
0.0
 40
0.0
 40
0.0
 40
1.0
 40
1.0
 40
1.0
 40
2.0
 40
2.0
 40
2.0
 40
3.0
 40
3.0
 40
3.0
 40
4.0
 40
4.0
 40
4.0
 40
4.0
 10
92.70528019600771
 20
-148.5333970440298
 10
92.68822697335572
 20
-148.5628526104287
 10
92.63758406972256
 20
-148.6560424433047
 10
92.62690427371827
 20
-148.6749904684736
 10
92.81724579927832
 20
-148.7342461108199
 10
92.83843313651262
 20
-148.7406195374676
 10
92.91043563215435
 20
-148.7681803013496
 10
92.96538490514407
 20
-148.6813638951213
 10
92.98863929966952
 20
-148.6072943421884
 10
93.00345321025607
 20
-148.5333970440298
 10
93.00345321025607
 20
-148.5333970440298
 10
92.70528019600771
 20
-148.5333970440298
 10
92.70528019600771
 20
-148.5333970440298
 97
        0
 97
        1
330
EA
 92
        1
 93
        1
 72
     4
 94
        3
 73
     0
 74
     0
 95
       20
 96
       16
 40
0.0
 40
0.0
 40
0.0
 40
0.0
 40
1.0
 40
1.0
 40
1.0
 40
2.0
 40
2.0
 40
2.0
 40
3.0
 40
3.0
 40
3.0
 40
4.0
 40
4.0
 40
4.0
 40
5.0
 40
5.0
 40
5.0
 40
5.0
 10
92.64171818430485
 20
-147.6829752234959
 10
92.64171818430485
 20
-147.6829752234959
 10
92.61002330584055
 20
-147.6829752234959
 10
92.61002330584055
 20
-147.6829752234959
 10
92.65653209489142
 20
-147.7823662282454
 10
92.68822697335572
 20
-147.8626369530517
 10
92.72216116388543
 20
-147.9895887216831
 10
92.72216116388543
 20
-147.9895887216831
 10
92.92938365732322
 20
-147.9895887216831
 10
92.92938365732322
 20
-147.9895887216831
 10
92.96125079056178
 20
-147.8965711435814
 10
92.98450518508721
 20
-147.8119940494185
 10
93.00775957961265
 20
-147.6829752234959
 10
93.00775957961265
 20
-147.6829752234959
 10
92.64171818430485
 20
-147.6829752234959
 10
92.64171818430485
 20
-147.6829752234959
 97
        0
 97
        1
330
EB
 92
        1
 93
        1
 72
     4
 94
        3
 73
     0
 74
     0
 95
      242
 96
      238
 40
0.0
 40
0.0
 40
0.0
 40
0.0
 40
1.0
 40
1.0
 40
1.0
 40
2.0
 40
2.0
 40
2.0
 40
3.0
 40
3.0
 40
3.0
 40
4.0
 40
4.0
 40
4.0
 40
5.0
 40
5.0
 40
5.0
 40
6.0
 40
6.0
 40
6.0
 40
7.0
 40
7.0
 40
7.0
 40
8.0
 40
8.0
 40
8.0
 40
9.0
 40
9.0
 40
9.0
 40
10.0
 40
10.0
 40
10.0
 40
11.0
 40
11.0
 40
11.0
 40
12.0
 40
12.0
 40
12.0
 40
13.0
 40
13.0
 40
13.0
 40
14.0
 40
14.0
 40
14.0
 40
15.0
 40
15.0
 40
15.0
 40
16.0
 40
16.0
 40
16.0
 40
17.0
 40
17.0
 40
17.0
 40
18.0
 40
18.0
 40
18.0
 40
19.0
 40
19.0
 40
19.0
 40
20.0
 40
20.0
 40
20.0
 40
21.0
 40
21.0
 40
21.0
 40
22.0
 40
22.0
 40
22.0
 40
23.0
 40
23.0
 40
23.0
 40
24.0
 40
24.0
 40
24.0
 40
25.0
 40
25.0
 40
25.0
 40
26.0
 40
26.0
 40
26.0
 40
27.0
 40
27.0
 40
27.0
 40
28.0
 40
28.0
 40
28.0
 40
29.0
 40
29.0
 40
29.0
 40
30.0
 40
30.0
 40
30.0
 40
31.0
 40
31.0
 40
31.0
 40
32.0
 40
32.0
 40
32.0
 40
33.0
 40
33.0
 40
33.0
 40
34.0
 40
34.0
 40
34.0
 40
35.0
 40
35.0
 40
35.0
 40
36.0
 40
36.0
 40
36.0
 40
37.0
 40
37.0
 40
37.0
 40
38.0
 40
38.0
 40
38.0
 40
39.0
 40
39.0
 40
39.0
 40
40.0
 40
40.0
 40
40.0
 40
41.0
 40
41.0
 40
41.0
 40
42.0
 40
42.0
 40
42.0
 40
43.0
 40
43.0
 40
43.0
 40
44.0
 40
44.0
 40
44.0
 40
45.0
 40
45.0
 40
45.0
 40
46.0
 40
46.0
 40
46.0
 40
47.0
 40
47.0
 40
47.0
 40
48.0
 40
48.0
 40
48.0
 40
49.0
 40
49.0
 40
49.0
 40
50.0
 40
50.0
 40
50.0
 40
51.0
 40
51.0
 40
51.0
 40
52.0
 40
52.0
 40
52.0
 40
53.0
 40
53.0
 40
53.0
 40
54.0
 40
54.0
 40
54.0
 40
55.0
 40
55.0
 40
55.0
 40
56.0
 40
56.0
 40
56.0
 40
57.0
 40
57.0
 40
57.0
 40
58.0
 40
58.0
 40
58.0
 40
59.0
 40
59.0
 40
59.0
 40
60.0
 40
60.0
 40
60.0
 40
61.0
 40
61.0
 40
61.0
 40
62.0
 40
62.0
 40
62.0
 40
63.0
 40
63.0
 40
63.0
 40
64.0
 40
64.0
 40
64.0
 40
65.0
 40
65.0
 40
65.0
 40
66.0
 40
66.0
 40
66.0
 40
67.0
 40
67.0
 40
67.0
 40
68.0
 40
68.0
 40
68.0
 40
69.0
 40
69.0
 40
69.0
 40
70.0
 40
70.0
 40
70.0
 40
71.0
 40
71.0
 40
71.0
 40
72.0
 40
72.0
 40
72.0
 40
73.0
 40
73.0
 40
73.0
 40
74.0
 40
74.0
 40
74.0
 40
75.0
 40
75.0
 40
75.0
 40
76.0
 40
76.0
 40
76.0
 40
77.0
 40
77.0
 40
77.0
 40
78.0
 40
78.0
 40
78.0
 40
79.0
 40
79.0
 40
79.0
 40
79.0
 10
93.27010360081443
 20
-148.1482353687789
 10
93.27010360081443
 20
-148.1482353687789
 10
93.0162000635515
 20
-148.1482353687789
 10
93.0162000635515
 20
-148.1482353687789
 10
93.0162000635515
 20
-148.1482353687789
 10
92.73904213176315
 20
-148.1482353687789
 10
92.73904213176315
 20
-148.1482353687789
 10
92.73904213176315
 20
-148.1482353687789
 10
92.8659939003946
 20
-148.1906100432475
 10
92.8659939003946
 20
-148.1906100432475
 10
92.87650144162462
 20
-148.194916412604
 10
92.88924829492005
 20
-148.2011175844775
 10
92.88924829492005
 20
-148.2138644377729
 10
92.88924829492005
 20
-148.2350517750072
 10
92.85755341645575
 20
-148.2414252016549
 10
92.83636607922145
 20
-148.2455593162372
 10
92.82585853799146
 20
-148.2688137107626
 10
92.79623071681831
 20
-148.3344427797566
 10
92.77711043687517
 20
-148.3788845115164
 10
92.77711043687517
 20
-148.3788845115164
 10
93.0478949420158
 20
-148.3788845115164
 10
93.0478949420158
 20
-148.3788845115164
 10
93.13884546282642
 20
-148.3788845115164
 10
93.33556041503417
 20
-148.3745781421598
 10
93.4773260942522
 20
-148.3661376582209
 10
93.4773260942522
 20
-148.3661376582209
 10
93.4773260942522
 20
-148.5439045852599
 10
93.4773260942522
 20
-148.5439045852599
 10
93.39481605738047
 20
-148.5395982159033
 10
93.37362872014619
 20
-148.5395982159033
 10
93.19379473581614
 20
-148.535464101321
 10
93.16209985735182
 20
-148.6898043790602
 10
93.11765812559212
 20
-148.7702473586407
 10
93.07321639383239
 20
-148.8400105422171
 10
93.19379473581614
 20
-148.8994384393376
 10
93.29973142198758
 20
-148.9669623108485
 10
93.40325654131932
 20
-149.0496446024945
 10
93.40325654131932
 20
-149.0496446024945
 10
93.28491751140099
 20
-149.2167317335291
 10
93.28491751140099
 20
-149.2167317335291
 10
93.26166311687556
 20
-149.1977837083602
 10
93.24891626358015
 20
-149.1891709696471
 10
93.13677840553525
 20
-149.10442162071
 10
93.08803030441897
 20
-149.0665255703722
 10
93.02894691684693
 20
-149.0306965773257
 10
92.94850393726635
 20
-148.9862548455659
 10
92.73697507447201
 20
-149.1722900017694
 10
92.53164738355112
 20
-149.1957166510691
 10
92.2419148532416
 20
-149.2253444722423
 10
92.2419148532416
 20
-149.2253444722423
 10
92.13821747913559
 20
-149.0455104879122
 10
92.13821747913559
 20
-149.0455104879122
 10
92.45551077332711
 20
-149.0410318637814
 10
92.63121064307483
 20
-149.0158826667391
 10
92.78348386352289
 20
-148.9056396112111
 10
92.66497257883029
 20
-148.8548244528036
 10
92.57608911531084
 20
-148.8274359436959
 10
92.54026012226423
 20
-148.8146890904005
 10
92.5211398423211
 20
-148.8422498542825
 10
92.50632593173454
 20
-148.8611978794514
 10
92.47876516785252
 20
-148.8953043247553
 10
92.47876516785252
 20
-148.8953043247553
 10
92.28205021564477
 20
-148.8126220331093
 10
92.28205021564477
 20
-148.8126220331093
 10
92.3645602525165
 20
-148.7321790535288
 10
92.42588295215396
 20
-148.6369221633616
 10
92.4830715372091
 20
-148.535464101321
 10
92.29273001164903
 20
-148.5395982159033
 10
92.27154267441475
 20
-148.5395982159033
 10
92.18903263754302
 20
-148.5439045852599
 10
92.18903263754302
 20
-148.5439045852599
 10
92.18903263754302
 20
-148.3661376582209
 10
92.18903263754302
 20
-148.3661376582209
 10
92.32855900469564
 20
-148.3725110848687
 10
92.53802081019882
 20
-148.3768174542252
 10
92.56351451678968
 20
-148.3768174542252
 10
92.5803954846674
 20
-148.3428832636955
 10
92.63534475765714
 20
-148.2223049217117
 10
92.65446503760028
 20
-148.1482353687789
 10
92.63534475765714
 20
-148.1482353687789
 10
92.45775008539251
 20
-148.1546087954266
 10
92.26310219047588
 20
-148.167355648722
 10
92.26310219047588
 20
-148.167355648722
 10
92.26310219047588
 20
-148.3006808440012
 10
92.26310219047588
 20
-148.3006808440012
 10
92.21435408935962
 20
-148.3260022958178
 10
92.15509844701331
 20
-148.3576971742821
 10
92.0219455065084
 20
-148.4233262432761
 10
92.0219455065084
 20
-148.4233262432761
 10
92.0219455065084
 20
-148.5692260370764
 10
92.0219455065084
 20
-148.5692260370764
 10
92.0219455065084
 20
-148.5692260370764
 10
92.0219455065084
 20
-149.0368977491991
 10
92.0219455065084
 20
-149.0368977491991
 10
92.0219455065084
 20
-149.1636772630563
 10
91.98594425868753
 20
-149.2229329054026
 10
91.70241290025149
 20
-149.214664676238
 10
91.70241290025149
 20
-149.214664676238
 10
91.59871552614546
 20
-149.0072699280259
 10
91.59871552614546
 20
-149.0072699280259
 10
91.66227753784832
 20
-149.0200167813214
 10
91.71085338419034
 20
-149.0241508959037
 10
91.75116100136776
 20
-149.0241508959037
 10
91.82729761159178
 20
-149.0241508959037
 10
91.8378051528218
 20
-149.0010687561525
 10
91.8378051528218
 20
-148.9352674323842
 10
91.8378051528218
 20
-148.9352674323842
 10
91.8378051528218
 20
-148.5058362801478
 10
91.8378051528218
 20
-148.5058362801478
 10
91.74048120536349
 20
-148.545971642551
 10
91.72360023748577
 20
-148.5523450691987
 10
91.6770914484349
 20
-148.5714653491418
 10
91.67278507907834
 20
-148.5924804316019
 10
91.66865096449603
 20
-148.622108252775
 10
91.6495306845529
 20
-148.622108252775
 10
91.64109020061403
 20
-148.622108252775
 10
91.63058265938403
 20
-148.6179741381927
 10
91.62420923273632
 20
-148.5947197436673
 10
91.62420923273632
 20
-148.5947197436673
 10
91.57132701703773
 20
-148.4021389060418
 10
91.57132701703773
 20
-148.4021389060418
 10
91.71722681083805
 20
-148.3556301169909
 10
91.78285587983207
 20
-148.3323757224655
 10
91.8378051528218
 20
-148.3111883852312
 10
91.8378051528218
 20
-148.3111883852312
 10
91.8378051528218
 20
-147.8986382008725
 10
91.8378051528218
 20
-147.8986382008725
 10
91.8378051528218
 20
-147.8986382008725
 10
91.78492293712322
 20
-147.8986382008725
 10
91.78492293712322
 20
-147.8986382008725
 10
91.78492293712322
 20
-147.8986382008725
 10
91.70671926960805
 20
-147.8986382008725
 10
91.70671926960805
 20
-147.8986382008725
 10
91.63902314332288
 20
-147.8986382008725
 10
91.63058265938403
 20
-147.8986382008725
 10
91.59458141156317
 20
-147.9050116275202
 10
91.59458141156317
 20
-147.9050116275202
 10
91.59458141156317
 20
-147.7103637326036
 10
91.59458141156317
 20
-147.7103637326036
 10
91.62214217544516
 20
-147.7167371592513
 10
91.63058265938403
 20
-147.7167371592513
 10
91.70034584296033
 20
-147.7167371592513
 10
91.70034584296033
 20
-147.7167371592513
 10
91.8336710382395
 20
-147.7167371592513
 10
91.8336710382395
 20
-147.7167371592513
 10
91.8336710382395
 20
-147.646973975675
 10
91.8336710382395
 20
-147.5644639388033
 10
91.83143172617409
 20
-147.5601575694468
 10
91.82299124223524
 20
-147.3803235851167
 10
91.82299124223524
 20
-147.3613755599478
 10
91.82092418494407
 20
-147.314866770897
 10
91.82092418494407
 20
-147.314866770897
 10
92.03675941709498
 20
-147.3233072548358
 10
92.03675941709498
 20
-147.3233072548358
 10
92.047266958325
 20
-147.3233072548358
 10
92.06845429555928
 20
-147.325374312127
 10
92.06845429555928
 20
-147.3422552800047
 10
92.06845429555928
 20
-147.3613755599478
 10
92.0536403849727
 20
-147.3718831011779
 10
92.02831893315611
 20
-147.391003381121
 10
92.02831893315611
 20
-147.4416462847542
 10
92.0219455065084
 20
-147.6702283702005
 10
92.02401256379955
 20
-147.7167371592513
 10
92.15303138972215
 20
-147.7167371592513
 10
92.16577824301758
 20
-147.7167371592513
 10
92.26310219047588
 20
-147.7082966753125
 10
92.26310219047588
 20
-147.7082966753125
 10
92.26310219047588
 20
-147.9029445702291
 10
92.26310219047588
 20
-147.9029445702291
 10
92.22503388536388
 20
-147.9007052581637
 10
92.15733775907873
 20
-147.8965711435814
 10
92.0219455065084
 20
-147.8986382008725
 10
92.0219455065084
 20
-147.8986382008725
 10
92.0219455065084
 20
-148.2371188322983
 10
92.0219455065084
 20
-148.2371188322983
 10
92.07689477949815
 20
-148.2138644377729
 10
92.14252384849215
 20
-148.1863036738909
 10
92.19109969483417
 20
-148.1630492793654
 10
92.19109969483417
 20
-148.1630492793654
 10
92.19109969483417
 20
-147.9854546071009
 10
92.19109969483417
 20
-147.9854546071009
 10
92.30530461017021
 20
-147.998029205622
 10
92.4238158948628
 20
-147.998029205622
 10
92.54026012226423
 20
-147.998029205622
 10
92.51683347296454
 20
-147.9029445702291
 10
92.4894449638568
 20
-147.8204345333574
 10
92.42588295215396
 20
-147.6871093380782
 10
92.38144122039422
 20
-147.6891763953694
 10
92.29910343829676
 20
-147.6934827647259
 10
92.26086287841047
 20
-147.6955498220171
 10
92.26086287841047
 20
-147.6955498220171
 10
92.26086287841047
 20
-147.515715837687
 10
92.26086287841047
 20
-147.515715837687
 10
92.38574758975079
 20
-147.5241563216259
 10
92.55920814743312
 20
-147.5284626909824
 10
92.64171818430485
 20
-147.5284626909824
 10
92.64171818430485
 20
-147.5284626909824
 10
92.72422822117659
 20
-147.5284626909824
 10
92.72422822117659
 20
-147.5284626909824
 10
92.72422822117659
 20
-147.3655096745301
 10
92.72422822117659
 20
-147.3550021333001
 10
92.72216116388543
 20
-147.3000528603104
 10
92.72216116388543
 20
-147.3000528603104
 10
92.94643687997519
 20
-147.325374312127
 10
92.94643687997519
 20
-147.325374312127
 10
92.9505709945575
 20
-147.325374312127
 10
92.9717583317918
 20
-147.3274413694181
 10
92.9717583317918
 20
-147.3443223372958
 10
92.9717583317918
 20
-147.3591362478824
 10
92.96125079056178
 20
-147.3677489865955
 10
92.93369002667978
 20
-147.3825628971821
 10
92.92731660003205
 20
-147.4480197114019
 10
92.92524954274091
 20
-147.4692070486361
 10
92.92524954274091
 20
-147.5284626909824
 10
92.92524954274091
 20
-147.5284626909824
 10
93.02033417813381
 20
-147.5284626909824
 10
93.02033417813381
 20
-147.5284626909824
 10
93.10284421500554
 20
-147.5284626909824
 10
93.27630477268789
 20
-147.5241563216259
 10
93.40118948402817
 20
-147.515715837687
 10
93.40118948402817
 20
-147.515715837687
 10
93.40118948402817
 20
-147.6955498220171
 10
93.40118948402817
 20
-147.6955498220171
 10
93.37156166285502
 20
-147.6934827647259
 10
93.25305037816244
 20
-147.6891763953694
 10
93.21291501575927
 20
-147.6871093380782
 10
93.1981011051727
 20
-147.7379244964857
 10
93.16433916941724
 20
-147.8500623545305
 10
93.09871010042325
 20
-147.9895887216831
 10
93.14091252011754
 20
-147.9895887216831
 10
93.4180704519059
 20
-147.9706406965143
 10
93.47939315154334
 20
-147.9684013844488
 10
93.47939315154334
 20
-147.9684013844488
 10
93.47939315154334
 20
-148.1525417381354
 10
93.47939315154334
 20
-148.1525417381354
 10
93.44993758514446
 20
-148.1525417381354
 10
93.43288436249247
 20
-148.1482353687789
 10
93.27010360081443
 20
-148.1482353687789
 97
        0
 97
        1
330
EC
 75
     2
 76
     1
 98
        1
 10
0.0
 20
0.0
450
        0
451
        0
460
0.0
461
0.0
452
        0
462
0.0
453
        0
470

  0
SPLINE
  5
EE
330
E6
100
AcDbEntity
  8
レイヤー 1
100
AcDbSpline
210
0.0
220
0.0
230
1.0
 70
    11
 71
     3
 72
    17
 73
    13
 74
     0
 42
0.0000000001
 43
0.0000000001
 40
0.0
 40
0.0
 40
0.0
 40
0.0
 40
1.0
 40
1.0
 40
1.0
 40
2.0
 40
2.0
 40
2.0
 40
3.0
 40
3.0
 40
3.0
 40
4.0
 40
4.0
 40
4.0
 40
4.0
 10
95.1264933030413
 20
-148.9480142856796
 30
0.0
 10
95.1264933030413
 20
-148.9480142856796
 30
0.0
 10
94.41990421901655
 20
-148.9480142856796
 30
0.0
 10
94.41990421901655
 20
-148.9480142856796
 30
0.0
 10
94.41990421901655
 20
-148.9480142856796
 30
0.0
 10
94.41990421901655
 20
-149.0623914557899
 30
0.0
 10
94.41990421901655
 20
-149.0623914557899
 30
0.0
 10
94.41990421901655
 20
-149.0623914557899
 30
0.0
 10
95.1264933030413
 20
-149.0623914557899
 30
0.0
 10
95.1264933030413
 20
-149.0623914557899
 30
0.0
 10
95.1264933030413
 20
-149.0623914557899
 30
0.0
 10
95.1264933030413
 20
-148.9480142856796
 30
0.0
 10
95.1264933030413
 20
-148.9480142856796
 30
0.0
  0
SPLINE
  5
EF
330
E6
100
AcDbEntity
  8
レイヤー 1
100
AcDbSpline
210
0.0
220
0.0
230
1.0
 70
    11
 71
     3
 72
    17
 73
    13
 74
     0
 42
0.0000000001
 43
0.0000000001
 40
0.0
 40
0.0
 40
0.0
 40
0.0
 40
1.0
 40
1.0
 40
1.0
 40
2.0
 40
2.0
 40
2.0
 40
3.0
 40
3.0
 40
3.0
 40
4.0
 40
4.0
 40
4.0
 40
4.0
 10
95.1264933030413
 20
-148.7046182896467
 30
0.0
 10
95.1264933030413
 20
-148.7046182896467
 30
0.0
 10
94.41990421901655
 20
-148.7046182896467
 30
0.0
 10
94.41990421901655
 20
-148.7046182896467
 30
0.0
 10
94.41990421901655
 20
-148.7046182896467
 30
0.0
 10
94.41990421901655
 20
-148.818995459757
 30
0.0
 10
94.41990421901655
 20
-148.818995459757
 30
0.0
 10
94.41990421901655
 20
-148.818995459757
 30
0.0
 10
95.1264933030413
 20
-148.818995459757
 30
0.0
 10
95.1264933030413
 20
-148.818995459757
 30
0.0
 10
95.1264933030413
 20
-148.818995459757
 30
0.0
 10
95.1264933030413
 20
-148.7046182896467
 30
0.0
 10
95.1264933030413
 20
-148.7046182896467
 30
0.0
  0
SPLINE
  5
F0
330
E6
100
AcDbEntity
  8
レイヤー 1
100
AcDbSpline
210
0.0
220
0.0
230
1.0
 70
    11
 71
     3
 72
    17
 73
    13
 74
     0
 42
0.0000000001
 43
0.0000000001
 40
0.0
 40
0.0
 40
0.0
 40
0.0
 40
1.0
 40
1.0
 40
1.0
 40
2.0
 40
2.0
 40
2.0
 40
3.0
 40
3.0
 40
3.0
 40
4.0
 40
4.0
 40
4.0
 40
4.0
 10
95.1264933030413
 20
-148.4719020896181
 30
0.0
 10
95.1264933030413
 20
-148.4719020896181
 30
0.0
 10
94.41990421901655
 20
-148.4719020896181
 30
0.0
 10
94.41990421901655
 20
-148.4719020896181
 30
0.0
 10
94.41990421901655
 20
-148.4719020896181
 30
0.0
 10
94.41990421901655
 20
-148.5799058330807
 30
0.0
 10
94.41990421901655
 20
-148.5799058330807
 30
0.0
 10
94.41990421901655
 20
-148.5799058330807
 30
0.0
 10
95.1264933030413
 20
-148.5799058330807
 30
0.0
 10
95.1264933030413
 20
-148.5799058330807
 30
0.0
 10
95.1264933030413
 20
-148.5799058330807
 30
0.0
 10
95.1264933030413
 20
-148.4719020896181
 30
0.0
 10
95.1264933030413
 20
-148.4719020896181
 30
0.0
  0
SPLINE
  5
F1
330
E6
100
AcDbEntity
  8
レイヤー 1
100
AcDbSpline
210
0.0
220
0.0
230
1.0
 70
     9
 71
     3
 72
   203
 73
   199
 74
     0
 42
0.0000000001
 43
0.0000000001
 40
0.0
 40
0.0
 40
0.0
 40
0.0
 40
1.0
 40
1.0
 40
1.0
 40
2.0
 40
2.0
 40
2.0
 40
3.0
 40
3.0
 40
3.0
 40
4.0
 40
4.0
 40
4.0
 40
5.0
 40
5.0
 40
5.0
 40
6.0
 40
6.0
 40
6.0
 40
7.0
 40
7.0
 40
7.0
 40
8.0
 40
8.0
 40
8.0
 40
9.0
 40
9.0
 40
9.0
 40
10.0
 40
10.0
 40
10.0
 40
11.0
 40
11.0
 40
11.0
 40
12.0
 40
12.0
 40
12.0
 40
13.0
 40
13.0
 40
13.0
 40
14.0
 40
14.0
 40
14.0
 40
15.0
 40
15.0
 40
15.0
 40
16.0
 40
16.0
 40
16.0
 40
17.0
 40
17.0
 40
17.0
 40
18.0
 40
18.0
 40
18.0
 40
19.0
 40
19.0
 40
19.0
 40
20.0
 40
20.0
 40
20.0
 40
21.0
 40
21.0
 40
21.0
 40
22.0
 40
22.0
 40
22.0
 40
23.0
 40
23.0
 40
23.0
 40
24.0
 40
24.0
 40
24.0
 40
25.0
 40
25.0
 40
25.0
 40
26.0
 40
26.0
 40
26.0
 40
27.0
 40
27.0
 40
27.0
 40
28.0
 40
28.0
 40
28.0
 40
29.0
 40
29.0
 40
29.0
 40
30.0
 40
30.0
 40
30.0
 40
31.0
 40
31.0
 40
31.0
 40
32.0
 40
32.0
 40
32.0
 40
33.0
 40
33.0
 40
33.0
 40
34.0
 40
34.0
 40
34.0
 40
35.0
 40
35.0
 40
35.0
 40
36.0
 40
36.0
 40
36.0
 40
37.0
 40
37.0
 40
37.0
 40
38.0
 40
38.0
 40
38.0
 40
39.0
 40
39.0
 40
39.0
 40
40.0
 40
40.0
 40
40.0
 40
41.0
 40
41.0
 40
41.0
 40
42.0
 40
42.0
 40
42.0
 40
43.0
 40
43.0
 40
43.0
 40
44.0
 40
44.0
 40
44.0
 40
45.0
 40
45.0
 40
45.0
 40
46.0
 40
46.0
 40
46.0
 40
47.0
 40
47.0
 40
47.0
 40
48.0
 40
48.0
 40
48.0
 40
49.0
 40
49.0
 40
49.0
 40
50.0
 40
50.0
 40
50.0
 40
51.0
 40
51.0
 40
51.0
 40
52.0
 40
52.0
 40
52.0
 40
53.0
 40
53.0
 40
53.0
 40
54.0
 40
54.0
 40
54.0
 40
55.0
 40
55.0
 40
55.0
 40
56.0
 40
56.0
 40
56.0
 40
57.0
 40
57.0
 40
57.0
 40
58.0
 40
58.0
 40
58.0
 40
59.0
 40
59.0
 40
59.0
 40
60.0
 40
60.0
 40
60.0
 40
61.0
 40
61.0
 40
61.0
 40
62.0
 40
62.0
 40
62.0
 40
63.0
 40
63.0
 40
63.0
 40
64.0
 40
64.0
 40
64.0
 40
65.0
 40
65.0
 40
65.0
 40
66.0
 40
66.0
 40
66.0
 40
66.0
 10
94.96147322929784
 20
-148.215931495064
 30
0.0
 10
94.96147322929784
 20
-148.215931495064
 30
0.0
 10
94.40302325113883
 20
-148.215931495064
 30
0.0
 10
94.40302325113883
 20
-148.215931495064
 30
0.0
 10
94.39234345513455
 20
-148.2603732268238
 30
0.0
 10
94.38390297119569
 20
-148.2920681052881
 30
0.0
 10
94.37132837267453
 20
-148.3303086651743
 30
0.0
 10
94.39664982449112
 20
-148.3303086651743
 30
0.0
 10
94.41146373507768
 20
-148.3323757224655
 30
0.0
 10
94.4178371617254
 20
-148.3323757224655
 30
0.0
 10
94.4178371617254
 20
-148.3323757224655
 30
0.0
 10
94.60611162999432
 20
-148.3323757224655
 30
0.0
 10
94.60611162999432
 20
-148.3323757224655
 30
0.0
 10
94.60611162999432
 20
-148.3323757224655
 30
0.0
 10
94.98059350924096
 20
-148.3323757224655
 30
0.0
 10
94.98059350924096
 20
-148.3323757224655
 30
0.0
 10
95.03123641287414
 20
-148.3323757224655
 30
0.0
 10
95.3147677713102
 20
-148.3196288691701
 30
0.0
 10
95.3464626497745
 20
-148.3196288691701
 30
0.0
 10
95.34439559248335
 20
-148.3471896330521
 30
0.0
 10
95.34232853519219
 20
-148.3661376582209
 30
0.0
 10
95.34232853519219
 20
-148.3957654793941
 30
0.0
 10
95.34008922312677
 20
-148.4274603578584
 30
0.0
 10
95.34008922312677
 20
-148.5628526104287
 30
0.0
 10
95.34008922312677
 20
-148.5904133743107
 30
0.0
 10
95.34008922312677
 20
-148.5904133743107
 30
0.0
 10
95.34008922312677
 20
-148.8358764276348
 30
0.0
 10
95.34008922312677
 20
-148.8358764276348
 30
0.0
 10
95.34008922312677
 20
-148.8804904141687
 30
0.0
 10
95.34439559248335
 20
-149.0772053663765
 30
0.0
 10
95.34870196183991
 20
-149.2294785868246
 30
0.0
 10
95.34870196183991
 20
-149.2294785868246
 30
0.0
 10
95.12218693368472
 20
-149.2294785868246
 30
0.0
 10
95.12218693368472
 20
-149.2294785868246
 30
0.0
 10
95.12218693368472
 20
-149.2294785868246
 30
0.0
 10
95.12442624575013
 20
-149.1957166510691
 30
0.0
 10
95.12442624575013
 20
-149.1957166510691
 30
0.0
 10
95.12442624575013
 20
-149.1957166510691
 30
0.0
 10
94.4219712763077
 20
-149.1957166510691
 30
0.0
 10
94.4219712763077
 20
-149.1957166510691
 30
0.0
 10
94.4219712763077
 20
-149.1957166510691
 30
0.0
 10
94.42421058837311
 20
-149.2294785868246
 30
0.0
 10
94.42421058837311
 20
-149.2294785868246
 30
0.0
 10
94.42421058837311
 20
-149.2294785868246
 30
0.0
 10
94.20630829893106
 20
-149.2294785868246
 30
0.0
 10
94.20630829893106
 20
-149.2294785868246
 30
0.0
 10
94.21044241351337
 20
-149.1743570590606
 30
0.0
 10
94.21044241351337
 20
-149.1616102057651
 30
0.0
 10
94.21681584016107
 20
-149.0475775452034
 30
0.0
 10
94.21888289745224
 20
-149.0200167813214
 30
0.0
 10
94.22112220951765
 20
-148.8866915860422
 30
0.0
 10
94.22112220951765
 20
-148.8675713060991
 30
0.0
 10
94.22112220951765
 20
-148.8675713060991
 30
0.0
 10
94.22112220951765
 20
-148.6644829272436
 30
0.0
 10
94.22112220951765
 20
-148.6644829272436
 30
0.0
 10
94.08142358759077
 20
-148.9142523499242
 30
0.0
 10
93.91226939926498
 20
-149.0455104879122
 30
0.0
 10
93.80650496786783
 20
-149.110967302132
 30
0.0
 10
93.80650496786783
 20
-149.110967302132
 30
0.0
 10
93.63287215541124
 20
-148.9714409349794
 30
0.0
 10
93.63287215541124
 20
-148.9714409349794
 30
0.0
 10
93.72175561893067
 20
-148.9204535217977
 30
0.0
 10
93.86558835543985
 20
-148.8336371155694
 30
0.0
 10
94.0032199200756
 20
-148.639161475427
 30
0.0
 10
94.09417044088618
 20
-148.5122097067955
 30
0.0
 10
94.15979950988019
 20
-148.3683769702864
 30
0.0
 10
94.19356144563563
 20
-148.215931495064
 30
0.0
 10
93.96515161496358
 20
-148.2181708071295
 30
0.0
 10
93.78531763063355
 20
-148.2245442337772
 30
0.0
 10
93.69006074046637
 20
-148.2266112910683
 30
0.0
 10
93.69006074046637
 20
-148.2266112910683
 30
0.0
 10
93.69006074046637
 20
-148.0488443640294
 30
0.0
 10
93.69006074046637
 20
-148.0488443640294
 30
0.0
 10
93.88677569267414
 20
-148.0552177906772
 30
0.0
 10
94.1703070511102
 20
-148.0595241600337
 30
0.0
 10
94.3205132142671
 20
-148.0595241600337
 30
0.0
 10
94.3205132142671
 20
-148.0595241600337
 30
0.0
 10
94.53410913435259
 20
-148.0595241600337
 30
0.0
 10
94.53410913435259
 20
-148.0595241600337
 30
0.0
 10
94.53410913435259
 20
-148.0595241600337
 30
0.0
 10
94.53410913435259
 20
-147.9515204165711
 30
0.0
 10
94.53410913435259
 20
-147.9515204165711
 30
0.0
 10
94.53410913435259
 20
-147.9515204165711
 30
0.0
 10
94.38820934055225
 20
-147.9515204165711
 30
0.0
 10
94.38820934055225
 20
-147.9515204165711
 30
0.0
 10
94.21888289745224
 20
-147.9515204165711
 30
0.0
 10
94.04972870912645
 20
-147.9558267859277
 30
0.0
 10
93.88264157809185
 20
-147.9622002125754
 30
0.0
 10
93.88264157809185
 20
-147.9622002125754
 30
0.0
 10
93.88264157809185
 20
-147.7908067121842
 30
0.0
 10
93.88264157809185
 20
-147.7908067121842
 30
0.0
 10
94.03698185583102
 20
-147.8013142534142
 30
0.0
 10
94.22318926680878
 20
-147.8013142534142
 30
0.0
 10
94.38820934055225
 20
-147.8013142534142
 30
0.0
 10
94.38820934055225
 20
-147.8013142534142
 30
0.0
 10
94.53410913435259
 20
-147.8013142534142
 30
0.0
 10
94.53410913435259
 20
-147.8013142534142
 30
0.0
 10
94.53410913435259
 20
-147.8013142534142
 30
0.0
 10
94.53410913435259
 20
-147.6829752234959
 30
0.0
 10
94.53410913435259
 20
-147.6829752234959
 30
0.0
 10
94.53410913435259
 20
-147.6829752234959
 30
0.0
 10
94.40302325113883
 20
-147.6829752234959
 30
0.0
 10
94.40302325113883
 20
-147.6829752234959
 30
0.0
 10
94.35651446208796
 20
-147.6829752234959
 30
0.0
 10
94.15342608323248
 20
-147.6914157074348
 30
0.0
 10
94.11105140876392
 20
-147.6914157074348
 30
0.0
 10
93.90796302990843
 20
-147.6955498220171
 30
0.0
 10
93.8318264196844
 20
-147.6976168793082
 30
0.0
 10
93.75362275216923
 20
-147.6998561913736
 30
0.0
 10
93.75362275216923
 20
-147.6998561913736
 30
0.0
 10
93.75362275216923
 20
-147.515715837687
 30
0.0
 10
93.75362275216923
 20
-147.515715837687
 30
0.0
 10
93.86782766750526
 20
-147.5241563216259
 30
0.0
 10
93.91226939926498
 20
-147.5241563216259
 30
0.0
 10
94.29519176245051
 20
-147.532769060339
 30
0.0
 10
94.23162975074765
 20
-147.4375121701719
 30
0.0
 10
94.20406898686565
 20
-147.4099514062898
 30
0.0
 10
94.16823999381906
 20
-147.373950158469
 30
0.0
 10
94.16823999381906
 20
-147.373950158469
 30
0.0
 10
94.34376760879253
 20
-147.2914401215972
 30
0.0
 10
94.34376760879253
 20
-147.2914401215972
 30
0.0
 10
94.38390297119569
 20
-147.3274413694181
 30
0.0
 10
94.42834470295542
 20
-147.3698160438867
 30
0.0
 10
94.50241425588828
 20
-147.4797145898661
 30
0.0
 10
94.50241425588828
 20
-147.4797145898661
 30
0.0
 10
94.38820934055225
 20
-147.5348361176302
 30
0.0
 10
94.38820934055225
 20
-147.5348361176302
 30
0.0
 10
94.38820934055225
 20
-147.5348361176302
 30
0.0
 10
94.39871688178227
 20
-147.5348361176302
 30
0.0
 10
94.39871688178227
 20
-147.5348361176302
 30
0.0
 10
94.39871688178227
 20
-147.5348361176302
 30
0.0
 10
94.92133786689468
 20
-147.5348361176302
 30
0.0
 10
94.92133786689468
 20
-147.5348361176302
 30
0.0
 10
94.92133786689468
 20
-147.5348361176302
 30
0.0
 10
94.8260809767275
 20
-147.4903943858705
 30
0.0
 10
94.8260809767275
 20
-147.4903943858705
 30
0.0
 10
94.85364174060951
 20
-147.4523260807584
 30
0.0
 10
94.91065807089039
 20
-147.3718831011779
 30
0.0
 10
94.92547198147697
 20
-147.297813548245
 30
0.0
 10
94.92547198147697
 20
-147.297813548245
 30
0.0
 10
95.13924015633673
 20
-147.3613755599478
 30
0.0
 10
95.13924015633673
 20
-147.3613755599478
 30
0.0
 10
95.14768064027558
 20
-147.363442617239
 30
0.0
 10
95.16886797750988
 20
-147.373950158469
 30
0.0
 10
95.16886797750988
 20
-147.3951374957033
 30
0.0
 10
95.16886797750988
 20
-147.4332058008153
 30
0.0
 10
95.10323890851585
 20
-147.4332058008153
 30
0.0
 10
95.08411862857272
 20
-147.4332058008153
 30
0.0
 10
95.0736110873427
 20
-147.4523260807584
 30
0.0
 10
95.05035669281728
 20
-147.4924614431616
 30
0.0
 10
95.02072887164413
 20
-147.532769060339
 30
0.0
 10
95.42053220270737
 20
-147.5263956336913
 30
0.0
 10
95.45016002388051
 20
-147.5241563216259
 30
0.0
 10
95.52629663410455
 20
-147.5179551497524
 30
0.0
 10
95.52629663410455
 20
-147.5179551497524
 30
0.0
 10
95.52629663410455
 20
-147.6998561913736
 30
0.0
 10
95.52629663410455
 20
-147.6998561913736
 30
0.0
 10
95.50734860893568
 20
-147.6998561913736
 30
0.0
 10
95.48185490234482
 20
-147.6976168793082
 30
0.0
 10
95.2618855556116
 20
-147.6891763953694
 30
0.0
 10
95.21107039720417
 20
-147.6871093380782
 30
0.0
 10
94.99110105047098
 20
-147.6829752234959
 30
0.0
 10
94.94665931871125
 20
-147.6829752234959
 30
0.0
 10
94.94665931871125
 20
-147.6829752234959
 30
0.0
 10
94.73082408656036
 20
-147.6829752234959
 30
0.0
 10
94.73082408656036
 20
-147.6829752234959
 30
0.0
 10
94.73082408656036
 20
-147.6829752234959
 30
0.0
 10
94.73082408656036
 20
-147.8013142534142
 30
0.0
 10
94.73082408656036
 20
-147.8013142534142
 30
0.0
 10
94.73082408656036
 20
-147.8013142534142
 30
0.0
 10
94.90428464424267
 20
-147.8013142534142
 30
0.0
 10
94.90428464424267
 20
-147.8013142534142
 30
0.0
 10
95.067237660695
 20
-147.8013142534142
 30
0.0
 10
95.25757918625506
 20
-147.8013142534142
 30
0.0
 10
95.41415877605967
 20
-147.7908067121842
 30
0.0
 10
95.41415877605967
 20
-147.7908067121842
 30
0.0
 10
95.41415877605967
 20
-147.9622002125754
 30
0.0
 10
95.41415877605967
 20
-147.9622002125754
 30
0.0
 10
95.20469697055647
 20
-147.9537597286365
 30
0.0
 10
95.0079820183487
 20
-147.9515204165711
 30
0.0
 10
94.90428464424267
 20
-147.9515204165711
 30
0.0
 10
94.90428464424267
 20
-147.9515204165711
 30
0.0
 10
94.73082408656036
 20
-147.9515204165711
 30
0.0
 10
94.73082408656036
 20
-147.9515204165711
 30
0.0
 10
94.73082408656036
 20
-147.9515204165711
 30
0.0
 10
94.73082408656036
 20
-148.0595241600337
 30
0.0
 10
94.73082408656036
 20
-148.0595241600337
 30
0.0
 10
94.73082408656036
 20
-148.0595241600337
 30
0.0
 10
94.96147322929784
 20
-148.0595241600337
 30
0.0
 10
94.96147322929784
 20
-148.0595241600337
 30
0.0
 10
95.09479842457698
 20
-148.0595241600337
 30
0.0
 10
95.38246389759535
 20
-148.0552177906772
 30
0.0
 10
95.59192570309855
 20
-148.0488443640294
 30
0.0
 10
95.59192570309855
 20
-148.0488443640294
 30
0.0
 10
95.59192570309855
 20
-148.2266112910683
 30
0.0
 10
95.59192570309855
 20
-148.2266112910683
 30
0.0
 10
95.39934486547307
 20
-148.2202378644206
 30
0.0
 10
95.08635794063813
 20
-148.215931495064
 30
0.0
 10
94.96147322929784
 20
-148.215931495064
 30
0.0
  0
HATCH
  5
F2
330
E6
100
AcDbEntity
  8
レイヤー 1
 62
    18
420
        0
440
 33554687
100
AcDbHatch
 10
0.0
 20
0.0
 30
0.0
210
0.0
220
0.0
230
1.0
  2
SOLID
 70
     1
 71
     1
 91
        4
 92
        1
 93
        1
 72
     4
 94
        3
 73
     0
 74
     0
 95
       17
 96
       13
 40
0.0
 40
0.0
 40
0.0
 40
0.0
 40
1.0
 40
1.0
 40
1.0
 40
2.0
 40
2.0
 40
2.0
 40
3.0
 40
3.0
 40
3.0
 40
4.0
 40
4.0
 40
4.0
 40
4.0
 10
95.1264933030413
 20
-148.9480142856796
 10
95.1264933030413
 20
-148.9480142856796
 10
94.41990421901655
 20
-148.9480142856796
 10
94.41990421901655
 20
-148.9480142856796
 10
94.41990421901655
 20
-148.9480142856796
 10
94.41990421901655
 20
-149.0623914557899
 10
94.41990421901655
 20
-149.0623914557899
 10
94.41990421901655
 20
-149.0623914557899
 10
95.1264933030413
 20
-149.0623914557899
 10
95.1264933030413
 20
-149.0623914557899
 10
95.1264933030413
 20
-149.0623914557899
 10
95.1264933030413
 20
-148.9480142856796
 10
95.1264933030413
 20
-148.9480142856796
 97
        0
 97
        1
330
EE
 92
        1
 93
        1
 72
     4
 94
        3
 73
     0
 74
     0
 95
       17
 96
       13
 40
0.0
 40
0.0
 40
0.0
 40
0.0
 40
1.0
 40
1.0
 40
1.0
 40
2.0
 40
2.0
 40
2.0
 40
3.0
 40
3.0
 40
3.0
 40
4.0
 40
4.0
 40
4.0
 40
4.0
 10
95.1264933030413
 20
-148.7046182896467
 10
95.1264933030413
 20
-148.7046182896467
 10
94.41990421901655
 20
-148.7046182896467
 10
94.41990421901655
 20
-148.7046182896467
 10
94.41990421901655
 20
-148.7046182896467
 10
94.41990421901655
 20
-148.818995459757
 10
94.41990421901655
 20
-148.818995459757
 10
94.41990421901655
 20
-148.818995459757
 10
95.1264933030413
 20
-148.818995459757
 10
95.1264933030413
 20
-148.818995459757
 10
95.1264933030413
 20
-148.818995459757
 10
95.1264933030413
 20
-148.7046182896467
 10
95.1264933030413
 20
-148.7046182896467
 97
        0
 97
        1
330
EF
 92
        1
 93
        1
 72
     4
 94
        3
 73
     0
 74
     0
 95
       17
 96
       13
 40
0.0
 40
0.0
 40
0.0
 40
0.0
 40
1.0
 40
1.0
 40
1.0
 40
2.0
 40
2.0
 40
2.0
 40
3.0
 40
3.0
 40
3.0
 40
4.0
 40
4.0
 40
4.0
 40
4.0
 10
95.1264933030413
 20
-148.4719020896181
 10
95.1264933030413
 20
-148.4719020896181
 10
94.41990421901655
 20
-148.4719020896181
 10
94.41990421901655
 20
-148.4719020896181
 10
94.41990421901655
 20
-148.4719020896181
 10
94.41990421901655
 20
-148.5799058330807
 10
94.41990421901655
 20
-148.5799058330807
 10
94.41990421901655
 20
-148.5799058330807
 10
95.1264933030413
 20
-148.5799058330807
 10
95.1264933030413
 20
-148.5799058330807
 10
95.1264933030413
 20
-148.5799058330807
 10
95.1264933030413
 20
-148.4719020896181
 10
95.1264933030413
 20
-148.4719020896181
 97
        0
 97
        1
330
F0
 92
        1
 93
        1
 72
     4
 94
        3
 73
     0
 74
     0
 95
      203
 96
      199
 40
0.0
 40
0.0
 40
0.0
 40
0.0
 40
1.0
 40
1.0
 40
1.0
 40
2.0
 40
2.0
 40
2.0
 40
3.0
 40
3.0
 40
3.0
 40
4.0
 40
4.0
 40
4.0
 40
5.0
 40
5.0
 40
5.0
 40
6.0
 40
6.0
 40
6.0
 40
7.0
 40
7.0
 40
7.0
 40
8.0
 40
8.0
 40
8.0
 40
9.0
 40
9.0
 40
9.0
 40
10.0
 40
10.0
 40
10.0
 40
11.0
 40
11.0
 40
11.0
 40
12.0
 40
12.0
 40
12.0
 40
13.0
 40
13.0
 40
13.0
 40
14.0
 40
14.0
 40
14.0
 40
15.0
 40
15.0
 40
15.0
 40
16.0
 40
16.0
 40
16.0
 40
17.0
 40
17.0
 40
17.0
 40
18.0
 40
18.0
 40
18.0
 40
19.0
 40
19.0
 40
19.0
 40
20.0
 40
20.0
 40
20.0
 40
21.0
 40
21.0
 40
21.0
 40
22.0
 40
22.0
 40
22.0
 40
23.0
 40
23.0
 40
23.0
 40
24.0
 40
24.0
 40
24.0
 40
25.0
 40
25.0
 40
25.0
 40
26.0
 40
26.0
 40
26.0
 40
27.0
 40
27.0
 40
27.0
 40
28.0
 40
28.0
 40
28.0
 40
29.0
 40
29.0
 40
29.0
 40
30.0
 40
30.0
 40
30.0
 40
31.0
 40
31.0
 40
31.0
 40
32.0
 40
32.0
 40
32.0
 40
33.0
 40
33.0
 40
33.0
 40
34.0
 40
34.0
 40
34.0
 40
35.0
 40
35.0
 40
35.0
 40
36.0
 40
36.0
 40
36.0
 40
37.0
 40
37.0
 40
37.0
 40
38.0
 40
38.0
 40
38.0
 40
39.0
 40
39.0
 40
39.0
 40
40.0
 40
40.0
 40
40.0
 40
41.0
 40
41.0
 40
41.0
 40
42.0
 40
42.0
 40
42.0
 40
43.0
 40
43.0
 40
43.0
 40
44.0
 40
44.0
 40
44.0
 40
45.0
 40
45.0
 40
45.0
 40
46.0
 40
46.0
 40
46.0
 40
47.0
 40
47.0
 40
47.0
 40
48.0
 40
48.0
 40
48.0
 40
49.0
 40
49.0
 40
49.0
 40
50.0
 40
50.0
 40
50.0
 40
51.0
 40
51.0
 40
51.0
 40
52.0
 40
52.0
 40
52.0
 40
53.0
 40
53.0
 40
53.0
 40
54.0
 40
54.0
 40
54.0
 40
55.0
 40
55.0
 40
55.0
 40
56.0
 40
56.0
 40
56.0
 40
57.0
 40
57.0
 40
57.0
 40
58.0
 40
58.0
 40
58.0
 40
59.0
 40
59.0
 40
59.0
 40
60.0
 40
60.0
 40
60.0
 40
61.0
 40
61.0
 40
61.0
 40
62.0
 40
62.0
 40
62.0
 40
63.0
 40
63.0
 40
63.0
 40
64.0
 40
64.0
 40
64.0
 40
65.0
 40
65.0
 40
65.0
 40
66.0
 40
66.0
 40
66.0
 40
66.0
 10
94.96147322929784
 20
-148.215931495064
 10
94.96147322929784
 20
-148.215931495064
 10
94.40302325113883
 20
-148.215931495064
 10
94.40302325113883
 20
-148.215931495064
 10
94.39234345513455
 20
-148.2603732268238
 10
94.38390297119569
 20
-148.2920681052881
 10
94.37132837267453
 20
-148.3303086651743
 10
94.39664982449112
 20
-148.3303086651743
 10
94.41146373507768
 20
-148.3323757224655
 10
94.4178371617254
 20
-148.3323757224655
 10
94.4178371617254
 20
-148.3323757224655
 10
94.60611162999432
 20
-148.3323757224655
 10
94.60611162999432
 20
-148.3323757224655
 10
94.60611162999432
 20
-148.3323757224655
 10
94.98059350924096
 20
-148.3323757224655
 10
94.98059350924096
 20
-148.3323757224655
 10
95.03123641287414
 20
-148.3323757224655
 10
95.3147677713102
 20
-148.3196288691701
 10
95.3464626497745
 20
-148.3196288691701
 10
95.34439559248335
 20
-148.3471896330521
 10
95.34232853519219
 20
-148.3661376582209
 10
95.34232853519219
 20
-148.3957654793941
 10
95.34008922312677
 20
-148.4274603578584
 10
95.34008922312677
 20
-148.5628526104287
 10
95.34008922312677
 20
-148.5904133743107
 10
95.34008922312677
 20
-148.5904133743107
 10
95.34008922312677
 20
-148.8358764276348
 10
95.34008922312677
 20
-148.8358764276348
 10
95.34008922312677
 20
-148.8804904141687
 10
95.34439559248335
 20
-149.0772053663765
 10
95.34870196183991
 20
-149.2294785868246
 10
95.34870196183991
 20
-149.2294785868246
 10
95.12218693368472
 20
-149.2294785868246
 10
95.12218693368472
 20
-149.2294785868246
 10
95.12218693368472
 20
-149.2294785868246
 10
95.12442624575013
 20
-149.1957166510691
 10
95.12442624575013
 20
-149.1957166510691
 10
95.12442624575013
 20
-149.1957166510691
 10
94.4219712763077
 20
-149.1957166510691
 10
94.4219712763077
 20
-149.1957166510691
 10
94.4219712763077
 20
-149.1957166510691
 10
94.42421058837311
 20
-149.2294785868246
 10
94.42421058837311
 20
-149.2294785868246
 10
94.42421058837311
 20
-149.2294785868246
 10
94.20630829893106
 20
-149.2294785868246
 10
94.20630829893106
 20
-149.2294785868246
 10
94.21044241351337
 20
-149.1743570590606
 10
94.21044241351337
 20
-149.1616102057651
 10
94.21681584016107
 20
-149.0475775452034
 10
94.21888289745224
 20
-149.0200167813214
 10
94.22112220951765
 20
-148.8866915860422
 10
94.22112220951765
 20
-148.8675713060991
 10
94.22112220951765
 20
-148.8675713060991
 10
94.22112220951765
 20
-148.6644829272436
 10
94.22112220951765
 20
-148.6644829272436
 10
94.08142358759077
 20
-148.9142523499242
 10
93.91226939926498
 20
-149.0455104879122
 10
93.80650496786783
 20
-149.110967302132
 10
93.80650496786783
 20
-149.110967302132
 10
93.63287215541124
 20
-148.9714409349794
 10
93.63287215541124
 20
-148.9714409349794
 10
93.72175561893067
 20
-148.9204535217977
 10
93.86558835543985
 20
-148.8336371155694
 10
94.0032199200756
 20
-148.639161475427
 10
94.09417044088618
 20
-148.5122097067955
 10
94.15979950988019
 20
-148.3683769702864
 10
94.19356144563563
 20
-148.215931495064
 10
93.96515161496358
 20
-148.2181708071295
 10
93.78531763063355
 20
-148.2245442337772
 10
93.69006074046637
 20
-148.2266112910683
 10
93.69006074046637
 20
-148.2266112910683
 10
93.69006074046637
 20
-148.0488443640294
 10
93.69006074046637
 20
-148.0488443640294
 10
93.88677569267414
 20
-148.0552177906772
 10
94.1703070511102
 20
-148.0595241600337
 10
94.3205132142671
 20
-148.0595241600337
 10
94.3205132142671
 20
-148.0595241600337
 10
94.53410913435259
 20
-148.0595241600337
 10
94.53410913435259
 20
-148.0595241600337
 10
94.53410913435259
 20
-148.0595241600337
 10
94.53410913435259
 20
-147.9515204165711
 10
94.53410913435259
 20
-147.9515204165711
 10
94.53410913435259
 20
-147.9515204165711
 10
94.38820934055225
 20
-147.9515204165711
 10
94.38820934055225
 20
-147.9515204165711
 10
94.21888289745224
 20
-147.9515204165711
 10
94.04972870912645
 20
-147.9558267859277
 10
93.88264157809185
 20
-147.9622002125754
 10
93.88264157809185
 20
-147.9622002125754
 10
93.88264157809185
 20
-147.7908067121842
 10
93.88264157809185
 20
-147.7908067121842
 10
94.03698185583102
 20
-147.8013142534142
 10
94.22318926680878
 20
-147.8013142534142
 10
94.38820934055225
 20
-147.8013142534142
 10
94.38820934055225
 20
-147.8013142534142
 10
94.53410913435259
 20
-147.8013142534142
 10
94.53410913435259
 20
-147.8013142534142
 10
94.53410913435259
 20
-147.8013142534142
 10
94.53410913435259
 20
-147.6829752234959
 10
94.53410913435259
 20
-147.6829752234959
 10
94.53410913435259
 20
-147.6829752234959
 10
94.40302325113883
 20
-147.6829752234959
 10
94.40302325113883
 20
-147.6829752234959
 10
94.35651446208796
 20
-147.6829752234959
 10
94.15342608323248
 20
-147.6914157074348
 10
94.11105140876392
 20
-147.6914157074348
 10
93.90796302990843
 20
-147.6955498220171
 10
93.8318264196844
 20
-147.6976168793082
 10
93.75362275216923
 20
-147.6998561913736
 10
93.75362275216923
 20
-147.6998561913736
 10
93.75362275216923
 20
-147.515715837687
 10
93.75362275216923
 20
-147.515715837687
 10
93.86782766750526
 20
-147.5241563216259
 10
93.91226939926498
 20
-147.5241563216259
 10
94.29519176245051
 20
-147.532769060339
 10
94.23162975074765
 20
-147.4375121701719
 10
94.20406898686565
 20
-147.4099514062898
 10
94.16823999381906
 20
-147.373950158469
 10
94.16823999381906
 20
-147.373950158469
 10
94.34376760879253
 20
-147.2914401215972
 10
94.34376760879253
 20
-147.2914401215972
 10
94.38390297119569
 20
-147.3274413694181
 10
94.42834470295542
 20
-147.3698160438867
 10
94.50241425588828
 20
-147.4797145898661
 10
94.50241425588828
 20
-147.4797145898661
 10
94.38820934055225
 20
-147.5348361176302
 10
94.38820934055225
 20
-147.5348361176302
 10
94.38820934055225
 20
-147.5348361176302
 10
94.39871688178227
 20
-147.5348361176302
 10
94.39871688178227
 20
-147.5348361176302
 10
94.39871688178227
 20
-147.5348361176302
 10
94.92133786689468
 20
-147.5348361176302
 10
94.92133786689468
 20
-147.5348361176302
 10
94.92133786689468
 20
-147.5348361176302
 10
94.8260809767275
 20
-147.4903943858705
 10
94.8260809767275
 20
-147.4903943858705
 10
94.85364174060951
 20
-147.4523260807584
 10
94.91065807089039
 20
-147.3718831011779
 10
94.92547198147697
 20
-147.297813548245
 10
94.92547198147697
 20
-147.297813548245
 10
95.13924015633673
 20
-147.3613755599478
 10
95.13924015633673
 20
-147.3613755599478
 10
95.14768064027558
 20
-147.363442617239
 10
95.16886797750988
 20
-147.373950158469
 10
95.16886797750988
 20
-147.3951374957033
 10
95.16886797750988
 20
-147.4332058008153
 10
95.10323890851585
 20
-147.4332058008153
 10
95.08411862857272
 20
-147.4332058008153
 10
95.0736110873427
 20
-147.4523260807584
 10
95.05035669281728
 20
-147.4924614431616
 10
95.02072887164413
 20
-147.532769060339
 10
95.42053220270737
 20
-147.5263956336913
 10
95.45016002388051
 20
-147.5241563216259
 10
95.52629663410455
 20
-147.5179551497524
 10
95.52629663410455
 20
-147.5179551497524
 10
95.52629663410455
 20
-147.6998561913736
 10
95.52629663410455
 20
-147.6998561913736
 10
95.50734860893568
 20
-147.6998561913736
 10
95.48185490234482
 20
-147.6976168793082
 10
95.2618855556116
 20
-147.6891763953694
 10
95.21107039720417
 20
-147.6871093380782
 10
94.99110105047098
 20
-147.6829752234959
 10
94.94665931871125
 20
-147.6829752234959
 10
94.94665931871125
 20
-147.6829752234959
 10
94.73082408656036
 20
-147.6829752234959
 10
94.73082408656036
 20
-147.6829752234959
 10
94.73082408656036
 20
-147.6829752234959
 10
94.73082408656036
 20
-147.8013142534142
 10
94.73082408656036
 20
-147.8013142534142
 10
94.73082408656036
 20
-147.8013142534142
 10
94.90428464424267
 20
-147.8013142534142
 10
94.90428464424267
 20
-147.8013142534142
 10
95.067237660695
 20
-147.8013142534142
 10
95.25757918625506
 20
-147.8013142534142
 10
95.41415877605967
 20
-147.7908067121842
 10
95.41415877605967
 20
-147.7908067121842
 10
95.41415877605967
 20
-147.9622002125754
 10
95.41415877605967
 20
-147.9622002125754
 10
95.20469697055647
 20
-147.9537597286365
 10
95.0079820183487
 20
-147.9515204165711
 10
94.90428464424267
 20
-147.9515204165711
 10
94.90428464424267
 20
-147.9515204165711
 10
94.73082408656036
 20
-147.9515204165711
 10
94.73082408656036
 20
-147.9515204165711
 10
94.73082408656036
 20
-147.9515204165711
 10
94.73082408656036
 20
-148.0595241600337
 10
94.73082408656036
 20
-148.0595241600337
 10
94.73082408656036
 20
-148.0595241600337
 10
94.96147322929784
 20
-148.0595241600337
 10
94.96147322929784
 20
-148.0595241600337
 10
95.09479842457698
 20
-148.0595241600337
 10
95.38246389759535
 20
-148.0552177906772
 10
95.59192570309855
 20
-148.0488443640294
 10
95.59192570309855
 20
-148.0488443640294
 10
95.59192570309855
 20
-148.2266112910683
 10
95.59192570309855
 20
-148.2266112910683
 10
95.39934486547307
 20
-148.2202378644206
 10
95.08635794063813
 20
-148.215931495064
 10
94.96147322929784
 20
-148.215931495064
 97
        0
 97
        1
330
F1
 75
     2
 76
     1
 98
        1
 10
0.0
 20
0.0
450
        0
451
        0
460
0.0
461
0.0
452
        0
462
0.0
453
        0
470

  0
SPLINE
  5
F3
330
E6
100
AcDbEntity
  8
レイヤー 1
100
AcDbSpline
210
0.0
220
0.0
230
1.0
 70
     9
 71
     3
 72
    29
 73
    25
 74
     0
 42
0.0000000001
 43
0.0000000001
 40
0.0
 40
0.0
 40
0.0
 40
0.0
 40
1.0
 40
1.0
 40
1.0
 40
2.0
 40
2.0
 40
2.0
 40
3.0
 40
3.0
 40
3.0
 40
4.0
 40
4.0
 40
4.0
 40
5.0
 40
5.0
 40
5.0
 40
6.0
 40
6.0
 40
6.0
 40
7.0
 40
7.0
 40
7.0
 40
8.0
 40
8.0
 40
8.0
 40
8.0
 10
96.83698321146785
 20
-147.6638549435528
 30
0.0
 10
96.83698321146785
 20
-147.6638549435528
 30
0.0
 10
96.48368866945547
 20
-147.6638549435528
 30
0.0
 10
96.48368866945547
 20
-147.6638549435528
 30
0.0
 10
96.3715508114106
 20
-147.6638549435528
 30
0.0
 10
96.23202444425798
 20
-147.6702283702005
 30
0.0
 10
96.12402070079539
 20
-147.6829752234959
 30
0.0
 10
96.12402070079539
 20
-147.6829752234959
 30
0.0
 10
96.12402070079539
 20
-147.4480197114019
 30
0.0
 10
96.12402070079539
 20
-147.4480197114019
 30
0.0
 10
96.242531985488
 20
-147.4628336219884
 30
0.0
 10
96.42650008440032
 20
-147.467139991345
 30
0.0
 10
96.48368866945547
 20
-147.467139991345
 30
0.0
 10
96.48368866945547
 20
-147.467139991345
 30
0.0
 10
96.83698321146785
 20
-147.467139991345
 30
0.0
 10
96.83698321146785
 20
-147.467139991345
 30
0.0
 10
96.85593123663672
 20
-147.467139991345
 30
0.0
 10
97.05919187026646
 20
-147.467139991345
 30
0.0
 10
97.20078529471024
 20
-147.4480197114019
 30
0.0
 10
97.20078529471024
 20
-147.4480197114019
 30
0.0
 10
97.20078529471024
 20
-147.6829752234959
 30
0.0
 10
97.20078529471024
 20
-147.6829752234959
 30
0.0
 10
97.04437795967988
 20
-147.6638549435528
 30
0.0
 10
96.85386417934557
 20
-147.6638549435528
 30
0.0
 10
96.83698321146785
 20
-147.6638549435528
 30
0.0
  0
SPLINE
  5
F4
330
E6
100
AcDbEntity
  8
レイヤー 1
100
AcDbSpline
210
0.0
220
0.0
230
1.0
 70
     9
 71
     3
 72
    47
 73
    43
 74
     0
 42
0.0000000001
 43
0.0000000001
 40
0.0
 40
0.0
 40
0.0
 40
0.0
 40
1.0
 40
1.0
 40
1.0
 40
2.0
 40
2.0
 40
2.0
 40
3.0
 40
3.0
 40
3.0
 40
4.0
 40
4.0
 40
4.0
 40
5.0
 40
5.0
 40
5.0
 40
6.0
 40
6.0
 40
6.0
 40
7.0
 40
7.0
 40
7.0
 40
8.0
 40
8.0
 40
8.0
 40
9.0
 40
9.0
 40
9.0
 40
10.0
 40
10.0
 40
10.0
 40
11.0
 40
11.0
 40
11.0
 40
12.0
 40
12.0
 40
12.0
 40
13.0
 40
13.0
 40
13.0
 40
14.0
 40
14.0
 40
14.0
 40
14.0
 10
96.93844127350844
 20
-148.1926771005386
 30
0.0
 10
96.93844127350844
 20
-148.1926771005386
 30
0.0
 10
96.83698321146785
 20
-148.1926771005386
 30
0.0
 10
96.83698321146785
 20
-148.1926771005386
 30
0.0
 10
96.83698321146785
 20
-148.2794935067669
 30
0.0
 10
96.81579587423357
 20
-148.6687892966002
 30
0.0
 10
96.6190809220258
 20
-148.8887586433333
 30
0.0
 10
96.46680770157775
 20
-149.0579128316591
 30
0.0
 10
96.25941295336572
 20
-149.1278482700097
 30
0.0
 10
96.17483585920282
 20
-149.1554090338917
 30
0.0
 10
96.17483585920282
 20
-149.1554090338917
 30
0.0
 10
95.9801879642862
 20
-148.9883219028571
 30
0.0
 10
95.9801879642862
 20
-148.9883219028571
 30
0.0
 10
96.0775119117445
 20
-148.9755750495616
 30
0.0
 10
96.25303952671799
 20
-148.9521484002619
 30
0.0
 10
96.44131399498689
 20
-148.763873931993
 30
0.0
 10
96.51538354791977
 20
-148.6920436911256
 30
0.0
 10
96.6190809220258
 20
-148.5523450691987
 30
0.0
 10
96.6190809220258
 20
-148.1926771005386
 30
0.0
 10
96.6190809220258
 20
-148.1926771005386
 30
0.0
 10
96.38843177928832
 20
-148.1926771005386
 30
0.0
 10
96.38843177928832
 20
-148.1926771005386
 30
0.0
 10
96.20239662308483
 20
-148.1926771005386
 30
0.0
 10
96.01618921210707
 20
-148.1969834698952
 30
0.0
 10
95.82998180112932
 20
-148.2117973804817
 30
0.0
 10
95.82998180112932
 20
-148.2117973804817
 30
0.0
 10
95.82998180112932
 20
-147.9918280337486
 30
0.0
 10
95.82998180112932
 20
-147.9918280337486
 30
0.0
 10
96.01825626939822
 20
-148.0066419443351
 30
0.0
 10
96.30385468512542
 20
-148.0107760589174
 30
0.0
 10
96.38843177928832
 20
-148.0107760589174
 30
0.0
 10
96.38843177928832
 20
-148.0107760589174
 30
0.0
 10
96.93844127350844
 20
-148.0107760589174
 30
0.0
 10
96.93844127350844
 20
-148.0107760589174
 30
0.0
 10
96.95756155345158
 20
-148.0107760589174
 30
0.0
 10
97.2748548476431
 20
-148.0107760589174
 30
0.0
 10
97.50343693308941
 20
-147.9918280337486
 30
0.0
 10
97.50343693308941
 20
-147.9918280337486
 30
0.0
 10
97.50343693308941
 20
-148.2117973804817
 30
0.0
 10
97.50343693308941
 20
-148.2117973804817
 30
0.0
 10
97.31516246482051
 20
-148.1969834698952
 30
0.0
 10
97.12671574177736
 20
-148.1926771005386
 30
0.0
 10
96.93844127350844
 20
-148.1926771005386
 30
0.0
  0
HATCH
  5
F5
330
E6
100
AcDbEntity
  8
レイヤー 1
 62
    18
420
        0
440
 33554687
100
AcDbHatch
 10
0.0
 20
0.0
 30
0.0
210
0.0
220
0.0
230
1.0
  2
SOLID
 70
     1
 71
     1
 91
        2
 92
        1
 93
        1
 72
     4
 94
        3
 73
     0
 74
     0
 95
       29
 96
       25
 40
0.0
 40
0.0
 40
0.0
 40
0.0
 40
1.0
 40
1.0
 40
1.0
 40
2.0
 40
2.0
 40
2.0
 40
3.0
 40
3.0
 40
3.0
 40
4.0
 40
4.0
 40
4.0
 40
5.0
 40
5.0
 40
5.0
 40
6.0
 40
6.0
 40
6.0
 40
7.0
 40
7.0
 40
7.0
 40
8.0
 40
8.0
 40
8.0
 40
8.0
 10
96.83698321146785
 20
-147.6638549435528
 10
96.83698321146785
 20
-147.6638549435528
 10
96.48368866945547
 20
-147.6638549435528
 10
96.48368866945547
 20
-147.6638549435528
 10
96.3715508114106
 20
-147.6638549435528
 10
96.23202444425798
 20
-147.6702283702005
 10
96.12402070079539
 20
-147.6829752234959
 10
96.12402070079539
 20
-147.6829752234959
 10
96.12402070079539
 20
-147.4480197114019
 10
96.12402070079539
 20
-147.4480197114019
 10
96.242531985488
 20
-147.4628336219884
 10
96.42650008440032
 20
-147.467139991345
 10
96.48368866945547
 20
-147.467139991345
 10
96.48368866945547
 20
-147.467139991345
 10
96.83698321146785
 20
-147.467139991345
 10
96.83698321146785
 20
-147.467139991345
 10
96.85593123663672
 20
-147.467139991345
 10
97.05919187026646
 20
-147.467139991345
 10
97.20078529471024
 20
-147.4480197114019
 10
97.20078529471024
 20
-147.4480197114019
 10
97.20078529471024
 20
-147.6829752234959
 10
97.20078529471024
 20
-147.6829752234959
 10
97.04437795967988
 20
-147.6638549435528
 10
96.85386417934557
 20
-147.6638549435528
 10
96.83698321146785
 20
-147.6638549435528
 97
        0
 97
        1
330
F3
 92
        1
 93
        1
 72
     4
 94
        3
 73
     0
 74
     0
 95
       47
 96
       43
 40
0.0
 40
0.0
 40
0.0
 40
0.0
 40
1.0
 40
1.0
 40
1.0
 40
2.0
 40
2.0
 40
2.0
 40
3.0
 40
3.0
 40
3.0
 40
4.0
 40
4.0
 40
4.0
 40
5.0
 40
5.0
 40
5.0
 40
6.0
 40
6.0
 40
6.0
 40
7.0
 40
7.0
 40
7.0
 40
8.0
 40
8.0
 40
8.0
 40
9.0
 40
9.0
 40
9.0
 40
10.0
 40
10.0
 40
10.0
 40
11.0
 40
11.0
 40
11.0
 40
12.0
 40
12.0
 40
12.0
 40
13.0
 40
13.0
 40
13.0
 40
14.0
 40
14.0
 40
14.0
 40
14.0
 10
96.93844127350844
 20
-148.1926771005386
 10
96.93844127350844
 20
-148.1926771005386
 10
96.83698321146785
 20
-148.1926771005386
 10
96.83698321146785
 20
-148.1926771005386
 10
96.83698321146785
 20
-148.2794935067669
 10
96.81579587423357
 20
-148.6687892966002
 10
96.6190809220258
 20
-148.8887586433333
 10
96.46680770157775
 20
-149.0579128316591
 10
96.25941295336572
 20
-149.1278482700097
 10
96.17483585920282
 20
-149.1554090338917
 10
96.17483585920282
 20
-149.1554090338917
 10
95.9801879642862
 20
-148.9883219028571
 10
95.9801879642862
 20
-148.9883219028571
 10
96.0775119117445
 20
-148.9755750495616
 10
96.25303952671799
 20
-148.9521484002619
 10
96.44131399498689
 20
-148.763873931993
 10
96.51538354791977
 20
-148.6920436911256
 10
96.6190809220258
 20
-148.5523450691987
 10
96.6190809220258
 20
-148.1926771005386
 10
96.6190809220258
 20
-148.1926771005386
 10
96.38843177928832
 20
-148.1926771005386
 10
96.38843177928832
 20
-148.1926771005386
 10
96.20239662308483
 20
-148.1926771005386
 10
96.01618921210707
 20
-148.1969834698952
 10
95.82998180112932
 20
-148.2117973804817
 10
95.82998180112932
 20
-148.2117973804817
 10
95.82998180112932
 20
-147.9918280337486
 10
95.82998180112932
 20
-147.9918280337486
 10
96.01825626939822
 20
-148.0066419443351
 10
96.30385468512542
 20
-148.0107760589174
 10
96.38843177928832
 20
-148.0107760589174
 10
96.38843177928832
 20
-148.0107760589174
 10
96.93844127350844
 20
-148.0107760589174
 10
96.93844127350844
 20
-148.0107760589174
 10
96.95756155345158
 20
-148.0107760589174
 10
97.2748548476431
 20
-148.0107760589174
 10
97.50343693308941
 20
-147.9918280337486
 10
97.50343693308941
 20
-147.9918280337486
 10
97.50343693308941
 20
-148.2117973804817
 10
97.50343693308941
 20
-148.2117973804817
 10
97.31516246482051
 20
-148.1969834698952
 10
97.12671574177736
 20
-148.1926771005386
 10
96.93844127350844
 20
-148.1926771005386
 97
        0
 97
        1
330
F4
 75
     2
 76
     1
 98
        1
 10
0.0
 20
0.0
450
        0
451
        0
460
0.0
461
0.0
452
        0
462
0.0
453
        0
470

  0
SPLINE
  5
F6
330
E6
100
AcDbEntity
  8
レイヤー 1
100
AcDbSpline
210
0.0
220
0.0
230
1.0
 70
     9
 71
     3
 72
    29
 73
    25
 74
     0
 42
0.0000000001
 43
0.0000000001
 40
0.0
 40
0.0
 40
0.0
 40
0.0
 40
1.0
 40
1.0
 40
1.0
 40
2.0
 40
2.0
 40
2.0
 40
3.0
 40
3.0
 40
3.0
 40
4.0
 40
4.0
 40
4.0
 40
5.0
 40
5.0
 40
5.0
 40
6.0
 40
6.0
 40
6.0
 40
7.0
 40
7.0
 40
7.0
 40
8.0
 40
8.0
 40
8.0
 40
8.0
 10
98.78432343450532
 20
-148.3556301169909
 30
0.0
 10
98.78432343450532
 20
-148.3556301169909
 30
0.0
 10
98.2999430092792
 20
-148.3556301169909
 30
0.0
 10
98.2999430092792
 20
-148.3556301169909
 30
0.0
 10
98.27238224539719
 20
-148.3556301169909
 30
0.0
 10
97.95508895120569
 20
-148.3556301169909
 30
0.0
 10
97.74356008841134
 20
-148.3809515688075
 30
0.0
 10
97.74356008841134
 20
-148.3809515688075
 30
0.0
 10
97.74356008841134
 20
-148.1504746808443
 30
0.0
 10
97.74356008841134
 20
-148.1504746808443
 30
0.0
 10
97.9022067355071
 20
-148.1737290753698
 30
0.0
 10
98.09254826106716
 20
-148.1757961326609
 30
0.0
 10
98.2999430092792
 20
-148.1757961326609
 30
0.0
 10
98.2999430092792
 20
-148.1757961326609
 30
0.0
 10
98.78432343450532
 20
-148.1757961326609
 30
0.0
 10
98.78432343450532
 20
-148.1757961326609
 30
0.0
 10
98.97053084548307
 20
-148.1757961326609
 30
0.0
 10
99.15673825646083
 20
-148.1737290753698
 30
0.0
 10
99.34070635537317
 20
-148.1504746808443
 30
0.0
 10
99.34070635537317
 20
-148.1504746808443
 30
0.0
 10
99.34070635537317
 20
-148.3809515688075
 30
0.0
 10
99.34070635537317
 20
-148.3809515688075
 30
0.0
 10
99.15673825646083
 20
-148.3576971742821
 30
0.0
 10
98.90920814584562
 20
-148.3556301169909
 30
0.0
 10
98.78432343450532
 20
-148.3556301169909
 30
0.0
  0
HATCH
  5
F7
330
E6
100
AcDbEntity
  8
レイヤー 1
 62
    18
420
        0
440
 33554687
100
AcDbHatch
 10
0.0
 20
0.0
 30
0.0
210
0.0
220
0.0
230
1.0
  2
SOLID
 70
     1
 71
     1
 91
        1
 92
        1
 93
        1
 72
     4
 94
        3
 73
     0
 74
     0
 95
       29
 96
       25
 40
0.0
 40
0.0
 40
0.0
 40
0.0
 40
1.0
 40
1.0
 40
1.0
 40
2.0
 40
2.0
 40
2.0
 40
3.0
 40
3.0
 40
3.0
 40
4.0
 40
4.0
 40
4.0
 40
5.0
 40
5.0
 40
5.0
 40
6.0
 40
6.0
 40
6.0
 40
7.0
 40
7.0
 40
7.0
 40
8.0
 40
8.0
 40
8.0
 40
8.0
 10
98.78432343450532
 20
-148.3556301169909
 10
98.78432343450532
 20
-148.3556301169909
 10
98.2999430092792
 20
-148.3556301169909
 10
98.2999430092792
 20
-148.3556301169909
 10
98.27238224539719
 20
-148.3556301169909
 10
97.95508895120569
 20
-148.3556301169909
 10
97.74356008841134
 20
-148.3809515688075
 10
97.74356008841134
 20
-148.3809515688075
 10
97.74356008841134
 20
-148.1504746808443
 10
97.74356008841134
 20
-148.1504746808443
 10
97.9022067355071
 20
-148.1737290753698
 10
98.09254826106716
 20
-148.1757961326609
 10
98.2999430092792
 20
-148.1757961326609
 10
98.2999430092792
 20
-148.1757961326609
 10
98.78432343450532
 20
-148.1757961326609
 10
98.78432343450532
 20
-148.1757961326609
 10
98.97053084548307
 20
-148.1757961326609
 10
99.15673825646083
 20
-148.1737290753698
 10
99.34070635537317
 20
-148.1504746808443
 10
99.34070635537317
 20
-148.1504746808443
 10
99.34070635537317
 20
-148.3809515688075
 10
99.34070635537317
 20
-148.3809515688075
 10
99.15673825646083
 20
-148.3576971742821
 10
98.90920814584562
 20
-148.3556301169909
 10
98.78432343450532
 20
-148.3556301169909
 97
        0
 97
        1
330
F6
 75
     2
 76
     1
 98
        1
 10
0.0
 20
0.0
450
        0
451
        0
460
0.0
461
0.0
452
        0
462
0.0
453
        0
470

  0
SPLINE
  5
F8
330
E6
100
AcDbEntity
  8
レイヤー 1
100
AcDbSpline
210
0.0
220
0.0
230
1.0
 70
     9
 71
     3
 72
    47
 73
    43
 74
     0
 42
0.0000000001
 43
0.0000000001
 40
0.0
 40
0.0
 40
0.0
 40
0.0
 40
1.0
 40
1.0
 40
1.0
 40
2.0
 40
2.0
 40
2.0
 40
3.0
 40
3.0
 40
3.0
 40
4.0
 40
4.0
 40
4.0
 40
5.0
 40
5.0
 40
5.0
 40
6.0
 40
6.0
 40
6.0
 40
7.0
 40
7.0
 40
7.0
 40
8.0
 40
8.0
 40
8.0
 40
9.0
 40
9.0
 40
9.0
 40
10.0
 40
10.0
 40
10.0
 40
11.0
 40
11.0
 40
11.0
 40
12.0
 40
12.0
 40
12.0
 40
13.0
 40
13.0
 40
13.0
 40
14.0
 40
14.0
 40
14.0
 40
14.0
 10
101.0045152199745
 20
-147.7611788910111
 30
0.0
 10
100.934579781624
 20
-148.0404038800906
 30
0.0
 10
100.8584431714
 20
-148.3451225757609
 30
0.0
 10
100.545456246565
 20
-148.677229780539
 30
0.0
 10
100.3084336771798
 20
-148.9269992032196
 30
0.0
 10
100.06314287863
 20
-149.0262179531948
 30
0.0
 10
99.95737844723288
 20
-149.0685926276634
 30
0.0
 10
99.95737844723288
 20
-149.0685926276634
 30
0.0
 10
99.76273055231628
 20
-148.8866915860422
 30
0.0
 10
99.76273055231628
 20
-148.8866915860422
 30
0.0
 10
99.94876570851976
 20
-148.8400105422171
 30
0.0
 10
100.3106729892452
 20
-148.7469929641153
 30
0.0
 10
100.6067789462025
 20
-148.2519327428849
 30
0.0
 10
100.7674926505893
 20
-147.9854546071009
 30
0.0
 10
100.7802395038848
 20
-147.8119940494185
 30
0.0
 10
100.7886799878237
 20
-147.7210435286079
 30
0.0
 10
100.7886799878237
 20
-147.7210435286079
 30
0.0
 10
100.2831122253632
 20
-147.7210435286079
 30
0.0
 10
100.2831122253632
 20
-147.7210435286079
 30
0.0
 10
100.1646009406707
 20
-147.7210435286079
 30
0.0
 10
99.74361027237314
 20
-147.7399915537768
 30
0.0
 10
99.59133705192508
 20
-147.7504990950068
 30
0.0
 10
99.59133705192508
 20
-147.7504990950068
 30
0.0
 10
99.59133705192508
 20
-147.5412095442779
 30
0.0
 10
99.59133705192508
 20
-147.5412095442779
 30
0.0
 10
99.73310273114313
 20
-147.553784142799
 30
0.0
 10
100.0102606629315
 20
-147.5580905121556
 30
0.0
 10
100.1265326355586
 20
-147.5580905121556
 30
0.0
 10
100.1265326355586
 20
-147.5580905121556
 30
0.0
 10
100.4818942348622
 20
-147.5580905121556
 30
0.0
 10
100.4818942348622
 20
-147.5580905121556
 30
0.0
 10
100.5094549987441
 20
-147.5580905121556
 30
0.0
 10
100.6701687031311
 20
-147.5560234548645
 30
0.0
 10
100.7802395038848
 20
-147.5412095442779
 30
0.0
 10
100.8374280889399
 20
-147.5348361176302
 30
0.0
 10
100.8543090568177
 20
-147.515715837687
 30
0.0
 10
100.8775634513431
 20
-147.4924614431616
 30
0.0
 10
100.8775634513431
 20
-147.4924614431616
 30
0.0
 10
101.065837919612
 20
-147.6426676063185
 30
0.0
 10
101.065837919612
 20
-147.6426676063185
 30
0.0
 10
101.0510240090254
 20
-147.6722954274916
 30
0.0
 10
101.0405164677954
 20
-147.6914157074348
 30
0.0
 10
101.0045152199745
 20
-147.7611788910111
 30
0.0
  0
HATCH
  5
F9
330
E6
100
AcDbEntity
  8
レイヤー 1
 62
    18
420
        0
440
 33554687
100
AcDbHatch
 10
0.0
 20
0.0
 30
0.0
210
0.0
220
0.0
230
1.0
  2
SOLID
 70
     1
 71
     1
 91
        1
 92
        1
 93
        1
 72
     4
 94
        3
 73
     0
 74
     0
 95
       47
 96
       43
 40
0.0
 40
0.0
 40
0.0
 40
0.0
 40
1.0
 40
1.0
 40
1.0
 40
2.0
 40
2.0
 40
2.0
 40
3.0
 40
3.0
 40
3.0
 40
4.0
 40
4.0
 40
4.0
 40
5.0
 40
5.0
 40
5.0
 40
6.0
 40
6.0
 40
6.0
 40
7.0
 40
7.0
 40
7.0
 40
8.0
 40
8.0
 40
8.0
 40
9.0
 40
9.0
 40
9.0
 40
10.0
 40
10.0
 40
10.0
 40
11.0
 40
11.0
 40
11.0
 40
12.0
 40
12.0
 40
12.0
 40
13.0
 40
13.0
 40
13.0
 40
14.0
 40
14.0
 40
14.0
 40
14.0
 10
101.0045152199745
 20
-147.7611788910111
 10
100.934579781624
 20
-148.0404038800906
 10
100.8584431714
 20
-148.3451225757609
 10
100.545456246565
 20
-148.677229780539
 10
100.3084336771798
 20
-148.9269992032196
 10
100.06314287863
 20
-149.0262179531948
 10
99.95737844723288
 20
-149.0685926276634
 10
99.95737844723288
 20
-149.0685926276634
 10
99.76273055231628
 20
-148.8866915860422
 10
99.76273055231628
 20
-148.8866915860422
 10
99.94876570851976
 20
-148.8400105422171
 10
100.3106729892452
 20
-148.7469929641153
 10
100.6067789462025
 20
-148.2519327428849
 10
100.7674926505893
 20
-147.9854546071009
 10
100.7802395038848
 20
-147.8119940494185
 10
100.7886799878237
 20
-147.7210435286079
 10
100.7886799878237
 20
-147.7210435286079
 10
100.2831122253632
 20
-147.7210435286079
 10
100.2831122253632
 20
-147.7210435286079
 10
100.1646009406707
 20
-147.7210435286079
 10
99.74361027237314
 20
-147.7399915537768
 10
99.59133705192508
 20
-147.7504990950068
 10
99.59133705192508
 20
-147.7504990950068
 10
99.59133705192508
 20
-147.5412095442779
 10
99.59133705192508
 20
-147.5412095442779
 10
99.73310273114313
 20
-147.553784142799
 10
100.0102606629315
 20
-147.5580905121556
 10
100.1265326355586
 20
-147.5580905121556
 10
100.1265326355586
 20
-147.5580905121556
 10
100.4818942348622
 20
-147.5580905121556
 10
100.4818942348622
 20
-147.5580905121556
 10
100.5094549987441
 20
-147.5580905121556
 10
100.6701687031311
 20
-147.5560234548645
 10
100.7802395038848
 20
-147.5412095442779
 10
100.8374280889399
 20
-147.5348361176302
 10
100.8543090568177
 20
-147.515715837687
 10
100.8775634513431
 20
-147.4924614431616
 10
100.8775634513431
 20
-147.4924614431616
 10
101.065837919612
 20
-147.6426676063185
 10
101.065837919612
 20
-147.6426676063185
 10
101.0510240090254
 20
-147.6722954274916
 10
101.0405164677954
 20
-147.6914157074348
 10
101.0045152199745
 20
-147.7611788910111
 97
        0
 97
        1
330
F8
 75
     2
 76
     1
 98
        1
 10
0.0
 20
0.0
450
        0
451
        0
460
0.0
461
0.0
452
        0
462
0.0
453
        0
470

  0
SPLINE
  5
FA
330
E6
100
AcDbEntity
  8
レイヤー 1
100
AcDbSpline
210
0.0
220
0.0
230
1.0
 70
    11
 71
     3
 72
    17
 73
    13
 74
     0
 42
0.0000000001
 43
0.0000000001
 40
0.0
 40
0.0
 40
0.0
 40
0.0
 40
1.0
 40
1.0
 40
1.0
 40
2.0
 40
2.0
 40
2.0
 40
3.0
 40
3.0
 40
3.0
 40
4.0
 40
4.0
 40
4.0
 40
4.0
 10
101.3948445384533
 20
-147.543276601569
 30
0.0
 10
101.3948445384533
 20
-147.6025322439153
 30
0.0
 10
101.4413533275042
 20
-147.6490410329662
 30
0.0
 10
101.5006089698505
 20
-147.6490410329662
 30
0.0
 10
101.5598646121968
 20
-147.6490410329662
 30
0.0
 10
101.6084404585388
 20
-147.6025322439153
 30
0.0
 10
101.6084404585388
 20
-147.543276601569
 30
0.0
 10
101.6084404585388
 20
-147.4840209592227
 30
0.0
 10
101.5598646121968
 20
-147.4354451128807
 30
0.0
 10
101.5006089698505
 20
-147.4354451128807
 30
0.0
 10
101.4413533275042
 20
-147.4354451128807
 30
0.0
 10
101.3948445384533
 20
-147.4840209592227
 30
0.0
 10
101.3948445384533
 20
-147.543276601569
 30
0.0
  0
SPLINE
  5
FB
330
E6
100
AcDbEntity
  8
レイヤー 1
100
AcDbSpline
210
0.0
220
0.0
230
1.0
 70
     9
 71
     3
 72
    17
 73
    13
 74
     0
 42
0.0000000001
 43
0.0000000001
 40
0.0
 40
0.0
 40
0.0
 40
0.0
 40
1.0
 40
1.0
 40
1.0
 40
2.0
 40
2.0
 40
2.0
 40
3.0
 40
3.0
 40
3.0
 40
4.0
 40
4.0
 40
4.0
 40
4.0
 10
101.7098985205795
 20
-147.543276601569
 30
0.0
 10
101.7098985205795
 20
-147.657481516905
 30
0.0
 10
101.6168809424777
 20
-147.7527384070722
 30
0.0
 10
101.5006089698505
 20
-147.7527384070722
 30
0.0
 10
101.3862317997402
 20
-147.7527384070722
 30
0.0
 10
101.2911471643473
 20
-147.657481516905
 30
0.0
 10
101.2911471643473
 20
-147.543276601569
 30
0.0
 10
101.2911471643473
 20
-147.4268323741676
 30
0.0
 10
101.3862317997402
 20
-147.3338147960658
 30
0.0
 10
101.5006089698505
 20
-147.3338147960658
 30
0.0
 10
101.6148138851866
 20
-147.3338147960658
 30
0.0
 10
101.7098985205795
 20
-147.4268323741676
 30
0.0
 10
101.7098985205795
 20
-147.543276601569
 30
0.0
  0
HATCH
  5
FC
330
E6
100
AcDbEntity
  8
レイヤー 1
 62
    18
420
        0
440
 33554687
100
AcDbHatch
 10
0.0
 20
0.0
 30
0.0
210
0.0
220
0.0
230
1.0
  2
SOLID
 70
     1
 71
     1
 91
        2
 92
        1
 93
        1
 72
     4
 94
        3
 73
     0
 74
     0
 95
       17
 96
       13
 40
0.0
 40
0.0
 40
0.0
 40
0.0
 40
1.0
 40
1.0
 40
1.0
 40
2.0
 40
2.0
 40
2.0
 40
3.0
 40
3.0
 40
3.0
 40
4.0
 40
4.0
 40
4.0
 40
4.0
 10
101.3948445384533
 20
-147.543276601569
 10
101.3948445384533
 20
-147.6025322439153
 10
101.4413533275042
 20
-147.6490410329662
 10
101.5006089698505
 20
-147.6490410329662
 10
101.5598646121968
 20
-147.6490410329662
 10
101.6084404585388
 20
-147.6025322439153
 10
101.6084404585388
 20
-147.543276601569
 10
101.6084404585388
 20
-147.4840209592227
 10
101.5598646121968
 20
-147.4354451128807
 10
101.5006089698505
 20
-147.4354451128807
 10
101.4413533275042
 20
-147.4354451128807
 10
101.3948445384533
 20
-147.4840209592227
 10
101.3948445384533
 20
-147.543276601569
 97
        0
 97
        1
330
FA
 92
        1
 93
        1
 72
     4
 94
        3
 73
     0
 74
     0
 95
       17
 96
       13
 40
0.0
 40
0.0
 40
0.0
 40
0.0
 40
1.0
 40
1.0
 40
1.0
 40
2.0
 40
2.0
 40
2.0
 40
3.0
 40
3.0
 40
3.0
 40
4.0
 40
4.0
 40
4.0
 40
4.0
 10
101.7098985205795
 20
-147.543276601569
 10
101.7098985205795
 20
-147.657481516905
 10
101.6168809424777
 20
-147.7527384070722
 10
101.5006089698505
 20
-147.7527384070722
 10
101.3862317997402
 20
-147.7527384070722
 10
101.2911471643473
 20
-147.657481516905
 10
101.2911471643473
 20
-147.543276601569
 10
101.2911471643473
 20
-147.4268323741676
 10
101.3862317997402
 20
-147.3338147960658
 10
101.5006089698505
 20
-147.3338147960658
 10
101.6148138851866
 20
-147.3338147960658
 10
101.7098985205795
 20
-147.4268323741676
 10
101.7098985205795
 20
-147.543276601569
 97
        0
 97
        1
330
FB
 75
     2
 76
     1
 98
        1
 10
0.0
 20
0.0
450
        0
451
        0
460
0.0
461
0.0
452
        0
462
0.0
453
        0
470

  0
ENDBLK
  5
E9
330
E6
100
AcDbEntity
  8
0
100
AcDbBlockEnd
  0
ENDSEC
  0
SECTION
  2
ENTITIES
  0
INSERT
  5
7A
330
70
100
AcDbEntity
  8
レイヤー 1
100
AcDbBlockReference
  2
Block_0
 10
0.0
 20
0.0
 30
0.0
  0
LINE
  5
D9
330
70
100
AcDbEntity
  8
レイヤー 1
  6
AI-Linetype-0
 62
   154
420
    23468
370
    25
100
AcDbLine
 10
91.99596108092672
 20
-151.4197663676851
 30
0.0
 11
101.9303183879758
 21
-151.4197663676851
 31
0.0
  0
INSERT
  5
DC
330
70
100
AcDbEntity
  8
レイヤー 1
100
AcDbBlockReference
  2
Block_10
 10
0.0
 20
0.0
 30
0.0
  0
INSERT
  5
E3
330
70
100
AcDbEntity
  8
レイヤー 1
100
AcDbBlockReference
  2
Block_11
 10
0.0
 20
0.0
 30
0.0
  0
LWPOLYLINE
  5
FD
330
70
100
AcDbEntity
  8
レイヤー 1
100
AcDbPolyline
 90
        4
 70
     1
 43
0.0
 10
120.5725640043366
 20
-151.5263336409074
 10
116.5725640053368
 20
-151.5263336409074
 10
116.5725640053368
 20
-151.0263336410322
 10
120.5725640043366
 20
-151.0263336410322
  0
HATCH
  5
FE
330
70
100
AcDbEntity
  8
レイヤー 1
 62
   250
420
  2299925
440
 33554687
100
AcDbHatch
 10
0.0
 20
0.0
 30
0.0
210
0.0
220
0.0
230
1.0
  2
SOLID
 70
     1
 71
     1
 91
        1
 92
        1
 93
        4
 72
     1
 10
120.5725640043366
 20
-151.5263336409074
 11
116.5725640053368
 21
-151.5263336409074
 72
     1
 10
116.5725640053368
 20
-151.5263336409074
 11
116.5725640053368
 21
-151.0263336410322
 72
     1
 10
116.5725640053368
 20
-151.0263336410322
 11
120.5725640043366
 21
-151.0263336410322
 72
     1
 10
120.5725640043366
 20
-151.0263336410322
 11
120.5725640043366
 21
-151.5263336409074
 97
        1
330
FD
 75
     2
 76
     1
 98
        1
 10
0.0
 20
0.0
450
        0
451
        0
460
0.0
461
0.0
452
        0
462
0.0
453
        0
470

  0
LWPOLYLINE
  5
FF
330
70
100
AcDbEntity
  8
レイヤー 1
100
AcDbPolyline
 90
        4
 70
     1
 43
0.0
 10
120.5717331845552
 20
-151.0523638000341
 10
120.5717331843755
 20
-155.0523637990338
 10
120.0717331845003
 20
-155.052363799012
 10
120.07173318468
 20
-151.0523638000116
  0
HATCH
  5
100
330
70
100
AcDbEntity
  8
レイヤー 1
 62
   250
420
  2299925
440
 33554687
100
AcDbHatch
 10
0.0
 20
0.0
 30
0.0
210
0.0
220
0.0
230
1.0
  2
SOLID
 70
     1
 71
     1
 91
        1
 92
        1
 93
        4
 72
     1
 10
120.5717331845552
 20
-151.0523638000341
 11
120.5717331843755
 21
-155.0523637990338
 72
     1
 10
120.5717331843755
 20
-155.0523637990338
 11
120.0717331845003
 21
-155.052363799012
 72
     1
 10
120.0717331845003
 20
-155.052363799012
 11
120.07173318468
 21
-151.0523638000116
 72
     1
 10
120.07173318468
 20
-151.0523638000116
 11
120.5717331845552
 21
-151.0523638000341
 97
        1
330
FF
 75
     2
 76
     1
 98
        1
 10
0.0
 20
0.0
450
        0
451
        0
460
0.0
461
0.0
452
        0
462
0.0
453
        0
470

  0
LWPOLYLINE
  5
101
330
70
100
AcDbEntity
  8
レイヤー 1
100
AcDbPolyline
 90
        4
 70
     1
 43
0.0
 10
128.5698813076032
 20
-154.7662525851183
 10
120.0698813097279
 20
-155.0662525850429
 10
120.0698813097279
 20
-154.5662525851684
 10
128.5698813076032
 20
-154.5662525851684
  0
HATCH
  5
102
330
70
100
AcDbEntity
  8
レイヤー 1
 62
   250
420
  2299925
440
 33554687
100
AcDbHatch
 10
0.0
 20
0.0
 30
0.0
210
0.0
220
0.0
230
1.0
  2
SOLID
 70
     1
 71
     1
 91
        1
 92
        1
 93
        4
 72
     1
 10
128.5698813076032
 20
-154.7662525851183
 11
120.0698813097279
 21
-155.0662525850429
 72
     1
 10
120.0698813097279
 20
-155.0662525850429
 11
120.0698813097279
 21
-154.5662525851684
 72
     1
 10
120.0698813097279
 20
-154.5662525851684
 11
128.5698813076032
 21
-154.5662525851684
 72
     1
 10
128.5698813076032
 20
-154.5662525851684
 11
128.5698813076032
 21
-154.7662525851183
 97
        1
330
101
 75
     2
 76
     1
 98
        1
 10
0.0
 20
0.0
450
        0
451
        0
460
0.0
461
0.0
452
        0
462
0.0
453
        0
470

  0
LINE
  5
103
330
70
100
AcDbEntity
  8
レイヤー 1
 62
   250
420
  2299925
370
     9
100
AcDbLine
 10
120.5635602773508
 20
-151.110902479212
 30
0.0
 11
126.7629472516136
 21
-147.3859349843955
 31
0.0
  0
LINE
  5
104
330
70
100
AcDbEntity
  8
レイヤー 1
 62
   250
420
  2299925
370
     9
100
AcDbLine
 10
116.6181962943477
 20
-151.0609078562732
 30
0.0
 11
122.7344300111885
 21
-147.3858970256924
 31
0.0
  0
LWPOLYLINE
  5
105
330
70
100
AcDbEntity
  8
レイヤー 1
 62
   250
420
  2299925
370
     9
100
AcDbPolyline
 90
        3
 70
     0
 43
0.0
 10
120.6135602773388
 20
-154.5595973549661
 10
129.9472747981903
 20
-148.9513358703367
 10
133.3904085965335
 20
-146.8824923649422
  0
LINE
  5
106
330
70
100
AcDbEntity
  8
レイヤー 1
 62
   250
420
  2299925
370
     9
100
AcDbLine
 10
128.5085129858342
 20
-154.6095973549534
 30
0.0
 11
136.4538445052028
 21
-149.8355605400138
 31
0.0
  0
LINE
  5
107
330
70
100
AcDbEntity
  8
レイヤー 1
 62
   250
420
  2299925
370
     9
100
AcDbLine
 10
128.5585129882638
 20
-154.7095973598127
 30
0.0
 11
136.4950211513475
 21
-149.9408621521917
 31
0.0
  0
SPLINE
  5
108
330
70
100
AcDbEntity
  8
レイヤー 1
 62
   250
420
  2299925
370
     9
100
AcDbSpline
210
0.0
220
0.0
230
1.0
 70
     9
 71
     3
 72
    17
 73
    13
 74
     0
 42
0.0000000001
 43
0.0000000001
 40
0.0
 40
0.0
 40
0.0
 40
0.0
 40
1.0
 40
1.0
 40
1.0
 40
2.0
 40
2.0
 40
2.0
 40
3.0
 40
3.0
 40
3.0
 40
4.0
 40
4.0
 40
4.0
 40
4.0
 10
124.9331167401412
 20
-153.2557621588804
 30
0.0
 10
125.0212399867775
 20
-153.4747010242685
 30
0.0
 10
124.7864339928595
 20
-153.7752855962007
 30
0.0
 10
124.4086781133709
 20
-153.9273329473063
 30
0.0
 10
124.0309476580612
 20
-154.0793700651378
 30
0.0
 10
123.6540338958577
 20
-154.025003682219
 30
0.0
 10
123.565910649222
 20
-153.8060648168303
 30
0.0
 10
123.4778005749703
 20
-153.5871586777307
 30
0.0
 10
123.7116754230909
 20
-153.28615030142
 30
0.0
 10
124.0894058784006
 20
-153.1341131835879
 30
0.0
 10
124.4671617578898
 20
-152.9820658324829
 30
0.0
 10
124.8450066658888
 20
-153.0368560197802
 30
0.0
 10
124.9331167401412
 20
-153.2557621588804
 30
0.0
  0
SPLINE
  5
109
330
70
100
AcDbEntity
  8
レイヤー 1
 62
   250
420
  2299925
370
     9
100
AcDbSpline
210
0.0
220
0.0
230
1.0
 70
     8
 71
     3
 72
    11
 73
     7
 74
     0
 42
0.0000000001
 43
0.0000000001
 40
0.0
 40
0.0
 40
0.0
 40
0.0
 40
1.0
 40
1.0
 40
1.0
 40
2.0
 40
2.0
 40
2.0
 40
2.0
 10
123.7724347367199
 20
-153.9760161659286
 30
0.0
 10
123.7724347367199
 20
-153.9760161659286
 30
0.0
 10
123.5603226252155
 20
-153.5080814180007
 30
0.0
 10
124.3492573357986
 20
-153.2371184608427
 30
0.0
 10
124.3492573357986
 20
-153.2371184608427
 30
0.0
 10
124.8288392410923
 20
-153.1129930566102
 30
0.0
 10
124.8939150606626
 20
-153.5016114686763
 30
0.0
  0
SPLINE
  5
10A
330
70
100
AcDbEntity
  8
レイヤー 1
 62
   250
420
  2299925
370
     9
100
AcDbSpline
210
0.0
220
0.0
230
1.0
 70
     9
 71
     3
 72
    17
 73
    13
 74
     0
 42
0.0000000001
 43
0.0000000001
 40
0.0
 40
0.0
 40
0.0
 40
0.0
 40
1.0
 40
1.0
 40
1.0
 40
2.0
 40
2.0
 40
2.0
 40
3.0
 40
3.0
 40
3.0
 40
4.0
 40
4.0
 40
4.0
 40
4.0
 10
128.9606629057629
 20
-153.285346395937
 30
0.0
 10
129.0487861523992
 20
-153.504285261325
 30
0.0
 10
128.8139801584812
 20
-153.8048698332579
 30
0.0
 10
128.4362242789927
 20
-153.9569171843629
 30
0.0
 10
128.0584938236829
 20
-154.108954302195
 30
0.0
 10
127.6815800614794
 20
-154.0545879192755
 30
0.0
 10
127.5934568148437
 20
-153.8356490538868
 30
0.0
 10
127.505346740592
 20
-153.6167429147872
 30
0.0
 10
127.7392215887126
 20
-153.3157345384766
 30
0.0
 10
128.1169520440223
 20
-153.1636974206444
 30
0.0
 10
128.4947079235115
 20
-153.0116500695401
 30
0.0
 10
128.8725528315105
 20
-153.0664402568367
 30
0.0
 10
128.9606629057629
 20
-153.285346395937
 30
0.0
  0
SPLINE
  5
10B
330
70
100
AcDbEntity
  8
レイヤー 1
 62
   250
420
  2299925
370
     9
100
AcDbSpline
210
0.0
220
0.0
230
1.0
 70
     8
 71
     3
 72
    11
 73
     7
 74
     0
 42
0.0000000001
 43
0.0000000001
 40
0.0
 40
0.0
 40
0.0
 40
0.0
 40
1.0
 40
1.0
 40
1.0
 40
2.0
 40
2.0
 40
2.0
 40
2.0
 10
127.7999809023416
 20
-154.0056004029851
 30
0.0
 10
127.7999809023416
 20
-154.0056004029851
 30
0.0
 10
127.5878687908372
 20
-153.5376656550572
 30
0.0
 10
128.3768035014203
 20
-153.2667026978999
 30
0.0
 10
128.3768035014203
 20
-153.2667026978999
 30
0.0
 10
128.856385406714
 20
-153.1425772936668
 30
0.0
 10
128.9214612262843
 20
-153.5311957057328
 30
0.0
  0
SPLINE
  5
10C
330
70
100
AcDbEntity
  8
レイヤー 1
 62
   250
420
  2299925
370
     9
100
AcDbSpline
210
0.0
220
0.0
230
1.0
 70
     9
 71
     3
 72
    17
 73
    13
 74
     0
 42
0.0000000001
 43
0.0000000001
 40
0.0
 40
0.0
 40
0.0
 40
0.0
 40
1.0
 40
1.0
 40
1.0
 40
2.0
 40
2.0
 40
2.0
 40
3.0
 40
3.0
 40
3.0
 40
4.0
 40
4.0
 40
4.0
 40
4.0
 10
128.3360110559671
 20
-152.4516732015001
 30
0.0
 10
128.4241869921374
 20
-152.6707429720388
 30
0.0
 10
128.188900362277
 20
-152.9719393108426
 30
0.0
 10
127.8117953574735
 20
-153.1237246838363
 30
0.0
 10
127.4340358269311
 20
-153.2757735044969
 30
0.0
 10
127.0569771685083
 20
-153.2210471324114
 30
0.0
 10
126.9688012323379
 20
-153.0019773618722
 30
0.0
 10
126.8806252961675
 20
-152.7829075913335
 30
0.0
 10
127.11482945388
 20
-152.4827173722181
 30
0.0
 10
127.4925889844218
 20
-152.3306685515582
 30
0.0
 10
127.869693989226
 20
-152.1788831785645
 30
0.0
 10
128.2478351197974
 20
-152.2326034309609
 30
0.0
 10
128.3360110559671
 20
-152.4516732015001
 30
0.0
  0
SPLINE
  5
10D
330
70
100
AcDbEntity
  8
レイヤー 1
 62
   250
420
  2299925
370
     9
100
AcDbSpline
210
0.0
220
0.0
230
1.0
 70
     8
 71
     3
 72
    11
 73
     7
 74
     0
 42
0.0000000001
 43
0.0000000001
 40
0.0
 40
0.0
 40
0.0
 40
0.0
 40
1.0
 40
1.0
 40
1.0
 40
2.0
 40
2.0
 40
2.0
 40
2.0
 10
127.1754570436718
 20
-153.1722559738479
 30
0.0
 10
127.1754570436718
 20
-153.1722559738479
 30
0.0
 10
126.963924124282
 20
-152.7038599309991
 30
0.0
 10
127.7529014422027
 20
-152.4331079934797
 30
0.0
 10
127.7529014422027
 20
-152.4331079934797
 30
0.0
 10
128.2330915652205
 20
-152.3085096114709
 30
0.0
 10
128.2969900571478
 20
-152.6979821817468
 30
0.0
  0
SPLINE
  5
10E
330
70
100
AcDbEntity
  8
レイヤー 1
 62
   250
420
  2299925
370
     9
100
AcDbSpline
210
0.0
220
0.0
230
1.0
 70
     9
 71
     3
 72
    17
 73
    13
 74
     0
 42
0.0000000001
 43
0.0000000001
 40
0.0
 40
0.0
 40
0.0
 40
0.0
 40
1.0
 40
1.0
 40
1.0
 40
2.0
 40
2.0
 40
2.0
 40
3.0
 40
3.0
 40
3.0
 40
4.0
 40
4.0
 40
4.0
 40
4.0
 10
127.6108557278712
 20
-151.6468142530534
 30
0.0
 10
127.6989789745076
 20
-151.8657531184414
 30
0.0
 10
127.4641729805896
 20
-152.1663376903744
 30
0.0
 10
127.086417101101
 20
-152.3183850414793
 30
0.0
 10
126.7086866457913
 20
-152.4704221593115
 30
0.0
 10
126.3317728835878
 20
-152.416055776392
 30
0.0
 10
126.2436496369521
 20
-152.1971169110033
 30
0.0
 10
126.1555395627004
 20
-151.9782107719037
 30
0.0
 10
126.389414410821
 20
-151.6772023955931
 30
0.0
 10
126.7671448661307
 20
-151.5251652777609
 30
0.0
 10
127.1449007456199
 20
-151.3731179266553
 30
0.0
 10
127.5227456536189
 20
-151.4279081139532
 30
0.0
 10
127.6108557278712
 20
-151.6468142530534
 30
0.0
  0
SPLINE
  5
10F
330
70
100
AcDbEntity
  8
レイヤー 1
 62
   250
420
  2299925
370
     9
100
AcDbSpline
210
0.0
220
0.0
230
1.0
 70
     8
 71
     3
 72
    11
 73
     7
 74
     0
 42
0.0000000001
 43
0.0000000001
 40
0.0
 40
0.0
 40
0.0
 40
0.0
 40
1.0
 40
1.0
 40
1.0
 40
2.0
 40
2.0
 40
2.0
 40
2.0
 10
126.45017372445
 20
-152.3670682601015
 30
0.0
 10
126.45017372445
 20
-152.3670682601015
 30
0.0
 10
126.2380616129456
 20
-151.8991335121737
 30
0.0
 10
127.0269963235286
 20
-151.6281705550163
 30
0.0
 10
127.0269963235286
 20
-151.6281705550163
 30
0.0
 10
127.5065782288224
 20
-151.5040451507833
 30
0.0
 10
127.5716540483927
 20
-151.8926635628493
 30
0.0
  0
SPLINE
  5
110
330
70
100
AcDbEntity
  8
レイヤー 1
 62
   250
420
  2299925
370
     9
100
AcDbSpline
210
0.0
220
0.0
230
1.0
 70
     9
 71
     3
 72
    17
 73
    13
 74
     0
 42
0.0000000001
 43
0.0000000001
 40
0.0
 40
0.0
 40
0.0
 40
0.0
 40
1.0
 40
1.0
 40
1.0
 40
2.0
 40
2.0
 40
2.0
 40
3.0
 40
3.0
 40
3.0
 40
4.0
 40
4.0
 40
4.0
 40
4.0
 10
131.638401893493
 20
-151.67639849011
 30
0.0
 10
131.7265251401293
 20
-151.895337355498
 30
0.0
 10
131.4917191462113
 20
-152.1959219274309
 30
0.0
 10
131.1139632667227
 20
-152.3479692785359
 30
0.0
 10
130.736232811413
 20
-152.500006396368
 30
0.0
 10
130.3593190492095
 20
-152.4456400134478
 30
0.0
 10
130.2711958025738
 20
-152.2267011480598
 30
0.0
 10
130.1830857283221
 20
-152.0077950089602
 30
0.0
 10
130.4169605764427
 20
-151.7067866326496
 30
0.0
 10
130.7946910317524
 20
-151.554749514818
 30
0.0
 10
131.1724469112416
 20
-151.4027021637131
 30
0.0
 10
131.5502918192406
 20
-151.4574923510097
 30
0.0
 10
131.638401893493
 20
-151.67639849011
 30
0.0
  0
SPLINE
  5
111
330
70
100
AcDbEntity
  8
レイヤー 1
 62
   250
420
  2299925
370
     9
100
AcDbSpline
210
0.0
220
0.0
230
1.0
 70
     8
 71
     3
 72
    11
 73
     7
 74
     0
 42
0.0000000001
 43
0.0000000001
 40
0.0
 40
0.0
 40
0.0
 40
0.0
 40
1.0
 40
1.0
 40
1.0
 40
2.0
 40
2.0
 40
2.0
 40
2.0
 10
130.4777198900717
 20
-152.3966524971581
 30
0.0
 10
130.4777198900717
 20
-152.3966524971581
 30
0.0
 10
130.2656077785673
 20
-151.9287177492302
 30
0.0
 10
131.0545424891504
 20
-151.6577547920729
 30
0.0
 10
131.0545424891504
 20
-151.6577547920729
 30
0.0
 10
131.5341243944441
 20
-151.5336293878398
 30
0.0
 10
131.5992002140144
 20
-151.9222477999058
 30
0.0
  0
SPLINE
  5
112
330
70
100
AcDbEntity
  8
レイヤー 1
 62
   250
420
  2299925
370
     9
100
AcDbSpline
210
0.0
220
0.0
230
1.0
 70
     9
 71
     3
 72
    17
 73
    13
 74
     0
 42
0.0000000001
 43
0.0000000001
 40
0.0
 40
0.0
 40
0.0
 40
0.0
 40
1.0
 40
1.0
 40
1.0
 40
2.0
 40
2.0
 40
2.0
 40
3.0
 40
3.0
 40
3.0
 40
4.0
 40
4.0
 40
4.0
 40
4.0
 10
131.0137500436971
 20
-150.8427252956731
 30
0.0
 10
131.1019259798675
 20
-151.0617950662117
 30
0.0
 10
130.8666393500071
 20
-151.3629914050163
 30
0.0
 10
130.4895343452035
 20
-151.5147767780093
 30
0.0
 10
130.1117748146612
 20
-151.6668255986699
 30
0.0
 10
129.7347161562383
 20
-151.6120992265844
 30
0.0
 10
129.646540220068
 20
-151.3930294560451
 30
0.0
 10
129.5583642838976
 20
-151.1739596855065
 30
0.0
 10
129.7925684416101
 20
-150.8737694663911
 30
0.0
 10
130.1703279721519
 20
-150.7217206457312
 30
0.0
 10
130.5474329769561
 20
-150.5699352727375
 30
0.0
 10
130.9255741075274
 20
-150.6236555251339
 30
0.0
 10
131.0137500436971
 20
-150.8427252956731
 30
0.0
  0
SPLINE
  5
113
330
70
100
AcDbEntity
  8
レイヤー 1
 62
   250
420
  2299925
370
     9
100
AcDbSpline
210
0.0
220
0.0
230
1.0
 70
     8
 71
     3
 72
    11
 73
     7
 74
     0
 42
0.0000000001
 43
0.0000000001
 40
0.0
 40
0.0
 40
0.0
 40
0.0
 40
1.0
 40
1.0
 40
1.0
 40
2.0
 40
2.0
 40
2.0
 40
2.0
 10
129.8531960314018
 20
-151.5633080680209
 30
0.0
 10
129.8531960314018
 20
-151.5633080680209
 30
0.0
 10
129.641663112012
 20
-151.0949120251721
 30
0.0
 10
130.4306404299328
 20
-150.8241600876528
 30
0.0
 10
130.4306404299328
 20
-150.8241600876528
 30
0.0
 10
130.9108305529506
 20
-150.6995617056439
 30
0.0
 10
130.9747290448779
 20
-151.0890342759211
 30
0.0
  0
SPLINE
  5
114
330
70
100
AcDbEntity
  8
レイヤー 1
 62
   250
420
  2299925
370
     9
100
AcDbSpline
210
0.0
220
0.0
230
1.0
 70
     9
 71
     3
 72
    17
 73
    13
 74
     0
 42
0.0000000001
 43
0.0000000001
 40
0.0
 40
0.0
 40
0.0
 40
0.0
 40
1.0
 40
1.0
 40
1.0
 40
2.0
 40
2.0
 40
2.0
 40
3.0
 40
3.0
 40
3.0
 40
4.0
 40
4.0
 40
4.0
 40
4.0
 10
130.2885947156013
 20
-150.0378663472264
 30
0.0
 10
130.3767179622377
 20
-150.2568052126145
 30
0.0
 10
130.1419119683197
 20
-150.5573897845474
 30
0.0
 10
129.7641560888311
 20
-150.7094371356523
 30
0.0
 10
129.3864256335214
 20
-150.8614742534845
 30
0.0
 10
129.0095118713179
 20
-150.807107870565
 30
0.0
 10
128.9213886246822
 20
-150.5881690051763
 30
0.0
 10
128.8332785504304
 20
-150.3692628660767
 30
0.0
 10
129.067153398551
 20
-150.0682544897661
 30
0.0
 10
129.4448838538608
 20
-149.9162173719339
 30
0.0
 10
129.82263973335
 20
-149.764170020829
 30
0.0
 10
130.2004846413489
 20
-149.8189602081262
 30
0.0
 10
130.2885947156013
 20
-150.0378663472264
 30
0.0
  0
SPLINE
  5
115
330
70
100
AcDbEntity
  8
レイヤー 1
 62
   250
420
  2299925
370
     9
100
AcDbSpline
210
0.0
220
0.0
230
1.0
 70
     8
 71
     3
 72
    11
 73
     7
 74
     0
 42
0.0000000001
 43
0.0000000001
 40
0.0
 40
0.0
 40
0.0
 40
0.0
 40
1.0
 40
1.0
 40
1.0
 40
2.0
 40
2.0
 40
2.0
 40
2.0
 10
129.12791271218
 20
-150.7581203542746
 30
0.0
 10
129.12791271218
 20
-150.7581203542746
 30
0.0
 10
128.9158006006757
 20
-150.2901856063467
 30
0.0
 10
129.7047353112587
 20
-150.0192226491894
 30
0.0
 10
129.7047353112587
 20
-150.0192226491894
 30
0.0
 10
130.1843172165525
 20
-149.8950972449563
 30
0.0
 10
130.2493930361228
 20
-150.2837156570223
 30
0.0
  0
SPLINE
  5
116
330
70
100
AcDbEntity
  8
レイヤー 1
 62
   250
420
  2299925
370
     9
100
AcDbSpline
210
0.0
220
0.0
230
1.0
 70
     9
 71
     3
 72
    17
 73
    13
 74
     0
 42
0.0000000001
 43
0.0000000001
 40
0.0
 40
0.0
 40
0.0
 40
0.0
 40
1.0
 40
1.0
 40
1.0
 40
2.0
 40
2.0
 40
2.0
 40
3.0
 40
3.0
 40
3.0
 40
4.0
 40
4.0
 40
4.0
 40
4.0
 10
134.316140881223
 20
-150.067450584283
 30
0.0
 10
134.4042641278594
 20
-150.286389449671
 30
0.0
 10
134.1694581339414
 20
-150.5869740216039
 30
0.0
 10
133.7917022544528
 20
-150.7390213727089
 30
0.0
 10
133.4139717991431
 20
-150.891058490541
 30
0.0
 10
133.0370580369396
 20
-150.8366921076202
 30
0.0
 10
132.9489347903039
 20
-150.6177532422328
 30
0.0
 10
132.8608247160522
 20
-150.3988471031332
 30
0.0
 10
133.0946995641727
 20
-150.0978387268226
 30
0.0
 10
133.4724300194825
 20
-149.9458016089904
 30
0.0
 10
133.8501858989717
 20
-149.7937542578861
 30
0.0
 10
134.2280308069706
 20
-149.8485444451827
 30
0.0
 10
134.316140881223
 20
-150.067450584283
 30
0.0
  0
SPLINE
  5
117
330
70
100
AcDbEntity
  8
レイヤー 1
 62
   250
420
  2299925
370
     9
100
AcDbSpline
210
0.0
220
0.0
230
1.0
 70
     8
 71
     3
 72
    11
 73
     7
 74
     0
 42
0.0000000001
 43
0.0000000001
 40
0.0
 40
0.0
 40
0.0
 40
0.0
 40
1.0
 40
1.0
 40
1.0
 40
2.0
 40
2.0
 40
2.0
 40
2.0
 10
133.1554588778018
 20
-150.7877045913311
 30
0.0
 10
133.1554588778018
 20
-150.7877045913311
 30
0.0
 10
132.9433467662974
 20
-150.3197698434032
 30
0.0
 10
133.7322814768804
 20
-150.0488068862459
 30
0.0
 10
133.7322814768804
 20
-150.0488068862459
 30
0.0
 10
134.2118633821741
 20
-149.9246814820128
 30
0.0
 10
134.2769392017445
 20
-150.3132998940788
 30
0.0
  0
SPLINE
  5
118
330
70
100
AcDbEntity
  8
レイヤー 1
 62
   250
420
  2299925
370
     9
100
AcDbSpline
210
0.0
220
0.0
230
1.0
 70
     9
 71
     3
 72
    17
 73
    13
 74
     0
 42
0.0000000001
 43
0.0000000001
 40
0.0
 40
0.0
 40
0.0
 40
0.0
 40
1.0
 40
1.0
 40
1.0
 40
2.0
 40
2.0
 40
2.0
 40
3.0
 40
3.0
 40
3.0
 40
4.0
 40
4.0
 40
4.0
 40
4.0
 10
133.6914890314272
 20
-149.2337773898461
 30
0.0
 10
133.7796649675976
 20
-149.4528471603848
 30
0.0
 10
133.5443783377372
 20
-149.7540434991887
 30
0.0
 10
133.1672733329336
 20
-149.9058288721823
 30
0.0
 10
132.7895138023912
 20
-150.0578776928429
 30
0.0
 10
132.4124551439684
 20
-150.0031513207574
 30
0.0
 10
132.324279207798
 20
-149.7840815502182
 30
0.0
 10
132.2361032716277
 20
-149.5650117796789
 30
0.0
 10
132.4703074293402
 20
-149.2648215605634
 30
0.0
 10
132.848066959882
 20
-149.1127727399042
 30
0.0
 10
133.2251719646861
 20
-148.9609873669105
 30
0.0
 10
133.6033130952575
 20
-149.0147076193069
 30
0.0
 10
133.6914890314272
 20
-149.2337773898461
 30
0.0
  0
SPLINE
  5
119
330
70
100
AcDbEntity
  8
レイヤー 1
 62
   250
420
  2299925
370
     9
100
AcDbSpline
210
0.0
220
0.0
230
1.0
 70
     8
 71
     3
 72
    11
 73
     7
 74
     0
 42
0.0000000001
 43
0.0000000001
 40
0.0
 40
0.0
 40
0.0
 40
0.0
 40
1.0
 40
1.0
 40
1.0
 40
2.0
 40
2.0
 40
2.0
 40
2.0
 10
132.5309350191319
 20
-149.9543601621939
 30
0.0
 10
132.5309350191319
 20
-149.9543601621939
 30
0.0
 10
132.3194020997421
 20
-149.4859641193451
 30
0.0
 10
133.1083794176629
 20
-149.2152121818258
 30
0.0
 10
133.1083794176629
 20
-149.2152121818258
 30
0.0
 10
133.5885695406806
 20
-149.0906137998169
 30
0.0
 10
133.652468032608
 20
-149.4800863700941
 30
0.0
  0
SPLINE
  5
11A
330
70
100
AcDbEntity
  8
レイヤー 1
 62
   250
420
  2299925
370
     9
100
AcDbSpline
210
0.0
220
0.0
230
1.0
 70
     9
 71
     3
 72
    17
 73
    13
 74
     0
 42
0.0000000001
 43
0.0000000001
 40
0.0
 40
0.0
 40
0.0
 40
0.0
 40
1.0
 40
1.0
 40
1.0
 40
2.0
 40
2.0
 40
2.0
 40
3.0
 40
3.0
 40
3.0
 40
4.0
 40
4.0
 40
4.0
 40
4.0
 10
132.9663337033314
 20
-148.4289184413991
 30
0.0
 10
133.0544569499677
 20
-148.6478573067872
 30
0.0
 10
132.8196509560497
 20
-148.9484418787204
 30
0.0
 10
132.4418950765612
 20
-149.1004892298253
 30
0.0
 10
132.0641646212514
 20
-149.2525263476575
 30
0.0
 10
131.6872508590479
 20
-149.198159964738
 30
0.0
 10
131.5991276124123
 20
-148.9792210993493
 30
0.0
 10
131.5110175381605
 20
-148.7603149602494
 30
0.0
 10
131.7448923862811
 20
-148.4593065839394
 30
0.0
 10
132.1226228415908
 20
-148.3072694661072
 30
0.0
 10
132.50037872108
 20
-148.1552221150026
 30
0.0
 10
132.878223629079
 20
-148.2100123022992
 30
0.0
 10
132.9663337033314
 20
-148.4289184413991
 30
0.0
  0
SPLINE
  5
11B
330
70
100
AcDbEntity
  8
レイヤー 1
 62
   250
420
  2299925
370
     9
100
AcDbSpline
210
0.0
220
0.0
230
1.0
 70
     8
 71
     3
 72
    11
 73
     7
 74
     0
 42
0.0000000001
 43
0.0000000001
 40
0.0
 40
0.0
 40
0.0
 40
0.0
 40
1.0
 40
1.0
 40
1.0
 40
2.0
 40
2.0
 40
2.0
 40
2.0
 10
131.8056516999101
 20
-149.1491724484476
 30
0.0
 10
131.8056516999101
 20
-149.1491724484476
 30
0.0
 10
131.5935395884058
 20
-148.6812377005194
 30
0.0
 10
132.3824742989888
 20
-148.4102747433627
 30
0.0
 10
132.3824742989888
 20
-148.4102747433627
 30
0.0
 10
132.8620562042825
 20
-148.2861493391293
 30
0.0
 10
132.9271320238528
 20
-148.6747677511956
 30
0.0
  0
ENDSEC
  0
SECTION
  2
OBJECTS
  0
DICTIONARY
  5
C
330
0
100
AcDbDictionary
281
     1
  3
ACAD_COLOR
350
63
  3
ACAD_DETAILVIEWSTYLE
350
6A
  3
ACAD_GROUP
350
D
  3
ACAD_LAYOUT
350
62
  3
ACAD_MATERIAL
350
10
  3
ACAD_MLEADERSTYLE
350
66
  3
ACAD_MLINESTYLE
350
5F
  3
ACAD_PLOTSETTINGS
350
61
  3
ACAD_PLOTSTYLENAME
350
E
  3
ACAD_SCALELIST
350
42
  3
ACAD_SECTIONVIEWSTYLE
350
68
  3
ACAD_TABLESTYLE
350
64
  3
ACAD_VISUALSTYLE
350
29
  3
ACDB_RECOMPOSE_DATA
350
124
  3
AcDbVariableDictionary
350
11C
  0
DICTIONARY
  5
63
102
{ACAD_REACTORS
330
C
102
}
330
C
100
AcDbDictionary
281
     1
  0
DICTIONARY
  5
6A
102
{ACAD_REACTORS
330
C
102
}
330
C
100
AcDbDictionary
281
     1
  3
Imperial24
350
6B
  0
DICTIONARY
  5
D
102
{ACAD_REACTORS
330
C
102
}
330
C
100
AcDbDictionary
281
     1
  0
DICTIONARY
  5
62
102
{ACAD_REACTORS
330
C
102
}
330
C
100
AcDbDictionary
281
     1
  3
Layout1
350
6F
  3
Layout2
350
77
  3
Model
350
73
  0
DICTIONARY
  5
10
102
{ACAD_REACTORS
330
C
102
}
330
C
100
AcDbDictionary
281
     1
  3
ByBlock
350
19
  3
ByLayer
350
11
  3
Global
350
21
  0
DICTIONARY
  5
66
102
{ACAD_REACTORS
330
C
102
}
330
C
100
AcDbDictionary
281
     1
  3
Standard
350
67
  0
DICTIONARY
  5
5F
102
{ACAD_REACTORS
330
C
102
}
330
C
100
AcDbDictionary
281
     1
  3
Standard
350
60
  0
DICTIONARY
  5
61
102
{ACAD_REACTORS
330
C
102
}
330
C
100
AcDbDictionary
281
     1
  0
ACDBDICTIONARYWDFLT
  5
E
102
{ACAD_REACTORS
330
C
102
}
330
C
100
AcDbDictionary
281
     1
  3
Normal
350
F
100
AcDbDictionaryWithDefault
340
F
  0
DICTIONARY
  5
42
102
{ACAD_REACTORS
330
C
102
}
330
C
100
AcDbDictionary
281
     1
  3
A0
350
43
  3
A1
350
44
  3
A2
350
45
  3
A3
350
46
  3
A4
350
47
  3
A5
350
48
  3
A6
350
49
  3
A7
350
4A
  3
A8
350
4B
  3
A9
350
4C
  3
B0
350
4D
  3
B1
350
4E
  3
B2
350
4F
  3
B3
350
50
  3
B4
350
51
  3
B5
350
52
  3
B6
350
53
  0
DICTIONARY
  5
68
102
{ACAD_REACTORS
330
C
102
}
330
C
100
AcDbDictionary
281
     1
  3
Imperial24
350
69
  0
DICTIONARY
  5
64
102
{ACAD_REACTORS
330
C
102
}
330
C
100
AcDbDictionary
281
     1
  3
Standard
350
65
  0
DICTIONARY
  5
29
102
{ACAD_REACTORS
330
C
102
}
330
C
100
AcDbDictionary
281
     1
  3
2dWireframe
350
2F
  3
Basic
350
2E
  3
Brighten
350
35
  3
ColorChange
350
39
  3
Conceptual
350
32
  3
Dim
350
34
  3
EdgeColorOff
350
41
  3
Facepattern
350
38
  3
Flat
350
2A
  3
FlatWithEdges
350
2B
  3
Gouraud
350
2C
  3
GouraudWithEdges
350
2D
  3
Hidden
350
31
  3
JitterOff
350
3F
  3
Linepattern
350
37
  3
OverhangOff
350
40
  3
Realistic
350
33
  3
Shaded
350
3E
  3
Shaded with edges
350
3D
  3
Shades of Gray
350
3A
  3
Sketchy
350
3B
  3
Thicken
350
36
  3
Wireframe
350
30
  3
X-Ray
350
3C
  0
XRECORD
  5
124
102
{ACAD_REACTORS
330
C
102
}
330
C
100
AcDbXrecord
280
     1
 90
        1
330
65
  0
DICTIONARY
  5
11C
102
{ACAD_REACTORS
330
C
102
}
330
C
100
AcDbDictionary
281
     1
  3
CANNOSCALE
350
121
  3
CMLEADERSTYLE
350
11E
  3
CTABLESTYLE
350
11D
  3
CVIEWDETAILSTYLE
350
11F
  3
CVIEWSECTIONSTYLE
350
120
  0
ACDBDETAILVIEWSTYLE
  5
6B
102
{ACAD_XDICTIONARY
360
159
102
}
102
{ACAD_REACTORS
330
6A
102
}
330
6A
100
AcDbModelDocViewStyle
 70
     0
  3
Imperial24
290
     0
100
AcDbDetailViewStyle
 70
     0
 71
     0
 90
        3
 71
     1
340
55
 62
   256
 40
0.24
340
0
 62
   256
 40
0.24
300

 40
0.36
280
     3
 71
     2
340
5D
 90
       25
 62
   256
 71
     3
340
55
 62
   256
 40
0.24
 90
        1
 40
0.75
 90
        1
300
%<\AcVar ViewType \f "%tc1">% %<\AcVar ViewDetailId>%\PSCALE %<\AcVar ViewScale \f "%sn">%
 71
     4
340
5D
 90
       25
 62
   256
340
5D
 90
       25
 62
   256
280
     0
  0
LAYOUT
  5
6F
102
{ACAD_REACTORS
330
62
102
}
330
62
100
AcDbPlotSettings
  1

  2

  4

  6

 40
0.0
 41
0.0
 42
0.0
 43
0.0
 44
0.0
 45
0.0
 46
0.0
 47
0.0
 48
0.0
 49
0.0
140
0.0
141
0.0
142
1.0
143
1.0
 70
   688
 72
     0
 73
     0
 74
     5
  7

 75
    16
147
1.0
 76
     0
 77
     2
 78
   300
148
0.0
149
0.0
100
AcDbLayout
  1
Layout1
 70
     1
 71
     1
 10
0.0
 20
0.0
 11
12.0
 21
9.0
 12
0.0
 22
0.0
 32
0.0
 14
0.0
 24
0.0
 34
0.0
 15
0.0
 25
0.0
 35
0.0
146
0.0
 13
0.0
 23
0.0
 33
0.0
 16
1.0
 26
0.0
 36
0.0
 17
0.0
 27
1.0
 37
0.0
 76
     0
330
6C
  0
LAYOUT
  5
77
102
{ACAD_REACTORS
330
62
102
}
330
62
100
AcDbPlotSettings
  1

  2

  4

  6

 40
0.0
 41
0.0
 42
0.0
 43
0.0
 44
0.0
 45
0.0
 46
0.0
 47
0.0
 48
0.0
 49
0.0
140
0.0
141
0.0
142
1.0
143
1.0
 70
   688
 72
     0
 73
     0
 74
     5
  7

 75
    16
147
1.0
 76
     0
 77
     2
 78
   300
148
0.0
149
0.0
100
AcDbLayout
  1
Layout2
 70
     1
 71
     2
 10
0.0
 20
0.0
 11
12.0
 21
9.0
 12
0.0
 22
0.0
 32
0.0
 14
0.0
 24
0.0
 34
0.0
 15
0.0
 25
0.0
 35
0.0
146
0.0
 13
0.0
 23
0.0
 33
0.0
 16
1.0
 26
0.0
 36
0.0
 17
0.0
 27
1.0
 37
0.0
 76
     0
330
74
  0
LAYOUT
  5
73
102
{ACAD_REACTORS
330
62
102
}
330
62
100
AcDbPlotSettings
  1

  2

  4

  6

 40
0.0
 41
0.0
 42
0.0
 43
0.0
 44
0.0
 45
0.0
 46
0.0
 47
0.0
 48
0.0
 49
0.0
140
0.0
141
0.0
142
1.0
143
1.0
 70
  1712
 72
     0
 73
     0
 74
     0
  7

 75
     0
147
1.0
 76
     0
 77
     2
 78
   300
148
0.0
149
0.0
100
AcDbLayout
  1
Model
 70
     1
 71
     0
 10
0.0
 20
0.0
 11
12.0
 21
9.0
 12
0.0
 22
0.0
 32
0.0
 14
0.0
 24
0.0
 34
0.0
 15
0.0
 25
0.0
 35
0.0
146
0.0
 13
0.0
 23
0.0
 33
0.0
 16
1.0
 26
0.0
 36
0.0
 17
0.0
 27
1.0
 37
0.0
 76
     0
330
70
  0
MATERIAL
  5
19
102
{ACAD_XDICTIONARY
360
1A
102
}
102
{ACAD_REACTORS
330
10
102
}
330
10
100
AcDbMaterial
  1
ByBlock
 72
     0
 43
0.0208333333333333
 43
0.0
 43
0.0
 43
0.0
 43
0.0
 43
0.0208333333333333
 43
0.0
 43
0.0
 43
0.0
 43
0.0
 43
1.0
 43
0.0
 43
0.0
 43
0.0
 43
0.0
 43
1.0
 77
     0
 47
0.0208333333333333
 47
0.0
 47
0.0
 47
0.0
 47
0.0
 47
0.0208333333333333
 47
0.0
 47
0.0
 47
0.0
 47
0.0
 47
1.0
 47
0.0
 47
0.0
 47
0.0
 47
0.0
 47
1.0
171
     0
 49
0.0208333333333333
 49
0.0
 49
0.0
 49
0.0
 49
0.0
 49
0.0208333333333333
 49
0.0
 49
0.0
 49
0.0
 49
0.0
 49
1.0
 49
0.0
 49
0.0
 49
0.0
 49
0.0
 49
1.0
175
     0
142
0.0208333333333333
142
0.0
142
0.0
142
0.0
142
0.0
142
0.0208333333333333
142
0.0
142
0.0
142
0.0
142
0.0
142
1.0
142
0.0
142
0.0
142
0.0
142
0.0
142
1.0
179
     0
144
0.0208333333333333
144
0.0
144
0.0
144
0.0
144
0.0
144
0.0208333333333333
144
0.0
144
0.0
144
0.0
144
0.0
144
1.0
144
0.0
144
0.0
144
0.0
144
0.0
144
1.0
147
0.0208333333333333
147
0.0
147
0.0
147
0.0
147
0.0
147
0.0208333333333333
147
0.0
147
0.0
147
0.0
147
0.0
147
1.0
147
0.0
147
0.0
147
0.0
147
0.0
147
1.0
  0
MATERIAL
  5
11
102
{ACAD_XDICTIONARY
360
12
102
}
102
{ACAD_REACTORS
330
10
102
}
330
10
100
AcDbMaterial
  1
ByLayer
 72
     0
 43
0.0208333333333333
 43
0.0
 43
0.0
 43
0.0
 43
0.0
 43
0.0208333333333333
 43
0.0
 43
0.0
 43
0.0
 43
0.0
 43
1.0
 43
0.0
 43
0.0
 43
0.0
 43
0.0
 43
1.0
 77
     0
 47
0.0208333333333333
 47
0.0
 47
0.0
 47
0.0
 47
0.0
 47
0.0208333333333333
 47
0.0
 47
0.0
 47
0.0
 47
0.0
 47
1.0
 47
0.0
 47
0.0
 47
0.0
 47
0.0
 47
1.0
171
     0
 49
0.0208333333333333
 49
0.0
 49
0.0
 49
0.0
 49
0.0
 49
0.0208333333333333
 49
0.0
 49
0.0
 49
0.0
 49
0.0
 49
1.0
 49
0.0
 49
0.0
 49
0.0
 49
0.0
 49
1.0
175
     0
142
0.0208333333333333
142
0.0
142
0.0
142
0.0
142
0.0
142
0.0208333333333333
142
0.0
142
0.0
142
0.0
142
0.0
142
1.0
142
0.0
142
0.0
142
0.0
142
0.0
142
1.0
179
     0
144
0.0208333333333333
144
0.0
144
0.0
144
0.0
144
0.0
144
0.0208333333333333
144
0.0
144
0.0
144
0.0
144
0.0
144
1.0
144
0.0
144
0.0
144
0.0
144
0.0
144
1.0
147
0.0208333333333333
147
0.0
147
0.0
147
0.0
147
0.0
147
0.0208333333333333
147
0.0
147
0.0
147
0.0
147
0.0
147
1.0
147
0.0
147
0.0
147
0.0
147
0.0
147
1.0
  0
MATERIAL
  5
21
102
{ACAD_XDICTIONARY
360
22
102
}
102
{ACAD_REACTORS
330
10
102
}
330
10
100
AcDbMaterial
  1
Global
 72
     0
 43
0.0208333333333333
 43
0.0
 43
0.0
 43
0.0
 43
0.0
 43
0.0208333333333333
 43
0.0
 43
0.0
 43
0.0
 43
0.0
 43
1.0
 43
0.0
 43
0.0
 43
0.0
 43
0.0
 43
1.0
 77
     0
 47
0.0208333333333333
 47
0.0
 47
0.0
 47
0.0
 47
0.0
 47
0.0208333333333333
 47
0.0
 47
0.0
 47
0.0
 47
0.0
 47
1.0
 47
0.0
 47
0.0
 47
0.0
 47
0.0
 47
1.0
171
     0
 49
0.0208333333333333
 49
0.0
 49
0.0
 49
0.0
 49
0.0
 49
0.0208333333333333
 49
0.0
 49
0.0
 49
0.0
 49
0.0
 49
1.0
 49
0.0
 49
0.0
 49
0.0
 49
0.0
 49
1.0
175
     0
142
0.0208333333333333
142
0.0
142
0.0
142
0.0
142
0.0
142
0.0208333333333333
142
0.0
142
0.0
142
0.0
142
0.0
142
1.0
142
0.0
142
0.0
142
0.0
142
0.0
142
1.0
179
     0
144
0.0208333333333333
144
0.0
144
0.0
144
0.0
144
0.0
144
0.0208333333333333
144
0.0
144
0.0
144
0.0
144
0.0
144
1.0
144
0.0
144
0.0
144
0.0
144
0.0
144
1.0
147
0.0208333333333333
147
0.0
147
0.0
147
0.0
147
0.0
147
0.0208333333333333
147
0.0
147
0.0
147
0.0
147
0.0
147
1.0
147
0.0
147
0.0
147
0.0
147
0.0
147
1.0
  0
MLEADERSTYLE
  5
67
102
{ACAD_XDICTIONARY
360
155
102
}
102
{ACAD_REACTORS
330
66
102
}
330
66
100
AcDbMLeaderStyle
179
     2
170
     2
171
     1
172
     0
 90
        2
 40
0.0
 41
0.0
173
     1
 91
-1056964608
340
5B
 92
       -2
290
     1
 42
0.09
291
     1
 43
0.36
  3
Standard
 44
0.18
300

342
55
174
     1
178
     6
175
     1
176
     0
 93
-1056964608
 45
0.18
292
     0
297
     0
 46
0.18
 94
-1056964608
 47
1.0
 49
1.0
140
1.0
293
     1
141
0.0
294
     1
177
     0
142
1.0
295
     0
296
     0
143
0.125
271
     0
272
     9
273
     9
  0
MLINESTYLE
  5
60
102
{ACAD_REACTORS
330
5F
102
}
330
5F
100
AcDbMlineStyle
  2
STANDARD
 70
     0
  3

 62
   256
 51
90.0
 52
90.0
 71
     2
 49
0.5
 62
   256
  6
BYLAYER
 49
-0.5
 62
   256
  6
BYLAYER
  0
ACDBPLACEHOLDER
  5
F
102
{ACAD_REACTORS
330
E
102
}
330
E
  0
SCALE
  5
43
102
{ACAD_REACTORS
330
42
102
}
330
42
100
AcDbScale
 70
     0
300
1:1
140
1.0
141
1.0
290
     1
  0
SCALE
  5
44
102
{ACAD_REACTORS
330
42
102
}
330
42
100
AcDbScale
 70
     0
300
1/128" = 1'-0"
140
0.0078125
141
12.0
290
     0
  0
SCALE
  5
45
102
{ACAD_REACTORS
330
42
102
}
330
42
100
AcDbScale
 70
     0
300
1/64" = 1'-0"
140
0.015625
141
12.0
290
     0
  0
SCALE
  5
46
102
{ACAD_REACTORS
330
42
102
}
330
42
100
AcDbScale
 70
     0
300
1/32" = 1'-0"
140
0.03125
141
12.0
290
     0
  0
SCALE
  5
47
102
{ACAD_REACTORS
330
42
102
}
330
42
100
AcDbScale
 70
     0
300
1/16" = 1'-0"
140
0.0625
141
12.0
290
     0
  0
SCALE
  5
48
102
{ACAD_REACTORS
330
42
102
}
330
42
100
AcDbScale
 70
     0
300
3/32" = 1'-0"
140
0.09375
141
12.0
290
     0
  0
SCALE
  5
49
102
{ACAD_REACTORS
330
42
102
}
330
42
100
AcDbScale
 70
     0
300
1/8" = 1'-0"
140
0.125
141
12.0
290
     0
  0
SCALE
  5
4A
102
{ACAD_REACTORS
330
42
102
}
330
42
100
AcDbScale
 70
     0
300
3/16" = 1'-0"
140
0.1875
141
12.0
290
     0
  0
SCALE
  5
4B
102
{ACAD_REACTORS
330
42
102
}
330
42
100
AcDbScale
 70
     0
300
1/4" = 1'-0"
140
0.25
141
12.0
290
     0
  0
SCALE
  5
4C
102
{ACAD_REACTORS
330
42
102
}
330
42
100
AcDbScale
 70
     0
300
3/8" = 1'-0"
140
0.375
141
12.0
290
     0
  0
SCALE
  5
4D
102
{ACAD_REACTORS
330
42
102
}
330
42
100
AcDbScale
 70
     0
300
1/2" = 1'-0"
140
0.5
141
12.0
290
     0
  0
SCALE
  5
4E
102
{ACAD_REACTORS
330
42
102
}
330
42
100
AcDbScale
 70
     0
300
3/4" = 1'-0"
140
0.75
141
12.0
290
     0
  0
SCALE
  5
4F
102
{ACAD_REACTORS
330
42
102
}
330
42
100
AcDbScale
 70
     0
300
1" = 1'-0"
140
1.0
141
12.0
290
     0
  0
SCALE
  5
50
102
{ACAD_REACTORS
330
42
102
}
330
42
100
AcDbScale
 70
     0
300
1-1/2" = 1'-0"
140
1.5
141
12.0
290
     0
  0
SCALE
  5
51
102
{ACAD_REACTORS
330
42
102
}
330
42
100
AcDbScale
 70
     0
300
3" = 1'-0"
140
3.0
141
12.0
290
     0
  0
SCALE
  5
52
102
{ACAD_REACTORS
330
42
102
}
330
42
100
AcDbScale
 70
     0
300
6" = 1'-0"
140
6.0
141
12.0
290
     0
  0
SCALE
  5
53
102
{ACAD_REACTORS
330
42
102
}
330
42
100
AcDbScale
 70
     0
300
1'-0" = 1'-0"
140
12.0
141
12.0
290
     0
  0
ACDBSECTIONVIEWSTYLE
  5
69
102
{ACAD_XDICTIONARY
360
157
102
}
102
{ACAD_REACTORS
330
68
102
}
330
68
100
AcDbModelDocViewStyle
 70
     0
  3
Imperial24
290
     0
100
AcDbSectionViewStyle
 70
     0
 71
     0
 90
       78
 71
     1
340
55
 62
   256
 40
0.24
340
0
340
0
 62
   256
 40
0.24
300
I, O, Q, S, X, Z
 40
0.48
 90
        3
 40
0.18
 90
        1
 71
     2
340
5D
 90
       25
 62
   256
340
5D
 90
       50
 62
   256
 40
0.24
 40
0.0
 40
0.24
 71
     3
340
55
 62
   256
 40
0.24
 90
        1
 40
0.75
 90
        1
300
%<\AcVar ViewType \f "%tc1">% %<\AcVar ViewSectionStartId>%-%<\AcVar ViewSectionEndId>%\PSCALE %<\AcVar ViewScale \f "%sn">%
 71
     4
 62
   256
 62
   257
300
ANSI31
 40
1.0
 90
        0
290
     0
290
     0
 90
        6
 40
0.0
 40
1.570796326794896
 40
0.2617993877991494
 40
1.308996938995747
 40
-0.2617993877991494
 40
1.832595714594046
  0
TABLESTYLE
  5
65
102
{ACAD_XDICTIONARY
360
122
102
}
102
{ACAD_REACTORS
330
64
102
}
330
64
100
AcDbTableStyle
280
     0
  3
Standard
 70
     0
 71
     0
 40
0.06
 41
0.06
280
     0
281
     0
  7
Standard
140
0.18
170
     2
 62
     0
 63
     7
283
     0
 90
      512
 91
        0
  1

274
    -2
284
     1
 64
     0
275
    -2
285
     1
 65
     0
276
    -2
286
     1
 66
     0
277
    -2
287
     1
 67
     0
278
    -2
288
     1
 68
     0
279
    -2
289
     1
 69
     0
  7
Standard
140
0.25
170
     5
 62
     0
 63
     7
283
     0
 90
      512
 91
        0
  1

274
    -2
284
     1
 64
     0
275
    -2
285
     1
 65
     0
276
    -2
286
     1
 66
     0
277
    -2
287
     1
 67
     0
278
    -2
288
     1
 68
     0
279
    -2
289
     1
 69
     0
  7
Standard
140
0.18
170
     5
 62
     0
 63
     7
283
     0
 90
      512
 91
        0
  1

274
    -2
284
     1
 64
     0
275
    -2
285
     1
 65
     0
276
    -2
286
     1
 66
     0
277
    -2
287
     1
 67
     0
278
    -2
288
     1
 68
     0
279
    -2
289
     1
 69
     0
  0
VISUALSTYLE
  5
2F
102
{ACAD_XDICTIONARY
360
12F
102
}
102
{ACAD_REACTORS
330
29
102
}
330
29
100
AcDbVisualStyle
  2
2dWireframe
 70
     4
177
     2
291
     0
 71
     0
176
     1
 72
     2
176
     1
 73
     0
176
     1
 90
        0
176
     1
 40
0.6
176
     1
 41
30.0
176
     1
 63
     7
421
 16777215
176
     1
 74
     1
176
     1
 91
        4
176
     1
 64
     7
176
     1
 65
   257
176
     1
 75
     1
176
     1
175
     1
176
     1
 42
1.0
176
     1
 92
        0
176
     1
 66
   257
176
     1
 43
1.0
176
     1
 76
     1
176
     1
 77
     6
176
     1
 78
     2
176
     1
 67
     7
176
     1
 79
     5
176
     1
170
     0
176
     1
171
     0
176
     1
290
     0
176
     1
 93
        1
176
     1
 44
0.0
176
     1
173
     0
176
     1
1001
ACAD
1000
AcDbSavedByObjectVersion
1070
     0
  0
VISUALSTYLE
  5
2E
102
{ACAD_XDICTIONARY
360
12D
102
}
102
{ACAD_REACTORS
330
29
102
}
330
29
100
AcDbVisualStyle
  2
Basic
 70
     7
177
     2
291
     1
 71
     1
176
     1
 72
     0
176
     1
 73
     1
176
     1
 90
        0
176
     1
 40
0.6
176
     1
 41
30.0
176
     1
 63
     7
421
 16777215
176
     1
 74
     0
176
     1
 91
        4
176
     1
 64
     7
176
     1
 65
   257
176
     1
 75
     1
176
     1
175
     1
176
     1
 42
1.0
176
     1
 92
        8
176
     1
 66
     7
176
     1
 43
1.0
176
     1
 76
     1
176
     1
 77
     6
176
     1
 78
     2
176
     1
 67
     7
176
     1
 79
     5
176
     1
170
     0
176
     1
171
     0
176
     1
290
     0
176
     1
 93
        1
176
     1
 44
0.0
176
     1
173
     0
176
     1
1001
ACAD
1000
AcDbSavedByObjectVersion
1070
     0
  0
VISUALSTYLE
  5
35
102
{ACAD_XDICTIONARY
360
13B
102
}
102
{ACAD_REACTORS
330
29
102
}
330
29
100
AcDbVisualStyle
  2
Brighten
 70
    12
177
     2
291
     1
 71
     2
176
     1
 72
     2
176
     1
 73
     0
176
     1
 90
        0
176
     1
 40
0.6
176
     1
 41
30.0
176
     1
 63
     7
421
 16777215
176
     1
 74
     1
176
     1
 91
        4
176
     1
 64
     7
176
     1
 65
   257
176
     1
 75
     1
176
     1
175
     1
176
     1
 42
1.0
176
     1
 92
        8
176
     1
 66
     7
176
     1
 43
1.0
176
     1
 76
     1
176
     1
 77
     6
176
     1
 78
     2
176
     1
 67
     7
176
     1
 79
     5
176
     1
170
     0
176
     1
171
     0
176
     1
290
     0
176
     1
 93
        1
176
     1
 44
50.0
176
     1
173
     0
176
     1
1001
ACAD
1000
AcDbSavedByObjectVersion
1070
     0
  0
VISUALSTYLE
  5
39
102
{ACAD_XDICTIONARY
360
143
102
}
102
{ACAD_REACTORS
330
29
102
}
330
29
100
AcDbVisualStyle
  2
ColorChange
 70
    16
177
     2
291
     1
 71
     2
176
     1
 72
     2
176
     1
 73
     3
176
     1
 90
        0
176
     1
 40
0.6
176
     1
 41
30.0
176
     1
 63
     8
421
  8421504
176
     1
 74
     1
176
     1
 91
        4
176
     1
 64
     7
176
     1
 65
   257
176
     1
 75
     1
176
     1
175
     1
176
     1
 42
1.0
176
     1
 92
        8
176
     1
 66
     8
424
  8421504
176
     1
 43
1.0
176
     1
 76
     1
176
     1
 77
     6
176
     1
 78
     2
176
     1
 67
     7
176
     1
 79
     5
176
     1
170
     0
176
     1
171
     0
176
     1
290
     0
176
     1
 93
        1
176
     1
 44
0.0
176
     1
173
     0
176
     1
1001
ACAD
1000
AcDbSavedByObjectVersion
1070
     0
  0
VISUALSTYLE
  5
32
102
{ACAD_XDICTIONARY
360
135
102
}
102
{ACAD_REACTORS
330
29
102
}
330
29
100
AcDbVisualStyle
  2
Conceptual
 70
     9
177
     2
291
     0
 71
     3
176
     1
 72
     2
176
     1
 73
     0
176
     1
 90
        0
176
     1
 40
0.6
176
     1
 41
30.0
176
     1
 63
     7
421
 16777215
176
     1
 74
     2
176
     1
 91
        2
176
     1
 64
     7
176
     1
 65
   257
176
     1
 75
     1
176
     1
175
     1
176
     1
 42
179.0
176
     1
 92
        8
176
     1
 66
     7
176
     1
 43
1.0
176
     1
 76
     1
176
     1
 77
     6
176
     1
 78
     2
176
     1
 67
     7
176
     1
 79
     3
176
     1
170
     0
176
     1
171
     0
176
     1
290
     0
176
     1
 93
        1
176
     1
 44
0.0
176
     1
173
     0
176
     1
1001
ACAD
1000
AcDbSavedByObjectVersion
1070
     0
  0
VISUALSTYLE
  5
34
102
{ACAD_XDICTIONARY
360
139
102
}
102
{ACAD_REACTORS
330
29
102
}
330
29
100
AcDbVisualStyle
  2
Dim
 70
    11
177
     2
291
     1
 71
     2
176
     1
 72
     2
176
     1
 73
     0
176
     1
 90
        0
176
     1
 40
0.6
176
     1
 41
30.0
176
     1
 63
     7
421
 16777215
176
     1
 74
     1
176
     1
 91
        4
176
     1
 64
     7
176
     1
 65
   257
176
     1
 75
     1
176
     1
175
     1
176
     1
 42
1.0
176
     1
 92
        8
176
     1
 66
     7
176
     1
 43
1.0
176
     1
 76
     1
176
     1
 77
     6
176
     1
 78
     2
176
     1
 67
     7
176
     1
 79
     5
176
     1
170
     0
176
     1
171
     0
176
     1
290
     0
176
     1
 93
        1
176
     1
 44
-50.0
176
     1
173
     0
176
     1
1001
ACAD
1000
AcDbSavedByObjectVersion
1070
     0
  0
VISUALSTYLE
  5
41
102
{ACAD_XDICTIONARY
360
153
102
}
102
{ACAD_REACTORS
330
29
102
}
330
29
100
AcDbVisualStyle
  2
EdgeColorOff
 70
    22
177
     2
291
     1
 71
     2
176
     0
 72
     2
176
     0
 73
     0
176
     0
 90
        0
176
     0
 40
0.6
176
     0
 41
30.0
176
     0
 63
     7
421
 16777215
176
     0
 74
     1
176
     0
 91
        4
176
     0
 64
     7
176
     0
 65
   257
176
     0
 75
     1
176
     0
175
     1
176
     0
 42
1.0
176
     0
 92
        8
176
     2
 66
     7
176
     0
 43
1.0
176
     0
 76
     1
176
     0
 77
     6
176
     0
 78
     2
176
     0
 67
     7
176
     0
 79
     5
176
     0
170
     0
176
     0
171
     0
176
     0
290
     0
176
     0
 93
        1
176
     0
 44
0.0
176
     0
173
     0
176
     0
1001
ACAD
1000
AcDbSavedByObjectVersion
1070
     0
  0
VISUALSTYLE
  5
38
102
{ACAD_XDICTIONARY
360
141
102
}
102
{ACAD_REACTORS
330
29
102
}
330
29
100
AcDbVisualStyle
  2
Facepattern
 70
    15
177
     2
291
     1
 71
     2
176
     1
 72
     2
176
     1
 73
     0
176
     1
 90
        0
176
     1
 40
0.6
176
     1
 41
30.0
176
     1
 63
     7
421
 16777215
176
     1
 74
     1
176
     1
 91
        4
176
     1
 64
     7
176
     1
 65
   257
176
     1
 75
     1
176
     1
175
     1
176
     1
 42
1.0
176
     1
 92
        8
176
     1
 66
     7
176
     1
 43
1.0
176
     1
 76
     1
176
     1
 77
     6
176
     1
 78
     2
176
     1
 67
     7
176
     1
 79
     5
176
     1
170
     0
176
     1
171
     0
176
     1
290
     0
176
     1
 93
        1
176
     1
 44
0.0
176
     1
173
     0
176
     1
1001
ACAD
1000
AcDbSavedByObjectVersion
1070
     0
  0
VISUALSTYLE
  5
2A
102
{ACAD_XDICTIONARY
360
125
102
}
102
{ACAD_REACTORS
330
29
102
}
330
29
100
AcDbVisualStyle
  2
Flat
 70
     0
177
     2
291
     1
 71
     2
176
     1
 72
     1
176
     1
 73
     1
176
     1
 90
        2
176
     1
 40
0.6
176
     1
 41
30.0
176
     1
 63
     7
421
 16777215
176
     1
 74
     0
176
     1
 91
        0
176
     1
 64
     7
176
     1
 65
   257
176
     1
 75
     1
176
     1
175
     1
176
     1
 42
1.0
176
     1
 92
        8
176
     1
 66
     7
176
     1
 43
1.0
176
     1
 76
     1
176
     1
 77
     6
176
     1
 78
     2
176
     1
 67
     7
176
     1
 79
     5
176
     1
170
     0
176
     1
171
     0
176
     1
290
     0
176
     1
 93
       13
176
     1
 44
0.0
176
     1
173
     0
176
     1
1001
ACAD
1000
AcDbSavedByObjectVersion
1070
     0
  0
VISUALSTYLE
  5
2B
102
{ACAD_XDICTIONARY
360
127
102
}
102
{ACAD_REACTORS
330
29
102
}
330
29
100
AcDbVisualStyle
  2
FlatWithEdges
 70
     1
177
     2
291
     1
 71
     2
176
     1
 72
     1
176
     1
 73
     1
176
     1
 90
        2
176
     1
 40
0.6
176
     1
 41
30.0
176
     1
 63
     7
421
 16777215
176
     1
 74
     1
176
     1
 91
        0
176
     1
 64
     7
176
     1
 65
   257
176
     1
 75
     1
176
     1
175
     1
176
     1
 42
1.0
176
     1
 92
        0
176
     1
 66
   257
176
     1
 43
1.0
176
     1
 76
     1
176
     1
 77
     6
176
     1
 78
     2
176
     1
 67
     7
176
     1
 79
     5
176
     1
170
     0
176
     1
171
     0
176
     1
290
     0
176
     1
 93
       13
176
     1
 44
0.0
176
     1
173
     0
176
     1
1001
ACAD
1000
AcDbSavedByObjectVersion
1070
     0
  0
VISUALSTYLE
  5
2C
102
{ACAD_XDICTIONARY
360
129
102
}
102
{ACAD_REACTORS
330
29
102
}
330
29
100
AcDbVisualStyle
  2
Gouraud
 70
     2
177
     2
291
     1
 71
     2
176
     1
 72
     2
176
     1
 73
     1
176
     1
 90
        2
176
     1
 40
0.6
176
     1
 41
30.0
176
     1
 63
     7
421
 16777215
176
     1
 74
     0
176
     1
 91
        0
176
     1
 64
     7
176
     1
 65
   257
176
     1
 75
     1
176
     1
175
     1
176
     1
 42
1.0
176
     1
 92
        0
176
     1
 66
     7
176
     1
 43
1.0
176
     1
 76
     1
176
     1
 77
     6
176
     1
 78
     2
176
     1
 67
     7
176
     1
 79
     5
176
     1
170
     0
176
     1
171
     0
176
     1
290
     0
176
     1
 93
       13
176
     1
 44
0.0
176
     1
173
     0
176
     1
1001
ACAD
1000
AcDbSavedByObjectVersion
1070
     0
  0
VISUALSTYLE
  5
2D
102
{ACAD_XDICTIONARY
360
12B
102
}
102
{ACAD_REACTORS
330
29
102
}
330
29
100
AcDbVisualStyle
  2
GouraudWithEdges
 70
     3
177
     2
291
     1
 71
     2
176
     1
 72
     2
176
     1
 73
     1
176
     1
 90
        2
176
     1
 40
0.6
176
     1
 41
30.0
176
     1
 63
     7
421
 16777215
176
     1
 74
     1
176
     1
 91
        0
176
     1
 64
     7
176
     1
 65
   257
176
     1
 75
     1
176
     1
175
     1
176
     1
 42
1.0
176
     1
 92
        0
176
     1
 66
   257
176
     1
 43
1.0
176
     1
 76
     1
176
     1
 77
     6
176
     1
 78
     2
176
     1
 67
     7
176
     1
 79
     5
176
     1
170
     0
176
     1
171
     0
176
     1
290
     0
176
     1
 93
       13
176
     1
 44
0.0
176
     1
173
     0
176
     1
1001
ACAD
1000
AcDbSavedByObjectVersion
1070
     0
  0
VISUALSTYLE
  5
31
102
{ACAD_XDICTIONARY
360
133
102
}
102
{ACAD_REACTORS
330
29
102
}
330
29
100
AcDbVisualStyle
  2
Hidden
 70
     6
177
     2
291
     0
 71
     1
176
     1
 72
     2
176
     1
 73
     2
176
     1
 90
        0
176
     1
 40
0.6
176
     1
 41
30.0
176
     1
 63
     7
421
 16777215
176
     1
 74
     2
176
     1
 91
        2
176
     1
 64
     7
176
     1
 65
   257
176
     1
 75
     2
176
     1
175
     1
176
     1
 42
40.0
176
     1
 92
        0
176
     1
 66
   257
176
     1
 43
1.0
176
     1
 76
     1
176
     1
 77
     6
176
     1
 78
     2
176
     1
 67
     7
176
     1
 79
     3
176
     1
170
     0
176
     1
171
     0
176
     1
290
     0
176
     1
 93
        1
176
     1
 44
0.0
176
     1
173
     0
176
     1
1001
ACAD
1000
AcDbSavedByObjectVersion
1070
     0
  0
VISUALSTYLE
  5
3F
102
{ACAD_XDICTIONARY
360
14F
102
}
102
{ACAD_REACTORS
330
29
102
}
330
29
100
AcDbVisualStyle
  2
JitterOff
 70
    20
177
     2
291
     1
 71
     2
176
     0
 72
     2
176
     0
 73
     0
176
     0
 90
        0
176
     0
 40
0.6
176
     0
 41
30.0
176
     0
 63
     7
421
 16777215
176
     0
 74
     1
176
     0
 91
        4
176
     0
 64
     7
176
     0
 65
   257
176
     0
 75
     1
176
     0
175
     1
176
     0
 42
1.0
176
     0
 92
       10
176
     2
 66
     7
176
     0
 43
1.0
176
     0
 76
     1
176
     0
 77
     6
176
     0
 78
     2
176
     0
 67
     7
176
     0
 79
     5
176
     0
170
     0
176
     0
171
     0
176
     0
290
     0
176
     0
 93
        1
176
     0
 44
0.0
176
     0
173
     0
176
     0
1001
ACAD
1000
AcDbSavedByObjectVersion
1070
     0
  0
VISUALSTYLE
  5
37
102
{ACAD_XDICTIONARY
360
13F
102
}
102
{ACAD_REACTORS
330
29
102
}
330
29
100
AcDbVisualStyle
  2
Linepattern
 70
    14
177
     2
291
     1
 71
     2
176
     1
 72
     2
176
     1
 73
     0
176
     1
 90
        0
176
     1
 40
0.6
176
     1
 41
30.0
176
     1
 63
     7
421
 16777215
176
     1
 74
     1
176
     1
 91
        4
176
     1
 64
     7
176
     1
 65
   257
176
     1
 75
     7
176
     1
175
     7
176
     1
 42
1.0
176
     1
 92
        8
176
     1
 66
     7
176
     1
 43
1.0
176
     1
 76
     1
176
     1
 77
     6
176
     1
 78
     2
176
     1
 67
     7
176
     1
 79
     5
176
     1
170
     0
176
     1
171
     0
176
     1
290
     0
176
     1
 93
        1
176
     1
 44
0.0
176
     1
173
     0
176
     1
1001
ACAD
1000
AcDbSavedByObjectVersion
1070
     0
  0
VISUALSTYLE
  5
40
102
{ACAD_XDICTIONARY
360
151
102
}
102
{ACAD_REACTORS
330
29
102
}
330
29
100
AcDbVisualStyle
  2
OverhangOff
 70
    21
177
     2
291
     1
 71
     2
176
     0
 72
     2
176
     0
 73
     0
176
     0
 90
        0
176
     0
 40
0.6
176
     0
 41
30.0
176
     0
 63
     7
421
 16777215
176
     0
 74
     1
176
     0
 91
        4
176
     0
 64
     7
176
     0
 65
   257
176
     0
 75
     1
176
     0
175
     1
176
     0
 42
1.0
176
     0
 92
        9
176
     2
 66
     7
176
     0
 43
1.0
176
     0
 76
     1
176
     0
 77
     6
176
     0
 78
     2
176
     0
 67
     7
176
     0
 79
     5
176
     0
170
     0
176
     0
171
     0
176
     0
290
     0
176
     0
 93
        1
176
     0
 44
0.0
176
     0
173
     0
176
     0
1001
ACAD
1000
AcDbSavedByObjectVersion
1070
     0
  0
VISUALSTYLE
  5
33
102
{ACAD_XDICTIONARY
360
137
102
}
102
{ACAD_REACTORS
330
29
102
}
330
29
100
AcDbVisualStyle
  2
Realistic
 70
     8
177
     2
291
     0
 71
     2
176
     1
 72
     3
176
     1
 73
     0
176
     1
 90
        2
176
     1
 40
0.6
176
     1
 41
30.0
176
     1
 63
     7
421
 16777215
176
     1
 74
     0
176
     1
 91
        0
176
     1
 64
     7
176
     1
 65
   257
176
     1
 75
     1
176
     1
175
     1
176
     1
 42
1.0
176
     1
 92
        8
176
     1
 66
   257
176
     1
 43
1.0
176
     1
 76
     1
176
     1
 77
     6
176
     1
 78
     2
176
     1
 67
     7
176
     1
 79
     3
176
     1
170
     0
176
     1
171
     0
176
     1
290
     0
176
     1
 93
       13
176
     1
 44
0.0
176
     1
173
     0
176
     1
1001
ACAD
1000
AcDbSavedByObjectVersion
1070
     0
  0
VISUALSTYLE
  5
3E
102
{ACAD_XDICTIONARY
360
14D
102
}
102
{ACAD_REACTORS
330
29
102
}
330
29
100
AcDbVisualStyle
  2
Shaded
 70
    27
177
     2
291
     0
 71
     2
176
     1
 72
     2
176
     1
 73
     1
176
     1
 90
        2
176
     1
 40
0.6
176
     1
 41
30.0
176
     1
 63
     7
421
 16777215
176
     1
 74
     0
176
     1
 91
        4
176
     1
 64
     7
176
     1
 65
   257
176
     1
 75
     1
176
     1
175
     1
176
     1
 42
1.0
176
     1
 92
        8
176
     1
 66
   257
176
     1
 43
1.0
176
     1
 76
     1
176
     1
 77
     6
176
     1
 78
     2
176
     1
 67
     8
425
  7895160
176
     1
 79
     3
176
     1
170
     0
176
     1
171
     0
176
     1
290
     0
176
     1
 93
        5
176
     1
 44
0.0
176
     1
173
     0
176
     1
1001
ACAD
1000
AcDbSavedByObjectVersion
1070
     0
  0
VISUALSTYLE
  5
3D
102
{ACAD_XDICTIONARY
360
14B
102
}
102
{ACAD_REACTORS
330
29
102
}
330
29
100
AcDbVisualStyle
  2
Shaded with edges
 70
    26
177
     2
291
     0
 71
     2
176
     1
 72
     2
176
     1
 73
     1
176
     1
 90
        2
176
     1
 40
0.6
176
     1
 41
30.0
176
     1
 63
     7
421
 16777215
176
     1
 74
     1
176
     1
 91
        2
176
     1
 64
     7
176
     1
 65
   257
176
     1
 75
     2
176
     1
175
     1
176
     1
 42
1.0
176
     1
 92
        8
176
     1
 66
   257
176
     1
 43
1.0
176
     1
 76
     1
176
     1
 77
     6
176
     1
 78
     2
176
     1
 67
     7
176
     1
 79
     3
176
     1
170
     0
176
     1
171
     0
176
     1
290
     0
176
     1
 93
        5
176
     1
 44
0.0
176
     1
173
     0
176
     1
1001
ACAD
1000
AcDbSavedByObjectVersion
1070
     0
  0
VISUALSTYLE
  5
3A
102
{ACAD_XDICTIONARY
360
145
102
}
102
{ACAD_REACTORS
330
29
102
}
330
29
100
AcDbVisualStyle
  2
Shades of Gray
 70
    23
177
     2
291
     0
 71
     2
176
     1
 72
     2
176
     1
 73
     3
176
     1
 90
        0
176
     1
 40
0.6
176
     1
 41
30.0
176
     1
 63
     7
421
 16777215
176
     1
 74
     2
176
     1
 91
        2
176
     1
 64
     7
176
     1
 65
     7
176
     1
 75
     1
176
     1
175
     1
176
     1
 42
40.0
176
     1
 92
        8
176
     1
 66
     7
176
     1
 43
1.0
176
     1
 76
     1
176
     1
 77
     6
176
     1
 78
     2
176
     1
 67
     7
176
     1
 79
     3
176
     1
170
     0
176
     1
171
     0
176
     1
290
     0
176
     1
 93
        1
176
     1
 44
0.0
176
     1
173
     0
176
     1
1001
ACAD
1000
AcDbSavedByObjectVersion
1070
     0
  0
VISUALSTYLE
  5
3B
102
{ACAD_XDICTIONARY
360
147
102
}
102
{ACAD_REACTORS
330
29
102
}
330
29
100
AcDbVisualStyle
  2
Sketchy
 70
    24
177
     2
291
     0
 71
     1
176
     1
 72
     2
176
     1
 73
     2
176
     1
 90
        0
176
     1
 40
0.6
176
     1
 41
30.0
176
     1
 63
     7
421
 16777215
176
     1
 74
     2
176
     1
 91
        2
176
     1
 64
     7
176
     1
 65
     7
176
     1
 75
     1
176
     1
175
     1
176
     1
 42
40.0
176
     1
 92
       11
176
     1
 66
     7
176
     1
 43
1.0
176
     1
 76
     1
176
     1
 77
     6
176
     1
 78
     2
176
     1
 67
     7
176
     1
 79
     6
176
     1
170
     0
176
     1
171
     0
176
     1
290
     0
176
     1
 93
        1
176
     1
 44
0.0
176
     1
173
     0
176
     1
1001
ACAD
1000
AcDbSavedByObjectVersion
1070
     0
  0
VISUALSTYLE
  5
36
102
{ACAD_XDICTIONARY
360
13D
102
}
102
{ACAD_REACTORS
330
29
102
}
330
29
100
AcDbVisualStyle
  2
Thicken
 70
    13
177
     2
291
     1
 71
     2
176
     1
 72
     2
176
     1
 73
     0
176
     1
 90
        0
176
     1
 40
0.6
176
     1
 41
30.0
176
     1
 63
     7
421
 16777215
176
     1
 74
     1
176
     1
 91
        4
176
     1
 64
     7
176
     1
 65
   257
176
     1
 75
     1
176
     1
175
     1
176
     1
 42
1.0
176
     1
 92
       12
176
     1
 66
     7
176
     1
 43
1.0
176
     1
 76
     1
176
     1
 77
     6
176
     1
 78
     2
176
     1
 67
     7
176
     1
 79
     5
176
     1
170
     0
176
     1
171
     0
176
     1
290
     0
176
     1
 93
        1
176
     1
 44
0.0
176
     1
173
     0
176
     1
1001
ACAD
1000
AcDbSavedByObjectVersion
1070
     0
  0
VISUALSTYLE
  5
30
102
{ACAD_XDICTIONARY
360
131
102
}
102
{ACAD_REACTORS
330
29
102
}
330
29
100
AcDbVisualStyle
  2
Wireframe
 70
     5
177
     2
291
     0
 71
     0
176
     1
 72
     2
176
     1
 73
     0
176
     1
 90
        0
176
     1
 40
0.6
176
     1
 41
30.0
176
     1
 63
     7
421
 16777215
176
     1
 74
     1
176
     1
 91
        4
176
     1
 64
     7
176
     1
 65
   257
176
     1
 75
     1
176
     1
175
     1
176
     1
 42
1.0
176
     1
 92
        0
176
     1
 66
   257
176
     1
 43
1.0
176
     1
 76
     1
176
     1
 77
     6
176
     1
 78
     2
176
     1
 67
     7
176
     1
 79
     3
176
     1
170
     0
176
     1
171
     0
176
     1
290
     0
176
     1
 93
        1
176
     1
 44
0.0
176
     1
173
     0
176
     1
1001
ACAD
1000
AcDbSavedByObjectVersion
1070
     0
  0
VISUALSTYLE
  5
3C
102
{ACAD_XDICTIONARY
360
149
102
}
102
{ACAD_REACTORS
330
29
102
}
330
29
100
AcDbVisualStyle
  2
X-Ray
 70
    25
177
     2
291
     0
 71
     2
176
     1
 72
     2
176
     1
 73
     1
176
     1
 90
        1
176
     1
 40
0.5
176
     1
 41
30.0
176
     1
 63
     7
421
 16777215
176
     1
 74
     1
176
     1
 91
        0
176
     1
 64
     7
176
     1
 65
   257
176
     1
 75
     1
176
     1
175
     1
176
     1
 42
1.0
176
     1
 92
        8
176
     1
 66
     7
176
     1
 43
1.0
176
     1
 76
     1
176
     1
 77
     6
176
     1
 78
     2
176
     1
 67
     7
176
     1
 79
     3
176
     1
170
     0
176
     1
171
     0
176
     1
290
     0
176
     1
 93
       13
176
     1
 44
0.0
176
     1
173
     0
176
     1
1001
ACAD
1000
AcDbSavedByObjectVersion
1070
     0
  0
DICTIONARYVAR
  5
121
102
{ACAD_REACTORS
330
11C
102
}
330
11C
100
DictionaryVariables
280
     0
  1
1:1
  0
DICTIONARYVAR
  5
11E
102
{ACAD_REACTORS
330
11C
102
}
330
11C
100
DictionaryVariables
280
     0
  1
STANDARD
  0
DICTIONARYVAR
  5
11D
102
{ACAD_REACTORS
330
11C
102
}
330
11C
100
DictionaryVariables
280
     0
  1
STANDARD
  0
DICTIONARYVAR
  5
11F
102
{ACAD_REACTORS
330
11C
102
}
330
11C
100
DictionaryVariables
280
     0
  1
Imperial24
  0
DICTIONARYVAR
  5
120
102
{ACAD_REACTORS
330
11C
102
}
330
11C
100
DictionaryVariables
280
     0
  1
Imperial24
  0
DICTIONARY
  5
159
330
6B
100
AcDbDictionary
280
     1
281
     1
  3
ACAD_XREC_ROUNDTRIP
360
15A
  0
DICTIONARY
  5
1A
330
19
100
AcDbDictionary
280
     1
281
     1
  3
BUMPTILE
360
1C
  3
DIFFUSETILE
360
1B
  3
OPACITYTILE
360
1F
  3
REFLECTIONTILE
360
1E
  3
REFRACTIONTILE
360
20
  3
SPECULARTILE
360
1D
  0
DICTIONARY
  5
12
330
11
100
AcDbDictionary
280
     1
281
     1
  3
BUMPTILE
360
14
  3
DIFFUSETILE
360
13
  3
OPACITYTILE
360
17
  3
REFLECTIONTILE
360
16
  3
REFRACTIONTILE
360
18
  3
SPECULARTILE
360
15
  0
DICTIONARY
  5
22
330
21
100
AcDbDictionary
280
     1
281
     1
  3
BUMPTILE
360
24
  3
DIFFUSETILE
360
23
  3
OPACITYTILE
360
27
  3
REFLECTIONTILE
360
26
  3
REFRACTIONTILE
360
28
  3
SPECULARTILE
360
25
  0
DICTIONARY
  5
155
330
67
100
AcDbDictionary
280
     1
281
     1
  3
ACAD_XREC_ROUNDTRIP
360
156
  0
DICTIONARY
  5
157
330
69
100
AcDbDictionary
280
     1
281
     1
  3
ACAD_XREC_ROUNDTRIP
360
158
  0
DICTIONARY
  5
122
330
65
100
AcDbDictionary
280
     1
281
     1
  3
ACAD_ROUNDTRIP_2008_TABLESTYLE_CELLSTYLEMAP
360
123
  0
DICTIONARY
  5
12F
330
2F
100
AcDbDictionary
280
     1
281
     1
  3
ACAD_XREC_ROUNDTRIP
360
130
  0
DICTIONARY
  5
12D
330
2E
100
AcDbDictionary
280
     1
281
     1
  3
ACAD_XREC_ROUNDTRIP
360
12E
  0
DICTIONARY
  5
13B
330
35
100
AcDbDictionary
280
     1
281
     1
  3
ACAD_XREC_ROUNDTRIP
360
13C
  0
DICTIONARY
  5
143
330
39
100
AcDbDictionary
280
     1
281
     1
  3
ACAD_XREC_ROUNDTRIP
360
144
  0
DICTIONARY
  5
135
330
32
100
AcDbDictionary
280
     1
281
     1
  3
ACAD_XREC_ROUNDTRIP
360
136
  0
DICTIONARY
  5
139
330
34
100
AcDbDictionary
280
     1
281
     1
  3
ACAD_XREC_ROUNDTRIP
360
13A
  0
DICTIONARY
  5
153
330
41
100
AcDbDictionary
280
     1
281
     1
  3
ACAD_XREC_ROUNDTRIP
360
154
  0
DICTIONARY
  5
141
330
38
100
AcDbDictionary
280
     1
281
     1
  3
ACAD_XREC_ROUNDTRIP
360
142
  0
DICTIONARY
  5
125
330
2A
100
AcDbDictionary
280
     1
281
     1
  3
ACAD_XREC_ROUNDTRIP
360
126
  0
DICTIONARY
  5
127
330
2B
100
AcDbDictionary
280
     1
281
     1
  3
ACAD_XREC_ROUNDTRIP
360
128
  0
DICTIONARY
  5
129
330
2C
100
AcDbDictionary
280
     1
281
     1
  3
ACAD_XREC_ROUNDTRIP
360
12A
  0
DICTIONARY
  5
12B
330
2D
100
AcDbDictionary
280
     1
281
     1
  3
ACAD_XREC_ROUNDTRIP
360
12C
  0
DICTIONARY
  5
133
330
31
100
AcDbDictionary
280
     1
281
     1
  3
ACAD_XREC_ROUNDTRIP
360
134
  0
DICTIONARY
  5
14F
330
3F
100
AcDbDictionary
280
     1
281
     1
  3
ACAD_XREC_ROUNDTRIP
360
150
  0
DICTIONARY
  5
13F
330
37
100
AcDbDictionary
280
     1
281
     1
  3
ACAD_XREC_ROUNDTRIP
360
140
  0
DICTIONARY
  5
151
330
40
100
AcDbDictionary
280
     1
281
     1
  3
ACAD_XREC_ROUNDTRIP
360
152
  0
DICTIONARY
  5
137
330
33
100
AcDbDictionary
280
     1
281
     1
  3
ACAD_XREC_ROUNDTRIP
360
138
  0
DICTIONARY
  5
14D
330
3E
100
AcDbDictionary
280
     1
281
     1
  3
ACAD_XREC_ROUNDTRIP
360
14E
  0
DICTIONARY
  5
14B
330
3D
100
AcDbDictionary
280
     1
281
     1
  3
ACAD_XREC_ROUNDTRIP
360
14C
  0
DICTIONARY
  5
145
330
3A
100
AcDbDictionary
280
     1
281
     1
  3
ACAD_XREC_ROUNDTRIP
360
146
  0
DICTIONARY
  5
147
330
3B
100
AcDbDictionary
280
     1
281
     1
  3
ACAD_XREC_ROUNDTRIP
360
148
  0
DICTIONARY
  5
13D
330
36
100
AcDbDictionary
280
     1
281
     1
  3
ACAD_XREC_ROUNDTRIP
360
13E
  0
DICTIONARY
  5
131
330
30
100
AcDbDictionary
280
     1
281
     1
  3
ACAD_XREC_ROUNDTRIP
360
132
  0
DICTIONARY
  5
149
330
3C
100
AcDbDictionary
280
     1
281
     1
  3
ACAD_XREC_ROUNDTRIP
360
14A
  0
XRECORD
  5
15A
102
{ACAD_REACTORS
330
159
102
}
330
159
100
AcDbXrecord
280
     1
102
DISPLAYNAME
  1
Imperial24
102
FLAGS
 90
        0
  0
XRECORD
  5
1C
102
{ACAD_REACTORS
330
1A
102
}
330
1A
100
AcDbXrecord
280
     1
270
     1
271
     1
  0
XRECORD
  5
1B
102
{ACAD_REACTORS
330
1A
102
}
330
1A
100
AcDbXrecord
280
     1
270
     1
271
     1
  0
XRECORD
  5
1F
102
{ACAD_REACTORS
330
1A
102
}
330
1A
100
AcDbXrecord
280
     1
270
     1
271
     1
  0
XRECORD
  5
1E
102
{ACAD_REACTORS
330
1A
102
}
330
1A
100
AcDbXrecord
280
     1
270
     1
271
     1
  0
XRECORD
  5
20
102
{ACAD_REACTORS
330
1A
102
}
330
1A
100
AcDbXrecord
280
     1
270
     1
271
     1
  0
XRECORD
  5
1D
102
{ACAD_REACTORS
330
1A
102
}
330
1A
100
AcDbXrecord
280
     1
270
     1
271
     1
  0
XRECORD
  5
14
102
{ACAD_REACTORS
330
12
102
}
330
12
100
AcDbXrecord
280
     1
270
     1
271
     1
  0
XRECORD
  5
13
102
{ACAD_REACTORS
330
12
102
}
330
12
100
AcDbXrecord
280
     1
270
     1
271
     1
  0
XRECORD
  5
17
102
{ACAD_REACTORS
330
12
102
}
330
12
100
AcDbXrecord
280
     1
270
     1
271
     1
  0
XRECORD
  5
16
102
{ACAD_REACTORS
330
12
102
}
330
12
100
AcDbXrecord
280
     1
270
     1
271
     1
  0
XRECORD
  5
18
102
{ACAD_REACTORS
330
12
102
}
330
12
100
AcDbXrecord
280
     1
270
     1
271
     1
  0
XRECORD
  5
15
102
{ACAD_REACTORS
330
12
102
}
330
12
100
AcDbXrecord
280
     1
270
     1
271
     1
  0
XRECORD
  5
24
102
{ACAD_REACTORS
330
22
102
}
330
22
100
AcDbXrecord
280
     1
270
     1
271
     1
  0
XRECORD
  5
23
102
{ACAD_REACTORS
330
22
102
}
330
22
100
AcDbXrecord
280
     1
270
     1
271
     1
  0
XRECORD
  5
27
102
{ACAD_REACTORS
330
22
102
}
330
22
100
AcDbXrecord
280
     1
270
     1
271
     1
  0
XRECORD
  5
26
102
{ACAD_REACTORS
330
22
102
}
330
22
100
AcDbXrecord
280
     1
270
     1
271
     1
  0
XRECORD
  5
28
102
{ACAD_REACTORS
330
22
102
}
330
22
100
AcDbXrecord
280
     1
270
     1
271
     1
  0
XRECORD
  5
25
102
{ACAD_REACTORS
330
22
102
}
330
22
100
AcDbXrecord
280
     1
270
     1
271
     1
  0
XRECORD
  5
156
102
{ACAD_REACTORS
330
155
102
}
330
155
100
AcDbXrecord
280
     1
102
ACAD_ROUNDTRIP_2012_MLEADER_STYLE
298
     1
  0
XRECORD
  5
158
102
{ACAD_REACTORS
330
157
102
}
330
157
100
AcDbXrecord
280
     1
102
DISPLAYNAME
  1
Imperial24
102
FLAGS
 90
        0
  0
CELLSTYLEMAP
  5
123
102
{ACAD_REACTORS
330
122
102
}
330
122
100
AcDbCellStyleMap
 90
        3
300
CELLSTYLE
  1
TABLEFORMAT_BEGIN
 90
        5
170
     1
 91
        0
 92
    32768
 62
   257
 93
        1
300
CONTENTFORMAT
  1
CONTENTFORMAT_BEGIN
 90
        0
 91
        0
 92
      512
 93
        0
300

 40
0.0
140
1.0
 94
        5
 62
     0
340
55
144
0.25
309
CONTENTFORMAT_END
171
     0
 94
        0
309
TABLEFORMAT_END
  1
CELLSTYLE_BEGIN
 90
        1
 91
        1
300
_TITLE
309
CELLSTYLE_END
300
CELLSTYLE
  1
TABLEFORMAT_BEGIN
 90
        5
170
     1
 91
        0
 92
        0
 62
   257
 93
        1
300
CONTENTFORMAT
  1
CONTENTFORMAT_BEGIN
 90
        0
 91
        0
 92
      512
 93
        0
300

 40
0.0
140
1.0
 94
        5
 62
     0
340
55
144
0.18
309
CONTENTFORMAT_END
171
     0
 94
        0
309
TABLEFORMAT_END
  1
CELLSTYLE_BEGIN
 90
        2
 91
        1
300
_HEADER
309
CELLSTYLE_END
300
CELLSTYLE
  1
TABLEFORMAT_BEGIN
 90
        5
170
     1
 91
        0
 92
        0
 62
   257
 93
        1
300
CONTENTFORMAT
  1
CONTENTFORMAT_BEGIN
 90
        0
 91
        0
 92
      512
 93
        0
300

 40
0.0
140
1.0
 94
        2
 62
     0
340
55
144
0.18
309
CONTENTFORMAT_END
171
     0
 94
        0
309
TABLEFORMAT_END
  1
CELLSTYLE_BEGIN
 90
        3
 91
        2
300
_DATA
309
CELLSTYLE_END
  0
XRECORD
  5
130
102
{ACAD_REACTORS
330
12F
102
}
330
12F
100
AcDbXrecord
280
     1
102
RTVSPost2010Prop28
280
     1
102
RTVSPost2010PropOp28
 70
     1
102
RTVSPost2010Prop29
280
     1
102
RTVSPost2010PropOp29
 70
     1
102
RTVSPost2010Prop30
280
     0
102
RTVSPost2010PropOp30
 70
     1
102
RTVSPost2010Prop31
280
     0
102
RTVSPost2010PropOp31
 70
     1
102
RTVSPost2010Prop32
280
     0
102
RTVSPost2010PropOp32
 70
     1
102
RTVSPost2010Prop33
280
     0
102
RTVSPost2010PropOp33
 70
     1
102
RTVSPost2010Prop34
280
     0
102
RTVSPost2010PropOp34
 70
     1
102
RTVSPost2010Prop35
280
     0
102
RTVSPost2010PropOp35
 70
     1
102
RTVSPost2010Prop36
280
     0
102
RTVSPost2010PropOp36
 70
     1
102
RTVSPost2010Prop37
 90
       50
102
RTVSPost2010PropOp37
 70
     1
102
RTVSPost2010Prop38
140
0.0
102
RTVSPost2010PropOp38
 70
     1
102
RTVSPost2010Prop39
140
1.0
102
RTVSPost2010PropOp39
 70
     1
102
RTVSPost2010Prop40
 90
        0
102
RTVSPost2010PropOp40
 70
     1
102
RTVSPost2010Prop41ColorIndex
 90
       18
102
RTVSPost2010Prop41ColorRGB
 90
        0
102
RTVSPost2010PropOp41
 70
     1
102
RTVSPost2010Prop42
 90
       50
102
RTVSPost2010PropOp42
 70
     1
102
RTVSPost2010Prop43
 90
        3
102
RTVSPost2010PropOp43
 70
     1
102
RTVSPost2010Prop44ColorIndex
 90
        5
102
RTVSPost2010Prop44ColorRGB
 90
      255
102
RTVSPost2010PropOp44
 70
     1
102
RTVSPost2010Prop45
280
     0
102
RTVSPost2010PropOp45
 70
     1
102
RTVSPost2010Prop46
 90
       50
102
RTVSPost2010PropOp46
 70
     1
102
RTVSPost2010Prop47
 90
       50
102
RTVSPost2010PropOp47
 70
     1
102
RTVSPost2010Prop48
 90
       50
102
RTVSPost2010PropOp48
 70
     1
102
RTVSPost2010Prop49
280
     0
102
RTVSPost2010PropOp49
 70
     1
102
RTVSPost2010Prop50
 90
       50
102
RTVSPost2010PropOp50
 70
     1
102
RTVSPost2010Prop51ColorIndex
 90
      256
102
RTVSPost2010Prop51ColorRGB
 90
-16777216
102
RTVSPost2010PropOp51
 70
     0
102
RTVSPost2010Prop52
140
1.0
102
RTVSPost2010PropOp52
 70
     0
102
RTVSPost2010Prop53
 90
        2
102
RTVSPost2010PropOp53
 70
     1
102
RTVSPost2010Prop54
  1
strokes_ogs.tif
102
RTVSPost2010PropOp54
 70
     1
102
RTVSPost2010Prop55
280
     0
102
RTVSPost2010PropOp55
 70
     1
102
RTVSPost2010Prop56
140
1.0
102
RTVSPost2010PropOp56
 70
     1
102
RTVSPost2010Prop57
140
1.0
102
RTVSPost2010PropOp57
 70
     1
  0
XRECORD
  5
12E
102
{ACAD_REACTORS
330
12D
102
}
330
12D
100
AcDbXrecord
280
     1
102
RTVSPost2010Prop28
280
     0
102
RTVSPost2010PropOp28
 70
     1
102
RTVSPost2010Prop29
280
     1
102
RTVSPost2010PropOp29
 70
     1
102
RTVSPost2010Prop30
280
     1
102
RTVSPost2010PropOp30
 70
     1
102
RTVSPost2010Prop31
280
     0
102
RTVSPost2010PropOp31
 70
     1
102
RTVSPost2010Prop32
280
     0
102
RTVSPost2010PropOp32
 70
     1
102
RTVSPost2010Prop33
280
     0
102
RTVSPost2010PropOp33
 70
     1
102
RTVSPost2010Prop34
280
     0
102
RTVSPost2010PropOp34
 70
     1
102
RTVSPost2010Prop35
280
     0
102
RTVSPost2010PropOp35
 70
     1
102
RTVSPost2010Prop36
280
     0
102
RTVSPost2010PropOp36
 70
     1
102
RTVSPost2010Prop37
 90
       50
102
RTVSPost2010PropOp37
 70
     1
102
RTVSPost2010Prop38
140
0.0
102
RTVSPost2010PropOp38
 70
     1
102
RTVSPost2010Prop39
140
1.0
102
RTVSPost2010PropOp39
 70
     1
102
RTVSPost2010Prop40
 90
        0
102
RTVSPost2010PropOp40
 70
     1
102
RTVSPost2010Prop41ColorIndex
 90
       18
102
RTVSPost2010Prop41ColorRGB
 90
        0
102
RTVSPost2010PropOp41
 70
     1
102
RTVSPost2010Prop42
 90
       50
102
RTVSPost2010PropOp42
 70
     1
102
RTVSPost2010Prop43
 90
        3
102
RTVSPost2010PropOp43
 70
     1
102
RTVSPost2010Prop44ColorIndex
 90
        5
102
RTVSPost2010Prop44ColorRGB
 90
      255
102
RTVSPost2010PropOp44
 70
     1
102
RTVSPost2010Prop45
280
     0
102
RTVSPost2010PropOp45
 70
     1
102
RTVSPost2010Prop46
 90
       50
102
RTVSPost2010PropOp46
 70
     1
102
RTVSPost2010Prop47
 90
       50
102
RTVSPost2010PropOp47
 70
     1
102
RTVSPost2010Prop48
 90
       50
102
RTVSPost2010PropOp48
 70
     1
102
RTVSPost2010Prop49
280
     0
102
RTVSPost2010PropOp49
 70
     1
102
RTVSPost2010Prop50
 90
       50
102
RTVSPost2010PropOp50
 70
     1
102
RTVSPost2010Prop51ColorIndex
 90
      256
102
RTVSPost2010Prop51ColorRGB
 90
-16777216
102
RTVSPost2010PropOp51
 70
     0
102
RTVSPost2010Prop52
140
1.0
102
RTVSPost2010PropOp52
 70
     0
102
RTVSPost2010Prop53
 90
        2
102
RTVSPost2010PropOp53
 70
     1
102
RTVSPost2010Prop54
  1
strokes_ogs.tif
102
RTVSPost2010PropOp54
 70
     1
102
RTVSPost2010Prop55
280
     0
102
RTVSPost2010PropOp55
 70
     1
102
RTVSPost2010Prop56
140
1.0
102
RTVSPost2010PropOp56
 70
     1
102
RTVSPost2010Prop57
140
1.0
102
RTVSPost2010PropOp57
 70
     1
  0
XRECORD
  5
13C
102
{ACAD_REACTORS
330
13B
102
}
330
13B
100
AcDbXrecord
280
     1
102
RTVSPost2010Prop28
280
     0
102
RTVSPost2010PropOp28
 70
     1
102
RTVSPost2010Prop29
280
     1
102
RTVSPost2010PropOp29
 70
     1
102
RTVSPost2010Prop30
280
     1
102
RTVSPost2010PropOp30
 70
     1
102
RTVSPost2010Prop31
280
     0
102
RTVSPost2010PropOp31
 70
     1
102
RTVSPost2010Prop32
280
     0
102
RTVSPost2010PropOp32
 70
     1
102
RTVSPost2010Prop33
280
     0
102
RTVSPost2010PropOp33
 70
     1
102
RTVSPost2010Prop34
280
     0
102
RTVSPost2010PropOp34
 70
     1
102
RTVSPost2010Prop35
280
     0
102
RTVSPost2010PropOp35
 70
     1
102
RTVSPost2010Prop36
280
     0
102
RTVSPost2010PropOp36
 70
     1
102
RTVSPost2010Prop37
 90
       50
102
RTVSPost2010PropOp37
 70
     1
102
RTVSPost2010Prop38
140
0.0
102
RTVSPost2010PropOp38
 70
     1
102
RTVSPost2010Prop39
140
1.0
102
RTVSPost2010PropOp39
 70
     1
102
RTVSPost2010Prop40
 90
        0
102
RTVSPost2010PropOp40
 70
     1
102
RTVSPost2010Prop41ColorIndex
 90
       18
102
RTVSPost2010Prop41ColorRGB
 90
        0
102
RTVSPost2010PropOp41
 70
     1
102
RTVSPost2010Prop42
 90
       50
102
RTVSPost2010PropOp42
 70
     1
102
RTVSPost2010Prop43
 90
        3
102
RTVSPost2010PropOp43
 70
     1
102
RTVSPost2010Prop44ColorIndex
 90
        5
102
RTVSPost2010Prop44ColorRGB
 90
      255
102
RTVSPost2010PropOp44
 70
     1
102
RTVSPost2010Prop45
280
     0
102
RTVSPost2010PropOp45
 70
     1
102
RTVSPost2010Prop46
 90
       50
102
RTVSPost2010PropOp46
 70
     1
102
RTVSPost2010Prop47
 90
       50
102
RTVSPost2010PropOp47
 70
     1
102
RTVSPost2010Prop48
 90
       50
102
RTVSPost2010PropOp48
 70
     1
102
RTVSPost2010Prop49
280
     0
102
RTVSPost2010PropOp49
 70
     1
102
RTVSPost2010Prop50
 90
       50
102
RTVSPost2010PropOp50
 70
     1
102
RTVSPost2010Prop51ColorIndex
 90
      256
102
RTVSPost2010Prop51ColorRGB
 90
-16777216
102
RTVSPost2010PropOp51
 70
     0
102
RTVSPost2010Prop52
140
1.0
102
RTVSPost2010PropOp52
 70
     0
102
RTVSPost2010Prop53
 90
        2
102
RTVSPost2010PropOp53
 70
     1
102
RTVSPost2010Prop54
  1
strokes_ogs.tif
102
RTVSPost2010PropOp54
 70
     1
102
RTVSPost2010Prop55
280
     0
102
RTVSPost2010PropOp55
 70
     1
102
RTVSPost2010Prop56
140
1.0
102
RTVSPost2010PropOp56
 70
     1
102
RTVSPost2010Prop57
140
1.0
102
RTVSPost2010PropOp57
 70
     1
  0
XRECORD
  5
144
102
{ACAD_REACTORS
330
143
102
}
330
143
100
AcDbXrecord
280
     1
102
RTVSPost2010Prop28
280
     0
102
RTVSPost2010PropOp28
 70
     1
102
RTVSPost2010Prop29
280
     1
102
RTVSPost2010PropOp29
 70
     1
102
RTVSPost2010Prop30
280
     1
102
RTVSPost2010PropOp30
 70
     1
102
RTVSPost2010Prop31
280
     0
102
RTVSPost2010PropOp31
 70
     1
102
RTVSPost2010Prop32
280
     0
102
RTVSPost2010PropOp32
 70
     1
102
RTVSPost2010Prop33
280
     0
102
RTVSPost2010PropOp33
 70
     1
102
RTVSPost2010Prop34
280
     0
102
RTVSPost2010PropOp34
 70
     1
102
RTVSPost2010Prop35
280
     0
102
RTVSPost2010PropOp35
 70
     1
102
RTVSPost2010Prop36
280
     0
102
RTVSPost2010PropOp36
 70
     1
102
RTVSPost2010Prop37
 90
       50
102
RTVSPost2010PropOp37
 70
     1
102
RTVSPost2010Prop38
140
0.0
102
RTVSPost2010PropOp38
 70
     1
102
RTVSPost2010Prop39
140
1.0
102
RTVSPost2010PropOp39
 70
     1
102
RTVSPost2010Prop40
 90
        0
102
RTVSPost2010PropOp40
 70
     1
102
RTVSPost2010Prop41ColorIndex
 90
       18
102
RTVSPost2010Prop41ColorRGB
 90
        0
102
RTVSPost2010PropOp41
 70
     1
102
RTVSPost2010Prop42
 90
       50
102
RTVSPost2010PropOp42
 70
     1
102
RTVSPost2010Prop43
 90
        3
102
RTVSPost2010PropOp43
 70
     1
102
RTVSPost2010Prop44ColorIndex
 90
        5
102
RTVSPost2010Prop44ColorRGB
 90
      255
102
RTVSPost2010PropOp44
 70
     1
102
RTVSPost2010Prop45
280
     0
102
RTVSPost2010PropOp45
 70
     1
102
RTVSPost2010Prop46
 90
       50
102
RTVSPost2010PropOp46
 70
     1
102
RTVSPost2010Prop47
 90
       50
102
RTVSPost2010PropOp47
 70
     1
102
RTVSPost2010Prop48
 90
       50
102
RTVSPost2010PropOp48
 70
     1
102
RTVSPost2010Prop49
280
     0
102
RTVSPost2010PropOp49
 70
     1
102
RTVSPost2010Prop50
 90
       50
102
RTVSPost2010PropOp50
 70
     1
102
RTVSPost2010Prop51ColorIndex
 90
      256
102
RTVSPost2010Prop51ColorRGB
 90
-16777216
102
RTVSPost2010PropOp51
 70
     0
102
RTVSPost2010Prop52
140
1.0
102
RTVSPost2010PropOp52
 70
     0
102
RTVSPost2010Prop53
 90
        2
102
RTVSPost2010PropOp53
 70
     1
102
RTVSPost2010Prop54
  1
strokes_ogs.tif
102
RTVSPost2010PropOp54
 70
     1
102
RTVSPost2010Prop55
280
     0
102
RTVSPost2010PropOp55
 70
     1
102
RTVSPost2010Prop56
140
1.0
102
RTVSPost2010PropOp56
 70
     1
102
RTVSPost2010Prop57
140
1.0
102
RTVSPost2010PropOp57
 70
     1
  0
XRECORD
  5
136
102
{ACAD_REACTORS
330
135
102
}
330
135
100
AcDbXrecord
280
     1
102
RTVSPost2010Prop28
280
     0
102
RTVSPost2010PropOp28
 70
     1
102
RTVSPost2010Prop29
280
     1
102
RTVSPost2010PropOp29
 70
     1
102
RTVSPost2010Prop30
280
     1
102
RTVSPost2010PropOp30
 70
     1
102
RTVSPost2010Prop31
280
     0
102
RTVSPost2010PropOp31
 70
     1
102
RTVSPost2010Prop32
280
     0
102
RTVSPost2010PropOp32
 70
     1
102
RTVSPost2010Prop33
280
     0
102
RTVSPost2010PropOp33
 70
     1
102
RTVSPost2010Prop34
280
     0
102
RTVSPost2010PropOp34
 70
     1
102
RTVSPost2010Prop35
280
     0
102
RTVSPost2010PropOp35
 70
     1
102
RTVSPost2010Prop36
280
     0
102
RTVSPost2010PropOp36
 70
     1
102
RTVSPost2010Prop37
 90
       50
102
RTVSPost2010PropOp37
 70
     1
102
RTVSPost2010Prop38
140
0.0
102
RTVSPost2010PropOp38
 70
     1
102
RTVSPost2010Prop39
140
1.0
102
RTVSPost2010PropOp39
 70
     1
102
RTVSPost2010Prop40
 90
        0
102
RTVSPost2010PropOp40
 70
     1
102
RTVSPost2010Prop41ColorIndex
 90
       18
102
RTVSPost2010Prop41ColorRGB
 90
        0
102
RTVSPost2010PropOp41
 70
     1
102
RTVSPost2010Prop42
 90
       50
102
RTVSPost2010PropOp42
 70
     1
102
RTVSPost2010Prop43
 90
        3
102
RTVSPost2010PropOp43
 70
     1
102
RTVSPost2010Prop44ColorIndex
 90
        5
102
RTVSPost2010Prop44ColorRGB
 90
      255
102
RTVSPost2010PropOp44
 70
     1
102
RTVSPost2010Prop45
280
     0
102
RTVSPost2010PropOp45
 70
     1
102
RTVSPost2010Prop46
 90
       50
102
RTVSPost2010PropOp46
 70
     1
102
RTVSPost2010Prop47
 90
       50
102
RTVSPost2010PropOp47
 70
     1
102
RTVSPost2010Prop48
 90
       50
102
RTVSPost2010PropOp48
 70
     1
102
RTVSPost2010Prop49
280
     0
102
RTVSPost2010PropOp49
 70
     1
102
RTVSPost2010Prop50
 90
       50
102
RTVSPost2010PropOp50
 70
     1
102
RTVSPost2010Prop51ColorIndex
 90
      256
102
RTVSPost2010Prop51ColorRGB
 90
-16777216
102
RTVSPost2010PropOp51
 70
     0
102
RTVSPost2010Prop52
140
1.0
102
RTVSPost2010PropOp52
 70
     0
102
RTVSPost2010Prop53
 90
        2
102
RTVSPost2010PropOp53
 70
     1
102
RTVSPost2010Prop54
  1
strokes_ogs.tif
102
RTVSPost2010PropOp54
 70
     1
102
RTVSPost2010Prop55
280
     0
102
RTVSPost2010PropOp55
 70
     1
102
RTVSPost2010Prop56
140
1.0
102
RTVSPost2010PropOp56
 70
     1
102
RTVSPost2010Prop57
140
1.0
102
RTVSPost2010PropOp57
 70
     1
  0
XRECORD
  5
13A
102
{ACAD_REACTORS
330
139
102
}
330
139
100
AcDbXrecord
280
     1
102
RTVSPost2010Prop28
280
     0
102
RTVSPost2010PropOp28
 70
     1
102
RTVSPost2010Prop29
280
     1
102
RTVSPost2010PropOp29
 70
     1
102
RTVSPost2010Prop30
280
     1
102
RTVSPost2010PropOp30
 70
     1
102
RTVSPost2010Prop31
280
     0
102
RTVSPost2010PropOp31
 70
     1
102
RTVSPost2010Prop32
280
     0
102
RTVSPost2010PropOp32
 70
     1
102
RTVSPost2010Prop33
280
     0
102
RTVSPost2010PropOp33
 70
     1
102
RTVSPost2010Prop34
280
     0
102
RTVSPost2010PropOp34
 70
     1
102
RTVSPost2010Prop35
280
     0
102
RTVSPost2010PropOp35
 70
     1
102
RTVSPost2010Prop36
280
     0
102
RTVSPost2010PropOp36
 70
     1
102
RTVSPost2010Prop37
 90
       50
102
RTVSPost2010PropOp37
 70
     1
102
RTVSPost2010Prop38
140
0.0
102
RTVSPost2010PropOp38
 70
     1
102
RTVSPost2010Prop39
140
1.0
102
RTVSPost2010PropOp39
 70
     1
102
RTVSPost2010Prop40
 90
        0
102
RTVSPost2010PropOp40
 70
     1
102
RTVSPost2010Prop41ColorIndex
 90
       18
102
RTVSPost2010Prop41ColorRGB
 90
        0
102
RTVSPost2010PropOp41
 70
     1
102
RTVSPost2010Prop42
 90
       50
102
RTVSPost2010PropOp42
 70
     1
102
RTVSPost2010Prop43
 90
        3
102
RTVSPost2010PropOp43
 70
     1
102
RTVSPost2010Prop44ColorIndex
 90
        5
102
RTVSPost2010Prop44ColorRGB
 90
      255
102
RTVSPost2010PropOp44
 70
     1
102
RTVSPost2010Prop45
280
     0
102
RTVSPost2010PropOp45
 70
     1
102
RTVSPost2010Prop46
 90
       50
102
RTVSPost2010PropOp46
 70
     1
102
RTVSPost2010Prop47
 90
       50
102
RTVSPost2010PropOp47
 70
     1
102
RTVSPost2010Prop48
 90
       50
102
RTVSPost2010PropOp48
 70
     1
102
RTVSPost2010Prop49
280
     0
102
RTVSPost2010PropOp49
 70
     1
102
RTVSPost2010Prop50
 90
       50
102
RTVSPost2010PropOp50
 70
     1
102
RTVSPost2010Prop51ColorIndex
 90
      256
102
RTVSPost2010Prop51ColorRGB
 90
-16777216
102
RTVSPost2010PropOp51
 70
     0
102
RTVSPost2010Prop52
140
1.0
102
RTVSPost2010PropOp52
 70
     0
102
RTVSPost2010Prop53
 90
        2
102
RTVSPost2010PropOp53
 70
     1
102
RTVSPost2010Prop54
  1
strokes_ogs.tif
102
RTVSPost2010PropOp54
 70
     1
102
RTVSPost2010Prop55
280
     0
102
RTVSPost2010PropOp55
 70
     1
102
RTVSPost2010Prop56
140
1.0
102
RTVSPost2010PropOp56
 70
     1
102
RTVSPost2010Prop57
140
1.0
102
RTVSPost2010PropOp57
 70
     1
  0
XRECORD
  5
154
102
{ACAD_REACTORS
330
153
102
}
330
153
100
AcDbXrecord
280
     1
102
RTVSPost2010Prop28
280
     0
102
RTVSPost2010PropOp28
 70
     0
102
RTVSPost2010Prop29
280
     1
102
RTVSPost2010PropOp29
 70
     0
102
RTVSPost2010Prop30
280
     1
102
RTVSPost2010PropOp30
 70
     0
102
RTVSPost2010Prop31
280
     0
102
RTVSPost2010PropOp31
 70
     0
102
RTVSPost2010Prop32
280
     0
102
RTVSPost2010PropOp32
 70
     0
102
RTVSPost2010Prop33
280
     0
102
RTVSPost2010PropOp33
 70
     0
102
RTVSPost2010Prop34
280
     0
102
RTVSPost2010PropOp34
 70
     0
102
RTVSPost2010Prop35
280
     0
102
RTVSPost2010PropOp35
 70
     0
102
RTVSPost2010Prop36
280
     0
102
RTVSPost2010PropOp36
 70
     0
102
RTVSPost2010Prop37
 90
       50
102
RTVSPost2010PropOp37
 70
     0
102
RTVSPost2010Prop38
140
0.0
102
RTVSPost2010PropOp38
 70
     0
102
RTVSPost2010Prop39
140
1.0
102
RTVSPost2010PropOp39
 70
     0
102
RTVSPost2010Prop40
 90
        0
102
RTVSPost2010PropOp40
 70
     0
102
RTVSPost2010Prop41ColorIndex
 90
       18
102
RTVSPost2010Prop41ColorRGB
 90
        0
102
RTVSPost2010PropOp41
 70
     0
102
RTVSPost2010Prop42
 90
       50
102
RTVSPost2010PropOp42
 70
     0
102
RTVSPost2010Prop43
 90
        3
102
RTVSPost2010PropOp43
 70
     0
102
RTVSPost2010Prop44ColorIndex
 90
        5
102
RTVSPost2010Prop44ColorRGB
 90
      255
102
RTVSPost2010PropOp44
 70
     0
102
RTVSPost2010Prop45
280
     0
102
RTVSPost2010PropOp45
 70
     0
102
RTVSPost2010Prop46
 90
       50
102
RTVSPost2010PropOp46
 70
     0
102
RTVSPost2010Prop47
 90
       50
102
RTVSPost2010PropOp47
 70
     0
102
RTVSPost2010Prop48
 90
       50
102
RTVSPost2010PropOp48
 70
     0
102
RTVSPost2010Prop49
280
     0
102
RTVSPost2010PropOp49
 70
     0
102
RTVSPost2010Prop50
 90
       50
102
RTVSPost2010PropOp50
 70
     0
102
RTVSPost2010Prop51ColorIndex
 90
      256
102
RTVSPost2010Prop51ColorRGB
 90
-16777216
102
RTVSPost2010PropOp51
 70
     0
102
RTVSPost2010Prop52
140
1.0
102
RTVSPost2010PropOp52
 70
     0
102
RTVSPost2010Prop53
 90
        2
102
RTVSPost2010PropOp53
 70
     0
102
RTVSPost2010Prop54
  1
strokes_ogs.tif
102
RTVSPost2010PropOp54
 70
     0
102
RTVSPost2010Prop55
280
     0
102
RTVSPost2010PropOp55
 70
     0
102
RTVSPost2010Prop56
140
1.0
102
RTVSPost2010PropOp56
 70
     0
102
RTVSPost2010Prop57
140
1.0
102
RTVSPost2010PropOp57
 70
     0
  0
XRECORD
  5
142
102
{ACAD_REACTORS
330
141
102
}
330
141
100
AcDbXrecord
280
     1
102
RTVSPost2010Prop28
280
     0
102
RTVSPost2010PropOp28
 70
     1
102
RTVSPost2010Prop29
280
     1
102
RTVSPost2010PropOp29
 70
     1
102
RTVSPost2010Prop30
280
     1
102
RTVSPost2010PropOp30
 70
     1
102
RTVSPost2010Prop31
280
     0
102
RTVSPost2010PropOp31
 70
     1
102
RTVSPost2010Prop32
280
     0
102
RTVSPost2010PropOp32
 70
     1
102
RTVSPost2010Prop33
280
     0
102
RTVSPost2010PropOp33
 70
     1
102
RTVSPost2010Prop34
280
     0
102
RTVSPost2010PropOp34
 70
     1
102
RTVSPost2010Prop35
280
     0
102
RTVSPost2010PropOp35
 70
     1
102
RTVSPost2010Prop36
280
     0
102
RTVSPost2010PropOp36
 70
     1
102
RTVSPost2010Prop37
 90
       50
102
RTVSPost2010PropOp37
 70
     1
102
RTVSPost2010Prop38
140
0.0
102
RTVSPost2010PropOp38
 70
     1
102
RTVSPost2010Prop39
140
1.0
102
RTVSPost2010PropOp39
 70
     1
102
RTVSPost2010Prop40
 90
        0
102
RTVSPost2010PropOp40
 70
     1
102
RTVSPost2010Prop41ColorIndex
 90
       18
102
RTVSPost2010Prop41ColorRGB
 90
        0
102
RTVSPost2010PropOp41
 70
     1
102
RTVSPost2010Prop42
 90
       50
102
RTVSPost2010PropOp42
 70
     1
102
RTVSPost2010Prop43
 90
        3
102
RTVSPost2010PropOp43
 70
     1
102
RTVSPost2010Prop44ColorIndex
 90
        5
102
RTVSPost2010Prop44ColorRGB
 90
      255
102
RTVSPost2010PropOp44
 70
     1
102
RTVSPost2010Prop45
280
     0
102
RTVSPost2010PropOp45
 70
     1
102
RTVSPost2010Prop46
 90
       50
102
RTVSPost2010PropOp46
 70
     1
102
RTVSPost2010Prop47
 90
       50
102
RTVSPost2010PropOp47
 70
     1
102
RTVSPost2010Prop48
 90
       50
102
RTVSPost2010PropOp48
 70
     1
102
RTVSPost2010Prop49
280
     0
102
RTVSPost2010PropOp49
 70
     1
102
RTVSPost2010Prop50
 90
       50
102
RTVSPost2010PropOp50
 70
     1
102
RTVSPost2010Prop51ColorIndex
 90
      256
102
RTVSPost2010Prop51ColorRGB
 90
-16777216
102
RTVSPost2010PropOp51
 70
     0
102
RTVSPost2010Prop52
140
1.0
102
RTVSPost2010PropOp52
 70
     0
102
RTVSPost2010Prop53
 90
        2
102
RTVSPost2010PropOp53
 70
     1
102
RTVSPost2010Prop54
  1
strokes_ogs.tif
102
RTVSPost2010PropOp54
 70
     1
102
RTVSPost2010Prop55
280
     0
102
RTVSPost2010PropOp55
 70
     1
102
RTVSPost2010Prop56
140
1.0
102
RTVSPost2010PropOp56
 70
     1
102
RTVSPost2010Prop57
140
1.0
102
RTVSPost2010PropOp57
 70
     1
  0
XRECORD
  5
126
102
{ACAD_REACTORS
330
125
102
}
330
125
100
AcDbXrecord
280
     1
102
RTVSPost2010Prop28
280
     0
102
RTVSPost2010PropOp28
 70
     1
102
RTVSPost2010Prop29
280
     1
102
RTVSPost2010PropOp29
 70
     1
102
RTVSPost2010Prop30
280
     1
102
RTVSPost2010PropOp30
 70
     1
102
RTVSPost2010Prop31
280
     0
102
RTVSPost2010PropOp31
 70
     1
102
RTVSPost2010Prop32
280
     0
102
RTVSPost2010PropOp32
 70
     1
102
RTVSPost2010Prop33
280
     0
102
RTVSPost2010PropOp33
 70
     1
102
RTVSPost2010Prop34
280
     0
102
RTVSPost2010PropOp34
 70
     1
102
RTVSPost2010Prop35
280
     0
102
RTVSPost2010PropOp35
 70
     1
102
RTVSPost2010Prop36
280
     0
102
RTVSPost2010PropOp36
 70
     1
102
RTVSPost2010Prop37
 90
       50
102
RTVSPost2010PropOp37
 70
     1
102
RTVSPost2010Prop38
140
0.0
102
RTVSPost2010PropOp38
 70
     1
102
RTVSPost2010Prop39
140
1.0
102
RTVSPost2010PropOp39
 70
     1
102
RTVSPost2010Prop40
 90
        0
102
RTVSPost2010PropOp40
 70
     1
102
RTVSPost2010Prop41ColorIndex
 90
       18
102
RTVSPost2010Prop41ColorRGB
 90
        0
102
RTVSPost2010PropOp41
 70
     1
102
RTVSPost2010Prop42
 90
       50
102
RTVSPost2010PropOp42
 70
     1
102
RTVSPost2010Prop43
 90
        3
102
RTVSPost2010PropOp43
 70
     1
102
RTVSPost2010Prop44ColorIndex
 90
        5
102
RTVSPost2010Prop44ColorRGB
 90
      255
102
RTVSPost2010PropOp44
 70
     1
102
RTVSPost2010Prop45
280
     0
102
RTVSPost2010PropOp45
 70
     1
102
RTVSPost2010Prop46
 90
       50
102
RTVSPost2010PropOp46
 70
     1
102
RTVSPost2010Prop47
 90
       50
102
RTVSPost2010PropOp47
 70
     1
102
RTVSPost2010Prop48
 90
       50
102
RTVSPost2010PropOp48
 70
     1
102
RTVSPost2010Prop49
280
     0
102
RTVSPost2010PropOp49
 70
     1
102
RTVSPost2010Prop50
 90
       50
102
RTVSPost2010PropOp50
 70
     1
102
RTVSPost2010Prop51ColorIndex
 90
      256
102
RTVSPost2010Prop51ColorRGB
 90
-16777216
102
RTVSPost2010PropOp51
 70
     0
102
RTVSPost2010Prop52
140
1.0
102
RTVSPost2010PropOp52
 70
     0
102
RTVSPost2010Prop53
 90
        2
102
RTVSPost2010PropOp53
 70
     1
102
RTVSPost2010Prop54
  1
strokes_ogs.tif
102
RTVSPost2010PropOp54
 70
     1
102
RTVSPost2010Prop55
280
     0
102
RTVSPost2010PropOp55
 70
     1
102
RTVSPost2010Prop56
140
1.0
102
RTVSPost2010PropOp56
 70
     1
102
RTVSPost2010Prop57
140
1.0
102
RTVSPost2010PropOp57
 70
     1
  0
XRECORD
  5
128
102
{ACAD_REACTORS
330
127
102
}
330
127
100
AcDbXrecord
280
     1
102
RTVSPost2010Prop28
280
     0
102
RTVSPost2010PropOp28
 70
     1
102
RTVSPost2010Prop29
280
     1
102
RTVSPost2010PropOp29
 70
     1
102
RTVSPost2010Prop30
280
     1
102
RTVSPost2010PropOp30
 70
     1
102
RTVSPost2010Prop31
280
     0
102
RTVSPost2010PropOp31
 70
     1
102
RTVSPost2010Prop32
280
     0
102
RTVSPost2010PropOp32
 70
     1
102
RTVSPost2010Prop33
280
     0
102
RTVSPost2010PropOp33
 70
     1
102
RTVSPost2010Prop34
280
     0
102
RTVSPost2010PropOp34
 70
     1
102
RTVSPost2010Prop35
280
     0
102
RTVSPost2010PropOp35
 70
     1
102
RTVSPost2010Prop36
280
     0
102
RTVSPost2010PropOp36
 70
     1
102
RTVSPost2010Prop37
 90
       50
102
RTVSPost2010PropOp37
 70
     1
102
RTVSPost2010Prop38
140
0.0
102
RTVSPost2010PropOp38
 70
     1
102
RTVSPost2010Prop39
140
1.0
102
RTVSPost2010PropOp39
 70
     1
102
RTVSPost2010Prop40
 90
        0
102
RTVSPost2010PropOp40
 70
     1
102
RTVSPost2010Prop41ColorIndex
 90
       18
102
RTVSPost2010Prop41ColorRGB
 90
        0
102
RTVSPost2010PropOp41
 70
     1
102
RTVSPost2010Prop42
 90
       50
102
RTVSPost2010PropOp42
 70
     1
102
RTVSPost2010Prop43
 90
        3
102
RTVSPost2010PropOp43
 70
     1
102
RTVSPost2010Prop44ColorIndex
 90
        5
102
RTVSPost2010Prop44ColorRGB
 90
      255
102
RTVSPost2010PropOp44
 70
     1
102
RTVSPost2010Prop45
280
     0
102
RTVSPost2010PropOp45
 70
     1
102
RTVSPost2010Prop46
 90
       50
102
RTVSPost2010PropOp46
 70
     1
102
RTVSPost2010Prop47
 90
       50
102
RTVSPost2010PropOp47
 70
     1
102
RTVSPost2010Prop48
 90
       50
102
RTVSPost2010PropOp48
 70
     1
102
RTVSPost2010Prop49
280
     0
102
RTVSPost2010PropOp49
 70
     1
102
RTVSPost2010Prop50
 90
       50
102
RTVSPost2010PropOp50
 70
     1
102
RTVSPost2010Prop51ColorIndex
 90
      256
102
RTVSPost2010Prop51ColorRGB
 90
-16777216
102
RTVSPost2010PropOp51
 70
     0
102
RTVSPost2010Prop52
140
1.0
102
RTVSPost2010PropOp52
 70
     0
102
RTVSPost2010Prop53
 90
        2
102
RTVSPost2010PropOp53
 70
     1
102
RTVSPost2010Prop54
  1
strokes_ogs.tif
102
RTVSPost2010PropOp54
 70
     1
102
RTVSPost2010Prop55
280
     0
102
RTVSPost2010PropOp55
 70
     1
102
RTVSPost2010Prop56
140
1.0
102
RTVSPost2010PropOp56
 70
     1
102
RTVSPost2010Prop57
140
1.0
102
RTVSPost2010PropOp57
 70
     1
  0
XRECORD
  5
12A
102
{ACAD_REACTORS
330
129
102
}
330
129
100
AcDbXrecord
280
     1
102
RTVSPost2010Prop28
280
     0
102
RTVSPost2010PropOp28
 70
     1
102
RTVSPost2010Prop29
280
     1
102
RTVSPost2010PropOp29
 70
     1
102
RTVSPost2010Prop30
280
     1
102
RTVSPost2010PropOp30
 70
     1
102
RTVSPost2010Prop31
280
     0
102
RTVSPost2010PropOp31
 70
     1
102
RTVSPost2010Prop32
280
     0
102
RTVSPost2010PropOp32
 70
     1
102
RTVSPost2010Prop33
280
     0
102
RTVSPost2010PropOp33
 70
     1
102
RTVSPost2010Prop34
280
     0
102
RTVSPost2010PropOp34
 70
     1
102
RTVSPost2010Prop35
280
     0
102
RTVSPost2010PropOp35
 70
     1
102
RTVSPost2010Prop36
280
     0
102
RTVSPost2010PropOp36
 70
     1
102
RTVSPost2010Prop37
 90
       50
102
RTVSPost2010PropOp37
 70
     1
102
RTVSPost2010Prop38
140
0.0
102
RTVSPost2010PropOp38
 70
     1
102
RTVSPost2010Prop39
140
1.0
102
RTVSPost2010PropOp39
 70
     1
102
RTVSPost2010Prop40
 90
        0
102
RTVSPost2010PropOp40
 70
     1
102
RTVSPost2010Prop41ColorIndex
 90
       18
102
RTVSPost2010Prop41ColorRGB
 90
        0
102
RTVSPost2010PropOp41
 70
     1
102
RTVSPost2010Prop42
 90
       50
102
RTVSPost2010PropOp42
 70
     1
102
RTVSPost2010Prop43
 90
        3
102
RTVSPost2010PropOp43
 70
     1
102
RTVSPost2010Prop44ColorIndex
 90
        5
102
RTVSPost2010Prop44ColorRGB
 90
      255
102
RTVSPost2010PropOp44
 70
     1
102
RTVSPost2010Prop45
280
     0
102
RTVSPost2010PropOp45
 70
     1
102
RTVSPost2010Prop46
 90
       50
102
RTVSPost2010PropOp46
 70
     1
102
RTVSPost2010Prop47
 90
       50
102
RTVSPost2010PropOp47
 70
     1
102
RTVSPost2010Prop48
 90
       50
102
RTVSPost2010PropOp48
 70
     1
102
RTVSPost2010Prop49
280
     0
102
RTVSPost2010PropOp49
 70
     1
102
RTVSPost2010Prop50
 90
       50
102
RTVSPost2010PropOp50
 70
     1
102
RTVSPost2010Prop51ColorIndex
 90
      256
102
RTVSPost2010Prop51ColorRGB
 90
-16777216
102
RTVSPost2010PropOp51
 70
     0
102
RTVSPost2010Prop52
140
1.0
102
RTVSPost2010PropOp52
 70
     0
102
RTVSPost2010Prop53
 90
        2
102
RTVSPost2010PropOp53
 70
     1
102
RTVSPost2010Prop54
  1
strokes_ogs.tif
102
RTVSPost2010PropOp54
 70
     1
102
RTVSPost2010Prop55
280
     0
102
RTVSPost2010PropOp55
 70
     1
102
RTVSPost2010Prop56
140
1.0
102
RTVSPost2010PropOp56
 70
     1
102
RTVSPost2010Prop57
140
1.0
102
RTVSPost2010PropOp57
 70
     1
  0
XRECORD
  5
12C
102
{ACAD_REACTORS
330
12B
102
}
330
12B
100
AcDbXrecord
280
     1
102
RTVSPost2010Prop28
280
     0
102
RTVSPost2010PropOp28
 70
     1
102
RTVSPost2010Prop29
280
     1
102
RTVSPost2010PropOp29
 70
     1
102
RTVSPost2010Prop30
280
     1
102
RTVSPost2010PropOp30
 70
     1
102
RTVSPost2010Prop31
280
     0
102
RTVSPost2010PropOp31
 70
     1
102
RTVSPost2010Prop32
280
     0
102
RTVSPost2010PropOp32
 70
     1
102
RTVSPost2010Prop33
280
     0
102
RTVSPost2010PropOp33
 70
     1
102
RTVSPost2010Prop34
280
     0
102
RTVSPost2010PropOp34
 70
     1
102
RTVSPost2010Prop35
280
     0
102
RTVSPost2010PropOp35
 70
     1
102
RTVSPost2010Prop36
280
     0
102
RTVSPost2010PropOp36
 70
     1
102
RTVSPost2010Prop37
 90
       50
102
RTVSPost2010PropOp37
 70
     1
102
RTVSPost2010Prop38
140
0.0
102
RTVSPost2010PropOp38
 70
     1
102
RTVSPost2010Prop39
140
1.0
102
RTVSPost2010PropOp39
 70
     1
102
RTVSPost2010Prop40
 90
        0
102
RTVSPost2010PropOp40
 70
     1
102
RTVSPost2010Prop41ColorIndex
 90
       18
102
RTVSPost2010Prop41ColorRGB
 90
        0
102
RTVSPost2010PropOp41
 70
     1
102
RTVSPost2010Prop42
 90
       50
102
RTVSPost2010PropOp42
 70
     1
102
RTVSPost2010Prop43
 90
        3
102
RTVSPost2010PropOp43
 70
     1
102
RTVSPost2010Prop44ColorIndex
 90
        5
102
RTVSPost2010Prop44ColorRGB
 90
      255
102
RTVSPost2010PropOp44
 70
     1
102
RTVSPost2010Prop45
280
     0
102
RTVSPost2010PropOp45
 70
     1
102
RTVSPost2010Prop46
 90
       50
102
RTVSPost2010PropOp46
 70
     1
102
RTVSPost2010Prop47
 90
       50
102
RTVSPost2010PropOp47
 70
     1
102
RTVSPost2010Prop48
 90
       50
102
RTVSPost2010PropOp48
 70
     1
102
RTVSPost2010Prop49
280
     0
102
RTVSPost2010PropOp49
 70
     1
102
RTVSPost2010Prop50
 90
       50
102
RTVSPost2010PropOp50
 70
     1
102
RTVSPost2010Prop51ColorIndex
 90
      256
102
RTVSPost2010Prop51ColorRGB
 90
-16777216
102
RTVSPost2010PropOp51
 70
     0
102
RTVSPost2010Prop52
140
1.0
102
RTVSPost2010PropOp52
 70
     0
102
RTVSPost2010Prop53
 90
        2
102
RTVSPost2010PropOp53
 70
     1
102
RTVSPost2010Prop54
  1
strokes_ogs.tif
102
RTVSPost2010PropOp54
 70
     1
102
RTVSPost2010Prop55
280
     0
102
RTVSPost2010PropOp55
 70
     1
102
RTVSPost2010Prop56
140
1.0
102
RTVSPost2010PropOp56
 70
     1
102
RTVSPost2010Prop57
140
1.0
102
RTVSPost2010PropOp57
 70
     1
  0
XRECORD
  5
134
102
{ACAD_REACTORS
330
133
102
}
330
133
100
AcDbXrecord
280
     1
102
RTVSPost2010Prop28
280
     0
102
RTVSPost2010PropOp28
 70
     1
102
RTVSPost2010Prop29
280
     1
102
RTVSPost2010PropOp29
 70
     1
102
RTVSPost2010Prop30
280
     1
102
RTVSPost2010PropOp30
 70
     1
102
RTVSPost2010Prop31
280
     0
102
RTVSPost2010PropOp31
 70
     1
102
RTVSPost2010Prop32
280
     0
102
RTVSPost2010PropOp32
 70
     1
102
RTVSPost2010Prop33
280
     0
102
RTVSPost2010PropOp33
 70
     1
102
RTVSPost2010Prop34
280
     0
102
RTVSPost2010PropOp34
 70
     1
102
RTVSPost2010Prop35
280
     0
102
RTVSPost2010PropOp35
 70
     1
102
RTVSPost2010Prop36
280
     0
102
RTVSPost2010PropOp36
 70
     1
102
RTVSPost2010Prop37
 90
       50
102
RTVSPost2010PropOp37
 70
     1
102
RTVSPost2010Prop38
140
0.0
102
RTVSPost2010PropOp38
 70
     1
102
RTVSPost2010Prop39
140
1.0
102
RTVSPost2010PropOp39
 70
     1
102
RTVSPost2010Prop40
 90
        0
102
RTVSPost2010PropOp40
 70
     1
102
RTVSPost2010Prop41ColorIndex
 90
       18
102
RTVSPost2010Prop41ColorRGB
 90
        0
102
RTVSPost2010PropOp41
 70
     1
102
RTVSPost2010Prop42
 90
       50
102
RTVSPost2010PropOp42
 70
     1
102
RTVSPost2010Prop43
 90
        3
102
RTVSPost2010PropOp43
 70
     1
102
RTVSPost2010Prop44ColorIndex
 90
        5
102
RTVSPost2010Prop44ColorRGB
 90
      255
102
RTVSPost2010PropOp44
 70
     1
102
RTVSPost2010Prop45
280
     0
102
RTVSPost2010PropOp45
 70
     1
102
RTVSPost2010Prop46
 90
       50
102
RTVSPost2010PropOp46
 70
     1
102
RTVSPost2010Prop47
 90
       50
102
RTVSPost2010PropOp47
 70
     1
102
RTVSPost2010Prop48
 90
       50
102
RTVSPost2010PropOp48
 70
     1
102
RTVSPost2010Prop49
280
     0
102
RTVSPost2010PropOp49
 70
     1
102
RTVSPost2010Prop50
 90
       50
102
RTVSPost2010PropOp50
 70
     1
102
RTVSPost2010Prop51ColorIndex
 90
      256
102
RTVSPost2010Prop51ColorRGB
 90
-16777216
102
RTVSPost2010PropOp51
 70
     0
102
RTVSPost2010Prop52
140
1.0
102
RTVSPost2010PropOp52
 70
     0
102
RTVSPost2010Prop53
 90
        2
102
RTVSPost2010PropOp53
 70
     1
102
RTVSPost2010Prop54
  1
strokes_ogs.tif
102
RTVSPost2010PropOp54
 70
     1
102
RTVSPost2010Prop55
280
     0
102
RTVSPost2010PropOp55
 70
     1
102
RTVSPost2010Prop56
140
1.0
102
RTVSPost2010PropOp56
 70
     1
102
RTVSPost2010Prop57
140
1.0
102
RTVSPost2010PropOp57
 70
     1
  0
XRECORD
  5
150
102
{ACAD_REACTORS
330
14F
102
}
330
14F
100
AcDbXrecord
280
     1
102
RTVSPost2010Prop28
280
     0
102
RTVSPost2010PropOp28
 70
     0
102
RTVSPost2010Prop29
280
     1
102
RTVSPost2010PropOp29
 70
     0
102
RTVSPost2010Prop30
280
     1
102
RTVSPost2010PropOp30
 70
     0
102
RTVSPost2010Prop31
280
     0
102
RTVSPost2010PropOp31
 70
     0
102
RTVSPost2010Prop32
280
     0
102
RTVSPost2010PropOp32
 70
     0
102
RTVSPost2010Prop33
280
     0
102
RTVSPost2010PropOp33
 70
     0
102
RTVSPost2010Prop34
280
     0
102
RTVSPost2010PropOp34
 70
     0
102
RTVSPost2010Prop35
280
     0
102
RTVSPost2010PropOp35
 70
     0
102
RTVSPost2010Prop36
280
     0
102
RTVSPost2010PropOp36
 70
     0
102
RTVSPost2010Prop37
 90
       50
102
RTVSPost2010PropOp37
 70
     0
102
RTVSPost2010Prop38
140
0.0
102
RTVSPost2010PropOp38
 70
     0
102
RTVSPost2010Prop39
140
1.0
102
RTVSPost2010PropOp39
 70
     0
102
RTVSPost2010Prop40
 90
        0
102
RTVSPost2010PropOp40
 70
     0
102
RTVSPost2010Prop41ColorIndex
 90
       18
102
RTVSPost2010Prop41ColorRGB
 90
        0
102
RTVSPost2010PropOp41
 70
     0
102
RTVSPost2010Prop42
 90
       50
102
RTVSPost2010PropOp42
 70
     0
102
RTVSPost2010Prop43
 90
        3
102
RTVSPost2010PropOp43
 70
     0
102
RTVSPost2010Prop44ColorIndex
 90
        5
102
RTVSPost2010Prop44ColorRGB
 90
      255
102
RTVSPost2010PropOp44
 70
     0
102
RTVSPost2010Prop45
280
     0
102
RTVSPost2010PropOp45
 70
     0
102
RTVSPost2010Prop46
 90
       50
102
RTVSPost2010PropOp46
 70
     0
102
RTVSPost2010Prop47
 90
       50
102
RTVSPost2010PropOp47
 70
     0
102
RTVSPost2010Prop48
 90
       50
102
RTVSPost2010PropOp48
 70
     0
102
RTVSPost2010Prop49
280
     0
102
RTVSPost2010PropOp49
 70
     0
102
RTVSPost2010Prop50
 90
       50
102
RTVSPost2010PropOp50
 70
     0
102
RTVSPost2010Prop51ColorIndex
 90
      256
102
RTVSPost2010Prop51ColorRGB
 90
-16777216
102
RTVSPost2010PropOp51
 70
     0
102
RTVSPost2010Prop52
140
1.0
102
RTVSPost2010PropOp52
 70
     0
102
RTVSPost2010Prop53
 90
        2
102
RTVSPost2010PropOp53
 70
     0
102
RTVSPost2010Prop54
  1
strokes_ogs.tif
102
RTVSPost2010PropOp54
 70
     0
102
RTVSPost2010Prop55
280
     0
102
RTVSPost2010PropOp55
 70
     0
102
RTVSPost2010Prop56
140
1.0
102
RTVSPost2010PropOp56
 70
     0
102
RTVSPost2010Prop57
140
1.0
102
RTVSPost2010PropOp57
 70
     0
  0
XRECORD
  5
140
102
{ACAD_REACTORS
330
13F
102
}
330
13F
100
AcDbXrecord
280
     1
102
RTVSPost2010Prop28
280
     0
102
RTVSPost2010PropOp28
 70
     1
102
RTVSPost2010Prop29
280
     1
102
RTVSPost2010PropOp29
 70
     1
102
RTVSPost2010Prop30
280
     1
102
RTVSPost2010PropOp30
 70
     1
102
RTVSPost2010Prop31
280
     0
102
RTVSPost2010PropOp31
 70
     1
102
RTVSPost2010Prop32
280
     0
102
RTVSPost2010PropOp32
 70
     1
102
RTVSPost2010Prop33
280
     0
102
RTVSPost2010PropOp33
 70
     1
102
RTVSPost2010Prop34
280
     0
102
RTVSPost2010PropOp34
 70
     1
102
RTVSPost2010Prop35
280
     0
102
RTVSPost2010PropOp35
 70
     1
102
RTVSPost2010Prop36
280
     0
102
RTVSPost2010PropOp36
 70
     1
102
RTVSPost2010Prop37
 90
       50
102
RTVSPost2010PropOp37
 70
     1
102
RTVSPost2010Prop38
140
0.0
102
RTVSPost2010PropOp38
 70
     1
102
RTVSPost2010Prop39
140
1.0
102
RTVSPost2010PropOp39
 70
     1
102
RTVSPost2010Prop40
 90
        0
102
RTVSPost2010PropOp40
 70
     1
102
RTVSPost2010Prop41ColorIndex
 90
       18
102
RTVSPost2010Prop41ColorRGB
 90
        0
102
RTVSPost2010PropOp41
 70
     1
102
RTVSPost2010Prop42
 90
       50
102
RTVSPost2010PropOp42
 70
     1
102
RTVSPost2010Prop43
 90
        3
102
RTVSPost2010PropOp43
 70
     1
102
RTVSPost2010Prop44ColorIndex
 90
        5
102
RTVSPost2010Prop44ColorRGB
 90
      255
102
RTVSPost2010PropOp44
 70
     1
102
RTVSPost2010Prop45
280
     0
102
RTVSPost2010PropOp45
 70
     1
102
RTVSPost2010Prop46
 90
       50
102
RTVSPost2010PropOp46
 70
     1
102
RTVSPost2010Prop47
 90
       50
102
RTVSPost2010PropOp47
 70
     1
102
RTVSPost2010Prop48
 90
       50
102
RTVSPost2010PropOp48
 70
     1
102
RTVSPost2010Prop49
280
     0
102
RTVSPost2010PropOp49
 70
     1
102
RTVSPost2010Prop50
 90
       50
102
RTVSPost2010PropOp50
 70
     1
102
RTVSPost2010Prop51ColorIndex
 90
      256
102
RTVSPost2010Prop51ColorRGB
 90
-16777216
102
RTVSPost2010PropOp51
 70
     0
102
RTVSPost2010Prop52
140
1.0
102
RTVSPost2010PropOp52
 70
     0
102
RTVSPost2010Prop53
 90
        2
102
RTVSPost2010PropOp53
 70
     1
102
RTVSPost2010Prop54
  1
strokes_ogs.tif
102
RTVSPost2010PropOp54
 70
     1
102
RTVSPost2010Prop55
280
     0
102
RTVSPost2010PropOp55
 70
     1
102
RTVSPost2010Prop56
140
1.0
102
RTVSPost2010PropOp56
 70
     1
102
RTVSPost2010Prop57
140
1.0
102
RTVSPost2010PropOp57
 70
     1
  0
XRECORD
  5
152
102
{ACAD_REACTORS
330
151
102
}
330
151
100
AcDbXrecord
280
     1
102
RTVSPost2010Prop28
280
     0
102
RTVSPost2010PropOp28
 70
     0
102
RTVSPost2010Prop29
280
     1
102
RTVSPost2010PropOp29
 70
     0
102
RTVSPost2010Prop30
280
     1
102
RTVSPost2010PropOp30
 70
     0
102
RTVSPost2010Prop31
280
     0
102
RTVSPost2010PropOp31
 70
     0
102
RTVSPost2010Prop32
280
     0
102
RTVSPost2010PropOp32
 70
     0
102
RTVSPost2010Prop33
280
     0
102
RTVSPost2010PropOp33
 70
     0
102
RTVSPost2010Prop34
280
     0
102
RTVSPost2010PropOp34
 70
     0
102
RTVSPost2010Prop35
280
     0
102
RTVSPost2010PropOp35
 70
     0
102
RTVSPost2010Prop36
280
     0
102
RTVSPost2010PropOp36
 70
     0
102
RTVSPost2010Prop37
 90
       50
102
RTVSPost2010PropOp37
 70
     0
102
RTVSPost2010Prop38
140
0.0
102
RTVSPost2010PropOp38
 70
     0
102
RTVSPost2010Prop39
140
1.0
102
RTVSPost2010PropOp39
 70
     0
102
RTVSPost2010Prop40
 90
        0
102
RTVSPost2010PropOp40
 70
     0
102
RTVSPost2010Prop41ColorIndex
 90
       18
102
RTVSPost2010Prop41ColorRGB
 90
        0
102
RTVSPost2010PropOp41
 70
     0
102
RTVSPost2010Prop42
 90
       50
102
RTVSPost2010PropOp42
 70
     0
102
RTVSPost2010Prop43
 90
        3
102
RTVSPost2010PropOp43
 70
     0
102
RTVSPost2010Prop44ColorIndex
 90
        5
102
RTVSPost2010Prop44ColorRGB
 90
      255
102
RTVSPost2010PropOp44
 70
     0
102
RTVSPost2010Prop45
280
     0
102
RTVSPost2010PropOp45
 70
     0
102
RTVSPost2010Prop46
 90
       50
102
RTVSPost2010PropOp46
 70
     0
102
RTVSPost2010Prop47
 90
       50
102
RTVSPost2010PropOp47
 70
     0
102
RTVSPost2010Prop48
 90
       50
102
RTVSPost2010PropOp48
 70
     0
102
RTVSPost2010Prop49
280
     0
102
RTVSPost2010PropOp49
 70
     0
102
RTVSPost2010Prop50
 90
       50
102
RTVSPost2010PropOp50
 70
     0
102
RTVSPost2010Prop51ColorIndex
 90
      256
102
RTVSPost2010Prop51ColorRGB
 90
-16777216
102
RTVSPost2010PropOp51
 70
     0
102
RTVSPost2010Prop52
140
1.0
102
RTVSPost2010PropOp52
 70
     0
102
RTVSPost2010Prop53
 90
        2
102
RTVSPost2010PropOp53
 70
     0
102
RTVSPost2010Prop54
  1
strokes_ogs.tif
102
RTVSPost2010PropOp54
 70
     0
102
RTVSPost2010Prop55
280
     0
102
RTVSPost2010PropOp55
 70
     0
102
RTVSPost2010Prop56
140
1.0
102
RTVSPost2010PropOp56
 70
     0
102
RTVSPost2010Prop57
140
1.0
102
RTVSPost2010PropOp57
 70
     0
  0
XRECORD
  5
138
102
{ACAD_REACTORS
330
137
102
}
330
137
100
AcDbXrecord
280
     1
102
RTVSPost2010Prop28
280
     0
102
RTVSPost2010PropOp28
 70
     1
102
RTVSPost2010Prop29
280
     1
102
RTVSPost2010PropOp29
 70
     1
102
RTVSPost2010Prop30
280
     1
102
RTVSPost2010PropOp30
 70
     1
102
RTVSPost2010Prop31
280
     0
102
RTVSPost2010PropOp31
 70
     1
102
RTVSPost2010Prop32
280
     0
102
RTVSPost2010PropOp32
 70
     1
102
RTVSPost2010Prop33
280
     0
102
RTVSPost2010PropOp33
 70
     1
102
RTVSPost2010Prop34
280
     0
102
RTVSPost2010PropOp34
 70
     1
102
RTVSPost2010Prop35
280
     0
102
RTVSPost2010PropOp35
 70
     1
102
RTVSPost2010Prop36
280
     0
102
RTVSPost2010PropOp36
 70
     1
102
RTVSPost2010Prop37
 90
       50
102
RTVSPost2010PropOp37
 70
     1
102
RTVSPost2010Prop38
140
0.0
102
RTVSPost2010PropOp38
 70
     1
102
RTVSPost2010Prop39
140
1.0
102
RTVSPost2010PropOp39
 70
     1
102
RTVSPost2010Prop40
 90
        0
102
RTVSPost2010PropOp40
 70
     1
102
RTVSPost2010Prop41ColorIndex
 90
       18
102
RTVSPost2010Prop41ColorRGB
 90
        0
102
RTVSPost2010PropOp41
 70
     1
102
RTVSPost2010Prop42
 90
       50
102
RTVSPost2010PropOp42
 70
     1
102
RTVSPost2010Prop43
 90
        3
102
RTVSPost2010PropOp43
 70
     1
102
RTVSPost2010Prop44ColorIndex
 90
        5
102
RTVSPost2010Prop44ColorRGB
 90
      255
102
RTVSPost2010PropOp44
 70
     1
102
RTVSPost2010Prop45
280
     0
102
RTVSPost2010PropOp45
 70
     1
102
RTVSPost2010Prop46
 90
       50
102
RTVSPost2010PropOp46
 70
     1
102
RTVSPost2010Prop47
 90
       50
102
RTVSPost2010PropOp47
 70
     1
102
RTVSPost2010Prop48
 90
       50
102
RTVSPost2010PropOp48
 70
     1
102
RTVSPost2010Prop49
280
     0
102
RTVSPost2010PropOp49
 70
     1
102
RTVSPost2010Prop50
 90
       50
102
RTVSPost2010PropOp50
 70
     1
102
RTVSPost2010Prop51ColorIndex
 90
      256
102
RTVSPost2010Prop51ColorRGB
 90
-16777216
102
RTVSPost2010PropOp51
 70
     0
102
RTVSPost2010Prop52
140
1.0
102
RTVSPost2010PropOp52
 70
     0
102
RTVSPost2010Prop53
 90
        2
102
RTVSPost2010PropOp53
 70
     1
102
RTVSPost2010Prop54
  1
strokes_ogs.tif
102
RTVSPost2010PropOp54
 70
     1
102
RTVSPost2010Prop55
280
     0
102
RTVSPost2010PropOp55
 70
     1
102
RTVSPost2010Prop56
140
1.0
102
RTVSPost2010PropOp56
 70
     1
102
RTVSPost2010Prop57
140
1.0
102
RTVSPost2010PropOp57
 70
     1
  0
XRECORD
  5
14E
102
{ACAD_REACTORS
330
14D
102
}
330
14D
100
AcDbXrecord
280
     1
102
RTVSPost2010Prop28
280
     0
102
RTVSPost2010PropOp28
 70
     1
102
RTVSPost2010Prop29
280
     1
102
RTVSPost2010PropOp29
 70
     1
102
RTVSPost2010Prop30
280
     1
102
RTVSPost2010PropOp30
 70
     1
102
RTVSPost2010Prop31
280
     0
102
RTVSPost2010PropOp31
 70
     1
102
RTVSPost2010Prop32
280
     0
102
RTVSPost2010PropOp32
 70
     1
102
RTVSPost2010Prop33
280
     0
102
RTVSPost2010PropOp33
 70
     1
102
RTVSPost2010Prop34
280
     0
102
RTVSPost2010PropOp34
 70
     1
102
RTVSPost2010Prop35
280
     0
102
RTVSPost2010PropOp35
 70
     1
102
RTVSPost2010Prop36
280
     0
102
RTVSPost2010PropOp36
 70
     1
102
RTVSPost2010Prop37
 90
       50
102
RTVSPost2010PropOp37
 70
     1
102
RTVSPost2010Prop38
140
0.0
102
RTVSPost2010PropOp38
 70
     1
102
RTVSPost2010Prop39
140
1.0
102
RTVSPost2010PropOp39
 70
     1
102
RTVSPost2010Prop40
 90
        0
102
RTVSPost2010PropOp40
 70
     1
102
RTVSPost2010Prop41ColorIndex
 90
       18
102
RTVSPost2010Prop41ColorRGB
 90
        0
102
RTVSPost2010PropOp41
 70
     1
102
RTVSPost2010Prop42
 90
       50
102
RTVSPost2010PropOp42
 70
     1
102
RTVSPost2010Prop43
 90
        3
102
RTVSPost2010PropOp43
 70
     1
102
RTVSPost2010Prop44ColorIndex
 90
        5
102
RTVSPost2010Prop44ColorRGB
 90
      255
102
RTVSPost2010PropOp44
 70
     1
102
RTVSPost2010Prop45
280
     0
102
RTVSPost2010PropOp45
 70
     1
102
RTVSPost2010Prop46
 90
       50
102
RTVSPost2010PropOp46
 70
     1
102
RTVSPost2010Prop47
 90
       50
102
RTVSPost2010PropOp47
 70
     1
102
RTVSPost2010Prop48
 90
       50
102
RTVSPost2010PropOp48
 70
     1
102
RTVSPost2010Prop49
280
     0
102
RTVSPost2010PropOp49
 70
     1
102
RTVSPost2010Prop50
 90
       50
102
RTVSPost2010PropOp50
 70
     1
102
RTVSPost2010Prop51ColorIndex
 90
      256
102
RTVSPost2010Prop51ColorRGB
 90
-16777216
102
RTVSPost2010PropOp51
 70
     0
102
RTVSPost2010Prop52
140
1.0
102
RTVSPost2010PropOp52
 70
     0
102
RTVSPost2010Prop53
 90
        2
102
RTVSPost2010PropOp53
 70
     1
102
RTVSPost2010Prop54
  1
strokes_ogs.tif
102
RTVSPost2010PropOp54
 70
     1
102
RTVSPost2010Prop55
280
     0
102
RTVSPost2010PropOp55
 70
     1
102
RTVSPost2010Prop56
140
1.0
102
RTVSPost2010PropOp56
 70
     1
102
RTVSPost2010Prop57
140
1.0
102
RTVSPost2010PropOp57
 70
     1
  0
XRECORD
  5
14C
102
{ACAD_REACTORS
330
14B
102
}
330
14B
100
AcDbXrecord
280
     1
102
RTVSPost2010Prop28
280
     0
102
RTVSPost2010PropOp28
 70
     1
102
RTVSPost2010Prop29
280
     1
102
RTVSPost2010PropOp29
 70
     1
102
RTVSPost2010Prop30
280
     1
102
RTVSPost2010PropOp30
 70
     1
102
RTVSPost2010Prop31
280
     0
102
RTVSPost2010PropOp31
 70
     1
102
RTVSPost2010Prop32
280
     0
102
RTVSPost2010PropOp32
 70
     1
102
RTVSPost2010Prop33
280
     0
102
RTVSPost2010PropOp33
 70
     1
102
RTVSPost2010Prop34
280
     0
102
RTVSPost2010PropOp34
 70
     1
102
RTVSPost2010Prop35
280
     0
102
RTVSPost2010PropOp35
 70
     1
102
RTVSPost2010Prop36
280
     0
102
RTVSPost2010PropOp36
 70
     1
102
RTVSPost2010Prop37
 90
       50
102
RTVSPost2010PropOp37
 70
     1
102
RTVSPost2010Prop38
140
0.0
102
RTVSPost2010PropOp38
 70
     1
102
RTVSPost2010Prop39
140
1.0
102
RTVSPost2010PropOp39
 70
     1
102
RTVSPost2010Prop40
 90
        0
102
RTVSPost2010PropOp40
 70
     1
102
RTVSPost2010Prop41ColorIndex
 90
       18
102
RTVSPost2010Prop41ColorRGB
 90
        0
102
RTVSPost2010PropOp41
 70
     1
102
RTVSPost2010Prop42
 90
       50
102
RTVSPost2010PropOp42
 70
     1
102
RTVSPost2010Prop43
 90
        3
102
RTVSPost2010PropOp43
 70
     1
102
RTVSPost2010Prop44ColorIndex
 90
        5
102
RTVSPost2010Prop44ColorRGB
 90
      255
102
RTVSPost2010PropOp44
 70
     1
102
RTVSPost2010Prop45
280
     0
102
RTVSPost2010PropOp45
 70
     1
102
RTVSPost2010Prop46
 90
       50
102
RTVSPost2010PropOp46
 70
     1
102
RTVSPost2010Prop47
 90
       50
102
RTVSPost2010PropOp47
 70
     1
102
RTVSPost2010Prop48
 90
       50
102
RTVSPost2010PropOp48
 70
     1
102
RTVSPost2010Prop49
280
     0
102
RTVSPost2010PropOp49
 70
     1
102
RTVSPost2010Prop50
 90
       50
102
RTVSPost2010PropOp50
 70
     1
102
RTVSPost2010Prop51ColorIndex
 90
      256
102
RTVSPost2010Prop51ColorRGB
 90
-16777216
102
RTVSPost2010PropOp51
 70
     0
102
RTVSPost2010Prop52
140
1.0
102
RTVSPost2010PropOp52
 70
     0
102
RTVSPost2010Prop53
 90
        2
102
RTVSPost2010PropOp53
 70
     1
102
RTVSPost2010Prop54
  1
strokes_ogs.tif
102
RTVSPost2010PropOp54
 70
     1
102
RTVSPost2010Prop55
280
     0
102
RTVSPost2010PropOp55
 70
     1
102
RTVSPost2010Prop56
140
1.0
102
RTVSPost2010PropOp56
 70
     1
102
RTVSPost2010Prop57
140
1.0
102
RTVSPost2010PropOp57
 70
     1
  0
XRECORD
  5
146
102
{ACAD_REACTORS
330
145
102
}
330
145
100
AcDbXrecord
280
     1
102
RTVSPost2010Prop28
280
     0
102
RTVSPost2010PropOp28
 70
     1
102
RTVSPost2010Prop29
280
     1
102
RTVSPost2010PropOp29
 70
     1
102
RTVSPost2010Prop30
280
     1
102
RTVSPost2010PropOp30
 70
     1
102
RTVSPost2010Prop31
280
     0
102
RTVSPost2010PropOp31
 70
     1
102
RTVSPost2010Prop32
280
     0
102
RTVSPost2010PropOp32
 70
     1
102
RTVSPost2010Prop33
280
     0
102
RTVSPost2010PropOp33
 70
     1
102
RTVSPost2010Prop34
280
     0
102
RTVSPost2010PropOp34
 70
     1
102
RTVSPost2010Prop35
280
     0
102
RTVSPost2010PropOp35
 70
     1
102
RTVSPost2010Prop36
280
     0
102
RTVSPost2010PropOp36
 70
     1
102
RTVSPost2010Prop37
 90
       50
102
RTVSPost2010PropOp37
 70
     1
102
RTVSPost2010Prop38
140
0.0
102
RTVSPost2010PropOp38
 70
     1
102
RTVSPost2010Prop39
140
1.0
102
RTVSPost2010PropOp39
 70
     1
102
RTVSPost2010Prop40
 90
        0
102
RTVSPost2010PropOp40
 70
     1
102
RTVSPost2010Prop41ColorIndex
 90
       18
102
RTVSPost2010Prop41ColorRGB
 90
        0
102
RTVSPost2010PropOp41
 70
     1
102
RTVSPost2010Prop42
 90
       50
102
RTVSPost2010PropOp42
 70
     1
102
RTVSPost2010Prop43
 90
        3
102
RTVSPost2010PropOp43
 70
     1
102
RTVSPost2010Prop44ColorIndex
 90
        5
102
RTVSPost2010Prop44ColorRGB
 90
      255
102
RTVSPost2010PropOp44
 70
     1
102
RTVSPost2010Prop45
280
     0
102
RTVSPost2010PropOp45
 70
     1
102
RTVSPost2010Prop46
 90
       50
102
RTVSPost2010PropOp46
 70
     1
102
RTVSPost2010Prop47
 90
       50
102
RTVSPost2010PropOp47
 70
     1
102
RTVSPost2010Prop48
 90
       50
102
RTVSPost2010PropOp48
 70
     1
102
RTVSPost2010Prop49
280
     0
102
RTVSPost2010PropOp49
 70
     1
102
RTVSPost2010Prop50
 90
       50
102
RTVSPost2010PropOp50
 70
     1
102
RTVSPost2010Prop51ColorIndex
 90
      256
102
RTVSPost2010Prop51ColorRGB
 90
-16777216
102
RTVSPost2010PropOp51
 70
     0
102
RTVSPost2010Prop52
140
1.0
102
RTVSPost2010PropOp52
 70
     0
102
RTVSPost2010Prop53
 90
        2
102
RTVSPost2010PropOp53
 70
     1
102
RTVSPost2010Prop54
  1
strokes_ogs.tif
102
RTVSPost2010PropOp54
 70
     1
102
RTVSPost2010Prop55
280
     0
102
RTVSPost2010PropOp55
 70
     1
102
RTVSPost2010Prop56
140
1.0
102
RTVSPost2010PropOp56
 70
     1
102
RTVSPost2010Prop57
140
1.0
102
RTVSPost2010PropOp57
 70
     1
  0
XRECORD
  5
148
102
{ACAD_REACTORS
330
147
102
}
330
147
100
AcDbXrecord
280
     1
102
RTVSPost2010Prop28
280
     0
102
RTVSPost2010PropOp28
 70
     1
102
RTVSPost2010Prop29
280
     1
102
RTVSPost2010PropOp29
 70
     1
102
RTVSPost2010Prop30
280
     1
102
RTVSPost2010PropOp30
 70
     1
102
RTVSPost2010Prop31
280
     0
102
RTVSPost2010PropOp31
 70
     1
102
RTVSPost2010Prop32
280
     0
102
RTVSPost2010PropOp32
 70
     1
102
RTVSPost2010Prop33
280
     0
102
RTVSPost2010PropOp33
 70
     1
102
RTVSPost2010Prop34
280
     0
102
RTVSPost2010PropOp34
 70
     1
102
RTVSPost2010Prop35
280
     0
102
RTVSPost2010PropOp35
 70
     1
102
RTVSPost2010Prop36
280
     0
102
RTVSPost2010PropOp36
 70
     1
102
RTVSPost2010Prop37
 90
       50
102
RTVSPost2010PropOp37
 70
     1
102
RTVSPost2010Prop38
140
0.0
102
RTVSPost2010PropOp38
 70
     1
102
RTVSPost2010Prop39
140
1.0
102
RTVSPost2010PropOp39
 70
     1
102
RTVSPost2010Prop40
 90
        0
102
RTVSPost2010PropOp40
 70
     1
102
RTVSPost2010Prop41ColorIndex
 90
       18
102
RTVSPost2010Prop41ColorRGB
 90
        0
102
RTVSPost2010PropOp41
 70
     1
102
RTVSPost2010Prop42
 90
       50
102
RTVSPost2010PropOp42
 70
     1
102
RTVSPost2010Prop43
 90
        3
102
RTVSPost2010PropOp43
 70
     1
102
RTVSPost2010Prop44ColorIndex
 90
        5
102
RTVSPost2010Prop44ColorRGB
 90
      255
102
RTVSPost2010PropOp44
 70
     1
102
RTVSPost2010Prop45
280
     0
102
RTVSPost2010PropOp45
 70
     1
102
RTVSPost2010Prop46
 90
       50
102
RTVSPost2010PropOp46
 70
     1
102
RTVSPost2010Prop47
 90
       50
102
RTVSPost2010PropOp47
 70
     1
102
RTVSPost2010Prop48
 90
       50
102
RTVSPost2010PropOp48
 70
     1
102
RTVSPost2010Prop49
280
     0
102
RTVSPost2010PropOp49
 70
     1
102
RTVSPost2010Prop50
 90
       50
102
RTVSPost2010PropOp50
 70
     1
102
RTVSPost2010Prop51ColorIndex
 90
      256
102
RTVSPost2010Prop51ColorRGB
 90
-16777216
102
RTVSPost2010PropOp51
 70
     0
102
RTVSPost2010Prop52
140
1.0
102
RTVSPost2010PropOp52
 70
     0
102
RTVSPost2010Prop53
 90
        2
102
RTVSPost2010PropOp53
 70
     1
102
RTVSPost2010Prop54
  1
strokes_ogs.tif
102
RTVSPost2010PropOp54
 70
     1
102
RTVSPost2010Prop55
280
     0
102
RTVSPost2010PropOp55
 70
     1
102
RTVSPost2010Prop56
140
1.0
102
RTVSPost2010PropOp56
 70
     1
102
RTVSPost2010Prop57
140
1.0
102
RTVSPost2010PropOp57
 70
     1
  0
XRECORD
  5
13E
102
{ACAD_REACTORS
330
13D
102
}
330
13D
100
AcDbXrecord
280
     1
102
RTVSPost2010Prop28
280
     0
102
RTVSPost2010PropOp28
 70
     1
102
RTVSPost2010Prop29
280
     1
102
RTVSPost2010PropOp29
 70
     1
102
RTVSPost2010Prop30
280
     1
102
RTVSPost2010PropOp30
 70
     1
102
RTVSPost2010Prop31
280
     0
102
RTVSPost2010PropOp31
 70
     1
102
RTVSPost2010Prop32
280
     0
102
RTVSPost2010PropOp32
 70
     1
102
RTVSPost2010Prop33
280
     0
102
RTVSPost2010PropOp33
 70
     1
102
RTVSPost2010Prop34
280
     0
102
RTVSPost2010PropOp34
 70
     1
102
RTVSPost2010Prop35
280
     0
102
RTVSPost2010PropOp35
 70
     1
102
RTVSPost2010Prop36
280
     0
102
RTVSPost2010PropOp36
 70
     1
102
RTVSPost2010Prop37
 90
       50
102
RTVSPost2010PropOp37
 70
     1
102
RTVSPost2010Prop38
140
0.0
102
RTVSPost2010PropOp38
 70
     1
102
RTVSPost2010Prop39
140
1.0
102
RTVSPost2010PropOp39
 70
     1
102
RTVSPost2010Prop40
 90
        0
102
RTVSPost2010PropOp40
 70
     1
102
RTVSPost2010Prop41ColorIndex
 90
       18
102
RTVSPost2010Prop41ColorRGB
 90
        0
102
RTVSPost2010PropOp41
 70
     1
102
RTVSPost2010Prop42
 90
       50
102
RTVSPost2010PropOp42
 70
     1
102
RTVSPost2010Prop43
 90
        3
102
RTVSPost2010PropOp43
 70
     1
102
RTVSPost2010Prop44ColorIndex
 90
        5
102
RTVSPost2010Prop44ColorRGB
 90
      255
102
RTVSPost2010PropOp44
 70
     1
102
RTVSPost2010Prop45
280
     0
102
RTVSPost2010PropOp45
 70
     1
102
RTVSPost2010Prop46
 90
       50
102
RTVSPost2010PropOp46
 70
     1
102
RTVSPost2010Prop47
 90
       50
102
RTVSPost2010PropOp47
 70
     1
102
RTVSPost2010Prop48
 90
       50
102
RTVSPost2010PropOp48
 70
     1
102
RTVSPost2010Prop49
280
     0
102
RTVSPost2010PropOp49
 70
     1
102
RTVSPost2010Prop50
 90
       50
102
RTVSPost2010PropOp50
 70
     1
102
RTVSPost2010Prop51ColorIndex
 90
      256
102
RTVSPost2010Prop51ColorRGB
 90
-16777216
102
RTVSPost2010PropOp51
 70
     0
102
RTVSPost2010Prop52
140
1.0
102
RTVSPost2010PropOp52
 70
     0
102
RTVSPost2010Prop53
 90
        2
102
RTVSPost2010PropOp53
 70
     1
102
RTVSPost2010Prop54
  1
strokes_ogs.tif
102
RTVSPost2010PropOp54
 70
     1
102
RTVSPost2010Prop55
280
     0
102
RTVSPost2010PropOp55
 70
     1
102
RTVSPost2010Prop56
140
1.0
102
RTVSPost2010PropOp56
 70
     1
102
RTVSPost2010Prop57
140
1.0
102
RTVSPost2010PropOp57
 70
     1
  0
XRECORD
  5
132
102
{ACAD_REACTORS
330
131
102
}
330
131
100
AcDbXrecord
280
     1
102
RTVSPost2010Prop28
280
     0
102
RTVSPost2010PropOp28
 70
     1
102
RTVSPost2010Prop29
280
     1
102
RTVSPost2010PropOp29
 70
     1
102
RTVSPost2010Prop30
280
     1
102
RTVSPost2010PropOp30
 70
     1
102
RTVSPost2010Prop31
280
     0
102
RTVSPost2010PropOp31
 70
     1
102
RTVSPost2010Prop32
280
     0
102
RTVSPost2010PropOp32
 70
     1
102
RTVSPost2010Prop33
280
     0
102
RTVSPost2010PropOp33
 70
     1
102
RTVSPost2010Prop34
280
     0
102
RTVSPost2010PropOp34
 70
     1
102
RTVSPost2010Prop35
280
     0
102
RTVSPost2010PropOp35
 70
     1
102
RTVSPost2010Prop36
280
     0
102
RTVSPost2010PropOp36
 70
     1
102
RTVSPost2010Prop37
 90
       50
102
RTVSPost2010PropOp37
 70
     1
102
RTVSPost2010Prop38
140
0.0
102
RTVSPost2010PropOp38
 70
     1
102
RTVSPost2010Prop39
140
1.0
102
RTVSPost2010PropOp39
 70
     1
102
RTVSPost2010Prop40
 90
        0
102
RTVSPost2010PropOp40
 70
     1
102
RTVSPost2010Prop41ColorIndex
 90
       18
102
RTVSPost2010Prop41ColorRGB
 90
        0
102
RTVSPost2010PropOp41
 70
     1
102
RTVSPost2010Prop42
 90
       50
102
RTVSPost2010PropOp42
 70
     1
102
RTVSPost2010Prop43
 90
        3
102
RTVSPost2010PropOp43
 70
     1
102
RTVSPost2010Prop44ColorIndex
 90
        5
102
RTVSPost2010Prop44ColorRGB
 90
      255
102
RTVSPost2010PropOp44
 70
     1
102
RTVSPost2010Prop45
280
     0
102
RTVSPost2010PropOp45
 70
     1
102
RTVSPost2010Prop46
 90
       50
102
RTVSPost2010PropOp46
 70
     1
102
RTVSPost2010Prop47
 90
       50
102
RTVSPost2010PropOp47
 70
     1
102
RTVSPost2010Prop48
 90
       50
102
RTVSPost2010PropOp48
 70
     1
102
RTVSPost2010Prop49
280
     0
102
RTVSPost2010PropOp49
 70
     1
102
RTVSPost2010Prop50
 90
       50
102
RTVSPost2010PropOp50
 70
     1
102
RTVSPost2010Prop51ColorIndex
 90
      256
102
RTVSPost2010Prop51ColorRGB
 90
-16777216
102
RTVSPost2010PropOp51
 70
     0
102
RTVSPost2010Prop52
140
1.0
102
RTVSPost2010PropOp52
 70
     0
102
RTVSPost2010Prop53
 90
        2
102
RTVSPost2010PropOp53
 70
     1
102
RTVSPost2010Prop54
  1
strokes_ogs.tif
102
RTVSPost2010PropOp54
 70
     1
102
RTVSPost2010Prop55
280
     0
102
RTVSPost2010PropOp55
 70
     1
102
RTVSPost2010Prop56
140
1.0
102
RTVSPost2010PropOp56
 70
     1
102
RTVSPost2010Prop57
140
1.0
102
RTVSPost2010PropOp57
 70
     1
  0
XRECORD
  5
14A
102
{ACAD_REACTORS
330
149
102
}
330
149
100
AcDbXrecord
280
     1
102
RTVSPost2010Prop28
280
     0
102
RTVSPost2010PropOp28
 70
     1
102
RTVSPost2010Prop29
280
     1
102
RTVSPost2010PropOp29
 70
     1
102
RTVSPost2010Prop30
280
     1
102
RTVSPost2010PropOp30
 70
     1
102
RTVSPost2010Prop31
280
     0
102
RTVSPost2010PropOp31
 70
     1
102
RTVSPost2010Prop32
280
     0
102
RTVSPost2010PropOp32
 70
     1
102
RTVSPost2010Prop33
280
     0
102
RTVSPost2010PropOp33
 70
     1
102
RTVSPost2010Prop34
280
     0
102
RTVSPost2010PropOp34
 70
     1
102
RTVSPost2010Prop35
280
     0
102
RTVSPost2010PropOp35
 70
     1
102
RTVSPost2010Prop36
280
     0
102
RTVSPost2010PropOp36
 70
     1
102
RTVSPost2010Prop37
 90
       50
102
RTVSPost2010PropOp37
 70
     1
102
RTVSPost2010Prop38
140
0.0
102
RTVSPost2010PropOp38
 70
     1
102
RTVSPost2010Prop39
140
1.0
102
RTVSPost2010PropOp39
 70
     1
102
RTVSPost2010Prop40
 90
        0
102
RTVSPost2010PropOp40
 70
     1
102
RTVSPost2010Prop41ColorIndex
 90
       18
102
RTVSPost2010Prop41ColorRGB
 90
        0
102
RTVSPost2010PropOp41
 70
     1
102
RTVSPost2010Prop42
 90
       50
102
RTVSPost2010PropOp42
 70
     1
102
RTVSPost2010Prop43
 90
        3
102
RTVSPost2010PropOp43
 70
     1
102
RTVSPost2010Prop44ColorIndex
 90
        5
102
RTVSPost2010Prop44ColorRGB
 90
      255
102
RTVSPost2010PropOp44
 70
     1
102
RTVSPost2010Prop45
280
     0
102
RTVSPost2010PropOp45
 70
     1
102
RTVSPost2010Prop46
 90
       50
102
RTVSPost2010PropOp46
 70
     1
102
RTVSPost2010Prop47
 90
       50
102
RTVSPost2010PropOp47
 70
     1
102
RTVSPost2010Prop48
 90
       50
102
RTVSPost2010PropOp48
 70
     1
102
RTVSPost2010Prop49
280
     0
102
RTVSPost2010PropOp49
 70
     1
102
RTVSPost2010Prop50
 90
       50
102
RTVSPost2010PropOp50
 70
     1
102
RTVSPost2010Prop51ColorIndex
 90
      256
102
RTVSPost2010Prop51ColorRGB
 90
-16777216
102
RTVSPost2010PropOp51
 70
     0
102
RTVSPost2010Prop52
140
1.0
102
RTVSPost2010PropOp52
 70
     0
102
RTVSPost2010Prop53
 90
        2
102
RTVSPost2010PropOp53
 70
     1
102
RTVSPost2010Prop54
  1
strokes_ogs.tif
102
RTVSPost2010PropOp54
 70
     1
102
RTVSPost2010Prop55
280
     0
102
RTVSPost2010PropOp55
 70
     1
102
RTVSPost2010Prop56
140
1.0
102
RTVSPost2010PropOp56
 70
     1
102
RTVSPost2010Prop57
140
1.0
102
RTVSPost2010PropOp57
 70
     1
  0
ENDSEC
  0
EOF
