  0
SECTION
  2
HEADER
  9
$ACADVER
  1
AC1024
  9
$ACADMAINTVER
 70
   226
  9
$DWGCODEPAGE
  3
ANSI_932
  9
$INSBASE
 10
0.0
 20
0.0
 30
0.0
  9
$EXTMIN
 10
1.000000000000000E+20
 20
1.000000000000000E+20
 30
1.000000000000000E+20
  9
$EXTMAX
 10
-1.000000000000000E+20
 20
-1.000000000000000E+20
 30
-1.000000000000000E+20
  9
$LIMMIN
 10
0.0
 20
0.0
  9
$LIMMAX
 10
12.0
 20
9.0
  9
$ORTHOMODE
 70
     0
  9
$REGENMODE
 70
     1
  9
$FILLMODE
 70
     1
  9
$QTEXTMODE
 70
     0
  9
$MIRRTEXT
 70
     0
  9
$LTSCALE
 40
1.0
  9
$ATTMODE
 70
     1
  9
$TEXTSIZE
 40
0.2
  9
$TRACEWID
 40
0.05
  9
$TEXTSTYLE
  7
Standard
  9
$CLAYER
  8
0
  9
$CELTYPE
  6
ByLayer
  9
$CECOLOR
 62
   256
  9
$CELTSCALE
 40
1.0
  9
$DISPSILH
 70
     0
  9
$DIMSCALE
 40
1.0
  9
$DIMASZ
 40
0.18
  9
$DIMEXO
 40
0.0625
  9
$DIMDLI
 40
0.38
  9
$DIMRND
 40
0.0
  9
$DIMDLE
 40
0.0
  9
$DIMEXE
 40
0.18
  9
$DIMTP
 40
0.0
  9
$DIMTM
 40
0.0
  9
$DIMTXT
 40
0.18
  9
$DIMCEN
 40
0.09
  9
$DIMTSZ
 40
0.0
  9
$DIMTOL
 70
     0
  9
$DIMLIM
 70
     0
  9
$DIMTIH
 70
     1
  9
$DIMTOH
 70
     1
  9
$DIMSE1
 70
     0
  9
$DIMSE2
 70
     0
  9
$DIMTAD
 70
     0
  9
$DIMZIN
 70
     0
  9
$DIMBLK
  1

  9
$DIMASO
 70
     1
  9
$DIMSHO
 70
     1
  9
$DIMPOST
  1

  9
$DIMAPOST
  1

  9
$DIMALT
 70
     0
  9
$DIMALTD
 70
     2
  9
$DIMALTF
 40
25.4
  9
$DIMLFAC
 40
1.0
  9
$DIMTOFL
 70
     0
  9
$DIMTVP
 40
0.0
  9
$DIMTIX
 70
     0
  9
$DIMSOXD
 70
     0
  9
$DIMSAH
 70
     0
  9
$DIMBLK1
  1

  9
$DIMBLK2
  1

  9
$DIMSTYLE
  2
Standard
  9
$DIMCLRD
 70
     0
  9
$DIMCLRE
 70
     0
  9
$DIMCLRT
 70
     0
  9
$DIMTFAC
 40
1.0
  9
$DIMGAP
 40
0.09
  9
$DIMJUST
 70
     0
  9
$DIMSD1
 70
     0
  9
$DIMSD2
 70
     0
  9
$DIMTOLJ
 70
     1
  9
$DIMTZIN
 70
     0
  9
$DIMALTZ
 70
     0
  9
$DIMALTTZ
 70
     0
  9
$DIMUPT
 70
     0
  9
$DIMDEC
 70
     4
  9
$DIMTDEC
 70
     4
  9
$DIMALTU
 70
     2
  9
$DIMALTTD
 70
     2
  9
$DIMTXSTY
  7
Standard
  9
$DIMAUNIT
 70
     0
  9
$DIMADEC
 70
     0
  9
$DIMALTRND
 40
0.0
  9
$DIMAZIN
 70
     0
  9
$DIMDSEP
 70
    46
  9
$DIMATFIT
 70
     3
  9
$DIMFRAC
 70
     0
  9
$DIMLDRBLK
  1

  9
$DIMLUNIT
 70
     2
  9
$DIMLWD
 70
    -2
  9
$DIMLWE
 70
    -2
  9
$DIMTMOVE
 70
     0
  9
$DIMFXL
 40
1.0
  9
$DIMFXLON
 70
     0
  9
$DIMJOGANG
 40
0.7853981633974483
  9
$DIMTFILL
 70
     0
  9
$DIMTFILLCLR
 70
     0
  9
$DIMARCSYM
 70
     0
  9
$DIMLTYPE
  6

  9
$DIMLTEX1
  6

  9
$DIMLTEX2
  6

  9
$DIMTXTDIRECTION
 70
     0
  9
$LUNITS
 70
     2
  9
$LUPREC
 70
     4
  9
$SKETCHINC
 40
0.1
  9
$FILLETRAD
 40
0.0
  9
$AUNITS
 70
     0
  9
$AUPREC
 70
     0
  9
$MENU
  1
.
  9
$ELEVATION
 40
0.0
  9
$PELEVATION
 40
0.0
  9
$THICKNESS
 40
0.0
  9
$LIMCHECK
 70
     0
  9
$CHAMFERA
 40
0.0
  9
$CHAMFERB
 40
0.0
  9
$CHAMFERC
 40
0.0
  9
$CHAMFERD
 40
0.0
  9
$SKPOLY
 70
     0
  9
$TDCREATE
 40
2459569.490312500
  9
$TDUCREATE
 40
2459569.115312500
  9
$TDUPDATE
 40
2459569.490312500
  9
$TDUUPDATE
 40
2459569.115312500
  9
$TDINDWG
 40
0.0000000000
  9
$TDUSRTIMER
 40
0.0000000000
  9
$USRTIMER
 70
     1
  9
$ANGBASE
 50
0.0
  9
$ANGDIR
 70
     0
  9
$PDMODE
 70
     0
  9
$PDSIZE
 40
0.0
  9
$PLINEWID
 40
0.0
  9
$SPLFRAME
 70
     0
  9
$SPLINETYPE
 70
     6
  9
$SPLINESEGS
 70
     8
  9
$HANDSEED
  5
152
  9
$SURFTAB1
 70
     6
  9
$SURFTAB2
 70
     6
  9
$SURFTYPE
 70
     6
  9
$SURFU
 70
     6
  9
$SURFV
 70
     6
  9
$UCSBASE
  2

  9
$UCSNAME
  2

  9
$UCSORG
 10
0.0
 20
0.0
 30
0.0
  9
$UCSXDIR
 10
1.0
 20
0.0
 30
0.0
  9
$UCSYDIR
 10
0.0
 20
1.0
 30
0.0
  9
$UCSORTHOREF
  2

  9
$UCSORTHOVIEW
 70
     0
  9
$UCSORGTOP
 10
0.0
 20
0.0
 30
0.0
  9
$UCSORGBOTTOM
 10
0.0
 20
0.0
 30
0.0
  9
$UCSORGLEFT
 10
0.0
 20
0.0
 30
0.0
  9
$UCSORGRIGHT
 10
0.0
 20
0.0
 30
0.0
  9
$UCSORGFRONT
 10
0.0
 20
0.0
 30
0.0
  9
$UCSORGBACK
 10
0.0
 20
0.0
 30
0.0
  9
$PUCSBASE
  2

  9
$PUCSNAME
  2

  9
$PUCSORG
 10
0.0
 20
0.0
 30
0.0
  9
$PUCSXDIR
 10
1.0
 20
0.0
 30
0.0
  9
$PUCSYDIR
 10
0.0
 20
1.0
 30
0.0
  9
$PUCSORTHOREF
  2

  9
$PUCSORTHOVIEW
 70
     0
  9
$PUCSORGTOP
 10
0.0
 20
0.0
 30
0.0
  9
$PUCSORGBOTTOM
 10
0.0
 20
0.0
 30
0.0
  9
$PUCSORGLEFT
 10
0.0
 20
0.0
 30
0.0
  9
$PUCSORGRIGHT
 10
0.0
 20
0.0
 30
0.0
  9
$PUCSORGFRONT
 10
0.0
 20
0.0
 30
0.0
  9
$PUCSORGBACK
 10
0.0
 20
0.0
 30
0.0
  9
$USERI1
 70
     0
  9
$USERI2
 70
     0
  9
$USERI3
 70
     0
  9
$USERI4
 70
     0
  9
$USERI5
 70
     0
  9
$USERR1
 40
0.0
  9
$USERR2
 40
0.0
  9
$USERR3
 40
0.0
  9
$USERR4
 40
0.0
  9
$USERR5
 40
0.0
  9
$WORLDVIEW
 70
     1
  9
$SHADEDGE
 70
     3
  9
$SHADEDIF
 70
    70
  9
$TILEMODE
 70
     1
  9
$MAXACTVP
 70
    64
  9
$PINSBASE
 10
0.0
 20
0.0
 30
0.0
  9
$PLIMCHECK
 70
     0
  9
$PEXTMIN
 10
1.000000000000000E+20
 20
1.000000000000000E+20
 30
1.000000000000000E+20
  9
$PEXTMAX
 10
-1.000000000000000E+20
 20
-1.000000000000000E+20
 30
-1.000000000000000E+20
  9
$PLIMMIN
 10
0.0
 20
0.0
  9
$PLIMMAX
 10
12.0
 20
9.0
  9
$UNITMODE
 70
     0
  9
$VISRETAIN
 70
     1
  9
$PLINEGEN
 70
     0
  9
$PSLTSCALE
 70
     1
  9
$TREEDEPTH
 70
  3020
  9
$CMLSTYLE
  2
Standard
  9
$CMLJUST
 70
     0
  9
$CMLSCALE
 40
1.0
  9
$PROXYGRAPHICS
 70
     1
  9
$MEASUREMENT
 70
     0
  9
$CELWEIGHT
370
    -1
  9
$ENDCAPS
280
     0
  9
$JOINSTYLE
280
     0
  9
$LWDISPLAY
290
     1
  9
$INSUNITS
 70
     4
  9
$HYPERLINKBASE
  1

  9
$STYLESHEET
  1

  9
$XEDIT
290
     1
  9
$CEPSNTYPE
380
     0
  9
$PSTYLEMODE
290
     1
  9
$FINGERPRINTGUID
  2
{02595BE4-3156-EE4B-8EB1-FCB9B201B7A5}
  9
$VERSIONGUID
  2
{4A4D7030-04A8-A549-9602-10B2964B8510}
  9
$EXTNAMES
290
     1
  9
$PSVPSCALE
 40
0.0
  9
$OLESTARTUP
290
     0
  9
$SORTENTS
280
   127
  9
$INDEXCTL
280
     0
  9
$HIDETEXT
280
     1
  9
$XCLIPFRAME
280
     2
  9
$HALOGAP
280
     0
  9
$OBSCOLOR
 70
   257
  9
$OBSLTYPE
280
     0
  9
$INTERSECTIONDISPLAY
280
     0
  9
$INTERSECTIONCOLOR
 70
   257
  9
$DIMASSOC
280
     2
  9
$PROJECTNAME
  1

  9
$CAMERADISPLAY
290
     0
  9
$LENSLENGTH
 40
50.0
  9
$CAMERAHEIGHT
 40
0.0
  9
$STEPSPERSEC
 40
2.0
  9
$STEPSIZE
 40
6.0
  9
$3DDWFPREC
 40
2.0
  9
$PSOLWIDTH
 40
0.25
  9
$PSOLHEIGHT
 40
4.0
  9
$LOFTANG1
 40
1.570796326794896
  9
$LOFTANG2
 40
1.570796326794896
  9
$LOFTMAG1
 40
0.0
  9
$LOFTMAG2
 40
0.0
  9
$LOFTPARAM
 70
     7
  9
$LOFTNORMALS
280
     1
  9
$LATITUDE
 40
37.795
  9
$LONGITUDE
 40
-122.394
  9
$NORTHDIRECTION
 40
0.0
  9
$TIMEZONE
 70
 -8000
  9
$LIGHTGLYPHDISPLAY
280
     1
  9
$TILEMODELIGHTSYNCH
280
     1
  9
$CMATERIAL
347
11
  9
$SOLIDHIST
280
     0
  9
$SHOWHIST
280
     1
  9
$DWFFRAME
280
     2
  9
$DGNFRAME
280
     0
  9
$REALWORLDSCALE
290
     1
  9
$INTERFERECOLOR
 62
     1
  9
$INTERFEREOBJVS
345
33
  9
$INTERFEREVPVS
346
30
  9
$CSHADOW
280
     0
  9
$SHADOWPLANELOCATION
 40
0.0
  0
ENDSEC
  0
SECTION
  2
CLASSES
  0
CLASS
  1
ACDBDICTIONARYWDFLT
  2
AcDbDictionaryWithDefault
  3
ObjectDBX Classes
 90
        0
 91
        1
280
     0
281
     0
  0
CLASS
  1
MATERIAL
  2
AcDbMaterial
  3
ObjectDBX Classes
 90
     1153
 91
        3
280
     0
281
     0
  0
CLASS
  1
VISUALSTYLE
  2
AcDbVisualStyle
  3
ObjectDBX Classes
 90
     4095
 91
       24
280
     0
281
     0
  0
CLASS
  1
SCALE
  2
AcDbScale
  3
ObjectDBX Classes
 90
     1153
 91
       17
280
     0
281
     0
  0
CLASS
  1
TABLESTYLE
  2
AcDbTableStyle
  3
ObjectDBX Classes
 90
     4095
 91
        1
280
     0
281
     0
  0
CLASS
  1
MLEADERSTYLE
  2
AcDbMLeaderStyle
  3
ACDB_MLEADERSTYLE_CLASS
 90
     4095
 91
        1
280
     0
281
     0
  0
CLASS
  1
ACDBSECTIONVIEWSTYLE
  2
AcDbSectionViewStyle
  3
ObjectDBX Classes
 90
     1025
 91
        1
280
     0
281
     0
  0
CLASS
  1
ACDBDETAILVIEWSTYLE
  2
AcDbDetailViewStyle
  3
ObjectDBX Classes
 90
     1025
 91
        1
280
     0
281
     0
  0
CLASS
  1
DICTIONARYVAR
  2
AcDbDictionaryVar
  3
ObjectDBX Classes
 90
        0
 91
        5
280
     0
281
     0
  0
CLASS
  1
CELLSTYLEMAP
  2
AcDbCellStyleMap
  3
ObjectDBX Classes
 90
     1152
 91
        1
280
     0
281
     0
  0
ENDSEC
  0
SECTION
  2
TABLES
  0
TABLE
  2
VPORT
  5
8
330
0
100
AcDbSymbolTable
 70
     1
  0
VPORT
  5
57
330
8
100
AcDbSymbolTableRecord
100
AcDbViewportTableRecord
  2
*Active
 70
     0
 10
0.0
 20
0.0
 11
1.0
 21
1.0
 12
0.0
 22
0.0
 13
0.0
 23
0.0
 14
1.0
 24
1.0
 15
0.0
 25
0.0
 16
0.0
 26
0.0
 36
1.0
 17
104.9999999737534
 27
-148.4999999628701
 37
0.0
 40
302.939999924255
 41
0.7070707070707534
 42
50.0
 43
0.0
 44
0.0
 50
0.0
 51
0.0
 71
     0
 72
   100
 73
     1
 74
     0
 75
     1
 76
     0
 77
     0
 78
     0
281
     0
 65
     1
110
0.0
120
0.0
130
0.0
111
1.0
121
0.0
131
0.0
112
0.0
122
1.0
132
0.0
 79
     0
146
0.0
 60
     3
 61
     5
292
     1
282
     1
141
0.0
142
0.0
 63
   250
421
  3355443
  0
ENDTAB
  0
TABLE
  2
LTYPE
  5
5
330
0
100
AcDbSymbolTable
 70
     2
  0
LTYPE
  5
5B
330
5
100
AcDbSymbolTableRecord
100
AcDbLinetypeTableRecord
  2
ByBlock
 70
     0
  3

 72
    65
 73
     0
 40
0.0
  0
LTYPE
  5
5C
330
5
100
AcDbSymbolTableRecord
100
AcDbLinetypeTableRecord
  2
ByLayer
 70
     0
  3

 72
    65
 73
     0
 40
0.0
  0
LTYPE
  5
5D
330
5
100
AcDbSymbolTableRecord
100
AcDbLinetypeTableRecord
  2
Continuous
 70
     0
  3
Solid line
 72
    65
 73
     0
 40
0.0
  0
LTYPE
  5
D1
330
5
100
AcDbSymbolTableRecord
100
AcDbLinetypeTableRecord
  2
AI-Linetype-0
 70
     0
  3
Adobe Illustrator Linetype No. 0
 72
    65
 73
     2
 40
1.411111110758333
 49
0.7055555553791667
 74
     0
 49
-0.7055555553791667
 74
     0
  0
ENDTAB
  0
TABLE
  2
LAYER
  5
2
330
0
100
AcDbSymbolTable
 70
     2
  0
LAYER
  5
54
330
2
100
AcDbSymbolTableRecord
100
AcDbLayerTableRecord
  2
0
 70
     0
 62
     7
  6
Continuous
370
    -3
390
F
347
21
  0
LAYER
  5
78
330
2
100
AcDbSymbolTableRecord
100
AcDbLayerTableRecord
  2
レイヤー 1
 70
     0
 62
     7
  6
Continuous
370
     0
390
F
347
21
  0
ENDTAB
  0
TABLE
  2
STYLE
  5
3
330
0
100
AcDbSymbolTable
 70
     2
  0
STYLE
  5
55
330
3
100
AcDbSymbolTableRecord
100
AcDbTextStyleTableRecord
  2
Standard
 70
     0
 40
0.0
 41
1.0
 50
0.0
 71
     0
 42
0.2
  3
txt
  4

  0
STYLE
  5
5A
330
3
100
AcDbSymbolTableRecord
100
AcDbTextStyleTableRecord
  2
Annotative
 70
     0
 40
0.0
 41
1.0
 50
0.0
 71
     0
 42
0.2
  3
txt
  4

1001
AcadAnnotative
1000
AnnotativeData
1002
{
1070
     1
1070
     1
1002
}
  0
ENDTAB
  0
TABLE
  2
VIEW
  5
6
330
0
100
AcDbSymbolTable
 70
     0
  0
ENDTAB
  0
TABLE
  2
UCS
  5
7
330
0
100
AcDbSymbolTable
 70
     0
  0
ENDTAB
  0
TABLE
  2
APPID
  5
9
330
0
100
AcDbSymbolTable
 70
     2
  0
APPID
  5
56
330
9
100
AcDbSymbolTableRecord
100
AcDbRegAppTableRecord
  2
ACAD
 70
     0
  0
APPID
  5
5E
330
9
100
AcDbSymbolTableRecord
100
AcDbRegAppTableRecord
  2
AcadAnnotative
 70
     0
  0
ENDTAB
  0
TABLE
  2
DIMSTYLE
  5
A
330
0
100
AcDbSymbolTable
 70
     2
100
AcDbDimStyleTable
 71
     0
  0
DIMSTYLE
105
58
330
A
100
AcDbSymbolTableRecord
100
AcDbDimStyleTableRecord
  2
Standard
 70
     0
340
55
  0
DIMSTYLE
105
59
330
A
100
AcDbSymbolTableRecord
100
AcDbDimStyleTableRecord
  2
Annotative
 70
     0
340
55
1001
AcadAnnotative
1000
AnnotativeData
1002
{
1070
     1
1070
     1
1002
}
  0
ENDTAB
  0
TABLE
  2
BLOCK_RECORD
  5
1
330
0
100
AcDbSymbolTable
 70
    12
  0
BLOCK_RECORD
  5
70
330
1
100
AcDbSymbolTableRecord
100
AcDbBlockTableRecord
  2
*Model_Space
340
73
 70
     0
280
     1
281
     0
  0
BLOCK_RECORD
  5
6C
330
1
100
AcDbSymbolTableRecord
100
AcDbBlockTableRecord
  2
*Paper_Space
340
6F
 70
     0
280
     1
281
     0
  0
BLOCK_RECORD
  5
74
330
1
100
AcDbSymbolTableRecord
100
AcDbBlockTableRecord
  2
*Paper_Space0
340
77
 70
     0
280
     1
281
     0
  0
BLOCK_RECORD
  5
8C
330
1
100
AcDbSymbolTableRecord
100
AcDbBlockTableRecord
  2
Block_0
340
0
102
{BLKREFS
331
8D
102
}
 70
     0
280
     1
281
     0
  0
BLOCK_RECORD
  5
94
330
1
100
AcDbSymbolTableRecord
100
AcDbBlockTableRecord
  2
Block_1
340
0
102
{BLKREFS
331
95
102
}
 70
     0
280
     1
281
     0
  0
BLOCK_RECORD
  5
98
330
1
100
AcDbSymbolTableRecord
100
AcDbBlockTableRecord
  2
Block_2
340
0
102
{BLKREFS
331
99
102
}
 70
     0
280
     1
281
     0
  0
BLOCK_RECORD
  5
A2
330
1
100
AcDbSymbolTableRecord
100
AcDbBlockTableRecord
  2
Block_3
340
0
102
{BLKREFS
331
A3
102
}
 70
     0
280
     1
281
     0
  0
BLOCK_RECORD
  5
AD
330
1
100
AcDbSymbolTableRecord
100
AcDbBlockTableRecord
  2
Block_4
340
0
102
{BLKREFS
331
AE
102
}
 70
     0
280
     1
281
     0
  0
BLOCK_RECORD
  5
B1
330
1
100
AcDbSymbolTableRecord
100
AcDbBlockTableRecord
  2
Block_5
340
0
102
{BLKREFS
331
B2
102
}
 70
     0
280
     1
281
     0
  0
BLOCK_RECORD
  5
C1
330
1
100
AcDbSymbolTableRecord
100
AcDbBlockTableRecord
  2
Block_6
340
0
102
{BLKREFS
331
C2
102
}
 70
     0
280
     1
281
     0
  0
BLOCK_RECORD
  5
C5
330
1
100
AcDbSymbolTableRecord
100
AcDbBlockTableRecord
  2
Block_7
340
0
102
{BLKREFS
331
C6
102
}
 70
     0
280
     1
281
     0
  0
BLOCK_RECORD
  5
D2
330
1
100
AcDbSymbolTableRecord
100
AcDbBlockTableRecord
  2
Block_8
340
0
102
{BLKREFS
331
D3
102
}
 70
     0
280
     1
281
     0
  0
BLOCK_RECORD
  5
D9
330
1
100
AcDbSymbolTableRecord
100
AcDbBlockTableRecord
  2
Block_9
340
0
102
{BLKREFS
331
DA
102
}
 70
     0
280
     1
281
     0
  0
BLOCK_RECORD
  5
DD
330
1
100
AcDbSymbolTableRecord
100
AcDbBlockTableRecord
  2
Block_10
340
0
102
{BLKREFS
331
DE
102
}
 70
     0
280
     1
281
     0
  0
ENDTAB
  0
ENDSEC
  0
SECTION
  2
BLOCKS
  0
BLOCK
  5
71
330
70
100
AcDbEntity
  8
0
100
AcDbBlockBegin
  2
*Model_Space
 70
     0
 10
0.0
 20
0.0
 30
0.0
  3
*Model_Space
  1

  0
ENDBLK
  5
72
330
70
100
AcDbEntity
  8
0
100
AcDbBlockEnd
  0
BLOCK
  5
6D
330
6C
100
AcDbEntity
 67
     1
  8
0
100
AcDbBlockBegin
  2
*Paper_Space
 70
     0
 10
0.0
 20
0.0
 30
0.0
  3
*Paper_Space
  1

  0
ENDBLK
  5
6E
330
6C
100
AcDbEntity
 67
     1
  8
0
100
AcDbBlockEnd
  0
BLOCK
  5
75
330
74
100
AcDbEntity
 67
     1
  8
0
100
AcDbBlockBegin
  2
*Paper_Space0
 70
     0
 10
0.0
 20
0.0
 30
0.0
  3
*Paper_Space0
  1

  0
ENDBLK
  5
76
330
74
100
AcDbEntity
 67
     1
  8
0
100
AcDbBlockEnd
  0
BLOCK
  5
8E
330
8C
100
AcDbEntity
  8
0
100
AcDbBlockBegin
  2
Block_0
 70
     0
 10
0.0
 20
0.0
 30
0.0
  3
Block_0
  1

  0
SPLINE
  5
90
330
8C
100
AcDbEntity
  8
レイヤー 1
100
AcDbSpline
210
0.0
220
0.0
230
1.0
 70
     9
 71
     3
 72
    53
 73
    49
 74
     0
 42
0.0000000001
 43
0.0000000001
 40
0.0
 40
0.0
 40
0.0
 40
0.0
 40
1.0
 40
1.0
 40
1.0
 40
2.0
 40
2.0
 40
2.0
 40
3.0
 40
3.0
 40
3.0
 40
4.0
 40
4.0
 40
4.0
 40
5.0
 40
5.0
 40
5.0
 40
6.0
 40
6.0
 40
6.0
 40
7.0
 40
7.0
 40
7.0
 40
8.0
 40
8.0
 40
8.0
 40
9.0
 40
9.0
 40
9.0
 40
10.0
 40
10.0
 40
10.0
 40
11.0
 40
11.0
 40
11.0
 40
12.0
 40
12.0
 40
12.0
 40
13.0
 40
13.0
 40
13.0
 40
14.0
 40
14.0
 40
14.0
 40
15.0
 40
15.0
 40
15.0
 40
16.0
 40
16.0
 40
16.0
 40
16.0
 10
82.4802367957862
 20
-155.5116102041776
 30
0.0
 10
82.41340194337235
 20
-155.5116102041776
 30
0.0
 10
82.32693004669258
 20
-155.4947292362999
 30
0.0
 10
82.24028589523854
 20
-155.4313394793713
 30
0.0
 10
82.09231904414705
 20
-155.3214409333918
 30
0.0
 10
82.07440454762375
 20
-155.1901827954038
 30
0.0
 10
82.05804034406883
 20
-155.0823513067155
 30
0.0
 10
82.05804034406883
 20
-155.0823513067155
 30
0.0
 10
82.24752059575756
 20
-155.0823513067155
 30
0.0
 10
82.24752059575756
 20
-155.0823513067155
 30
0.0
 10
82.29437389435696
 20
-155.2811333162144
 30
0.0
 10
82.40237763781955
 20
-155.3107611373876
 30
0.0
 10
82.48195934352882
 20
-155.3107611373876
 30
0.0
 10
82.60081513776993
 20
-155.3107611373876
 30
0.0
 10
82.73069523756387
 20
-155.2111978778638
 30
0.0
 10
82.73069523756387
 20
-154.9786539326095
 30
0.0
 10
82.73069523756387
 20
-154.7226833380554
 30
0.0
 10
82.57738848847024
 20
-154.6527478997049
 30
0.0
 10
82.4747246430098
 20
-154.6527478997049
 30
0.0
 10
82.44750838867632
 20
-154.6527478997049
 30
0.0
 10
82.32693004669258
 20
-154.6527478997049
 30
0.0
 10
82.25113794601709
 20
-154.7819389804017
 30
0.0
 10
82.25113794601709
 20
-154.7819389804017
 30
0.0
 10
82.10144854718297
 20
-154.7629909552329
 30
0.0
 10
82.10144854718297
 20
-154.7629909552329
 30
0.0
 10
82.10144854718297
 20
-154.7629909552329
 30
0.0
 10
82.20411239264342
 20
-153.916530994507
 30
0.0
 10
82.20411239264342
 20
-153.916530994507
 30
0.0
 10
82.20411239264342
 20
-153.916530994507
 30
0.0
 10
82.8678100378768
 20
-153.916530994507
 30
0.0
 10
82.8678100378768
 20
-153.916530994507
 30
0.0
 10
82.8678100378768
 20
-153.916530994507
 30
0.0
 10
82.8678100378768
 20
-154.1111788894236
 30
0.0
 10
82.8678100378768
 20
-154.1111788894236
 30
0.0
 10
82.8678100378768
 20
-154.1111788894236
 30
0.0
 10
82.34312199547325
 20
-154.1111788894236
 30
0.0
 10
82.34312199547325
 20
-154.1111788894236
 30
0.0
 10
82.34312199547325
 20
-154.1111788894236
 30
0.0
 10
82.28713919383794
 20
-154.5342366150123
 30
0.0
 10
82.28713919383794
 20
-154.5342366150123
 30
0.0
 10
82.33933239043947
 20
-154.5004746792568
 30
0.0
 10
82.40961233833857
 20
-154.4601670620794
 30
0.0
 10
82.51089814560492
 20
-154.4601670620794
 30
0.0
 10
82.7272501420786
 20
-154.4601670620794
 30
0.0
 10
82.92913273751425
 20
-154.6465467278314
 30
0.0
 10
82.92913273751425
 20
-154.9597059074406
 30
0.0
 10
82.92913273751425
 20
-155.2769992016321
 30
0.0
 10
82.73792993808289
 20
-155.5116102041776
 30
0.0
 10
82.4802367957862
 20
-155.5116102041776
 30
0.0
  0
HATCH
  5
91
330
8C
100
AcDbEntity
  8
レイヤー 1
 62
   250
420
  2299925
440
 33554687
100
AcDbHatch
 10
0.0
 20
0.0
 30
0.0
210
0.0
220
0.0
230
1.0
  2
SOLID
 70
     1
 71
     1
 91
        1
 92
        1
 93
        1
 72
     4
 94
        3
 73
     0
 74
     0
 95
       53
 96
       49
 40
0.0
 40
0.0
 40
0.0
 40
0.0
 40
1.0
 40
1.0
 40
1.0
 40
2.0
 40
2.0
 40
2.0
 40
3.0
 40
3.0
 40
3.0
 40
4.0
 40
4.0
 40
4.0
 40
5.0
 40
5.0
 40
5.0
 40
6.0
 40
6.0
 40
6.0
 40
7.0
 40
7.0
 40
7.0
 40
8.0
 40
8.0
 40
8.0
 40
9.0
 40
9.0
 40
9.0
 40
10.0
 40
10.0
 40
10.0
 40
11.0
 40
11.0
 40
11.0
 40
12.0
 40
12.0
 40
12.0
 40
13.0
 40
13.0
 40
13.0
 40
14.0
 40
14.0
 40
14.0
 40
15.0
 40
15.0
 40
15.0
 40
16.0
 40
16.0
 40
16.0
 40
16.0
 10
82.4802367957862
 20
-155.5116102041776
 10
82.41340194337235
 20
-155.5116102041776
 10
82.32693004669258
 20
-155.4947292362999
 10
82.24028589523854
 20
-155.4313394793713
 10
82.09231904414705
 20
-155.3214409333918
 10
82.07440454762375
 20
-155.1901827954038
 10
82.05804034406883
 20
-155.0823513067155
 10
82.05804034406883
 20
-155.0823513067155
 10
82.24752059575756
 20
-155.0823513067155
 10
82.24752059575756
 20
-155.0823513067155
 10
82.29437389435696
 20
-155.2811333162144
 10
82.40237763781955
 20
-155.3107611373876
 10
82.48195934352882
 20
-155.3107611373876
 10
82.60081513776993
 20
-155.3107611373876
 10
82.73069523756387
 20
-155.2111978778638
 10
82.73069523756387
 20
-154.9786539326095
 10
82.73069523756387
 20
-154.7226833380554
 10
82.57738848847024
 20
-154.6527478997049
 10
82.4747246430098
 20
-154.6527478997049
 10
82.44750838867632
 20
-154.6527478997049
 10
82.32693004669258
 20
-154.6527478997049
 10
82.25113794601709
 20
-154.7819389804017
 10
82.25113794601709
 20
-154.7819389804017
 10
82.10144854718297
 20
-154.7629909552329
 10
82.10144854718297
 20
-154.7629909552329
 10
82.10144854718297
 20
-154.7629909552329
 10
82.20411239264342
 20
-153.916530994507
 10
82.20411239264342
 20
-153.916530994507
 10
82.20411239264342
 20
-153.916530994507
 10
82.8678100378768
 20
-153.916530994507
 10
82.8678100378768
 20
-153.916530994507
 10
82.8678100378768
 20
-153.916530994507
 10
82.8678100378768
 20
-154.1111788894236
 10
82.8678100378768
 20
-154.1111788894236
 10
82.8678100378768
 20
-154.1111788894236
 10
82.34312199547325
 20
-154.1111788894236
 10
82.34312199547325
 20
-154.1111788894236
 10
82.34312199547325
 20
-154.1111788894236
 10
82.28713919383794
 20
-154.5342366150123
 10
82.28713919383794
 20
-154.5342366150123
 10
82.33933239043947
 20
-154.5004746792568
 10
82.40961233833857
 20
-154.4601670620794
 10
82.51089814560492
 20
-154.4601670620794
 10
82.7272501420786
 20
-154.4601670620794
 10
82.92913273751425
 20
-154.6465467278314
 10
82.92913273751425
 20
-154.9597059074406
 10
82.92913273751425
 20
-155.2769992016321
 10
82.73792993808289
 20
-155.5116102041776
 10
82.4802367957862
 20
-155.5116102041776
 97
        0
 97
        1
330
90
 75
     2
 76
     1
 98
        1
 10
0.0
 20
0.0
450
        0
451
        0
460
0.0
461
0.0
452
        0
462
0.0
453
        0
470

  0
ENDBLK
  5
8F
330
8C
100
AcDbEntity
  8
0
100
AcDbBlockEnd
  0
BLOCK
  5
96
330
94
100
AcDbEntity
  8
0
100
AcDbBlockBegin
  2
Block_1
 70
     0
 10
0.0
 20
0.0
 30
0.0
  3
Block_1
  1

  0
INSERT
  5
99
330
94
100
AcDbEntity
  8
レイヤー 1
100
AcDbBlockReference
  2
Block_2
 10
0.0
 20
0.0
 30
0.0
  0
ENDBLK
  5
97
330
94
100
AcDbEntity
  8
0
100
AcDbBlockEnd
  0
BLOCK
  5
9A
330
98
100
AcDbEntity
  8
0
100
AcDbBlockBegin
  2
Block_2
 70
     0
 10
0.0
 20
0.0
 30
0.0
  3
Block_2
  1

  0
SPLINE
  5
9C
330
98
100
AcDbEntity
  8
レイヤー 1
100
AcDbSpline
210
0.0
220
0.0
230
1.0
 70
    11
 71
     3
 72
    26
 73
    22
 74
     0
 42
0.0000000001
 43
0.0000000001
 40
0.0
 40
0.0
 40
0.0
 40
0.0
 40
1.0
 40
1.0
 40
1.0
 40
2.0
 40
2.0
 40
2.0
 40
3.0
 40
3.0
 40
3.0
 40
4.0
 40
4.0
 40
4.0
 40
5.0
 40
5.0
 40
5.0
 40
6.0
 40
6.0
 40
6.0
 40
7.0
 40
7.0
 40
7.0
 40
7.0
 10
92.95418834481701
 20
-155.461311810093
 30
0.0
 10
92.95418834481701
 20
-155.461311810093
 30
0.0
 10
92.95418834481701
 20
-154.3571587070704
 30
0.0
 10
92.95418834481701
 20
-154.3571587070704
 30
0.0
 10
92.95418834481701
 20
-154.3571587070704
 30
0.0
 10
92.6727240436721
 20
-154.3571587070704
 30
0.0
 10
92.6727240436721
 20
-154.3571587070704
 30
0.0
 10
92.6727240436721
 20
-154.3571587070704
 30
0.0
 10
92.6727240436721
 20
-154.2090196012047
 30
0.0
 10
92.6727240436721
 20
-154.2090196012047
 30
0.0
 10
92.95591089255964
 20
-154.1942056906181
 30
0.0
 10
92.99552949064
 20
-154.0312526741658
 30
0.0
 10
93.02067868768233
 20
-153.9168755040555
 30
0.0
 10
93.02067868768233
 20
-153.9168755040555
 30
0.0
 10
93.14539114424837
 20
-153.9168755040555
 30
0.0
 10
93.14539114424837
 20
-153.9168755040555
 30
0.0
 10
93.14539114424837
 20
-153.9168755040555
 30
0.0
 10
93.14539114424837
 20
-155.461311810093
 30
0.0
 10
93.14539114424837
 20
-155.461311810093
 30
0.0
 10
93.14539114424837
 20
-155.461311810093
 30
0.0
 10
92.95418834481701
 20
-155.461311810093
 30
0.0
 10
92.95418834481701
 20
-155.461311810093
 30
0.0
  0
HATCH
  5
9D
330
98
100
AcDbEntity
  8
レイヤー 1
 62
   250
420
  2299925
440
 33554687
100
AcDbHatch
 10
0.0
 20
0.0
 30
0.0
210
0.0
220
0.0
230
1.0
  2
SOLID
 70
     1
 71
     1
 91
        1
 92
        1
 93
        1
 72
     4
 94
        3
 73
     0
 74
     0
 95
       26
 96
       22
 40
0.0
 40
0.0
 40
0.0
 40
0.0
 40
1.0
 40
1.0
 40
1.0
 40
2.0
 40
2.0
 40
2.0
 40
3.0
 40
3.0
 40
3.0
 40
4.0
 40
4.0
 40
4.0
 40
5.0
 40
5.0
 40
5.0
 40
6.0
 40
6.0
 40
6.0
 40
7.0
 40
7.0
 40
7.0
 40
7.0
 10
92.95418834481701
 20
-155.461311810093
 10
92.95418834481701
 20
-155.461311810093
 10
92.95418834481701
 20
-154.3571587070704
 10
92.95418834481701
 20
-154.3571587070704
 10
92.95418834481701
 20
-154.3571587070704
 10
92.6727240436721
 20
-154.3571587070704
 10
92.6727240436721
 20
-154.3571587070704
 10
92.6727240436721
 20
-154.3571587070704
 10
92.6727240436721
 20
-154.2090196012047
 10
92.6727240436721
 20
-154.2090196012047
 10
92.95591089255964
 20
-154.1942056906181
 10
92.99552949064
 20
-154.0312526741658
 10
93.02067868768233
 20
-153.9168755040555
 10
93.02067868768233
 20
-153.9168755040555
 10
93.14539114424837
 20
-153.9168755040555
 10
93.14539114424837
 20
-153.9168755040555
 10
93.14539114424837
 20
-153.9168755040555
 10
93.14539114424837
 20
-155.461311810093
 10
93.14539114424837
 20
-155.461311810093
 10
93.14539114424837
 20
-155.461311810093
 10
92.95418834481701
 20
-155.461311810093
 10
92.95418834481701
 20
-155.461311810093
 97
        0
 97
        1
330
9C
 75
     2
 76
     1
 98
        1
 10
0.0
 20
0.0
450
        0
451
        0
460
0.0
461
0.0
452
        0
462
0.0
453
        0
470

  0
SPLINE
  5
9E
330
98
100
AcDbEntity
  8
レイヤー 1
100
AcDbSpline
210
0.0
220
0.0
230
1.0
 70
     9
 71
     3
 72
    26
 73
    22
 74
     0
 42
0.0000000001
 43
0.0000000001
 40
0.0
 40
0.0
 40
0.0
 40
0.0
 40
1.0
 40
1.0
 40
1.0
 40
2.0
 40
2.0
 40
2.0
 40
3.0
 40
3.0
 40
3.0
 40
4.0
 40
4.0
 40
4.0
 40
5.0
 40
5.0
 40
5.0
 40
6.0
 40
6.0
 40
6.0
 40
7.0
 40
7.0
 40
7.0
 40
7.0
 10
93.92157115707517
 20
-155.461311810093
 30
0.0
 10
93.92157115707517
 20
-155.461311810093
 30
0.0
 10
93.71968856163952
 20
-155.461311810093
 30
0.0
 10
93.71968856163952
 20
-155.461311810093
 30
0.0
 10
93.7413926631966
 20
-155.1522867450661
 30
0.0
 10
93.9053792082945
 20
-154.6341443840845
 30
0.0
 10
94.2516113045621
 20
-154.1284043668498
 30
0.0
 10
94.2516113045621
 20
-154.1284043668498
 30
0.0
 10
93.53744301046981
 20
-154.1284043668498
 30
0.0
 10
93.53744301046981
 20
-154.1284043668498
 30
0.0
 10
93.53744301046981
 20
-154.1284043668498
 30
0.0
 10
93.53744301046981
 20
-153.9168755040555
 30
0.0
 10
93.53744301046981
 20
-153.9168755040555
 30
0.0
 10
93.53744301046981
 20
-153.9168755040555
 30
0.0
 10
94.45349389999774
 20
-153.9168755040555
 30
0.0
 10
94.45349389999774
 20
-153.9168755040555
 30
0.0
 10
94.45349389999774
 20
-153.9168755040555
 30
0.0
 10
94.45349389999774
 20
-154.1284043668498
 30
0.0
 10
94.45349389999774
 20
-154.1284043668498
 30
0.0
 10
94.17788626117776
 20
-154.4184814067079
 30
0.0
 10
93.95050995915125
 20
-155.0106933206223
 30
0.0
 10
93.92157115707517
 20
-155.461311810093
 30
0.0
  0
HATCH
  5
9F
330
98
100
AcDbEntity
  8
レイヤー 1
 62
   250
420
  2299925
440
 33554687
100
AcDbHatch
 10
0.0
 20
0.0
 30
0.0
210
0.0
220
0.0
230
1.0
  2
SOLID
 70
     1
 71
     1
 91
        1
 92
        1
 93
        1
 72
     4
 94
        3
 73
     0
 74
     0
 95
       26
 96
       22
 40
0.0
 40
0.0
 40
0.0
 40
0.0
 40
1.0
 40
1.0
 40
1.0
 40
2.0
 40
2.0
 40
2.0
 40
3.0
 40
3.0
 40
3.0
 40
4.0
 40
4.0
 40
4.0
 40
5.0
 40
5.0
 40
5.0
 40
6.0
 40
6.0
 40
6.0
 40
7.0
 40
7.0
 40
7.0
 40
7.0
 10
93.92157115707517
 20
-155.461311810093
 10
93.92157115707517
 20
-155.461311810093
 10
93.71968856163952
 20
-155.461311810093
 10
93.71968856163952
 20
-155.461311810093
 10
93.7413926631966
 20
-155.1522867450661
 10
93.9053792082945
 20
-154.6341443840845
 10
94.2516113045621
 20
-154.1284043668498
 10
94.2516113045621
 20
-154.1284043668498
 10
93.53744301046981
 20
-154.1284043668498
 10
93.53744301046981
 20
-154.1284043668498
 10
93.53744301046981
 20
-154.1284043668498
 10
93.53744301046981
 20
-153.9168755040555
 10
93.53744301046981
 20
-153.9168755040555
 10
93.53744301046981
 20
-153.9168755040555
 10
94.45349389999774
 20
-153.9168755040555
 10
94.45349389999774
 20
-153.9168755040555
 10
94.45349389999774
 20
-153.9168755040555
 10
94.45349389999774
 20
-154.1284043668498
 10
94.45349389999774
 20
-154.1284043668498
 10
94.17788626117776
 20
-154.4184814067079
 10
93.95050995915125
 20
-155.0106933206223
 10
93.92157115707517
 20
-155.461311810093
 97
        0
 97
        1
330
9E
 75
     2
 76
     1
 98
        1
 10
0.0
 20
0.0
450
        0
451
        0
460
0.0
461
0.0
452
        0
462
0.0
453
        0
470

  0
ENDBLK
  5
9B
330
98
100
AcDbEntity
  8
0
100
AcDbBlockEnd
  0
BLOCK
  5
A4
330
A2
100
AcDbEntity
  8
0
100
AcDbBlockBegin
  2
Block_3
 70
     0
 10
0.0
 20
0.0
 30
0.0
  3
Block_3
  1

  0
SPLINE
  5
A6
330
A2
100
AcDbEntity
  8
レイヤー 1
100
AcDbSpline
210
0.0
220
0.0
230
1.0
 70
     9
 71
     3
 72
    17
 73
    13
 74
     0
 42
0.0000000001
 43
0.0000000001
 40
0.0
 40
0.0
 40
0.0
 40
0.0
 40
1.0
 40
1.0
 40
1.0
 40
2.0
 40
2.0
 40
2.0
 40
3.0
 40
3.0
 40
3.0
 40
4.0
 40
4.0
 40
4.0
 40
4.0
 10
104.5417670094548
 20
-147.988210683489
 30
0.0
 10
104.5417670094548
 20
-148.2117973804817
 30
0.0
 10
104.7532958722491
 20
-148.2441812780431
 30
0.0
 10
104.8697400996506
 20
-148.2441812780431
 30
0.0
 10
105.0454399693983
 20
-148.2441812780431
 30
0.0
 10
105.2083929858506
 20
-148.1628770245912
 30
0.0
 10
105.2083929858506
 20
-148.0061251800123
 30
0.0
 10
105.2083929858506
 20
-147.9031168250034
 30
0.0
 10
105.1491373435044
 20
-147.7535996809435
 30
0.0
 10
104.8635389277772
 20
-147.7535996809435
 30
0.0
 10
104.6392632116874
 20
-147.7535996809435
 30
0.0
 10
104.5417670094548
 20
-147.8724554751846
 30
0.0
 10
104.5417670094548
 20
-147.988210683489
 30
0.0
  0
SPLINE
  5
A7
330
A2
100
AcDbEntity
  8
レイヤー 1
100
AcDbSpline
210
0.0
220
0.0
230
1.0
 70
     9
 71
     3
 72
    32
 73
    28
 74
     0
 42
0.0000000001
 43
0.0000000001
 40
0.0
 40
0.0
 40
0.0
 40
0.0
 40
1.0
 40
1.0
 40
1.0
 40
2.0
 40
2.0
 40
2.0
 40
3.0
 40
3.0
 40
3.0
 40
4.0
 40
4.0
 40
4.0
 40
5.0
 40
5.0
 40
5.0
 40
6.0
 40
6.0
 40
6.0
 40
7.0
 40
7.0
 40
7.0
 40
8.0
 40
8.0
 40
8.0
 40
9.0
 40
9.0
 40
9.0
 40
9.0
 10
105.4006293139276
 20
-148.0023355749786
 30
0.0
 10
105.4006293139276
 20
-148.4426187779935
 30
0.0
 10
104.8466579598994
 20
-148.4498534785125
 30
0.0
 10
104.6327175302654
 20
-148.4498534785125
 30
0.0
 10
104.4022406423022
 20
-148.4498534785125
 30
0.0
 10
103.7549072006237
 20
-148.4333170201833
 30
0.0
 10
103.7549072006237
 20
-147.9699516774172
 30
0.0
 10
103.7549072006237
 20
-147.8221570811
 30
0.0
 10
103.8248426389743
 20
-147.6130397851453
 30
0.0
 10
104.1569498437524
 20
-147.580655887584
 30
0.0
 10
104.1569498437524
 20
-147.580655887584
 30
0.0
 10
104.1569498437524
 20
-147.7625569292052
 30
0.0
 10
104.1569498437524
 20
-147.7625569292052
 30
0.0
 10
104.0997612586973
 20
-147.7715141774668
 30
0.0
 10
103.9516221528315
 20
-147.7987304318003
 30
0.0
 10
103.9516221528315
 20
-147.9716742251598
 30
0.0
 10
103.9516221528315
 20
-148.2207546287434
 30
0.0
 10
104.2795952430273
 20
-148.2548610740474
 30
0.0
 10
104.4845784243997
 20
-148.2658853796002
 30
0.0
 10
104.4063747568845
 20
-148.1863036738909
 30
0.0
 10
104.3471191145382
 20
-148.1287705792872
 30
0.0
 10
104.3471191145382
 20
-147.973741282451
 30
0.0
 10
104.3471191145382
 20
-147.8204345333574
 30
0.0
 10
104.455295112775
 20
-147.5623968815122
 30
0.0
 10
104.861471870486
 20
-147.5623968815122
 30
0.0
 10
105.1808322219687
 20
-147.5623968815122
 30
0.0
 10
105.4006293139276
 20
-147.7318955793865
 30
0.0
 10
105.4006293139276
 20
-148.0023355749786
 30
0.0
  0
HATCH
  5
A8
330
A2
100
AcDbEntity
  8
レイヤー 1
 62
   250
420
  2299925
440
 33554687
100
AcDbHatch
 10
0.0
 20
0.0
 30
0.0
210
0.0
220
0.0
230
1.0
  2
SOLID
 70
     1
 71
     1
 91
        2
 92
        1
 93
        1
 72
     4
 94
        3
 73
     0
 74
     0
 95
       17
 96
       13
 40
0.0
 40
0.0
 40
0.0
 40
0.0
 40
1.0
 40
1.0
 40
1.0
 40
2.0
 40
2.0
 40
2.0
 40
3.0
 40
3.0
 40
3.0
 40
4.0
 40
4.0
 40
4.0
 40
4.0
 10
104.5417670094548
 20
-147.988210683489
 10
104.5417670094548
 20
-148.2117973804817
 10
104.7532958722491
 20
-148.2441812780431
 10
104.8697400996506
 20
-148.2441812780431
 10
105.0454399693983
 20
-148.2441812780431
 10
105.2083929858506
 20
-148.1628770245912
 10
105.2083929858506
 20
-148.0061251800123
 10
105.2083929858506
 20
-147.9031168250034
 10
105.1491373435044
 20
-147.7535996809435
 10
104.8635389277772
 20
-147.7535996809435
 10
104.6392632116874
 20
-147.7535996809435
 10
104.5417670094548
 20
-147.8724554751846
 10
104.5417670094548
 20
-147.988210683489
 97
        0
 97
        1
330
A6
 92
        1
 93
        1
 72
     4
 94
        3
 73
     0
 74
     0
 95
       32
 96
       28
 40
0.0
 40
0.0
 40
0.0
 40
0.0
 40
1.0
 40
1.0
 40
1.0
 40
2.0
 40
2.0
 40
2.0
 40
3.0
 40
3.0
 40
3.0
 40
4.0
 40
4.0
 40
4.0
 40
5.0
 40
5.0
 40
5.0
 40
6.0
 40
6.0
 40
6.0
 40
7.0
 40
7.0
 40
7.0
 40
8.0
 40
8.0
 40
8.0
 40
9.0
 40
9.0
 40
9.0
 40
9.0
 10
105.4006293139276
 20
-148.0023355749786
 10
105.4006293139276
 20
-148.4426187779935
 10
104.8466579598994
 20
-148.4498534785125
 10
104.6327175302654
 20
-148.4498534785125
 10
104.4022406423022
 20
-148.4498534785125
 10
103.7549072006237
 20
-148.4333170201833
 10
103.7549072006237
 20
-147.9699516774172
 10
103.7549072006237
 20
-147.8221570811
 10
103.8248426389743
 20
-147.6130397851453
 10
104.1569498437524
 20
-147.580655887584
 10
104.1569498437524
 20
-147.580655887584
 10
104.1569498437524
 20
-147.7625569292052
 10
104.1569498437524
 20
-147.7625569292052
 10
104.0997612586973
 20
-147.7715141774668
 10
103.9516221528315
 20
-147.7987304318003
 10
103.9516221528315
 20
-147.9716742251598
 10
103.9516221528315
 20
-148.2207546287434
 10
104.2795952430273
 20
-148.2548610740474
 10
104.4845784243997
 20
-148.2658853796002
 10
104.4063747568845
 20
-148.1863036738909
 10
104.3471191145382
 20
-148.1287705792872
 10
104.3471191145382
 20
-147.973741282451
 10
104.3471191145382
 20
-147.8204345333574
 10
104.455295112775
 20
-147.5623968815122
 10
104.861471870486
 20
-147.5623968815122
 10
105.1808322219687
 20
-147.5623968815122
 10
105.4006293139276
 20
-147.7318955793865
 10
105.4006293139276
 20
-148.0023355749786
 97
        0
 97
        1
330
A7
 75
     2
 76
     1
 98
        1
 10
0.0
 20
0.0
450
        0
451
        0
460
0.0
461
0.0
452
        0
462
0.0
453
        0
470

  0
ENDBLK
  5
A5
330
A2
100
AcDbEntity
  8
0
100
AcDbBlockEnd
  0
BLOCK
  5
AF
330
AD
100
AcDbEntity
  8
0
100
AcDbBlockBegin
  2
Block_4
 70
     0
 10
0.0
 20
0.0
 30
0.0
  3
Block_4
  1

  0
INSERT
  5
B2
330
AD
100
AcDbEntity
  8
レイヤー 1
100
AcDbBlockReference
  2
Block_5
 10
0.0
 20
0.0
 30
0.0
  0
ENDBLK
  5
B0
330
AD
100
AcDbEntity
  8
0
100
AcDbBlockEnd
  0
BLOCK
  5
B3
330
B1
100
AcDbEntity
  8
0
100
AcDbBlockBegin
  2
Block_5
 70
     0
 10
0.0
 20
0.0
 30
0.0
  3
Block_5
  1

  0
SPLINE
  5
B5
330
B1
100
AcDbEntity
  8
レイヤー 1
100
AcDbSpline
210
0.0
220
0.0
230
1.0
 70
     9
 71
     3
 72
    17
 73
    13
 74
     0
 42
0.0000000001
 43
0.0000000001
 40
0.0
 40
0.0
 40
0.0
 40
0.0
 40
1.0
 40
1.0
 40
1.0
 40
2.0
 40
2.0
 40
2.0
 40
3.0
 40
3.0
 40
3.0
 40
4.0
 40
4.0
 40
4.0
 40
4.0
 10
108.1828884278154
 20
-152.0827066677085
 30
0.0
 10
108.1828884278154
 20
-152.2952690591484
 30
0.0
 10
108.4664197862514
 20
-152.3352321667773
 30
0.0
 10
108.8112738443249
 20
-152.3352321667773
 30
0.0
 10
109.1306341958076
 20
-152.3352321667773
 30
0.0
 10
109.439314751286
 20
-152.3045708169586
 30
0.0
 10
109.439314751286
 20
-152.0827066677085
 30
0.0
 10
109.439314751286
 20
-151.8715223144627
 30
0.0
 10
109.1581949596896
 20
-151.8301811686397
 30
0.0
 10
108.8112738443249
 20
-151.8301811686397
 30
0.0
 10
108.4915689832937
 20
-151.8301811686397
 30
0.0
 10
108.1828884278154
 20
-151.862565066201
 30
0.0
 10
108.1828884278154
 20
-152.0827066677085
 30
0.0
  0
SPLINE
  5
B6
330
B1
100
AcDbEntity
  8
レイヤー 1
100
AcDbSpline
210
0.0
220
0.0
230
1.0
 70
     9
 71
     3
 72
    29
 73
    25
 74
     0
 42
0.0000000001
 43
0.0000000001
 40
0.0
 40
0.0
 40
0.0
 40
0.0
 40
1.0
 40
1.0
 40
1.0
 40
2.0
 40
2.0
 40
2.0
 40
3.0
 40
3.0
 40
3.0
 40
4.0
 40
4.0
 40
4.0
 40
5.0
 40
5.0
 40
5.0
 40
6.0
 40
6.0
 40
6.0
 40
7.0
 40
7.0
 40
7.0
 40
8.0
 40
8.0
 40
8.0
 40
8.0
 10
109.4055528155305
 20
-151.7437092719599
 30
0.0
 10
109.6150146210337
 20
-151.8356933214161
 30
0.0
 10
109.6339626462026
 20
-151.9834879177333
 30
0.0
 10
109.6339626462026
 20
-152.0827066677085
 30
0.0
 10
109.6339626462026
 20
-152.2198214680214
 30
0.0
 10
109.5874538571517
 20
-152.3403998100052
 30
0.0
 10
109.4055528155305
 20
-152.421704063457
 30
0.0
 10
109.2109049206139
 20
-152.5098985078795
 30
0.0
 10
108.9738823512287
 20
-152.5260904566601
 30
0.0
 10
108.8112738443249
 20
-152.5260904566601
 30
0.0
 10
108.6672688530415
 20
-152.5260904566601
 30
0.0
 10
108.4154323730697
 20
-152.5119655651706
 30
0.0
 10
108.2166503635708
 20
-152.421704063457
 30
0.0
 10
108.0137342394896
 20
-152.3297200140009
 30
0.0
 10
107.9903075901899
 20
-152.1926052136879
 30
0.0
 10
107.9903075901899
 20
-152.0827066677085
 30
0.0
 10
107.9903075901899
 20
-151.9473144151382
 30
0.0
 10
108.0347493219496
 20
-151.8246690158633
 30
0.0
 10
108.2166503635708
 20
-151.7437092719599
 30
0.0
 10
108.4092312011963
 20
-151.6589599230227
 30
0.0
 10
108.6376410318683
 20
-151.6389783692083
 30
0.0
 10
108.8112738443249
 20
-151.6389783692083
 30
0.0
 10
108.9824950899419
 20
-151.6389783692083
 30
0.0
 10
109.2129719779051
 20
-151.6572373752801
 30
0.0
 10
109.4055528155305
 20
-151.7437092719599
 30
0.0
  0
HATCH
  5
B7
330
B1
100
AcDbEntity
  8
レイヤー 1
 62
   250
420
  2299925
440
 33554687
100
AcDbHatch
 10
0.0
 20
0.0
 30
0.0
210
0.0
220
0.0
230
1.0
  2
SOLID
 70
     1
 71
     1
 91
        2
 92
        1
 93
        1
 72
     4
 94
        3
 73
     0
 74
     0
 95
       17
 96
       13
 40
0.0
 40
0.0
 40
0.0
 40
0.0
 40
1.0
 40
1.0
 40
1.0
 40
2.0
 40
2.0
 40
2.0
 40
3.0
 40
3.0
 40
3.0
 40
4.0
 40
4.0
 40
4.0
 40
4.0
 10
108.1828884278154
 20
-152.0827066677085
 10
108.1828884278154
 20
-152.2952690591484
 10
108.4664197862514
 20
-152.3352321667773
 10
108.8112738443249
 20
-152.3352321667773
 10
109.1306341958076
 20
-152.3352321667773
 10
109.439314751286
 20
-152.3045708169586
 10
109.439314751286
 20
-152.0827066677085
 10
109.439314751286
 20
-151.8715223144627
 10
109.1581949596896
 20
-151.8301811686397
 10
108.8112738443249
 20
-151.8301811686397
 10
108.4915689832937
 20
-151.8301811686397
 10
108.1828884278154
 20
-151.862565066201
 10
108.1828884278154
 20
-152.0827066677085
 97
        0
 97
        1
330
B5
 92
        1
 93
        1
 72
     4
 94
        3
 73
     0
 74
     0
 95
       29
 96
       25
 40
0.0
 40
0.0
 40
0.0
 40
0.0
 40
1.0
 40
1.0
 40
1.0
 40
2.0
 40
2.0
 40
2.0
 40
3.0
 40
3.0
 40
3.0
 40
4.0
 40
4.0
 40
4.0
 40
5.0
 40
5.0
 40
5.0
 40
6.0
 40
6.0
 40
6.0
 40
7.0
 40
7.0
 40
7.0
 40
8.0
 40
8.0
 40
8.0
 40
8.0
 10
109.4055528155305
 20
-151.7437092719599
 10
109.6150146210337
 20
-151.8356933214161
 10
109.6339626462026
 20
-151.9834879177333
 10
109.6339626462026
 20
-152.0827066677085
 10
109.6339626462026
 20
-152.2198214680214
 10
109.5874538571517
 20
-152.3403998100052
 10
109.4055528155305
 20
-152.421704063457
 10
109.2109049206139
 20
-152.5098985078795
 10
108.9738823512287
 20
-152.5260904566601
 10
108.8112738443249
 20
-152.5260904566601
 10
108.6672688530415
 20
-152.5260904566601
 10
108.4154323730697
 20
-152.5119655651706
 10
108.2166503635708
 20
-152.421704063457
 10
108.0137342394896
 20
-152.3297200140009
 10
107.9903075901899
 20
-152.1926052136879
 10
107.9903075901899
 20
-152.0827066677085
 10
107.9903075901899
 20
-151.9473144151382
 10
108.0347493219496
 20
-151.8246690158633
 10
108.2166503635708
 20
-151.7437092719599
 10
108.4092312011963
 20
-151.6589599230227
 10
108.6376410318683
 20
-151.6389783692083
 10
108.8112738443249
 20
-151.6389783692083
 10
108.9824950899419
 20
-151.6389783692083
 10
109.2129719779051
 20
-151.6572373752801
 10
109.4055528155305
 20
-151.7437092719599
 97
        0
 97
        1
330
B6
 75
     2
 76
     1
 98
        1
 10
0.0
 20
0.0
450
        0
451
        0
460
0.0
461
0.0
452
        0
462
0.0
453
        0
470

  0
SPLINE
  5
B8
330
B1
100
AcDbEntity
  8
レイヤー 1
100
AcDbSpline
210
0.0
220
0.0
230
1.0
 70
    11
 71
     3
 72
    17
 73
    13
 74
     0
 42
0.0000000001
 43
0.0000000001
 40
0.0
 40
0.0
 40
0.0
 40
0.0
 40
1.0
 40
1.0
 40
1.0
 40
2.0
 40
2.0
 40
2.0
 40
3.0
 40
3.0
 40
3.0
 40
4.0
 40
4.0
 40
4.0
 40
4.0
 10
109.5833197425694
 20
-151.4560437989415
 30
0.0
 10
109.5833197425694
 20
-151.4560437989415
 30
0.0
 10
109.3314832625977
 20
-151.4560437989415
 30
0.0
 10
109.3314832625977
 20
-151.4560437989415
 30
0.0
 10
109.3314832625977
 20
-151.4560437989415
 30
0.0
 10
109.3314832625977
 20
-151.2414143502105
 30
0.0
 10
109.3314832625977
 20
-151.2414143502105
 30
0.0
 10
109.3314832625977
 20
-151.2414143502105
 30
0.0
 10
109.5833197425694
 20
-151.2414143502105
 30
0.0
 10
109.5833197425694
 20
-151.2414143502105
 30
0.0
 10
109.5833197425694
 20
-151.2414143502105
 30
0.0
 10
109.5833197425694
 20
-151.4560437989415
 30
0.0
 10
109.5833197425694
 20
-151.4560437989415
 30
0.0
  0
HATCH
  5
B9
330
B1
100
AcDbEntity
  8
レイヤー 1
 62
   250
420
  2299925
440
 33554687
100
AcDbHatch
 10
0.0
 20
0.0
 30
0.0
210
0.0
220
0.0
230
1.0
  2
SOLID
 70
     1
 71
     1
 91
        1
 92
        1
 93
        1
 72
     4
 94
        3
 73
     0
 74
     0
 95
       17
 96
       13
 40
0.0
 40
0.0
 40
0.0
 40
0.0
 40
1.0
 40
1.0
 40
1.0
 40
2.0
 40
2.0
 40
2.0
 40
3.0
 40
3.0
 40
3.0
 40
4.0
 40
4.0
 40
4.0
 40
4.0
 10
109.5833197425694
 20
-151.4560437989415
 10
109.5833197425694
 20
-151.4560437989415
 10
109.3314832625977
 20
-151.4560437989415
 10
109.3314832625977
 20
-151.4560437989415
 10
109.3314832625977
 20
-151.4560437989415
 10
109.3314832625977
 20
-151.2414143502105
 10
109.3314832625977
 20
-151.2414143502105
 10
109.3314832625977
 20
-151.2414143502105
 10
109.5833197425694
 20
-151.2414143502105
 10
109.5833197425694
 20
-151.2414143502105
 10
109.5833197425694
 20
-151.2414143502105
 10
109.5833197425694
 20
-151.4560437989415
 10
109.5833197425694
 20
-151.4560437989415
 97
        0
 97
        1
330
B8
 75
     2
 76
     1
 98
        1
 10
0.0
 20
0.0
450
        0
451
        0
460
0.0
461
0.0
452
        0
462
0.0
453
        0
470

  0
SPLINE
  5
BA
330
B1
100
AcDbEntity
  8
レイヤー 1
100
AcDbSpline
210
0.0
220
0.0
230
1.0
 70
    11
 71
     3
 72
    14
 73
    10
 74
     0
 42
0.0000000001
 43
0.0000000001
 40
0.0
 40
0.0
 40
0.0
 40
0.0
 40
1.0
 40
1.0
 40
1.0
 40
2.0
 40
2.0
 40
2.0
 40
3.0
 40
3.0
 40
3.0
 40
3.0
 10
108.3816704373143
 20
-150.5165662601139
 30
0.0
 10
108.3816704373143
 20
-150.5165662601139
 30
0.0
 10
109.0376166177059
 20
-150.9062065594956
 30
0.0
 10
109.0376166177059
 20
-150.9062065594956
 30
0.0
 10
109.0376166177059
 20
-150.9062065594956
 30
0.0
 10
109.0376166177059
 20
-150.5165662601139
 30
0.0
 10
109.0376166177059
 20
-150.5165662601139
 30
0.0
 10
109.0376166177059
 20
-150.5165662601139
 30
0.0
 10
108.3816704373143
 20
-150.5165662601139
 30
0.0
 10
108.3816704373143
 20
-150.5165662601139
 30
0.0
  0
SPLINE
  5
BB
330
B1
100
AcDbEntity
  8
レイヤー 1
100
AcDbSpline
210
0.0
220
0.0
230
1.0
 70
    11
 71
     3
 72
    38
 73
    34
 74
     0
 42
0.0000000001
 43
0.0000000001
 40
0.0
 40
0.0
 40
0.0
 40
0.0
 40
1.0
 40
1.0
 40
1.0
 40
2.0
 40
2.0
 40
2.0
 40
3.0
 40
3.0
 40
3.0
 40
4.0
 40
4.0
 40
4.0
 40
5.0
 40
5.0
 40
5.0
 40
6.0
 40
6.0
 40
6.0
 40
7.0
 40
7.0
 40
7.0
 40
8.0
 40
8.0
 40
8.0
 40
9.0
 40
9.0
 40
9.0
 40
10.0
 40
10.0
 40
10.0
 40
11.0
 40
11.0
 40
11.0
 40
11.0
 10
109.2363986272048
 20
-150.3308756134589
 30
0.0
 10
109.2363986272048
 20
-150.3308756134589
 30
0.0
 10
109.5833197425694
 20
-150.3308756134589
 30
0.0
 10
109.5833197425694
 20
-150.3308756134589
 30
0.0
 10
109.5833197425694
 20
-150.3308756134589
 30
0.0
 10
109.5833197425694
 20
-150.5165662601139
 30
0.0
 10
109.5833197425694
 20
-150.5165662601139
 30
0.0
 10
109.5833197425694
 20
-150.5165662601139
 30
0.0
 10
109.2363986272048
 20
-150.5165662601139
 30
0.0
 10
109.2363986272048
 20
-150.5165662601139
 30
0.0
 10
109.2363986272048
 20
-150.5165662601139
 30
0.0
 10
109.2363986272048
 20
-151.0757052573699
 30
0.0
 10
109.2363986272048
 20
-151.0757052573699
 30
0.0
 10
109.2363986272048
 20
-151.0757052573699
 30
0.0
 10
109.012122911115
 20
-151.0757052573699
 30
0.0
 10
109.012122911115
 20
-151.0757052573699
 30
0.0
 10
109.012122911115
 20
-151.0757052573699
 30
0.0
 10
108.0388834365319
 20
-150.496929215848
 30
0.0
 10
108.0388834365319
 20
-150.496929215848
 30
0.0
 10
108.0388834365319
 20
-150.496929215848
 30
0.0
 10
108.0388834365319
 20
-150.3308756134589
 30
0.0
 10
108.0388834365319
 20
-150.3308756134589
 30
0.0
 10
108.0388834365319
 20
-150.3308756134589
 30
0.0
 10
109.0376166177059
 20
-150.3308756134589
 30
0.0
 10
109.0376166177059
 20
-150.3308756134589
 30
0.0
 10
109.0376166177059
 20
-150.3308756134589
 30
0.0
 10
109.0376166177059
 20
-150.1541422150656
 30
0.0
 10
109.0376166177059
 20
-150.1541422150656
 30
0.0
 10
109.0376166177059
 20
-150.1541422150656
 30
0.0
 10
109.2363986272048
 20
-150.1541422150656
 30
0.0
 10
109.2363986272048
 20
-150.1541422150656
 30
0.0
 10
109.2363986272048
 20
-150.1541422150656
 30
0.0
 10
109.2363986272048
 20
-150.3308756134589
 30
0.0
 10
109.2363986272048
 20
-150.3308756134589
 30
0.0
  0
HATCH
  5
BC
330
B1
100
AcDbEntity
  8
レイヤー 1
 62
   250
420
  2299925
440
 33554687
100
AcDbHatch
 10
0.0
 20
0.0
 30
0.0
210
0.0
220
0.0
230
1.0
  2
SOLID
 70
     1
 71
     1
 91
        2
 92
        1
 93
        1
 72
     4
 94
        3
 73
     0
 74
     0
 95
       14
 96
       10
 40
0.0
 40
0.0
 40
0.0
 40
0.0
 40
1.0
 40
1.0
 40
1.0
 40
2.0
 40
2.0
 40
2.0
 40
3.0
 40
3.0
 40
3.0
 40
3.0
 10
108.3816704373143
 20
-150.5165662601139
 10
108.3816704373143
 20
-150.5165662601139
 10
109.0376166177059
 20
-150.9062065594956
 10
109.0376166177059
 20
-150.9062065594956
 10
109.0376166177059
 20
-150.9062065594956
 10
109.0376166177059
 20
-150.5165662601139
 10
109.0376166177059
 20
-150.5165662601139
 10
109.0376166177059
 20
-150.5165662601139
 10
108.3816704373143
 20
-150.5165662601139
 10
108.3816704373143
 20
-150.5165662601139
 97
        0
 97
        1
330
BA
 92
        1
 93
        1
 72
     4
 94
        3
 73
     0
 74
     0
 95
       38
 96
       34
 40
0.0
 40
0.0
 40
0.0
 40
0.0
 40
1.0
 40
1.0
 40
1.0
 40
2.0
 40
2.0
 40
2.0
 40
3.0
 40
3.0
 40
3.0
 40
4.0
 40
4.0
 40
4.0
 40
5.0
 40
5.0
 40
5.0
 40
6.0
 40
6.0
 40
6.0
 40
7.0
 40
7.0
 40
7.0
 40
8.0
 40
8.0
 40
8.0
 40
9.0
 40
9.0
 40
9.0
 40
10.0
 40
10.0
 40
10.0
 40
11.0
 40
11.0
 40
11.0
 40
11.0
 10
109.2363986272048
 20
-150.3308756134589
 10
109.2363986272048
 20
-150.3308756134589
 10
109.5833197425694
 20
-150.3308756134589
 10
109.5833197425694
 20
-150.3308756134589
 10
109.5833197425694
 20
-150.3308756134589
 10
109.5833197425694
 20
-150.5165662601139
 10
109.5833197425694
 20
-150.5165662601139
 10
109.5833197425694
 20
-150.5165662601139
 10
109.2363986272048
 20
-150.5165662601139
 10
109.2363986272048
 20
-150.5165662601139
 10
109.2363986272048
 20
-150.5165662601139
 10
109.2363986272048
 20
-151.0757052573699
 10
109.2363986272048
 20
-151.0757052573699
 10
109.2363986272048
 20
-151.0757052573699
 10
109.012122911115
 20
-151.0757052573699
 10
109.012122911115
 20
-151.0757052573699
 10
109.012122911115
 20
-151.0757052573699
 10
108.0388834365319
 20
-150.496929215848
 10
108.0388834365319
 20
-150.496929215848
 10
108.0388834365319
 20
-150.496929215848
 10
108.0388834365319
 20
-150.3308756134589
 10
108.0388834365319
 20
-150.3308756134589
 10
108.0388834365319
 20
-150.3308756134589
 10
109.0376166177059
 20
-150.3308756134589
 10
109.0376166177059
 20
-150.3308756134589
 10
109.0376166177059
 20
-150.3308756134589
 10
109.0376166177059
 20
-150.1541422150656
 10
109.0376166177059
 20
-150.1541422150656
 10
109.0376166177059
 20
-150.1541422150656
 10
109.2363986272048
 20
-150.1541422150656
 10
109.2363986272048
 20
-150.1541422150656
 10
109.2363986272048
 20
-150.1541422150656
 10
109.2363986272048
 20
-150.3308756134589
 10
109.2363986272048
 20
-150.3308756134589
 97
        0
 97
        1
330
BB
 75
     2
 76
     1
 98
        1
 10
0.0
 20
0.0
450
        0
451
        0
460
0.0
461
0.0
452
        0
462
0.0
453
        0
470

  0
ENDBLK
  5
B4
330
B1
100
AcDbEntity
  8
0
100
AcDbBlockEnd
  0
BLOCK
  5
C3
330
C1
100
AcDbEntity
  8
0
100
AcDbBlockBegin
  2
Block_6
 70
     0
 10
0.0
 20
0.0
 30
0.0
  3
Block_6
  1

  0
INSERT
  5
C6
330
C1
100
AcDbEntity
  8
レイヤー 1
100
AcDbBlockReference
  2
Block_7
 10
0.0
 20
0.0
 30
0.0
  0
ENDBLK
  5
C4
330
C1
100
AcDbEntity
  8
0
100
AcDbBlockEnd
  0
BLOCK
  5
C7
330
C5
100
AcDbEntity
  8
0
100
AcDbBlockBegin
  2
Block_7
 70
     0
 10
0.0
 20
0.0
 30
0.0
  3
Block_7
  1

  0
SPLINE
  5
C9
330
C5
100
AcDbEntity
  8
レイヤー 1
100
AcDbSpline
210
0.0
220
0.0
230
1.0
 70
    11
 71
     3
 72
    26
 73
    22
 74
     0
 42
0.0000000001
 43
0.0000000001
 40
0.0
 40
0.0
 40
0.0
 40
0.0
 40
1.0
 40
1.0
 40
1.0
 40
2.0
 40
2.0
 40
2.0
 40
3.0
 40
3.0
 40
3.0
 40
4.0
 40
4.0
 40
4.0
 40
5.0
 40
5.0
 40
5.0
 40
6.0
 40
6.0
 40
6.0
 40
7.0
 40
7.0
 40
7.0
 40
7.0
 10
77.30019122416454
 20
-144.5103867911293
 30
0.0
 10
77.30019122416454
 20
-144.5103867911293
 30
0.0
 10
76.19603812114196
 20
-144.5103867911293
 30
0.0
 10
76.19603812114196
 20
-144.5103867911293
 30
0.0
 10
76.19603812114196
 20
-144.5103867911293
 30
0.0
 10
76.19603812114196
 20
-144.7918510922742
 30
0.0
 10
76.19603812114196
 20
-144.7918510922742
 30
0.0
 10
76.19603812114196
 20
-144.7918510922742
 30
0.0
 10
76.04789901527623
 20
-144.7918510922742
 30
0.0
 10
76.04789901527623
 20
-144.7918510922742
 30
0.0
 10
76.03308510468965
 20
-144.5086642433867
 30
0.0
 10
75.87013208823733
 20
-144.4690456453063
 30
0.0
 10
75.75575491812704
 20
-144.443896448264
 30
0.0
 10
75.75575491812704
 20
-144.443896448264
 30
0.0
 10
75.75575491812704
 20
-144.319183991698
 30
0.0
 10
75.75575491812704
 20
-144.319183991698
 30
0.0
 10
75.75575491812704
 20
-144.319183991698
 30
0.0
 10
77.30019122416454
 20
-144.319183991698
 30
0.0
 10
77.30019122416454
 20
-144.319183991698
 30
0.0
 10
77.30019122416454
 20
-144.319183991698
 30
0.0
 10
77.30019122416454
 20
-144.5103867911293
 30
0.0
 10
77.30019122416454
 20
-144.5103867911293
 30
0.0
  0
HATCH
  5
CA
330
C5
100
AcDbEntity
  8
レイヤー 1
 62
   250
420
  2299925
440
 33554687
100
AcDbHatch
 10
0.0
 20
0.0
 30
0.0
210
0.0
220
0.0
230
1.0
  2
SOLID
 70
     1
 71
     1
 91
        1
 92
        1
 93
        1
 72
     4
 94
        3
 73
     0
 74
     0
 95
       26
 96
       22
 40
0.0
 40
0.0
 40
0.0
 40
0.0
 40
1.0
 40
1.0
 40
1.0
 40
2.0
 40
2.0
 40
2.0
 40
3.0
 40
3.0
 40
3.0
 40
4.0
 40
4.0
 40
4.0
 40
5.0
 40
5.0
 40
5.0
 40
6.0
 40
6.0
 40
6.0
 40
7.0
 40
7.0
 40
7.0
 40
7.0
 10
77.30019122416454
 20
-144.5103867911293
 10
77.30019122416454
 20
-144.5103867911293
 10
76.19603812114196
 20
-144.5103867911293
 10
76.19603812114196
 20
-144.5103867911293
 10
76.19603812114196
 20
-144.5103867911293
 10
76.19603812114196
 20
-144.7918510922742
 10
76.19603812114196
 20
-144.7918510922742
 10
76.19603812114196
 20
-144.7918510922742
 10
76.04789901527623
 20
-144.7918510922742
 10
76.04789901527623
 20
-144.7918510922742
 10
76.03308510468965
 20
-144.5086642433867
 10
75.87013208823733
 20
-144.4690456453063
 10
75.75575491812704
 20
-144.443896448264
 10
75.75575491812704
 20
-144.443896448264
 10
75.75575491812704
 20
-144.319183991698
 10
75.75575491812704
 20
-144.319183991698
 10
75.75575491812704
 20
-144.319183991698
 10
77.30019122416454
 20
-144.319183991698
 10
77.30019122416454
 20
-144.319183991698
 10
77.30019122416454
 20
-144.319183991698
 10
77.30019122416454
 20
-144.5103867911293
 10
77.30019122416454
 20
-144.5103867911293
 97
        0
 97
        1
330
C9
 75
     2
 76
     1
 98
        1
 10
0.0
 20
0.0
450
        0
451
        0
460
0.0
461
0.0
452
        0
462
0.0
453
        0
470

  0
SPLINE
  5
CB
330
C5
100
AcDbEntity
  8
レイヤー 1
100
AcDbSpline
210
0.0
220
0.0
230
1.0
 70
    11
 71
     3
 72
    17
 73
    13
 74
     0
 42
0.0000000001
 43
0.0000000001
 40
0.0
 40
0.0
 40
0.0
 40
0.0
 40
1.0
 40
1.0
 40
1.0
 40
2.0
 40
2.0
 40
2.0
 40
3.0
 40
3.0
 40
3.0
 40
4.0
 40
4.0
 40
4.0
 40
4.0
 10
77.30019122416454
 20
-143.8423827765394
 30
0.0
 10
77.30019122416454
 20
-143.8423827765394
 30
0.0
 10
77.04835474419278
 20
-143.8423827765394
 30
0.0
 10
77.04835474419278
 20
-143.8423827765394
 30
0.0
 10
77.04835474419278
 20
-143.8423827765394
 30
0.0
 10
77.04835474419278
 20
-143.6277533278083
 30
0.0
 10
77.04835474419278
 20
-143.6277533278083
 30
0.0
 10
77.04835474419278
 20
-143.6277533278083
 30
0.0
 10
77.30019122416454
 20
-143.6277533278083
 30
0.0
 10
77.30019122416454
 20
-143.6277533278083
 30
0.0
 10
77.30019122416454
 20
-143.6277533278083
 30
0.0
 10
77.30019122416454
 20
-143.8423827765394
 30
0.0
 10
77.30019122416454
 20
-143.8423827765394
 30
0.0
  0
HATCH
  5
CC
330
C5
100
AcDbEntity
  8
レイヤー 1
 62
   250
420
  2299925
440
 33554687
100
AcDbHatch
 10
0.0
 20
0.0
 30
0.0
210
0.0
220
0.0
230
1.0
  2
SOLID
 70
     1
 71
     1
 91
        1
 92
        1
 93
        1
 72
     4
 94
        3
 73
     0
 74
     0
 95
       17
 96
       13
 40
0.0
 40
0.0
 40
0.0
 40
0.0
 40
1.0
 40
1.0
 40
1.0
 40
2.0
 40
2.0
 40
2.0
 40
3.0
 40
3.0
 40
3.0
 40
4.0
 40
4.0
 40
4.0
 40
4.0
 10
77.30019122416454
 20
-143.8423827765394
 10
77.30019122416454
 20
-143.8423827765394
 10
77.04835474419278
 20
-143.8423827765394
 10
77.04835474419278
 20
-143.8423827765394
 10
77.04835474419278
 20
-143.8423827765394
 10
77.04835474419278
 20
-143.6277533278083
 10
77.04835474419278
 20
-143.6277533278083
 10
77.04835474419278
 20
-143.6277533278083
 10
77.30019122416454
 20
-143.6277533278083
 10
77.30019122416454
 20
-143.6277533278083
 10
77.30019122416454
 20
-143.6277533278083
 10
77.30019122416454
 20
-143.8423827765394
 10
77.30019122416454
 20
-143.8423827765394
 97
        0
 97
        1
330
CB
 75
     2
 76
     1
 98
        1
 10
0.0
 20
0.0
450
        0
451
        0
460
0.0
461
0.0
452
        0
462
0.0
453
        0
470

  0
SPLINE
  5
CD
330
C5
100
AcDbEntity
  8
レイヤー 1
100
AcDbSpline
210
0.0
220
0.0
230
1.0
 70
     9
 71
     3
 72
    17
 73
    13
 74
     0
 42
0.0000000001
 43
0.0000000001
 40
0.0
 40
0.0
 40
0.0
 40
0.0
 40
1.0
 40
1.0
 40
1.0
 40
2.0
 40
2.0
 40
2.0
 40
3.0
 40
3.0
 40
3.0
 40
4.0
 40
4.0
 40
4.0
 40
4.0
 10
75.89975990941048
 20
-143.0004014399443
 30
0.0
 10
75.89975990941048
 20
-143.2133083409328
 30
0.0
 10
76.18329126784654
 20
-143.2529269390131
 30
0.0
 10
76.52814532592005
 20
-143.2529269390131
 30
0.0
 10
76.8475056774027
 20
-143.2529269390131
 30
0.0
 10
77.1561862328811
 20
-143.2222655891944
 30
0.0
 10
77.1561862328811
 20
-143.0004014399443
 30
0.0
 10
77.1561862328811
 20
-142.7892170866985
 30
0.0
 10
76.87506644128472
 20
-142.7478759408755
 30
0.0
 10
76.52814532592005
 20
-142.7478759408755
 30
0.0
 10
76.20844046488887
 20
-142.7478759408755
 30
0.0
 10
75.89975990941048
 20
-142.7802598384368
 30
0.0
 10
75.89975990941048
 20
-143.0004014399443
 30
0.0
  0
SPLINE
  5
CE
330
C5
100
AcDbEntity
  8
レイヤー 1
100
AcDbSpline
210
0.0
220
0.0
230
1.0
 70
     9
 71
     3
 72
    29
 73
    25
 74
     0
 42
0.0000000001
 43
0.0000000001
 40
0.0
 40
0.0
 40
0.0
 40
0.0
 40
1.0
 40
1.0
 40
1.0
 40
2.0
 40
2.0
 40
2.0
 40
3.0
 40
3.0
 40
3.0
 40
4.0
 40
4.0
 40
4.0
 40
5.0
 40
5.0
 40
5.0
 40
6.0
 40
6.0
 40
6.0
 40
7.0
 40
7.0
 40
7.0
 40
8.0
 40
8.0
 40
8.0
 40
8.0
 10
77.12242429712564
 20
-142.6614040441957
 30
0.0
 10
77.33188610262884
 20
-142.7533880936519
 30
0.0
 10
77.35083412779771
 20
-142.9011826899691
 30
0.0
 10
77.35083412779771
 20
-143.0004014399443
 30
0.0
 10
77.35083412779771
 20
-143.1375162402573
 30
0.0
 10
77.30432533874683
 20
-143.258094582241
 30
0.0
 10
77.12242429712564
 20
-143.3393988356929
 30
0.0
 10
76.92777640220903
 20
-143.4275932801153
 30
0.0
 10
76.69075383282384
 20
-143.4441297384445
 30
0.0
 10
76.52814532592005
 20
-143.4441297384445
 30
0.0
 10
76.38414033463661
 20
-143.4441297384445
 30
0.0
 10
76.13230385466484
 20
-143.4296603374065
 30
0.0
 10
75.93352184516593
 20
-143.3393988356929
 30
0.0
 10
75.73060572108471
 20
-143.2474147862367
 30
0.0
 10
75.70717907178502
 20
-143.1102999859238
 30
0.0
 10
75.70717907178502
 20
-143.0004014399443
 30
0.0
 10
75.70717907178502
 20
-142.865009187374
 30
0.0
 10
75.75162080354473
 20
-142.7423637880991
 30
0.0
 10
75.93352184516593
 20
-142.6614040441957
 30
0.0
 10
76.1261026827914
 20
-142.5766546952586
 30
0.0
 10
76.35451251346346
 20
-142.5566731414441
 30
0.0
 10
76.52814532592005
 20
-142.5566731414441
 30
0.0
 10
76.69936657153697
 20
-142.5566731414441
 30
0.0
 10
76.92984345950018
 20
-142.574932147516
 30
0.0
 10
77.12242429712564
 20
-142.6614040441957
 30
0.0
  0
HATCH
  5
CF
330
C5
100
AcDbEntity
  8
レイヤー 1
 62
   250
420
  2299925
440
 33554687
100
AcDbHatch
 10
0.0
 20
0.0
 30
0.0
210
0.0
220
0.0
230
1.0
  2
SOLID
 70
     1
 71
     1
 91
        2
 92
        1
 93
        1
 72
     4
 94
        3
 73
     0
 74
     0
 95
       17
 96
       13
 40
0.0
 40
0.0
 40
0.0
 40
0.0
 40
1.0
 40
1.0
 40
1.0
 40
2.0
 40
2.0
 40
2.0
 40
3.0
 40
3.0
 40
3.0
 40
4.0
 40
4.0
 40
4.0
 40
4.0
 10
75.89975990941048
 20
-143.0004014399443
 10
75.89975990941048
 20
-143.2133083409328
 10
76.18329126784654
 20
-143.2529269390131
 10
76.52814532592005
 20
-143.2529269390131
 10
76.8475056774027
 20
-143.2529269390131
 10
77.1561862328811
 20
-143.2222655891944
 10
77.1561862328811
 20
-143.0004014399443
 10
77.1561862328811
 20
-142.7892170866985
 10
76.87506644128472
 20
-142.7478759408755
 10
76.52814532592005
 20
-142.7478759408755
 10
76.20844046488887
 20
-142.7478759408755
 10
75.89975990941048
 20
-142.7802598384368
 10
75.89975990941048
 20
-143.0004014399443
 97
        0
 97
        1
330
CD
 92
        1
 93
        1
 72
     4
 94
        3
 73
     0
 74
     0
 95
       29
 96
       25
 40
0.0
 40
0.0
 40
0.0
 40
0.0
 40
1.0
 40
1.0
 40
1.0
 40
2.0
 40
2.0
 40
2.0
 40
3.0
 40
3.0
 40
3.0
 40
4.0
 40
4.0
 40
4.0
 40
5.0
 40
5.0
 40
5.0
 40
6.0
 40
6.0
 40
6.0
 40
7.0
 40
7.0
 40
7.0
 40
8.0
 40
8.0
 40
8.0
 40
8.0
 10
77.12242429712564
 20
-142.6614040441957
 10
77.33188610262884
 20
-142.7533880936519
 10
77.35083412779771
 20
-142.9011826899691
 10
77.35083412779771
 20
-143.0004014399443
 10
77.35083412779771
 20
-143.1375162402573
 10
77.30432533874683
 20
-143.258094582241
 10
77.12242429712564
 20
-143.3393988356929
 10
76.92777640220903
 20
-143.4275932801153
 10
76.69075383282384
 20
-143.4441297384445
 10
76.52814532592005
 20
-143.4441297384445
 10
76.38414033463661
 20
-143.4441297384445
 10
76.13230385466484
 20
-143.4296603374065
 10
75.93352184516593
 20
-143.3393988356929
 10
75.73060572108471
 20
-143.2474147862367
 10
75.70717907178502
 20
-143.1102999859238
 10
75.70717907178502
 20
-143.0004014399443
 10
75.70717907178502
 20
-142.865009187374
 10
75.75162080354473
 20
-142.7423637880991
 10
75.93352184516593
 20
-142.6614040441957
 10
76.1261026827914
 20
-142.5766546952586
 10
76.35451251346346
 20
-142.5566731414441
 10
76.52814532592005
 20
-142.5566731414441
 10
76.69936657153697
 20
-142.5566731414441
 10
76.92984345950018
 20
-142.574932147516
 10
77.12242429712564
 20
-142.6614040441957
 97
        0
 97
        1
330
CE
 75
     2
 76
     1
 98
        1
 10
0.0
 20
0.0
450
        0
451
        0
460
0.0
461
0.0
452
        0
462
0.0
453
        0
470

  0
ENDBLK
  5
C8
330
C5
100
AcDbEntity
  8
0
100
AcDbBlockEnd
  0
BLOCK
  5
D4
330
D2
100
AcDbEntity
  8
0
100
AcDbBlockBegin
  2
Block_8
 70
     0
 10
0.0
 20
0.0
 30
0.0
  3
Block_8
  1

  0
LINE
  5
D6
330
D2
100
AcDbEntity
  8
レイヤー 1
 62
    18
420
        0
370
     9
100
AcDbLine
 10
96.6914415624813
 20
-150.2137379643345
 30
0.0
 11
96.42459670462093
 21
-149.2499657310635
 31
0.0
  0
LINE
  5
D7
330
D2
100
AcDbEntity
  8
レイヤー 1
 62
    18
420
        0
370
     9
100
AcDbLine
 10
96.6914415624813
 20
-150.2137379643345
 30
0.0
 11
96.65700735510421
 21
-148.5997774015304
 31
0.0
  0
LINE
  5
D8
330
D2
100
AcDbEntity
  8
レイヤー 1
 62
    18
420
        0
370
     9
100
AcDbLine
 10
96.6914415624813
 20
-150.2137379643345
 30
0.0
 11
96.94228963998719
 21
-149.2455575089477
 31
0.0
  0
ENDBLK
  5
D5
330
D2
100
AcDbEntity
  8
0
100
AcDbBlockEnd
  0
BLOCK
  5
DB
330
D9
100
AcDbEntity
  8
0
100
AcDbBlockBegin
  2
Block_9
 70
     0
 10
0.0
 20
0.0
 30
0.0
  3
Block_9
  1

  0
INSERT
  5
DE
330
D9
100
AcDbEntity
  8
レイヤー 1
100
AcDbBlockReference
  2
Block_10
 10
0.0
 20
0.0
 30
0.0
  0
ENDBLK
  5
DC
330
D9
100
AcDbEntity
  8
0
100
AcDbBlockEnd
  0
BLOCK
  5
DF
330
DD
100
AcDbEntity
  8
0
100
AcDbBlockBegin
  2
Block_10
 70
     0
 10
0.0
 20
0.0
 30
0.0
  3
Block_10
  1

  0
SPLINE
  5
E1
330
DD
100
AcDbEntity
  8
レイヤー 1
100
AcDbSpline
210
0.0
220
0.0
230
1.0
 70
     9
 71
     3
 72
    17
 73
    13
 74
     0
 42
0.0000000001
 43
0.0000000001
 40
0.0
 40
0.0
 40
0.0
 40
0.0
 40
1.0
 40
1.0
 40
1.0
 40
2.0
 40
2.0
 40
2.0
 40
3.0
 40
3.0
 40
3.0
 40
4.0
 40
4.0
 40
4.0
 40
4.0
 10
92.70528019600771
 20
-147.5334580794361
 30
0.0
 10
92.68822697335572
 20
-147.562913645835
 30
0.0
 10
92.63758406972256
 20
-147.656103478711
 30
0.0
 10
92.62690427371827
 20
-147.6750515038798
 30
0.0
 10
92.81724579927832
 20
-147.7343071462261
 30
0.0
 10
92.83843313651262
 20
-147.7406805728738
 30
0.0
 10
92.91043563215435
 20
-147.7682413367558
 30
0.0
 10
92.96538490514407
 20
-147.6814249305275
 30
0.0
 10
92.98863929966952
 20
-147.6073553775947
 30
0.0
 10
93.00345321025607
 20
-147.5334580794361
 30
0.0
 10
93.00345321025607
 20
-147.5334580794361
 30
0.0
 10
92.70528019600771
 20
-147.5334580794361
 30
0.0
 10
92.70528019600771
 20
-147.5334580794361
 30
0.0
  0
SPLINE
  5
E2
330
DD
100
AcDbEntity
  8
レイヤー 1
100
AcDbSpline
210
0.0
220
0.0
230
1.0
 70
    11
 71
     3
 72
    20
 73
    16
 74
     0
 42
0.0000000001
 43
0.0000000001
 40
0.0
 40
0.0
 40
0.0
 40
0.0
 40
1.0
 40
1.0
 40
1.0
 40
2.0
 40
2.0
 40
2.0
 40
3.0
 40
3.0
 40
3.0
 40
4.0
 40
4.0
 40
4.0
 40
5.0
 40
5.0
 40
5.0
 40
5.0
 10
92.64171818430485
 20
-146.6830362589021
 30
0.0
 10
92.64171818430485
 20
-146.6830362589021
 30
0.0
 10
92.61002330584055
 20
-146.6830362589021
 30
0.0
 10
92.61002330584055
 20
-146.6830362589021
 30
0.0
 10
92.65653209489142
 20
-146.7824272636516
 30
0.0
 10
92.68822697335572
 20
-146.8626979884579
 30
0.0
 10
92.72216116388543
 20
-146.9896497570894
 30
0.0
 10
92.72216116388543
 20
-146.9896497570894
 30
0.0
 10
92.92938365732322
 20
-146.9896497570894
 30
0.0
 10
92.92938365732322
 20
-146.9896497570894
 30
0.0
 10
92.96125079056178
 20
-146.8966321789876
 30
0.0
 10
92.98450518508721
 20
-146.8120550848247
 30
0.0
 10
93.00775957961265
 20
-146.6830362589021
 30
0.0
 10
93.00775957961265
 20
-146.6830362589021
 30
0.0
 10
92.64171818430485
 20
-146.6830362589021
 30
0.0
 10
92.64171818430485
 20
-146.6830362589021
 30
0.0
  0
SPLINE
  5
E3
330
DD
100
AcDbEntity
  8
レイヤー 1
100
AcDbSpline
210
0.0
220
0.0
230
1.0
 70
     9
 71
     3
 72
   242
 73
   238
 74
     0
 42
0.0000000001
 43
0.0000000001
 40
0.0
 40
0.0
 40
0.0
 40
0.0
 40
1.0
 40
1.0
 40
1.0
 40
2.0
 40
2.0
 40
2.0
 40
3.0
 40
3.0
 40
3.0
 40
4.0
 40
4.0
 40
4.0
 40
5.0
 40
5.0
 40
5.0
 40
6.0
 40
6.0
 40
6.0
 40
7.0
 40
7.0
 40
7.0
 40
8.0
 40
8.0
 40
8.0
 40
9.0
 40
9.0
 40
9.0
 40
10.0
 40
10.0
 40
10.0
 40
11.0
 40
11.0
 40
11.0
 40
12.0
 40
12.0
 40
12.0
 40
13.0
 40
13.0
 40
13.0
 40
14.0
 40
14.0
 40
14.0
 40
15.0
 40
15.0
 40
15.0
 40
16.0
 40
16.0
 40
16.0
 40
17.0
 40
17.0
 40
17.0
 40
18.0
 40
18.0
 40
18.0
 40
19.0
 40
19.0
 40
19.0
 40
20.0
 40
20.0
 40
20.0
 40
21.0
 40
21.0
 40
21.0
 40
22.0
 40
22.0
 40
22.0
 40
23.0
 40
23.0
 40
23.0
 40
24.0
 40
24.0
 40
24.0
 40
25.0
 40
25.0
 40
25.0
 40
26.0
 40
26.0
 40
26.0
 40
27.0
 40
27.0
 40
27.0
 40
28.0
 40
28.0
 40
28.0
 40
29.0
 40
29.0
 40
29.0
 40
30.0
 40
30.0
 40
30.0
 40
31.0
 40
31.0
 40
31.0
 40
32.0
 40
32.0
 40
32.0
 40
33.0
 40
33.0
 40
33.0
 40
34.0
 40
34.0
 40
34.0
 40
35.0
 40
35.0
 40
35.0
 40
36.0
 40
36.0
 40
36.0
 40
37.0
 40
37.0
 40
37.0
 40
38.0
 40
38.0
 40
38.0
 40
39.0
 40
39.0
 40
39.0
 40
40.0
 40
40.0
 40
40.0
 40
41.0
 40
41.0
 40
41.0
 40
42.0
 40
42.0
 40
42.0
 40
43.0
 40
43.0
 40
43.0
 40
44.0
 40
44.0
 40
44.0
 40
45.0
 40
45.0
 40
45.0
 40
46.0
 40
46.0
 40
46.0
 40
47.0
 40
47.0
 40
47.0
 40
48.0
 40
48.0
 40
48.0
 40
49.0
 40
49.0
 40
49.0
 40
50.0
 40
50.0
 40
50.0
 40
51.0
 40
51.0
 40
51.0
 40
52.0
 40
52.0
 40
52.0
 40
53.0
 40
53.0
 40
53.0
 40
54.0
 40
54.0
 40
54.0
 40
55.0
 40
55.0
 40
55.0
 40
56.0
 40
56.0
 40
56.0
 40
57.0
 40
57.0
 40
57.0
 40
58.0
 40
58.0
 40
58.0
 40
59.0
 40
59.0
 40
59.0
 40
60.0
 40
60.0
 40
60.0
 40
61.0
 40
61.0
 40
61.0
 40
62.0
 40
62.0
 40
62.0
 40
63.0
 40
63.0
 40
63.0
 40
64.0
 40
64.0
 40
64.0
 40
65.0
 40
65.0
 40
65.0
 40
66.0
 40
66.0
 40
66.0
 40
67.0
 40
67.0
 40
67.0
 40
68.0
 40
68.0
 40
68.0
 40
69.0
 40
69.0
 40
69.0
 40
70.0
 40
70.0
 40
70.0
 40
71.0
 40
71.0
 40
71.0
 40
72.0
 40
72.0
 40
72.0
 40
73.0
 40
73.0
 40
73.0
 40
74.0
 40
74.0
 40
74.0
 40
75.0
 40
75.0
 40
75.0
 40
76.0
 40
76.0
 40
76.0
 40
77.0
 40
77.0
 40
77.0
 40
78.0
 40
78.0
 40
78.0
 40
79.0
 40
79.0
 40
79.0
 40
79.0
 10
93.27010360081443
 20
-147.1482964041851
 30
0.0
 10
93.27010360081443
 20
-147.1482964041851
 30
0.0
 10
93.0162000635515
 20
-147.1482964041851
 30
0.0
 10
93.0162000635515
 20
-147.1482964041851
 30
0.0
 10
93.0162000635515
 20
-147.1482964041851
 30
0.0
 10
92.73904213176315
 20
-147.1482964041851
 30
0.0
 10
92.73904213176315
 20
-147.1482964041851
 30
0.0
 10
92.73904213176315
 20
-147.1482964041851
 30
0.0
 10
92.8659939003946
 20
-147.1906710786537
 30
0.0
 10
92.8659939003946
 20
-147.1906710786537
 30
0.0
 10
92.87650144162462
 20
-147.1949774480103
 30
0.0
 10
92.88924829492005
 20
-147.2011786198837
 30
0.0
 10
92.88924829492005
 20
-147.2139254731791
 30
0.0
 10
92.88924829492005
 20
-147.2351128104134
 30
0.0
 10
92.85755341645575
 20
-147.2414862370611
 30
0.0
 10
92.83636607922145
 20
-147.2456203516434
 30
0.0
 10
92.82585853799146
 20
-147.2688747461689
 30
0.0
 10
92.79623071681831
 20
-147.3345038151629
 30
0.0
 10
92.77711043687517
 20
-147.3789455469226
 30
0.0
 10
92.77711043687517
 20
-147.3789455469226
 30
0.0
 10
93.0478949420158
 20
-147.3789455469226
 30
0.0
 10
93.0478949420158
 20
-147.3789455469226
 30
0.0
 10
93.13884546282642
 20
-147.3789455469226
 30
0.0
 10
93.33556041503417
 20
-147.3746391775661
 30
0.0
 10
93.4773260942522
 20
-147.3661986936272
 30
0.0
 10
93.4773260942522
 20
-147.3661986936272
 30
0.0
 10
93.4773260942522
 20
-147.5439656206661
 30
0.0
 10
93.4773260942522
 20
-147.5439656206661
 30
0.0
 10
93.39481605738047
 20
-147.5396592513095
 30
0.0
 10
93.37362872014619
 20
-147.5396592513095
 30
0.0
 10
93.19379473581614
 20
-147.5355251367272
 30
0.0
 10
93.16209985735182
 20
-147.6898654144664
 30
0.0
 10
93.11765812559212
 20
-147.770308394047
 30
0.0
 10
93.07321639383239
 20
-147.8400715776233
 30
0.0
 10
93.19379473581614
 20
-147.8993272199696
 30
0.0
 10
93.29973142198758
 20
-147.9670233462548
 30
0.0
 10
93.40325654131932
 20
-148.0495333831265
 30
0.0
 10
93.40325654131932
 20
-148.0495333831265
 30
0.0
 10
93.28491751140099
 20
-148.2166205141611
 30
0.0
 10
93.28491751140099
 20
-148.2166205141611
 30
0.0
 10
93.26166311687556
 20
-148.1976724889922
 30
0.0
 10
93.24891626358015
 20
-148.1892320050534
 30
0.0
 10
93.13677840553525
 20
-148.1044826561162
 30
0.0
 10
93.08803030441897
 20
-148.0664143510042
 30
0.0
 10
93.02894691684693
 20
-148.0305853579576
 30
0.0
 10
92.94850393726635
 20
-147.9861436261979
 30
0.0
 10
92.73697507447201
 20
-148.1723510371756
 30
0.0
 10
92.53164738355112
 20
-148.1956054317011
 30
0.0
 10
92.2419148532416
 20
-148.2252332528742
 30
0.0
 10
92.2419148532416
 20
-148.2252332528742
 30
0.0
 10
92.13821747913559
 20
-148.0453992685442
 30
0.0
 10
92.13821747913559
 20
-148.0453992685442
 30
0.0
 10
92.45551077332711
 20
-148.0410928991876
 30
0.0
 10
92.63121064307483
 20
-148.015771447371
 30
0.0
 10
92.78348386352289
 20
-147.9057006466173
 30
0.0
 10
92.66497257883029
 20
-147.8548854882099
 30
0.0
 10
92.57608911531084
 20
-147.8274969791021
 30
0.0
 10
92.54026012226423
 20
-147.8147501258067
 30
0.0
 10
92.5211398423211
 20
-147.8423108896887
 30
0.0
 10
92.50632593173454
 20
-147.8612589148576
 30
0.0
 10
92.47876516785252
 20
-147.8951931053873
 30
0.0
 10
92.47876516785252
 20
-147.8951931053873
 30
0.0
 10
92.28205021564477
 20
-147.8126830685156
 30
0.0
 10
92.28205021564477
 20
-147.8126830685156
 30
0.0
 10
92.3645602525165
 20
-147.732240088935
 30
0.0
 10
92.42588295215396
 20
-147.6369831987678
 30
0.0
 10
92.4830715372091
 20
-147.5355251367272
 30
0.0
 10
92.29273001164903
 20
-147.5396592513095
 30
0.0
 10
92.27154267441475
 20
-147.5396592513095
 30
0.0
 10
92.18903263754302
 20
-147.5439656206661
 30
0.0
 10
92.18903263754302
 20
-147.5439656206661
 30
0.0
 10
92.18903263754302
 20
-147.3661986936272
 30
0.0
 10
92.18903263754302
 20
-147.3661986936272
 30
0.0
 10
92.32855900469564
 20
-147.3725721202749
 30
0.0
 10
92.53802081019882
 20
-147.3768784896314
 30
0.0
 10
92.56351451678968
 20
-147.3768784896314
 30
0.0
 10
92.5803954846674
 20
-147.3429442991017
 30
0.0
 10
92.63534475765714
 20
-147.222365957118
 30
0.0
 10
92.65446503760028
 20
-147.1482964041851
 30
0.0
 10
92.63534475765714
 20
-147.1482964041851
 30
0.0
 10
92.45775008539251
 20
-147.1546698308328
 30
0.0
 10
92.26310219047588
 20
-147.1674166841283
 30
0.0
 10
92.26310219047588
 20
-147.1674166841283
 30
0.0
 10
92.26310219047588
 20
-147.3007418794074
 30
0.0
 10
92.26310219047588
 20
-147.3007418794074
 30
0.0
 10
92.21435408935962
 20
-147.326063331224
 30
0.0
 10
92.15509844701331
 20
-147.3577582096883
 30
0.0
 10
92.0219455065084
 20
-147.4233872786823
 30
0.0
 10
92.0219455065084
 20
-147.4233872786823
 30
0.0
 10
92.0219455065084
 20
-147.5692870724827
 30
0.0
 10
92.0219455065084
 20
-147.5692870724827
 30
0.0
 10
92.0219455065084
 20
-147.5692870724827
 30
0.0
 10
92.0219455065084
 20
-148.0369587846053
 30
0.0
 10
92.0219455065084
 20
-148.0369587846053
 30
0.0
 10
92.0219455065084
 20
-148.1637382984625
 30
0.0
 10
91.98594425868753
 20
-148.2229939408088
 30
0.0
 10
91.70241290025149
 20
-148.21455345687
 30
0.0
 10
91.70241290025149
 20
-148.21455345687
 30
0.0
 10
91.59871552614546
 20
-148.0073309634322
 30
0.0
 10
91.59871552614546
 20
-148.0073309634322
 30
0.0
 10
91.66227753784832
 20
-148.0199055619533
 30
0.0
 10
91.71085338419034
 20
-148.0242119313099
 30
0.0
 10
91.75116100136776
 20
-148.0242119313099
 30
0.0
 10
91.82729761159178
 20
-148.0242119313099
 30
0.0
 10
91.8378051528218
 20
-148.0009575367845
 30
0.0
 10
91.8378051528218
 20
-147.9353284677904
 30
0.0
 10
91.8378051528218
 20
-147.9353284677904
 30
0.0
 10
91.8378051528218
 20
-147.505897315554
 30
0.0
 10
91.8378051528218
 20
-147.505897315554
 30
0.0
 10
91.74048120536349
 20
-147.5460326779572
 30
0.0
 10
91.72360023748577
 20
-147.5524061046049
 30
0.0
 10
91.6770914484349
 20
-147.5715263845481
 30
0.0
 10
91.67278507907834
 20
-147.5925414670081
 30
0.0
 10
91.66865096449603
 20
-147.6221692881813
 30
0.0
 10
91.6495306845529
 20
-147.6221692881813
 30
0.0
 10
91.64109020061403
 20
-147.6221692881813
 30
0.0
 10
91.63058265938403
 20
-147.6180351735989
 30
0.0
 10
91.62420923273632
 20
-147.5947807790735
 30
0.0
 10
91.62420923273632
 20
-147.5947807790735
 30
0.0
 10
91.57132701703773
 20
-147.402199941448
 30
0.0
 10
91.57132701703773
 20
-147.402199941448
 30
0.0
 10
91.71722681083805
 20
-147.3556911523972
 30
0.0
 10
91.78285587983207
 20
-147.3324367578717
 30
0.0
 10
91.8378051528218
 20
-147.3112494206374
 30
0.0
 10
91.8378051528218
 20
-147.3112494206374
 30
0.0
 10
91.8378051528218
 20
-146.8986992362788
 30
0.0
 10
91.8378051528218
 20
-146.8986992362788
 30
0.0
 10
91.8378051528218
 20
-146.8986992362788
 30
0.0
 10
91.78492293712322
 20
-146.8986992362788
 30
0.0
 10
91.78492293712322
 20
-146.8986992362788
 30
0.0
 10
91.78492293712322
 20
-146.8986992362788
 30
0.0
 10
91.70671926960805
 20
-146.8986992362788
 30
0.0
 10
91.70671926960805
 20
-146.8986992362788
 30
0.0
 10
91.63902314332288
 20
-146.8986992362788
 30
0.0
 10
91.63058265938403
 20
-146.8986992362788
 30
0.0
 10
91.59458141156317
 20
-146.9050726629265
 30
0.0
 10
91.59458141156317
 20
-146.9050726629265
 30
0.0
 10
91.59458141156317
 20
-146.7104247680099
 30
0.0
 10
91.59458141156317
 20
-146.7104247680099
 30
0.0
 10
91.62214217544516
 20
-146.7167981946576
 30
0.0
 10
91.63058265938403
 20
-146.7167981946576
 30
0.0
 10
91.70034584296033
 20
-146.7167981946576
 30
0.0
 10
91.70034584296033
 20
-146.7167981946576
 30
0.0
 10
91.8336710382395
 20
-146.7167981946576
 30
0.0
 10
91.8336710382395
 20
-146.7167981946576
 30
0.0
 10
91.8336710382395
 20
-146.6470350110813
 30
0.0
 10
91.8336710382395
 20
-146.5645249742095
 30
0.0
 10
91.83143172617409
 20
-146.560218604853
 30
0.0
 10
91.82299124223524
 20
-146.3803846205229
 30
0.0
 10
91.82299124223524
 20
-146.3614365953541
 30
0.0
 10
91.82092418494407
 20
-146.3149278063032
 30
0.0
 10
91.82092418494407
 20
-146.3149278063032
 30
0.0
 10
92.03675941709498
 20
-146.3233682902421
 30
0.0
 10
92.03675941709498
 20
-146.3233682902421
 30
0.0
 10
92.047266958325
 20
-146.3233682902421
 30
0.0
 10
92.06845429555928
 20
-146.3254353475332
 30
0.0
 10
92.06845429555928
 20
-146.3423163154109
 30
0.0
 10
92.06845429555928
 20
-146.3614365953541
 30
0.0
 10
92.0536403849727
 20
-146.3719441365841
 30
0.0
 10
92.02831893315611
 20
-146.3910644165272
 30
0.0
 10
92.02831893315611
 20
-146.4417073201604
 30
0.0
 10
92.0219455065084
 20
-146.6702894056067
 30
0.0
 10
92.02401256379955
 20
-146.7167981946576
 30
0.0
 10
92.15303138972215
 20
-146.7167981946576
 30
0.0
 10
92.16577824301758
 20
-146.7167981946576
 30
0.0
 10
92.26310219047588
 20
-146.7083577107187
 30
0.0
 10
92.26310219047588
 20
-146.7083577107187
 30
0.0
 10
92.26310219047588
 20
-146.9030056056354
 30
0.0
 10
92.26310219047588
 20
-146.9030056056354
 30
0.0
 10
92.22503388536388
 20
-146.9007662935699
 30
0.0
 10
92.15733775907873
 20
-146.8966321789876
 30
0.0
 10
92.0219455065084
 20
-146.8986992362788
 30
0.0
 10
92.0219455065084
 20
-146.8986992362788
 30
0.0
 10
92.0219455065084
 20
-147.2371798677046
 30
0.0
 10
92.0219455065084
 20
-147.2371798677046
 30
0.0
 10
92.07689477949815
 20
-147.2139254731791
 30
0.0
 10
92.14252384849215
 20
-147.1863647092971
 30
0.0
 10
92.19109969483417
 20
-147.1631103147717
 30
0.0
 10
92.19109969483417
 20
-147.1631103147717
 30
0.0
 10
92.19109969483417
 20
-146.9855156425071
 30
0.0
 10
92.19109969483417
 20
-146.9855156425071
 30
0.0
 10
92.30530461017021
 20
-146.9980902410282
 30
0.0
 10
92.4238158948628
 20
-146.9980902410282
 30
0.0
 10
92.54026012226423
 20
-146.9980902410282
 30
0.0
 10
92.51683347296454
 20
-146.9030056056354
 30
0.0
 10
92.4894449638568
 20
-146.8204955687636
 30
0.0
 10
92.42588295215396
 20
-146.6871703734844
 30
0.0
 10
92.38144122039422
 20
-146.6892374307756
 30
0.0
 10
92.29910343829676
 20
-146.6935438001321
 30
0.0
 10
92.26086287841047
 20
-146.6956108574233
 30
0.0
 10
92.26086287841047
 20
-146.6956108574233
 30
0.0
 10
92.26086287841047
 20
-146.5157768730932
 30
0.0
 10
92.26086287841047
 20
-146.5157768730932
 30
0.0
 10
92.38574758975079
 20
-146.5242173570321
 30
0.0
 10
92.55920814743312
 20
-146.5285237263887
 30
0.0
 10
92.64171818430485
 20
-146.5285237263887
 30
0.0
 10
92.64171818430485
 20
-146.5285237263887
 30
0.0
 10
92.72422822117659
 20
-146.5285237263887
 30
0.0
 10
92.72422822117659
 20
-146.5285237263887
 30
0.0
 10
92.72422822117659
 20
-146.3655707099364
 30
0.0
 10
92.72422822117659
 20
-146.3550631687064
 30
0.0
 10
92.72216116388543
 20
-146.3001138957166
 30
0.0
 10
92.72216116388543
 20
-146.3001138957166
 30
0.0
 10
92.94643687997519
 20
-146.3254353475332
 30
0.0
 10
92.94643687997519
 20
-146.3254353475332
 30
0.0
 10
92.9505709945575
 20
-146.3254353475332
 30
0.0
 10
92.9717583317918
 20
-146.3275024048243
 30
0.0
 10
92.9717583317918
 20
-146.3443833727021
 30
0.0
 10
92.9717583317918
 20
-146.3591972832887
 30
0.0
 10
92.96125079056178
 20
-146.3678100220018
 30
0.0
 10
92.93369002667978
 20
-146.3826239325884
 30
0.0
 10
92.92731660003205
 20
-146.4480807468081
 30
0.0
 10
92.92524954274091
 20
-146.4692680840424
 30
0.0
 10
92.92524954274091
 20
-146.5285237263887
 30
0.0
 10
92.92524954274091
 20
-146.5285237263887
 30
0.0
 10
93.02033417813381
 20
-146.5285237263887
 30
0.0
 10
93.02033417813381
 20
-146.5285237263887
 30
0.0
 10
93.10284421500554
 20
-146.5285237263887
 30
0.0
 10
93.27630477268789
 20
-146.5242173570321
 30
0.0
 10
93.40118948402817
 20
-146.5157768730932
 30
0.0
 10
93.40118948402817
 20
-146.5157768730932
 30
0.0
 10
93.40118948402817
 20
-146.6956108574233
 30
0.0
 10
93.40118948402817
 20
-146.6956108574233
 30
0.0
 10
93.37156166285502
 20
-146.6935438001321
 30
0.0
 10
93.25305037816244
 20
-146.6892374307756
 30
0.0
 10
93.21291501575927
 20
-146.6871703734844
 30
0.0
 10
93.1981011051727
 20
-146.7379855318919
 30
0.0
 10
93.16433916941724
 20
-146.8501233899368
 30
0.0
 10
93.09871010042325
 20
-146.9896497570894
 30
0.0
 10
93.14091252011754
 20
-146.9896497570894
 30
0.0
 10
93.4180704519059
 20
-146.9707017319205
 30
0.0
 10
93.47939315154334
 20
-146.9684624198551
 30
0.0
 10
93.47939315154334
 20
-146.9684624198551
 30
0.0
 10
93.47939315154334
 20
-147.1526027735417
 30
0.0
 10
93.47939315154334
 20
-147.1526027735417
 30
0.0
 10
93.44993758514446
 20
-147.1526027735417
 30
0.0
 10
93.43288436249247
 20
-147.1482964041851
 30
0.0
 10
93.27010360081443
 20
-147.1482964041851
 30
0.0
  0
HATCH
  5
E4
330
DD
100
AcDbEntity
  8
レイヤー 1
 62
    18
420
        0
440
 33554687
100
AcDbHatch
 10
0.0
 20
0.0
 30
0.0
210
0.0
220
0.0
230
1.0
  2
SOLID
 70
     1
 71
     1
 91
        3
 92
        1
 93
        1
 72
     4
 94
        3
 73
     0
 74
     0
 95
       17
 96
       13
 40
0.0
 40
0.0
 40
0.0
 40
0.0
 40
1.0
 40
1.0
 40
1.0
 40
2.0
 40
2.0
 40
2.0
 40
3.0
 40
3.0
 40
3.0
 40
4.0
 40
4.0
 40
4.0
 40
4.0
 10
92.70528019600771
 20
-147.5334580794361
 10
92.68822697335572
 20
-147.562913645835
 10
92.63758406972256
 20
-147.656103478711
 10
92.62690427371827
 20
-147.6750515038798
 10
92.81724579927832
 20
-147.7343071462261
 10
92.83843313651262
 20
-147.7406805728738
 10
92.91043563215435
 20
-147.7682413367558
 10
92.96538490514407
 20
-147.6814249305275
 10
92.98863929966952
 20
-147.6073553775947
 10
93.00345321025607
 20
-147.5334580794361
 10
93.00345321025607
 20
-147.5334580794361
 10
92.70528019600771
 20
-147.5334580794361
 10
92.70528019600771
 20
-147.5334580794361
 97
        0
 97
        1
330
E1
 92
        1
 93
        1
 72
     4
 94
        3
 73
     0
 74
     0
 95
       20
 96
       16
 40
0.0
 40
0.0
 40
0.0
 40
0.0
 40
1.0
 40
1.0
 40
1.0
 40
2.0
 40
2.0
 40
2.0
 40
3.0
 40
3.0
 40
3.0
 40
4.0
 40
4.0
 40
4.0
 40
5.0
 40
5.0
 40
5.0
 40
5.0
 10
92.64171818430485
 20
-146.6830362589021
 10
92.64171818430485
 20
-146.6830362589021
 10
92.61002330584055
 20
-146.6830362589021
 10
92.61002330584055
 20
-146.6830362589021
 10
92.65653209489142
 20
-146.7824272636516
 10
92.68822697335572
 20
-146.8626979884579
 10
92.72216116388543
 20
-146.9896497570894
 10
92.72216116388543
 20
-146.9896497570894
 10
92.92938365732322
 20
-146.9896497570894
 10
92.92938365732322
 20
-146.9896497570894
 10
92.96125079056178
 20
-146.8966321789876
 10
92.98450518508721
 20
-146.8120550848247
 10
93.00775957961265
 20
-146.6830362589021
 10
93.00775957961265
 20
-146.6830362589021
 10
92.64171818430485
 20
-146.6830362589021
 10
92.64171818430485
 20
-146.6830362589021
 97
        0
 97
        1
330
E2
 92
        1
 93
        1
 72
     4
 94
        3
 73
     0
 74
     0
 95
      242
 96
      238
 40
0.0
 40
0.0
 40
0.0
 40
0.0
 40
1.0
 40
1.0
 40
1.0
 40
2.0
 40
2.0
 40
2.0
 40
3.0
 40
3.0
 40
3.0
 40
4.0
 40
4.0
 40
4.0
 40
5.0
 40
5.0
 40
5.0
 40
6.0
 40
6.0
 40
6.0
 40
7.0
 40
7.0
 40
7.0
 40
8.0
 40
8.0
 40
8.0
 40
9.0
 40
9.0
 40
9.0
 40
10.0
 40
10.0
 40
10.0
 40
11.0
 40
11.0
 40
11.0
 40
12.0
 40
12.0
 40
12.0
 40
13.0
 40
13.0
 40
13.0
 40
14.0
 40
14.0
 40
14.0
 40
15.0
 40
15.0
 40
15.0
 40
16.0
 40
16.0
 40
16.0
 40
17.0
 40
17.0
 40
17.0
 40
18.0
 40
18.0
 40
18.0
 40
19.0
 40
19.0
 40
19.0
 40
20.0
 40
20.0
 40
20.0
 40
21.0
 40
21.0
 40
21.0
 40
22.0
 40
22.0
 40
22.0
 40
23.0
 40
23.0
 40
23.0
 40
24.0
 40
24.0
 40
24.0
 40
25.0
 40
25.0
 40
25.0
 40
26.0
 40
26.0
 40
26.0
 40
27.0
 40
27.0
 40
27.0
 40
28.0
 40
28.0
 40
28.0
 40
29.0
 40
29.0
 40
29.0
 40
30.0
 40
30.0
 40
30.0
 40
31.0
 40
31.0
 40
31.0
 40
32.0
 40
32.0
 40
32.0
 40
33.0
 40
33.0
 40
33.0
 40
34.0
 40
34.0
 40
34.0
 40
35.0
 40
35.0
 40
35.0
 40
36.0
 40
36.0
 40
36.0
 40
37.0
 40
37.0
 40
37.0
 40
38.0
 40
38.0
 40
38.0
 40
39.0
 40
39.0
 40
39.0
 40
40.0
 40
40.0
 40
40.0
 40
41.0
 40
41.0
 40
41.0
 40
42.0
 40
42.0
 40
42.0
 40
43.0
 40
43.0
 40
43.0
 40
44.0
 40
44.0
 40
44.0
 40
45.0
 40
45.0
 40
45.0
 40
46.0
 40
46.0
 40
46.0
 40
47.0
 40
47.0
 40
47.0
 40
48.0
 40
48.0
 40
48.0
 40
49.0
 40
49.0
 40
49.0
 40
50.0
 40
50.0
 40
50.0
 40
51.0
 40
51.0
 40
51.0
 40
52.0
 40
52.0
 40
52.0
 40
53.0
 40
53.0
 40
53.0
 40
54.0
 40
54.0
 40
54.0
 40
55.0
 40
55.0
 40
55.0
 40
56.0
 40
56.0
 40
56.0
 40
57.0
 40
57.0
 40
57.0
 40
58.0
 40
58.0
 40
58.0
 40
59.0
 40
59.0
 40
59.0
 40
60.0
 40
60.0
 40
60.0
 40
61.0
 40
61.0
 40
61.0
 40
62.0
 40
62.0
 40
62.0
 40
63.0
 40
63.0
 40
63.0
 40
64.0
 40
64.0
 40
64.0
 40
65.0
 40
65.0
 40
65.0
 40
66.0
 40
66.0
 40
66.0
 40
67.0
 40
67.0
 40
67.0
 40
68.0
 40
68.0
 40
68.0
 40
69.0
 40
69.0
 40
69.0
 40
70.0
 40
70.0
 40
70.0
 40
71.0
 40
71.0
 40
71.0
 40
72.0
 40
72.0
 40
72.0
 40
73.0
 40
73.0
 40
73.0
 40
74.0
 40
74.0
 40
74.0
 40
75.0
 40
75.0
 40
75.0
 40
76.0
 40
76.0
 40
76.0
 40
77.0
 40
77.0
 40
77.0
 40
78.0
 40
78.0
 40
78.0
 40
79.0
 40
79.0
 40
79.0
 40
79.0
 10
93.27010360081443
 20
-147.1482964041851
 10
93.27010360081443
 20
-147.1482964041851
 10
93.0162000635515
 20
-147.1482964041851
 10
93.0162000635515
 20
-147.1482964041851
 10
93.0162000635515
 20
-147.1482964041851
 10
92.73904213176315
 20
-147.1482964041851
 10
92.73904213176315
 20
-147.1482964041851
 10
92.73904213176315
 20
-147.1482964041851
 10
92.8659939003946
 20
-147.1906710786537
 10
92.8659939003946
 20
-147.1906710786537
 10
92.87650144162462
 20
-147.1949774480103
 10
92.88924829492005
 20
-147.2011786198837
 10
92.88924829492005
 20
-147.2139254731791
 10
92.88924829492005
 20
-147.2351128104134
 10
92.85755341645575
 20
-147.2414862370611
 10
92.83636607922145
 20
-147.2456203516434
 10
92.82585853799146
 20
-147.2688747461689
 10
92.79623071681831
 20
-147.3345038151629
 10
92.77711043687517
 20
-147.3789455469226
 10
92.77711043687517
 20
-147.3789455469226
 10
93.0478949420158
 20
-147.3789455469226
 10
93.0478949420158
 20
-147.3789455469226
 10
93.13884546282642
 20
-147.3789455469226
 10
93.33556041503417
 20
-147.3746391775661
 10
93.4773260942522
 20
-147.3661986936272
 10
93.4773260942522
 20
-147.3661986936272
 10
93.4773260942522
 20
-147.5439656206661
 10
93.4773260942522
 20
-147.5439656206661
 10
93.39481605738047
 20
-147.5396592513095
 10
93.37362872014619
 20
-147.5396592513095
 10
93.19379473581614
 20
-147.5355251367272
 10
93.16209985735182
 20
-147.6898654144664
 10
93.11765812559212
 20
-147.770308394047
 10
93.07321639383239
 20
-147.8400715776233
 10
93.19379473581614
 20
-147.8993272199696
 10
93.29973142198758
 20
-147.9670233462548
 10
93.40325654131932
 20
-148.0495333831265
 10
93.40325654131932
 20
-148.0495333831265
 10
93.28491751140099
 20
-148.2166205141611
 10
93.28491751140099
 20
-148.2166205141611
 10
93.26166311687556
 20
-148.1976724889922
 10
93.24891626358015
 20
-148.1892320050534
 10
93.13677840553525
 20
-148.1044826561162
 10
93.08803030441897
 20
-148.0664143510042
 10
93.02894691684693
 20
-148.0305853579576
 10
92.94850393726635
 20
-147.9861436261979
 10
92.73697507447201
 20
-148.1723510371756
 10
92.53164738355112
 20
-148.1956054317011
 10
92.2419148532416
 20
-148.2252332528742
 10
92.2419148532416
 20
-148.2252332528742
 10
92.13821747913559
 20
-148.0453992685442
 10
92.13821747913559
 20
-148.0453992685442
 10
92.45551077332711
 20
-148.0410928991876
 10
92.63121064307483
 20
-148.015771447371
 10
92.78348386352289
 20
-147.9057006466173
 10
92.66497257883029
 20
-147.8548854882099
 10
92.57608911531084
 20
-147.8274969791021
 10
92.54026012226423
 20
-147.8147501258067
 10
92.5211398423211
 20
-147.8423108896887
 10
92.50632593173454
 20
-147.8612589148576
 10
92.47876516785252
 20
-147.8951931053873
 10
92.47876516785252
 20
-147.8951931053873
 10
92.28205021564477
 20
-147.8126830685156
 10
92.28205021564477
 20
-147.8126830685156
 10
92.3645602525165
 20
-147.732240088935
 10
92.42588295215396
 20
-147.6369831987678
 10
92.4830715372091
 20
-147.5355251367272
 10
92.29273001164903
 20
-147.5396592513095
 10
92.27154267441475
 20
-147.5396592513095
 10
92.18903263754302
 20
-147.5439656206661
 10
92.18903263754302
 20
-147.5439656206661
 10
92.18903263754302
 20
-147.3661986936272
 10
92.18903263754302
 20
-147.3661986936272
 10
92.32855900469564
 20
-147.3725721202749
 10
92.53802081019882
 20
-147.3768784896314
 10
92.56351451678968
 20
-147.3768784896314
 10
92.5803954846674
 20
-147.3429442991017
 10
92.63534475765714
 20
-147.222365957118
 10
92.65446503760028
 20
-147.1482964041851
 10
92.63534475765714
 20
-147.1482964041851
 10
92.45775008539251
 20
-147.1546698308328
 10
92.26310219047588
 20
-147.1674166841283
 10
92.26310219047588
 20
-147.1674166841283
 10
92.26310219047588
 20
-147.3007418794074
 10
92.26310219047588
 20
-147.3007418794074
 10
92.21435408935962
 20
-147.326063331224
 10
92.15509844701331
 20
-147.3577582096883
 10
92.0219455065084
 20
-147.4233872786823
 10
92.0219455065084
 20
-147.4233872786823
 10
92.0219455065084
 20
-147.5692870724827
 10
92.0219455065084
 20
-147.5692870724827
 10
92.0219455065084
 20
-147.5692870724827
 10
92.0219455065084
 20
-148.0369587846053
 10
92.0219455065084
 20
-148.0369587846053
 10
92.0219455065084
 20
-148.1637382984625
 10
91.98594425868753
 20
-148.2229939408088
 10
91.70241290025149
 20
-148.21455345687
 10
91.70241290025149
 20
-148.21455345687
 10
91.59871552614546
 20
-148.0073309634322
 10
91.59871552614546
 20
-148.0073309634322
 10
91.66227753784832
 20
-148.0199055619533
 10
91.71085338419034
 20
-148.0242119313099
 10
91.75116100136776
 20
-148.0242119313099
 10
91.82729761159178
 20
-148.0242119313099
 10
91.8378051528218
 20
-148.0009575367845
 10
91.8378051528218
 20
-147.9353284677904
 10
91.8378051528218
 20
-147.9353284677904
 10
91.8378051528218
 20
-147.505897315554
 10
91.8378051528218
 20
-147.505897315554
 10
91.74048120536349
 20
-147.5460326779572
 10
91.72360023748577
 20
-147.5524061046049
 10
91.6770914484349
 20
-147.5715263845481
 10
91.67278507907834
 20
-147.5925414670081
 10
91.66865096449603
 20
-147.6221692881813
 10
91.6495306845529
 20
-147.6221692881813
 10
91.64109020061403
 20
-147.6221692881813
 10
91.63058265938403
 20
-147.6180351735989
 10
91.62420923273632
 20
-147.5947807790735
 10
91.62420923273632
 20
-147.5947807790735
 10
91.57132701703773
 20
-147.402199941448
 10
91.57132701703773
 20
-147.402199941448
 10
91.71722681083805
 20
-147.3556911523972
 10
91.78285587983207
 20
-147.3324367578717
 10
91.8378051528218
 20
-147.3112494206374
 10
91.8378051528218
 20
-147.3112494206374
 10
91.8378051528218
 20
-146.8986992362788
 10
91.8378051528218
 20
-146.8986992362788
 10
91.8378051528218
 20
-146.8986992362788
 10
91.78492293712322
 20
-146.8986992362788
 10
91.78492293712322
 20
-146.8986992362788
 10
91.78492293712322
 20
-146.8986992362788
 10
91.70671926960805
 20
-146.8986992362788
 10
91.70671926960805
 20
-146.8986992362788
 10
91.63902314332288
 20
-146.8986992362788
 10
91.63058265938403
 20
-146.8986992362788
 10
91.59458141156317
 20
-146.9050726629265
 10
91.59458141156317
 20
-146.9050726629265
 10
91.59458141156317
 20
-146.7104247680099
 10
91.59458141156317
 20
-146.7104247680099
 10
91.62214217544516
 20
-146.7167981946576
 10
91.63058265938403
 20
-146.7167981946576
 10
91.70034584296033
 20
-146.7167981946576
 10
91.70034584296033
 20
-146.7167981946576
 10
91.8336710382395
 20
-146.7167981946576
 10
91.8336710382395
 20
-146.7167981946576
 10
91.8336710382395
 20
-146.6470350110813
 10
91.8336710382395
 20
-146.5645249742095
 10
91.83143172617409
 20
-146.560218604853
 10
91.82299124223524
 20
-146.3803846205229
 10
91.82299124223524
 20
-146.3614365953541
 10
91.82092418494407
 20
-146.3149278063032
 10
91.82092418494407
 20
-146.3149278063032
 10
92.03675941709498
 20
-146.3233682902421
 10
92.03675941709498
 20
-146.3233682902421
 10
92.047266958325
 20
-146.3233682902421
 10
92.06845429555928
 20
-146.3254353475332
 10
92.06845429555928
 20
-146.3423163154109
 10
92.06845429555928
 20
-146.3614365953541
 10
92.0536403849727
 20
-146.3719441365841
 10
92.02831893315611
 20
-146.3910644165272
 10
92.02831893315611
 20
-146.4417073201604
 10
92.0219455065084
 20
-146.6702894056067
 10
92.02401256379955
 20
-146.7167981946576
 10
92.15303138972215
 20
-146.7167981946576
 10
92.16577824301758
 20
-146.7167981946576
 10
92.26310219047588
 20
-146.7083577107187
 10
92.26310219047588
 20
-146.7083577107187
 10
92.26310219047588
 20
-146.9030056056354
 10
92.26310219047588
 20
-146.9030056056354
 10
92.22503388536388
 20
-146.9007662935699
 10
92.15733775907873
 20
-146.8966321789876
 10
92.0219455065084
 20
-146.8986992362788
 10
92.0219455065084
 20
-146.8986992362788
 10
92.0219455065084
 20
-147.2371798677046
 10
92.0219455065084
 20
-147.2371798677046
 10
92.07689477949815
 20
-147.2139254731791
 10
92.14252384849215
 20
-147.1863647092971
 10
92.19109969483417
 20
-147.1631103147717
 10
92.19109969483417
 20
-147.1631103147717
 10
92.19109969483417
 20
-146.9855156425071
 10
92.19109969483417
 20
-146.9855156425071
 10
92.30530461017021
 20
-146.9980902410282
 10
92.4238158948628
 20
-146.9980902410282
 10
92.54026012226423
 20
-146.9980902410282
 10
92.51683347296454
 20
-146.9030056056354
 10
92.4894449638568
 20
-146.8204955687636
 10
92.42588295215396
 20
-146.6871703734844
 10
92.38144122039422
 20
-146.6892374307756
 10
92.29910343829676
 20
-146.6935438001321
 10
92.26086287841047
 20
-146.6956108574233
 10
92.26086287841047
 20
-146.6956108574233
 10
92.26086287841047
 20
-146.5157768730932
 10
92.26086287841047
 20
-146.5157768730932
 10
92.38574758975079
 20
-146.5242173570321
 10
92.55920814743312
 20
-146.5285237263887
 10
92.64171818430485
 20
-146.5285237263887
 10
92.64171818430485
 20
-146.5285237263887
 10
92.72422822117659
 20
-146.5285237263887
 10
92.72422822117659
 20
-146.5285237263887
 10
92.72422822117659
 20
-146.3655707099364
 10
92.72422822117659
 20
-146.3550631687064
 10
92.72216116388543
 20
-146.3001138957166
 10
92.72216116388543
 20
-146.3001138957166
 10
92.94643687997519
 20
-146.3254353475332
 10
92.94643687997519
 20
-146.3254353475332
 10
92.9505709945575
 20
-146.3254353475332
 10
92.9717583317918
 20
-146.3275024048243
 10
92.9717583317918
 20
-146.3443833727021
 10
92.9717583317918
 20
-146.3591972832887
 10
92.96125079056178
 20
-146.3678100220018
 10
92.93369002667978
 20
-146.3826239325884
 10
92.92731660003205
 20
-146.4480807468081
 10
92.92524954274091
 20
-146.4692680840424
 10
92.92524954274091
 20
-146.5285237263887
 10
92.92524954274091
 20
-146.5285237263887
 10
93.02033417813381
 20
-146.5285237263887
 10
93.02033417813381
 20
-146.5285237263887
 10
93.10284421500554
 20
-146.5285237263887
 10
93.27630477268789
 20
-146.5242173570321
 10
93.40118948402817
 20
-146.5157768730932
 10
93.40118948402817
 20
-146.5157768730932
 10
93.40118948402817
 20
-146.6956108574233
 10
93.40118948402817
 20
-146.6956108574233
 10
93.37156166285502
 20
-146.6935438001321
 10
93.25305037816244
 20
-146.6892374307756
 10
93.21291501575927
 20
-146.6871703734844
 10
93.1981011051727
 20
-146.7379855318919
 10
93.16433916941724
 20
-146.8501233899368
 10
93.09871010042325
 20
-146.9896497570894
 10
93.14091252011754
 20
-146.9896497570894
 10
93.4180704519059
 20
-146.9707017319205
 10
93.47939315154334
 20
-146.9684624198551
 10
93.47939315154334
 20
-146.9684624198551
 10
93.47939315154334
 20
-147.1526027735417
 10
93.47939315154334
 20
-147.1526027735417
 10
93.44993758514446
 20
-147.1526027735417
 10
93.43288436249247
 20
-147.1482964041851
 10
93.27010360081443
 20
-147.1482964041851
 97
        0
 97
        1
330
E3
 75
     2
 76
     1
 98
        1
 10
0.0
 20
0.0
450
        0
451
        0
460
0.0
461
0.0
452
        0
462
0.0
453
        0
470

  0
SPLINE
  5
E5
330
DD
100
AcDbEntity
  8
レイヤー 1
100
AcDbSpline
210
0.0
220
0.0
230
1.0
 70
    11
 71
     3
 72
    17
 73
    13
 74
     0
 42
0.0000000001
 43
0.0000000001
 40
0.0
 40
0.0
 40
0.0
 40
0.0
 40
1.0
 40
1.0
 40
1.0
 40
2.0
 40
2.0
 40
2.0
 40
3.0
 40
3.0
 40
3.0
 40
4.0
 40
4.0
 40
4.0
 40
4.0
 10
95.1264933030413
 20
-147.9480753210859
 30
0.0
 10
95.1264933030413
 20
-147.9480753210859
 30
0.0
 10
94.41990421901655
 20
-147.9480753210859
 30
0.0
 10
94.41990421901655
 20
-147.9480753210859
 30
0.0
 10
94.41990421901655
 20
-147.9480753210859
 30
0.0
 10
94.41990421901655
 20
-148.0622802364219
 30
0.0
 10
94.41990421901655
 20
-148.0622802364219
 30
0.0
 10
94.41990421901655
 20
-148.0622802364219
 30
0.0
 10
95.1264933030413
 20
-148.0622802364219
 30
0.0
 10
95.1264933030413
 20
-148.0622802364219
 30
0.0
 10
95.1264933030413
 20
-148.0622802364219
 30
0.0
 10
95.1264933030413
 20
-147.9480753210859
 30
0.0
 10
95.1264933030413
 20
-147.9480753210859
 30
0.0
  0
SPLINE
  5
E6
330
DD
100
AcDbEntity
  8
レイヤー 1
100
AcDbSpline
210
0.0
220
0.0
230
1.0
 70
    11
 71
     3
 72
    17
 73
    13
 74
     0
 42
0.0000000001
 43
0.0000000001
 40
0.0
 40
0.0
 40
0.0
 40
0.0
 40
1.0
 40
1.0
 40
1.0
 40
2.0
 40
2.0
 40
2.0
 40
3.0
 40
3.0
 40
3.0
 40
4.0
 40
4.0
 40
4.0
 40
4.0
 10
95.1264933030413
 20
-147.704679325053
 30
0.0
 10
95.1264933030413
 20
-147.704679325053
 30
0.0
 10
94.41990421901655
 20
-147.704679325053
 30
0.0
 10
94.41990421901655
 20
-147.704679325053
 30
0.0
 10
94.41990421901655
 20
-147.704679325053
 30
0.0
 10
94.41990421901655
 20
-147.8190564951633
 30
0.0
 10
94.41990421901655
 20
-147.8190564951633
 30
0.0
 10
94.41990421901655
 20
-147.8190564951633
 30
0.0
 10
95.1264933030413
 20
-147.8190564951633
 30
0.0
 10
95.1264933030413
 20
-147.8190564951633
 30
0.0
 10
95.1264933030413
 20
-147.8190564951633
 30
0.0
 10
95.1264933030413
 20
-147.704679325053
 30
0.0
 10
95.1264933030413
 20
-147.704679325053
 30
0.0
  0
SPLINE
  5
E7
330
DD
100
AcDbEntity
  8
レイヤー 1
100
AcDbSpline
210
0.0
220
0.0
230
1.0
 70
    11
 71
     3
 72
    17
 73
    13
 74
     0
 42
0.0000000001
 43
0.0000000001
 40
0.0
 40
0.0
 40
0.0
 40
0.0
 40
1.0
 40
1.0
 40
1.0
 40
2.0
 40
2.0
 40
2.0
 40
3.0
 40
3.0
 40
3.0
 40
4.0
 40
4.0
 40
4.0
 40
4.0
 10
95.1264933030413
 20
-147.4719631250244
 30
0.0
 10
95.1264933030413
 20
-147.4719631250244
 30
0.0
 10
94.41990421901655
 20
-147.4719631250244
 30
0.0
 10
94.41990421901655
 20
-147.4719631250244
 30
0.0
 10
94.41990421901655
 20
-147.4719631250244
 30
0.0
 10
94.41990421901655
 20
-147.5799668684869
 30
0.0
 10
94.41990421901655
 20
-147.5799668684869
 30
0.0
 10
94.41990421901655
 20
-147.5799668684869
 30
0.0
 10
95.1264933030413
 20
-147.5799668684869
 30
0.0
 10
95.1264933030413
 20
-147.5799668684869
 30
0.0
 10
95.1264933030413
 20
-147.5799668684869
 30
0.0
 10
95.1264933030413
 20
-147.4719631250244
 30
0.0
 10
95.1264933030413
 20
-147.4719631250244
 30
0.0
  0
SPLINE
  5
E8
330
DD
100
AcDbEntity
  8
レイヤー 1
100
AcDbSpline
210
0.0
220
0.0
230
1.0
 70
     9
 71
     3
 72
   203
 73
   199
 74
     0
 42
0.0000000001
 43
0.0000000001
 40
0.0
 40
0.0
 40
0.0
 40
0.0
 40
1.0
 40
1.0
 40
1.0
 40
2.0
 40
2.0
 40
2.0
 40
3.0
 40
3.0
 40
3.0
 40
4.0
 40
4.0
 40
4.0
 40
5.0
 40
5.0
 40
5.0
 40
6.0
 40
6.0
 40
6.0
 40
7.0
 40
7.0
 40
7.0
 40
8.0
 40
8.0
 40
8.0
 40
9.0
 40
9.0
 40
9.0
 40
10.0
 40
10.0
 40
10.0
 40
11.0
 40
11.0
 40
11.0
 40
12.0
 40
12.0
 40
12.0
 40
13.0
 40
13.0
 40
13.0
 40
14.0
 40
14.0
 40
14.0
 40
15.0
 40
15.0
 40
15.0
 40
16.0
 40
16.0
 40
16.0
 40
17.0
 40
17.0
 40
17.0
 40
18.0
 40
18.0
 40
18.0
 40
19.0
 40
19.0
 40
19.0
 40
20.0
 40
20.0
 40
20.0
 40
21.0
 40
21.0
 40
21.0
 40
22.0
 40
22.0
 40
22.0
 40
23.0
 40
23.0
 40
23.0
 40
24.0
 40
24.0
 40
24.0
 40
25.0
 40
25.0
 40
25.0
 40
26.0
 40
26.0
 40
26.0
 40
27.0
 40
27.0
 40
27.0
 40
28.0
 40
28.0
 40
28.0
 40
29.0
 40
29.0
 40
29.0
 40
30.0
 40
30.0
 40
30.0
 40
31.0
 40
31.0
 40
31.0
 40
32.0
 40
32.0
 40
32.0
 40
33.0
 40
33.0
 40
33.0
 40
34.0
 40
34.0
 40
34.0
 40
35.0
 40
35.0
 40
35.0
 40
36.0
 40
36.0
 40
36.0
 40
37.0
 40
37.0
 40
37.0
 40
38.0
 40
38.0
 40
38.0
 40
39.0
 40
39.0
 40
39.0
 40
40.0
 40
40.0
 40
40.0
 40
41.0
 40
41.0
 40
41.0
 40
42.0
 40
42.0
 40
42.0
 40
43.0
 40
43.0
 40
43.0
 40
44.0
 40
44.0
 40
44.0
 40
45.0
 40
45.0
 40
45.0
 40
46.0
 40
46.0
 40
46.0
 40
47.0
 40
47.0
 40
47.0
 40
48.0
 40
48.0
 40
48.0
 40
49.0
 40
49.0
 40
49.0
 40
50.0
 40
50.0
 40
50.0
 40
51.0
 40
51.0
 40
51.0
 40
52.0
 40
52.0
 40
52.0
 40
53.0
 40
53.0
 40
53.0
 40
54.0
 40
54.0
 40
54.0
 40
55.0
 40
55.0
 40
55.0
 40
56.0
 40
56.0
 40
56.0
 40
57.0
 40
57.0
 40
57.0
 40
58.0
 40
58.0
 40
58.0
 40
59.0
 40
59.0
 40
59.0
 40
60.0
 40
60.0
 40
60.0
 40
61.0
 40
61.0
 40
61.0
 40
62.0
 40
62.0
 40
62.0
 40
63.0
 40
63.0
 40
63.0
 40
64.0
 40
64.0
 40
64.0
 40
65.0
 40
65.0
 40
65.0
 40
66.0
 40
66.0
 40
66.0
 40
66.0
 10
94.96147322929784
 20
-147.2159925304703
 30
0.0
 10
94.96147322929784
 20
-147.2159925304703
 30
0.0
 10
94.40302325113883
 20
-147.2159925304703
 30
0.0
 10
94.40302325113883
 20
-147.2159925304703
 30
0.0
 10
94.39234345513455
 20
-147.26043426223
 30
0.0
 10
94.38390297119569
 20
-147.2921291406943
 30
0.0
 10
94.37132837267453
 20
-147.3303697005806
 30
0.0
 10
94.39664982449112
 20
-147.3303697005806
 30
0.0
 10
94.41146373507768
 20
-147.3324367578717
 30
0.0
 10
94.4178371617254
 20
-147.3324367578717
 30
0.0
 10
94.4178371617254
 20
-147.3324367578717
 30
0.0
 10
94.60611162999432
 20
-147.3324367578717
 30
0.0
 10
94.60611162999432
 20
-147.3324367578717
 30
0.0
 10
94.60611162999432
 20
-147.3324367578717
 30
0.0
 10
94.98059350924096
 20
-147.3324367578717
 30
0.0
 10
94.98059350924096
 20
-147.3324367578717
 30
0.0
 10
95.03123641287414
 20
-147.3324367578717
 30
0.0
 10
95.3147677713102
 20
-147.3196899045763
 30
0.0
 10
95.3464626497745
 20
-147.3196899045763
 30
0.0
 10
95.34439559248335
 20
-147.3472506684583
 30
0.0
 10
95.34232853519219
 20
-147.3661986936272
 30
0.0
 10
95.34232853519219
 20
-147.3958265148003
 30
0.0
 10
95.34008922312677
 20
-147.4275213932646
 30
0.0
 10
95.34008922312677
 20
-147.562913645835
 30
0.0
 10
95.34008922312677
 20
-147.5904744097169
 30
0.0
 10
95.34008922312677
 20
-147.5904744097169
 30
0.0
 10
95.34008922312677
 20
-147.835937463041
 30
0.0
 10
95.34008922312677
 20
-147.835937463041
 30
0.0
 10
95.34008922312677
 20
-147.8803791948007
 30
0.0
 10
95.34439559248335
 20
-148.0770941470085
 30
0.0
 10
95.34870196183991
 20
-148.2293673674565
 30
0.0
 10
95.34870196183991
 20
-148.2293673674565
 30
0.0
 10
95.12218693368472
 20
-148.2293673674565
 30
0.0
 10
95.12218693368472
 20
-148.2293673674565
 30
0.0
 10
95.12218693368472
 20
-148.2293673674565
 30
0.0
 10
95.12442624575013
 20
-148.1956054317011
 30
0.0
 10
95.12442624575013
 20
-148.1956054317011
 30
0.0
 10
95.12442624575013
 20
-148.1956054317011
 30
0.0
 10
94.4219712763077
 20
-148.1956054317011
 30
0.0
 10
94.4219712763077
 20
-148.1956054317011
 30
0.0
 10
94.4219712763077
 20
-148.1956054317011
 30
0.0
 10
94.42421058837311
 20
-148.2293673674565
 30
0.0
 10
94.42421058837311
 20
-148.2293673674565
 30
0.0
 10
94.42421058837311
 20
-148.2293673674565
 30
0.0
 10
94.20630829893106
 20
-148.2293673674565
 30
0.0
 10
94.20630829893106
 20
-148.2293673674565
 30
0.0
 10
94.21044241351337
 20
-148.1744180944668
 30
0.0
 10
94.21044241351337
 20
-148.1616712411714
 30
0.0
 10
94.21681584016107
 20
-148.0474663258353
 30
0.0
 10
94.21888289745224
 20
-148.0199055619533
 30
0.0
 10
94.22112220951765
 20
-147.8867526214484
 30
0.0
 10
94.22112220951765
 20
-147.8676323415053
 30
0.0
 10
94.22112220951765
 20
-147.8676323415053
 30
0.0
 10
94.22112220951765
 20
-147.6645439626498
 30
0.0
 10
94.22112220951765
 20
-147.6645439626498
 30
0.0
 10
94.08142358759077
 20
-147.9141411305562
 30
0.0
 10
93.91226939926498
 20
-148.0453992685442
 30
0.0
 10
93.80650496786783
 20
-148.110856082764
 30
0.0
 10
93.80650496786783
 20
-148.110856082764
 30
0.0
 10
93.63287215541124
 20
-147.9713297156113
 30
0.0
 10
93.63287215541124
 20
-147.9713297156113
 30
0.0
 10
93.72175561893067
 20
-147.9205145572039
 30
0.0
 10
93.86558835543985
 20
-147.8336981509756
 30
0.0
 10
94.0032199200756
 20
-147.6392225108332
 30
0.0
 10
94.09417044088618
 20
-147.5122707422018
 30
0.0
 10
94.15979950988019
 20
-147.3684380056926
 30
0.0
 10
94.19356144563563
 20
-147.2159925304703
 30
0.0
 10
93.96515161496358
 20
-147.2182318425357
 30
0.0
 10
93.78531763063355
 20
-147.2246052691834
 30
0.0
 10
93.69006074046637
 20
-147.2266723264746
 30
0.0
 10
93.69006074046637
 20
-147.2266723264746
 30
0.0
 10
93.69006074046637
 20
-147.0489053994357
 30
0.0
 10
93.69006074046637
 20
-147.0489053994357
 30
0.0
 10
93.88677569267414
 20
-147.0552788260834
 30
0.0
 10
94.1703070511102
 20
-147.0595851954399
 30
0.0
 10
94.3205132142671
 20
-147.0595851954399
 30
0.0
 10
94.3205132142671
 20
-147.0595851954399
 30
0.0
 10
94.53410913435259
 20
-147.0595851954399
 30
0.0
 10
94.53410913435259
 20
-147.0595851954399
 30
0.0
 10
94.53410913435259
 20
-147.0595851954399
 30
0.0
 10
94.53410913435259
 20
-146.9515814519773
 30
0.0
 10
94.53410913435259
 20
-146.9515814519773
 30
0.0
 10
94.53410913435259
 20
-146.9515814519773
 30
0.0
 10
94.38820934055225
 20
-146.9515814519773
 30
0.0
 10
94.38820934055225
 20
-146.9515814519773
 30
0.0
 10
94.21888289745224
 20
-146.9515814519773
 30
0.0
 10
94.04972870912645
 20
-146.9558878213339
 30
0.0
 10
93.88264157809185
 20
-146.9622612479817
 30
0.0
 10
93.88264157809185
 20
-146.9622612479817
 30
0.0
 10
93.88264157809185
 20
-146.7908677475905
 30
0.0
 10
93.88264157809185
 20
-146.7908677475905
 30
0.0
 10
94.03698185583102
 20
-146.8013752888205
 30
0.0
 10
94.22318926680878
 20
-146.8013752888205
 30
0.0
 10
94.38820934055225
 20
-146.8013752888205
 30
0.0
 10
94.38820934055225
 20
-146.8013752888205
 30
0.0
 10
94.53410913435259
 20
-146.8013752888205
 30
0.0
 10
94.53410913435259
 20
-146.8013752888205
 30
0.0
 10
94.53410913435259
 20
-146.8013752888205
 30
0.0
 10
94.53410913435259
 20
-146.6830362589021
 30
0.0
 10
94.53410913435259
 20
-146.6830362589021
 30
0.0
 10
94.53410913435259
 20
-146.6830362589021
 30
0.0
 10
94.40302325113883
 20
-146.6830362589021
 30
0.0
 10
94.40302325113883
 20
-146.6830362589021
 30
0.0
 10
94.35651446208796
 20
-146.6830362589021
 30
0.0
 10
94.15342608323248
 20
-146.691476742841
 30
0.0
 10
94.11105140876392
 20
-146.691476742841
 30
0.0
 10
93.90796302990843
 20
-146.6956108574233
 30
0.0
 10
93.8318264196844
 20
-146.6976779147145
 30
0.0
 10
93.75362275216923
 20
-146.6999172267799
 30
0.0
 10
93.75362275216923
 20
-146.6999172267799
 30
0.0
 10
93.75362275216923
 20
-146.5157768730932
 30
0.0
 10
93.75362275216923
 20
-146.5157768730932
 30
0.0
 10
93.86782766750526
 20
-146.5242173570321
 30
0.0
 10
93.91226939926498
 20
-146.5242173570321
 30
0.0
 10
94.29519176245051
 20
-146.5328300957453
 30
0.0
 10
94.23162975074765
 20
-146.4375732055781
 30
0.0
 10
94.20406898686565
 20
-146.4100124416961
 30
0.0
 10
94.16823999381906
 20
-146.3740111938752
 30
0.0
 10
94.16823999381906
 20
-146.3740111938752
 30
0.0
 10
94.34376760879253
 20
-146.2915011570035
 30
0.0
 10
94.34376760879253
 20
-146.2915011570035
 30
0.0
 10
94.38390297119569
 20
-146.3275024048243
 30
0.0
 10
94.42834470295542
 20
-146.3698770792929
 30
0.0
 10
94.50241425588828
 20
-146.4797756252724
 30
0.0
 10
94.50241425588828
 20
-146.4797756252724
 30
0.0
 10
94.38820934055225
 20
-146.5348971530364
 30
0.0
 10
94.38820934055225
 20
-146.5348971530364
 30
0.0
 10
94.38820934055225
 20
-146.5348971530364
 30
0.0
 10
94.39871688178227
 20
-146.5348971530364
 30
0.0
 10
94.39871688178227
 20
-146.5348971530364
 30
0.0
 10
94.39871688178227
 20
-146.5348971530364
 30
0.0
 10
94.92133786689468
 20
-146.5348971530364
 30
0.0
 10
94.92133786689468
 20
-146.5348971530364
 30
0.0
 10
94.92133786689468
 20
-146.5348971530364
 30
0.0
 10
94.8260809767275
 20
-146.4904554212767
 30
0.0
 10
94.8260809767275
 20
-146.4904554212767
 30
0.0
 10
94.85364174060951
 20
-146.4523871161647
 30
0.0
 10
94.91065807089039
 20
-146.3719441365841
 30
0.0
 10
94.92547198147697
 20
-146.2978745836512
 30
0.0
 10
94.92547198147697
 20
-146.2978745836512
 30
0.0
 10
95.13924015633673
 20
-146.3614365953541
 30
0.0
 10
95.13924015633673
 20
-146.3614365953541
 30
0.0
 10
95.14768064027558
 20
-146.3635036526452
 30
0.0
 10
95.16886797750988
 20
-146.3740111938752
 30
0.0
 10
95.16886797750988
 20
-146.3951985311095
 30
0.0
 10
95.16886797750988
 20
-146.4332668362215
 30
0.0
 10
95.10323890851585
 20
-146.4332668362215
 30
0.0
 10
95.08411862857272
 20
-146.4332668362215
 30
0.0
 10
95.0736110873427
 20
-146.4523871161647
 30
0.0
 10
95.05035669281728
 20
-146.4925224785678
 30
0.0
 10
95.02072887164413
 20
-146.5328300957453
 30
0.0
 10
95.42053220270737
 20
-146.5264566690976
 30
0.0
 10
95.45016002388051
 20
-146.5242173570321
 30
0.0
 10
95.52629663410455
 20
-146.5180161851587
 30
0.0
 10
95.52629663410455
 20
-146.5180161851587
 30
0.0
 10
95.52629663410455
 20
-146.6999172267799
 30
0.0
 10
95.52629663410455
 20
-146.6999172267799
 30
0.0
 10
95.50734860893568
 20
-146.6999172267799
 30
0.0
 10
95.48185490234482
 20
-146.6976779147145
 30
0.0
 10
95.2618855556116
 20
-146.6892374307756
 30
0.0
 10
95.21107039720417
 20
-146.6871703734844
 30
0.0
 10
94.99110105047098
 20
-146.6830362589021
 30
0.0
 10
94.94665931871125
 20
-146.6830362589021
 30
0.0
 10
94.94665931871125
 20
-146.6830362589021
 30
0.0
 10
94.73082408656036
 20
-146.6830362589021
 30
0.0
 10
94.73082408656036
 20
-146.6830362589021
 30
0.0
 10
94.73082408656036
 20
-146.6830362589021
 30
0.0
 10
94.73082408656036
 20
-146.8013752888205
 30
0.0
 10
94.73082408656036
 20
-146.8013752888205
 30
0.0
 10
94.73082408656036
 20
-146.8013752888205
 30
0.0
 10
94.90428464424267
 20
-146.8013752888205
 30
0.0
 10
94.90428464424267
 20
-146.8013752888205
 30
0.0
 10
95.067237660695
 20
-146.8013752888205
 30
0.0
 10
95.25757918625506
 20
-146.8013752888205
 30
0.0
 10
95.41415877605967
 20
-146.7908677475905
 30
0.0
 10
95.41415877605967
 20
-146.7908677475905
 30
0.0
 10
95.41415877605967
 20
-146.9622612479817
 30
0.0
 10
95.41415877605967
 20
-146.9622612479817
 30
0.0
 10
95.20469697055647
 20
-146.9538207640428
 30
0.0
 10
95.0079820183487
 20
-146.9515814519773
 30
0.0
 10
94.90428464424267
 20
-146.9515814519773
 30
0.0
 10
94.90428464424267
 20
-146.9515814519773
 30
0.0
 10
94.73082408656036
 20
-146.9515814519773
 30
0.0
 10
94.73082408656036
 20
-146.9515814519773
 30
0.0
 10
94.73082408656036
 20
-146.9515814519773
 30
0.0
 10
94.73082408656036
 20
-147.0595851954399
 30
0.0
 10
94.73082408656036
 20
-147.0595851954399
 30
0.0
 10
94.73082408656036
 20
-147.0595851954399
 30
0.0
 10
94.96147322929784
 20
-147.0595851954399
 30
0.0
 10
94.96147322929784
 20
-147.0595851954399
 30
0.0
 10
95.09479842457698
 20
-147.0595851954399
 30
0.0
 10
95.38246389759535
 20
-147.0552788260834
 30
0.0
 10
95.59192570309855
 20
-147.0489053994357
 30
0.0
 10
95.59192570309855
 20
-147.0489053994357
 30
0.0
 10
95.59192570309855
 20
-147.2266723264746
 30
0.0
 10
95.59192570309855
 20
-147.2266723264746
 30
0.0
 10
95.39934486547307
 20
-147.2202988998269
 30
0.0
 10
95.08635794063813
 20
-147.2159925304703
 30
0.0
 10
94.96147322929784
 20
-147.2159925304703
 30
0.0
  0
HATCH
  5
E9
330
DD
100
AcDbEntity
  8
レイヤー 1
 62
    18
420
        0
440
 33554687
100
AcDbHatch
 10
0.0
 20
0.0
 30
0.0
210
0.0
220
0.0
230
1.0
  2
SOLID
 70
     1
 71
     1
 91
        4
 92
        1
 93
        1
 72
     4
 94
        3
 73
     0
 74
     0
 95
       17
 96
       13
 40
0.0
 40
0.0
 40
0.0
 40
0.0
 40
1.0
 40
1.0
 40
1.0
 40
2.0
 40
2.0
 40
2.0
 40
3.0
 40
3.0
 40
3.0
 40
4.0
 40
4.0
 40
4.0
 40
4.0
 10
95.1264933030413
 20
-147.9480753210859
 10
95.1264933030413
 20
-147.9480753210859
 10
94.41990421901655
 20
-147.9480753210859
 10
94.41990421901655
 20
-147.9480753210859
 10
94.41990421901655
 20
-147.9480753210859
 10
94.41990421901655
 20
-148.0622802364219
 10
94.41990421901655
 20
-148.0622802364219
 10
94.41990421901655
 20
-148.0622802364219
 10
95.1264933030413
 20
-148.0622802364219
 10
95.1264933030413
 20
-148.0622802364219
 10
95.1264933030413
 20
-148.0622802364219
 10
95.1264933030413
 20
-147.9480753210859
 10
95.1264933030413
 20
-147.9480753210859
 97
        0
 97
        1
330
E5
 92
        1
 93
        1
 72
     4
 94
        3
 73
     0
 74
     0
 95
       17
 96
       13
 40
0.0
 40
0.0
 40
0.0
 40
0.0
 40
1.0
 40
1.0
 40
1.0
 40
2.0
 40
2.0
 40
2.0
 40
3.0
 40
3.0
 40
3.0
 40
4.0
 40
4.0
 40
4.0
 40
4.0
 10
95.1264933030413
 20
-147.704679325053
 10
95.1264933030413
 20
-147.704679325053
 10
94.41990421901655
 20
-147.704679325053
 10
94.41990421901655
 20
-147.704679325053
 10
94.41990421901655
 20
-147.704679325053
 10
94.41990421901655
 20
-147.8190564951633
 10
94.41990421901655
 20
-147.8190564951633
 10
94.41990421901655
 20
-147.8190564951633
 10
95.1264933030413
 20
-147.8190564951633
 10
95.1264933030413
 20
-147.8190564951633
 10
95.1264933030413
 20
-147.8190564951633
 10
95.1264933030413
 20
-147.704679325053
 10
95.1264933030413
 20
-147.704679325053
 97
        0
 97
        1
330
E6
 92
        1
 93
        1
 72
     4
 94
        3
 73
     0
 74
     0
 95
       17
 96
       13
 40
0.0
 40
0.0
 40
0.0
 40
0.0
 40
1.0
 40
1.0
 40
1.0
 40
2.0
 40
2.0
 40
2.0
 40
3.0
 40
3.0
 40
3.0
 40
4.0
 40
4.0
 40
4.0
 40
4.0
 10
95.1264933030413
 20
-147.4719631250244
 10
95.1264933030413
 20
-147.4719631250244
 10
94.41990421901655
 20
-147.4719631250244
 10
94.41990421901655
 20
-147.4719631250244
 10
94.41990421901655
 20
-147.4719631250244
 10
94.41990421901655
 20
-147.5799668684869
 10
94.41990421901655
 20
-147.5799668684869
 10
94.41990421901655
 20
-147.5799668684869
 10
95.1264933030413
 20
-147.5799668684869
 10
95.1264933030413
 20
-147.5799668684869
 10
95.1264933030413
 20
-147.5799668684869
 10
95.1264933030413
 20
-147.4719631250244
 10
95.1264933030413
 20
-147.4719631250244
 97
        0
 97
        1
330
E7
 92
        1
 93
        1
 72
     4
 94
        3
 73
     0
 74
     0
 95
      203
 96
      199
 40
0.0
 40
0.0
 40
0.0
 40
0.0
 40
1.0
 40
1.0
 40
1.0
 40
2.0
 40
2.0
 40
2.0
 40
3.0
 40
3.0
 40
3.0
 40
4.0
 40
4.0
 40
4.0
 40
5.0
 40
5.0
 40
5.0
 40
6.0
 40
6.0
 40
6.0
 40
7.0
 40
7.0
 40
7.0
 40
8.0
 40
8.0
 40
8.0
 40
9.0
 40
9.0
 40
9.0
 40
10.0
 40
10.0
 40
10.0
 40
11.0
 40
11.0
 40
11.0
 40
12.0
 40
12.0
 40
12.0
 40
13.0
 40
13.0
 40
13.0
 40
14.0
 40
14.0
 40
14.0
 40
15.0
 40
15.0
 40
15.0
 40
16.0
 40
16.0
 40
16.0
 40
17.0
 40
17.0
 40
17.0
 40
18.0
 40
18.0
 40
18.0
 40
19.0
 40
19.0
 40
19.0
 40
20.0
 40
20.0
 40
20.0
 40
21.0
 40
21.0
 40
21.0
 40
22.0
 40
22.0
 40
22.0
 40
23.0
 40
23.0
 40
23.0
 40
24.0
 40
24.0
 40
24.0
 40
25.0
 40
25.0
 40
25.0
 40
26.0
 40
26.0
 40
26.0
 40
27.0
 40
27.0
 40
27.0
 40
28.0
 40
28.0
 40
28.0
 40
29.0
 40
29.0
 40
29.0
 40
30.0
 40
30.0
 40
30.0
 40
31.0
 40
31.0
 40
31.0
 40
32.0
 40
32.0
 40
32.0
 40
33.0
 40
33.0
 40
33.0
 40
34.0
 40
34.0
 40
34.0
 40
35.0
 40
35.0
 40
35.0
 40
36.0
 40
36.0
 40
36.0
 40
37.0
 40
37.0
 40
37.0
 40
38.0
 40
38.0
 40
38.0
 40
39.0
 40
39.0
 40
39.0
 40
40.0
 40
40.0
 40
40.0
 40
41.0
 40
41.0
 40
41.0
 40
42.0
 40
42.0
 40
42.0
 40
43.0
 40
43.0
 40
43.0
 40
44.0
 40
44.0
 40
44.0
 40
45.0
 40
45.0
 40
45.0
 40
46.0
 40
46.0
 40
46.0
 40
47.0
 40
47.0
 40
47.0
 40
48.0
 40
48.0
 40
48.0
 40
49.0
 40
49.0
 40
49.0
 40
50.0
 40
50.0
 40
50.0
 40
51.0
 40
51.0
 40
51.0
 40
52.0
 40
52.0
 40
52.0
 40
53.0
 40
53.0
 40
53.0
 40
54.0
 40
54.0
 40
54.0
 40
55.0
 40
55.0
 40
55.0
 40
56.0
 40
56.0
 40
56.0
 40
57.0
 40
57.0
 40
57.0
 40
58.0
 40
58.0
 40
58.0
 40
59.0
 40
59.0
 40
59.0
 40
60.0
 40
60.0
 40
60.0
 40
61.0
 40
61.0
 40
61.0
 40
62.0
 40
62.0
 40
62.0
 40
63.0
 40
63.0
 40
63.0
 40
64.0
 40
64.0
 40
64.0
 40
65.0
 40
65.0
 40
65.0
 40
66.0
 40
66.0
 40
66.0
 40
66.0
 10
94.96147322929784
 20
-147.2159925304703
 10
94.96147322929784
 20
-147.2159925304703
 10
94.40302325113883
 20
-147.2159925304703
 10
94.40302325113883
 20
-147.2159925304703
 10
94.39234345513455
 20
-147.26043426223
 10
94.38390297119569
 20
-147.2921291406943
 10
94.37132837267453
 20
-147.3303697005806
 10
94.39664982449112
 20
-147.3303697005806
 10
94.41146373507768
 20
-147.3324367578717
 10
94.4178371617254
 20
-147.3324367578717
 10
94.4178371617254
 20
-147.3324367578717
 10
94.60611162999432
 20
-147.3324367578717
 10
94.60611162999432
 20
-147.3324367578717
 10
94.60611162999432
 20
-147.3324367578717
 10
94.98059350924096
 20
-147.3324367578717
 10
94.98059350924096
 20
-147.3324367578717
 10
95.03123641287414
 20
-147.3324367578717
 10
95.3147677713102
 20
-147.3196899045763
 10
95.3464626497745
 20
-147.3196899045763
 10
95.34439559248335
 20
-147.3472506684583
 10
95.34232853519219
 20
-147.3661986936272
 10
95.34232853519219
 20
-147.3958265148003
 10
95.34008922312677
 20
-147.4275213932646
 10
95.34008922312677
 20
-147.562913645835
 10
95.34008922312677
 20
-147.5904744097169
 10
95.34008922312677
 20
-147.5904744097169
 10
95.34008922312677
 20
-147.835937463041
 10
95.34008922312677
 20
-147.835937463041
 10
95.34008922312677
 20
-147.8803791948007
 10
95.34439559248335
 20
-148.0770941470085
 10
95.34870196183991
 20
-148.2293673674565
 10
95.34870196183991
 20
-148.2293673674565
 10
95.12218693368472
 20
-148.2293673674565
 10
95.12218693368472
 20
-148.2293673674565
 10
95.12218693368472
 20
-148.2293673674565
 10
95.12442624575013
 20
-148.1956054317011
 10
95.12442624575013
 20
-148.1956054317011
 10
95.12442624575013
 20
-148.1956054317011
 10
94.4219712763077
 20
-148.1956054317011
 10
94.4219712763077
 20
-148.1956054317011
 10
94.4219712763077
 20
-148.1956054317011
 10
94.42421058837311
 20
-148.2293673674565
 10
94.42421058837311
 20
-148.2293673674565
 10
94.42421058837311
 20
-148.2293673674565
 10
94.20630829893106
 20
-148.2293673674565
 10
94.20630829893106
 20
-148.2293673674565
 10
94.21044241351337
 20
-148.1744180944668
 10
94.21044241351337
 20
-148.1616712411714
 10
94.21681584016107
 20
-148.0474663258353
 10
94.21888289745224
 20
-148.0199055619533
 10
94.22112220951765
 20
-147.8867526214484
 10
94.22112220951765
 20
-147.8676323415053
 10
94.22112220951765
 20
-147.8676323415053
 10
94.22112220951765
 20
-147.6645439626498
 10
94.22112220951765
 20
-147.6645439626498
 10
94.08142358759077
 20
-147.9141411305562
 10
93.91226939926498
 20
-148.0453992685442
 10
93.80650496786783
 20
-148.110856082764
 10
93.80650496786783
 20
-148.110856082764
 10
93.63287215541124
 20
-147.9713297156113
 10
93.63287215541124
 20
-147.9713297156113
 10
93.72175561893067
 20
-147.9205145572039
 10
93.86558835543985
 20
-147.8336981509756
 10
94.0032199200756
 20
-147.6392225108332
 10
94.09417044088618
 20
-147.5122707422018
 10
94.15979950988019
 20
-147.3684380056926
 10
94.19356144563563
 20
-147.2159925304703
 10
93.96515161496358
 20
-147.2182318425357
 10
93.78531763063355
 20
-147.2246052691834
 10
93.69006074046637
 20
-147.2266723264746
 10
93.69006074046637
 20
-147.2266723264746
 10
93.69006074046637
 20
-147.0489053994357
 10
93.69006074046637
 20
-147.0489053994357
 10
93.88677569267414
 20
-147.0552788260834
 10
94.1703070511102
 20
-147.0595851954399
 10
94.3205132142671
 20
-147.0595851954399
 10
94.3205132142671
 20
-147.0595851954399
 10
94.53410913435259
 20
-147.0595851954399
 10
94.53410913435259
 20
-147.0595851954399
 10
94.53410913435259
 20
-147.0595851954399
 10
94.53410913435259
 20
-146.9515814519773
 10
94.53410913435259
 20
-146.9515814519773
 10
94.53410913435259
 20
-146.9515814519773
 10
94.38820934055225
 20
-146.9515814519773
 10
94.38820934055225
 20
-146.9515814519773
 10
94.21888289745224
 20
-146.9515814519773
 10
94.04972870912645
 20
-146.9558878213339
 10
93.88264157809185
 20
-146.9622612479817
 10
93.88264157809185
 20
-146.9622612479817
 10
93.88264157809185
 20
-146.7908677475905
 10
93.88264157809185
 20
-146.7908677475905
 10
94.03698185583102
 20
-146.8013752888205
 10
94.22318926680878
 20
-146.8013752888205
 10
94.38820934055225
 20
-146.8013752888205
 10
94.38820934055225
 20
-146.8013752888205
 10
94.53410913435259
 20
-146.8013752888205
 10
94.53410913435259
 20
-146.8013752888205
 10
94.53410913435259
 20
-146.8013752888205
 10
94.53410913435259
 20
-146.6830362589021
 10
94.53410913435259
 20
-146.6830362589021
 10
94.53410913435259
 20
-146.6830362589021
 10
94.40302325113883
 20
-146.6830362589021
 10
94.40302325113883
 20
-146.6830362589021
 10
94.35651446208796
 20
-146.6830362589021
 10
94.15342608323248
 20
-146.691476742841
 10
94.11105140876392
 20
-146.691476742841
 10
93.90796302990843
 20
-146.6956108574233
 10
93.8318264196844
 20
-146.6976779147145
 10
93.75362275216923
 20
-146.6999172267799
 10
93.75362275216923
 20
-146.6999172267799
 10
93.75362275216923
 20
-146.5157768730932
 10
93.75362275216923
 20
-146.5157768730932
 10
93.86782766750526
 20
-146.5242173570321
 10
93.91226939926498
 20
-146.5242173570321
 10
94.29519176245051
 20
-146.5328300957453
 10
94.23162975074765
 20
-146.4375732055781
 10
94.20406898686565
 20
-146.4100124416961
 10
94.16823999381906
 20
-146.3740111938752
 10
94.16823999381906
 20
-146.3740111938752
 10
94.34376760879253
 20
-146.2915011570035
 10
94.34376760879253
 20
-146.2915011570035
 10
94.38390297119569
 20
-146.3275024048243
 10
94.42834470295542
 20
-146.3698770792929
 10
94.50241425588828
 20
-146.4797756252724
 10
94.50241425588828
 20
-146.4797756252724
 10
94.38820934055225
 20
-146.5348971530364
 10
94.38820934055225
 20
-146.5348971530364
 10
94.38820934055225
 20
-146.5348971530364
 10
94.39871688178227
 20
-146.5348971530364
 10
94.39871688178227
 20
-146.5348971530364
 10
94.39871688178227
 20
-146.5348971530364
 10
94.92133786689468
 20
-146.5348971530364
 10
94.92133786689468
 20
-146.5348971530364
 10
94.92133786689468
 20
-146.5348971530364
 10
94.8260809767275
 20
-146.4904554212767
 10
94.8260809767275
 20
-146.4904554212767
 10
94.85364174060951
 20
-146.4523871161647
 10
94.91065807089039
 20
-146.3719441365841
 10
94.92547198147697
 20
-146.2978745836512
 10
94.92547198147697
 20
-146.2978745836512
 10
95.13924015633673
 20
-146.3614365953541
 10
95.13924015633673
 20
-146.3614365953541
 10
95.14768064027558
 20
-146.3635036526452
 10
95.16886797750988
 20
-146.3740111938752
 10
95.16886797750988
 20
-146.3951985311095
 10
95.16886797750988
 20
-146.4332668362215
 10
95.10323890851585
 20
-146.4332668362215
 10
95.08411862857272
 20
-146.4332668362215
 10
95.0736110873427
 20
-146.4523871161647
 10
95.05035669281728
 20
-146.4925224785678
 10
95.02072887164413
 20
-146.5328300957453
 10
95.42053220270737
 20
-146.5264566690976
 10
95.45016002388051
 20
-146.5242173570321
 10
95.52629663410455
 20
-146.5180161851587
 10
95.52629663410455
 20
-146.5180161851587
 10
95.52629663410455
 20
-146.6999172267799
 10
95.52629663410455
 20
-146.6999172267799
 10
95.50734860893568
 20
-146.6999172267799
 10
95.48185490234482
 20
-146.6976779147145
 10
95.2618855556116
 20
-146.6892374307756
 10
95.21107039720417
 20
-146.6871703734844
 10
94.99110105047098
 20
-146.6830362589021
 10
94.94665931871125
 20
-146.6830362589021
 10
94.94665931871125
 20
-146.6830362589021
 10
94.73082408656036
 20
-146.6830362589021
 10
94.73082408656036
 20
-146.6830362589021
 10
94.73082408656036
 20
-146.6830362589021
 10
94.73082408656036
 20
-146.8013752888205
 10
94.73082408656036
 20
-146.8013752888205
 10
94.73082408656036
 20
-146.8013752888205
 10
94.90428464424267
 20
-146.8013752888205
 10
94.90428464424267
 20
-146.8013752888205
 10
95.067237660695
 20
-146.8013752888205
 10
95.25757918625506
 20
-146.8013752888205
 10
95.41415877605967
 20
-146.7908677475905
 10
95.41415877605967
 20
-146.7908677475905
 10
95.41415877605967
 20
-146.9622612479817
 10
95.41415877605967
 20
-146.9622612479817
 10
95.20469697055647
 20
-146.9538207640428
 10
95.0079820183487
 20
-146.9515814519773
 10
94.90428464424267
 20
-146.9515814519773
 10
94.90428464424267
 20
-146.9515814519773
 10
94.73082408656036
 20
-146.9515814519773
 10
94.73082408656036
 20
-146.9515814519773
 10
94.73082408656036
 20
-146.9515814519773
 10
94.73082408656036
 20
-147.0595851954399
 10
94.73082408656036
 20
-147.0595851954399
 10
94.73082408656036
 20
-147.0595851954399
 10
94.96147322929784
 20
-147.0595851954399
 10
94.96147322929784
 20
-147.0595851954399
 10
95.09479842457698
 20
-147.0595851954399
 10
95.38246389759535
 20
-147.0552788260834
 10
95.59192570309855
 20
-147.0489053994357
 10
95.59192570309855
 20
-147.0489053994357
 10
95.59192570309855
 20
-147.2266723264746
 10
95.59192570309855
 20
-147.2266723264746
 10
95.39934486547307
 20
-147.2202988998269
 10
95.08635794063813
 20
-147.2159925304703
 10
94.96147322929784
 20
-147.2159925304703
 97
        0
 97
        1
330
E8
 75
     2
 76
     1
 98
        1
 10
0.0
 20
0.0
450
        0
451
        0
460
0.0
461
0.0
452
        0
462
0.0
453
        0
470

  0
SPLINE
  5
EA
330
DD
100
AcDbEntity
  8
レイヤー 1
100
AcDbSpline
210
0.0
220
0.0
230
1.0
 70
     9
 71
     3
 72
    29
 73
    25
 74
     0
 42
0.0000000001
 43
0.0000000001
 40
0.0
 40
0.0
 40
0.0
 40
0.0
 40
1.0
 40
1.0
 40
1.0
 40
2.0
 40
2.0
 40
2.0
 40
3.0
 40
3.0
 40
3.0
 40
4.0
 40
4.0
 40
4.0
 40
5.0
 40
5.0
 40
5.0
 40
6.0
 40
6.0
 40
6.0
 40
7.0
 40
7.0
 40
7.0
 40
8.0
 40
8.0
 40
8.0
 40
8.0
 10
96.83698321146785
 20
-146.663915978959
 30
0.0
 10
96.83698321146785
 20
-146.663915978959
 30
0.0
 10
96.48368866945547
 20
-146.663915978959
 30
0.0
 10
96.48368866945547
 20
-146.663915978959
 30
0.0
 10
96.3715508114106
 20
-146.663915978959
 30
0.0
 10
96.23202444425798
 20
-146.6702894056067
 30
0.0
 10
96.12402070079539
 20
-146.6830362589021
 30
0.0
 10
96.12402070079539
 20
-146.6830362589021
 30
0.0
 10
96.12402070079539
 20
-146.4480807468081
 30
0.0
 10
96.12402070079539
 20
-146.4480807468081
 30
0.0
 10
96.242531985488
 20
-146.4628946573947
 30
0.0
 10
96.42650008440032
 20
-146.4672010267513
 30
0.0
 10
96.48368866945547
 20
-146.4672010267513
 30
0.0
 10
96.48368866945547
 20
-146.4672010267513
 30
0.0
 10
96.83698321146785
 20
-146.4672010267513
 30
0.0
 10
96.83698321146785
 20
-146.4672010267513
 30
0.0
 10
96.85593123663672
 20
-146.4672010267513
 30
0.0
 10
97.05919187026646
 20
-146.4672010267513
 30
0.0
 10
97.20078529471024
 20
-146.4480807468081
 30
0.0
 10
97.20078529471024
 20
-146.4480807468081
 30
0.0
 10
97.20078529471024
 20
-146.6830362589021
 30
0.0
 10
97.20078529471024
 20
-146.6830362589021
 30
0.0
 10
97.04437795967988
 20
-146.663915978959
 30
0.0
 10
96.85386417934557
 20
-146.663915978959
 30
0.0
 10
96.83698321146785
 20
-146.663915978959
 30
0.0
  0
SPLINE
  5
EB
330
DD
100
AcDbEntity
  8
レイヤー 1
100
AcDbSpline
210
0.0
220
0.0
230
1.0
 70
     9
 71
     3
 72
    47
 73
    43
 74
     0
 42
0.0000000001
 43
0.0000000001
 40
0.0
 40
0.0
 40
0.0
 40
0.0
 40
1.0
 40
1.0
 40
1.0
 40
2.0
 40
2.0
 40
2.0
 40
3.0
 40
3.0
 40
3.0
 40
4.0
 40
4.0
 40
4.0
 40
5.0
 40
5.0
 40
5.0
 40
6.0
 40
6.0
 40
6.0
 40
7.0
 40
7.0
 40
7.0
 40
8.0
 40
8.0
 40
8.0
 40
9.0
 40
9.0
 40
9.0
 40
10.0
 40
10.0
 40
10.0
 40
11.0
 40
11.0
 40
11.0
 40
12.0
 40
12.0
 40
12.0
 40
13.0
 40
13.0
 40
13.0
 40
14.0
 40
14.0
 40
14.0
 40
14.0
 10
96.93844127350844
 20
-147.1927381359448
 30
0.0
 10
96.93844127350844
 20
-147.1927381359448
 30
0.0
 10
96.83698321146785
 20
-147.1927381359448
 30
0.0
 10
96.83698321146785
 20
-147.1927381359448
 30
0.0
 10
96.83698321146785
 20
-147.2795545421732
 30
0.0
 10
96.81579587423357
 20
-147.6688503320064
 30
0.0
 10
96.6190809220258
 20
-147.8888196787396
 30
0.0
 10
96.46680770157775
 20
-148.0579738670654
 30
0.0
 10
96.25941295336572
 20
-148.1279093054159
 30
0.0
 10
96.17483585920282
 20
-148.1552978145237
 30
0.0
 10
96.17483585920282
 20
-148.1552978145237
 30
0.0
 10
95.9801879642862
 20
-147.988210683489
 30
0.0
 10
95.9801879642862
 20
-147.988210683489
 30
0.0
 10
96.0775119117445
 20
-147.9754638301936
 30
0.0
 10
96.25303952671799
 20
-147.9522094356682
 30
0.0
 10
96.44131399498689
 20
-147.7639349673993
 30
0.0
 10
96.51538354791977
 20
-147.6921047265318
 30
0.0
 10
96.6190809220258
 20
-147.5524061046049
 30
0.0
 10
96.6190809220258
 20
-147.1927381359448
 30
0.0
 10
96.6190809220258
 20
-147.1927381359448
 30
0.0
 10
96.38843177928832
 20
-147.1927381359448
 30
0.0
 10
96.38843177928832
 20
-147.1927381359448
 30
0.0
 10
96.20239662308483
 20
-147.1927381359448
 30
0.0
 10
96.01618921210707
 20
-147.1970445053014
 30
0.0
 10
95.82998180112932
 20
-147.211858415888
 30
0.0
 10
95.82998180112932
 20
-147.211858415888
 30
0.0
 10
95.82998180112932
 20
-146.9918890691548
 30
0.0
 10
95.82998180112932
 20
-146.9918890691548
 30
0.0
 10
96.01825626939822
 20
-147.0067029797414
 30
0.0
 10
96.30385468512542
 20
-147.0108370943236
 30
0.0
 10
96.38843177928832
 20
-147.0108370943236
 30
0.0
 10
96.38843177928832
 20
-147.0108370943236
 30
0.0
 10
96.93844127350844
 20
-147.0108370943236
 30
0.0
 10
96.93844127350844
 20
-147.0108370943236
 30
0.0
 10
96.95756155345158
 20
-147.0108370943236
 30
0.0
 10
97.2748548476431
 20
-147.0108370943236
 30
0.0
 10
97.50343693308941
 20
-146.9918890691548
 30
0.0
 10
97.50343693308941
 20
-146.9918890691548
 30
0.0
 10
97.50343693308941
 20
-147.211858415888
 30
0.0
 10
97.50343693308941
 20
-147.211858415888
 30
0.0
 10
97.31516246482051
 20
-147.1970445053014
 30
0.0
 10
97.12671574177736
 20
-147.1927381359448
 30
0.0
 10
96.93844127350844
 20
-147.1927381359448
 30
0.0
  0
HATCH
  5
EC
330
DD
100
AcDbEntity
  8
レイヤー 1
 62
    18
420
        0
440
 33554687
100
AcDbHatch
 10
0.0
 20
0.0
 30
0.0
210
0.0
220
0.0
230
1.0
  2
SOLID
 70
     1
 71
     1
 91
        2
 92
        1
 93
        1
 72
     4
 94
        3
 73
     0
 74
     0
 95
       29
 96
       25
 40
0.0
 40
0.0
 40
0.0
 40
0.0
 40
1.0
 40
1.0
 40
1.0
 40
2.0
 40
2.0
 40
2.0
 40
3.0
 40
3.0
 40
3.0
 40
4.0
 40
4.0
 40
4.0
 40
5.0
 40
5.0
 40
5.0
 40
6.0
 40
6.0
 40
6.0
 40
7.0
 40
7.0
 40
7.0
 40
8.0
 40
8.0
 40
8.0
 40
8.0
 10
96.83698321146785
 20
-146.663915978959
 10
96.83698321146785
 20
-146.663915978959
 10
96.48368866945547
 20
-146.663915978959
 10
96.48368866945547
 20
-146.663915978959
 10
96.3715508114106
 20
-146.663915978959
 10
96.23202444425798
 20
-146.6702894056067
 10
96.12402070079539
 20
-146.6830362589021
 10
96.12402070079539
 20
-146.6830362589021
 10
96.12402070079539
 20
-146.4480807468081
 10
96.12402070079539
 20
-146.4480807468081
 10
96.242531985488
 20
-146.4628946573947
 10
96.42650008440032
 20
-146.4672010267513
 10
96.48368866945547
 20
-146.4672010267513
 10
96.48368866945547
 20
-146.4672010267513
 10
96.83698321146785
 20
-146.4672010267513
 10
96.83698321146785
 20
-146.4672010267513
 10
96.85593123663672
 20
-146.4672010267513
 10
97.05919187026646
 20
-146.4672010267513
 10
97.20078529471024
 20
-146.4480807468081
 10
97.20078529471024
 20
-146.4480807468081
 10
97.20078529471024
 20
-146.6830362589021
 10
97.20078529471024
 20
-146.6830362589021
 10
97.04437795967988
 20
-146.663915978959
 10
96.85386417934557
 20
-146.663915978959
 10
96.83698321146785
 20
-146.663915978959
 97
        0
 97
        1
330
EA
 92
        1
 93
        1
 72
     4
 94
        3
 73
     0
 74
     0
 95
       47
 96
       43
 40
0.0
 40
0.0
 40
0.0
 40
0.0
 40
1.0
 40
1.0
 40
1.0
 40
2.0
 40
2.0
 40
2.0
 40
3.0
 40
3.0
 40
3.0
 40
4.0
 40
4.0
 40
4.0
 40
5.0
 40
5.0
 40
5.0
 40
6.0
 40
6.0
 40
6.0
 40
7.0
 40
7.0
 40
7.0
 40
8.0
 40
8.0
 40
8.0
 40
9.0
 40
9.0
 40
9.0
 40
10.0
 40
10.0
 40
10.0
 40
11.0
 40
11.0
 40
11.0
 40
12.0
 40
12.0
 40
12.0
 40
13.0
 40
13.0
 40
13.0
 40
14.0
 40
14.0
 40
14.0
 40
14.0
 10
96.93844127350844
 20
-147.1927381359448
 10
96.93844127350844
 20
-147.1927381359448
 10
96.83698321146785
 20
-147.1927381359448
 10
96.83698321146785
 20
-147.1927381359448
 10
96.83698321146785
 20
-147.2795545421732
 10
96.81579587423357
 20
-147.6688503320064
 10
96.6190809220258
 20
-147.8888196787396
 10
96.46680770157775
 20
-148.0579738670654
 10
96.25941295336572
 20
-148.1279093054159
 10
96.17483585920282
 20
-148.1552978145237
 10
96.17483585920282
 20
-148.1552978145237
 10
95.9801879642862
 20
-147.988210683489
 10
95.9801879642862
 20
-147.988210683489
 10
96.0775119117445
 20
-147.9754638301936
 10
96.25303952671799
 20
-147.9522094356682
 10
96.44131399498689
 20
-147.7639349673993
 10
96.51538354791977
 20
-147.6921047265318
 10
96.6190809220258
 20
-147.5524061046049
 10
96.6190809220258
 20
-147.1927381359448
 10
96.6190809220258
 20
-147.1927381359448
 10
96.38843177928832
 20
-147.1927381359448
 10
96.38843177928832
 20
-147.1927381359448
 10
96.20239662308483
 20
-147.1927381359448
 10
96.01618921210707
 20
-147.1970445053014
 10
95.82998180112932
 20
-147.211858415888
 10
95.82998180112932
 20
-147.211858415888
 10
95.82998180112932
 20
-146.9918890691548
 10
95.82998180112932
 20
-146.9918890691548
 10
96.01825626939822
 20
-147.0067029797414
 10
96.30385468512542
 20
-147.0108370943236
 10
96.38843177928832
 20
-147.0108370943236
 10
96.38843177928832
 20
-147.0108370943236
 10
96.93844127350844
 20
-147.0108370943236
 10
96.93844127350844
 20
-147.0108370943236
 10
96.95756155345158
 20
-147.0108370943236
 10
97.2748548476431
 20
-147.0108370943236
 10
97.50343693308941
 20
-146.9918890691548
 10
97.50343693308941
 20
-146.9918890691548
 10
97.50343693308941
 20
-147.211858415888
 10
97.50343693308941
 20
-147.211858415888
 10
97.31516246482051
 20
-147.1970445053014
 10
97.12671574177736
 20
-147.1927381359448
 10
96.93844127350844
 20
-147.1927381359448
 97
        0
 97
        1
330
EB
 75
     2
 76
     1
 98
        1
 10
0.0
 20
0.0
450
        0
451
        0
460
0.0
461
0.0
452
        0
462
0.0
453
        0
470

  0
SPLINE
  5
ED
330
DD
100
AcDbEntity
  8
レイヤー 1
100
AcDbSpline
210
0.0
220
0.0
230
1.0
 70
     9
 71
     3
 72
    29
 73
    25
 74
     0
 42
0.0000000001
 43
0.0000000001
 40
0.0
 40
0.0
 40
0.0
 40
0.0
 40
1.0
 40
1.0
 40
1.0
 40
2.0
 40
2.0
 40
2.0
 40
3.0
 40
3.0
 40
3.0
 40
4.0
 40
4.0
 40
4.0
 40
5.0
 40
5.0
 40
5.0
 40
6.0
 40
6.0
 40
6.0
 40
7.0
 40
7.0
 40
7.0
 40
8.0
 40
8.0
 40
8.0
 40
8.0
 10
98.78432343450532
 20
-147.3556911523972
 30
0.0
 10
98.78432343450532
 20
-147.3556911523972
 30
0.0
 10
98.2999430092792
 20
-147.3556911523972
 30
0.0
 10
98.2999430092792
 20
-147.3556911523972
 30
0.0
 10
98.27238224539719
 20
-147.3556911523972
 30
0.0
 10
97.95508895120569
 20
-147.3556911523972
 30
0.0
 10
97.74356008841134
 20
-147.3810126042138
 30
0.0
 10
97.74356008841134
 20
-147.3810126042138
 30
0.0
 10
97.74356008841134
 20
-147.1505357162506
 30
0.0
 10
97.74356008841134
 20
-147.1505357162506
 30
0.0
 10
97.9022067355071
 20
-147.173790110776
 30
0.0
 10
98.09254826106716
 20
-147.1758571680671
 30
0.0
 10
98.2999430092792
 20
-147.1758571680671
 30
0.0
 10
98.2999430092792
 20
-147.1758571680671
 30
0.0
 10
98.78432343450532
 20
-147.1758571680671
 30
0.0
 10
98.78432343450532
 20
-147.1758571680671
 30
0.0
 10
98.97053084548307
 20
-147.1758571680671
 30
0.0
 10
99.15673825646083
 20
-147.173790110776
 30
0.0
 10
99.34070635537317
 20
-147.1505357162506
 30
0.0
 10
99.34070635537317
 20
-147.1505357162506
 30
0.0
 10
99.34070635537317
 20
-147.3810126042138
 30
0.0
 10
99.34070635537317
 20
-147.3810126042138
 30
0.0
 10
99.15673825646083
 20
-147.3577582096883
 30
0.0
 10
98.90920814584562
 20
-147.3556911523972
 30
0.0
 10
98.78432343450532
 20
-147.3556911523972
 30
0.0
  0
HATCH
  5
EE
330
DD
100
AcDbEntity
  8
レイヤー 1
 62
    18
420
        0
440
 33554687
100
AcDbHatch
 10
0.0
 20
0.0
 30
0.0
210
0.0
220
0.0
230
1.0
  2
SOLID
 70
     1
 71
     1
 91
        1
 92
        1
 93
        1
 72
     4
 94
        3
 73
     0
 74
     0
 95
       29
 96
       25
 40
0.0
 40
0.0
 40
0.0
 40
0.0
 40
1.0
 40
1.0
 40
1.0
 40
2.0
 40
2.0
 40
2.0
 40
3.0
 40
3.0
 40
3.0
 40
4.0
 40
4.0
 40
4.0
 40
5.0
 40
5.0
 40
5.0
 40
6.0
 40
6.0
 40
6.0
 40
7.0
 40
7.0
 40
7.0
 40
8.0
 40
8.0
 40
8.0
 40
8.0
 10
98.78432343450532
 20
-147.3556911523972
 10
98.78432343450532
 20
-147.3556911523972
 10
98.2999430092792
 20
-147.3556911523972
 10
98.2999430092792
 20
-147.3556911523972
 10
98.27238224539719
 20
-147.3556911523972
 10
97.95508895120569
 20
-147.3556911523972
 10
97.74356008841134
 20
-147.3810126042138
 10
97.74356008841134
 20
-147.3810126042138
 10
97.74356008841134
 20
-147.1505357162506
 10
97.74356008841134
 20
-147.1505357162506
 10
97.9022067355071
 20
-147.173790110776
 10
98.09254826106716
 20
-147.1758571680671
 10
98.2999430092792
 20
-147.1758571680671
 10
98.2999430092792
 20
-147.1758571680671
 10
98.78432343450532
 20
-147.1758571680671
 10
98.78432343450532
 20
-147.1758571680671
 10
98.97053084548307
 20
-147.1758571680671
 10
99.15673825646083
 20
-147.173790110776
 10
99.34070635537317
 20
-147.1505357162506
 10
99.34070635537317
 20
-147.1505357162506
 10
99.34070635537317
 20
-147.3810126042138
 10
99.34070635537317
 20
-147.3810126042138
 10
99.15673825646083
 20
-147.3577582096883
 10
98.90920814584562
 20
-147.3556911523972
 10
98.78432343450532
 20
-147.3556911523972
 97
        0
 97
        1
330
ED
 75
     2
 76
     1
 98
        1
 10
0.0
 20
0.0
450
        0
451
        0
460
0.0
461
0.0
452
        0
462
0.0
453
        0
470

  0
SPLINE
  5
EF
330
DD
100
AcDbEntity
  8
レイヤー 1
100
AcDbSpline
210
0.0
220
0.0
230
1.0
 70
     9
 71
     3
 72
    47
 73
    43
 74
     0
 42
0.0000000001
 43
0.0000000001
 40
0.0
 40
0.0
 40
0.0
 40
0.0
 40
1.0
 40
1.0
 40
1.0
 40
2.0
 40
2.0
 40
2.0
 40
3.0
 40
3.0
 40
3.0
 40
4.0
 40
4.0
 40
4.0
 40
5.0
 40
5.0
 40
5.0
 40
6.0
 40
6.0
 40
6.0
 40
7.0
 40
7.0
 40
7.0
 40
8.0
 40
8.0
 40
8.0
 40
9.0
 40
9.0
 40
9.0
 40
10.0
 40
10.0
 40
10.0
 40
11.0
 40
11.0
 40
11.0
 40
12.0
 40
12.0
 40
12.0
 40
13.0
 40
13.0
 40
13.0
 40
14.0
 40
14.0
 40
14.0
 40
14.0
 10
101.0045152199745
 20
-146.7612399264173
 30
0.0
 10
100.934579781624
 20
-147.0404649154968
 30
0.0
 10
100.8584431714
 20
-147.3451836111672
 30
0.0
 10
100.545456246565
 20
-147.6772908159452
 30
0.0
 10
100.3084336771798
 20
-147.9268879838516
 30
0.0
 10
100.06314287863
 20
-148.026278988601
 30
0.0
 10
99.95737844723288
 20
-148.0686536630696
 30
0.0
 10
99.95737844723288
 20
-148.0686536630696
 30
0.0
 10
99.76273055231628
 20
-147.8867526214484
 30
0.0
 10
99.76273055231628
 20
-147.8867526214484
 30
0.0
 10
99.94876570851976
 20
-147.8400715776233
 30
0.0
 10
100.3106729892452
 20
-147.7470539995215
 30
0.0
 10
100.6067789462025
 20
-147.2519937782911
 30
0.0
 10
100.7674926505893
 20
-146.9855156425071
 30
0.0
 10
100.7802395038848
 20
-146.8120550848247
 30
0.0
 10
100.7886799878237
 20
-146.7211045640142
 30
0.0
 10
100.7886799878237
 20
-146.7211045640142
 30
0.0
 10
100.2831122253632
 20
-146.7211045640142
 30
0.0
 10
100.2831122253632
 20
-146.7211045640142
 30
0.0
 10
100.1646009406707
 20
-146.7211045640142
 30
0.0
 10
99.74361027237314
 20
-146.740052589183
 30
0.0
 10
99.59133705192508
 20
-146.750560130413
 30
0.0
 10
99.59133705192508
 20
-146.750560130413
 30
0.0
 10
99.59133705192508
 20
-146.5412705796841
 30
0.0
 10
99.59133705192508
 20
-146.5412705796841
 30
0.0
 10
99.73310273114313
 20
-146.5538451782053
 30
0.0
 10
100.0102606629315
 20
-146.5581515475618
 30
0.0
 10
100.1265326355586
 20
-146.5581515475618
 30
0.0
 10
100.1265326355586
 20
-146.5581515475618
 30
0.0
 10
100.4818942348622
 20
-146.5581515475618
 30
0.0
 10
100.4818942348622
 20
-146.5581515475618
 30
0.0
 10
100.5094549987441
 20
-146.5581515475618
 30
0.0
 10
100.6701687031311
 20
-146.5560844902707
 30
0.0
 10
100.7802395038848
 20
-146.5412705796841
 30
0.0
 10
100.8374280889399
 20
-146.5348971530364
 30
0.0
 10
100.8543090568177
 20
-146.5157768730932
 30
0.0
 10
100.8775634513431
 20
-146.4925224785678
 30
0.0
 10
100.8775634513431
 20
-146.4925224785678
 30
0.0
 10
101.065837919612
 20
-146.6427286417247
 30
0.0
 10
101.065837919612
 20
-146.6427286417247
 30
0.0
 10
101.0510240090254
 20
-146.6723564628979
 30
0.0
 10
101.0405164677954
 20
-146.691476742841
 30
0.0
 10
101.0045152199745
 20
-146.7612399264173
 30
0.0
  0
HATCH
  5
F0
330
DD
100
AcDbEntity
  8
レイヤー 1
 62
    18
420
        0
440
 33554687
100
AcDbHatch
 10
0.0
 20
0.0
 30
0.0
210
0.0
220
0.0
230
1.0
  2
SOLID
 70
     1
 71
     1
 91
        1
 92
        1
 93
        1
 72
     4
 94
        3
 73
     0
 74
     0
 95
       47
 96
       43
 40
0.0
 40
0.0
 40
0.0
 40
0.0
 40
1.0
 40
1.0
 40
1.0
 40
2.0
 40
2.0
 40
2.0
 40
3.0
 40
3.0
 40
3.0
 40
4.0
 40
4.0
 40
4.0
 40
5.0
 40
5.0
 40
5.0
 40
6.0
 40
6.0
 40
6.0
 40
7.0
 40
7.0
 40
7.0
 40
8.0
 40
8.0
 40
8.0
 40
9.0
 40
9.0
 40
9.0
 40
10.0
 40
10.0
 40
10.0
 40
11.0
 40
11.0
 40
11.0
 40
12.0
 40
12.0
 40
12.0
 40
13.0
 40
13.0
 40
13.0
 40
14.0
 40
14.0
 40
14.0
 40
14.0
 10
101.0045152199745
 20
-146.7612399264173
 10
100.934579781624
 20
-147.0404649154968
 10
100.8584431714
 20
-147.3451836111672
 10
100.545456246565
 20
-147.6772908159452
 10
100.3084336771798
 20
-147.9268879838516
 10
100.06314287863
 20
-148.026278988601
 10
99.95737844723288
 20
-148.0686536630696
 10
99.95737844723288
 20
-148.0686536630696
 10
99.76273055231628
 20
-147.8867526214484
 10
99.76273055231628
 20
-147.8867526214484
 10
99.94876570851976
 20
-147.8400715776233
 10
100.3106729892452
 20
-147.7470539995215
 10
100.6067789462025
 20
-147.2519937782911
 10
100.7674926505893
 20
-146.9855156425071
 10
100.7802395038848
 20
-146.8120550848247
 10
100.7886799878237
 20
-146.7211045640142
 10
100.7886799878237
 20
-146.7211045640142
 10
100.2831122253632
 20
-146.7211045640142
 10
100.2831122253632
 20
-146.7211045640142
 10
100.1646009406707
 20
-146.7211045640142
 10
99.74361027237314
 20
-146.740052589183
 10
99.59133705192508
 20
-146.750560130413
 10
99.59133705192508
 20
-146.750560130413
 10
99.59133705192508
 20
-146.5412705796841
 10
99.59133705192508
 20
-146.5412705796841
 10
99.73310273114313
 20
-146.5538451782053
 10
100.0102606629315
 20
-146.5581515475618
 10
100.1265326355586
 20
-146.5581515475618
 10
100.1265326355586
 20
-146.5581515475618
 10
100.4818942348622
 20
-146.5581515475618
 10
100.4818942348622
 20
-146.5581515475618
 10
100.5094549987441
 20
-146.5581515475618
 10
100.6701687031311
 20
-146.5560844902707
 10
100.7802395038848
 20
-146.5412705796841
 10
100.8374280889399
 20
-146.5348971530364
 10
100.8543090568177
 20
-146.5157768730932
 10
100.8775634513431
 20
-146.4925224785678
 10
100.8775634513431
 20
-146.4925224785678
 10
101.065837919612
 20
-146.6427286417247
 10
101.065837919612
 20
-146.6427286417247
 10
101.0510240090254
 20
-146.6723564628979
 10
101.0405164677954
 20
-146.691476742841
 10
101.0045152199745
 20
-146.7612399264173
 97
        0
 97
        1
330
EF
 75
     2
 76
     1
 98
        1
 10
0.0
 20
0.0
450
        0
451
        0
460
0.0
461
0.0
452
        0
462
0.0
453
        0
470

  0
SPLINE
  5
F1
330
DD
100
AcDbEntity
  8
レイヤー 1
100
AcDbSpline
210
0.0
220
0.0
230
1.0
 70
    11
 71
     3
 72
    17
 73
    13
 74
     0
 42
0.0000000001
 43
0.0000000001
 40
0.0
 40
0.0
 40
0.0
 40
0.0
 40
1.0
 40
1.0
 40
1.0
 40
2.0
 40
2.0
 40
2.0
 40
3.0
 40
3.0
 40
3.0
 40
4.0
 40
4.0
 40
4.0
 40
4.0
 10
101.3948445384533
 20
-146.5433376369753
 30
0.0
 10
101.3948445384533
 20
-146.6025932793216
 30
0.0
 10
101.4413533275042
 20
-146.6491020683724
 30
0.0
 10
101.5006089698505
 20
-146.6491020683724
 30
0.0
 10
101.5598646121968
 20
-146.6491020683724
 30
0.0
 10
101.6084404585388
 20
-146.6025932793216
 30
0.0
 10
101.6084404585388
 20
-146.5433376369753
 30
0.0
 10
101.6084404585388
 20
-146.484081994629
 30
0.0
 10
101.5598646121968
 20
-146.4355061482869
 30
0.0
 10
101.5006089698505
 20
-146.4355061482869
 30
0.0
 10
101.4413533275042
 20
-146.4355061482869
 30
0.0
 10
101.3948445384533
 20
-146.484081994629
 30
0.0
 10
101.3948445384533
 20
-146.5433376369753
 30
0.0
  0
SPLINE
  5
F2
330
DD
100
AcDbEntity
  8
レイヤー 1
100
AcDbSpline
210
0.0
220
0.0
230
1.0
 70
     9
 71
     3
 72
    17
 73
    13
 74
     0
 42
0.0000000001
 43
0.0000000001
 40
0.0
 40
0.0
 40
0.0
 40
0.0
 40
1.0
 40
1.0
 40
1.0
 40
2.0
 40
2.0
 40
2.0
 40
3.0
 40
3.0
 40
3.0
 40
4.0
 40
4.0
 40
4.0
 40
4.0
 10
101.7098985205795
 20
-146.5433376369753
 30
0.0
 10
101.7098985205795
 20
-146.6575425523113
 30
0.0
 10
101.6168809424777
 20
-146.7527994424784
 30
0.0
 10
101.5006089698505
 20
-146.7527994424784
 30
0.0
 10
101.3862317997402
 20
-146.7527994424784
 30
0.0
 10
101.2911471643473
 20
-146.6575425523113
 30
0.0
 10
101.2911471643473
 20
-146.5433376369753
 30
0.0
 10
101.2911471643473
 20
-146.4268934095738
 30
0.0
 10
101.3862317997402
 20
-146.3338758314721
 30
0.0
 10
101.5006089698505
 20
-146.3338758314721
 30
0.0
 10
101.6148138851866
 20
-146.3338758314721
 30
0.0
 10
101.7098985205795
 20
-146.4268934095738
 30
0.0
 10
101.7098985205795
 20
-146.5433376369753
 30
0.0
  0
HATCH
  5
F3
330
DD
100
AcDbEntity
  8
レイヤー 1
 62
    18
420
        0
440
 33554687
100
AcDbHatch
 10
0.0
 20
0.0
 30
0.0
210
0.0
220
0.0
230
1.0
  2
SOLID
 70
     1
 71
     1
 91
        2
 92
        1
 93
        1
 72
     4
 94
        3
 73
     0
 74
     0
 95
       17
 96
       13
 40
0.0
 40
0.0
 40
0.0
 40
0.0
 40
1.0
 40
1.0
 40
1.0
 40
2.0
 40
2.0
 40
2.0
 40
3.0
 40
3.0
 40
3.0
 40
4.0
 40
4.0
 40
4.0
 40
4.0
 10
101.3948445384533
 20
-146.5433376369753
 10
101.3948445384533
 20
-146.6025932793216
 10
101.4413533275042
 20
-146.6491020683724
 10
101.5006089698505
 20
-146.6491020683724
 10
101.5598646121968
 20
-146.6491020683724
 10
101.6084404585388
 20
-146.6025932793216
 10
101.6084404585388
 20
-146.5433376369753
 10
101.6084404585388
 20
-146.484081994629
 10
101.5598646121968
 20
-146.4355061482869
 10
101.5006089698505
 20
-146.4355061482869
 10
101.4413533275042
 20
-146.4355061482869
 10
101.3948445384533
 20
-146.484081994629
 10
101.3948445384533
 20
-146.5433376369753
 97
        0
 97
        1
330
F1
 92
        1
 93
        1
 72
     4
 94
        3
 73
     0
 74
     0
 95
       17
 96
       13
 40
0.0
 40
0.0
 40
0.0
 40
0.0
 40
1.0
 40
1.0
 40
1.0
 40
2.0
 40
2.0
 40
2.0
 40
3.0
 40
3.0
 40
3.0
 40
4.0
 40
4.0
 40
4.0
 40
4.0
 10
101.7098985205795
 20
-146.5433376369753
 10
101.7098985205795
 20
-146.6575425523113
 10
101.6168809424777
 20
-146.7527994424784
 10
101.5006089698505
 20
-146.7527994424784
 10
101.3862317997402
 20
-146.7527994424784
 10
101.2911471643473
 20
-146.6575425523113
 10
101.2911471643473
 20
-146.5433376369753
 10
101.2911471643473
 20
-146.4268934095738
 10
101.3862317997402
 20
-146.3338758314721
 10
101.5006089698505
 20
-146.3338758314721
 10
101.6148138851866
 20
-146.3338758314721
 10
101.7098985205795
 20
-146.4268934095738
 10
101.7098985205795
 20
-146.5433376369753
 97
        0
 97
        1
330
F2
 75
     2
 76
     1
 98
        1
 10
0.0
 20
0.0
450
        0
451
        0
460
0.0
461
0.0
452
        0
462
0.0
453
        0
470

  0
ENDBLK
  5
E0
330
DD
100
AcDbEntity
  8
0
100
AcDbBlockEnd
  0
ENDSEC
  0
SECTION
  2
ENTITIES
  0
LINE
  5
79
330
70
100
AcDbEntity
  8
レイヤー 1
 62
   250
420
  2299925
370
    25
100
AcDbLine
 10
79.99597774363777
 20
-145.0070334027234
 30
0.0
 11
85.99598524213702
 21
-145.0070334027234
 31
0.0
  0
LINE
  5
7A
330
70
100
AcDbEntity
  8
レイヤー 1
 62
   250
420
  2299925
370
    25
100
AcDbLine
 10
84.99598895085327
 20
-146.0068055994397
 30
0.0
 11
84.99598895085327
 21
-152.0068623882831
 31
0.0
  0
LINE
  5
7B
330
70
100
AcDbEntity
  8
レイヤー 1
 62
   250
420
  2299925
370
    25
100
AcDbLine
 10
79.99597774363777
 20
-146.0068055994397
 30
0.0
 11
84.99598885349854
 21
-146.0068055994397
 31
0.0
  0
LINE
  5
7C
330
70
100
AcDbEntity
  8
レイヤー 1
 62
   250
420
  2299925
370
    25
100
AcDbLine
 10
79.99597774363777
 20
-145.0070334027234
 30
0.0
 11
79.99597774363777
 21
-146.0068055994397
 31
0.0
  0
LINE
  5
7D
330
70
100
AcDbEntity
  8
レイヤー 1
 62
   250
420
  2299925
370
    25
100
AcDbLine
 10
85.99598533460778
 20
-145.0070334027234
 30
0.0
 11
85.99598533460778
 21
-151.0071835274246
 31
0.0
  0
LINE
  5
7E
330
70
100
AcDbEntity
  8
レイヤー 1
 62
   250
420
  2299925
370
    25
100
AcDbLine
 10
101.9959610201466
 20
-151.0071835274246
 30
0.0
 11
101.9959610201466
 21
-151.4071629616647
 31
0.0
  0
LINE
  5
7F
330
70
100
AcDbEntity
  8
レイヤー 1
 62
   250
420
  2299925
370
    25
100
AcDbLine
 10
85.99598533949174
 20
-151.0071835274246
 30
0.0
 11
101.9959610201466
 21
-151.0071835274246
 31
0.0
  0
LINE
  5
80
330
70
100
AcDbEntity
  8
レイヤー 1
 62
   250
420
  2299925
370
    25
100
AcDbLine
 10
101.9959610201466
 20
-151.4071629616647
 30
0.0
 11
84.99598895085327
 21
-152.0068623882831
 31
0.0
  0
SPLINE
  5
81
330
70
100
AcDbEntity
  8
レイヤー 1
 62
   250
420
  2299925
370
     9
100
AcDbSpline
210
0.0
220
0.0
230
1.0
 70
    11
 71
     3
 72
    17
 73
    13
 74
     0
 42
0.0000000001
 43
0.0000000001
 40
0.0
 40
0.0
 40
0.0
 40
0.0
 40
1.0
 40
1.0
 40
1.0
 40
2.0
 40
2.0
 40
2.0
 40
3.0
 40
3.0
 40
3.0
 40
4.0
 40
4.0
 40
4.0
 40
4.0
 10
106.0963333900226
 20
-145.0070334027234
 30
0.0
 10
106.0963333900226
 20
-144.9517531263559
 30
0.0
 10
106.0515306122558
 20
-144.9069503497212
 30
0.0
 10
105.9957200847709
 20
-144.9069503497212
 30
0.0
 10
105.9406161972878
 20
-144.9069503497212
 30
0.0
 10
105.8958134206531
 20
-144.9517531263559
 30
0.0
 10
105.8958134206531
 20
-145.0070334027234
 30
0.0
 10
105.8958134206531
 20
-145.0623136790909
 30
0.0
 10
105.9406161972878
 20
-145.107116455726
 30
0.0
 10
105.9957200847709
 20
-145.107116455726
 30
0.0
 10
106.0515306122558
 20
-145.107116455726
 30
0.0
 10
106.0963333900226
 20
-145.0623136790909
 30
0.0
 10
106.0963333900226
 20
-145.0070334027234
 30
0.0
  0
SPLINE
  5
82
330
70
100
AcDbEntity
  8
レイヤー 1
 62
   250
420
  2299925
370
     9
100
AcDbSpline
210
0.0
220
0.0
230
1.0
 70
     9
 71
     3
 72
    17
 73
    13
 74
     0
 42
0.0000000001
 43
0.0000000001
 40
0.0
 40
0.0
 40
0.0
 40
0.0
 40
1.0
 40
1.0
 40
1.0
 40
2.0
 40
2.0
 40
2.0
 40
3.0
 40
3.0
 40
3.0
 40
4.0
 40
4.0
 40
4.0
 40
4.0
 10
106.0963333900226
 20
-151.0071835274246
 30
0.0
 10
106.0963333900226
 20
-150.9517268621728
 30
0.0
 10
106.0515306122558
 20
-150.906924085538
 30
0.0
 10
105.9957200847709
 20
-150.906924085538
 30
0.0
 10
105.9406161972878
 20
-150.906924085538
 30
0.0
 10
105.8958134206531
 20
-150.9517268621728
 30
0.0
 10
105.8958134206531
 20
-151.0071835274246
 30
0.0
 10
105.8958134206531
 20
-151.0622874149077
 30
0.0
 10
105.9406161972878
 20
-151.1070901915424
 30
0.0
 10
105.9957200847709
 20
-151.1070901915424
 30
0.0
 10
106.0515306122558
 20
-151.1070901915424
 30
0.0
 10
106.0963333900226
 20
-151.0622874149077
 30
0.0
 10
106.0963333900226
 20
-151.0071835274246
 30
0.0
  0
SPLINE
  5
83
330
70
100
AcDbEntity
  8
レイヤー 1
 62
   250
420
  2299925
370
     9
100
AcDbSpline
210
0.0
220
0.0
230
1.0
 70
     9
 71
     3
 72
    17
 73
    13
 74
     0
 42
0.0000000001
 43
0.0000000001
 40
0.0
 40
0.0
 40
0.0
 40
0.0
 40
1.0
 40
1.0
 40
1.0
 40
2.0
 40
2.0
 40
2.0
 40
3.0
 40
3.0
 40
3.0
 40
4.0
 40
4.0
 40
4.0
 40
4.0
 10
106.0963333900226
 20
-151.4071629616647
 30
0.0
 10
106.0963333900226
 20
-151.3517062964129
 30
0.0
 10
106.0515306122558
 20
-151.3069035197781
 30
0.0
 10
105.9957200847709
 20
-151.3069035197781
 30
0.0
 10
105.9406161972878
 20
-151.3069035197781
 30
0.0
 10
105.8958134206531
 20
-151.3517062964129
 30
0.0
 10
105.8958134206531
 20
-151.4071629616647
 30
0.0
 10
105.8958134206531
 20
-151.4622668491478
 30
0.0
 10
105.9406161972878
 20
-151.5070696257826
 30
0.0
 10
105.9957200847709
 20
-151.5070696257826
 30
0.0
 10
106.0515306122558
 20
-151.5070696257826
 30
0.0
 10
106.0963333900226
 20
-151.4622668491478
 30
0.0
 10
106.0963333900226
 20
-151.4071629616647
 30
0.0
  0
CIRCLE
  5
84
330
70
100
AcDbEntity
  8
レイヤー 1
 62
   250
420
  2299925
370
     9
100
AcDbCircle
 10
101.9959610201466
 20
-156.1067978417671
 30
0.0
 40
0.0999066641178353
  0
SPLINE
  5
85
330
70
100
AcDbEntity
  8
レイヤー 1
 62
   250
420
  2299925
370
     9
100
AcDbSpline
210
0.0
220
0.0
230
1.0
 70
     9
 71
     3
 72
    17
 73
    13
 74
     0
 42
0.0000000001
 43
0.0000000001
 40
0.0
 40
0.0
 40
0.0
 40
0.0
 40
1.0
 40
1.0
 40
1.0
 40
2.0
 40
2.0
 40
2.0
 40
3.0
 40
3.0
 40
3.0
 40
4.0
 40
4.0
 40
4.0
 40
4.0
 10
80.09606079916828
 20
-156.1067978417671
 30
0.0
 10
80.09606079916828
 20
-156.0516526858365
 30
0.0
 10
80.05125802140156
 20
-156.0068911776492
 30
0.0
 10
79.99597774363777
 20
-156.0068911776492
 30
0.0
 10
79.94069746587396
 20
-156.0068911776492
 30
0.0
 10
79.89607107699614
 20
-156.0516526858365
 30
0.0
 10
79.89607107699614
 20
-156.1067978417671
 30
0.0
 10
79.89607107699614
 20
-156.1619017292501
 30
0.0
 10
79.94069746587396
 20
-156.2067045058849
 30
0.0
 10
79.99597774363777
 20
-156.2067045058849
 30
0.0
 10
80.05125802140156
 20
-156.2067045058849
 30
0.0
 10
80.09606079916828
 20
-156.1619017292501
 30
0.0
 10
80.09606079916828
 20
-156.1067978417671
 30
0.0
  0
SPLINE
  5
86
330
70
100
AcDbEntity
  8
レイヤー 1
 62
   250
420
  2299925
370
     9
100
AcDbSpline
210
0.0
220
0.0
230
1.0
 70
    11
 71
     3
 72
    17
 73
    13
 74
     0
 42
0.0000000001
 43
0.0000000001
 40
0.0
 40
0.0
 40
0.0
 40
0.0
 40
1.0
 40
1.0
 40
1.0
 40
2.0
 40
2.0
 40
2.0
 40
3.0
 40
3.0
 40
3.0
 40
4.0
 40
4.0
 40
4.0
 40
4.0
 10
78.04621024412495
 20
-145.0070334027234
 30
0.0
 10
78.04621024412495
 20
-144.9517531263559
 30
0.0
 10
78.00144274413638
 20
-144.9069503497212
 30
0.0
 10
77.94630357748395
 20
-144.9069503497212
 30
0.0
 10
77.8910232997195
 20
-144.9069503497212
 30
0.0
 10
77.84625579973031
 20
-144.9517531263559
 30
0.0
 10
77.84625579973031
 20
-145.0070334027234
 30
0.0
 10
77.84625579973031
 20
-145.0623136790909
 30
0.0
 10
77.8910232997195
 20
-145.107116455726
 30
0.0
 10
77.94630357748395
 20
-145.107116455726
 30
0.0
 10
78.00144274413638
 20
-145.107116455726
 30
0.0
 10
78.04621024412495
 20
-145.0623136790909
 30
0.0
 10
78.04621024412495
 20
-145.0070334027234
 30
0.0
  0
SPLINE
  5
87
330
70
100
AcDbEntity
  8
レイヤー 1
 62
   250
420
  2299925
370
     9
100
AcDbSpline
210
0.0
220
0.0
230
1.0
 70
     9
 71
     3
 72
    17
 73
    13
 74
     0
 42
0.0000000001
 43
0.0000000001
 40
0.0
 40
0.0
 40
0.0
 40
0.0
 40
1.0
 40
1.0
 40
1.0
 40
2.0
 40
2.0
 40
2.0
 40
3.0
 40
3.0
 40
3.0
 40
4.0
 40
4.0
 40
4.0
 40
4.0
 10
78.04621024412495
 20
-146.0068055994397
 30
0.0
 10
78.04621024412495
 20
-145.9516664341794
 30
0.0
 10
78.00144274413638
 20
-145.9068989353215
 30
0.0
 10
77.94630357748395
 20
-145.9068989353215
 30
0.0
 10
77.8910232997195
 20
-145.9068989353215
 30
0.0
 10
77.84625579973031
 20
-145.9516664341794
 30
0.0
 10
77.84625579973031
 20
-146.0068055994397
 30
0.0
 10
77.84625579973031
 20
-146.0622622646912
 30
0.0
 10
77.8910232997195
 20
-146.107065041326
 30
0.0
 10
77.94630357748395
 20
-146.107065041326
 30
0.0
 10
78.00144274413638
 20
-146.107065041326
 30
0.0
 10
78.04621024412495
 20
-146.0622622646912
 30
0.0
 10
78.04621024412495
 20
-146.0068055994397
 30
0.0
  0
SPLINE
  5
88
330
70
100
AcDbEntity
  8
レイヤー 1
 62
   250
420
  2299925
370
     9
100
AcDbSpline
210
0.0
220
0.0
230
1.0
 70
     9
 71
     3
 72
    17
 73
    13
 74
     0
 42
0.0000000001
 43
0.0000000001
 40
0.0
 40
0.0
 40
0.0
 40
0.0
 40
1.0
 40
1.0
 40
1.0
 40
2.0
 40
2.0
 40
2.0
 40
3.0
 40
3.0
 40
3.0
 40
4.0
 40
4.0
 40
4.0
 40
4.0
 10
85.09603672860563
 20
-156.1067978417671
 30
0.0
 10
85.09603672860563
 20
-156.0516526858365
 30
0.0
 10
85.05126922861707
 20
-156.0068911776492
 30
0.0
 10
84.99598895085327
 20
-156.0068911776492
 30
0.0
 10
84.94084978420053
 20
-156.0068911776492
 30
0.0
 10
84.89608228421099
 20
-156.0516526858365
 30
0.0
 10
84.89608228421099
 20
-156.1067978417671
 30
0.0
 10
84.89608228421099
 20
-156.1619017292501
 30
0.0
 10
84.94084978420053
 20
-156.2067045058849
 30
0.0
 10
84.99598895085327
 20
-156.2067045058849
 30
0.0
 10
85.05126922861707
 20
-156.2067045058849
 30
0.0
 10
85.09603672860563
 20
-156.1619017292501
 30
0.0
 10
85.09603672860563
 20
-156.1067978417671
 30
0.0
  0
LINE
  5
89
330
70
100
AcDbEntity
  8
レイヤー 1
 62
   250
420
  2299925
370
     9
100
AcDbLine
 10
79.99615413252666
 20
-156.1067978417671
 30
0.0
 11
84.99598885349854
 21
-156.1067978417671
 31
0.0
  0
LINE
  5
8A
330
70
100
AcDbEntity
  8
レイヤー 1
 62
   250
420
  2299925
370
     9
100
AcDbLine
 10
79.99597774363777
 20
-148.6469591431945
 30
0.0
 11
79.99597774363777
 21
-157.1072403162436
 31
0.0
  0
LINE
  5
8B
330
70
100
AcDbEntity
  8
レイヤー 1
 62
   250
420
  2299925
370
     9
100
AcDbLine
 10
84.99598895085327
 20
-154.6467564901269
 30
0.0
 11
84.99598895085327
 21
-157.1072403162436
 31
0.0
  0
INSERT
  5
8D
330
70
100
AcDbEntity
  8
レイヤー 1
100
AcDbBlockReference
  2
Block_0
 10
0.0
 20
0.0
 30
0.0
  0
LINE
  5
92
330
70
100
AcDbEntity
  8
レイヤー 1
 62
   250
420
  2299925
370
     9
100
AcDbLine
 10
84.99598895085327
 20
-156.1067978417671
 30
0.0
 11
101.9959610201466
 21
-156.1067978417671
 31
0.0
  0
LINE
  5
93
330
70
100
AcDbEntity
  8
レイヤー 1
 62
   250
420
  2299925
370
     9
100
AcDbLine
 10
101.9959610201466
 20
-153.9467042857645
 30
0.0
 11
101.9959610201466
 21
-157.1072403162436
 31
0.0
  0
INSERT
  5
95
330
70
100
AcDbEntity
  8
レイヤー 1
100
AcDbBlockReference
  2
Block_1
 10
0.0
 20
0.0
 30
0.0
  0
LINE
  5
A0
330
70
100
AcDbEntity
  8
レイヤー 1
 62
   250
420
  2299925
370
     9
100
AcDbLine
 10
105.9957200847709
 20
-151.0071835274246
 30
0.0
 11
105.9957200847709
 21
-145.0070334027234
 31
0.0
  0
LINE
  5
A1
330
70
100
AcDbEntity
  8
レイヤー 1
 62
   250
420
  2299925
370
     9
100
AcDbLine
 10
88.63605589438735
 20
-145.0070334027234
 30
0.0
 11
106.9961625592475
 21
-145.0070334027234
 31
0.0
  0
INSERT
  5
A3
330
70
100
AcDbEntity
  8
レイヤー 1
100
AcDbBlockReference
  2
Block_3
 10
0.0
 20
0.0
 30
0.0
  0
LINE
  5
A9
330
70
100
AcDbEntity
  8
レイヤー 1
 62
   250
420
  2299925
370
     9
100
AcDbLine
 10
105.9957200847709
 20
-151.4071629616647
 30
0.0
 11
105.9957200847709
 21
-152.4069351583806
 31
0.0
  0
LINE
  5
AA
330
70
100
AcDbEntity
  8
レイヤー 1
 62
   250
420
  2299925
370
     9
100
AcDbLine
 10
105.9957200847709
 20
-151.0071835274246
 30
0.0
 11
105.9957200847709
 21
-151.4071629616647
 31
0.0
  0
LINE
  5
AB
330
70
100
AcDbEntity
  8
レイヤー 1
 62
   250
420
  2299925
370
     9
100
AcDbLine
 10
104.5356787331308
 20
-151.0071835274246
 30
0.0
 11
106.9961625592475
 21
-151.0071835274246
 31
0.0
  0
LINE
  5
AC
330
70
100
AcDbEntity
  8
レイヤー 1
 62
   250
420
  2299925
370
     9
100
AcDbLine
 10
104.5356787331308
 20
-151.4071629616647
 30
0.0
 11
106.9961625592475
 21
-151.4071629616647
 31
0.0
  0
INSERT
  5
AE
330
70
100
AcDbEntity
  8
レイヤー 1
100
AcDbBlockReference
  2
Block_4
 10
0.0
 20
0.0
 30
0.0
  0
LINE
  5
BD
330
70
100
AcDbEntity
  8
レイヤー 1
 62
   250
420
  2299925
370
     9
100
AcDbLine
 10
77.94630357748395
 20
-145.0070334027234
 30
0.0
 11
77.94630357748395
 21
-144.0070848171231
 31
0.0
  0
LINE
  5
BE
330
70
100
AcDbEntity
  8
レイヤー 1
 62
   250
420
  2299925
370
     9
100
AcDbLine
 10
77.94630357748395
 20
-145.0070334027234
 30
0.0
 11
77.94630357748395
 21
-147.0068952961471
 31
0.0
  0
LINE
  5
BF
330
70
100
AcDbEntity
  8
レイヤー 1
 62
   250
420
  2299925
370
     9
100
AcDbLine
 10
79.40616857711813
 20
-145.0070334027234
 30
0.0
 11
76.94621385551117
 21
-145.0070334027234
 31
0.0
  0
LINE
  5
C0
330
70
100
AcDbEntity
  8
レイヤー 1
 62
   250
420
  2299925
370
     9
100
AcDbLine
 10
79.40616857711813
 20
-146.0068055994397
 30
0.0
 11
76.94621385551117
 21
-146.0068055994397
 31
0.0
  0
INSERT
  5
C2
330
70
100
AcDbEntity
  8
レイヤー 1
100
AcDbBlockReference
  2
Block_6
 10
0.0
 20
0.0
 30
0.0
  0
LINE
  5
D0
330
70
100
AcDbEntity
  8
レイヤー 1
  6
AI-Linetype-0
 62
   154
420
    23468
370
    25
100
AcDbLine
 10
91.99596108092672
 20
-150.4198156278626
 30
0.0
 11
101.9303183879758
 21
-150.4198156278626
 31
0.0
  0
INSERT
  5
D3
330
70
100
AcDbEntity
  8
レイヤー 1
100
AcDbBlockReference
  2
Block_8
 10
0.0
 20
0.0
 30
0.0
  0
INSERT
  5
DA
330
70
100
AcDbEntity
  8
レイヤー 1
100
AcDbBlockReference
  2
Block_9
 10
0.0
 20
0.0
 30
0.0
  0
LWPOLYLINE
  5
F4
330
70
100
AcDbEntity
  8
レイヤー 1
100
AcDbPolyline
 90
        4
 70
     1
 43
0.0
 10
120.5725640043366
 20
-150.526382901085
 10
116.5725640053368
 20
-150.526382901085
 10
116.5725640053368
 20
-150.0263829012097
 10
120.5725640043366
 20
-150.0263829012097
  0
HATCH
  5
F5
330
70
100
AcDbEntity
  8
レイヤー 1
 62
   250
420
  2299925
440
 33554687
100
AcDbHatch
 10
0.0
 20
0.0
 30
0.0
210
0.0
220
0.0
230
1.0
  2
SOLID
 70
     1
 71
     1
 91
        1
 92
        1
 93
        4
 72
     1
 10
120.5725640043366
 20
-150.526382901085
 11
116.5725640053368
 21
-150.526382901085
 72
     1
 10
116.5725640053368
 20
-150.526382901085
 11
116.5725640053368
 21
-150.0263829012097
 72
     1
 10
116.5725640053368
 20
-150.0263829012097
 11
120.5725640043366
 21
-150.0263829012097
 72
     1
 10
120.5725640043366
 20
-150.0263829012097
 11
120.5725640043366
 21
-150.526382901085
 97
        1
330
F4
 75
     2
 76
     1
 98
        1
 10
0.0
 20
0.0
450
        0
451
        0
460
0.0
461
0.0
452
        0
462
0.0
453
        0
470

  0
LWPOLYLINE
  5
F6
330
70
100
AcDbEntity
  8
レイヤー 1
100
AcDbPolyline
 90
        4
 70
     1
 43
0.0
 10
120.5717331845552
 20
-150.0524130602116
 10
120.5717331843755
 20
-154.0524130592113
 10
120.0717331845003
 20
-154.0524130591895
 10
120.07173318468
 20
-150.0524130601891
  0
HATCH
  5
F7
330
70
100
AcDbEntity
  8
レイヤー 1
 62
   250
420
  2299925
440
 33554687
100
AcDbHatch
 10
0.0
 20
0.0
 30
0.0
210
0.0
220
0.0
230
1.0
  2
SOLID
 70
     1
 71
     1
 91
        1
 92
        1
 93
        4
 72
     1
 10
120.5717331845552
 20
-150.0524130602116
 11
120.5717331843755
 21
-154.0524130592113
 72
     1
 10
120.5717331843755
 20
-154.0524130592113
 11
120.0717331845003
 21
-154.0524130591895
 72
     1
 10
120.0717331845003
 20
-154.0524130591895
 11
120.07173318468
 21
-150.0524130601891
 72
     1
 10
120.07173318468
 20
-150.0524130601891
 11
120.5717331845552
 21
-150.0524130602116
 97
        1
330
F6
 75
     2
 76
     1
 98
        1
 10
0.0
 20
0.0
450
        0
451
        0
460
0.0
461
0.0
452
        0
462
0.0
453
        0
470

  0
LWPOLYLINE
  5
F8
330
70
100
AcDbEntity
  8
レイヤー 1
100
AcDbPolyline
 90
        4
 70
     1
 43
0.0
 10
128.5698813076032
 20
-153.7663018452958
 10
120.0698813097279
 20
-154.0663018452204
 10
120.0698813097279
 20
-153.5663018453459
 10
128.5698813076032
 20
-153.5663018453459
  0
HATCH
  5
F9
330
70
100
AcDbEntity
  8
レイヤー 1
 62
   250
420
  2299925
440
 33554687
100
AcDbHatch
 10
0.0
 20
0.0
 30
0.0
210
0.0
220
0.0
230
1.0
  2
SOLID
 70
     1
 71
     1
 91
        1
 92
        1
 93
        4
 72
     1
 10
128.5698813076032
 20
-153.7663018452958
 11
120.0698813097279
 21
-154.0663018452204
 72
     1
 10
120.0698813097279
 20
-154.0663018452204
 11
120.0698813097279
 21
-153.5663018453459
 72
     1
 10
120.0698813097279
 20
-153.5663018453459
 11
128.5698813076032
 21
-153.5663018453459
 72
     1
 10
128.5698813076032
 20
-153.5663018453459
 11
128.5698813076032
 21
-153.7663018452958
 97
        1
330
F8
 75
     2
 76
     1
 98
        1
 10
0.0
 20
0.0
450
        0
451
        0
460
0.0
461
0.0
452
        0
462
0.0
453
        0
470

  0
LINE
  5
FA
330
70
100
AcDbEntity
  8
レイヤー 1
 62
   250
420
  2299925
370
     9
100
AcDbLine
 10
120.5635602773508
 20
-150.1109517393896
 30
0.0
 11
126.7629472516136
 21
-146.385984244573
 31
0.0
  0
LINE
  5
FB
330
70
100
AcDbEntity
  8
レイヤー 1
 62
   250
420
  2299925
370
     9
100
AcDbLine
 10
116.6181962943477
 20
-150.06095711645
 30
0.0
 11
122.7344300111885
 21
-146.38594628587
 31
0.0
  0
LWPOLYLINE
  5
FC
330
70
100
AcDbEntity
  8
レイヤー 1
 62
   250
420
  2299925
370
     9
100
AcDbPolyline
 90
        3
 70
     0
 43
0.0
 10
120.6135602773388
 20
-153.5596466151436
 10
129.9472747981903
 20
-147.9513851305142
 10
133.3904085965335
 20
-145.8825416251197
  0
LINE
  5
FD
330
70
100
AcDbEntity
  8
レイヤー 1
 62
   250
420
  2299925
370
     9
100
AcDbLine
 10
128.5085129858342
 20
-153.609646615131
 30
0.0
 11
136.4538445052028
 21
-148.8356098001913
 31
0.0
  0
LINE
  5
FE
330
70
100
AcDbEntity
  8
レイヤー 1
 62
   250
420
  2299925
370
     9
100
AcDbLine
 10
128.5585129882638
 20
-153.7096466199902
 30
0.0
 11
136.4950211513475
 21
-148.9409114123692
 31
0.0
  0
SPLINE
  5
FF
330
70
100
AcDbEntity
  8
レイヤー 1
 62
   250
420
  2299925
370
     9
100
AcDbSpline
210
0.0
220
0.0
230
1.0
 70
     9
 71
     3
 72
    17
 73
    13
 74
     0
 42
0.0000000001
 43
0.0000000001
 40
0.0
 40
0.0
 40
0.0
 40
0.0
 40
1.0
 40
1.0
 40
1.0
 40
2.0
 40
2.0
 40
2.0
 40
3.0
 40
3.0
 40
3.0
 40
4.0
 40
4.0
 40
4.0
 40
4.0
 10
124.9331167401412
 20
-152.2558114190579
 30
0.0
 10
125.0212399867775
 20
-152.474750284446
 30
0.0
 10
124.7864339928595
 20
-152.7753348563789
 30
0.0
 10
124.4086781133709
 20
-152.9273822074839
 30
0.0
 10
124.0309476580612
 20
-153.079419325316
 30
0.0
 10
123.6540338958577
 20
-153.0250529423965
 30
0.0
 10
123.565910649222
 20
-152.8061140770078
 30
0.0
 10
123.4778005749703
 20
-152.5872079379082
 30
0.0
 10
123.7116754230909
 20
-152.2861995615976
 30
0.0
 10
124.0894058784006
 20
-152.1341624437654
 30
0.0
 10
124.4671617578898
 20
-151.9821150926598
 30
0.0
 10
124.8450066658888
 20
-152.0369052799577
 30
0.0
 10
124.9331167401412
 20
-152.2558114190579
 30
0.0
  0
SPLINE
  5
100
330
70
100
AcDbEntity
  8
レイヤー 1
 62
   250
420
  2299925
370
     9
100
AcDbSpline
210
0.0
220
0.0
230
1.0
 70
     8
 71
     3
 72
    11
 73
     7
 74
     0
 42
0.0000000001
 43
0.0000000001
 40
0.0
 40
0.0
 40
0.0
 40
0.0
 40
1.0
 40
1.0
 40
1.0
 40
2.0
 40
2.0
 40
2.0
 40
2.0
 10
123.7724347367199
 20
-152.9760654261061
 30
0.0
 10
123.7724347367199
 20
-152.9760654261061
 30
0.0
 10
123.5603226252155
 20
-152.5081306781782
 30
0.0
 10
124.3492573357986
 20
-152.2371677210209
 30
0.0
 10
124.3492573357986
 20
-152.2371677210209
 30
0.0
 10
124.8288392410923
 20
-152.1130423167878
 30
0.0
 10
124.8939150606626
 20
-152.5016607288538
 30
0.0
  0
SPLINE
  5
101
330
70
100
AcDbEntity
  8
レイヤー 1
 62
   250
420
  2299925
370
     9
100
AcDbSpline
210
0.0
220
0.0
230
1.0
 70
     9
 71
     3
 72
    17
 73
    13
 74
     0
 42
0.0000000001
 43
0.0000000001
 40
0.0
 40
0.0
 40
0.0
 40
0.0
 40
1.0
 40
1.0
 40
1.0
 40
2.0
 40
2.0
 40
2.0
 40
3.0
 40
3.0
 40
3.0
 40
4.0
 40
4.0
 40
4.0
 40
4.0
 10
128.9606629057629
 20
-152.2853956561145
 30
0.0
 10
129.0487861523992
 20
-152.5043345215025
 30
0.0
 10
128.8139801584812
 20
-152.8049190934354
 30
0.0
 10
128.4362242789927
 20
-152.9569664445404
 30
0.0
 10
128.0584938236829
 20
-153.1090035623725
 30
0.0
 10
127.6815800614794
 20
-153.0546371794524
 30
0.0
 10
127.5934568148437
 20
-152.8356983140644
 30
0.0
 10
127.505346740592
 20
-152.6167921749648
 30
0.0
 10
127.7392215887126
 20
-152.3157837986541
 30
0.0
 10
128.1169520440223
 20
-152.1637466808219
 30
0.0
 10
128.4947079235115
 20
-152.0116993297176
 30
0.0
 10
128.8725528315105
 20
-152.0664895170143
 30
0.0
 10
128.9606629057629
 20
-152.2853956561145
 30
0.0
  0
SPLINE
  5
102
330
70
100
AcDbEntity
  8
レイヤー 1
 62
   250
420
  2299925
370
     9
100
AcDbSpline
210
0.0
220
0.0
230
1.0
 70
     8
 71
     3
 72
    11
 73
     7
 74
     0
 42
0.0000000001
 43
0.0000000001
 40
0.0
 40
0.0
 40
0.0
 40
0.0
 40
1.0
 40
1.0
 40
1.0
 40
2.0
 40
2.0
 40
2.0
 40
2.0
 10
127.7999809023416
 20
-153.0056496631626
 30
0.0
 10
127.7999809023416
 20
-153.0056496631626
 30
0.0
 10
127.5878687908372
 20
-152.5377149152348
 30
0.0
 10
128.3768035014203
 20
-152.2667519580774
 30
0.0
 10
128.3768035014203
 20
-152.2667519580774
 30
0.0
 10
128.856385406714
 20
-152.1426265538443
 30
0.0
 10
128.9214612262843
 20
-152.5312449659103
 30
0.0
  0
SPLINE
  5
103
330
70
100
AcDbEntity
  8
レイヤー 1
 62
   250
420
  2299925
370
     9
100
AcDbSpline
210
0.0
220
0.0
230
1.0
 70
     9
 71
     3
 72
    17
 73
    13
 74
     0
 42
0.0000000001
 43
0.0000000001
 40
0.0
 40
0.0
 40
0.0
 40
0.0
 40
1.0
 40
1.0
 40
1.0
 40
2.0
 40
2.0
 40
2.0
 40
3.0
 40
3.0
 40
3.0
 40
4.0
 40
4.0
 40
4.0
 40
4.0
 10
128.3360110559671
 20
-151.4517224616777
 30
0.0
 10
128.4241869921374
 20
-151.6707922322163
 30
0.0
 10
128.188900362277
 20
-151.9719885710202
 30
0.0
 10
127.8117953574735
 20
-152.1237739440138
 30
0.0
 10
127.4340358269311
 20
-152.2758227646744
 30
0.0
 10
127.0569771685083
 20
-152.221096392589
 30
0.0
 10
126.9688012323379
 20
-152.0020266220497
 30
0.0
 10
126.8806252961675
 20
-151.7829568515104
 30
0.0
 10
127.11482945388
 20
-151.4827666323956
 30
0.0
 10
127.4925889844218
 20
-151.3307178117357
 30
0.0
 10
127.869693989226
 20
-151.1789324387421
 30
0.0
 10
128.2478351197974
 20
-151.2326526911384
 30
0.0
 10
128.3360110559671
 20
-151.4517224616777
 30
0.0
  0
SPLINE
  5
104
330
70
100
AcDbEntity
  8
レイヤー 1
 62
   250
420
  2299925
370
     9
100
AcDbSpline
210
0.0
220
0.0
230
1.0
 70
     8
 71
     3
 72
    11
 73
     7
 74
     0
 42
0.0000000001
 43
0.0000000001
 40
0.0
 40
0.0
 40
0.0
 40
0.0
 40
1.0
 40
1.0
 40
1.0
 40
2.0
 40
2.0
 40
2.0
 40
2.0
 10
127.1754570436718
 20
-152.1723052340254
 30
0.0
 10
127.1754570436718
 20
-152.1723052340254
 30
0.0
 10
126.963924124282
 20
-151.7039091911766
 30
0.0
 10
127.7529014422027
 20
-151.4331572536573
 30
0.0
 10
127.7529014422027
 20
-151.4331572536573
 30
0.0
 10
128.2330915652205
 20
-151.3085588716484
 30
0.0
 10
128.2969900571478
 20
-151.6980314419256
 30
0.0
  0
SPLINE
  5
105
330
70
100
AcDbEntity
  8
レイヤー 1
 62
   250
420
  2299925
370
     9
100
AcDbSpline
210
0.0
220
0.0
230
1.0
 70
     9
 71
     3
 72
    17
 73
    13
 74
     0
 42
0.0000000001
 43
0.0000000001
 40
0.0
 40
0.0
 40
0.0
 40
0.0
 40
1.0
 40
1.0
 40
1.0
 40
2.0
 40
2.0
 40
2.0
 40
3.0
 40
3.0
 40
3.0
 40
4.0
 40
4.0
 40
4.0
 40
4.0
 10
127.6108557278712
 20
-150.646863513231
 30
0.0
 10
127.6989789745076
 20
-150.865802378619
 30
0.0
 10
127.4641729805896
 20
-151.1663869505519
 30
0.0
 10
127.086417101101
 20
-151.3184343016568
 30
0.0
 10
126.7086866457913
 20
-151.470471419489
 30
0.0
 10
126.3317728835878
 20
-151.4161050365695
 30
0.0
 10
126.2436496369521
 20
-151.1971661711808
 30
0.0
 10
126.1555395627004
 20
-150.9782600320813
 30
0.0
 10
126.389414410821
 20
-150.6772516557706
 30
0.0
 10
126.7671448661307
 20
-150.5252145379384
 30
0.0
 10
127.1449007456199
 20
-150.3731671868341
 30
0.0
 10
127.5227456536189
 20
-150.4279573741307
 30
0.0
 10
127.6108557278712
 20
-150.646863513231
 30
0.0
  0
SPLINE
  5
106
330
70
100
AcDbEntity
  8
レイヤー 1
 62
   250
420
  2299925
370
     9
100
AcDbSpline
210
0.0
220
0.0
230
1.0
 70
     8
 71
     3
 72
    11
 73
     7
 74
     0
 42
0.0000000001
 43
0.0000000001
 40
0.0
 40
0.0
 40
0.0
 40
0.0
 40
1.0
 40
1.0
 40
1.0
 40
2.0
 40
2.0
 40
2.0
 40
2.0
 10
126.45017372445
 20
-151.3671175202791
 30
0.0
 10
126.45017372445
 20
-151.3671175202791
 30
0.0
 10
126.2380616129456
 20
-150.8991827723512
 30
0.0
 10
127.0269963235286
 20
-150.6282198151939
 30
0.0
 10
127.0269963235286
 20
-150.6282198151939
 30
0.0
 10
127.5065782288224
 20
-150.5040944109608
 30
0.0
 10
127.5716540483927
 20
-150.8927128230268
 30
0.0
  0
SPLINE
  5
107
330
70
100
AcDbEntity
  8
レイヤー 1
 62
   250
420
  2299925
370
     9
100
AcDbSpline
210
0.0
220
0.0
230
1.0
 70
     9
 71
     3
 72
    17
 73
    13
 74
     0
 42
0.0000000001
 43
0.0000000001
 40
0.0
 40
0.0
 40
0.0
 40
0.0
 40
1.0
 40
1.0
 40
1.0
 40
2.0
 40
2.0
 40
2.0
 40
3.0
 40
3.0
 40
3.0
 40
4.0
 40
4.0
 40
4.0
 40
4.0
 10
131.638401893493
 20
-150.6764477502875
 30
0.0
 10
131.7265251401293
 20
-150.8953866156749
 30
0.0
 10
131.4917191462113
 20
-151.1959711876085
 30
0.0
 10
131.1139632667227
 20
-151.3480185387134
 30
0.0
 10
130.736232811413
 20
-151.5000556565455
 30
0.0
 10
130.3593190492095
 20
-151.4456892736247
 30
0.0
 10
130.2711958025738
 20
-151.2267504082374
 30
0.0
 10
130.1830857283221
 20
-151.0078442691378
 30
0.0
 10
130.4169605764427
 20
-150.7068358928271
 30
0.0
 10
130.7946910317524
 20
-150.5547987749949
 30
0.0
 10
131.1724469112416
 20
-150.4027514238906
 30
0.0
 10
131.5502918192406
 20
-150.4575416111873
 30
0.0
 10
131.638401893493
 20
-150.6764477502875
 30
0.0
  0
SPLINE
  5
108
330
70
100
AcDbEntity
  8
レイヤー 1
 62
   250
420
  2299925
370
     9
100
AcDbSpline
210
0.0
220
0.0
230
1.0
 70
     8
 71
     3
 72
    11
 73
     7
 74
     0
 42
0.0000000001
 43
0.0000000001
 40
0.0
 40
0.0
 40
0.0
 40
0.0
 40
1.0
 40
1.0
 40
1.0
 40
2.0
 40
2.0
 40
2.0
 40
2.0
 10
130.4777198900717
 20
-151.3967017573356
 30
0.0
 10
130.4777198900717
 20
-151.3967017573356
 30
0.0
 10
130.2656077785673
 20
-150.9287670094078
 30
0.0
 10
131.0545424891504
 20
-150.6578040522504
 30
0.0
 10
131.0545424891504
 20
-150.6578040522504
 30
0.0
 10
131.5341243944441
 20
-150.5336786480173
 30
0.0
 10
131.5992002140144
 20
-150.9222970600833
 30
0.0
  0
SPLINE
  5
109
330
70
100
AcDbEntity
  8
レイヤー 1
 62
   250
420
  2299925
370
     9
100
AcDbSpline
210
0.0
220
0.0
230
1.0
 70
     9
 71
     3
 72
    17
 73
    13
 74
     0
 42
0.0000000001
 43
0.0000000001
 40
0.0
 40
0.0
 40
0.0
 40
0.0
 40
1.0
 40
1.0
 40
1.0
 40
2.0
 40
2.0
 40
2.0
 40
3.0
 40
3.0
 40
3.0
 40
4.0
 40
4.0
 40
4.0
 40
4.0
 10
131.0137500436971
 20
-149.8427745558507
 30
0.0
 10
131.1019259798675
 20
-150.0618443263893
 30
0.0
 10
130.8666393500071
 20
-150.3630406651932
 30
0.0
 10
130.4895343452035
 20
-150.5148260381868
 30
0.0
 10
130.1117748146612
 20
-150.6668748588474
 30
0.0
 10
129.7347161562383
 20
-150.612148486762
 30
0.0
 10
129.646540220068
 20
-150.3930787162233
 30
0.0
 10
129.5583642838976
 20
-150.1740089456841
 30
0.0
 10
129.7925684416101
 20
-149.8738187265686
 30
0.0
 10
130.1703279721519
 20
-149.7217699059087
 30
0.0
 10
130.5474329769561
 20
-149.569984532915
 30
0.0
 10
130.9255741075274
 20
-149.6237047853114
 30
0.0
 10
131.0137500436971
 20
-149.8427745558507
 30
0.0
  0
SPLINE
  5
10A
330
70
100
AcDbEntity
  8
レイヤー 1
 62
   250
420
  2299925
370
     9
100
AcDbSpline
210
0.0
220
0.0
230
1.0
 70
     8
 71
     3
 72
    11
 73
     7
 74
     0
 42
0.0000000001
 43
0.0000000001
 40
0.0
 40
0.0
 40
0.0
 40
0.0
 40
1.0
 40
1.0
 40
1.0
 40
2.0
 40
2.0
 40
2.0
 40
2.0
 10
129.8531960314018
 20
-150.5633573281984
 30
0.0
 10
129.8531960314018
 20
-150.5633573281984
 30
0.0
 10
129.641663112012
 20
-150.0949612853496
 30
0.0
 10
130.4306404299328
 20
-149.8242093478303
 30
0.0
 10
130.4306404299328
 20
-149.8242093478303
 30
0.0
 10
130.9108305529506
 20
-149.6996109658214
 30
0.0
 10
130.9747290448779
 20
-150.0890835360986
 30
0.0
  0
SPLINE
  5
10B
330
70
100
AcDbEntity
  8
レイヤー 1
 62
   250
420
  2299925
370
     9
100
AcDbSpline
210
0.0
220
0.0
230
1.0
 70
     9
 71
     3
 72
    17
 73
    13
 74
     0
 42
0.0000000001
 43
0.0000000001
 40
0.0
 40
0.0
 40
0.0
 40
0.0
 40
1.0
 40
1.0
 40
1.0
 40
2.0
 40
2.0
 40
2.0
 40
3.0
 40
3.0
 40
3.0
 40
4.0
 40
4.0
 40
4.0
 40
4.0
 10
130.2885947156013
 20
-149.0379156074039
 30
0.0
 10
130.3767179622377
 20
-149.256854472792
 30
0.0
 10
130.1419119683197
 20
-149.5574390447249
 30
0.0
 10
129.7641560888311
 20
-149.7094863958299
 30
0.0
 10
129.3864256335214
 20
-149.861523513662
 30
0.0
 10
129.0095118713179
 20
-149.8071571307425
 30
0.0
 10
128.9213886246822
 20
-149.5882182653538
 30
0.0
 10
128.8332785504304
 20
-149.3693121262543
 30
0.0
 10
129.067153398551
 20
-149.0683037499436
 30
0.0
 10
129.4448838538608
 20
-148.9162666321114
 30
0.0
 10
129.82263973335
 20
-148.7642192810071
 30
0.0
 10
130.2004846413489
 20
-148.8190094683037
 30
0.0
 10
130.2885947156013
 20
-149.0379156074039
 30
0.0
  0
SPLINE
  5
10C
330
70
100
AcDbEntity
  8
レイヤー 1
 62
   250
420
  2299925
370
     9
100
AcDbSpline
210
0.0
220
0.0
230
1.0
 70
     8
 71
     3
 72
    11
 73
     7
 74
     0
 42
0.0000000001
 43
0.0000000001
 40
0.0
 40
0.0
 40
0.0
 40
0.0
 40
1.0
 40
1.0
 40
1.0
 40
2.0
 40
2.0
 40
2.0
 40
2.0
 10
129.12791271218
 20
-149.7581696144521
 30
0.0
 10
129.12791271218
 20
-149.7581696144521
 30
0.0
 10
128.9158006006757
 20
-149.2902348665243
 30
0.0
 10
129.7047353112587
 20
-149.0192719093669
 30
0.0
 10
129.7047353112587
 20
-149.0192719093669
 30
0.0
 10
130.1843172165525
 20
-148.8951465051338
 30
0.0
 10
130.2493930361228
 20
-149.2837649171998
 30
0.0
  0
SPLINE
  5
10D
330
70
100
AcDbEntity
  8
レイヤー 1
 62
   250
420
  2299925
370
     9
100
AcDbSpline
210
0.0
220
0.0
230
1.0
 70
     9
 71
     3
 72
    17
 73
    13
 74
     0
 42
0.0000000001
 43
0.0000000001
 40
0.0
 40
0.0
 40
0.0
 40
0.0
 40
1.0
 40
1.0
 40
1.0
 40
2.0
 40
2.0
 40
2.0
 40
3.0
 40
3.0
 40
3.0
 40
4.0
 40
4.0
 40
4.0
 40
4.0
 10
134.316140881223
 20
-149.0674998444605
 30
0.0
 10
134.4042641278594
 20
-149.2864387098479
 30
0.0
 10
134.1694581339414
 20
-149.5870232817815
 30
0.0
 10
133.7917022544528
 20
-149.7390706328857
 30
0.0
 10
133.4139717991431
 20
-149.8911077507185
 30
0.0
 10
133.0370580369396
 20
-149.836741367799
 30
0.0
 10
132.9489347903039
 20
-149.6178025024104
 30
0.0
 10
132.8608247160522
 20
-149.3988963633108
 30
0.0
 10
133.0946995641727
 20
-149.0978879870001
 30
0.0
 10
133.4724300194825
 20
-148.9458508691679
 30
0.0
 10
133.8501858989717
 20
-148.7938035180633
 30
0.0
 10
134.2280308069706
 20
-148.8485937053603
 30
0.0
 10
134.316140881223
 20
-149.0674998444605
 30
0.0
  0
SPLINE
  5
10E
330
70
100
AcDbEntity
  8
レイヤー 1
 62
   250
420
  2299925
370
     9
100
AcDbSpline
210
0.0
220
0.0
230
1.0
 70
     8
 71
     3
 72
    11
 73
     7
 74
     0
 42
0.0000000001
 43
0.0000000001
 40
0.0
 40
0.0
 40
0.0
 40
0.0
 40
1.0
 40
1.0
 40
1.0
 40
2.0
 40
2.0
 40
2.0
 40
2.0
 10
133.1554588778018
 20
-149.7877538515086
 30
0.0
 10
133.1554588778018
 20
-149.7877538515086
 30
0.0
 10
132.9433467662974
 20
-149.3198191035801
 30
0.0
 10
133.7322814768804
 20
-149.0488561464234
 30
0.0
 10
133.7322814768804
 20
-149.0488561464234
 30
0.0
 10
134.2118633821741
 20
-148.9247307421897
 30
0.0
 10
134.2769392017445
 20
-149.3133491542564
 30
0.0
  0
SPLINE
  5
10F
330
70
100
AcDbEntity
  8
レイヤー 1
 62
   250
420
  2299925
370
     9
100
AcDbSpline
210
0.0
220
0.0
230
1.0
 70
     9
 71
     3
 72
    17
 73
    13
 74
     0
 42
0.0000000001
 43
0.0000000001
 40
0.0
 40
0.0
 40
0.0
 40
0.0
 40
1.0
 40
1.0
 40
1.0
 40
2.0
 40
2.0
 40
2.0
 40
3.0
 40
3.0
 40
3.0
 40
4.0
 40
4.0
 40
4.0
 40
4.0
 10
133.6914890314272
 20
-148.2338266500237
 30
0.0
 10
133.7796649675976
 20
-148.4528964205623
 30
0.0
 10
133.5443783377372
 20
-148.7540927593658
 30
0.0
 10
133.1672733329336
 20
-148.9058781323598
 30
0.0
 10
132.7895138023912
 20
-149.0579269530204
 30
0.0
 10
132.4124551439684
 20
-149.003200580935
 30
0.0
 10
132.324279207798
 20
-148.7841308103957
 30
0.0
 10
132.2361032716277
 20
-148.5650610398571
 30
0.0
 10
132.4703074293402
 20
-148.2648708207423
 30
0.0
 10
132.848066959882
 20
-148.1128220000817
 30
0.0
 10
133.2251719646861
 20
-147.9610366270874
 30
0.0
 10
133.6033130952575
 20
-148.0147568794844
 30
0.0
 10
133.6914890314272
 20
-148.2338266500237
 30
0.0
  0
SPLINE
  5
110
330
70
100
AcDbEntity
  8
レイヤー 1
 62
   250
420
  2299925
370
     9
100
AcDbSpline
210
0.0
220
0.0
230
1.0
 70
     8
 71
     3
 72
    11
 73
     7
 74
     0
 42
0.0000000001
 43
0.0000000001
 40
0.0
 40
0.0
 40
0.0
 40
0.0
 40
1.0
 40
1.0
 40
1.0
 40
2.0
 40
2.0
 40
2.0
 40
2.0
 10
132.5309350191319
 20
-148.9544094223714
 30
0.0
 10
132.5309350191319
 20
-148.9544094223714
 30
0.0
 10
132.3194020997421
 20
-148.4860133795226
 30
0.0
 10
133.1083794176629
 20
-148.2152614420026
 30
0.0
 10
133.1083794176629
 20
-148.2152614420026
 30
0.0
 10
133.5885695406806
 20
-148.0906630599941
 30
0.0
 10
133.652468032608
 20
-148.4801356302713
 30
0.0
  0
SPLINE
  5
111
330
70
100
AcDbEntity
  8
レイヤー 1
 62
   250
420
  2299925
370
     9
100
AcDbSpline
210
0.0
220
0.0
230
1.0
 70
     9
 71
     3
 72
    17
 73
    13
 74
     0
 42
0.0000000001
 43
0.0000000001
 40
0.0
 40
0.0
 40
0.0
 40
0.0
 40
1.0
 40
1.0
 40
1.0
 40
2.0
 40
2.0
 40
2.0
 40
3.0
 40
3.0
 40
3.0
 40
4.0
 40
4.0
 40
4.0
 40
4.0
 10
132.9663337033314
 20
-147.4289677015766
 30
0.0
 10
133.0544569499677
 20
-147.6479065669647
 30
0.0
 10
132.8196509560497
 20
-147.9484911388979
 30
0.0
 10
132.4418950765612
 20
-148.1005384900025
 30
0.0
 10
132.0641646212514
 20
-148.2525756078347
 30
0.0
 10
131.6872508590479
 20
-148.1982092249152
 30
0.0
 10
131.5991276124123
 20
-147.9792703595268
 30
0.0
 10
131.5110175381605
 20
-147.7603642204269
 30
0.0
 10
131.7448923862811
 20
-147.4593558441169
 30
0.0
 10
132.1226228415908
 20
-147.3073187262848
 30
0.0
 10
132.50037872108
 20
-147.1552713751798
 30
0.0
 10
132.878223629079
 20
-147.2100615624768
 30
0.0
 10
132.9663337033314
 20
-147.4289677015766
 30
0.0
  0
SPLINE
  5
112
330
70
100
AcDbEntity
  8
レイヤー 1
 62
   250
420
  2299925
370
     9
100
AcDbSpline
210
0.0
220
0.0
230
1.0
 70
     8
 71
     3
 72
    11
 73
     7
 74
     0
 42
0.0000000001
 43
0.0000000001
 40
0.0
 40
0.0
 40
0.0
 40
0.0
 40
1.0
 40
1.0
 40
1.0
 40
2.0
 40
2.0
 40
2.0
 40
2.0
 10
131.8056516999101
 20
-148.1492217086248
 30
0.0
 10
131.8056516999101
 20
-148.1492217086248
 30
0.0
 10
131.5935395884058
 20
-147.6812869606969
 30
0.0
 10
132.3824742989888
 20
-147.4103240035399
 30
0.0
 10
132.3824742989888
 20
-147.4103240035399
 30
0.0
 10
132.8620562042825
 20
-147.2861985993068
 30
0.0
 10
132.9271320238528
 20
-147.6748170113728
 30
0.0
  0
ENDSEC
  0
SECTION
  2
OBJECTS
  0
DICTIONARY
  5
C
330
0
100
AcDbDictionary
281
     1
  3
ACAD_COLOR
350
63
  3
ACAD_DETAILVIEWSTYLE
350
6A
  3
ACAD_GROUP
350
D
  3
ACAD_LAYOUT
350
62
  3
ACAD_MATERIAL
350
10
  3
ACAD_MLEADERSTYLE
350
66
  3
ACAD_MLINESTYLE
350
5F
  3
ACAD_PLOTSETTINGS
350
61
  3
ACAD_PLOTSTYLENAME
350
E
  3
ACAD_SCALELIST
350
42
  3
ACAD_SECTIONVIEWSTYLE
350
68
  3
ACAD_TABLESTYLE
350
64
  3
ACAD_VISUALSTYLE
350
29
  3
ACDB_RECOMPOSE_DATA
350
11B
  3
AcDbVariableDictionary
350
113
  0
DICTIONARY
  5
63
102
{ACAD_REACTORS
330
C
102
}
330
C
100
AcDbDictionary
281
     1
  0
DICTIONARY
  5
6A
102
{ACAD_REACTORS
330
C
102
}
330
C
100
AcDbDictionary
281
     1
  3
Imperial24
350
6B
  0
DICTIONARY
  5
D
102
{ACAD_REACTORS
330
C
102
}
330
C
100
AcDbDictionary
281
     1
  0
DICTIONARY
  5
62
102
{ACAD_REACTORS
330
C
102
}
330
C
100
AcDbDictionary
281
     1
  3
Layout1
350
6F
  3
Layout2
350
77
  3
Model
350
73
  0
DICTIONARY
  5
10
102
{ACAD_REACTORS
330
C
102
}
330
C
100
AcDbDictionary
281
     1
  3
ByBlock
350
19
  3
ByLayer
350
11
  3
Global
350
21
  0
DICTIONARY
  5
66
102
{ACAD_REACTORS
330
C
102
}
330
C
100
AcDbDictionary
281
     1
  3
Standard
350
67
  0
DICTIONARY
  5
5F
102
{ACAD_REACTORS
330
C
102
}
330
C
100
AcDbDictionary
281
     1
  3
Standard
350
60
  0
DICTIONARY
  5
61
102
{ACAD_REACTORS
330
C
102
}
330
C
100
AcDbDictionary
281
     1
  0
ACDBDICTIONARYWDFLT
  5
E
102
{ACAD_REACTORS
330
C
102
}
330
C
100
AcDbDictionary
281
     1
  3
Normal
350
F
100
AcDbDictionaryWithDefault
340
F
  0
DICTIONARY
  5
42
102
{ACAD_REACTORS
330
C
102
}
330
C
100
AcDbDictionary
281
     1
  3
A0
350
43
  3
A1
350
44
  3
A2
350
45
  3
A3
350
46
  3
A4
350
47
  3
A5
350
48
  3
A6
350
49
  3
A7
350
4A
  3
A8
350
4B
  3
A9
350
4C
  3
B0
350
4D
  3
B1
350
4E
  3
B2
350
4F
  3
B3
350
50
  3
B4
350
51
  3
B5
350
52
  3
B6
350
53
  0
DICTIONARY
  5
68
102
{ACAD_REACTORS
330
C
102
}
330
C
100
AcDbDictionary
281
     1
  3
Imperial24
350
69
  0
DICTIONARY
  5
64
102
{ACAD_REACTORS
330
C
102
}
330
C
100
AcDbDictionary
281
     1
  3
Standard
350
65
  0
DICTIONARY
  5
29
102
{ACAD_REACTORS
330
C
102
}
330
C
100
AcDbDictionary
281
     1
  3
2dWireframe
350
2F
  3
Basic
350
2E
  3
Brighten
350
35
  3
ColorChange
350
39
  3
Conceptual
350
32
  3
Dim
350
34
  3
EdgeColorOff
350
41
  3
Facepattern
350
38
  3
Flat
350
2A
  3
FlatWithEdges
350
2B
  3
Gouraud
350
2C
  3
GouraudWithEdges
350
2D
  3
Hidden
350
31
  3
JitterOff
350
3F
  3
Linepattern
350
37
  3
OverhangOff
350
40
  3
Realistic
350
33
  3
Shaded
350
3E
  3
Shaded with edges
350
3D
  3
Shades of Gray
350
3A
  3
Sketchy
350
3B
  3
Thicken
350
36
  3
Wireframe
350
30
  3
X-Ray
350
3C
  0
XRECORD
  5
11B
102
{ACAD_REACTORS
330
C
102
}
330
C
100
AcDbXrecord
280
     1
 90
        1
330
65
  0
DICTIONARY
  5
113
102
{ACAD_REACTORS
330
C
102
}
330
C
100
AcDbDictionary
281
     1
  3
CANNOSCALE
350
118
  3
CMLEADERSTYLE
350
115
  3
CTABLESTYLE
350
114
  3
CVIEWDETAILSTYLE
350
116
  3
CVIEWSECTIONSTYLE
350
117
  0
ACDBDETAILVIEWSTYLE
  5
6B
102
{ACAD_XDICTIONARY
360
150
102
}
102
{ACAD_REACTORS
330
6A
102
}
330
6A
100
AcDbModelDocViewStyle
 70
     0
  3
Imperial24
290
     0
100
AcDbDetailViewStyle
 70
     0
 71
     0
 90
        3
 71
     1
340
55
 62
   256
 40
0.24
340
0
 62
   256
 40
0.24
300

 40
0.36
280
     3
 71
     2
340
5D
 90
       25
 62
   256
 71
     3
340
55
 62
   256
 40
0.24
 90
        1
 40
0.75
 90
        1
300
%<\AcVar ViewType \f "%tc1">% %<\AcVar ViewDetailId>%\PSCALE %<\AcVar ViewScale \f "%sn">%
 71
     4
340
5D
 90
       25
 62
   256
340
5D
 90
       25
 62
   256
280
     0
  0
LAYOUT
  5
6F
102
{ACAD_REACTORS
330
62
102
}
330
62
100
AcDbPlotSettings
  1

  2

  4

  6

 40
0.0
 41
0.0
 42
0.0
 43
0.0
 44
0.0
 45
0.0
 46
0.0
 47
0.0
 48
0.0
 49
0.0
140
0.0
141
0.0
142
1.0
143
1.0
 70
   688
 72
     0
 73
     0
 74
     5
  7

 75
    16
147
1.0
 76
     0
 77
     2
 78
   300
148
0.0
149
0.0
100
AcDbLayout
  1
Layout1
 70
     1
 71
     1
 10
0.0
 20
0.0
 11
12.0
 21
9.0
 12
0.0
 22
0.0
 32
0.0
 14
0.0
 24
0.0
 34
0.0
 15
0.0
 25
0.0
 35
0.0
146
0.0
 13
0.0
 23
0.0
 33
0.0
 16
1.0
 26
0.0
 36
0.0
 17
0.0
 27
1.0
 37
0.0
 76
     0
330
6C
  0
LAYOUT
  5
77
102
{ACAD_REACTORS
330
62
102
}
330
62
100
AcDbPlotSettings
  1

  2

  4

  6

 40
0.0
 41
0.0
 42
0.0
 43
0.0
 44
0.0
 45
0.0
 46
0.0
 47
0.0
 48
0.0
 49
0.0
140
0.0
141
0.0
142
1.0
143
1.0
 70
   688
 72
     0
 73
     0
 74
     5
  7

 75
    16
147
1.0
 76
     0
 77
     2
 78
   300
148
0.0
149
0.0
100
AcDbLayout
  1
Layout2
 70
     1
 71
     2
 10
0.0
 20
0.0
 11
12.0
 21
9.0
 12
0.0
 22
0.0
 32
0.0
 14
0.0
 24
0.0
 34
0.0
 15
0.0
 25
0.0
 35
0.0
146
0.0
 13
0.0
 23
0.0
 33
0.0
 16
1.0
 26
0.0
 36
0.0
 17
0.0
 27
1.0
 37
0.0
 76
     0
330
74
  0
LAYOUT
  5
73
102
{ACAD_REACTORS
330
62
102
}
330
62
100
AcDbPlotSettings
  1

  2

  4

  6

 40
0.0
 41
0.0
 42
0.0
 43
0.0
 44
0.0
 45
0.0
 46
0.0
 47
0.0
 48
0.0
 49
0.0
140
0.0
141
0.0
142
1.0
143
1.0
 70
  1712
 72
     0
 73
     0
 74
     0
  7

 75
     0
147
1.0
 76
     0
 77
     2
 78
   300
148
0.0
149
0.0
100
AcDbLayout
  1
Model
 70
     1
 71
     0
 10
0.0
 20
0.0
 11
12.0
 21
9.0
 12
0.0
 22
0.0
 32
0.0
 14
0.0
 24
0.0
 34
0.0
 15
0.0
 25
0.0
 35
0.0
146
0.0
 13
0.0
 23
0.0
 33
0.0
 16
1.0
 26
0.0
 36
0.0
 17
0.0
 27
1.0
 37
0.0
 76
     0
330
70
  0
MATERIAL
  5
19
102
{ACAD_XDICTIONARY
360
1A
102
}
102
{ACAD_REACTORS
330
10
102
}
330
10
100
AcDbMaterial
  1
ByBlock
 72
     0
 43
0.0208333333333333
 43
0.0
 43
0.0
 43
0.0
 43
0.0
 43
0.0208333333333333
 43
0.0
 43
0.0
 43
0.0
 43
0.0
 43
1.0
 43
0.0
 43
0.0
 43
0.0
 43
0.0
 43
1.0
 77
     0
 47
0.0208333333333333
 47
0.0
 47
0.0
 47
0.0
 47
0.0
 47
0.0208333333333333
 47
0.0
 47
0.0
 47
0.0
 47
0.0
 47
1.0
 47
0.0
 47
0.0
 47
0.0
 47
0.0
 47
1.0
171
     0
 49
0.0208333333333333
 49
0.0
 49
0.0
 49
0.0
 49
0.0
 49
0.0208333333333333
 49
0.0
 49
0.0
 49
0.0
 49
0.0
 49
1.0
 49
0.0
 49
0.0
 49
0.0
 49
0.0
 49
1.0
175
     0
142
0.0208333333333333
142
0.0
142
0.0
142
0.0
142
0.0
142
0.0208333333333333
142
0.0
142
0.0
142
0.0
142
0.0
142
1.0
142
0.0
142
0.0
142
0.0
142
0.0
142
1.0
179
     0
144
0.0208333333333333
144
0.0
144
0.0
144
0.0
144
0.0
144
0.0208333333333333
144
0.0
144
0.0
144
0.0
144
0.0
144
1.0
144
0.0
144
0.0
144
0.0
144
0.0
144
1.0
147
0.0208333333333333
147
0.0
147
0.0
147
0.0
147
0.0
147
0.0208333333333333
147
0.0
147
0.0
147
0.0
147
0.0
147
1.0
147
0.0
147
0.0
147
0.0
147
0.0
147
1.0
  0
MATERIAL
  5
11
102
{ACAD_XDICTIONARY
360
12
102
}
102
{ACAD_REACTORS
330
10
102
}
330
10
100
AcDbMaterial
  1
ByLayer
 72
     0
 43
0.0208333333333333
 43
0.0
 43
0.0
 43
0.0
 43
0.0
 43
0.0208333333333333
 43
0.0
 43
0.0
 43
0.0
 43
0.0
 43
1.0
 43
0.0
 43
0.0
 43
0.0
 43
0.0
 43
1.0
 77
     0
 47
0.0208333333333333
 47
0.0
 47
0.0
 47
0.0
 47
0.0
 47
0.0208333333333333
 47
0.0
 47
0.0
 47
0.0
 47
0.0
 47
1.0
 47
0.0
 47
0.0
 47
0.0
 47
0.0
 47
1.0
171
     0
 49
0.0208333333333333
 49
0.0
 49
0.0
 49
0.0
 49
0.0
 49
0.0208333333333333
 49
0.0
 49
0.0
 49
0.0
 49
0.0
 49
1.0
 49
0.0
 49
0.0
 49
0.0
 49
0.0
 49
1.0
175
     0
142
0.0208333333333333
142
0.0
142
0.0
142
0.0
142
0.0
142
0.0208333333333333
142
0.0
142
0.0
142
0.0
142
0.0
142
1.0
142
0.0
142
0.0
142
0.0
142
0.0
142
1.0
179
     0
144
0.0208333333333333
144
0.0
144
0.0
144
0.0
144
0.0
144
0.0208333333333333
144
0.0
144
0.0
144
0.0
144
0.0
144
1.0
144
0.0
144
0.0
144
0.0
144
0.0
144
1.0
147
0.0208333333333333
147
0.0
147
0.0
147
0.0
147
0.0
147
0.0208333333333333
147
0.0
147
0.0
147
0.0
147
0.0
147
1.0
147
0.0
147
0.0
147
0.0
147
0.0
147
1.0
  0
MATERIAL
  5
21
102
{ACAD_XDICTIONARY
360
22
102
}
102
{ACAD_REACTORS
330
10
102
}
330
10
100
AcDbMaterial
  1
Global
 72
     0
 43
0.0208333333333333
 43
0.0
 43
0.0
 43
0.0
 43
0.0
 43
0.0208333333333333
 43
0.0
 43
0.0
 43
0.0
 43
0.0
 43
1.0
 43
0.0
 43
0.0
 43
0.0
 43
0.0
 43
1.0
 77
     0
 47
0.0208333333333333
 47
0.0
 47
0.0
 47
0.0
 47
0.0
 47
0.0208333333333333
 47
0.0
 47
0.0
 47
0.0
 47
0.0
 47
1.0
 47
0.0
 47
0.0
 47
0.0
 47
0.0
 47
1.0
171
     0
 49
0.0208333333333333
 49
0.0
 49
0.0
 49
0.0
 49
0.0
 49
0.0208333333333333
 49
0.0
 49
0.0
 49
0.0
 49
0.0
 49
1.0
 49
0.0
 49
0.0
 49
0.0
 49
0.0
 49
1.0
175
     0
142
0.0208333333333333
142
0.0
142
0.0
142
0.0
142
0.0
142
0.0208333333333333
142
0.0
142
0.0
142
0.0
142
0.0
142
1.0
142
0.0
142
0.0
142
0.0
142
0.0
142
1.0
179
     0
144
0.0208333333333333
144
0.0
144
0.0
144
0.0
144
0.0
144
0.0208333333333333
144
0.0
144
0.0
144
0.0
144
0.0
144
1.0
144
0.0
144
0.0
144
0.0
144
0.0
144
1.0
147
0.0208333333333333
147
0.0
147
0.0
147
0.0
147
0.0
147
0.0208333333333333
147
0.0
147
0.0
147
0.0
147
0.0
147
1.0
147
0.0
147
0.0
147
0.0
147
0.0
147
1.0
  0
MLEADERSTYLE
  5
67
102
{ACAD_XDICTIONARY
360
14C
102
}
102
{ACAD_REACTORS
330
66
102
}
330
66
100
AcDbMLeaderStyle
179
     2
170
     2
171
     1
172
     0
 90
        2
 40
0.0
 41
0.0
173
     1
 91
-1056964608
340
5B
 92
       -2
290
     1
 42
0.09
291
     1
 43
0.36
  3
Standard
 44
0.18
300

342
55
174
     1
178
     6
175
     1
176
     0
 93
-1056964608
 45
0.18
292
     0
297
     0
 46
0.18
 94
-1056964608
 47
1.0
 49
1.0
140
1.0
293
     1
141
0.0
294
     1
177
     0
142
1.0
295
     0
296
     0
143
0.125
271
     0
272
     9
273
     9
  0
MLINESTYLE
  5
60
102
{ACAD_REACTORS
330
5F
102
}
330
5F
100
AcDbMlineStyle
  2
STANDARD
 70
     0
  3

 62
   256
 51
90.0
 52
90.0
 71
     2
 49
0.5
 62
   256
  6
BYLAYER
 49
-0.5
 62
   256
  6
BYLAYER
  0
ACDBPLACEHOLDER
  5
F
102
{ACAD_REACTORS
330
E
102
}
330
E
  0
SCALE
  5
43
102
{ACAD_REACTORS
330
42
102
}
330
42
100
AcDbScale
 70
     0
300
1:1
140
1.0
141
1.0
290
     1
  0
SCALE
  5
44
102
{ACAD_REACTORS
330
42
102
}
330
42
100
AcDbScale
 70
     0
300
1/128" = 1'-0"
140
0.0078125
141
12.0
290
     0
  0
SCALE
  5
45
102
{ACAD_REACTORS
330
42
102
}
330
42
100
AcDbScale
 70
     0
300
1/64" = 1'-0"
140
0.015625
141
12.0
290
     0
  0
SCALE
  5
46
102
{ACAD_REACTORS
330
42
102
}
330
42
100
AcDbScale
 70
     0
300
1/32" = 1'-0"
140
0.03125
141
12.0
290
     0
  0
SCALE
  5
47
102
{ACAD_REACTORS
330
42
102
}
330
42
100
AcDbScale
 70
     0
300
1/16" = 1'-0"
140
0.0625
141
12.0
290
     0
  0
SCALE
  5
48
102
{ACAD_REACTORS
330
42
102
}
330
42
100
AcDbScale
 70
     0
300
3/32" = 1'-0"
140
0.09375
141
12.0
290
     0
  0
SCALE
  5
49
102
{ACAD_REACTORS
330
42
102
}
330
42
100
AcDbScale
 70
     0
300
1/8" = 1'-0"
140
0.125
141
12.0
290
     0
  0
SCALE
  5
4A
102
{ACAD_REACTORS
330
42
102
}
330
42
100
AcDbScale
 70
     0
300
3/16" = 1'-0"
140
0.1875
141
12.0
290
     0
  0
SCALE
  5
4B
102
{ACAD_REACTORS
330
42
102
}
330
42
100
AcDbScale
 70
     0
300
1/4" = 1'-0"
140
0.25
141
12.0
290
     0
  0
SCALE
  5
4C
102
{ACAD_REACTORS
330
42
102
}
330
42
100
AcDbScale
 70
     0
300
3/8" = 1'-0"
140
0.375
141
12.0
290
     0
  0
SCALE
  5
4D
102
{ACAD_REACTORS
330
42
102
}
330
42
100
AcDbScale
 70
     0
300
1/2" = 1'-0"
140
0.5
141
12.0
290
     0
  0
SCALE
  5
4E
102
{ACAD_REACTORS
330
42
102
}
330
42
100
AcDbScale
 70
     0
300
3/4" = 1'-0"
140
0.75
141
12.0
290
     0
  0
SCALE
  5
4F
102
{ACAD_REACTORS
330
42
102
}
330
42
100
AcDbScale
 70
     0
300
1" = 1'-0"
140
1.0
141
12.0
290
     0
  0
SCALE
  5
50
102
{ACAD_REACTORS
330
42
102
}
330
42
100
AcDbScale
 70
     0
300
1-1/2" = 1'-0"
140
1.5
141
12.0
290
     0
  0
SCALE
  5
51
102
{ACAD_REACTORS
330
42
102
}
330
42
100
AcDbScale
 70
     0
300
3" = 1'-0"
140
3.0
141
12.0
290
     0
  0
SCALE
  5
52
102
{ACAD_REACTORS
330
42
102
}
330
42
100
AcDbScale
 70
     0
300
6" = 1'-0"
140
6.0
141
12.0
290
     0
  0
SCALE
  5
53
102
{ACAD_REACTORS
330
42
102
}
330
42
100
AcDbScale
 70
     0
300
1'-0" = 1'-0"
140
12.0
141
12.0
290
     0
  0
ACDBSECTIONVIEWSTYLE
  5
69
102
{ACAD_XDICTIONARY
360
14E
102
}
102
{ACAD_REACTORS
330
68
102
}
330
68
100
AcDbModelDocViewStyle
 70
     0
  3
Imperial24
290
     0
100
AcDbSectionViewStyle
 70
     0
 71
     0
 90
       78
 71
     1
340
55
 62
   256
 40
0.24
340
0
340
0
 62
   256
 40
0.24
300
I, O, Q, S, X, Z
 40
0.48
 90
        3
 40
0.18
 90
        1
 71
     2
340
5D
 90
       25
 62
   256
340
5D
 90
       50
 62
   256
 40
0.24
 40
0.0
 40
0.24
 71
     3
340
55
 62
   256
 40
0.24
 90
        1
 40
0.75
 90
        1
300
%<\AcVar ViewType \f "%tc1">% %<\AcVar ViewSectionStartId>%-%<\AcVar ViewSectionEndId>%\PSCALE %<\AcVar ViewScale \f "%sn">%
 71
     4
 62
   256
 62
   257
300
ANSI31
 40
1.0
 90
        0
290
     0
290
     0
 90
        6
 40
0.0
 40
1.570796326794896
 40
0.2617993877991494
 40
1.308996938995747
 40
-0.2617993877991494
 40
1.832595714594046
  0
TABLESTYLE
  5
65
102
{ACAD_XDICTIONARY
360
119
102
}
102
{ACAD_REACTORS
330
64
102
}
330
64
100
AcDbTableStyle
280
     0
  3
Standard
 70
     0
 71
     0
 40
0.06
 41
0.06
280
     0
281
     0
  7
Standard
140
0.18
170
     2
 62
     0
 63
     7
283
     0
 90
      512
 91
        0
  1

274
    -2
284
     1
 64
     0
275
    -2
285
     1
 65
     0
276
    -2
286
     1
 66
     0
277
    -2
287
     1
 67
     0
278
    -2
288
     1
 68
     0
279
    -2
289
     1
 69
     0
  7
Standard
140
0.25
170
     5
 62
     0
 63
     7
283
     0
 90
      512
 91
        0
  1

274
    -2
284
     1
 64
     0
275
    -2
285
     1
 65
     0
276
    -2
286
     1
 66
     0
277
    -2
287
     1
 67
     0
278
    -2
288
     1
 68
     0
279
    -2
289
     1
 69
     0
  7
Standard
140
0.18
170
     5
 62
     0
 63
     7
283
     0
 90
      512
 91
        0
  1

274
    -2
284
     1
 64
     0
275
    -2
285
     1
 65
     0
276
    -2
286
     1
 66
     0
277
    -2
287
     1
 67
     0
278
    -2
288
     1
 68
     0
279
    -2
289
     1
 69
     0
  0
VISUALSTYLE
  5
2F
102
{ACAD_XDICTIONARY
360
126
102
}
102
{ACAD_REACTORS
330
29
102
}
330
29
100
AcDbVisualStyle
  2
2dWireframe
 70
     4
177
     2
291
     0
 71
     0
176
     1
 72
     2
176
     1
 73
     0
176
     1
 90
        0
176
     1
 40
0.6
176
     1
 41
30.0
176
     1
 63
     7
421
 16777215
176
     1
 74
     1
176
     1
 91
        4
176
     1
 64
     7
176
     1
 65
   257
176
     1
 75
     1
176
     1
175
     1
176
     1
 42
1.0
176
     1
 92
        0
176
     1
 66
   257
176
     1
 43
1.0
176
     1
 76
     1
176
     1
 77
     6
176
     1
 78
     2
176
     1
 67
     7
176
     1
 79
     5
176
     1
170
     0
176
     1
171
     0
176
     1
290
     0
176
     1
 93
        1
176
     1
 44
0.0
176
     1
173
     0
176
     1
1001
ACAD
1000
AcDbSavedByObjectVersion
1070
     0
  0
VISUALSTYLE
  5
2E
102
{ACAD_XDICTIONARY
360
124
102
}
102
{ACAD_REACTORS
330
29
102
}
330
29
100
AcDbVisualStyle
  2
Basic
 70
     7
177
     2
291
     1
 71
     1
176
     1
 72
     0
176
     1
 73
     1
176
     1
 90
        0
176
     1
 40
0.6
176
     1
 41
30.0
176
     1
 63
     7
421
 16777215
176
     1
 74
     0
176
     1
 91
        4
176
     1
 64
     7
176
     1
 65
   257
176
     1
 75
     1
176
     1
175
     1
176
     1
 42
1.0
176
     1
 92
        8
176
     1
 66
     7
176
     1
 43
1.0
176
     1
 76
     1
176
     1
 77
     6
176
     1
 78
     2
176
     1
 67
     7
176
     1
 79
     5
176
     1
170
     0
176
     1
171
     0
176
     1
290
     0
176
     1
 93
        1
176
     1
 44
0.0
176
     1
173
     0
176
     1
1001
ACAD
1000
AcDbSavedByObjectVersion
1070
     0
  0
VISUALSTYLE
  5
35
102
{ACAD_XDICTIONARY
360
132
102
}
102
{ACAD_REACTORS
330
29
102
}
330
29
100
AcDbVisualStyle
  2
Brighten
 70
    12
177
     2
291
     1
 71
     2
176
     1
 72
     2
176
     1
 73
     0
176
     1
 90
        0
176
     1
 40
0.6
176
     1
 41
30.0
176
     1
 63
     7
421
 16777215
176
     1
 74
     1
176
     1
 91
        4
176
     1
 64
     7
176
     1
 65
   257
176
     1
 75
     1
176
     1
175
     1
176
     1
 42
1.0
176
     1
 92
        8
176
     1
 66
     7
176
     1
 43
1.0
176
     1
 76
     1
176
     1
 77
     6
176
     1
 78
     2
176
     1
 67
     7
176
     1
 79
     5
176
     1
170
     0
176
     1
171
     0
176
     1
290
     0
176
     1
 93
        1
176
     1
 44
50.0
176
     1
173
     0
176
     1
1001
ACAD
1000
AcDbSavedByObjectVersion
1070
     0
  0
VISUALSTYLE
  5
39
102
{ACAD_XDICTIONARY
360
13A
102
}
102
{ACAD_REACTORS
330
29
102
}
330
29
100
AcDbVisualStyle
  2
ColorChange
 70
    16
177
     2
291
     1
 71
     2
176
     1
 72
     2
176
     1
 73
     3
176
     1
 90
        0
176
     1
 40
0.6
176
     1
 41
30.0
176
     1
 63
     8
421
  8421504
176
     1
 74
     1
176
     1
 91
        4
176
     1
 64
     7
176
     1
 65
   257
176
     1
 75
     1
176
     1
175
     1
176
     1
 42
1.0
176
     1
 92
        8
176
     1
 66
     8
424
  8421504
176
     1
 43
1.0
176
     1
 76
     1
176
     1
 77
     6
176
     1
 78
     2
176
     1
 67
     7
176
     1
 79
     5
176
     1
170
     0
176
     1
171
     0
176
     1
290
     0
176
     1
 93
        1
176
     1
 44
0.0
176
     1
173
     0
176
     1
1001
ACAD
1000
AcDbSavedByObjectVersion
1070
     0
  0
VISUALSTYLE
  5
32
102
{ACAD_XDICTIONARY
360
12C
102
}
102
{ACAD_REACTORS
330
29
102
}
330
29
100
AcDbVisualStyle
  2
Conceptual
 70
     9
177
     2
291
     0
 71
     3
176
     1
 72
     2
176
     1
 73
     0
176
     1
 90
        0
176
     1
 40
0.6
176
     1
 41
30.0
176
     1
 63
     7
421
 16777215
176
     1
 74
     2
176
     1
 91
        2
176
     1
 64
     7
176
     1
 65
   257
176
     1
 75
     1
176
     1
175
     1
176
     1
 42
179.0
176
     1
 92
        8
176
     1
 66
     7
176
     1
 43
1.0
176
     1
 76
     1
176
     1
 77
     6
176
     1
 78
     2
176
     1
 67
     7
176
     1
 79
     3
176
     1
170
     0
176
     1
171
     0
176
     1
290
     0
176
     1
 93
        1
176
     1
 44
0.0
176
     1
173
     0
176
     1
1001
ACAD
1000
AcDbSavedByObjectVersion
1070
     0
  0
VISUALSTYLE
  5
34
102
{ACAD_XDICTIONARY
360
130
102
}
102
{ACAD_REACTORS
330
29
102
}
330
29
100
AcDbVisualStyle
  2
Dim
 70
    11
177
     2
291
     1
 71
     2
176
     1
 72
     2
176
     1
 73
     0
176
     1
 90
        0
176
     1
 40
0.6
176
     1
 41
30.0
176
     1
 63
     7
421
 16777215
176
     1
 74
     1
176
     1
 91
        4
176
     1
 64
     7
176
     1
 65
   257
176
     1
 75
     1
176
     1
175
     1
176
     1
 42
1.0
176
     1
 92
        8
176
     1
 66
     7
176
     1
 43
1.0
176
     1
 76
     1
176
     1
 77
     6
176
     1
 78
     2
176
     1
 67
     7
176
     1
 79
     5
176
     1
170
     0
176
     1
171
     0
176
     1
290
     0
176
     1
 93
        1
176
     1
 44
-50.0
176
     1
173
     0
176
     1
1001
ACAD
1000
AcDbSavedByObjectVersion
1070
     0
  0
VISUALSTYLE
  5
41
102
{ACAD_XDICTIONARY
360
14A
102
}
102
{ACAD_REACTORS
330
29
102
}
330
29
100
AcDbVisualStyle
  2
EdgeColorOff
 70
    22
177
     2
291
     1
 71
     2
176
     0
 72
     2
176
     0
 73
     0
176
     0
 90
        0
176
     0
 40
0.6
176
     0
 41
30.0
176
     0
 63
     7
421
 16777215
176
     0
 74
     1
176
     0
 91
        4
176
     0
 64
     7
176
     0
 65
   257
176
     0
 75
     1
176
     0
175
     1
176
     0
 42
1.0
176
     0
 92
        8
176
     2
 66
     7
176
     0
 43
1.0
176
     0
 76
     1
176
     0
 77
     6
176
     0
 78
     2
176
     0
 67
     7
176
     0
 79
     5
176
     0
170
     0
176
     0
171
     0
176
     0
290
     0
176
     0
 93
        1
176
     0
 44
0.0
176
     0
173
     0
176
     0
1001
ACAD
1000
AcDbSavedByObjectVersion
1070
     0
  0
VISUALSTYLE
  5
38
102
{ACAD_XDICTIONARY
360
138
102
}
102
{ACAD_REACTORS
330
29
102
}
330
29
100
AcDbVisualStyle
  2
Facepattern
 70
    15
177
     2
291
     1
 71
     2
176
     1
 72
     2
176
     1
 73
     0
176
     1
 90
        0
176
     1
 40
0.6
176
     1
 41
30.0
176
     1
 63
     7
421
 16777215
176
     1
 74
     1
176
     1
 91
        4
176
     1
 64
     7
176
     1
 65
   257
176
     1
 75
     1
176
     1
175
     1
176
     1
 42
1.0
176
     1
 92
        8
176
     1
 66
     7
176
     1
 43
1.0
176
     1
 76
     1
176
     1
 77
     6
176
     1
 78
     2
176
     1
 67
     7
176
     1
 79
     5
176
     1
170
     0
176
     1
171
     0
176
     1
290
     0
176
     1
 93
        1
176
     1
 44
0.0
176
     1
173
     0
176
     1
1001
ACAD
1000
AcDbSavedByObjectVersion
1070
     0
  0
VISUALSTYLE
  5
2A
102
{ACAD_XDICTIONARY
360
11C
102
}
102
{ACAD_REACTORS
330
29
102
}
330
29
100
AcDbVisualStyle
  2
Flat
 70
     0
177
     2
291
     1
 71
     2
176
     1
 72
     1
176
     1
 73
     1
176
     1
 90
        2
176
     1
 40
0.6
176
     1
 41
30.0
176
     1
 63
     7
421
 16777215
176
     1
 74
     0
176
     1
 91
        0
176
     1
 64
     7
176
     1
 65
   257
176
     1
 75
     1
176
     1
175
     1
176
     1
 42
1.0
176
     1
 92
        8
176
     1
 66
     7
176
     1
 43
1.0
176
     1
 76
     1
176
     1
 77
     6
176
     1
 78
     2
176
     1
 67
     7
176
     1
 79
     5
176
     1
170
     0
176
     1
171
     0
176
     1
290
     0
176
     1
 93
       13
176
     1
 44
0.0
176
     1
173
     0
176
     1
1001
ACAD
1000
AcDbSavedByObjectVersion
1070
     0
  0
VISUALSTYLE
  5
2B
102
{ACAD_XDICTIONARY
360
11E
102
}
102
{ACAD_REACTORS
330
29
102
}
330
29
100
AcDbVisualStyle
  2
FlatWithEdges
 70
     1
177
     2
291
     1
 71
     2
176
     1
 72
     1
176
     1
 73
     1
176
     1
 90
        2
176
     1
 40
0.6
176
     1
 41
30.0
176
     1
 63
     7
421
 16777215
176
     1
 74
     1
176
     1
 91
        0
176
     1
 64
     7
176
     1
 65
   257
176
     1
 75
     1
176
     1
175
     1
176
     1
 42
1.0
176
     1
 92
        0
176
     1
 66
   257
176
     1
 43
1.0
176
     1
 76
     1
176
     1
 77
     6
176
     1
 78
     2
176
     1
 67
     7
176
     1
 79
     5
176
     1
170
     0
176
     1
171
     0
176
     1
290
     0
176
     1
 93
       13
176
     1
 44
0.0
176
     1
173
     0
176
     1
1001
ACAD
1000
AcDbSavedByObjectVersion
1070
     0
  0
VISUALSTYLE
  5
2C
102
{ACAD_XDICTIONARY
360
120
102
}
102
{ACAD_REACTORS
330
29
102
}
330
29
100
AcDbVisualStyle
  2
Gouraud
 70
     2
177
     2
291
     1
 71
     2
176
     1
 72
     2
176
     1
 73
     1
176
     1
 90
        2
176
     1
 40
0.6
176
     1
 41
30.0
176
     1
 63
     7
421
 16777215
176
     1
 74
     0
176
     1
 91
        0
176
     1
 64
     7
176
     1
 65
   257
176
     1
 75
     1
176
     1
175
     1
176
     1
 42
1.0
176
     1
 92
        0
176
     1
 66
     7
176
     1
 43
1.0
176
     1
 76
     1
176
     1
 77
     6
176
     1
 78
     2
176
     1
 67
     7
176
     1
 79
     5
176
     1
170
     0
176
     1
171
     0
176
     1
290
     0
176
     1
 93
       13
176
     1
 44
0.0
176
     1
173
     0
176
     1
1001
ACAD
1000
AcDbSavedByObjectVersion
1070
     0
  0
VISUALSTYLE
  5
2D
102
{ACAD_XDICTIONARY
360
122
102
}
102
{ACAD_REACTORS
330
29
102
}
330
29
100
AcDbVisualStyle
  2
GouraudWithEdges
 70
     3
177
     2
291
     1
 71
     2
176
     1
 72
     2
176
     1
 73
     1
176
     1
 90
        2
176
     1
 40
0.6
176
     1
 41
30.0
176
     1
 63
     7
421
 16777215
176
     1
 74
     1
176
     1
 91
        0
176
     1
 64
     7
176
     1
 65
   257
176
     1
 75
     1
176
     1
175
     1
176
     1
 42
1.0
176
     1
 92
        0
176
     1
 66
   257
176
     1
 43
1.0
176
     1
 76
     1
176
     1
 77
     6
176
     1
 78
     2
176
     1
 67
     7
176
     1
 79
     5
176
     1
170
     0
176
     1
171
     0
176
     1
290
     0
176
     1
 93
       13
176
     1
 44
0.0
176
     1
173
     0
176
     1
1001
ACAD
1000
AcDbSavedByObjectVersion
1070
     0
  0
VISUALSTYLE
  5
31
102
{ACAD_XDICTIONARY
360
12A
102
}
102
{ACAD_REACTORS
330
29
102
}
330
29
100
AcDbVisualStyle
  2
Hidden
 70
     6
177
     2
291
     0
 71
     1
176
     1
 72
     2
176
     1
 73
     2
176
     1
 90
        0
176
     1
 40
0.6
176
     1
 41
30.0
176
     1
 63
     7
421
 16777215
176
     1
 74
     2
176
     1
 91
        2
176
     1
 64
     7
176
     1
 65
   257
176
     1
 75
     2
176
     1
175
     1
176
     1
 42
40.0
176
     1
 92
        0
176
     1
 66
   257
176
     1
 43
1.0
176
     1
 76
     1
176
     1
 77
     6
176
     1
 78
     2
176
     1
 67
     7
176
     1
 79
     3
176
     1
170
     0
176
     1
171
     0
176
     1
290
     0
176
     1
 93
        1
176
     1
 44
0.0
176
     1
173
     0
176
     1
1001
ACAD
1000
AcDbSavedByObjectVersion
1070
     0
  0
VISUALSTYLE
  5
3F
102
{ACAD_XDICTIONARY
360
146
102
}
102
{ACAD_REACTORS
330
29
102
}
330
29
100
AcDbVisualStyle
  2
JitterOff
 70
    20
177
     2
291
     1
 71
     2
176
     0
 72
     2
176
     0
 73
     0
176
     0
 90
        0
176
     0
 40
0.6
176
     0
 41
30.0
176
     0
 63
     7
421
 16777215
176
     0
 74
     1
176
     0
 91
        4
176
     0
 64
     7
176
     0
 65
   257
176
     0
 75
     1
176
     0
175
     1
176
     0
 42
1.0
176
     0
 92
       10
176
     2
 66
     7
176
     0
 43
1.0
176
     0
 76
     1
176
     0
 77
     6
176
     0
 78
     2
176
     0
 67
     7
176
     0
 79
     5
176
     0
170
     0
176
     0
171
     0
176
     0
290
     0
176
     0
 93
        1
176
     0
 44
0.0
176
     0
173
     0
176
     0
1001
ACAD
1000
AcDbSavedByObjectVersion
1070
     0
  0
VISUALSTYLE
  5
37
102
{ACAD_XDICTIONARY
360
136
102
}
102
{ACAD_REACTORS
330
29
102
}
330
29
100
AcDbVisualStyle
  2
Linepattern
 70
    14
177
     2
291
     1
 71
     2
176
     1
 72
     2
176
     1
 73
     0
176
     1
 90
        0
176
     1
 40
0.6
176
     1
 41
30.0
176
     1
 63
     7
421
 16777215
176
     1
 74
     1
176
     1
 91
        4
176
     1
 64
     7
176
     1
 65
   257
176
     1
 75
     7
176
     1
175
     7
176
     1
 42
1.0
176
     1
 92
        8
176
     1
 66
     7
176
     1
 43
1.0
176
     1
 76
     1
176
     1
 77
     6
176
     1
 78
     2
176
     1
 67
     7
176
     1
 79
     5
176
     1
170
     0
176
     1
171
     0
176
     1
290
     0
176
     1
 93
        1
176
     1
 44
0.0
176
     1
173
     0
176
     1
1001
ACAD
1000
AcDbSavedByObjectVersion
1070
     0
  0
VISUALSTYLE
  5
40
102
{ACAD_XDICTIONARY
360
148
102
}
102
{ACAD_REACTORS
330
29
102
}
330
29
100
AcDbVisualStyle
  2
OverhangOff
 70
    21
177
     2
291
     1
 71
     2
176
     0
 72
     2
176
     0
 73
     0
176
     0
 90
        0
176
     0
 40
0.6
176
     0
 41
30.0
176
     0
 63
     7
421
 16777215
176
     0
 74
     1
176
     0
 91
        4
176
     0
 64
     7
176
     0
 65
   257
176
     0
 75
     1
176
     0
175
     1
176
     0
 42
1.0
176
     0
 92
        9
176
     2
 66
     7
176
     0
 43
1.0
176
     0
 76
     1
176
     0
 77
     6
176
     0
 78
     2
176
     0
 67
     7
176
     0
 79
     5
176
     0
170
     0
176
     0
171
     0
176
     0
290
     0
176
     0
 93
        1
176
     0
 44
0.0
176
     0
173
     0
176
     0
1001
ACAD
1000
AcDbSavedByObjectVersion
1070
     0
  0
VISUALSTYLE
  5
33
102
{ACAD_XDICTIONARY
360
12E
102
}
102
{ACAD_REACTORS
330
29
102
}
330
29
100
AcDbVisualStyle
  2
Realistic
 70
     8
177
     2
291
     0
 71
     2
176
     1
 72
     3
176
     1
 73
     0
176
     1
 90
        2
176
     1
 40
0.6
176
     1
 41
30.0
176
     1
 63
     7
421
 16777215
176
     1
 74
     0
176
     1
 91
        0
176
     1
 64
     7
176
     1
 65
   257
176
     1
 75
     1
176
     1
175
     1
176
     1
 42
1.0
176
     1
 92
        8
176
     1
 66
   257
176
     1
 43
1.0
176
     1
 76
     1
176
     1
 77
     6
176
     1
 78
     2
176
     1
 67
     7
176
     1
 79
     3
176
     1
170
     0
176
     1
171
     0
176
     1
290
     0
176
     1
 93
       13
176
     1
 44
0.0
176
     1
173
     0
176
     1
1001
ACAD
1000
AcDbSavedByObjectVersion
1070
     0
  0
VISUALSTYLE
  5
3E
102
{ACAD_XDICTIONARY
360
144
102
}
102
{ACAD_REACTORS
330
29
102
}
330
29
100
AcDbVisualStyle
  2
Shaded
 70
    27
177
     2
291
     0
 71
     2
176
     1
 72
     2
176
     1
 73
     1
176
     1
 90
        2
176
     1
 40
0.6
176
     1
 41
30.0
176
     1
 63
     7
421
 16777215
176
     1
 74
     0
176
     1
 91
        4
176
     1
 64
     7
176
     1
 65
   257
176
     1
 75
     1
176
     1
175
     1
176
     1
 42
1.0
176
     1
 92
        8
176
     1
 66
   257
176
     1
 43
1.0
176
     1
 76
     1
176
     1
 77
     6
176
     1
 78
     2
176
     1
 67
     8
425
  7895160
176
     1
 79
     3
176
     1
170
     0
176
     1
171
     0
176
     1
290
     0
176
     1
 93
        5
176
     1
 44
0.0
176
     1
173
     0
176
     1
1001
ACAD
1000
AcDbSavedByObjectVersion
1070
     0
  0
VISUALSTYLE
  5
3D
102
{ACAD_XDICTIONARY
360
142
102
}
102
{ACAD_REACTORS
330
29
102
}
330
29
100
AcDbVisualStyle
  2
Shaded with edges
 70
    26
177
     2
291
     0
 71
     2
176
     1
 72
     2
176
     1
 73
     1
176
     1
 90
        2
176
     1
 40
0.6
176
     1
 41
30.0
176
     1
 63
     7
421
 16777215
176
     1
 74
     1
176
     1
 91
        2
176
     1
 64
     7
176
     1
 65
   257
176
     1
 75
     2
176
     1
175
     1
176
     1
 42
1.0
176
     1
 92
        8
176
     1
 66
   257
176
     1
 43
1.0
176
     1
 76
     1
176
     1
 77
     6
176
     1
 78
     2
176
     1
 67
     7
176
     1
 79
     3
176
     1
170
     0
176
     1
171
     0
176
     1
290
     0
176
     1
 93
        5
176
     1
 44
0.0
176
     1
173
     0
176
     1
1001
ACAD
1000
AcDbSavedByObjectVersion
1070
     0
  0
VISUALSTYLE
  5
3A
102
{ACAD_XDICTIONARY
360
13C
102
}
102
{ACAD_REACTORS
330
29
102
}
330
29
100
AcDbVisualStyle
  2
Shades of Gray
 70
    23
177
     2
291
     0
 71
     2
176
     1
 72
     2
176
     1
 73
     3
176
     1
 90
        0
176
     1
 40
0.6
176
     1
 41
30.0
176
     1
 63
     7
421
 16777215
176
     1
 74
     2
176
     1
 91
        2
176
     1
 64
     7
176
     1
 65
     7
176
     1
 75
     1
176
     1
175
     1
176
     1
 42
40.0
176
     1
 92
        8
176
     1
 66
     7
176
     1
 43
1.0
176
     1
 76
     1
176
     1
 77
     6
176
     1
 78
     2
176
     1
 67
     7
176
     1
 79
     3
176
     1
170
     0
176
     1
171
     0
176
     1
290
     0
176
     1
 93
        1
176
     1
 44
0.0
176
     1
173
     0
176
     1
1001
ACAD
1000
AcDbSavedByObjectVersion
1070
     0
  0
VISUALSTYLE
  5
3B
102
{ACAD_XDICTIONARY
360
13E
102
}
102
{ACAD_REACTORS
330
29
102
}
330
29
100
AcDbVisualStyle
  2
Sketchy
 70
    24
177
     2
291
     0
 71
     1
176
     1
 72
     2
176
     1
 73
     2
176
     1
 90
        0
176
     1
 40
0.6
176
     1
 41
30.0
176
     1
 63
     7
421
 16777215
176
     1
 74
     2
176
     1
 91
        2
176
     1
 64
     7
176
     1
 65
     7
176
     1
 75
     1
176
     1
175
     1
176
     1
 42
40.0
176
     1
 92
       11
176
     1
 66
     7
176
     1
 43
1.0
176
     1
 76
     1
176
     1
 77
     6
176
     1
 78
     2
176
     1
 67
     7
176
     1
 79
     6
176
     1
170
     0
176
     1
171
     0
176
     1
290
     0
176
     1
 93
        1
176
     1
 44
0.0
176
     1
173
     0
176
     1
1001
ACAD
1000
AcDbSavedByObjectVersion
1070
     0
  0
VISUALSTYLE
  5
36
102
{ACAD_XDICTIONARY
360
134
102
}
102
{ACAD_REACTORS
330
29
102
}
330
29
100
AcDbVisualStyle
  2
Thicken
 70
    13
177
     2
291
     1
 71
     2
176
     1
 72
     2
176
     1
 73
     0
176
     1
 90
        0
176
     1
 40
0.6
176
     1
 41
30.0
176
     1
 63
     7
421
 16777215
176
     1
 74
     1
176
     1
 91
        4
176
     1
 64
     7
176
     1
 65
   257
176
     1
 75
     1
176
     1
175
     1
176
     1
 42
1.0
176
     1
 92
       12
176
     1
 66
     7
176
     1
 43
1.0
176
     1
 76
     1
176
     1
 77
     6
176
     1
 78
     2
176
     1
 67
     7
176
     1
 79
     5
176
     1
170
     0
176
     1
171
     0
176
     1
290
     0
176
     1
 93
        1
176
     1
 44
0.0
176
     1
173
     0
176
     1
1001
ACAD
1000
AcDbSavedByObjectVersion
1070
     0
  0
VISUALSTYLE
  5
30
102
{ACAD_XDICTIONARY
360
128
102
}
102
{ACAD_REACTORS
330
29
102
}
330
29
100
AcDbVisualStyle
  2
Wireframe
 70
     5
177
     2
291
     0
 71
     0
176
     1
 72
     2
176
     1
 73
     0
176
     1
 90
        0
176
     1
 40
0.6
176
     1
 41
30.0
176
     1
 63
     7
421
 16777215
176
     1
 74
     1
176
     1
 91
        4
176
     1
 64
     7
176
     1
 65
   257
176
     1
 75
     1
176
     1
175
     1
176
     1
 42
1.0
176
     1
 92
        0
176
     1
 66
   257
176
     1
 43
1.0
176
     1
 76
     1
176
     1
 77
     6
176
     1
 78
     2
176
     1
 67
     7
176
     1
 79
     3
176
     1
170
     0
176
     1
171
     0
176
     1
290
     0
176
     1
 93
        1
176
     1
 44
0.0
176
     1
173
     0
176
     1
1001
ACAD
1000
AcDbSavedByObjectVersion
1070
     0
  0
VISUALSTYLE
  5
3C
102
{ACAD_XDICTIONARY
360
140
102
}
102
{ACAD_REACTORS
330
29
102
}
330
29
100
AcDbVisualStyle
  2
X-Ray
 70
    25
177
     2
291
     0
 71
     2
176
     1
 72
     2
176
     1
 73
     1
176
     1
 90
        1
176
     1
 40
0.5
176
     1
 41
30.0
176
     1
 63
     7
421
 16777215
176
     1
 74
     1
176
     1
 91
        0
176
     1
 64
     7
176
     1
 65
   257
176
     1
 75
     1
176
     1
175
     1
176
     1
 42
1.0
176
     1
 92
        8
176
     1
 66
     7
176
     1
 43
1.0
176
     1
 76
     1
176
     1
 77
     6
176
     1
 78
     2
176
     1
 67
     7
176
     1
 79
     3
176
     1
170
     0
176
     1
171
     0
176
     1
290
     0
176
     1
 93
       13
176
     1
 44
0.0
176
     1
173
     0
176
     1
1001
ACAD
1000
AcDbSavedByObjectVersion
1070
     0
  0
DICTIONARYVAR
  5
118
102
{ACAD_REACTORS
330
113
102
}
330
113
100
DictionaryVariables
280
     0
  1
1:1
  0
DICTIONARYVAR
  5
115
102
{ACAD_REACTORS
330
113
102
}
330
113
100
DictionaryVariables
280
     0
  1
STANDARD
  0
DICTIONARYVAR
  5
114
102
{ACAD_REACTORS
330
113
102
}
330
113
100
DictionaryVariables
280
     0
  1
STANDARD
  0
DICTIONARYVAR
  5
116
102
{ACAD_REACTORS
330
113
102
}
330
113
100
DictionaryVariables
280
     0
  1
Imperial24
  0
DICTIONARYVAR
  5
117
102
{ACAD_REACTORS
330
113
102
}
330
113
100
DictionaryVariables
280
     0
  1
Imperial24
  0
DICTIONARY
  5
150
330
6B
100
AcDbDictionary
280
     1
281
     1
  3
ACAD_XREC_ROUNDTRIP
360
151
  0
DICTIONARY
  5
1A
330
19
100
AcDbDictionary
280
     1
281
     1
  3
BUMPTILE
360
1C
  3
DIFFUSETILE
360
1B
  3
OPACITYTILE
360
1F
  3
REFLECTIONTILE
360
1E
  3
REFRACTIONTILE
360
20
  3
SPECULARTILE
360
1D
  0
DICTIONARY
  5
12
330
11
100
AcDbDictionary
280
     1
281
     1
  3
BUMPTILE
360
14
  3
DIFFUSETILE
360
13
  3
OPACITYTILE
360
17
  3
REFLECTIONTILE
360
16
  3
REFRACTIONTILE
360
18
  3
SPECULARTILE
360
15
  0
DICTIONARY
  5
22
330
21
100
AcDbDictionary
280
     1
281
     1
  3
BUMPTILE
360
24
  3
DIFFUSETILE
360
23
  3
OPACITYTILE
360
27
  3
REFLECTIONTILE
360
26
  3
REFRACTIONTILE
360
28
  3
SPECULARTILE
360
25
  0
DICTIONARY
  5
14C
330
67
100
AcDbDictionary
280
     1
281
     1
  3
ACAD_XREC_ROUNDTRIP
360
14D
  0
DICTIONARY
  5
14E
330
69
100
AcDbDictionary
280
     1
281
     1
  3
ACAD_XREC_ROUNDTRIP
360
14F
  0
DICTIONARY
  5
119
330
65
100
AcDbDictionary
280
     1
281
     1
  3
ACAD_ROUNDTRIP_2008_TABLESTYLE_CELLSTYLEMAP
360
11A
  0
DICTIONARY
  5
126
330
2F
100
AcDbDictionary
280
     1
281
     1
  3
ACAD_XREC_ROUNDTRIP
360
127
  0
DICTIONARY
  5
124
330
2E
100
AcDbDictionary
280
     1
281
     1
  3
ACAD_XREC_ROUNDTRIP
360
125
  0
DICTIONARY
  5
132
330
35
100
AcDbDictionary
280
     1
281
     1
  3
ACAD_XREC_ROUNDTRIP
360
133
  0
DICTIONARY
  5
13A
330
39
100
AcDbDictionary
280
     1
281
     1
  3
ACAD_XREC_ROUNDTRIP
360
13B
  0
DICTIONARY
  5
12C
330
32
100
AcDbDictionary
280
     1
281
     1
  3
ACAD_XREC_ROUNDTRIP
360
12D
  0
DICTIONARY
  5
130
330
34
100
AcDbDictionary
280
     1
281
     1
  3
ACAD_XREC_ROUNDTRIP
360
131
  0
DICTIONARY
  5
14A
330
41
100
AcDbDictionary
280
     1
281
     1
  3
ACAD_XREC_ROUNDTRIP
360
14B
  0
DICTIONARY
  5
138
330
38
100
AcDbDictionary
280
     1
281
     1
  3
ACAD_XREC_ROUNDTRIP
360
139
  0
DICTIONARY
  5
11C
330
2A
100
AcDbDictionary
280
     1
281
     1
  3
ACAD_XREC_ROUNDTRIP
360
11D
  0
DICTIONARY
  5
11E
330
2B
100
AcDbDictionary
280
     1
281
     1
  3
ACAD_XREC_ROUNDTRIP
360
11F
  0
DICTIONARY
  5
120
330
2C
100
AcDbDictionary
280
     1
281
     1
  3
ACAD_XREC_ROUNDTRIP
360
121
  0
DICTIONARY
  5
122
330
2D
100
AcDbDictionary
280
     1
281
     1
  3
ACAD_XREC_ROUNDTRIP
360
123
  0
DICTIONARY
  5
12A
330
31
100
AcDbDictionary
280
     1
281
     1
  3
ACAD_XREC_ROUNDTRIP
360
12B
  0
DICTIONARY
  5
146
330
3F
100
AcDbDictionary
280
     1
281
     1
  3
ACAD_XREC_ROUNDTRIP
360
147
  0
DICTIONARY
  5
136
330
37
100
AcDbDictionary
280
     1
281
     1
  3
ACAD_XREC_ROUNDTRIP
360
137
  0
DICTIONARY
  5
148
330
40
100
AcDbDictionary
280
     1
281
     1
  3
ACAD_XREC_ROUNDTRIP
360
149
  0
DICTIONARY
  5
12E
330
33
100
AcDbDictionary
280
     1
281
     1
  3
ACAD_XREC_ROUNDTRIP
360
12F
  0
DICTIONARY
  5
144
330
3E
100
AcDbDictionary
280
     1
281
     1
  3
ACAD_XREC_ROUNDTRIP
360
145
  0
DICTIONARY
  5
142
330
3D
100
AcDbDictionary
280
     1
281
     1
  3
ACAD_XREC_ROUNDTRIP
360
143
  0
DICTIONARY
  5
13C
330
3A
100
AcDbDictionary
280
     1
281
     1
  3
ACAD_XREC_ROUNDTRIP
360
13D
  0
DICTIONARY
  5
13E
330
3B
100
AcDbDictionary
280
     1
281
     1
  3
ACAD_XREC_ROUNDTRIP
360
13F
  0
DICTIONARY
  5
134
330
36
100
AcDbDictionary
280
     1
281
     1
  3
ACAD_XREC_ROUNDTRIP
360
135
  0
DICTIONARY
  5
128
330
30
100
AcDbDictionary
280
     1
281
     1
  3
ACAD_XREC_ROUNDTRIP
360
129
  0
DICTIONARY
  5
140
330
3C
100
AcDbDictionary
280
     1
281
     1
  3
ACAD_XREC_ROUNDTRIP
360
141
  0
XRECORD
  5
151
102
{ACAD_REACTORS
330
150
102
}
330
150
100
AcDbXrecord
280
     1
102
DISPLAYNAME
  1
Imperial24
102
FLAGS
 90
        0
  0
XRECORD
  5
1C
102
{ACAD_REACTORS
330
1A
102
}
330
1A
100
AcDbXrecord
280
     1
270
     1
271
     1
  0
XRECORD
  5
1B
102
{ACAD_REACTORS
330
1A
102
}
330
1A
100
AcDbXrecord
280
     1
270
     1
271
     1
  0
XRECORD
  5
1F
102
{ACAD_REACTORS
330
1A
102
}
330
1A
100
AcDbXrecord
280
     1
270
     1
271
     1
  0
XRECORD
  5
1E
102
{ACAD_REACTORS
330
1A
102
}
330
1A
100
AcDbXrecord
280
     1
270
     1
271
     1
  0
XRECORD
  5
20
102
{ACAD_REACTORS
330
1A
102
}
330
1A
100
AcDbXrecord
280
     1
270
     1
271
     1
  0
XRECORD
  5
1D
102
{ACAD_REACTORS
330
1A
102
}
330
1A
100
AcDbXrecord
280
     1
270
     1
271
     1
  0
XRECORD
  5
14
102
{ACAD_REACTORS
330
12
102
}
330
12
100
AcDbXrecord
280
     1
270
     1
271
     1
  0
XRECORD
  5
13
102
{ACAD_REACTORS
330
12
102
}
330
12
100
AcDbXrecord
280
     1
270
     1
271
     1
  0
XRECORD
  5
17
102
{ACAD_REACTORS
330
12
102
}
330
12
100
AcDbXrecord
280
     1
270
     1
271
     1
  0
XRECORD
  5
16
102
{ACAD_REACTORS
330
12
102
}
330
12
100
AcDbXrecord
280
     1
270
     1
271
     1
  0
XRECORD
  5
18
102
{ACAD_REACTORS
330
12
102
}
330
12
100
AcDbXrecord
280
     1
270
     1
271
     1
  0
XRECORD
  5
15
102
{ACAD_REACTORS
330
12
102
}
330
12
100
AcDbXrecord
280
     1
270
     1
271
     1
  0
XRECORD
  5
24
102
{ACAD_REACTORS
330
22
102
}
330
22
100
AcDbXrecord
280
     1
270
     1
271
     1
  0
XRECORD
  5
23
102
{ACAD_REACTORS
330
22
102
}
330
22
100
AcDbXrecord
280
     1
270
     1
271
     1
  0
XRECORD
  5
27
102
{ACAD_REACTORS
330
22
102
}
330
22
100
AcDbXrecord
280
     1
270
     1
271
     1
  0
XRECORD
  5
26
102
{ACAD_REACTORS
330
22
102
}
330
22
100
AcDbXrecord
280
     1
270
     1
271
     1
  0
XRECORD
  5
28
102
{ACAD_REACTORS
330
22
102
}
330
22
100
AcDbXrecord
280
     1
270
     1
271
     1
  0
XRECORD
  5
25
102
{ACAD_REACTORS
330
22
102
}
330
22
100
AcDbXrecord
280
     1
270
     1
271
     1
  0
XRECORD
  5
14D
102
{ACAD_REACTORS
330
14C
102
}
330
14C
100
AcDbXrecord
280
     1
102
ACAD_ROUNDTRIP_2012_MLEADER_STYLE
298
     1
  0
XRECORD
  5
14F
102
{ACAD_REACTORS
330
14E
102
}
330
14E
100
AcDbXrecord
280
     1
102
DISPLAYNAME
  1
Imperial24
102
FLAGS
 90
        0
  0
CELLSTYLEMAP
  5
11A
102
{ACAD_REACTORS
330
119
102
}
330
119
100
AcDbCellStyleMap
 90
        3
300
CELLSTYLE
  1
TABLEFORMAT_BEGIN
 90
        5
170
     1
 91
        0
 92
    32768
 62
   257
 93
        1
300
CONTENTFORMAT
  1
CONTENTFORMAT_BEGIN
 90
        0
 91
        0
 92
      512
 93
        0
300

 40
0.0
140
1.0
 94
        5
 62
     0
340
55
144
0.25
309
CONTENTFORMAT_END
171
     0
 94
        0
309
TABLEFORMAT_END
  1
CELLSTYLE_BEGIN
 90
        1
 91
        1
300
_TITLE
309
CELLSTYLE_END
300
CELLSTYLE
  1
TABLEFORMAT_BEGIN
 90
        5
170
     1
 91
        0
 92
        0
 62
   257
 93
        1
300
CONTENTFORMAT
  1
CONTENTFORMAT_BEGIN
 90
        0
 91
        0
 92
      512
 93
        0
300

 40
0.0
140
1.0
 94
        5
 62
     0
340
55
144
0.18
309
CONTENTFORMAT_END
171
     0
 94
        0
309
TABLEFORMAT_END
  1
CELLSTYLE_BEGIN
 90
        2
 91
        1
300
_HEADER
309
CELLSTYLE_END
300
CELLSTYLE
  1
TABLEFORMAT_BEGIN
 90
        5
170
     1
 91
        0
 92
        0
 62
   257
 93
        1
300
CONTENTFORMAT
  1
CONTENTFORMAT_BEGIN
 90
        0
 91
        0
 92
      512
 93
        0
300

 40
0.0
140
1.0
 94
        2
 62
     0
340
55
144
0.18
309
CONTENTFORMAT_END
171
     0
 94
        0
309
TABLEFORMAT_END
  1
CELLSTYLE_BEGIN
 90
        3
 91
        2
300
_DATA
309
CELLSTYLE_END
  0
XRECORD
  5
127
102
{ACAD_REACTORS
330
126
102
}
330
126
100
AcDbXrecord
280
     1
102
RTVSPost2010Prop28
280
     1
102
RTVSPost2010PropOp28
 70
     1
102
RTVSPost2010Prop29
280
     1
102
RTVSPost2010PropOp29
 70
     1
102
RTVSPost2010Prop30
280
     0
102
RTVSPost2010PropOp30
 70
     1
102
RTVSPost2010Prop31
280
     0
102
RTVSPost2010PropOp31
 70
     1
102
RTVSPost2010Prop32
280
     0
102
RTVSPost2010PropOp32
 70
     1
102
RTVSPost2010Prop33
280
     0
102
RTVSPost2010PropOp33
 70
     1
102
RTVSPost2010Prop34
280
     0
102
RTVSPost2010PropOp34
 70
     1
102
RTVSPost2010Prop35
280
     0
102
RTVSPost2010PropOp35
 70
     1
102
RTVSPost2010Prop36
280
     0
102
RTVSPost2010PropOp36
 70
     1
102
RTVSPost2010Prop37
 90
       50
102
RTVSPost2010PropOp37
 70
     1
102
RTVSPost2010Prop38
140
0.0
102
RTVSPost2010PropOp38
 70
     1
102
RTVSPost2010Prop39
140
1.0
102
RTVSPost2010PropOp39
 70
     1
102
RTVSPost2010Prop40
 90
        0
102
RTVSPost2010PropOp40
 70
     1
102
RTVSPost2010Prop41ColorIndex
 90
       18
102
RTVSPost2010Prop41ColorRGB
 90
        0
102
RTVSPost2010PropOp41
 70
     1
102
RTVSPost2010Prop42
 90
       50
102
RTVSPost2010PropOp42
 70
     1
102
RTVSPost2010Prop43
 90
        3
102
RTVSPost2010PropOp43
 70
     1
102
RTVSPost2010Prop44ColorIndex
 90
        5
102
RTVSPost2010Prop44ColorRGB
 90
      255
102
RTVSPost2010PropOp44
 70
     1
102
RTVSPost2010Prop45
280
     0
102
RTVSPost2010PropOp45
 70
     1
102
RTVSPost2010Prop46
 90
       50
102
RTVSPost2010PropOp46
 70
     1
102
RTVSPost2010Prop47
 90
       50
102
RTVSPost2010PropOp47
 70
     1
102
RTVSPost2010Prop48
 90
       50
102
RTVSPost2010PropOp48
 70
     1
102
RTVSPost2010Prop49
280
     0
102
RTVSPost2010PropOp49
 70
     1
102
RTVSPost2010Prop50
 90
       50
102
RTVSPost2010PropOp50
 70
     1
102
RTVSPost2010Prop51ColorIndex
 90
      256
102
RTVSPost2010Prop51ColorRGB
 90
-16777216
102
RTVSPost2010PropOp51
 70
     0
102
RTVSPost2010Prop52
140
1.0
102
RTVSPost2010PropOp52
 70
     0
102
RTVSPost2010Prop53
 90
        2
102
RTVSPost2010PropOp53
 70
     1
102
RTVSPost2010Prop54
  1
strokes_ogs.tif
102
RTVSPost2010PropOp54
 70
     1
102
RTVSPost2010Prop55
280
     0
102
RTVSPost2010PropOp55
 70
     1
102
RTVSPost2010Prop56
140
1.0
102
RTVSPost2010PropOp56
 70
     1
102
RTVSPost2010Prop57
140
1.0
102
RTVSPost2010PropOp57
 70
     1
  0
XRECORD
  5
125
102
{ACAD_REACTORS
330
124
102
}
330
124
100
AcDbXrecord
280
     1
102
RTVSPost2010Prop28
280
     0
102
RTVSPost2010PropOp28
 70
     1
102
RTVSPost2010Prop29
280
     1
102
RTVSPost2010PropOp29
 70
     1
102
RTVSPost2010Prop30
280
     1
102
RTVSPost2010PropOp30
 70
     1
102
RTVSPost2010Prop31
280
     0
102
RTVSPost2010PropOp31
 70
     1
102
RTVSPost2010Prop32
280
     0
102
RTVSPost2010PropOp32
 70
     1
102
RTVSPost2010Prop33
280
     0
102
RTVSPost2010PropOp33
 70
     1
102
RTVSPost2010Prop34
280
     0
102
RTVSPost2010PropOp34
 70
     1
102
RTVSPost2010Prop35
280
     0
102
RTVSPost2010PropOp35
 70
     1
102
RTVSPost2010Prop36
280
     0
102
RTVSPost2010PropOp36
 70
     1
102
RTVSPost2010Prop37
 90
       50
102
RTVSPost2010PropOp37
 70
     1
102
RTVSPost2010Prop38
140
0.0
102
RTVSPost2010PropOp38
 70
     1
102
RTVSPost2010Prop39
140
1.0
102
RTVSPost2010PropOp39
 70
     1
102
RTVSPost2010Prop40
 90
        0
102
RTVSPost2010PropOp40
 70
     1
102
RTVSPost2010Prop41ColorIndex
 90
       18
102
RTVSPost2010Prop41ColorRGB
 90
        0
102
RTVSPost2010PropOp41
 70
     1
102
RTVSPost2010Prop42
 90
       50
102
RTVSPost2010PropOp42
 70
     1
102
RTVSPost2010Prop43
 90
        3
102
RTVSPost2010PropOp43
 70
     1
102
RTVSPost2010Prop44ColorIndex
 90
        5
102
RTVSPost2010Prop44ColorRGB
 90
      255
102
RTVSPost2010PropOp44
 70
     1
102
RTVSPost2010Prop45
280
     0
102
RTVSPost2010PropOp45
 70
     1
102
RTVSPost2010Prop46
 90
       50
102
RTVSPost2010PropOp46
 70
     1
102
RTVSPost2010Prop47
 90
       50
102
RTVSPost2010PropOp47
 70
     1
102
RTVSPost2010Prop48
 90
       50
102
RTVSPost2010PropOp48
 70
     1
102
RTVSPost2010Prop49
280
     0
102
RTVSPost2010PropOp49
 70
     1
102
RTVSPost2010Prop50
 90
       50
102
RTVSPost2010PropOp50
 70
     1
102
RTVSPost2010Prop51ColorIndex
 90
      256
102
RTVSPost2010Prop51ColorRGB
 90
-16777216
102
RTVSPost2010PropOp51
 70
     0
102
RTVSPost2010Prop52
140
1.0
102
RTVSPost2010PropOp52
 70
     0
102
RTVSPost2010Prop53
 90
        2
102
RTVSPost2010PropOp53
 70
     1
102
RTVSPost2010Prop54
  1
strokes_ogs.tif
102
RTVSPost2010PropOp54
 70
     1
102
RTVSPost2010Prop55
280
     0
102
RTVSPost2010PropOp55
 70
     1
102
RTVSPost2010Prop56
140
1.0
102
RTVSPost2010PropOp56
 70
     1
102
RTVSPost2010Prop57
140
1.0
102
RTVSPost2010PropOp57
 70
     1
  0
XRECORD
  5
133
102
{ACAD_REACTORS
330
132
102
}
330
132
100
AcDbXrecord
280
     1
102
RTVSPost2010Prop28
280
     0
102
RTVSPost2010PropOp28
 70
     1
102
RTVSPost2010Prop29
280
     1
102
RTVSPost2010PropOp29
 70
     1
102
RTVSPost2010Prop30
280
     1
102
RTVSPost2010PropOp30
 70
     1
102
RTVSPost2010Prop31
280
     0
102
RTVSPost2010PropOp31
 70
     1
102
RTVSPost2010Prop32
280
     0
102
RTVSPost2010PropOp32
 70
     1
102
RTVSPost2010Prop33
280
     0
102
RTVSPost2010PropOp33
 70
     1
102
RTVSPost2010Prop34
280
     0
102
RTVSPost2010PropOp34
 70
     1
102
RTVSPost2010Prop35
280
     0
102
RTVSPost2010PropOp35
 70
     1
102
RTVSPost2010Prop36
280
     0
102
RTVSPost2010PropOp36
 70
     1
102
RTVSPost2010Prop37
 90
       50
102
RTVSPost2010PropOp37
 70
     1
102
RTVSPost2010Prop38
140
0.0
102
RTVSPost2010PropOp38
 70
     1
102
RTVSPost2010Prop39
140
1.0
102
RTVSPost2010PropOp39
 70
     1
102
RTVSPost2010Prop40
 90
        0
102
RTVSPost2010PropOp40
 70
     1
102
RTVSPost2010Prop41ColorIndex
 90
       18
102
RTVSPost2010Prop41ColorRGB
 90
        0
102
RTVSPost2010PropOp41
 70
     1
102
RTVSPost2010Prop42
 90
       50
102
RTVSPost2010PropOp42
 70
     1
102
RTVSPost2010Prop43
 90
        3
102
RTVSPost2010PropOp43
 70
     1
102
RTVSPost2010Prop44ColorIndex
 90
        5
102
RTVSPost2010Prop44ColorRGB
 90
      255
102
RTVSPost2010PropOp44
 70
     1
102
RTVSPost2010Prop45
280
     0
102
RTVSPost2010PropOp45
 70
     1
102
RTVSPost2010Prop46
 90
       50
102
RTVSPost2010PropOp46
 70
     1
102
RTVSPost2010Prop47
 90
       50
102
RTVSPost2010PropOp47
 70
     1
102
RTVSPost2010Prop48
 90
       50
102
RTVSPost2010PropOp48
 70
     1
102
RTVSPost2010Prop49
280
     0
102
RTVSPost2010PropOp49
 70
     1
102
RTVSPost2010Prop50
 90
       50
102
RTVSPost2010PropOp50
 70
     1
102
RTVSPost2010Prop51ColorIndex
 90
      256
102
RTVSPost2010Prop51ColorRGB
 90
-16777216
102
RTVSPost2010PropOp51
 70
     0
102
RTVSPost2010Prop52
140
1.0
102
RTVSPost2010PropOp52
 70
     0
102
RTVSPost2010Prop53
 90
        2
102
RTVSPost2010PropOp53
 70
     1
102
RTVSPost2010Prop54
  1
strokes_ogs.tif
102
RTVSPost2010PropOp54
 70
     1
102
RTVSPost2010Prop55
280
     0
102
RTVSPost2010PropOp55
 70
     1
102
RTVSPost2010Prop56
140
1.0
102
RTVSPost2010PropOp56
 70
     1
102
RTVSPost2010Prop57
140
1.0
102
RTVSPost2010PropOp57
 70
     1
  0
XRECORD
  5
13B
102
{ACAD_REACTORS
330
13A
102
}
330
13A
100
AcDbXrecord
280
     1
102
RTVSPost2010Prop28
280
     0
102
RTVSPost2010PropOp28
 70
     1
102
RTVSPost2010Prop29
280
     1
102
RTVSPost2010PropOp29
 70
     1
102
RTVSPost2010Prop30
280
     1
102
RTVSPost2010PropOp30
 70
     1
102
RTVSPost2010Prop31
280
     0
102
RTVSPost2010PropOp31
 70
     1
102
RTVSPost2010Prop32
280
     0
102
RTVSPost2010PropOp32
 70
     1
102
RTVSPost2010Prop33
280
     0
102
RTVSPost2010PropOp33
 70
     1
102
RTVSPost2010Prop34
280
     0
102
RTVSPost2010PropOp34
 70
     1
102
RTVSPost2010Prop35
280
     0
102
RTVSPost2010PropOp35
 70
     1
102
RTVSPost2010Prop36
280
     0
102
RTVSPost2010PropOp36
 70
     1
102
RTVSPost2010Prop37
 90
       50
102
RTVSPost2010PropOp37
 70
     1
102
RTVSPost2010Prop38
140
0.0
102
RTVSPost2010PropOp38
 70
     1
102
RTVSPost2010Prop39
140
1.0
102
RTVSPost2010PropOp39
 70
     1
102
RTVSPost2010Prop40
 90
        0
102
RTVSPost2010PropOp40
 70
     1
102
RTVSPost2010Prop41ColorIndex
 90
       18
102
RTVSPost2010Prop41ColorRGB
 90
        0
102
RTVSPost2010PropOp41
 70
     1
102
RTVSPost2010Prop42
 90
       50
102
RTVSPost2010PropOp42
 70
     1
102
RTVSPost2010Prop43
 90
        3
102
RTVSPost2010PropOp43
 70
     1
102
RTVSPost2010Prop44ColorIndex
 90
        5
102
RTVSPost2010Prop44ColorRGB
 90
      255
102
RTVSPost2010PropOp44
 70
     1
102
RTVSPost2010Prop45
280
     0
102
RTVSPost2010PropOp45
 70
     1
102
RTVSPost2010Prop46
 90
       50
102
RTVSPost2010PropOp46
 70
     1
102
RTVSPost2010Prop47
 90
       50
102
RTVSPost2010PropOp47
 70
     1
102
RTVSPost2010Prop48
 90
       50
102
RTVSPost2010PropOp48
 70
     1
102
RTVSPost2010Prop49
280
     0
102
RTVSPost2010PropOp49
 70
     1
102
RTVSPost2010Prop50
 90
       50
102
RTVSPost2010PropOp50
 70
     1
102
RTVSPost2010Prop51ColorIndex
 90
      256
102
RTVSPost2010Prop51ColorRGB
 90
-16777216
102
RTVSPost2010PropOp51
 70
     0
102
RTVSPost2010Prop52
140
1.0
102
RTVSPost2010PropOp52
 70
     0
102
RTVSPost2010Prop53
 90
        2
102
RTVSPost2010PropOp53
 70
     1
102
RTVSPost2010Prop54
  1
strokes_ogs.tif
102
RTVSPost2010PropOp54
 70
     1
102
RTVSPost2010Prop55
280
     0
102
RTVSPost2010PropOp55
 70
     1
102
RTVSPost2010Prop56
140
1.0
102
RTVSPost2010PropOp56
 70
     1
102
RTVSPost2010Prop57
140
1.0
102
RTVSPost2010PropOp57
 70
     1
  0
XRECORD
  5
12D
102
{ACAD_REACTORS
330
12C
102
}
330
12C
100
AcDbXrecord
280
     1
102
RTVSPost2010Prop28
280
     0
102
RTVSPost2010PropOp28
 70
     1
102
RTVSPost2010Prop29
280
     1
102
RTVSPost2010PropOp29
 70
     1
102
RTVSPost2010Prop30
280
     1
102
RTVSPost2010PropOp30
 70
     1
102
RTVSPost2010Prop31
280
     0
102
RTVSPost2010PropOp31
 70
     1
102
RTVSPost2010Prop32
280
     0
102
RTVSPost2010PropOp32
 70
     1
102
RTVSPost2010Prop33
280
     0
102
RTVSPost2010PropOp33
 70
     1
102
RTVSPost2010Prop34
280
     0
102
RTVSPost2010PropOp34
 70
     1
102
RTVSPost2010Prop35
280
     0
102
RTVSPost2010PropOp35
 70
     1
102
RTVSPost2010Prop36
280
     0
102
RTVSPost2010PropOp36
 70
     1
102
RTVSPost2010Prop37
 90
       50
102
RTVSPost2010PropOp37
 70
     1
102
RTVSPost2010Prop38
140
0.0
102
RTVSPost2010PropOp38
 70
     1
102
RTVSPost2010Prop39
140
1.0
102
RTVSPost2010PropOp39
 70
     1
102
RTVSPost2010Prop40
 90
        0
102
RTVSPost2010PropOp40
 70
     1
102
RTVSPost2010Prop41ColorIndex
 90
       18
102
RTVSPost2010Prop41ColorRGB
 90
        0
102
RTVSPost2010PropOp41
 70
     1
102
RTVSPost2010Prop42
 90
       50
102
RTVSPost2010PropOp42
 70
     1
102
RTVSPost2010Prop43
 90
        3
102
RTVSPost2010PropOp43
 70
     1
102
RTVSPost2010Prop44ColorIndex
 90
        5
102
RTVSPost2010Prop44ColorRGB
 90
      255
102
RTVSPost2010PropOp44
 70
     1
102
RTVSPost2010Prop45
280
     0
102
RTVSPost2010PropOp45
 70
     1
102
RTVSPost2010Prop46
 90
       50
102
RTVSPost2010PropOp46
 70
     1
102
RTVSPost2010Prop47
 90
       50
102
RTVSPost2010PropOp47
 70
     1
102
RTVSPost2010Prop48
 90
       50
102
RTVSPost2010PropOp48
 70
     1
102
RTVSPost2010Prop49
280
     0
102
RTVSPost2010PropOp49
 70
     1
102
RTVSPost2010Prop50
 90
       50
102
RTVSPost2010PropOp50
 70
     1
102
RTVSPost2010Prop51ColorIndex
 90
      256
102
RTVSPost2010Prop51ColorRGB
 90
-16777216
102
RTVSPost2010PropOp51
 70
     0
102
RTVSPost2010Prop52
140
1.0
102
RTVSPost2010PropOp52
 70
     0
102
RTVSPost2010Prop53
 90
        2
102
RTVSPost2010PropOp53
 70
     1
102
RTVSPost2010Prop54
  1
strokes_ogs.tif
102
RTVSPost2010PropOp54
 70
     1
102
RTVSPost2010Prop55
280
     0
102
RTVSPost2010PropOp55
 70
     1
102
RTVSPost2010Prop56
140
1.0
102
RTVSPost2010PropOp56
 70
     1
102
RTVSPost2010Prop57
140
1.0
102
RTVSPost2010PropOp57
 70
     1
  0
XRECORD
  5
131
102
{ACAD_REACTORS
330
130
102
}
330
130
100
AcDbXrecord
280
     1
102
RTVSPost2010Prop28
280
     0
102
RTVSPost2010PropOp28
 70
     1
102
RTVSPost2010Prop29
280
     1
102
RTVSPost2010PropOp29
 70
     1
102
RTVSPost2010Prop30
280
     1
102
RTVSPost2010PropOp30
 70
     1
102
RTVSPost2010Prop31
280
     0
102
RTVSPost2010PropOp31
 70
     1
102
RTVSPost2010Prop32
280
     0
102
RTVSPost2010PropOp32
 70
     1
102
RTVSPost2010Prop33
280
     0
102
RTVSPost2010PropOp33
 70
     1
102
RTVSPost2010Prop34
280
     0
102
RTVSPost2010PropOp34
 70
     1
102
RTVSPost2010Prop35
280
     0
102
RTVSPost2010PropOp35
 70
     1
102
RTVSPost2010Prop36
280
     0
102
RTVSPost2010PropOp36
 70
     1
102
RTVSPost2010Prop37
 90
       50
102
RTVSPost2010PropOp37
 70
     1
102
RTVSPost2010Prop38
140
0.0
102
RTVSPost2010PropOp38
 70
     1
102
RTVSPost2010Prop39
140
1.0
102
RTVSPost2010PropOp39
 70
     1
102
RTVSPost2010Prop40
 90
        0
102
RTVSPost2010PropOp40
 70
     1
102
RTVSPost2010Prop41ColorIndex
 90
       18
102
RTVSPost2010Prop41ColorRGB
 90
        0
102
RTVSPost2010PropOp41
 70
     1
102
RTVSPost2010Prop42
 90
       50
102
RTVSPost2010PropOp42
 70
     1
102
RTVSPost2010Prop43
 90
        3
102
RTVSPost2010PropOp43
 70
     1
102
RTVSPost2010Prop44ColorIndex
 90
        5
102
RTVSPost2010Prop44ColorRGB
 90
      255
102
RTVSPost2010PropOp44
 70
     1
102
RTVSPost2010Prop45
280
     0
102
RTVSPost2010PropOp45
 70
     1
102
RTVSPost2010Prop46
 90
       50
102
RTVSPost2010PropOp46
 70
     1
102
RTVSPost2010Prop47
 90
       50
102
RTVSPost2010PropOp47
 70
     1
102
RTVSPost2010Prop48
 90
       50
102
RTVSPost2010PropOp48
 70
     1
102
RTVSPost2010Prop49
280
     0
102
RTVSPost2010PropOp49
 70
     1
102
RTVSPost2010Prop50
 90
       50
102
RTVSPost2010PropOp50
 70
     1
102
RTVSPost2010Prop51ColorIndex
 90
      256
102
RTVSPost2010Prop51ColorRGB
 90
-16777216
102
RTVSPost2010PropOp51
 70
     0
102
RTVSPost2010Prop52
140
1.0
102
RTVSPost2010PropOp52
 70
     0
102
RTVSPost2010Prop53
 90
        2
102
RTVSPost2010PropOp53
 70
     1
102
RTVSPost2010Prop54
  1
strokes_ogs.tif
102
RTVSPost2010PropOp54
 70
     1
102
RTVSPost2010Prop55
280
     0
102
RTVSPost2010PropOp55
 70
     1
102
RTVSPost2010Prop56
140
1.0
102
RTVSPost2010PropOp56
 70
     1
102
RTVSPost2010Prop57
140
1.0
102
RTVSPost2010PropOp57
 70
     1
  0
XRECORD
  5
14B
102
{ACAD_REACTORS
330
14A
102
}
330
14A
100
AcDbXrecord
280
     1
102
RTVSPost2010Prop28
280
     0
102
RTVSPost2010PropOp28
 70
     0
102
RTVSPost2010Prop29
280
     1
102
RTVSPost2010PropOp29
 70
     0
102
RTVSPost2010Prop30
280
     1
102
RTVSPost2010PropOp30
 70
     0
102
RTVSPost2010Prop31
280
     0
102
RTVSPost2010PropOp31
 70
     0
102
RTVSPost2010Prop32
280
     0
102
RTVSPost2010PropOp32
 70
     0
102
RTVSPost2010Prop33
280
     0
102
RTVSPost2010PropOp33
 70
     0
102
RTVSPost2010Prop34
280
     0
102
RTVSPost2010PropOp34
 70
     0
102
RTVSPost2010Prop35
280
     0
102
RTVSPost2010PropOp35
 70
     0
102
RTVSPost2010Prop36
280
     0
102
RTVSPost2010PropOp36
 70
     0
102
RTVSPost2010Prop37
 90
       50
102
RTVSPost2010PropOp37
 70
     0
102
RTVSPost2010Prop38
140
0.0
102
RTVSPost2010PropOp38
 70
     0
102
RTVSPost2010Prop39
140
1.0
102
RTVSPost2010PropOp39
 70
     0
102
RTVSPost2010Prop40
 90
        0
102
RTVSPost2010PropOp40
 70
     0
102
RTVSPost2010Prop41ColorIndex
 90
       18
102
RTVSPost2010Prop41ColorRGB
 90
        0
102
RTVSPost2010PropOp41
 70
     0
102
RTVSPost2010Prop42
 90
       50
102
RTVSPost2010PropOp42
 70
     0
102
RTVSPost2010Prop43
 90
        3
102
RTVSPost2010PropOp43
 70
     0
102
RTVSPost2010Prop44ColorIndex
 90
        5
102
RTVSPost2010Prop44ColorRGB
 90
      255
102
RTVSPost2010PropOp44
 70
     0
102
RTVSPost2010Prop45
280
     0
102
RTVSPost2010PropOp45
 70
     0
102
RTVSPost2010Prop46
 90
       50
102
RTVSPost2010PropOp46
 70
     0
102
RTVSPost2010Prop47
 90
       50
102
RTVSPost2010PropOp47
 70
     0
102
RTVSPost2010Prop48
 90
       50
102
RTVSPost2010PropOp48
 70
     0
102
RTVSPost2010Prop49
280
     0
102
RTVSPost2010PropOp49
 70
     0
102
RTVSPost2010Prop50
 90
       50
102
RTVSPost2010PropOp50
 70
     0
102
RTVSPost2010Prop51ColorIndex
 90
      256
102
RTVSPost2010Prop51ColorRGB
 90
-16777216
102
RTVSPost2010PropOp51
 70
     0
102
RTVSPost2010Prop52
140
1.0
102
RTVSPost2010PropOp52
 70
     0
102
RTVSPost2010Prop53
 90
        2
102
RTVSPost2010PropOp53
 70
     0
102
RTVSPost2010Prop54
  1
strokes_ogs.tif
102
RTVSPost2010PropOp54
 70
     0
102
RTVSPost2010Prop55
280
     0
102
RTVSPost2010PropOp55
 70
     0
102
RTVSPost2010Prop56
140
1.0
102
RTVSPost2010PropOp56
 70
     0
102
RTVSPost2010Prop57
140
1.0
102
RTVSPost2010PropOp57
 70
     0
  0
XRECORD
  5
139
102
{ACAD_REACTORS
330
138
102
}
330
138
100
AcDbXrecord
280
     1
102
RTVSPost2010Prop28
280
     0
102
RTVSPost2010PropOp28
 70
     1
102
RTVSPost2010Prop29
280
     1
102
RTVSPost2010PropOp29
 70
     1
102
RTVSPost2010Prop30
280
     1
102
RTVSPost2010PropOp30
 70
     1
102
RTVSPost2010Prop31
280
     0
102
RTVSPost2010PropOp31
 70
     1
102
RTVSPost2010Prop32
280
     0
102
RTVSPost2010PropOp32
 70
     1
102
RTVSPost2010Prop33
280
     0
102
RTVSPost2010PropOp33
 70
     1
102
RTVSPost2010Prop34
280
     0
102
RTVSPost2010PropOp34
 70
     1
102
RTVSPost2010Prop35
280
     0
102
RTVSPost2010PropOp35
 70
     1
102
RTVSPost2010Prop36
280
     0
102
RTVSPost2010PropOp36
 70
     1
102
RTVSPost2010Prop37
 90
       50
102
RTVSPost2010PropOp37
 70
     1
102
RTVSPost2010Prop38
140
0.0
102
RTVSPost2010PropOp38
 70
     1
102
RTVSPost2010Prop39
140
1.0
102
RTVSPost2010PropOp39
 70
     1
102
RTVSPost2010Prop40
 90
        0
102
RTVSPost2010PropOp40
 70
     1
102
RTVSPost2010Prop41ColorIndex
 90
       18
102
RTVSPost2010Prop41ColorRGB
 90
        0
102
RTVSPost2010PropOp41
 70
     1
102
RTVSPost2010Prop42
 90
       50
102
RTVSPost2010PropOp42
 70
     1
102
RTVSPost2010Prop43
 90
        3
102
RTVSPost2010PropOp43
 70
     1
102
RTVSPost2010Prop44ColorIndex
 90
        5
102
RTVSPost2010Prop44ColorRGB
 90
      255
102
RTVSPost2010PropOp44
 70
     1
102
RTVSPost2010Prop45
280
     0
102
RTVSPost2010PropOp45
 70
     1
102
RTVSPost2010Prop46
 90
       50
102
RTVSPost2010PropOp46
 70
     1
102
RTVSPost2010Prop47
 90
       50
102
RTVSPost2010PropOp47
 70
     1
102
RTVSPost2010Prop48
 90
       50
102
RTVSPost2010PropOp48
 70
     1
102
RTVSPost2010Prop49
280
     0
102
RTVSPost2010PropOp49
 70
     1
102
RTVSPost2010Prop50
 90
       50
102
RTVSPost2010PropOp50
 70
     1
102
RTVSPost2010Prop51ColorIndex
 90
      256
102
RTVSPost2010Prop51ColorRGB
 90
-16777216
102
RTVSPost2010PropOp51
 70
     0
102
RTVSPost2010Prop52
140
1.0
102
RTVSPost2010PropOp52
 70
     0
102
RTVSPost2010Prop53
 90
        2
102
RTVSPost2010PropOp53
 70
     1
102
RTVSPost2010Prop54
  1
strokes_ogs.tif
102
RTVSPost2010PropOp54
 70
     1
102
RTVSPost2010Prop55
280
     0
102
RTVSPost2010PropOp55
 70
     1
102
RTVSPost2010Prop56
140
1.0
102
RTVSPost2010PropOp56
 70
     1
102
RTVSPost2010Prop57
140
1.0
102
RTVSPost2010PropOp57
 70
     1
  0
XRECORD
  5
11D
102
{ACAD_REACTORS
330
11C
102
}
330
11C
100
AcDbXrecord
280
     1
102
RTVSPost2010Prop28
280
     0
102
RTVSPost2010PropOp28
 70
     1
102
RTVSPost2010Prop29
280
     1
102
RTVSPost2010PropOp29
 70
     1
102
RTVSPost2010Prop30
280
     1
102
RTVSPost2010PropOp30
 70
     1
102
RTVSPost2010Prop31
280
     0
102
RTVSPost2010PropOp31
 70
     1
102
RTVSPost2010Prop32
280
     0
102
RTVSPost2010PropOp32
 70
     1
102
RTVSPost2010Prop33
280
     0
102
RTVSPost2010PropOp33
 70
     1
102
RTVSPost2010Prop34
280
     0
102
RTVSPost2010PropOp34
 70
     1
102
RTVSPost2010Prop35
280
     0
102
RTVSPost2010PropOp35
 70
     1
102
RTVSPost2010Prop36
280
     0
102
RTVSPost2010PropOp36
 70
     1
102
RTVSPost2010Prop37
 90
       50
102
RTVSPost2010PropOp37
 70
     1
102
RTVSPost2010Prop38
140
0.0
102
RTVSPost2010PropOp38
 70
     1
102
RTVSPost2010Prop39
140
1.0
102
RTVSPost2010PropOp39
 70
     1
102
RTVSPost2010Prop40
 90
        0
102
RTVSPost2010PropOp40
 70
     1
102
RTVSPost2010Prop41ColorIndex
 90
       18
102
RTVSPost2010Prop41ColorRGB
 90
        0
102
RTVSPost2010PropOp41
 70
     1
102
RTVSPost2010Prop42
 90
       50
102
RTVSPost2010PropOp42
 70
     1
102
RTVSPost2010Prop43
 90
        3
102
RTVSPost2010PropOp43
 70
     1
102
RTVSPost2010Prop44ColorIndex
 90
        5
102
RTVSPost2010Prop44ColorRGB
 90
      255
102
RTVSPost2010PropOp44
 70
     1
102
RTVSPost2010Prop45
280
     0
102
RTVSPost2010PropOp45
 70
     1
102
RTVSPost2010Prop46
 90
       50
102
RTVSPost2010PropOp46
 70
     1
102
RTVSPost2010Prop47
 90
       50
102
RTVSPost2010PropOp47
 70
     1
102
RTVSPost2010Prop48
 90
       50
102
RTVSPost2010PropOp48
 70
     1
102
RTVSPost2010Prop49
280
     0
102
RTVSPost2010PropOp49
 70
     1
102
RTVSPost2010Prop50
 90
       50
102
RTVSPost2010PropOp50
 70
     1
102
RTVSPost2010Prop51ColorIndex
 90
      256
102
RTVSPost2010Prop51ColorRGB
 90
-16777216
102
RTVSPost2010PropOp51
 70
     0
102
RTVSPost2010Prop52
140
1.0
102
RTVSPost2010PropOp52
 70
     0
102
RTVSPost2010Prop53
 90
        2
102
RTVSPost2010PropOp53
 70
     1
102
RTVSPost2010Prop54
  1
strokes_ogs.tif
102
RTVSPost2010PropOp54
 70
     1
102
RTVSPost2010Prop55
280
     0
102
RTVSPost2010PropOp55
 70
     1
102
RTVSPost2010Prop56
140
1.0
102
RTVSPost2010PropOp56
 70
     1
102
RTVSPost2010Prop57
140
1.0
102
RTVSPost2010PropOp57
 70
     1
  0
XRECORD
  5
11F
102
{ACAD_REACTORS
330
11E
102
}
330
11E
100
AcDbXrecord
280
     1
102
RTVSPost2010Prop28
280
     0
102
RTVSPost2010PropOp28
 70
     1
102
RTVSPost2010Prop29
280
     1
102
RTVSPost2010PropOp29
 70
     1
102
RTVSPost2010Prop30
280
     1
102
RTVSPost2010PropOp30
 70
     1
102
RTVSPost2010Prop31
280
     0
102
RTVSPost2010PropOp31
 70
     1
102
RTVSPost2010Prop32
280
     0
102
RTVSPost2010PropOp32
 70
     1
102
RTVSPost2010Prop33
280
     0
102
RTVSPost2010PropOp33
 70
     1
102
RTVSPost2010Prop34
280
     0
102
RTVSPost2010PropOp34
 70
     1
102
RTVSPost2010Prop35
280
     0
102
RTVSPost2010PropOp35
 70
     1
102
RTVSPost2010Prop36
280
     0
102
RTVSPost2010PropOp36
 70
     1
102
RTVSPost2010Prop37
 90
       50
102
RTVSPost2010PropOp37
 70
     1
102
RTVSPost2010Prop38
140
0.0
102
RTVSPost2010PropOp38
 70
     1
102
RTVSPost2010Prop39
140
1.0
102
RTVSPost2010PropOp39
 70
     1
102
RTVSPost2010Prop40
 90
        0
102
RTVSPost2010PropOp40
 70
     1
102
RTVSPost2010Prop41ColorIndex
 90
       18
102
RTVSPost2010Prop41ColorRGB
 90
        0
102
RTVSPost2010PropOp41
 70
     1
102
RTVSPost2010Prop42
 90
       50
102
RTVSPost2010PropOp42
 70
     1
102
RTVSPost2010Prop43
 90
        3
102
RTVSPost2010PropOp43
 70
     1
102
RTVSPost2010Prop44ColorIndex
 90
        5
102
RTVSPost2010Prop44ColorRGB
 90
      255
102
RTVSPost2010PropOp44
 70
     1
102
RTVSPost2010Prop45
280
     0
102
RTVSPost2010PropOp45
 70
     1
102
RTVSPost2010Prop46
 90
       50
102
RTVSPost2010PropOp46
 70
     1
102
RTVSPost2010Prop47
 90
       50
102
RTVSPost2010PropOp47
 70
     1
102
RTVSPost2010Prop48
 90
       50
102
RTVSPost2010PropOp48
 70
     1
102
RTVSPost2010Prop49
280
     0
102
RTVSPost2010PropOp49
 70
     1
102
RTVSPost2010Prop50
 90
       50
102
RTVSPost2010PropOp50
 70
     1
102
RTVSPost2010Prop51ColorIndex
 90
      256
102
RTVSPost2010Prop51ColorRGB
 90
-16777216
102
RTVSPost2010PropOp51
 70
     0
102
RTVSPost2010Prop52
140
1.0
102
RTVSPost2010PropOp52
 70
     0
102
RTVSPost2010Prop53
 90
        2
102
RTVSPost2010PropOp53
 70
     1
102
RTVSPost2010Prop54
  1
strokes_ogs.tif
102
RTVSPost2010PropOp54
 70
     1
102
RTVSPost2010Prop55
280
     0
102
RTVSPost2010PropOp55
 70
     1
102
RTVSPost2010Prop56
140
1.0
102
RTVSPost2010PropOp56
 70
     1
102
RTVSPost2010Prop57
140
1.0
102
RTVSPost2010PropOp57
 70
     1
  0
XRECORD
  5
121
102
{ACAD_REACTORS
330
120
102
}
330
120
100
AcDbXrecord
280
     1
102
RTVSPost2010Prop28
280
     0
102
RTVSPost2010PropOp28
 70
     1
102
RTVSPost2010Prop29
280
     1
102
RTVSPost2010PropOp29
 70
     1
102
RTVSPost2010Prop30
280
     1
102
RTVSPost2010PropOp30
 70
     1
102
RTVSPost2010Prop31
280
     0
102
RTVSPost2010PropOp31
 70
     1
102
RTVSPost2010Prop32
280
     0
102
RTVSPost2010PropOp32
 70
     1
102
RTVSPost2010Prop33
280
     0
102
RTVSPost2010PropOp33
 70
     1
102
RTVSPost2010Prop34
280
     0
102
RTVSPost2010PropOp34
 70
     1
102
RTVSPost2010Prop35
280
     0
102
RTVSPost2010PropOp35
 70
     1
102
RTVSPost2010Prop36
280
     0
102
RTVSPost2010PropOp36
 70
     1
102
RTVSPost2010Prop37
 90
       50
102
RTVSPost2010PropOp37
 70
     1
102
RTVSPost2010Prop38
140
0.0
102
RTVSPost2010PropOp38
 70
     1
102
RTVSPost2010Prop39
140
1.0
102
RTVSPost2010PropOp39
 70
     1
102
RTVSPost2010Prop40
 90
        0
102
RTVSPost2010PropOp40
 70
     1
102
RTVSPost2010Prop41ColorIndex
 90
       18
102
RTVSPost2010Prop41ColorRGB
 90
        0
102
RTVSPost2010PropOp41
 70
     1
102
RTVSPost2010Prop42
 90
       50
102
RTVSPost2010PropOp42
 70
     1
102
RTVSPost2010Prop43
 90
        3
102
RTVSPost2010PropOp43
 70
     1
102
RTVSPost2010Prop44ColorIndex
 90
        5
102
RTVSPost2010Prop44ColorRGB
 90
      255
102
RTVSPost2010PropOp44
 70
     1
102
RTVSPost2010Prop45
280
     0
102
RTVSPost2010PropOp45
 70
     1
102
RTVSPost2010Prop46
 90
       50
102
RTVSPost2010PropOp46
 70
     1
102
RTVSPost2010Prop47
 90
       50
102
RTVSPost2010PropOp47
 70
     1
102
RTVSPost2010Prop48
 90
       50
102
RTVSPost2010PropOp48
 70
     1
102
RTVSPost2010Prop49
280
     0
102
RTVSPost2010PropOp49
 70
     1
102
RTVSPost2010Prop50
 90
       50
102
RTVSPost2010PropOp50
 70
     1
102
RTVSPost2010Prop51ColorIndex
 90
      256
102
RTVSPost2010Prop51ColorRGB
 90
-16777216
102
RTVSPost2010PropOp51
 70
     0
102
RTVSPost2010Prop52
140
1.0
102
RTVSPost2010PropOp52
 70
     0
102
RTVSPost2010Prop53
 90
        2
102
RTVSPost2010PropOp53
 70
     1
102
RTVSPost2010Prop54
  1
strokes_ogs.tif
102
RTVSPost2010PropOp54
 70
     1
102
RTVSPost2010Prop55
280
     0
102
RTVSPost2010PropOp55
 70
     1
102
RTVSPost2010Prop56
140
1.0
102
RTVSPost2010PropOp56
 70
     1
102
RTVSPost2010Prop57
140
1.0
102
RTVSPost2010PropOp57
 70
     1
  0
XRECORD
  5
123
102
{ACAD_REACTORS
330
122
102
}
330
122
100
AcDbXrecord
280
     1
102
RTVSPost2010Prop28
280
     0
102
RTVSPost2010PropOp28
 70
     1
102
RTVSPost2010Prop29
280
     1
102
RTVSPost2010PropOp29
 70
     1
102
RTVSPost2010Prop30
280
     1
102
RTVSPost2010PropOp30
 70
     1
102
RTVSPost2010Prop31
280
     0
102
RTVSPost2010PropOp31
 70
     1
102
RTVSPost2010Prop32
280
     0
102
RTVSPost2010PropOp32
 70
     1
102
RTVSPost2010Prop33
280
     0
102
RTVSPost2010PropOp33
 70
     1
102
RTVSPost2010Prop34
280
     0
102
RTVSPost2010PropOp34
 70
     1
102
RTVSPost2010Prop35
280
     0
102
RTVSPost2010PropOp35
 70
     1
102
RTVSPost2010Prop36
280
     0
102
RTVSPost2010PropOp36
 70
     1
102
RTVSPost2010Prop37
 90
       50
102
RTVSPost2010PropOp37
 70
     1
102
RTVSPost2010Prop38
140
0.0
102
RTVSPost2010PropOp38
 70
     1
102
RTVSPost2010Prop39
140
1.0
102
RTVSPost2010PropOp39
 70
     1
102
RTVSPost2010Prop40
 90
        0
102
RTVSPost2010PropOp40
 70
     1
102
RTVSPost2010Prop41ColorIndex
 90
       18
102
RTVSPost2010Prop41ColorRGB
 90
        0
102
RTVSPost2010PropOp41
 70
     1
102
RTVSPost2010Prop42
 90
       50
102
RTVSPost2010PropOp42
 70
     1
102
RTVSPost2010Prop43
 90
        3
102
RTVSPost2010PropOp43
 70
     1
102
RTVSPost2010Prop44ColorIndex
 90
        5
102
RTVSPost2010Prop44ColorRGB
 90
      255
102
RTVSPost2010PropOp44
 70
     1
102
RTVSPost2010Prop45
280
     0
102
RTVSPost2010PropOp45
 70
     1
102
RTVSPost2010Prop46
 90
       50
102
RTVSPost2010PropOp46
 70
     1
102
RTVSPost2010Prop47
 90
       50
102
RTVSPost2010PropOp47
 70
     1
102
RTVSPost2010Prop48
 90
       50
102
RTVSPost2010PropOp48
 70
     1
102
RTVSPost2010Prop49
280
     0
102
RTVSPost2010PropOp49
 70
     1
102
RTVSPost2010Prop50
 90
       50
102
RTVSPost2010PropOp50
 70
     1
102
RTVSPost2010Prop51ColorIndex
 90
      256
102
RTVSPost2010Prop51ColorRGB
 90
-16777216
102
RTVSPost2010PropOp51
 70
     0
102
RTVSPost2010Prop52
140
1.0
102
RTVSPost2010PropOp52
 70
     0
102
RTVSPost2010Prop53
 90
        2
102
RTVSPost2010PropOp53
 70
     1
102
RTVSPost2010Prop54
  1
strokes_ogs.tif
102
RTVSPost2010PropOp54
 70
     1
102
RTVSPost2010Prop55
280
     0
102
RTVSPost2010PropOp55
 70
     1
102
RTVSPost2010Prop56
140
1.0
102
RTVSPost2010PropOp56
 70
     1
102
RTVSPost2010Prop57
140
1.0
102
RTVSPost2010PropOp57
 70
     1
  0
XRECORD
  5
12B
102
{ACAD_REACTORS
330
12A
102
}
330
12A
100
AcDbXrecord
280
     1
102
RTVSPost2010Prop28
280
     0
102
RTVSPost2010PropOp28
 70
     1
102
RTVSPost2010Prop29
280
     1
102
RTVSPost2010PropOp29
 70
     1
102
RTVSPost2010Prop30
280
     1
102
RTVSPost2010PropOp30
 70
     1
102
RTVSPost2010Prop31
280
     0
102
RTVSPost2010PropOp31
 70
     1
102
RTVSPost2010Prop32
280
     0
102
RTVSPost2010PropOp32
 70
     1
102
RTVSPost2010Prop33
280
     0
102
RTVSPost2010PropOp33
 70
     1
102
RTVSPost2010Prop34
280
     0
102
RTVSPost2010PropOp34
 70
     1
102
RTVSPost2010Prop35
280
     0
102
RTVSPost2010PropOp35
 70
     1
102
RTVSPost2010Prop36
280
     0
102
RTVSPost2010PropOp36
 70
     1
102
RTVSPost2010Prop37
 90
       50
102
RTVSPost2010PropOp37
 70
     1
102
RTVSPost2010Prop38
140
0.0
102
RTVSPost2010PropOp38
 70
     1
102
RTVSPost2010Prop39
140
1.0
102
RTVSPost2010PropOp39
 70
     1
102
RTVSPost2010Prop40
 90
        0
102
RTVSPost2010PropOp40
 70
     1
102
RTVSPost2010Prop41ColorIndex
 90
       18
102
RTVSPost2010Prop41ColorRGB
 90
        0
102
RTVSPost2010PropOp41
 70
     1
102
RTVSPost2010Prop42
 90
       50
102
RTVSPost2010PropOp42
 70
     1
102
RTVSPost2010Prop43
 90
        3
102
RTVSPost2010PropOp43
 70
     1
102
RTVSPost2010Prop44ColorIndex
 90
        5
102
RTVSPost2010Prop44ColorRGB
 90
      255
102
RTVSPost2010PropOp44
 70
     1
102
RTVSPost2010Prop45
280
     0
102
RTVSPost2010PropOp45
 70
     1
102
RTVSPost2010Prop46
 90
       50
102
RTVSPost2010PropOp46
 70
     1
102
RTVSPost2010Prop47
 90
       50
102
RTVSPost2010PropOp47
 70
     1
102
RTVSPost2010Prop48
 90
       50
102
RTVSPost2010PropOp48
 70
     1
102
RTVSPost2010Prop49
280
     0
102
RTVSPost2010PropOp49
 70
     1
102
RTVSPost2010Prop50
 90
       50
102
RTVSPost2010PropOp50
 70
     1
102
RTVSPost2010Prop51ColorIndex
 90
      256
102
RTVSPost2010Prop51ColorRGB
 90
-16777216
102
RTVSPost2010PropOp51
 70
     0
102
RTVSPost2010Prop52
140
1.0
102
RTVSPost2010PropOp52
 70
     0
102
RTVSPost2010Prop53
 90
        2
102
RTVSPost2010PropOp53
 70
     1
102
RTVSPost2010Prop54
  1
strokes_ogs.tif
102
RTVSPost2010PropOp54
 70
     1
102
RTVSPost2010Prop55
280
     0
102
RTVSPost2010PropOp55
 70
     1
102
RTVSPost2010Prop56
140
1.0
102
RTVSPost2010PropOp56
 70
     1
102
RTVSPost2010Prop57
140
1.0
102
RTVSPost2010PropOp57
 70
     1
  0
XRECORD
  5
147
102
{ACAD_REACTORS
330
146
102
}
330
146
100
AcDbXrecord
280
     1
102
RTVSPost2010Prop28
280
     0
102
RTVSPost2010PropOp28
 70
     0
102
RTVSPost2010Prop29
280
     1
102
RTVSPost2010PropOp29
 70
     0
102
RTVSPost2010Prop30
280
     1
102
RTVSPost2010PropOp30
 70
     0
102
RTVSPost2010Prop31
280
     0
102
RTVSPost2010PropOp31
 70
     0
102
RTVSPost2010Prop32
280
     0
102
RTVSPost2010PropOp32
 70
     0
102
RTVSPost2010Prop33
280
     0
102
RTVSPost2010PropOp33
 70
     0
102
RTVSPost2010Prop34
280
     0
102
RTVSPost2010PropOp34
 70
     0
102
RTVSPost2010Prop35
280
     0
102
RTVSPost2010PropOp35
 70
     0
102
RTVSPost2010Prop36
280
     0
102
RTVSPost2010PropOp36
 70
     0
102
RTVSPost2010Prop37
 90
       50
102
RTVSPost2010PropOp37
 70
     0
102
RTVSPost2010Prop38
140
0.0
102
RTVSPost2010PropOp38
 70
     0
102
RTVSPost2010Prop39
140
1.0
102
RTVSPost2010PropOp39
 70
     0
102
RTVSPost2010Prop40
 90
        0
102
RTVSPost2010PropOp40
 70
     0
102
RTVSPost2010Prop41ColorIndex
 90
       18
102
RTVSPost2010Prop41ColorRGB
 90
        0
102
RTVSPost2010PropOp41
 70
     0
102
RTVSPost2010Prop42
 90
       50
102
RTVSPost2010PropOp42
 70
     0
102
RTVSPost2010Prop43
 90
        3
102
RTVSPost2010PropOp43
 70
     0
102
RTVSPost2010Prop44ColorIndex
 90
        5
102
RTVSPost2010Prop44ColorRGB
 90
      255
102
RTVSPost2010PropOp44
 70
     0
102
RTVSPost2010Prop45
280
     0
102
RTVSPost2010PropOp45
 70
     0
102
RTVSPost2010Prop46
 90
       50
102
RTVSPost2010PropOp46
 70
     0
102
RTVSPost2010Prop47
 90
       50
102
RTVSPost2010PropOp47
 70
     0
102
RTVSPost2010Prop48
 90
       50
102
RTVSPost2010PropOp48
 70
     0
102
RTVSPost2010Prop49
280
     0
102
RTVSPost2010PropOp49
 70
     0
102
RTVSPost2010Prop50
 90
       50
102
RTVSPost2010PropOp50
 70
     0
102
RTVSPost2010Prop51ColorIndex
 90
      256
102
RTVSPost2010Prop51ColorRGB
 90
-16777216
102
RTVSPost2010PropOp51
 70
     0
102
RTVSPost2010Prop52
140
1.0
102
RTVSPost2010PropOp52
 70
     0
102
RTVSPost2010Prop53
 90
        2
102
RTVSPost2010PropOp53
 70
     0
102
RTVSPost2010Prop54
  1
strokes_ogs.tif
102
RTVSPost2010PropOp54
 70
     0
102
RTVSPost2010Prop55
280
     0
102
RTVSPost2010PropOp55
 70
     0
102
RTVSPost2010Prop56
140
1.0
102
RTVSPost2010PropOp56
 70
     0
102
RTVSPost2010Prop57
140
1.0
102
RTVSPost2010PropOp57
 70
     0
  0
XRECORD
  5
137
102
{ACAD_REACTORS
330
136
102
}
330
136
100
AcDbXrecord
280
     1
102
RTVSPost2010Prop28
280
     0
102
RTVSPost2010PropOp28
 70
     1
102
RTVSPost2010Prop29
280
     1
102
RTVSPost2010PropOp29
 70
     1
102
RTVSPost2010Prop30
280
     1
102
RTVSPost2010PropOp30
 70
     1
102
RTVSPost2010Prop31
280
     0
102
RTVSPost2010PropOp31
 70
     1
102
RTVSPost2010Prop32
280
     0
102
RTVSPost2010PropOp32
 70
     1
102
RTVSPost2010Prop33
280
     0
102
RTVSPost2010PropOp33
 70
     1
102
RTVSPost2010Prop34
280
     0
102
RTVSPost2010PropOp34
 70
     1
102
RTVSPost2010Prop35
280
     0
102
RTVSPost2010PropOp35
 70
     1
102
RTVSPost2010Prop36
280
     0
102
RTVSPost2010PropOp36
 70
     1
102
RTVSPost2010Prop37
 90
       50
102
RTVSPost2010PropOp37
 70
     1
102
RTVSPost2010Prop38
140
0.0
102
RTVSPost2010PropOp38
 70
     1
102
RTVSPost2010Prop39
140
1.0
102
RTVSPost2010PropOp39
 70
     1
102
RTVSPost2010Prop40
 90
        0
102
RTVSPost2010PropOp40
 70
     1
102
RTVSPost2010Prop41ColorIndex
 90
       18
102
RTVSPost2010Prop41ColorRGB
 90
        0
102
RTVSPost2010PropOp41
 70
     1
102
RTVSPost2010Prop42
 90
       50
102
RTVSPost2010PropOp42
 70
     1
102
RTVSPost2010Prop43
 90
        3
102
RTVSPost2010PropOp43
 70
     1
102
RTVSPost2010Prop44ColorIndex
 90
        5
102
RTVSPost2010Prop44ColorRGB
 90
      255
102
RTVSPost2010PropOp44
 70
     1
102
RTVSPost2010Prop45
280
     0
102
RTVSPost2010PropOp45
 70
     1
102
RTVSPost2010Prop46
 90
       50
102
RTVSPost2010PropOp46
 70
     1
102
RTVSPost2010Prop47
 90
       50
102
RTVSPost2010PropOp47
 70
     1
102
RTVSPost2010Prop48
 90
       50
102
RTVSPost2010PropOp48
 70
     1
102
RTVSPost2010Prop49
280
     0
102
RTVSPost2010PropOp49
 70
     1
102
RTVSPost2010Prop50
 90
       50
102
RTVSPost2010PropOp50
 70
     1
102
RTVSPost2010Prop51ColorIndex
 90
      256
102
RTVSPost2010Prop51ColorRGB
 90
-16777216
102
RTVSPost2010PropOp51
 70
     0
102
RTVSPost2010Prop52
140
1.0
102
RTVSPost2010PropOp52
 70
     0
102
RTVSPost2010Prop53
 90
        2
102
RTVSPost2010PropOp53
 70
     1
102
RTVSPost2010Prop54
  1
strokes_ogs.tif
102
RTVSPost2010PropOp54
 70
     1
102
RTVSPost2010Prop55
280
     0
102
RTVSPost2010PropOp55
 70
     1
102
RTVSPost2010Prop56
140
1.0
102
RTVSPost2010PropOp56
 70
     1
102
RTVSPost2010Prop57
140
1.0
102
RTVSPost2010PropOp57
 70
     1
  0
XRECORD
  5
149
102
{ACAD_REACTORS
330
148
102
}
330
148
100
AcDbXrecord
280
     1
102
RTVSPost2010Prop28
280
     0
102
RTVSPost2010PropOp28
 70
     0
102
RTVSPost2010Prop29
280
     1
102
RTVSPost2010PropOp29
 70
     0
102
RTVSPost2010Prop30
280
     1
102
RTVSPost2010PropOp30
 70
     0
102
RTVSPost2010Prop31
280
     0
102
RTVSPost2010PropOp31
 70
     0
102
RTVSPost2010Prop32
280
     0
102
RTVSPost2010PropOp32
 70
     0
102
RTVSPost2010Prop33
280
     0
102
RTVSPost2010PropOp33
 70
     0
102
RTVSPost2010Prop34
280
     0
102
RTVSPost2010PropOp34
 70
     0
102
RTVSPost2010Prop35
280
     0
102
RTVSPost2010PropOp35
 70
     0
102
RTVSPost2010Prop36
280
     0
102
RTVSPost2010PropOp36
 70
     0
102
RTVSPost2010Prop37
 90
       50
102
RTVSPost2010PropOp37
 70
     0
102
RTVSPost2010Prop38
140
0.0
102
RTVSPost2010PropOp38
 70
     0
102
RTVSPost2010Prop39
140
1.0
102
RTVSPost2010PropOp39
 70
     0
102
RTVSPost2010Prop40
 90
        0
102
RTVSPost2010PropOp40
 70
     0
102
RTVSPost2010Prop41ColorIndex
 90
       18
102
RTVSPost2010Prop41ColorRGB
 90
        0
102
RTVSPost2010PropOp41
 70
     0
102
RTVSPost2010Prop42
 90
       50
102
RTVSPost2010PropOp42
 70
     0
102
RTVSPost2010Prop43
 90
        3
102
RTVSPost2010PropOp43
 70
     0
102
RTVSPost2010Prop44ColorIndex
 90
        5
102
RTVSPost2010Prop44ColorRGB
 90
      255
102
RTVSPost2010PropOp44
 70
     0
102
RTVSPost2010Prop45
280
     0
102
RTVSPost2010PropOp45
 70
     0
102
RTVSPost2010Prop46
 90
       50
102
RTVSPost2010PropOp46
 70
     0
102
RTVSPost2010Prop47
 90
       50
102
RTVSPost2010PropOp47
 70
     0
102
RTVSPost2010Prop48
 90
       50
102
RTVSPost2010PropOp48
 70
     0
102
RTVSPost2010Prop49
280
     0
102
RTVSPost2010PropOp49
 70
     0
102
RTVSPost2010Prop50
 90
       50
102
RTVSPost2010PropOp50
 70
     0
102
RTVSPost2010Prop51ColorIndex
 90
      256
102
RTVSPost2010Prop51ColorRGB
 90
-16777216
102
RTVSPost2010PropOp51
 70
     0
102
RTVSPost2010Prop52
140
1.0
102
RTVSPost2010PropOp52
 70
     0
102
RTVSPost2010Prop53
 90
        2
102
RTVSPost2010PropOp53
 70
     0
102
RTVSPost2010Prop54
  1
strokes_ogs.tif
102
RTVSPost2010PropOp54
 70
     0
102
RTVSPost2010Prop55
280
     0
102
RTVSPost2010PropOp55
 70
     0
102
RTVSPost2010Prop56
140
1.0
102
RTVSPost2010PropOp56
 70
     0
102
RTVSPost2010Prop57
140
1.0
102
RTVSPost2010PropOp57
 70
     0
  0
XRECORD
  5
12F
102
{ACAD_REACTORS
330
12E
102
}
330
12E
100
AcDbXrecord
280
     1
102
RTVSPost2010Prop28
280
     0
102
RTVSPost2010PropOp28
 70
     1
102
RTVSPost2010Prop29
280
     1
102
RTVSPost2010PropOp29
 70
     1
102
RTVSPost2010Prop30
280
     1
102
RTVSPost2010PropOp30
 70
     1
102
RTVSPost2010Prop31
280
     0
102
RTVSPost2010PropOp31
 70
     1
102
RTVSPost2010Prop32
280
     0
102
RTVSPost2010PropOp32
 70
     1
102
RTVSPost2010Prop33
280
     0
102
RTVSPost2010PropOp33
 70
     1
102
RTVSPost2010Prop34
280
     0
102
RTVSPost2010PropOp34
 70
     1
102
RTVSPost2010Prop35
280
     0
102
RTVSPost2010PropOp35
 70
     1
102
RTVSPost2010Prop36
280
     0
102
RTVSPost2010PropOp36
 70
     1
102
RTVSPost2010Prop37
 90
       50
102
RTVSPost2010PropOp37
 70
     1
102
RTVSPost2010Prop38
140
0.0
102
RTVSPost2010PropOp38
 70
     1
102
RTVSPost2010Prop39
140
1.0
102
RTVSPost2010PropOp39
 70
     1
102
RTVSPost2010Prop40
 90
        0
102
RTVSPost2010PropOp40
 70
     1
102
RTVSPost2010Prop41ColorIndex
 90
       18
102
RTVSPost2010Prop41ColorRGB
 90
        0
102
RTVSPost2010PropOp41
 70
     1
102
RTVSPost2010Prop42
 90
       50
102
RTVSPost2010PropOp42
 70
     1
102
RTVSPost2010Prop43
 90
        3
102
RTVSPost2010PropOp43
 70
     1
102
RTVSPost2010Prop44ColorIndex
 90
        5
102
RTVSPost2010Prop44ColorRGB
 90
      255
102
RTVSPost2010PropOp44
 70
     1
102
RTVSPost2010Prop45
280
     0
102
RTVSPost2010PropOp45
 70
     1
102
RTVSPost2010Prop46
 90
       50
102
RTVSPost2010PropOp46
 70
     1
102
RTVSPost2010Prop47
 90
       50
102
RTVSPost2010PropOp47
 70
     1
102
RTVSPost2010Prop48
 90
       50
102
RTVSPost2010PropOp48
 70
     1
102
RTVSPost2010Prop49
280
     0
102
RTVSPost2010PropOp49
 70
     1
102
RTVSPost2010Prop50
 90
       50
102
RTVSPost2010PropOp50
 70
     1
102
RTVSPost2010Prop51ColorIndex
 90
      256
102
RTVSPost2010Prop51ColorRGB
 90
-16777216
102
RTVSPost2010PropOp51
 70
     0
102
RTVSPost2010Prop52
140
1.0
102
RTVSPost2010PropOp52
 70
     0
102
RTVSPost2010Prop53
 90
        2
102
RTVSPost2010PropOp53
 70
     1
102
RTVSPost2010Prop54
  1
strokes_ogs.tif
102
RTVSPost2010PropOp54
 70
     1
102
RTVSPost2010Prop55
280
     0
102
RTVSPost2010PropOp55
 70
     1
102
RTVSPost2010Prop56
140
1.0
102
RTVSPost2010PropOp56
 70
     1
102
RTVSPost2010Prop57
140
1.0
102
RTVSPost2010PropOp57
 70
     1
  0
XRECORD
  5
145
102
{ACAD_REACTORS
330
144
102
}
330
144
100
AcDbXrecord
280
     1
102
RTVSPost2010Prop28
280
     0
102
RTVSPost2010PropOp28
 70
     1
102
RTVSPost2010Prop29
280
     1
102
RTVSPost2010PropOp29
 70
     1
102
RTVSPost2010Prop30
280
     1
102
RTVSPost2010PropOp30
 70
     1
102
RTVSPost2010Prop31
280
     0
102
RTVSPost2010PropOp31
 70
     1
102
RTVSPost2010Prop32
280
     0
102
RTVSPost2010PropOp32
 70
     1
102
RTVSPost2010Prop33
280
     0
102
RTVSPost2010PropOp33
 70
     1
102
RTVSPost2010Prop34
280
     0
102
RTVSPost2010PropOp34
 70
     1
102
RTVSPost2010Prop35
280
     0
102
RTVSPost2010PropOp35
 70
     1
102
RTVSPost2010Prop36
280
     0
102
RTVSPost2010PropOp36
 70
     1
102
RTVSPost2010Prop37
 90
       50
102
RTVSPost2010PropOp37
 70
     1
102
RTVSPost2010Prop38
140
0.0
102
RTVSPost2010PropOp38
 70
     1
102
RTVSPost2010Prop39
140
1.0
102
RTVSPost2010PropOp39
 70
     1
102
RTVSPost2010Prop40
 90
        0
102
RTVSPost2010PropOp40
 70
     1
102
RTVSPost2010Prop41ColorIndex
 90
       18
102
RTVSPost2010Prop41ColorRGB
 90
        0
102
RTVSPost2010PropOp41
 70
     1
102
RTVSPost2010Prop42
 90
       50
102
RTVSPost2010PropOp42
 70
     1
102
RTVSPost2010Prop43
 90
        3
102
RTVSPost2010PropOp43
 70
     1
102
RTVSPost2010Prop44ColorIndex
 90
        5
102
RTVSPost2010Prop44ColorRGB
 90
      255
102
RTVSPost2010PropOp44
 70
     1
102
RTVSPost2010Prop45
280
     0
102
RTVSPost2010PropOp45
 70
     1
102
RTVSPost2010Prop46
 90
       50
102
RTVSPost2010PropOp46
 70
     1
102
RTVSPost2010Prop47
 90
       50
102
RTVSPost2010PropOp47
 70
     1
102
RTVSPost2010Prop48
 90
       50
102
RTVSPost2010PropOp48
 70
     1
102
RTVSPost2010Prop49
280
     0
102
RTVSPost2010PropOp49
 70
     1
102
RTVSPost2010Prop50
 90
       50
102
RTVSPost2010PropOp50
 70
     1
102
RTVSPost2010Prop51ColorIndex
 90
      256
102
RTVSPost2010Prop51ColorRGB
 90
-16777216
102
RTVSPost2010PropOp51
 70
     0
102
RTVSPost2010Prop52
140
1.0
102
RTVSPost2010PropOp52
 70
     0
102
RTVSPost2010Prop53
 90
        2
102
RTVSPost2010PropOp53
 70
     1
102
RTVSPost2010Prop54
  1
strokes_ogs.tif
102
RTVSPost2010PropOp54
 70
     1
102
RTVSPost2010Prop55
280
     0
102
RTVSPost2010PropOp55
 70
     1
102
RTVSPost2010Prop56
140
1.0
102
RTVSPost2010PropOp56
 70
     1
102
RTVSPost2010Prop57
140
1.0
102
RTVSPost2010PropOp57
 70
     1
  0
XRECORD
  5
143
102
{ACAD_REACTORS
330
142
102
}
330
142
100
AcDbXrecord
280
     1
102
RTVSPost2010Prop28
280
     0
102
RTVSPost2010PropOp28
 70
     1
102
RTVSPost2010Prop29
280
     1
102
RTVSPost2010PropOp29
 70
     1
102
RTVSPost2010Prop30
280
     1
102
RTVSPost2010PropOp30
 70
     1
102
RTVSPost2010Prop31
280
     0
102
RTVSPost2010PropOp31
 70
     1
102
RTVSPost2010Prop32
280
     0
102
RTVSPost2010PropOp32
 70
     1
102
RTVSPost2010Prop33
280
     0
102
RTVSPost2010PropOp33
 70
     1
102
RTVSPost2010Prop34
280
     0
102
RTVSPost2010PropOp34
 70
     1
102
RTVSPost2010Prop35
280
     0
102
RTVSPost2010PropOp35
 70
     1
102
RTVSPost2010Prop36
280
     0
102
RTVSPost2010PropOp36
 70
     1
102
RTVSPost2010Prop37
 90
       50
102
RTVSPost2010PropOp37
 70
     1
102
RTVSPost2010Prop38
140
0.0
102
RTVSPost2010PropOp38
 70
     1
102
RTVSPost2010Prop39
140
1.0
102
RTVSPost2010PropOp39
 70
     1
102
RTVSPost2010Prop40
 90
        0
102
RTVSPost2010PropOp40
 70
     1
102
RTVSPost2010Prop41ColorIndex
 90
       18
102
RTVSPost2010Prop41ColorRGB
 90
        0
102
RTVSPost2010PropOp41
 70
     1
102
RTVSPost2010Prop42
 90
       50
102
RTVSPost2010PropOp42
 70
     1
102
RTVSPost2010Prop43
 90
        3
102
RTVSPost2010PropOp43
 70
     1
102
RTVSPost2010Prop44ColorIndex
 90
        5
102
RTVSPost2010Prop44ColorRGB
 90
      255
102
RTVSPost2010PropOp44
 70
     1
102
RTVSPost2010Prop45
280
     0
102
RTVSPost2010PropOp45
 70
     1
102
RTVSPost2010Prop46
 90
       50
102
RTVSPost2010PropOp46
 70
     1
102
RTVSPost2010Prop47
 90
       50
102
RTVSPost2010PropOp47
 70
     1
102
RTVSPost2010Prop48
 90
       50
102
RTVSPost2010PropOp48
 70
     1
102
RTVSPost2010Prop49
280
     0
102
RTVSPost2010PropOp49
 70
     1
102
RTVSPost2010Prop50
 90
       50
102
RTVSPost2010PropOp50
 70
     1
102
RTVSPost2010Prop51ColorIndex
 90
      256
102
RTVSPost2010Prop51ColorRGB
 90
-16777216
102
RTVSPost2010PropOp51
 70
     0
102
RTVSPost2010Prop52
140
1.0
102
RTVSPost2010PropOp52
 70
     0
102
RTVSPost2010Prop53
 90
        2
102
RTVSPost2010PropOp53
 70
     1
102
RTVSPost2010Prop54
  1
strokes_ogs.tif
102
RTVSPost2010PropOp54
 70
     1
102
RTVSPost2010Prop55
280
     0
102
RTVSPost2010PropOp55
 70
     1
102
RTVSPost2010Prop56
140
1.0
102
RTVSPost2010PropOp56
 70
     1
102
RTVSPost2010Prop57
140
1.0
102
RTVSPost2010PropOp57
 70
     1
  0
XRECORD
  5
13D
102
{ACAD_REACTORS
330
13C
102
}
330
13C
100
AcDbXrecord
280
     1
102
RTVSPost2010Prop28
280
     0
102
RTVSPost2010PropOp28
 70
     1
102
RTVSPost2010Prop29
280
     1
102
RTVSPost2010PropOp29
 70
     1
102
RTVSPost2010Prop30
280
     1
102
RTVSPost2010PropOp30
 70
     1
102
RTVSPost2010Prop31
280
     0
102
RTVSPost2010PropOp31
 70
     1
102
RTVSPost2010Prop32
280
     0
102
RTVSPost2010PropOp32
 70
     1
102
RTVSPost2010Prop33
280
     0
102
RTVSPost2010PropOp33
 70
     1
102
RTVSPost2010Prop34
280
     0
102
RTVSPost2010PropOp34
 70
     1
102
RTVSPost2010Prop35
280
     0
102
RTVSPost2010PropOp35
 70
     1
102
RTVSPost2010Prop36
280
     0
102
RTVSPost2010PropOp36
 70
     1
102
RTVSPost2010Prop37
 90
       50
102
RTVSPost2010PropOp37
 70
     1
102
RTVSPost2010Prop38
140
0.0
102
RTVSPost2010PropOp38
 70
     1
102
RTVSPost2010Prop39
140
1.0
102
RTVSPost2010PropOp39
 70
     1
102
RTVSPost2010Prop40
 90
        0
102
RTVSPost2010PropOp40
 70
     1
102
RTVSPost2010Prop41ColorIndex
 90
       18
102
RTVSPost2010Prop41ColorRGB
 90
        0
102
RTVSPost2010PropOp41
 70
     1
102
RTVSPost2010Prop42
 90
       50
102
RTVSPost2010PropOp42
 70
     1
102
RTVSPost2010Prop43
 90
        3
102
RTVSPost2010PropOp43
 70
     1
102
RTVSPost2010Prop44ColorIndex
 90
        5
102
RTVSPost2010Prop44ColorRGB
 90
      255
102
RTVSPost2010PropOp44
 70
     1
102
RTVSPost2010Prop45
280
     0
102
RTVSPost2010PropOp45
 70
     1
102
RTVSPost2010Prop46
 90
       50
102
RTVSPost2010PropOp46
 70
     1
102
RTVSPost2010Prop47
 90
       50
102
RTVSPost2010PropOp47
 70
     1
102
RTVSPost2010Prop48
 90
       50
102
RTVSPost2010PropOp48
 70
     1
102
RTVSPost2010Prop49
280
     0
102
RTVSPost2010PropOp49
 70
     1
102
RTVSPost2010Prop50
 90
       50
102
RTVSPost2010PropOp50
 70
     1
102
RTVSPost2010Prop51ColorIndex
 90
      256
102
RTVSPost2010Prop51ColorRGB
 90
-16777216
102
RTVSPost2010PropOp51
 70
     0
102
RTVSPost2010Prop52
140
1.0
102
RTVSPost2010PropOp52
 70
     0
102
RTVSPost2010Prop53
 90
        2
102
RTVSPost2010PropOp53
 70
     1
102
RTVSPost2010Prop54
  1
strokes_ogs.tif
102
RTVSPost2010PropOp54
 70
     1
102
RTVSPost2010Prop55
280
     0
102
RTVSPost2010PropOp55
 70
     1
102
RTVSPost2010Prop56
140
1.0
102
RTVSPost2010PropOp56
 70
     1
102
RTVSPost2010Prop57
140
1.0
102
RTVSPost2010PropOp57
 70
     1
  0
XRECORD
  5
13F
102
{ACAD_REACTORS
330
13E
102
}
330
13E
100
AcDbXrecord
280
     1
102
RTVSPost2010Prop28
280
     0
102
RTVSPost2010PropOp28
 70
     1
102
RTVSPost2010Prop29
280
     1
102
RTVSPost2010PropOp29
 70
     1
102
RTVSPost2010Prop30
280
     1
102
RTVSPost2010PropOp30
 70
     1
102
RTVSPost2010Prop31
280
     0
102
RTVSPost2010PropOp31
 70
     1
102
RTVSPost2010Prop32
280
     0
102
RTVSPost2010PropOp32
 70
     1
102
RTVSPost2010Prop33
280
     0
102
RTVSPost2010PropOp33
 70
     1
102
RTVSPost2010Prop34
280
     0
102
RTVSPost2010PropOp34
 70
     1
102
RTVSPost2010Prop35
280
     0
102
RTVSPost2010PropOp35
 70
     1
102
RTVSPost2010Prop36
280
     0
102
RTVSPost2010PropOp36
 70
     1
102
RTVSPost2010Prop37
 90
       50
102
RTVSPost2010PropOp37
 70
     1
102
RTVSPost2010Prop38
140
0.0
102
RTVSPost2010PropOp38
 70
     1
102
RTVSPost2010Prop39
140
1.0
102
RTVSPost2010PropOp39
 70
     1
102
RTVSPost2010Prop40
 90
        0
102
RTVSPost2010PropOp40
 70
     1
102
RTVSPost2010Prop41ColorIndex
 90
       18
102
RTVSPost2010Prop41ColorRGB
 90
        0
102
RTVSPost2010PropOp41
 70
     1
102
RTVSPost2010Prop42
 90
       50
102
RTVSPost2010PropOp42
 70
     1
102
RTVSPost2010Prop43
 90
        3
102
RTVSPost2010PropOp43
 70
     1
102
RTVSPost2010Prop44ColorIndex
 90
        5
102
RTVSPost2010Prop44ColorRGB
 90
      255
102
RTVSPost2010PropOp44
 70
     1
102
RTVSPost2010Prop45
280
     0
102
RTVSPost2010PropOp45
 70
     1
102
RTVSPost2010Prop46
 90
       50
102
RTVSPost2010PropOp46
 70
     1
102
RTVSPost2010Prop47
 90
       50
102
RTVSPost2010PropOp47
 70
     1
102
RTVSPost2010Prop48
 90
       50
102
RTVSPost2010PropOp48
 70
     1
102
RTVSPost2010Prop49
280
     0
102
RTVSPost2010PropOp49
 70
     1
102
RTVSPost2010Prop50
 90
       50
102
RTVSPost2010PropOp50
 70
     1
102
RTVSPost2010Prop51ColorIndex
 90
      256
102
RTVSPost2010Prop51ColorRGB
 90
-16777216
102
RTVSPost2010PropOp51
 70
     0
102
RTVSPost2010Prop52
140
1.0
102
RTVSPost2010PropOp52
 70
     0
102
RTVSPost2010Prop53
 90
        2
102
RTVSPost2010PropOp53
 70
     1
102
RTVSPost2010Prop54
  1
strokes_ogs.tif
102
RTVSPost2010PropOp54
 70
     1
102
RTVSPost2010Prop55
280
     0
102
RTVSPost2010PropOp55
 70
     1
102
RTVSPost2010Prop56
140
1.0
102
RTVSPost2010PropOp56
 70
     1
102
RTVSPost2010Prop57
140
1.0
102
RTVSPost2010PropOp57
 70
     1
  0
XRECORD
  5
135
102
{ACAD_REACTORS
330
134
102
}
330
134
100
AcDbXrecord
280
     1
102
RTVSPost2010Prop28
280
     0
102
RTVSPost2010PropOp28
 70
     1
102
RTVSPost2010Prop29
280
     1
102
RTVSPost2010PropOp29
 70
     1
102
RTVSPost2010Prop30
280
     1
102
RTVSPost2010PropOp30
 70
     1
102
RTVSPost2010Prop31
280
     0
102
RTVSPost2010PropOp31
 70
     1
102
RTVSPost2010Prop32
280
     0
102
RTVSPost2010PropOp32
 70
     1
102
RTVSPost2010Prop33
280
     0
102
RTVSPost2010PropOp33
 70
     1
102
RTVSPost2010Prop34
280
     0
102
RTVSPost2010PropOp34
 70
     1
102
RTVSPost2010Prop35
280
     0
102
RTVSPost2010PropOp35
 70
     1
102
RTVSPost2010Prop36
280
     0
102
RTVSPost2010PropOp36
 70
     1
102
RTVSPost2010Prop37
 90
       50
102
RTVSPost2010PropOp37
 70
     1
102
RTVSPost2010Prop38
140
0.0
102
RTVSPost2010PropOp38
 70
     1
102
RTVSPost2010Prop39
140
1.0
102
RTVSPost2010PropOp39
 70
     1
102
RTVSPost2010Prop40
 90
        0
102
RTVSPost2010PropOp40
 70
     1
102
RTVSPost2010Prop41ColorIndex
 90
       18
102
RTVSPost2010Prop41ColorRGB
 90
        0
102
RTVSPost2010PropOp41
 70
     1
102
RTVSPost2010Prop42
 90
       50
102
RTVSPost2010PropOp42
 70
     1
102
RTVSPost2010Prop43
 90
        3
102
RTVSPost2010PropOp43
 70
     1
102
RTVSPost2010Prop44ColorIndex
 90
        5
102
RTVSPost2010Prop44ColorRGB
 90
      255
102
RTVSPost2010PropOp44
 70
     1
102
RTVSPost2010Prop45
280
     0
102
RTVSPost2010PropOp45
 70
     1
102
RTVSPost2010Prop46
 90
       50
102
RTVSPost2010PropOp46
 70
     1
102
RTVSPost2010Prop47
 90
       50
102
RTVSPost2010PropOp47
 70
     1
102
RTVSPost2010Prop48
 90
       50
102
RTVSPost2010PropOp48
 70
     1
102
RTVSPost2010Prop49
280
     0
102
RTVSPost2010PropOp49
 70
     1
102
RTVSPost2010Prop50
 90
       50
102
RTVSPost2010PropOp50
 70
     1
102
RTVSPost2010Prop51ColorIndex
 90
      256
102
RTVSPost2010Prop51ColorRGB
 90
-16777216
102
RTVSPost2010PropOp51
 70
     0
102
RTVSPost2010Prop52
140
1.0
102
RTVSPost2010PropOp52
 70
     0
102
RTVSPost2010Prop53
 90
        2
102
RTVSPost2010PropOp53
 70
     1
102
RTVSPost2010Prop54
  1
strokes_ogs.tif
102
RTVSPost2010PropOp54
 70
     1
102
RTVSPost2010Prop55
280
     0
102
RTVSPost2010PropOp55
 70
     1
102
RTVSPost2010Prop56
140
1.0
102
RTVSPost2010PropOp56
 70
     1
102
RTVSPost2010Prop57
140
1.0
102
RTVSPost2010PropOp57
 70
     1
  0
XRECORD
  5
129
102
{ACAD_REACTORS
330
128
102
}
330
128
100
AcDbXrecord
280
     1
102
RTVSPost2010Prop28
280
     0
102
RTVSPost2010PropOp28
 70
     1
102
RTVSPost2010Prop29
280
     1
102
RTVSPost2010PropOp29
 70
     1
102
RTVSPost2010Prop30
280
     1
102
RTVSPost2010PropOp30
 70
     1
102
RTVSPost2010Prop31
280
     0
102
RTVSPost2010PropOp31
 70
     1
102
RTVSPost2010Prop32
280
     0
102
RTVSPost2010PropOp32
 70
     1
102
RTVSPost2010Prop33
280
     0
102
RTVSPost2010PropOp33
 70
     1
102
RTVSPost2010Prop34
280
     0
102
RTVSPost2010PropOp34
 70
     1
102
RTVSPost2010Prop35
280
     0
102
RTVSPost2010PropOp35
 70
     1
102
RTVSPost2010Prop36
280
     0
102
RTVSPost2010PropOp36
 70
     1
102
RTVSPost2010Prop37
 90
       50
102
RTVSPost2010PropOp37
 70
     1
102
RTVSPost2010Prop38
140
0.0
102
RTVSPost2010PropOp38
 70
     1
102
RTVSPost2010Prop39
140
1.0
102
RTVSPost2010PropOp39
 70
     1
102
RTVSPost2010Prop40
 90
        0
102
RTVSPost2010PropOp40
 70
     1
102
RTVSPost2010Prop41ColorIndex
 90
       18
102
RTVSPost2010Prop41ColorRGB
 90
        0
102
RTVSPost2010PropOp41
 70
     1
102
RTVSPost2010Prop42
 90
       50
102
RTVSPost2010PropOp42
 70
     1
102
RTVSPost2010Prop43
 90
        3
102
RTVSPost2010PropOp43
 70
     1
102
RTVSPost2010Prop44ColorIndex
 90
        5
102
RTVSPost2010Prop44ColorRGB
 90
      255
102
RTVSPost2010PropOp44
 70
     1
102
RTVSPost2010Prop45
280
     0
102
RTVSPost2010PropOp45
 70
     1
102
RTVSPost2010Prop46
 90
       50
102
RTVSPost2010PropOp46
 70
     1
102
RTVSPost2010Prop47
 90
       50
102
RTVSPost2010PropOp47
 70
     1
102
RTVSPost2010Prop48
 90
       50
102
RTVSPost2010PropOp48
 70
     1
102
RTVSPost2010Prop49
280
     0
102
RTVSPost2010PropOp49
 70
     1
102
RTVSPost2010Prop50
 90
       50
102
RTVSPost2010PropOp50
 70
     1
102
RTVSPost2010Prop51ColorIndex
 90
      256
102
RTVSPost2010Prop51ColorRGB
 90
-16777216
102
RTVSPost2010PropOp51
 70
     0
102
RTVSPost2010Prop52
140
1.0
102
RTVSPost2010PropOp52
 70
     0
102
RTVSPost2010Prop53
 90
        2
102
RTVSPost2010PropOp53
 70
     1
102
RTVSPost2010Prop54
  1
strokes_ogs.tif
102
RTVSPost2010PropOp54
 70
     1
102
RTVSPost2010Prop55
280
     0
102
RTVSPost2010PropOp55
 70
     1
102
RTVSPost2010Prop56
140
1.0
102
RTVSPost2010PropOp56
 70
     1
102
RTVSPost2010Prop57
140
1.0
102
RTVSPost2010PropOp57
 70
     1
  0
XRECORD
  5
141
102
{ACAD_REACTORS
330
140
102
}
330
140
100
AcDbXrecord
280
     1
102
RTVSPost2010Prop28
280
     0
102
RTVSPost2010PropOp28
 70
     1
102
RTVSPost2010Prop29
280
     1
102
RTVSPost2010PropOp29
 70
     1
102
RTVSPost2010Prop30
280
     1
102
RTVSPost2010PropOp30
 70
     1
102
RTVSPost2010Prop31
280
     0
102
RTVSPost2010PropOp31
 70
     1
102
RTVSPost2010Prop32
280
     0
102
RTVSPost2010PropOp32
 70
     1
102
RTVSPost2010Prop33
280
     0
102
RTVSPost2010PropOp33
 70
     1
102
RTVSPost2010Prop34
280
     0
102
RTVSPost2010PropOp34
 70
     1
102
RTVSPost2010Prop35
280
     0
102
RTVSPost2010PropOp35
 70
     1
102
RTVSPost2010Prop36
280
     0
102
RTVSPost2010PropOp36
 70
     1
102
RTVSPost2010Prop37
 90
       50
102
RTVSPost2010PropOp37
 70
     1
102
RTVSPost2010Prop38
140
0.0
102
RTVSPost2010PropOp38
 70
     1
102
RTVSPost2010Prop39
140
1.0
102
RTVSPost2010PropOp39
 70
     1
102
RTVSPost2010Prop40
 90
        0
102
RTVSPost2010PropOp40
 70
     1
102
RTVSPost2010Prop41ColorIndex
 90
       18
102
RTVSPost2010Prop41ColorRGB
 90
        0
102
RTVSPost2010PropOp41
 70
     1
102
RTVSPost2010Prop42
 90
       50
102
RTVSPost2010PropOp42
 70
     1
102
RTVSPost2010Prop43
 90
        3
102
RTVSPost2010PropOp43
 70
     1
102
RTVSPost2010Prop44ColorIndex
 90
        5
102
RTVSPost2010Prop44ColorRGB
 90
      255
102
RTVSPost2010PropOp44
 70
     1
102
RTVSPost2010Prop45
280
     0
102
RTVSPost2010PropOp45
 70
     1
102
RTVSPost2010Prop46
 90
       50
102
RTVSPost2010PropOp46
 70
     1
102
RTVSPost2010Prop47
 90
       50
102
RTVSPost2010PropOp47
 70
     1
102
RTVSPost2010Prop48
 90
       50
102
RTVSPost2010PropOp48
 70
     1
102
RTVSPost2010Prop49
280
     0
102
RTVSPost2010PropOp49
 70
     1
102
RTVSPost2010Prop50
 90
       50
102
RTVSPost2010PropOp50
 70
     1
102
RTVSPost2010Prop51ColorIndex
 90
      256
102
RTVSPost2010Prop51ColorRGB
 90
-16777216
102
RTVSPost2010PropOp51
 70
     0
102
RTVSPost2010Prop52
140
1.0
102
RTVSPost2010PropOp52
 70
     0
102
RTVSPost2010Prop53
 90
        2
102
RTVSPost2010PropOp53
 70
     1
102
RTVSPost2010Prop54
  1
strokes_ogs.tif
102
RTVSPost2010PropOp54
 70
     1
102
RTVSPost2010Prop55
280
     0
102
RTVSPost2010PropOp55
 70
     1
102
RTVSPost2010Prop56
140
1.0
102
RTVSPost2010PropOp56
 70
     1
102
RTVSPost2010Prop57
140
1.0
102
RTVSPost2010PropOp57
 70
     1
  0
ENDSEC
  0
EOF
