  0
SECTION
  2
HEADER
  9
$ACADVER
  1
AC1024
  9
$ACADMAINTVER
 70
   226
  9
$DWGCODEPAGE
  3
ANSI_932
  9
$INSBASE
 10
0.0
 20
0.0
 30
0.0
  9
$EXTMIN
 10
1.000000000000000E+20
 20
1.000000000000000E+20
 30
1.000000000000000E+20
  9
$EXTMAX
 10
-1.000000000000000E+20
 20
-1.000000000000000E+20
 30
-1.000000000000000E+20
  9
$LIMMIN
 10
0.0
 20
0.0
  9
$LIMMAX
 10
12.0
 20
9.0
  9
$ORTHOMODE
 70
     0
  9
$REGENMODE
 70
     1
  9
$FILLMODE
 70
     1
  9
$QTEXTMODE
 70
     0
  9
$MIRRTEXT
 70
     0
  9
$LTSCALE
 40
1.0
  9
$ATTMODE
 70
     1
  9
$TEXTSIZE
 40
0.2
  9
$TRACEWID
 40
0.05
  9
$TEXTSTYLE
  7
Standard
  9
$CLAYER
  8
0
  9
$CELTYPE
  6
ByLayer
  9
$CECOLOR
 62
   256
  9
$CELTSCALE
 40
1.0
  9
$DISPSILH
 70
     0
  9
$DIMSCALE
 40
1.0
  9
$DIMASZ
 40
0.18
  9
$DIMEXO
 40
0.0625
  9
$DIMDLI
 40
0.38
  9
$DIMRND
 40
0.0
  9
$DIMDLE
 40
0.0
  9
$DIMEXE
 40
0.18
  9
$DIMTP
 40
0.0
  9
$DIMTM
 40
0.0
  9
$DIMTXT
 40
0.18
  9
$DIMCEN
 40
0.09
  9
$DIMTSZ
 40
0.0
  9
$DIMTOL
 70
     0
  9
$DIMLIM
 70
     0
  9
$DIMTIH
 70
     1
  9
$DIMTOH
 70
     1
  9
$DIMSE1
 70
     0
  9
$DIMSE2
 70
     0
  9
$DIMTAD
 70
     0
  9
$DIMZIN
 70
     0
  9
$DIMBLK
  1

  9
$DIMASO
 70
     1
  9
$DIMSHO
 70
     1
  9
$DIMPOST
  1

  9
$DIMAPOST
  1

  9
$DIMALT
 70
     0
  9
$DIMALTD
 70
     2
  9
$DIMALTF
 40
25.4
  9
$DIMLFAC
 40
1.0
  9
$DIMTOFL
 70
     0
  9
$DIMTVP
 40
0.0
  9
$DIMTIX
 70
     0
  9
$DIMSOXD
 70
     0
  9
$DIMSAH
 70
     0
  9
$DIMBLK1
  1

  9
$DIMBLK2
  1

  9
$DIMSTYLE
  2
Standard
  9
$DIMCLRD
 70
     0
  9
$DIMCLRE
 70
     0
  9
$DIMCLRT
 70
     0
  9
$DIMTFAC
 40
1.0
  9
$DIMGAP
 40
0.09
  9
$DIMJUST
 70
     0
  9
$DIMSD1
 70
     0
  9
$DIMSD2
 70
     0
  9
$DIMTOLJ
 70
     1
  9
$DIMTZIN
 70
     0
  9
$DIMALTZ
 70
     0
  9
$DIMALTTZ
 70
     0
  9
$DIMUPT
 70
     0
  9
$DIMDEC
 70
     4
  9
$DIMTDEC
 70
     4
  9
$DIMALTU
 70
     2
  9
$DIMALTTD
 70
     2
  9
$DIMTXSTY
  7
Standard
  9
$DIMAUNIT
 70
     0
  9
$DIMADEC
 70
     0
  9
$DIMALTRND
 40
0.0
  9
$DIMAZIN
 70
     0
  9
$DIMDSEP
 70
    46
  9
$DIMATFIT
 70
     3
  9
$DIMFRAC
 70
     0
  9
$DIMLDRBLK
  1

  9
$DIMLUNIT
 70
     2
  9
$DIMLWD
 70
    -2
  9
$DIMLWE
 70
    -2
  9
$DIMTMOVE
 70
     0
  9
$DIMFXL
 40
1.0
  9
$DIMFXLON
 70
     0
  9
$DIMJOGANG
 40
0.7853981633974483
  9
$DIMTFILL
 70
     0
  9
$DIMTFILLCLR
 70
     0
  9
$DIMARCSYM
 70
     0
  9
$DIMLTYPE
  6

  9
$DIMLTEX1
  6

  9
$DIMLTEX2
  6

  9
$DIMTXTDIRECTION
 70
     0
  9
$LUNITS
 70
     2
  9
$LUPREC
 70
     4
  9
$SKETCHINC
 40
0.1
  9
$FILLETRAD
 40
0.0
  9
$AUNITS
 70
     0
  9
$AUPREC
 70
     0
  9
$MENU
  1
.
  9
$ELEVATION
 40
0.0
  9
$PELEVATION
 40
0.0
  9
$THICKNESS
 40
0.0
  9
$LIMCHECK
 70
     0
  9
$CHAMFERA
 40
0.0
  9
$CHAMFERB
 40
0.0
  9
$CHAMFERC
 40
0.0
  9
$CHAMFERD
 40
0.0
  9
$SKPOLY
 70
     0
  9
$TDCREATE
 40
2459676.434490741
  9
$TDUCREATE
 40
2459676.059490741
  9
$TDUPDATE
 40
2459676.434490741
  9
$TDUUPDATE
 40
2459676.059490741
  9
$TDINDWG
 40
0.0000000000
  9
$TDUSRTIMER
 40
0.0000000000
  9
$USRTIMER
 70
     1
  9
$ANGBASE
 50
0.0
  9
$ANGDIR
 70
     0
  9
$PDMODE
 70
     0
  9
$PDSIZE
 40
0.0
  9
$PLINEWID
 40
0.0
  9
$SPLFRAME
 70
     0
  9
$SPLINETYPE
 70
     6
  9
$SPLINESEGS
 70
     8
  9
$HANDSEED
  5
140
  9
$SURFTAB1
 70
     6
  9
$SURFTAB2
 70
     6
  9
$SURFTYPE
 70
     6
  9
$SURFU
 70
     6
  9
$SURFV
 70
     6
  9
$UCSBASE
  2

  9
$UCSNAME
  2

  9
$UCSORG
 10
0.0
 20
0.0
 30
0.0
  9
$UCSXDIR
 10
1.0
 20
0.0
 30
0.0
  9
$UCSYDIR
 10
0.0
 20
1.0
 30
0.0
  9
$UCSORTHOREF
  2

  9
$UCSORTHOVIEW
 70
     0
  9
$UCSORGTOP
 10
0.0
 20
0.0
 30
0.0
  9
$UCSORGBOTTOM
 10
0.0
 20
0.0
 30
0.0
  9
$UCSORGLEFT
 10
0.0
 20
0.0
 30
0.0
  9
$UCSORGRIGHT
 10
0.0
 20
0.0
 30
0.0
  9
$UCSORGFRONT
 10
0.0
 20
0.0
 30
0.0
  9
$UCSORGBACK
 10
0.0
 20
0.0
 30
0.0
  9
$PUCSBASE
  2

  9
$PUCSNAME
  2

  9
$PUCSORG
 10
0.0
 20
0.0
 30
0.0
  9
$PUCSXDIR
 10
1.0
 20
0.0
 30
0.0
  9
$PUCSYDIR
 10
0.0
 20
1.0
 30
0.0
  9
$PUCSORTHOREF
  2

  9
$PUCSORTHOVIEW
 70
     0
  9
$PUCSORGTOP
 10
0.0
 20
0.0
 30
0.0
  9
$PUCSORGBOTTOM
 10
0.0
 20
0.0
 30
0.0
  9
$PUCSORGLEFT
 10
0.0
 20
0.0
 30
0.0
  9
$PUCSORGRIGHT
 10
0.0
 20
0.0
 30
0.0
  9
$PUCSORGFRONT
 10
0.0
 20
0.0
 30
0.0
  9
$PUCSORGBACK
 10
0.0
 20
0.0
 30
0.0
  9
$USERI1
 70
     0
  9
$USERI2
 70
     0
  9
$USERI3
 70
     0
  9
$USERI4
 70
     0
  9
$USERI5
 70
     0
  9
$USERR1
 40
0.0
  9
$USERR2
 40
0.0
  9
$USERR3
 40
0.0
  9
$USERR4
 40
0.0
  9
$USERR5
 40
0.0
  9
$WORLDVIEW
 70
     1
  9
$SHADEDGE
 70
     3
  9
$SHADEDIF
 70
    70
  9
$TILEMODE
 70
     1
  9
$MAXACTVP
 70
    64
  9
$PINSBASE
 10
0.0
 20
0.0
 30
0.0
  9
$PLIMCHECK
 70
     0
  9
$PEXTMIN
 10
1.000000000000000E+20
 20
1.000000000000000E+20
 30
1.000000000000000E+20
  9
$PEXTMAX
 10
-1.000000000000000E+20
 20
-1.000000000000000E+20
 30
-1.000000000000000E+20
  9
$PLIMMIN
 10
0.0
 20
0.0
  9
$PLIMMAX
 10
12.0
 20
9.0
  9
$UNITMODE
 70
     0
  9
$VISRETAIN
 70
     1
  9
$PLINEGEN
 70
     0
  9
$PSLTSCALE
 70
     1
  9
$TREEDEPTH
 70
  3020
  9
$CMLSTYLE
  2
Standard
  9
$CMLJUST
 70
     0
  9
$CMLSCALE
 40
1.0
  9
$PROXYGRAPHICS
 70
     1
  9
$MEASUREMENT
 70
     0
  9
$CELWEIGHT
370
    -1
  9
$ENDCAPS
280
     0
  9
$JOINSTYLE
280
     0
  9
$LWDISPLAY
290
     1
  9
$INSUNITS
 70
     4
  9
$HYPERLINKBASE
  1

  9
$STYLESHEET
  1

  9
$XEDIT
290
     1
  9
$CEPSNTYPE
380
     0
  9
$PSTYLEMODE
290
     1
  9
$FINGERPRINTGUID
  2
{AB8F190B-062C-0A41-B156-EF1850235C95}
  9
$VERSIONGUID
  2
{86A6CD0B-1EC0-8344-8BF2-4D7CEEEAC6FF}
  9
$EXTNAMES
290
     1
  9
$PSVPSCALE
 40
0.0
  9
$OLESTARTUP
290
     0
  9
$SORTENTS
280
   127
  9
$INDEXCTL
280
     0
  9
$HIDETEXT
280
     1
  9
$XCLIPFRAME
280
     2
  9
$HALOGAP
280
     0
  9
$OBSCOLOR
 70
   257
  9
$OBSLTYPE
280
     0
  9
$INTERSECTIONDISPLAY
280
     0
  9
$INTERSECTIONCOLOR
 70
   257
  9
$DIMASSOC
280
     2
  9
$PROJECTNAME
  1

  9
$CAMERADISPLAY
290
     0
  9
$LENSLENGTH
 40
50.0
  9
$CAMERAHEIGHT
 40
0.0
  9
$STEPSPERSEC
 40
2.0
  9
$STEPSIZE
 40
6.0
  9
$3DDWFPREC
 40
2.0
  9
$PSOLWIDTH
 40
0.25
  9
$PSOLHEIGHT
 40
4.0
  9
$LOFTANG1
 40
1.570796326794896
  9
$LOFTANG2
 40
1.570796326794896
  9
$LOFTMAG1
 40
0.0
  9
$LOFTMAG2
 40
0.0
  9
$LOFTPARAM
 70
     7
  9
$LOFTNORMALS
280
     1
  9
$LATITUDE
 40
37.795
  9
$LONGITUDE
 40
-122.394
  9
$NORTHDIRECTION
 40
0.0
  9
$TIMEZONE
 70
 -8000
  9
$LIGHTGLYPHDISPLAY
280
     1
  9
$TILEMODELIGHTSYNCH
280
     1
  9
$CMATERIAL
347
11
  9
$SOLIDHIST
280
     0
  9
$SHOWHIST
280
     1
  9
$DWFFRAME
280
     2
  9
$DGNFRAME
280
     0
  9
$REALWORLDSCALE
290
     1
  9
$INTERFERECOLOR
 62
     1
  9
$INTERFEREOBJVS
345
33
  9
$INTERFEREVPVS
346
30
  9
$CSHADOW
280
     0
  9
$SHADOWPLANELOCATION
 40
0.0
  0
ENDSEC
  0
SECTION
  2
CLASSES
  0
CLASS
  1
ACDBDICTIONARYWDFLT
  2
AcDbDictionaryWithDefault
  3
ObjectDBX Classes
 90
        0
 91
        1
280
     0
281
     0
  0
CLASS
  1
MATERIAL
  2
AcDbMaterial
  3
ObjectDBX Classes
 90
     1153
 91
        3
280
     0
281
     0
  0
CLASS
  1
VISUALSTYLE
  2
AcDbVisualStyle
  3
ObjectDBX Classes
 90
     4095
 91
       24
280
     0
281
     0
  0
CLASS
  1
SCALE
  2
AcDbScale
  3
ObjectDBX Classes
 90
     1153
 91
       17
280
     0
281
     0
  0
CLASS
  1
TABLESTYLE
  2
AcDbTableStyle
  3
ObjectDBX Classes
 90
     4095
 91
        1
280
     0
281
     0
  0
CLASS
  1
MLEADERSTYLE
  2
AcDbMLeaderStyle
  3
ACDB_MLEADERSTYLE_CLASS
 90
     4095
 91
        1
280
     0
281
     0
  0
CLASS
  1
ACDBSECTIONVIEWSTYLE
  2
AcDbSectionViewStyle
  3
ObjectDBX Classes
 90
     1025
 91
        1
280
     0
281
     0
  0
CLASS
  1
ACDBDETAILVIEWSTYLE
  2
AcDbDetailViewStyle
  3
ObjectDBX Classes
 90
     1025
 91
        1
280
     0
281
     0
  0
CLASS
  1
DICTIONARYVAR
  2
AcDbDictionaryVar
  3
ObjectDBX Classes
 90
        0
 91
        5
280
     0
281
     0
  0
CLASS
  1
CELLSTYLEMAP
  2
AcDbCellStyleMap
  3
ObjectDBX Classes
 90
     1152
 91
        1
280
     0
281
     0
  0
ENDSEC
  0
SECTION
  2
TABLES
  0
TABLE
  2
VPORT
  5
8
330
0
100
AcDbSymbolTable
 70
     1
  0
VPORT
  5
57
330
8
100
AcDbSymbolTableRecord
100
AcDbViewportTableRecord
  2
*Active
 70
     0
 10
0.0
 20
0.0
 11
1.0
 21
1.0
 12
0.0
 22
0.0
 13
0.0
 23
0.0
 14
1.0
 24
1.0
 15
0.0
 25
0.0
 16
0.0
 26
0.0
 36
1.0
 17
104.9999999737534
 27
-148.4999999628701
 37
0.0
 40
302.939999924255
 41
0.7070707070707534
 42
50.0
 43
0.0
 44
0.0
 50
0.0
 51
0.0
 71
     0
 72
   100
 73
     1
 74
     0
 75
     1
 76
     0
 77
     0
 78
     0
281
     0
 65
     1
110
0.0
120
0.0
130
0.0
111
1.0
121
0.0
131
0.0
112
0.0
122
1.0
132
0.0
 79
     0
146
0.0
 60
     3
 61
     5
292
     1
282
     1
141
0.0
142
0.0
 63
   250
421
  3355443
  0
ENDTAB
  0
TABLE
  2
LTYPE
  5
5
330
0
100
AcDbSymbolTable
 70
     2
  0
LTYPE
  5
5B
330
5
100
AcDbSymbolTableRecord
100
AcDbLinetypeTableRecord
  2
ByBlock
 70
     0
  3

 72
    65
 73
     0
 40
0.0
  0
LTYPE
  5
5C
330
5
100
AcDbSymbolTableRecord
100
AcDbLinetypeTableRecord
  2
ByLayer
 70
     0
  3

 72
    65
 73
     0
 40
0.0
  0
LTYPE
  5
5D
330
5
100
AcDbSymbolTableRecord
100
AcDbLinetypeTableRecord
  2
Continuous
 70
     0
  3
Solid line
 72
    65
 73
     0
 40
0.0
  0
LTYPE
  5
DE
330
5
100
AcDbSymbolTableRecord
100
AcDbLinetypeTableRecord
  2
AI-Linetype-0
 70
     0
  3
Adobe Illustrator Linetype No. 0
 72
    65
 73
     2
 40
1.411111110758333
 49
0.7055555553791667
 74
     0
 49
-0.7055555553791667
 74
     0
  0
ENDTAB
  0
TABLE
  2
LAYER
  5
2
330
0
100
AcDbSymbolTable
 70
     2
  0
LAYER
  5
54
330
2
100
AcDbSymbolTableRecord
100
AcDbLayerTableRecord
  2
0
 70
     0
 62
     7
  6
Continuous
370
    -3
390
F
347
21
  0
LAYER
  5
78
330
2
100
AcDbSymbolTableRecord
100
AcDbLayerTableRecord
  2
レイヤー 1
 70
     0
 62
     7
  6
Continuous
370
     0
390
F
347
21
  0
ENDTAB
  0
TABLE
  2
STYLE
  5
3
330
0
100
AcDbSymbolTable
 70
     2
  0
STYLE
  5
55
330
3
100
AcDbSymbolTableRecord
100
AcDbTextStyleTableRecord
  2
Standard
 70
     0
 40
0.0
 41
1.0
 50
0.0
 71
     0
 42
0.2
  3
txt
  4

  0
STYLE
  5
5A
330
3
100
AcDbSymbolTableRecord
100
AcDbTextStyleTableRecord
  2
Annotative
 70
     0
 40
0.0
 41
1.0
 50
0.0
 71
     0
 42
0.2
  3
txt
  4

1001
AcadAnnotative
1000
AnnotativeData
1002
{
1070
     1
1070
     1
1002
}
  0
ENDTAB
  0
TABLE
  2
VIEW
  5
6
330
0
100
AcDbSymbolTable
 70
     0
  0
ENDTAB
  0
TABLE
  2
UCS
  5
7
330
0
100
AcDbSymbolTable
 70
     0
  0
ENDTAB
  0
TABLE
  2
APPID
  5
9
330
0
100
AcDbSymbolTable
 70
     2
  0
APPID
  5
56
330
9
100
AcDbSymbolTableRecord
100
AcDbRegAppTableRecord
  2
ACAD
 70
     0
  0
APPID
  5
5E
330
9
100
AcDbSymbolTableRecord
100
AcDbRegAppTableRecord
  2
AcadAnnotative
 70
     0
  0
ENDTAB
  0
TABLE
  2
DIMSTYLE
  5
A
330
0
100
AcDbSymbolTable
 70
     2
100
AcDbDimStyleTable
 71
     0
  0
DIMSTYLE
105
58
330
A
100
AcDbSymbolTableRecord
100
AcDbDimStyleTableRecord
  2
Standard
 70
     0
340
55
  0
DIMSTYLE
105
59
330
A
100
AcDbSymbolTableRecord
100
AcDbDimStyleTableRecord
  2
Annotative
 70
     0
340
55
1001
AcadAnnotative
1000
AnnotativeData
1002
{
1070
     1
1070
     1
1002
}
  0
ENDTAB
  0
TABLE
  2
BLOCK_RECORD
  5
1
330
0
100
AcDbSymbolTable
 70
    15
  0
BLOCK_RECORD
  5
70
330
1
100
AcDbSymbolTableRecord
100
AcDbBlockTableRecord
  2
*Model_Space
340
73
 70
     0
280
     1
281
     0
  0
BLOCK_RECORD
  5
6C
330
1
100
AcDbSymbolTableRecord
100
AcDbBlockTableRecord
  2
*Paper_Space
340
6F
 70
     0
280
     1
281
     0
  0
BLOCK_RECORD
  5
74
330
1
100
AcDbSymbolTableRecord
100
AcDbBlockTableRecord
  2
*Paper_Space0
340
77
 70
     0
280
     1
281
     0
  0
BLOCK_RECORD
  5
79
330
1
100
AcDbSymbolTableRecord
100
AcDbBlockTableRecord
  2
Block_0
340
0
102
{BLKREFS
331
7A
102
}
 70
     0
280
     1
281
     0
  0
BLOCK_RECORD
  5
7D
330
1
100
AcDbSymbolTableRecord
100
AcDbBlockTableRecord
  2
Block_1
340
0
102
{BLKREFS
331
7E
102
}
 70
     0
280
     1
281
     0
  0
BLOCK_RECORD
  5
94
330
1
100
AcDbSymbolTableRecord
100
AcDbBlockTableRecord
  2
Block_2
340
0
102
{BLKREFS
331
95
102
}
 70
     0
280
     1
281
     0
  0
BLOCK_RECORD
  5
9D
330
1
100
AcDbSymbolTableRecord
100
AcDbBlockTableRecord
  2
Block_3
340
0
102
{BLKREFS
331
9E
102
}
 70
     0
280
     1
281
     0
  0
BLOCK_RECORD
  5
A1
330
1
100
AcDbSymbolTableRecord
100
AcDbBlockTableRecord
  2
Block_4
340
0
102
{BLKREFS
331
A2
102
}
 70
     0
280
     1
281
     0
  0
BLOCK_RECORD
  5
AB
330
1
100
AcDbSymbolTableRecord
100
AcDbBlockTableRecord
  2
Block_5
340
0
102
{BLKREFS
331
AC
102
}
 70
     0
280
     1
281
     0
  0
BLOCK_RECORD
  5
AF
330
1
100
AcDbSymbolTableRecord
100
AcDbBlockTableRecord
  2
Block_6
340
0
102
{BLKREFS
331
B0
102
}
 70
     0
280
     1
281
     0
  0
BLOCK_RECORD
  5
BB
330
1
100
AcDbSymbolTableRecord
100
AcDbBlockTableRecord
  2
Block_7
340
0
102
{BLKREFS
331
BC
102
}
 70
     0
280
     1
281
     0
  0
BLOCK_RECORD
  5
BF
330
1
100
AcDbSymbolTableRecord
100
AcDbBlockTableRecord
  2
Block_8
340
0
102
{BLKREFS
331
C0
102
}
 70
     0
280
     1
281
     0
  0
BLOCK_RECORD
  5
CF
330
1
100
AcDbSymbolTableRecord
100
AcDbBlockTableRecord
  2
Block_9
340
0
102
{BLKREFS
331
D0
102
}
 70
     0
280
     1
281
     0
  0
BLOCK_RECORD
  5
D3
330
1
100
AcDbSymbolTableRecord
100
AcDbBlockTableRecord
  2
Block_10
340
0
102
{BLKREFS
331
D4
102
}
 70
     0
280
     1
281
     0
  0
BLOCK_RECORD
  5
DF
330
1
100
AcDbSymbolTableRecord
100
AcDbBlockTableRecord
  2
Block_11
340
0
102
{BLKREFS
331
E0
102
}
 70
     0
280
     1
281
     0
  0
BLOCK_RECORD
  5
E6
330
1
100
AcDbSymbolTableRecord
100
AcDbBlockTableRecord
  2
Block_12
340
0
102
{BLKREFS
331
E7
102
}
 70
     0
280
     1
281
     0
  0
BLOCK_RECORD
  5
EA
330
1
100
AcDbSymbolTableRecord
100
AcDbBlockTableRecord
  2
Block_13
340
0
102
{BLKREFS
331
EB
102
}
 70
     0
280
     1
281
     0
  0
ENDTAB
  0
ENDSEC
  0
SECTION
  2
BLOCKS
  0
BLOCK
  5
71
330
70
100
AcDbEntity
  8
0
100
AcDbBlockBegin
  2
*Model_Space
 70
     0
 10
0.0
 20
0.0
 30
0.0
  3
*Model_Space
  1

  0
ENDBLK
  5
72
330
70
100
AcDbEntity
  8
0
100
AcDbBlockEnd
  0
BLOCK
  5
6D
330
6C
100
AcDbEntity
 67
     1
  8
0
100
AcDbBlockBegin
  2
*Paper_Space
 70
     0
 10
0.0
 20
0.0
 30
0.0
  3
*Paper_Space
  1

  0
ENDBLK
  5
6E
330
6C
100
AcDbEntity
 67
     1
  8
0
100
AcDbBlockEnd
  0
BLOCK
  5
75
330
74
100
AcDbEntity
 67
     1
  8
0
100
AcDbBlockBegin
  2
*Paper_Space0
 70
     0
 10
0.0
 20
0.0
 30
0.0
  3
*Paper_Space0
  1

  0
ENDBLK
  5
76
330
74
100
AcDbEntity
 67
     1
  8
0
100
AcDbBlockEnd
  0
BLOCK
  5
7B
330
79
100
AcDbEntity
  8
0
100
AcDbBlockBegin
  2
Block_0
 70
     0
 10
0.0
 20
0.0
 30
0.0
  3
Block_0
  1

  0
INSERT
  5
7E
330
79
100
AcDbEntity
  8
レイヤー 1
100
AcDbBlockReference
  2
Block_1
 10
0.0
 20
0.0
 30
0.0
  0
ENDBLK
  5
7C
330
79
100
AcDbEntity
  8
0
100
AcDbBlockEnd
  0
BLOCK
  5
7F
330
7D
100
AcDbEntity
  8
0
100
AcDbBlockBegin
  2
Block_1
 70
     0
 10
0.0
 20
0.0
 30
0.0
  3
Block_1
  1

  0
LINE
  5
81
330
7D
100
AcDbEntity
  8
レイヤー 1
 62
   250
420
  2299925
370
    25
100
AcDbLine
 10
92.95221434672248
 20
-140.5074446547045
 30
0.0
 11
98.0522218454476
 21
-140.5074446547045
 31
0.0
  0
LINE
  5
82
330
7D
100
AcDbEntity
  8
レイヤー 1
 62
   250
420
  2299925
370
    25
100
AcDbLine
 10
96.95222552637249
 20
-141.6072165970827
 30
0.0
 11
96.95222552637249
 21
-156.6072733836763
 31
0.0
  0
LINE
  5
83
330
7D
100
AcDbEntity
  8
レイヤー 1
 62
   250
420
  2299925
370
    25
100
AcDbLine
 10
92.95221434672248
 20
-141.6072168562797
 30
0.0
 11
96.9522254568335
 21
-141.6072168562797
 31
0.0
  0
LINE
  5
84
330
7D
100
AcDbEntity
  8
レイヤー 1
 62
   250
420
  2299925
370
    25
100
AcDbLine
 10
92.95221434672248
 20
-140.5074446547045
 30
0.0
 11
92.95221434672248
 21
-141.6072168513957
 31
0.0
  0
LINE
  5
85
330
7D
100
AcDbEntity
  8
レイヤー 1
 62
   250
420
  2299925
370
    25
100
AcDbLine
 10
98.05222191498627
 20
-140.5074444003918
 30
0.0
 11
98.05222191498627
 21
-155.5075945228425
 31
0.0
  0
LINE
  5
86
330
7D
100
AcDbEntity
  8
レイヤー 1
 62
   250
420
  2299925
370
    25
100
AcDbLine
 10
113.9521975956658
 20
-155.5075945228425
 30
0.0
 11
113.9521975956658
 21
-155.9075739570827
 31
0.0
  0
LINE
  5
87
330
7D
100
AcDbEntity
  8
レイヤー 1
 62
   250
420
  2299925
370
    25
100
AcDbLine
 10
98.05222191498627
 20
-155.5075945228425
 30
0.0
 11
113.9521975956658
 21
-155.5075945228425
 31
0.0
  0
LINE
  5
88
330
7D
100
AcDbEntity
  8
レイヤー 1
 62
   250
420
  2299925
370
    25
100
AcDbLine
 10
113.9521975956658
 20
-155.9075739570827
 30
0.0
 11
96.95222552637249
 21
-156.6072733836763
 31
0.0
  0
SPLINE
  5
89
330
7D
100
AcDbEntity
  8
レイヤー 1
 62
   250
420
  2299925
370
     9
100
AcDbSpline
210
0.0
220
0.0
230
1.0
 70
    11
 71
     3
 72
    17
 73
    13
 74
     0
 42
0.0000000001
 43
0.0000000001
 40
0.0
 40
0.0
 40
0.0
 40
0.0
 40
1.0
 40
1.0
 40
1.0
 40
2.0
 40
2.0
 40
2.0
 40
3.0
 40
3.0
 40
3.0
 40
4.0
 40
4.0
 40
4.0
 40
4.0
 10
118.0525699655418
 20
-140.5074446547045
 30
0.0
 10
118.0525699655418
 20
-140.452164378337
 30
0.0
 10
118.0077671877751
 20
-140.4073616017023
 30
0.0
 10
117.9519566602901
 20
-140.4073616017023
 30
0.0
 10
117.8968527728071
 20
-140.4073616017023
 30
0.0
 10
117.8520499961723
 20
-140.452164378337
 30
0.0
 10
117.8520499961723
 20
-140.5074446547045
 30
0.0
 10
117.8520499961723
 20
-140.562724931072
 30
0.0
 10
117.8968527728071
 20
-140.6075277077067
 30
0.0
 10
117.9519566602901
 20
-140.6075277077067
 30
0.0
 10
118.0077671877751
 20
-140.6075277077067
 30
0.0
 10
118.0525699655418
 20
-140.562724931072
 30
0.0
 10
118.0525699655418
 20
-140.5074446547045
 30
0.0
  0
SPLINE
  5
8A
330
7D
100
AcDbEntity
  8
レイヤー 1
 62
   250
420
  2299925
370
     9
100
AcDbSpline
210
0.0
220
0.0
230
1.0
 70
     9
 71
     3
 72
    17
 73
    13
 74
     0
 42
0.0000000001
 43
0.0000000001
 40
0.0
 40
0.0
 40
0.0
 40
0.0
 40
1.0
 40
1.0
 40
1.0
 40
2.0
 40
2.0
 40
2.0
 40
3.0
 40
3.0
 40
3.0
 40
4.0
 40
4.0
 40
4.0
 40
4.0
 10
118.0525699655418
 20
-155.5075945228425
 30
0.0
 10
118.0525699655418
 20
-155.4521378575907
 30
0.0
 10
118.0077671877751
 20
-155.4073350809559
 30
0.0
 10
117.9519566602901
 20
-155.4073350809559
 30
0.0
 10
117.8968527728071
 20
-155.4073350809559
 30
0.0
 10
117.8520499961723
 20
-155.4521378575907
 30
0.0
 10
117.8520499961723
 20
-155.5075945228425
 30
0.0
 10
117.8520499961723
 20
-155.5626984103256
 30
0.0
 10
117.8968527728071
 20
-155.6075011869604
 30
0.0
 10
117.9519566602901
 20
-155.6075011869604
 30
0.0
 10
118.0077671877751
 20
-155.6075011869604
 30
0.0
 10
118.0525699655418
 20
-155.5626984103256
 30
0.0
 10
118.0525699655418
 20
-155.5075945228425
 30
0.0
  0
SPLINE
  5
8B
330
7D
100
AcDbEntity
  8
レイヤー 1
 62
   250
420
  2299925
370
     9
100
AcDbSpline
210
0.0
220
0.0
230
1.0
 70
     9
 71
     3
 72
    17
 73
    13
 74
     0
 42
0.0000000001
 43
0.0000000001
 40
0.0
 40
0.0
 40
0.0
 40
0.0
 40
1.0
 40
1.0
 40
1.0
 40
2.0
 40
2.0
 40
2.0
 40
3.0
 40
3.0
 40
3.0
 40
4.0
 40
4.0
 40
4.0
 40
4.0
 10
118.0525699655418
 20
-155.9075739570827
 30
0.0
 10
118.0525699655418
 20
-155.8521172918308
 30
0.0
 10
118.0077671877751
 20
-155.8073145151961
 30
0.0
 10
117.9519566602901
 20
-155.8073145151961
 30
0.0
 10
117.8968527728071
 20
-155.8073145151961
 30
0.0
 10
117.8520499961723
 20
-155.8521172918308
 30
0.0
 10
117.8520499961723
 20
-155.9075739570827
 30
0.0
 10
117.8520499961723
 20
-155.9626778445657
 30
0.0
 10
117.8968527728071
 20
-156.0074806212005
 30
0.0
 10
117.9519566602901
 20
-156.0074806212005
 30
0.0
 10
118.0077671877751
 20
-156.0074806212005
 30
0.0
 10
118.0525699655418
 20
-155.9626778445657
 30
0.0
 10
118.0525699655418
 20
-155.9075739570827
 30
0.0
  0
CIRCLE
  5
8C
330
7D
100
AcDbEntity
  8
レイヤー 1
 62
   250
420
  2299925
370
     9
100
AcDbCircle
 10
113.9521975956658
 20
-160.607208837185
 30
0.0
 40
0.0999066641178353
  0
SPLINE
  5
8D
330
7D
100
AcDbEntity
  8
レイヤー 1
 62
   250
420
  2299925
370
     9
100
AcDbSpline
210
0.0
220
0.0
230
1.0
 70
     9
 71
     3
 72
    17
 73
    13
 74
     0
 42
0.0000000001
 43
0.0000000001
 40
0.0
 40
0.0
 40
0.0
 40
0.0
 40
1.0
 40
1.0
 40
1.0
 40
2.0
 40
2.0
 40
2.0
 40
3.0
 40
3.0
 40
3.0
 40
4.0
 40
4.0
 40
4.0
 40
4.0
 10
93.052297402253
 20
-160.607208837185
 30
0.0
 10
93.052297402253
 20
-160.5520636812551
 30
0.0
 10
93.00749462448628
 20
-160.5073021730672
 30
0.0
 10
92.95221434672248
 20
-160.5073021730672
 30
0.0
 10
92.89693406895869
 20
-160.5073021730672
 30
0.0
 10
92.85230768008084
 20
-160.5520636812551
 30
0.0
 10
92.85230768008084
 20
-160.607208837185
 30
0.0
 10
92.85230768008084
 20
-160.6623127246681
 30
0.0
 10
92.89693406895869
 20
-160.7071155013028
 30
0.0
 10
92.95221434672248
 20
-160.7071155013028
 30
0.0
 10
93.00749462448628
 20
-160.7071155013028
 30
0.0
 10
93.052297402253
 20
-160.6623127246681
 30
0.0
 10
93.052297402253
 20
-160.607208837185
 30
0.0
  0
SPLINE
  5
8E
330
7D
100
AcDbEntity
  8
レイヤー 1
 62
   250
420
  2299925
370
     9
100
AcDbSpline
210
0.0
220
0.0
230
1.0
 70
    11
 71
     3
 72
    17
 73
    13
 74
     0
 42
0.0000000001
 43
0.0000000001
 40
0.0
 40
0.0
 40
0.0
 40
0.0
 40
1.0
 40
1.0
 40
1.0
 40
2.0
 40
2.0
 40
2.0
 40
3.0
 40
3.0
 40
3.0
 40
4.0
 40
4.0
 40
4.0
 40
4.0
 10
91.00244684720967
 20
-140.5074446547045
 30
0.0
 10
91.00244684720967
 20
-140.452164378337
 30
0.0
 10
90.95767934722109
 20
-140.4073616017023
 30
0.0
 10
90.90254018056866
 20
-140.4073616017023
 30
0.0
 10
90.84725990280423
 20
-140.4073616017023
 30
0.0
 10
90.80249240281535
 20
-140.452164378337
 30
0.0
 10
90.80249240281535
 20
-140.5074446547045
 30
0.0
 10
90.80249240281535
 20
-140.562724931072
 30
0.0
 10
90.84725990280423
 20
-140.6075277077067
 30
0.0
 10
90.90254018056866
 20
-140.6075277077067
 30
0.0
 10
90.95767934722109
 20
-140.6075277077067
 30
0.0
 10
91.00244684720967
 20
-140.562724931072
 30
0.0
 10
91.00244684720967
 20
-140.5074446547045
 30
0.0
  0
SPLINE
  5
8F
330
7D
100
AcDbEntity
  8
レイヤー 1
 62
   250
420
  2299925
370
     9
100
AcDbSpline
210
0.0
220
0.0
230
1.0
 70
     9
 71
     3
 72
    17
 73
    13
 74
     0
 42
0.0000000001
 43
0.0000000001
 40
0.0
 40
0.0
 40
0.0
 40
0.0
 40
1.0
 40
1.0
 40
1.0
 40
2.0
 40
2.0
 40
2.0
 40
3.0
 40
3.0
 40
3.0
 40
4.0
 40
4.0
 40
4.0
 40
4.0
 10
91.00244684720967
 20
-141.6072168562797
 30
0.0
 10
91.00244684720967
 20
-141.5520776910197
 30
0.0
 10
90.95767934722109
 20
-141.5073101921622
 30
0.0
 10
90.90254018056866
 20
-141.5073101921622
 30
0.0
 10
90.84725990280423
 20
-141.5073101921622
 30
0.0
 10
90.80249240281535
 20
-141.5520776910197
 30
0.0
 10
90.80249240281535
 20
-141.6072168562797
 30
0.0
 10
90.80249240281535
 20
-141.6626735215315
 30
0.0
 10
90.84725990280423
 20
-141.7074762981663
 30
0.0
 10
90.90254018056866
 20
-141.7074762981663
 30
0.0
 10
90.95767934722109
 20
-141.7074762981663
 30
0.0
 10
91.00244684720967
 20
-141.6626735215315
 30
0.0
 10
91.00244684720967
 20
-141.6072168562797
 30
0.0
  0
SPLINE
  5
90
330
7D
100
AcDbEntity
  8
レイヤー 1
 62
   250
420
  2299925
370
     9
100
AcDbSpline
210
0.0
220
0.0
230
1.0
 70
     9
 71
     3
 72
    17
 73
    13
 74
     0
 42
0.0000000001
 43
0.0000000001
 40
0.0
 40
0.0
 40
0.0
 40
0.0
 40
1.0
 40
1.0
 40
1.0
 40
2.0
 40
2.0
 40
2.0
 40
3.0
 40
3.0
 40
3.0
 40
4.0
 40
4.0
 40
4.0
 40
4.0
 10
97.05227330412485
 20
-160.607208837185
 30
0.0
 10
97.05227330412485
 20
-160.5520636812551
 30
0.0
 10
97.00750580413629
 20
-160.5073021730672
 30
0.0
 10
96.95222552637249
 20
-160.5073021730672
 30
0.0
 10
96.89708635971941
 20
-160.5073021730672
 30
0.0
 10
96.85231885973021
 20
-160.5520636812551
 30
0.0
 10
96.85231885973021
 20
-160.607208837185
 30
0.0
 10
96.85231885973021
 20
-160.6623127246681
 30
0.0
 10
96.89708635971941
 20
-160.7071155013028
 30
0.0
 10
96.95222552637249
 20
-160.7071155013028
 30
0.0
 10
97.00750580413629
 20
-160.7071155013028
 30
0.0
 10
97.05227330412485
 20
-160.6623127246681
 30
0.0
 10
97.05227330412485
 20
-160.607208837185
 30
0.0
  0
LINE
  5
91
330
7D
100
AcDbEntity
  8
レイヤー 1
 62
   250
420
  2299925
370
     9
100
AcDbLine
 10
92.95239073561136
 20
-160.607208837185
 30
0.0
 11
96.9522254568335
 21
-160.607208837185
 31
0.0
  0
LINE
  5
92
330
7D
100
AcDbEntity
  8
レイヤー 1
 62
   250
420
  2299925
370
     9
100
AcDbLine
 10
92.95221434672248
 20
-144.1473701408626
 30
0.0
 11
92.95221434672248
 21
-161.6076513116616
 31
0.0
  0
LINE
  5
93
330
7D
100
AcDbEntity
  8
レイヤー 1
 62
   250
420
  2299925
370
     9
100
AcDbLine
 10
96.95222552637249
 20
-159.1471674855449
 30
0.0
 11
96.95222552637249
 21
-161.6076513116616
 31
0.0
  0
INSERT
  5
95
330
7D
100
AcDbEntity
  8
レイヤー 1
100
AcDbBlockReference
  2
Block_2
 10
0.0
 20
0.0
 30
0.0
  0
LINE
  5
9B
330
7D
100
AcDbEntity
  8
レイヤー 1
 62
   250
420
  2299925
370
     9
100
AcDbLine
 10
96.95222552637249
 20
-160.607208837185
 30
0.0
 11
113.9521975956658
 21
-160.607208837185
 31
0.0
  0
LINE
  5
9C
330
7D
100
AcDbEntity
  8
レイヤー 1
 62
   250
420
  2299925
370
     9
100
AcDbLine
 10
113.9521975956658
 20
-158.4471152811824
 30
0.0
 11
113.9521975956658
 21
-161.6076513116616
 31
0.0
  0
INSERT
  5
9E
330
7D
100
AcDbEntity
  8
レイヤー 1
100
AcDbBlockReference
  2
Block_3
 10
0.0
 20
0.0
 30
0.0
  0
LINE
  5
A9
330
7D
100
AcDbEntity
  8
レイヤー 1
 62
   250
420
  2299925
370
     9
100
AcDbLine
 10
117.9519566602901
 20
-155.5075945228425
 30
0.0
 11
117.9519566602901
 21
-140.5074444003918
 31
0.0
  0
LINE
  5
AA
330
7D
100
AcDbEntity
  8
レイヤー 1
 62
   250
420
  2299925
370
     9
100
AcDbLine
 10
100.5922924699065
 20
-140.5074446547045
 30
0.0
 11
118.9523991347667
 21
-140.5074446547045
 31
0.0
  0
INSERT
  5
AC
330
7D
100
AcDbEntity
  8
レイヤー 1
100
AcDbBlockReference
  2
Block_5
 10
0.0
 20
0.0
 30
0.0
  0
LINE
  5
B7
330
7D
100
AcDbEntity
  8
レイヤー 1
 62
   250
420
  2299925
370
     9
100
AcDbLine
 10
117.9519566602901
 20
-155.9075739570827
 30
0.0
 11
117.9519566602901
 21
-156.9073461537986
 31
0.0
  0
LINE
  5
B8
330
7D
100
AcDbEntity
  8
レイヤー 1
 62
   250
420
  2299925
370
     9
100
AcDbLine
 10
117.9519566602901
 20
-155.5075945228425
 30
0.0
 11
117.9519566602901
 21
-155.9075739570827
 31
0.0
  0
LINE
  5
B9
330
7D
100
AcDbEntity
  8
レイヤー 1
 62
   250
420
  2299925
370
     9
100
AcDbLine
 10
116.49191530865
 20
-155.5075945228425
 30
0.0
 11
118.9523991347667
 21
-155.5075945228425
 31
0.0
  0
LINE
  5
BA
330
7D
100
AcDbEntity
  8
レイヤー 1
 62
   250
420
  2299925
370
     9
100
AcDbLine
 10
116.49191530865
 20
-155.9075739570827
 30
0.0
 11
118.9523991347667
 21
-155.9075739570827
 31
0.0
  0
INSERT
  5
BC
330
7D
100
AcDbEntity
  8
レイヤー 1
100
AcDbBlockReference
  2
Block_7
 10
0.0
 20
0.0
 30
0.0
  0
LINE
  5
CB
330
7D
100
AcDbEntity
  8
レイヤー 1
 62
   250
420
  2299925
370
     9
100
AcDbLine
 10
90.90254018056866
 20
-140.5074446547045
 30
0.0
 11
90.90254018056866
 21
-139.5074960691042
 31
0.0
  0
LINE
  5
CC
330
7D
100
AcDbEntity
  8
レイヤー 1
 62
   250
420
  2299925
370
     9
100
AcDbLine
 10
90.90254018056866
 20
-140.5074446547045
 30
0.0
 11
90.90254018056866
 21
-142.5073065481282
 31
0.0
  0
LINE
  5
CD
330
7D
100
AcDbEntity
  8
レイヤー 1
 62
   250
420
  2299925
370
     9
100
AcDbLine
 10
92.36240518020286
 20
-140.5074446547045
 30
0.0
 11
89.90245045859587
 21
-140.5074446547045
 31
0.0
  0
LINE
  5
CE
330
7D
100
AcDbEntity
  8
レイヤー 1
 62
   250
420
  2299925
370
     9
100
AcDbLine
 10
92.36240518020286
 20
-141.6072168562797
 30
0.0
 11
89.90245045859587
 21
-141.6072168562797
 31
0.0
  0
INSERT
  5
D0
330
7D
100
AcDbEntity
  8
レイヤー 1
100
AcDbBlockReference
  2
Block_9
 10
0.0
 20
0.0
 30
0.0
  0
ENDBLK
  5
80
330
7D
100
AcDbEntity
  8
0
100
AcDbBlockEnd
  0
BLOCK
  5
96
330
94
100
AcDbEntity
  8
0
100
AcDbBlockBegin
  2
Block_2
 70
     0
 10
0.0
 20
0.0
 30
0.0
  3
Block_2
  1

  0
SPLINE
  5
98
330
94
100
AcDbEntity
  8
レイヤー 1
100
AcDbSpline
210
0.0
220
0.0
230
1.0
 70
    11
 71
     3
 72
    14
 73
    10
 74
     0
 42
0.0000000001
 43
0.0000000001
 40
0.0
 40
0.0
 40
0.0
 40
0.0
 40
1.0
 40
1.0
 40
1.0
 40
2.0
 40
2.0
 40
2.0
 40
3.0
 40
3.0
 40
3.0
 40
3.0
 10
95.03778209429611
 20
-158.7599907372197
 30
0.0
 10
95.03778209429611
 20
-158.7599907372197
 30
0.0
 10
94.64814179491435
 20
-159.4159369176113
 30
0.0
 10
94.64814179491435
 20
-159.4159369176113
 30
0.0
 10
94.64814179491435
 20
-159.4159369176113
 30
0.0
 10
95.03778209429611
 20
-159.4159369176113
 30
0.0
 10
95.03778209429611
 20
-159.4159369176113
 30
0.0
 10
95.03778209429611
 20
-159.4159369176113
 30
0.0
 10
95.03778209429611
 20
-158.7599907372197
 30
0.0
 10
95.03778209429611
 20
-158.7599907372197
 30
0.0
  0
SPLINE
  5
99
330
94
100
AcDbEntity
  8
レイヤー 1
100
AcDbSpline
210
0.0
220
0.0
230
1.0
 70
    11
 71
     3
 72
    38
 73
    34
 74
     0
 42
0.0000000001
 43
0.0000000001
 40
0.0
 40
0.0
 40
0.0
 40
0.0
 40
1.0
 40
1.0
 40
1.0
 40
2.0
 40
2.0
 40
2.0
 40
3.0
 40
3.0
 40
3.0
 40
4.0
 40
4.0
 40
4.0
 40
5.0
 40
5.0
 40
5.0
 40
6.0
 40
6.0
 40
6.0
 40
7.0
 40
7.0
 40
7.0
 40
8.0
 40
8.0
 40
8.0
 40
9.0
 40
9.0
 40
9.0
 40
10.0
 40
10.0
 40
10.0
 40
11.0
 40
11.0
 40
11.0
 40
11.0
 10
95.22347274095109
 20
-159.6147189271102
 30
0.0
 10
95.22347274095109
 20
-159.6147189271102
 30
0.0
 10
95.22347274095109
 20
-159.9616400424748
 30
0.0
 10
95.22347274095109
 20
-159.9616400424748
 30
0.0
 10
95.22347274095109
 20
-159.9616400424748
 30
0.0
 10
95.03778209429611
 20
-159.9616400424748
 30
0.0
 10
95.03778209429611
 20
-159.9616400424748
 30
0.0
 10
95.03778209429611
 20
-159.9616400424748
 30
0.0
 10
95.03778209429611
 20
-159.6147189271102
 30
0.0
 10
95.03778209429611
 20
-159.6147189271102
 30
0.0
 10
95.03778209429611
 20
-159.6147189271102
 30
0.0
 10
94.47864309704007
 20
-159.6147189271102
 30
0.0
 10
94.47864309704007
 20
-159.6147189271102
 30
0.0
 10
94.47864309704007
 20
-159.6147189271102
 30
0.0
 10
94.47864309704007
 20
-159.3904432110204
 30
0.0
 10
94.47864309704007
 20
-159.3904432110204
 30
0.0
 10
94.47864309704007
 20
-159.3904432110204
 30
0.0
 10
95.05741913856203
 20
-158.4172037364374
 30
0.0
 10
95.05741913856203
 20
-158.4172037364374
 30
0.0
 10
95.05741913856203
 20
-158.4172037364374
 30
0.0
 10
95.22347274095109
 20
-158.4172037364374
 30
0.0
 10
95.22347274095109
 20
-158.4172037364374
 30
0.0
 10
95.22347274095109
 20
-158.4172037364374
 30
0.0
 10
95.22347274095109
 20
-159.4159369176113
 30
0.0
 10
95.22347274095109
 20
-159.4159369176113
 30
0.0
 10
95.22347274095109
 20
-159.4159369176113
 30
0.0
 10
95.40020613934439
 20
-159.4159369176113
 30
0.0
 10
95.40020613934439
 20
-159.4159369176113
 30
0.0
 10
95.40020613934439
 20
-159.4159369176113
 30
0.0
 10
95.40020613934439
 20
-159.6147189271102
 30
0.0
 10
95.40020613934439
 20
-159.6147189271102
 30
0.0
 10
95.40020613934439
 20
-159.6147189271102
 30
0.0
 10
95.22347274095109
 20
-159.6147189271102
 30
0.0
 10
95.22347274095109
 20
-159.6147189271102
 30
0.0
  0
HATCH
  5
9A
330
94
100
AcDbEntity
  8
レイヤー 1
 62
   250
420
  2299925
440
 33554687
100
AcDbHatch
 10
0.0
 20
0.0
 30
0.0
210
0.0
220
0.0
230
1.0
  2
SOLID
 70
     1
 71
     1
 91
        2
 92
        1
 93
        1
 72
     4
 94
        3
 73
     0
 74
     0
 95
       14
 96
       10
 40
0.0
 40
0.0
 40
0.0
 40
0.0
 40
1.0
 40
1.0
 40
1.0
 40
2.0
 40
2.0
 40
2.0
 40
3.0
 40
3.0
 40
3.0
 40
3.0
 10
95.03778209429611
 20
-158.7599907372197
 10
95.03778209429611
 20
-158.7599907372197
 10
94.64814179491435
 20
-159.4159369176113
 10
94.64814179491435
 20
-159.4159369176113
 10
94.64814179491435
 20
-159.4159369176113
 10
95.03778209429611
 20
-159.4159369176113
 10
95.03778209429611
 20
-159.4159369176113
 10
95.03778209429611
 20
-159.4159369176113
 10
95.03778209429611
 20
-158.7599907372197
 10
95.03778209429611
 20
-158.7599907372197
 97
        0
 97
        1
330
98
 92
        1
 93
        1
 72
     4
 94
        3
 73
     0
 74
     0
 95
       38
 96
       34
 40
0.0
 40
0.0
 40
0.0
 40
0.0
 40
1.0
 40
1.0
 40
1.0
 40
2.0
 40
2.0
 40
2.0
 40
3.0
 40
3.0
 40
3.0
 40
4.0
 40
4.0
 40
4.0
 40
5.0
 40
5.0
 40
5.0
 40
6.0
 40
6.0
 40
6.0
 40
7.0
 40
7.0
 40
7.0
 40
8.0
 40
8.0
 40
8.0
 40
9.0
 40
9.0
 40
9.0
 40
10.0
 40
10.0
 40
10.0
 40
11.0
 40
11.0
 40
11.0
 40
11.0
 10
95.22347274095109
 20
-159.6147189271102
 10
95.22347274095109
 20
-159.6147189271102
 10
95.22347274095109
 20
-159.9616400424748
 10
95.22347274095109
 20
-159.9616400424748
 10
95.22347274095109
 20
-159.9616400424748
 10
95.03778209429611
 20
-159.9616400424748
 10
95.03778209429611
 20
-159.9616400424748
 10
95.03778209429611
 20
-159.9616400424748
 10
95.03778209429611
 20
-159.6147189271102
 10
95.03778209429611
 20
-159.6147189271102
 10
95.03778209429611
 20
-159.6147189271102
 10
94.47864309704007
 20
-159.6147189271102
 10
94.47864309704007
 20
-159.6147189271102
 10
94.47864309704007
 20
-159.6147189271102
 10
94.47864309704007
 20
-159.3904432110204
 10
94.47864309704007
 20
-159.3904432110204
 10
94.47864309704007
 20
-159.3904432110204
 10
95.05741913856203
 20
-158.4172037364374
 10
95.05741913856203
 20
-158.4172037364374
 10
95.05741913856203
 20
-158.4172037364374
 10
95.22347274095109
 20
-158.4172037364374
 10
95.22347274095109
 20
-158.4172037364374
 10
95.22347274095109
 20
-158.4172037364374
 10
95.22347274095109
 20
-159.4159369176113
 10
95.22347274095109
 20
-159.4159369176113
 10
95.22347274095109
 20
-159.4159369176113
 10
95.40020613934439
 20
-159.4159369176113
 10
95.40020613934439
 20
-159.4159369176113
 10
95.40020613934439
 20
-159.4159369176113
 10
95.40020613934439
 20
-159.6147189271102
 10
95.40020613934439
 20
-159.6147189271102
 10
95.40020613934439
 20
-159.6147189271102
 10
95.22347274095109
 20
-159.6147189271102
 10
95.22347274095109
 20
-159.6147189271102
 97
        0
 97
        1
330
99
 75
     2
 76
     1
 98
        1
 10
0.0
 20
0.0
450
        0
451
        0
460
0.0
461
0.0
452
        0
462
0.0
453
        0
470

  0
ENDBLK
  5
97
330
94
100
AcDbEntity
  8
0
100
AcDbBlockEnd
  0
BLOCK
  5
9F
330
9D
100
AcDbEntity
  8
0
100
AcDbBlockBegin
  2
Block_3
 70
     0
 10
0.0
 20
0.0
 30
0.0
  3
Block_3
  1

  0
INSERT
  5
A2
330
9D
100
AcDbEntity
  8
レイヤー 1
100
AcDbBlockReference
  2
Block_4
 10
0.0
 20
0.0
 30
0.0
  0
ENDBLK
  5
A0
330
9D
100
AcDbEntity
  8
0
100
AcDbBlockEnd
  0
BLOCK
  5
A3
330
A1
100
AcDbEntity
  8
0
100
AcDbBlockBegin
  2
Block_4
 70
     0
 10
0.0
 20
0.0
 30
0.0
  3
Block_4
  1

  0
SPLINE
  5
A5
330
A1
100
AcDbEntity
  8
レイヤー 1
100
AcDbSpline
210
0.0
220
0.0
230
1.0
 70
    11
 71
     3
 72
    26
 73
    22
 74
     0
 42
0.0000000001
 43
0.0000000001
 40
0.0
 40
0.0
 40
0.0
 40
0.0
 40
1.0
 40
1.0
 40
1.0
 40
2.0
 40
2.0
 40
2.0
 40
3.0
 40
3.0
 40
3.0
 40
4.0
 40
4.0
 40
4.0
 40
5.0
 40
5.0
 40
5.0
 40
6.0
 40
6.0
 40
6.0
 40
7.0
 40
7.0
 40
7.0
 40
7.0
 10
104.9103922263765
 20
-159.9616400424748
 30
0.0
 10
104.9103922263765
 20
-159.9616400424748
 30
0.0
 10
104.9103922263765
 20
-158.8574869394523
 30
0.0
 10
104.9103922263765
 20
-158.8574869394523
 30
0.0
 10
104.9103922263765
 20
-158.8574869394523
 30
0.0
 10
104.6289279252316
 20
-158.8574869394523
 30
0.0
 10
104.6289279252316
 20
-158.8574869394523
 30
0.0
 10
104.6289279252316
 20
-158.8574869394523
 30
0.0
 10
104.6289279252316
 20
-158.7093478335865
 30
0.0
 10
104.6289279252316
 20
-158.7093478335865
 30
0.0
 10
104.9121147741192
 20
-158.694533923
 30
0.0
 10
104.9517333721995
 20
-158.5315809065477
 30
0.0
 10
104.9768825692419
 20
-158.4172037364374
 30
0.0
 10
104.9768825692419
 20
-158.4172037364374
 30
0.0
 10
105.1015950258079
 20
-158.4172037364374
 30
0.0
 10
105.1015950258079
 20
-158.4172037364374
 30
0.0
 10
105.1015950258079
 20
-158.4172037364374
 30
0.0
 10
105.1015950258079
 20
-159.9616400424748
 30
0.0
 10
105.1015950258079
 20
-159.9616400424748
 30
0.0
 10
105.1015950258079
 20
-159.9616400424748
 30
0.0
 10
104.9103922263765
 20
-159.9616400424748
 30
0.0
 10
104.9103922263765
 20
-159.9616400424748
 30
0.0
  0
HATCH
  5
A6
330
A1
100
AcDbEntity
  8
レイヤー 1
 62
   250
420
  2299925
440
 33554687
100
AcDbHatch
 10
0.0
 20
0.0
 30
0.0
210
0.0
220
0.0
230
1.0
  2
SOLID
 70
     1
 71
     1
 91
        1
 92
        1
 93
        1
 72
     4
 94
        3
 73
     0
 74
     0
 95
       26
 96
       22
 40
0.0
 40
0.0
 40
0.0
 40
0.0
 40
1.0
 40
1.0
 40
1.0
 40
2.0
 40
2.0
 40
2.0
 40
3.0
 40
3.0
 40
3.0
 40
4.0
 40
4.0
 40
4.0
 40
5.0
 40
5.0
 40
5.0
 40
6.0
 40
6.0
 40
6.0
 40
7.0
 40
7.0
 40
7.0
 40
7.0
 10
104.9103922263765
 20
-159.9616400424748
 10
104.9103922263765
 20
-159.9616400424748
 10
104.9103922263765
 20
-158.8574869394523
 10
104.9103922263765
 20
-158.8574869394523
 10
104.9103922263765
 20
-158.8574869394523
 10
104.6289279252316
 20
-158.8574869394523
 10
104.6289279252316
 20
-158.8574869394523
 10
104.6289279252316
 20
-158.8574869394523
 10
104.6289279252316
 20
-158.7093478335865
 10
104.6289279252316
 20
-158.7093478335865
 10
104.9121147741192
 20
-158.694533923
 10
104.9517333721995
 20
-158.5315809065477
 10
104.9768825692419
 20
-158.4172037364374
 10
104.9768825692419
 20
-158.4172037364374
 10
105.1015950258079
 20
-158.4172037364374
 10
105.1015950258079
 20
-158.4172037364374
 10
105.1015950258079
 20
-158.4172037364374
 10
105.1015950258079
 20
-159.9616400424748
 10
105.1015950258079
 20
-159.9616400424748
 10
105.1015950258079
 20
-159.9616400424748
 10
104.9103922263765
 20
-159.9616400424748
 10
104.9103922263765
 20
-159.9616400424748
 97
        0
 97
        1
330
A5
 75
     2
 76
     1
 98
        1
 10
0.0
 20
0.0
450
        0
451
        0
460
0.0
461
0.0
452
        0
462
0.0
453
        0
470

  0
SPLINE
  5
A7
330
A1
100
AcDbEntity
  8
レイヤー 1
100
AcDbSpline
210
0.0
220
0.0
230
1.0
 70
     9
 71
     3
 72
    26
 73
    22
 74
     0
 42
0.0000000001
 43
0.0000000001
 40
0.0
 40
0.0
 40
0.0
 40
0.0
 40
1.0
 40
1.0
 40
1.0
 40
2.0
 40
2.0
 40
2.0
 40
3.0
 40
3.0
 40
3.0
 40
4.0
 40
4.0
 40
4.0
 40
5.0
 40
5.0
 40
5.0
 40
6.0
 40
6.0
 40
6.0
 40
7.0
 40
7.0
 40
7.0
 40
7.0
 10
105.8777750386347
 20
-159.9616400424748
 30
0.0
 10
105.8777750386347
 20
-159.9616400424748
 30
0.0
 10
105.6758924431991
 20
-159.9616400424748
 30
0.0
 10
105.6758924431991
 20
-159.9616400424748
 30
0.0
 10
105.6975965447561
 20
-159.6526149774479
 30
0.0
 10
105.861583089854
 20
-159.1344726164664
 30
0.0
 10
106.2078151861216
 20
-158.6287325992317
 30
0.0
 10
106.2078151861216
 20
-158.6287325992317
 30
0.0
 10
105.4936468920294
 20
-158.6287325992317
 30
0.0
 10
105.4936468920294
 20
-158.6287325992317
 30
0.0
 10
105.4936468920294
 20
-158.6287325992317
 30
0.0
 10
105.4936468920294
 20
-158.4172037364374
 30
0.0
 10
105.4936468920294
 20
-158.4172037364374
 30
0.0
 10
105.4936468920294
 20
-158.4172037364374
 30
0.0
 10
106.4096977815573
 20
-158.4172037364374
 30
0.0
 10
106.4096977815573
 20
-158.4172037364374
 30
0.0
 10
106.4096977815573
 20
-158.4172037364374
 30
0.0
 10
106.4096977815573
 20
-158.6287325992317
 30
0.0
 10
106.4096977815573
 20
-158.6287325992317
 30
0.0
 10
106.1340901427373
 20
-158.9188096390897
 30
0.0
 10
105.9067138407108
 20
-159.5110215530042
 30
0.0
 10
105.8777750386347
 20
-159.9616400424748
 30
0.0
  0
HATCH
  5
A8
330
A1
100
AcDbEntity
  8
レイヤー 1
 62
   250
420
  2299925
440
 33554687
100
AcDbHatch
 10
0.0
 20
0.0
 30
0.0
210
0.0
220
0.0
230
1.0
  2
SOLID
 70
     1
 71
     1
 91
        1
 92
        1
 93
        1
 72
     4
 94
        3
 73
     0
 74
     0
 95
       26
 96
       22
 40
0.0
 40
0.0
 40
0.0
 40
0.0
 40
1.0
 40
1.0
 40
1.0
 40
2.0
 40
2.0
 40
2.0
 40
3.0
 40
3.0
 40
3.0
 40
4.0
 40
4.0
 40
4.0
 40
5.0
 40
5.0
 40
5.0
 40
6.0
 40
6.0
 40
6.0
 40
7.0
 40
7.0
 40
7.0
 40
7.0
 10
105.8777750386347
 20
-159.9616400424748
 10
105.8777750386347
 20
-159.9616400424748
 10
105.6758924431991
 20
-159.9616400424748
 10
105.6758924431991
 20
-159.9616400424748
 10
105.6975965447561
 20
-159.6526149774479
 10
105.861583089854
 20
-159.1344726164664
 10
106.2078151861216
 20
-158.6287325992317
 10
106.2078151861216
 20
-158.6287325992317
 10
105.4936468920294
 20
-158.6287325992317
 10
105.4936468920294
 20
-158.6287325992317
 10
105.4936468920294
 20
-158.6287325992317
 10
105.4936468920294
 20
-158.4172037364374
 10
105.4936468920294
 20
-158.4172037364374
 10
105.4936468920294
 20
-158.4172037364374
 10
106.4096977815573
 20
-158.4172037364374
 10
106.4096977815573
 20
-158.4172037364374
 10
106.4096977815573
 20
-158.4172037364374
 10
106.4096977815573
 20
-158.6287325992317
 10
106.4096977815573
 20
-158.6287325992317
 10
106.1340901427373
 20
-158.9188096390897
 10
105.9067138407108
 20
-159.5110215530042
 10
105.8777750386347
 20
-159.9616400424748
 97
        0
 97
        1
330
A7
 75
     2
 76
     1
 98
        1
 10
0.0
 20
0.0
450
        0
451
        0
460
0.0
461
0.0
452
        0
462
0.0
453
        0
470

  0
ENDBLK
  5
A4
330
A1
100
AcDbEntity
  8
0
100
AcDbBlockEnd
  0
BLOCK
  5
AD
330
AB
100
AcDbEntity
  8
0
100
AcDbBlockBegin
  2
Block_5
 70
     0
 10
0.0
 20
0.0
 30
0.0
  3
Block_5
  1

  0
INSERT
  5
B0
330
AB
100
AcDbEntity
  8
レイヤー 1
100
AcDbBlockReference
  2
Block_6
 10
0.0
 20
0.0
 30
0.0
  0
ENDBLK
  5
AE
330
AB
100
AcDbEntity
  8
0
100
AcDbBlockEnd
  0
BLOCK
  5
B1
330
AF
100
AcDbEntity
  8
0
100
AcDbBlockBegin
  2
Block_6
 70
     0
 10
0.0
 20
0.0
 30
0.0
  3
Block_6
  1

  0
SPLINE
  5
B3
330
AF
100
AcDbEntity
  8
レイヤー 1
100
AcDbSpline
210
0.0
220
0.0
230
1.0
 70
    11
 71
     3
 72
    26
 73
    22
 74
     0
 42
0.0000000001
 43
0.0000000001
 40
0.0
 40
0.0
 40
0.0
 40
0.0
 40
1.0
 40
1.0
 40
1.0
 40
2.0
 40
2.0
 40
2.0
 40
3.0
 40
3.0
 40
3.0
 40
4.0
 40
4.0
 40
4.0
 40
5.0
 40
5.0
 40
5.0
 40
6.0
 40
6.0
 40
6.0
 40
7.0
 40
7.0
 40
7.0
 40
7.0
 10
117.3058457823055
 20
-148.5490722284877
 30
0.0
 10
117.3058457823055
 20
-148.5490722284877
 30
0.0
 10
116.2016926792829
 20
-148.5490722284877
 30
0.0
 10
116.2016926792829
 20
-148.5490722284877
 30
0.0
 10
116.2016926792829
 20
-148.5490722284877
 30
0.0
 10
116.2016926792829
 20
-148.8305365296326
 30
0.0
 10
116.2016926792829
 20
-148.8305365296326
 30
0.0
 10
116.2016926792829
 20
-148.8305365296326
 30
0.0
 10
116.0535535734172
 20
-148.8305365296326
 30
0.0
 10
116.0535535734172
 20
-148.8305365296326
 30
0.0
 10
116.0387396628306
 20
-148.5473496807451
 30
0.0
 10
115.8757866463783
 20
-148.5077310826647
 30
0.0
 10
115.761409476268
 20
-148.4825818856224
 30
0.0
 10
115.761409476268
 20
-148.4825818856224
 30
0.0
 10
115.761409476268
 20
-148.3578694290564
 30
0.0
 10
115.761409476268
 20
-148.3578694290564
 30
0.0
 10
115.761409476268
 20
-148.3578694290564
 30
0.0
 10
117.3058457823055
 20
-148.3578694290564
 30
0.0
 10
117.3058457823055
 20
-148.3578694290564
 30
0.0
 10
117.3058457823055
 20
-148.3578694290564
 30
0.0
 10
117.3058457823055
 20
-148.5490722284877
 30
0.0
 10
117.3058457823055
 20
-148.5490722284877
 30
0.0
  0
HATCH
  5
B4
330
AF
100
AcDbEntity
  8
レイヤー 1
 62
   250
420
  2299925
440
 33554687
100
AcDbHatch
 10
0.0
 20
0.0
 30
0.0
210
0.0
220
0.0
230
1.0
  2
SOLID
 70
     1
 71
     1
 91
        1
 92
        1
 93
        1
 72
     4
 94
        3
 73
     0
 74
     0
 95
       26
 96
       22
 40
0.0
 40
0.0
 40
0.0
 40
0.0
 40
1.0
 40
1.0
 40
1.0
 40
2.0
 40
2.0
 40
2.0
 40
3.0
 40
3.0
 40
3.0
 40
4.0
 40
4.0
 40
4.0
 40
5.0
 40
5.0
 40
5.0
 40
6.0
 40
6.0
 40
6.0
 40
7.0
 40
7.0
 40
7.0
 40
7.0
 10
117.3058457823055
 20
-148.5490722284877
 10
117.3058457823055
 20
-148.5490722284877
 10
116.2016926792829
 20
-148.5490722284877
 10
116.2016926792829
 20
-148.5490722284877
 10
116.2016926792829
 20
-148.5490722284877
 10
116.2016926792829
 20
-148.8305365296326
 10
116.2016926792829
 20
-148.8305365296326
 10
116.2016926792829
 20
-148.8305365296326
 10
116.0535535734172
 20
-148.8305365296326
 10
116.0535535734172
 20
-148.8305365296326
 10
116.0387396628306
 20
-148.5473496807451
 10
115.8757866463783
 20
-148.5077310826647
 10
115.761409476268
 20
-148.4825818856224
 10
115.761409476268
 20
-148.4825818856224
 10
115.761409476268
 20
-148.3578694290564
 10
115.761409476268
 20
-148.3578694290564
 10
115.761409476268
 20
-148.3578694290564
 10
117.3058457823055
 20
-148.3578694290564
 10
117.3058457823055
 20
-148.3578694290564
 10
117.3058457823055
 20
-148.3578694290564
 10
117.3058457823055
 20
-148.5490722284877
 10
117.3058457823055
 20
-148.5490722284877
 97
        0
 97
        1
330
B3
 75
     2
 76
     1
 98
        1
 10
0.0
 20
0.0
450
        0
451
        0
460
0.0
461
0.0
452
        0
462
0.0
453
        0
470

  0
SPLINE
  5
B5
330
AF
100
AcDbEntity
  8
レイヤー 1
100
AcDbSpline
210
0.0
220
0.0
230
1.0
 70
     9
 71
     3
 72
    53
 73
    49
 74
     0
 42
0.0000000001
 43
0.0000000001
 40
0.0
 40
0.0
 40
0.0
 40
0.0
 40
1.0
 40
1.0
 40
1.0
 40
2.0
 40
2.0
 40
2.0
 40
3.0
 40
3.0
 40
3.0
 40
4.0
 40
4.0
 40
4.0
 40
5.0
 40
5.0
 40
5.0
 40
6.0
 40
6.0
 40
6.0
 40
7.0
 40
7.0
 40
7.0
 40
8.0
 40
8.0
 40
8.0
 40
9.0
 40
9.0
 40
9.0
 40
10.0
 40
10.0
 40
10.0
 40
11.0
 40
11.0
 40
11.0
 40
12.0
 40
12.0
 40
12.0
 40
13.0
 40
13.0
 40
13.0
 40
14.0
 40
14.0
 40
14.0
 40
15.0
 40
15.0
 40
15.0
 40
16.0
 40
16.0
 40
16.0
 40
16.0
 10
117.3564886859386
 20
-147.5220892643347
 30
0.0
 10
117.3564886859386
 20
-147.5889241167486
 30
0.0
 10
117.3396077180609
 20
-147.6753960134284
 30
0.0
 10
117.2762179611323
 20
-147.7618679101081
 30
0.0
 10
117.1663194151528
 20
-147.9096625064254
 30
0.0
 10
117.0350612771648
 20
-147.9279215124972
 30
0.0
 10
116.9272297884765
 20
-147.9441134612779
 30
0.0
 10
116.9272297884765
 20
-147.9441134612779
 30
0.0
 10
116.9272297884765
 20
-147.7546332095891
 30
0.0
 10
116.9272297884765
 20
-147.7546332095891
 30
0.0
 10
117.1260117979754
 20
-147.7077799109897
 30
0.0
 10
117.1556396191486
 20
-147.5996039127529
 30
0.0
 10
117.1556396191486
 20
-147.5203667165921
 30
0.0
 10
117.1556396191486
 20
-147.4011664128025
 30
0.0
 10
117.0560763596249
 20
-147.2712863130086
 30
0.0
 10
116.8235324143705
 20
-147.2712863130086
 30
0.0
 10
116.5675618198164
 20
-147.2712863130086
 30
0.0
 10
116.4976263814659
 20
-147.4245930621022
 30
0.0
 10
116.4976263814659
 20
-147.5276014171111
 30
0.0
 10
116.4976263814659
 20
-147.5544731618961
 30
0.0
 10
116.4976263814659
 20
-147.6753960134284
 30
0.0
 10
116.6268174621627
 20
-147.7511881141039
 30
0.0
 10
116.6268174621627
 20
-147.7511881141039
 30
0.0
 10
116.6078694369938
 20
-147.9007052581637
 30
0.0
 10
116.6078694369938
 20
-147.9007052581637
 30
0.0
 10
116.6078694369938
 20
-147.9007052581637
 30
0.0
 10
115.761409476268
 20
-147.7980414127032
 30
0.0
 10
115.761409476268
 20
-147.7980414127032
 30
0.0
 10
115.761409476268
 20
-147.7980414127032
 30
0.0
 10
115.761409476268
 20
-147.1345160222441
 30
0.0
 10
115.761409476268
 20
-147.1345160222441
 30
0.0
 10
115.761409476268
 20
-147.1345160222441
 30
0.0
 10
115.9560573711846
 20
-147.1345160222441
 30
0.0
 10
115.9560573711846
 20
-147.1345160222441
 30
0.0
 10
115.9560573711846
 20
-147.1345160222441
 30
0.0
 10
115.9560573711846
 20
-147.6592040646477
 30
0.0
 10
115.9560573711846
 20
-147.6592040646477
 30
0.0
 10
115.9560573711846
 20
-147.6592040646477
 30
0.0
 10
116.3791150967733
 20
-147.7150146115087
 30
0.0
 10
116.3791150967733
 20
-147.7150146115087
 30
0.0
 10
116.3453531610178
 20
-147.6626491601329
 30
0.0
 10
116.3050455438404
 20
-147.5923692122338
 30
0.0
 10
116.3050455438404
 20
-147.491427914516
 30
0.0
 10
116.3050455438404
 20
-147.2750759180423
 30
0.0
 10
116.4914252095924
 20
-147.0731933226067
 30
0.0
 10
116.8045843892016
 20
-147.0731933226067
 30
0.0
 10
117.1218776833931
 20
-147.0731933226067
 30
0.0
 10
117.3564886859386
 20
-147.2640516124895
 30
0.0
 10
117.3564886859386
 20
-147.5220892643347
 30
0.0
  0
HATCH
  5
B6
330
AF
100
AcDbEntity
  8
レイヤー 1
 62
   250
420
  2299925
440
 33554687
100
AcDbHatch
 10
0.0
 20
0.0
 30
0.0
210
0.0
220
0.0
230
1.0
  2
SOLID
 70
     1
 71
     1
 91
        1
 92
        1
 93
        1
 72
     4
 94
        3
 73
     0
 74
     0
 95
       53
 96
       49
 40
0.0
 40
0.0
 40
0.0
 40
0.0
 40
1.0
 40
1.0
 40
1.0
 40
2.0
 40
2.0
 40
2.0
 40
3.0
 40
3.0
 40
3.0
 40
4.0
 40
4.0
 40
4.0
 40
5.0
 40
5.0
 40
5.0
 40
6.0
 40
6.0
 40
6.0
 40
7.0
 40
7.0
 40
7.0
 40
8.0
 40
8.0
 40
8.0
 40
9.0
 40
9.0
 40
9.0
 40
10.0
 40
10.0
 40
10.0
 40
11.0
 40
11.0
 40
11.0
 40
12.0
 40
12.0
 40
12.0
 40
13.0
 40
13.0
 40
13.0
 40
14.0
 40
14.0
 40
14.0
 40
15.0
 40
15.0
 40
15.0
 40
16.0
 40
16.0
 40
16.0
 40
16.0
 10
117.3564886859386
 20
-147.5220892643347
 10
117.3564886859386
 20
-147.5889241167486
 10
117.3396077180609
 20
-147.6753960134284
 10
117.2762179611323
 20
-147.7618679101081
 10
117.1663194151528
 20
-147.9096625064254
 10
117.0350612771648
 20
-147.9279215124972
 10
116.9272297884765
 20
-147.9441134612779
 10
116.9272297884765
 20
-147.9441134612779
 10
116.9272297884765
 20
-147.7546332095891
 10
116.9272297884765
 20
-147.7546332095891
 10
117.1260117979754
 20
-147.7077799109897
 10
117.1556396191486
 20
-147.5996039127529
 10
117.1556396191486
 20
-147.5203667165921
 10
117.1556396191486
 20
-147.4011664128025
 10
117.0560763596249
 20
-147.2712863130086
 10
116.8235324143705
 20
-147.2712863130086
 10
116.5675618198164
 20
-147.2712863130086
 10
116.4976263814659
 20
-147.4245930621022
 10
116.4976263814659
 20
-147.5276014171111
 10
116.4976263814659
 20
-147.5544731618961
 10
116.4976263814659
 20
-147.6753960134284
 10
116.6268174621627
 20
-147.7511881141039
 10
116.6268174621627
 20
-147.7511881141039
 10
116.6078694369938
 20
-147.9007052581637
 10
116.6078694369938
 20
-147.9007052581637
 10
116.6078694369938
 20
-147.9007052581637
 10
115.761409476268
 20
-147.7980414127032
 10
115.761409476268
 20
-147.7980414127032
 10
115.761409476268
 20
-147.7980414127032
 10
115.761409476268
 20
-147.1345160222441
 10
115.761409476268
 20
-147.1345160222441
 10
115.761409476268
 20
-147.1345160222441
 10
115.9560573711846
 20
-147.1345160222441
 10
115.9560573711846
 20
-147.1345160222441
 10
115.9560573711846
 20
-147.1345160222441
 10
115.9560573711846
 20
-147.6592040646477
 10
115.9560573711846
 20
-147.6592040646477
 10
115.9560573711846
 20
-147.6592040646477
 10
116.3791150967733
 20
-147.7150146115087
 10
116.3791150967733
 20
-147.7150146115087
 10
116.3453531610178
 20
-147.6626491601329
 10
116.3050455438404
 20
-147.5923692122338
 10
116.3050455438404
 20
-147.491427914516
 10
116.3050455438404
 20
-147.2750759180423
 10
116.4914252095924
 20
-147.0731933226067
 10
116.8045843892016
 20
-147.0731933226067
 10
117.1218776833931
 20
-147.0731933226067
 10
117.3564886859386
 20
-147.2640516124895
 10
117.3564886859386
 20
-147.5220892643347
 97
        0
 97
        1
330
B5
 75
     2
 76
     1
 98
        1
 10
0.0
 20
0.0
450
        0
451
        0
460
0.0
461
0.0
452
        0
462
0.0
453
        0
470

  0
ENDBLK
  5
B2
330
AF
100
AcDbEntity
  8
0
100
AcDbBlockEnd
  0
BLOCK
  5
BD
330
BB
100
AcDbEntity
  8
0
100
AcDbBlockBegin
  2
Block_7
 70
     0
 10
0.0
 20
0.0
 30
0.0
  3
Block_7
  1

  0
INSERT
  5
C0
330
BB
100
AcDbEntity
  8
レイヤー 1
100
AcDbBlockReference
  2
Block_8
 10
0.0
 20
0.0
 30
0.0
  0
ENDBLK
  5
BE
330
BB
100
AcDbEntity
  8
0
100
AcDbBlockEnd
  0
BLOCK
  5
C1
330
BF
100
AcDbEntity
  8
0
100
AcDbBlockBegin
  2
Block_8
 70
     0
 10
0.0
 20
0.0
 30
0.0
  3
Block_8
  1

  0
SPLINE
  5
C3
330
BF
100
AcDbEntity
  8
レイヤー 1
100
AcDbSpline
210
0.0
220
0.0
230
1.0
 70
     9
 71
     3
 72
    17
 73
    13
 74
     0
 42
0.0000000001
 43
0.0000000001
 40
0.0
 40
0.0
 40
0.0
 40
0.0
 40
1.0
 40
1.0
 40
1.0
 40
2.0
 40
2.0
 40
2.0
 40
3.0
 40
3.0
 40
3.0
 40
4.0
 40
4.0
 40
4.0
 40
4.0
 10
120.1387477998264
 20
-156.5833794096389
 30
0.0
 10
120.1387477998264
 20
-156.7959418010788
 30
0.0
 10
120.4222791582625
 20
-156.8359049087077
 30
0.0
 10
120.767133216336
 20
-156.8359049087077
 30
0.0
 10
121.0864935678186
 20
-156.8359049087077
 30
0.0
 10
121.395174123297
 20
-156.805243558889
 30
0.0
 10
121.395174123297
 20
-156.5833794096389
 30
0.0
 10
121.395174123297
 20
-156.372195056393
 30
0.0
 10
121.1140543317006
 20
-156.3308539105701
 30
0.0
 10
120.767133216336
 20
-156.3308539105701
 30
0.0
 10
120.4474283553048
 20
-156.3308539105701
 30
0.0
 10
120.1387477998264
 20
-156.3632378081314
 30
0.0
 10
120.1387477998264
 20
-156.5833794096389
 30
0.0
  0
SPLINE
  5
C4
330
BF
100
AcDbEntity
  8
レイヤー 1
100
AcDbSpline
210
0.0
220
0.0
230
1.0
 70
     9
 71
     3
 72
    29
 73
    25
 74
     0
 42
0.0000000001
 43
0.0000000001
 40
0.0
 40
0.0
 40
0.0
 40
0.0
 40
1.0
 40
1.0
 40
1.0
 40
2.0
 40
2.0
 40
2.0
 40
3.0
 40
3.0
 40
3.0
 40
4.0
 40
4.0
 40
4.0
 40
5.0
 40
5.0
 40
5.0
 40
6.0
 40
6.0
 40
6.0
 40
7.0
 40
7.0
 40
7.0
 40
8.0
 40
8.0
 40
8.0
 40
8.0
 10
121.3614121875416
 20
-156.2443820138903
 30
0.0
 10
121.5708739930448
 20
-156.3363660633465
 30
0.0
 10
121.5898220182136
 20
-156.4841606596637
 30
0.0
 10
121.5898220182136
 20
-156.5833794096389
 30
0.0
 10
121.5898220182136
 20
-156.7204942099518
 30
0.0
 10
121.5433132291628
 20
-156.8410725519355
 30
0.0
 10
121.3614121875416
 20
-156.9223768053874
 30
0.0
 10
121.166764292625
 20
-157.0105712498098
 30
0.0
 10
120.9300862327883
 20
-157.0267631985905
 30
0.0
 10
120.767133216336
 20
-157.0267631985905
 30
0.0
 10
120.6231282250525
 20
-157.0267631985905
 30
0.0
 10
120.3712917450808
 20
-157.012638307101
 30
0.0
 10
120.1725097355819
 20
-156.9223768053874
 30
0.0
 10
119.9695936115006
 20
-156.8303927559313
 30
0.0
 10
119.9461669622009
 20
-156.6932779556183
 30
0.0
 10
119.9461669622009
 20
-156.5833794096389
 30
0.0
 10
119.9461669622009
 20
-156.4479871570685
 30
0.0
 10
119.9906086939606
 20
-156.3253417577936
 30
0.0
 10
120.1725097355819
 20
-156.2443820138903
 30
0.0
 10
120.3650905732073
 20
-156.1596326649531
 30
0.0
 10
120.5935004038794
 20
-156.1396511111387
 30
0.0
 10
120.767133216336
 20
-156.1396511111387
 30
0.0
 10
120.9383544619529
 20
-156.1396511111387
 30
0.0
 10
121.1688313499161
 20
-156.1579101172105
 30
0.0
 10
121.3614121875416
 20
-156.2443820138903
 30
0.0
  0
HATCH
  5
C5
330
BF
100
AcDbEntity
  8
レイヤー 1
 62
   250
420
  2299925
440
 33554687
100
AcDbHatch
 10
0.0
 20
0.0
 30
0.0
210
0.0
220
0.0
230
1.0
  2
SOLID
 70
     1
 71
     1
 91
        2
 92
        1
 93
        1
 72
     4
 94
        3
 73
     0
 74
     0
 95
       17
 96
       13
 40
0.0
 40
0.0
 40
0.0
 40
0.0
 40
1.0
 40
1.0
 40
1.0
 40
2.0
 40
2.0
 40
2.0
 40
3.0
 40
3.0
 40
3.0
 40
4.0
 40
4.0
 40
4.0
 40
4.0
 10
120.1387477998264
 20
-156.5833794096389
 10
120.1387477998264
 20
-156.7959418010788
 10
120.4222791582625
 20
-156.8359049087077
 10
120.767133216336
 20
-156.8359049087077
 10
121.0864935678186
 20
-156.8359049087077
 10
121.395174123297
 20
-156.805243558889
 10
121.395174123297
 20
-156.5833794096389
 10
121.395174123297
 20
-156.372195056393
 10
121.1140543317006
 20
-156.3308539105701
 10
120.767133216336
 20
-156.3308539105701
 10
120.4474283553048
 20
-156.3308539105701
 10
120.1387477998264
 20
-156.3632378081314
 10
120.1387477998264
 20
-156.5833794096389
 97
        0
 97
        1
330
C3
 92
        1
 93
        1
 72
     4
 94
        3
 73
     0
 74
     0
 95
       29
 96
       25
 40
0.0
 40
0.0
 40
0.0
 40
0.0
 40
1.0
 40
1.0
 40
1.0
 40
2.0
 40
2.0
 40
2.0
 40
3.0
 40
3.0
 40
3.0
 40
4.0
 40
4.0
 40
4.0
 40
5.0
 40
5.0
 40
5.0
 40
6.0
 40
6.0
 40
6.0
 40
7.0
 40
7.0
 40
7.0
 40
8.0
 40
8.0
 40
8.0
 40
8.0
 10
121.3614121875416
 20
-156.2443820138903
 10
121.5708739930448
 20
-156.3363660633465
 10
121.5898220182136
 20
-156.4841606596637
 10
121.5898220182136
 20
-156.5833794096389
 10
121.5898220182136
 20
-156.7204942099518
 10
121.5433132291628
 20
-156.8410725519355
 10
121.3614121875416
 20
-156.9223768053874
 10
121.166764292625
 20
-157.0105712498098
 10
120.9300862327883
 20
-157.0267631985905
 10
120.767133216336
 20
-157.0267631985905
 10
120.6231282250525
 20
-157.0267631985905
 10
120.3712917450808
 20
-157.012638307101
 10
120.1725097355819
 20
-156.9223768053874
 10
119.9695936115006
 20
-156.8303927559313
 10
119.9461669622009
 20
-156.6932779556183
 10
119.9461669622009
 20
-156.5833794096389
 10
119.9461669622009
 20
-156.4479871570685
 10
119.9906086939606
 20
-156.3253417577936
 10
120.1725097355819
 20
-156.2443820138903
 10
120.3650905732073
 20
-156.1596326649531
 10
120.5935004038794
 20
-156.1396511111387
 10
120.767133216336
 20
-156.1396511111387
 10
120.9383544619529
 20
-156.1396511111387
 10
121.1688313499161
 20
-156.1579101172105
 10
121.3614121875416
 20
-156.2443820138903
 97
        0
 97
        1
330
C4
 75
     2
 76
     1
 98
        1
 10
0.0
 20
0.0
450
        0
451
        0
460
0.0
461
0.0
452
        0
462
0.0
453
        0
470

  0
SPLINE
  5
C6
330
BF
100
AcDbEntity
  8
レイヤー 1
100
AcDbSpline
210
0.0
220
0.0
230
1.0
 70
    11
 71
     3
 72
    17
 73
    13
 74
     0
 42
0.0000000001
 43
0.0000000001
 40
0.0
 40
0.0
 40
0.0
 40
0.0
 40
1.0
 40
1.0
 40
1.0
 40
2.0
 40
2.0
 40
2.0
 40
3.0
 40
3.0
 40
3.0
 40
4.0
 40
4.0
 40
4.0
 40
4.0
 10
121.5391791145805
 20
-155.9567165408719
 30
0.0
 10
121.5391791145805
 20
-155.9567165408719
 30
0.0
 10
121.2873426346087
 20
-155.9567165408719
 30
0.0
 10
121.2873426346087
 20
-155.9567165408719
 30
0.0
 10
121.2873426346087
 20
-155.9567165408719
 30
0.0
 10
121.2873426346087
 20
-155.7420870921409
 30
0.0
 10
121.2873426346087
 20
-155.7420870921409
 30
0.0
 10
121.2873426346087
 20
-155.7420870921409
 30
0.0
 10
121.5391791145805
 20
-155.7420870921409
 30
0.0
 10
121.5391791145805
 20
-155.7420870921409
 30
0.0
 10
121.5391791145805
 20
-155.7420870921409
 30
0.0
 10
121.5391791145805
 20
-155.9567165408719
 30
0.0
 10
121.5391791145805
 20
-155.9567165408719
 30
0.0
  0
HATCH
  5
C7
330
BF
100
AcDbEntity
  8
レイヤー 1
 62
   250
420
  2299925
440
 33554687
100
AcDbHatch
 10
0.0
 20
0.0
 30
0.0
210
0.0
220
0.0
230
1.0
  2
SOLID
 70
     1
 71
     1
 91
        1
 92
        1
 93
        1
 72
     4
 94
        3
 73
     0
 74
     0
 95
       17
 96
       13
 40
0.0
 40
0.0
 40
0.0
 40
0.0
 40
1.0
 40
1.0
 40
1.0
 40
2.0
 40
2.0
 40
2.0
 40
3.0
 40
3.0
 40
3.0
 40
4.0
 40
4.0
 40
4.0
 40
4.0
 10
121.5391791145805
 20
-155.9567165408719
 10
121.5391791145805
 20
-155.9567165408719
 10
121.2873426346087
 20
-155.9567165408719
 10
121.2873426346087
 20
-155.9567165408719
 10
121.2873426346087
 20
-155.9567165408719
 10
121.2873426346087
 20
-155.7420870921409
 10
121.2873426346087
 20
-155.7420870921409
 10
121.2873426346087
 20
-155.7420870921409
 10
121.5391791145805
 20
-155.7420870921409
 10
121.5391791145805
 20
-155.7420870921409
 10
121.5391791145805
 20
-155.7420870921409
 10
121.5391791145805
 20
-155.9567165408719
 10
121.5391791145805
 20
-155.9567165408719
 97
        0
 97
        1
330
C6
 75
     2
 76
     1
 98
        1
 10
0.0
 20
0.0
450
        0
451
        0
460
0.0
461
0.0
452
        0
462
0.0
453
        0
470

  0
SPLINE
  5
C8
330
BF
100
AcDbEntity
  8
レイヤー 1
100
AcDbSpline
210
0.0
220
0.0
230
1.0
 70
    11
 71
     3
 72
    14
 73
    10
 74
     0
 42
0.0000000001
 43
0.0000000001
 40
0.0
 40
0.0
 40
0.0
 40
0.0
 40
1.0
 40
1.0
 40
1.0
 40
2.0
 40
2.0
 40
2.0
 40
3.0
 40
3.0
 40
3.0
 40
3.0
 10
120.3375298093253
 20
-155.0172390020443
 30
0.0
 10
120.3375298093253
 20
-155.0172390020443
 30
0.0
 10
120.9934759897169
 20
-155.406879301426
 30
0.0
 10
120.9934759897169
 20
-155.406879301426
 30
0.0
 10
120.9934759897169
 20
-155.406879301426
 30
0.0
 10
120.9934759897169
 20
-155.0172390020443
 30
0.0
 10
120.9934759897169
 20
-155.0172390020443
 30
0.0
 10
120.9934759897169
 20
-155.0172390020443
 30
0.0
 10
120.3375298093253
 20
-155.0172390020443
 30
0.0
 10
120.3375298093253
 20
-155.0172390020443
 30
0.0
  0
SPLINE
  5
C9
330
BF
100
AcDbEntity
  8
レイヤー 1
100
AcDbSpline
210
0.0
220
0.0
230
1.0
 70
    11
 71
     3
 72
    38
 73
    34
 74
     0
 42
0.0000000001
 43
0.0000000001
 40
0.0
 40
0.0
 40
0.0
 40
0.0
 40
1.0
 40
1.0
 40
1.0
 40
2.0
 40
2.0
 40
2.0
 40
3.0
 40
3.0
 40
3.0
 40
4.0
 40
4.0
 40
4.0
 40
5.0
 40
5.0
 40
5.0
 40
6.0
 40
6.0
 40
6.0
 40
7.0
 40
7.0
 40
7.0
 40
8.0
 40
8.0
 40
8.0
 40
9.0
 40
9.0
 40
9.0
 40
10.0
 40
10.0
 40
10.0
 40
11.0
 40
11.0
 40
11.0
 40
11.0
 10
121.1922579992158
 20
-154.8315483553893
 30
0.0
 10
121.1922579992158
 20
-154.8315483553893
 30
0.0
 10
121.5391791145805
 20
-154.8315483553893
 30
0.0
 10
121.5391791145805
 20
-154.8315483553893
 30
0.0
 10
121.5391791145805
 20
-154.8315483553893
 30
0.0
 10
121.5391791145805
 20
-155.0172390020443
 30
0.0
 10
121.5391791145805
 20
-155.0172390020443
 30
0.0
 10
121.5391791145805
 20
-155.0172390020443
 30
0.0
 10
121.1922579992158
 20
-155.0172390020443
 30
0.0
 10
121.1922579992158
 20
-155.0172390020443
 30
0.0
 10
121.1922579992158
 20
-155.0172390020443
 30
0.0
 10
121.1922579992158
 20
-155.5763779993003
 30
0.0
 10
121.1922579992158
 20
-155.5763779993003
 30
0.0
 10
121.1922579992158
 20
-155.5763779993003
 30
0.0
 10
120.967982283126
 20
-155.5763779993003
 30
0.0
 10
120.967982283126
 20
-155.5763779993003
 30
0.0
 10
120.967982283126
 20
-155.5763779993003
 30
0.0
 10
119.994742808543
 20
-154.9976019577784
 30
0.0
 10
119.994742808543
 20
-154.9976019577784
 30
0.0
 10
119.994742808543
 20
-154.9976019577784
 30
0.0
 10
119.994742808543
 20
-154.8315483553893
 30
0.0
 10
119.994742808543
 20
-154.8315483553893
 30
0.0
 10
119.994742808543
 20
-154.8315483553893
 30
0.0
 10
120.9934759897169
 20
-154.8315483553893
 30
0.0
 10
120.9934759897169
 20
-154.8315483553893
 30
0.0
 10
120.9934759897169
 20
-154.8315483553893
 30
0.0
 10
120.9934759897169
 20
-154.654814956996
 30
0.0
 10
120.9934759897169
 20
-154.654814956996
 30
0.0
 10
120.9934759897169
 20
-154.654814956996
 30
0.0
 10
121.1922579992158
 20
-154.654814956996
 30
0.0
 10
121.1922579992158
 20
-154.654814956996
 30
0.0
 10
121.1922579992158
 20
-154.654814956996
 30
0.0
 10
121.1922579992158
 20
-154.8315483553893
 30
0.0
 10
121.1922579992158
 20
-154.8315483553893
 30
0.0
  0
HATCH
  5
CA
330
BF
100
AcDbEntity
  8
レイヤー 1
 62
   250
420
  2299925
440
 33554687
100
AcDbHatch
 10
0.0
 20
0.0
 30
0.0
210
0.0
220
0.0
230
1.0
  2
SOLID
 70
     1
 71
     1
 91
        2
 92
        1
 93
        1
 72
     4
 94
        3
 73
     0
 74
     0
 95
       14
 96
       10
 40
0.0
 40
0.0
 40
0.0
 40
0.0
 40
1.0
 40
1.0
 40
1.0
 40
2.0
 40
2.0
 40
2.0
 40
3.0
 40
3.0
 40
3.0
 40
3.0
 10
120.3375298093253
 20
-155.0172390020443
 10
120.3375298093253
 20
-155.0172390020443
 10
120.9934759897169
 20
-155.406879301426
 10
120.9934759897169
 20
-155.406879301426
 10
120.9934759897169
 20
-155.406879301426
 10
120.9934759897169
 20
-155.0172390020443
 10
120.9934759897169
 20
-155.0172390020443
 10
120.9934759897169
 20
-155.0172390020443
 10
120.3375298093253
 20
-155.0172390020443
 10
120.3375298093253
 20
-155.0172390020443
 97
        0
 97
        1
330
C8
 92
        1
 93
        1
 72
     4
 94
        3
 73
     0
 74
     0
 95
       38
 96
       34
 40
0.0
 40
0.0
 40
0.0
 40
0.0
 40
1.0
 40
1.0
 40
1.0
 40
2.0
 40
2.0
 40
2.0
 40
3.0
 40
3.0
 40
3.0
 40
4.0
 40
4.0
 40
4.0
 40
5.0
 40
5.0
 40
5.0
 40
6.0
 40
6.0
 40
6.0
 40
7.0
 40
7.0
 40
7.0
 40
8.0
 40
8.0
 40
8.0
 40
9.0
 40
9.0
 40
9.0
 40
10.0
 40
10.0
 40
10.0
 40
11.0
 40
11.0
 40
11.0
 40
11.0
 10
121.1922579992158
 20
-154.8315483553893
 10
121.1922579992158
 20
-154.8315483553893
 10
121.5391791145805
 20
-154.8315483553893
 10
121.5391791145805
 20
-154.8315483553893
 10
121.5391791145805
 20
-154.8315483553893
 10
121.5391791145805
 20
-155.0172390020443
 10
121.5391791145805
 20
-155.0172390020443
 10
121.5391791145805
 20
-155.0172390020443
 10
121.1922579992158
 20
-155.0172390020443
 10
121.1922579992158
 20
-155.0172390020443
 10
121.1922579992158
 20
-155.0172390020443
 10
121.1922579992158
 20
-155.5763779993003
 10
121.1922579992158
 20
-155.5763779993003
 10
121.1922579992158
 20
-155.5763779993003
 10
120.967982283126
 20
-155.5763779993003
 10
120.967982283126
 20
-155.5763779993003
 10
120.967982283126
 20
-155.5763779993003
 10
119.994742808543
 20
-154.9976019577784
 10
119.994742808543
 20
-154.9976019577784
 10
119.994742808543
 20
-154.9976019577784
 10
119.994742808543
 20
-154.8315483553893
 10
119.994742808543
 20
-154.8315483553893
 10
119.994742808543
 20
-154.8315483553893
 10
120.9934759897169
 20
-154.8315483553893
 10
120.9934759897169
 20
-154.8315483553893
 10
120.9934759897169
 20
-154.8315483553893
 10
120.9934759897169
 20
-154.654814956996
 10
120.9934759897169
 20
-154.654814956996
 10
120.9934759897169
 20
-154.654814956996
 10
121.1922579992158
 20
-154.654814956996
 10
121.1922579992158
 20
-154.654814956996
 10
121.1922579992158
 20
-154.654814956996
 10
121.1922579992158
 20
-154.8315483553893
 10
121.1922579992158
 20
-154.8315483553893
 97
        0
 97
        1
330
C9
 75
     2
 76
     1
 98
        1
 10
0.0
 20
0.0
450
        0
451
        0
460
0.0
461
0.0
452
        0
462
0.0
453
        0
470

  0
ENDBLK
  5
C2
330
BF
100
AcDbEntity
  8
0
100
AcDbBlockEnd
  0
BLOCK
  5
D1
330
CF
100
AcDbEntity
  8
0
100
AcDbBlockBegin
  2
Block_9
 70
     0
 10
0.0
 20
0.0
 30
0.0
  3
Block_9
  1

  0
INSERT
  5
D4
330
CF
100
AcDbEntity
  8
レイヤー 1
100
AcDbBlockReference
  2
Block_10
 10
0.0
 20
0.0
 30
0.0
  0
ENDBLK
  5
D2
330
CF
100
AcDbEntity
  8
0
100
AcDbBlockEnd
  0
BLOCK
  5
D5
330
D3
100
AcDbEntity
  8
0
100
AcDbBlockBegin
  2
Block_10
 70
     0
 10
0.0
 20
0.0
 30
0.0
  3
Block_10
  1

  0
SPLINE
  5
D7
330
D3
100
AcDbEntity
  8
レイヤー 1
100
AcDbSpline
210
0.0
220
0.0
230
1.0
 70
    11
 71
     3
 72
    26
 73
    22
 74
     0
 42
0.0000000001
 43
0.0000000001
 40
0.0
 40
0.0
 40
0.0
 40
0.0
 40
1.0
 40
1.0
 40
1.0
 40
2.0
 40
2.0
 40
2.0
 40
3.0
 40
3.0
 40
3.0
 40
4.0
 40
4.0
 40
4.0
 40
5.0
 40
5.0
 40
5.0
 40
6.0
 40
6.0
 40
6.0
 40
7.0
 40
7.0
 40
7.0
 40
7.0
 10
90.25650632509213
 20
-140.009714049199
 30
0.0
 10
90.25650632509213
 20
-140.009714049199
 30
0.0
 10
89.15235322206955
 20
-140.009714049199
 30
0.0
 10
89.15235322206955
 20
-140.009714049199
 30
0.0
 10
89.15235322206955
 20
-140.009714049199
 30
0.0
 10
89.15235322206955
 20
-140.2911783503439
 30
0.0
 10
89.15235322206955
 20
-140.2911783503439
 30
0.0
 10
89.15235322206955
 20
-140.2911783503439
 30
0.0
 10
89.00421411620381
 20
-140.2911783503439
 30
0.0
 10
89.00421411620381
 20
-140.2911783503439
 30
0.0
 10
88.98940020561724
 20
-140.0079915014563
 30
0.0
 10
88.82644718916493
 20
-139.968372903376
 30
0.0
 10
88.71207001905462
 20
-139.9432237063336
 30
0.0
 10
88.71207001905462
 20
-139.9432237063336
 30
0.0
 10
88.71207001905462
 20
-139.8185112497676
 30
0.0
 10
88.71207001905462
 20
-139.8185112497676
 30
0.0
 10
88.71207001905462
 20
-139.8185112497676
 30
0.0
 10
90.25650632509213
 20
-139.8185112497676
 30
0.0
 10
90.25650632509213
 20
-139.8185112497676
 30
0.0
 10
90.25650632509213
 20
-139.8185112497676
 30
0.0
 10
90.25650632509213
 20
-140.009714049199
 30
0.0
 10
90.25650632509213
 20
-140.009714049199
 30
0.0
  0
HATCH
  5
D8
330
D3
100
AcDbEntity
  8
レイヤー 1
 62
   250
420
  2299925
440
 33554687
100
AcDbHatch
 10
0.0
 20
0.0
 30
0.0
210
0.0
220
0.0
230
1.0
  2
SOLID
 70
     1
 71
     1
 91
        1
 92
        1
 93
        1
 72
     4
 94
        3
 73
     0
 74
     0
 95
       26
 96
       22
 40
0.0
 40
0.0
 40
0.0
 40
0.0
 40
1.0
 40
1.0
 40
1.0
 40
2.0
 40
2.0
 40
2.0
 40
3.0
 40
3.0
 40
3.0
 40
4.0
 40
4.0
 40
4.0
 40
5.0
 40
5.0
 40
5.0
 40
6.0
 40
6.0
 40
6.0
 40
7.0
 40
7.0
 40
7.0
 40
7.0
 10
90.25650632509213
 20
-140.009714049199
 10
90.25650632509213
 20
-140.009714049199
 10
89.15235322206955
 20
-140.009714049199
 10
89.15235322206955
 20
-140.009714049199
 10
89.15235322206955
 20
-140.009714049199
 10
89.15235322206955
 20
-140.2911783503439
 10
89.15235322206955
 20
-140.2911783503439
 10
89.15235322206955
 20
-140.2911783503439
 10
89.00421411620381
 20
-140.2911783503439
 10
89.00421411620381
 20
-140.2911783503439
 10
88.98940020561724
 20
-140.0079915014563
 10
88.82644718916493
 20
-139.968372903376
 10
88.71207001905462
 20
-139.9432237063336
 10
88.71207001905462
 20
-139.9432237063336
 10
88.71207001905462
 20
-139.8185112497676
 10
88.71207001905462
 20
-139.8185112497676
 10
88.71207001905462
 20
-139.8185112497676
 10
90.25650632509213
 20
-139.8185112497676
 10
90.25650632509213
 20
-139.8185112497676
 10
90.25650632509213
 20
-139.8185112497676
 10
90.25650632509213
 20
-140.009714049199
 10
90.25650632509213
 20
-140.009714049199
 97
        0
 97
        1
330
D7
 75
     2
 76
     1
 98
        1
 10
0.0
 20
0.0
450
        0
451
        0
460
0.0
461
0.0
452
        0
462
0.0
453
        0
470

  0
SPLINE
  5
D9
330
D3
100
AcDbEntity
  8
レイヤー 1
100
AcDbSpline
210
0.0
220
0.0
230
1.0
 70
    11
 71
     3
 72
    17
 73
    13
 74
     0
 42
0.0000000001
 43
0.0000000001
 40
0.0
 40
0.0
 40
0.0
 40
0.0
 40
1.0
 40
1.0
 40
1.0
 40
2.0
 40
2.0
 40
2.0
 40
3.0
 40
3.0
 40
3.0
 40
4.0
 40
4.0
 40
4.0
 40
4.0
 10
90.25650632509213
 20
-139.341710034609
 30
0.0
 10
90.25650632509213
 20
-139.341710034609
 30
0.0
 10
90.00466984512035
 20
-139.341710034609
 30
0.0
 10
90.00466984512035
 20
-139.341710034609
 30
0.0
 10
90.00466984512035
 20
-139.341710034609
 30
0.0
 10
90.00466984512035
 20
-139.1270805858779
 30
0.0
 10
90.00466984512035
 20
-139.1270805858779
 30
0.0
 10
90.00466984512035
 20
-139.1270805858779
 30
0.0
 10
90.25650632509213
 20
-139.1270805858779
 30
0.0
 10
90.25650632509213
 20
-139.1270805858779
 30
0.0
 10
90.25650632509213
 20
-139.1270805858779
 30
0.0
 10
90.25650632509213
 20
-139.341710034609
 30
0.0
 10
90.25650632509213
 20
-139.341710034609
 30
0.0
  0
HATCH
  5
DA
330
D3
100
AcDbEntity
  8
レイヤー 1
 62
   250
420
  2299925
440
 33554687
100
AcDbHatch
 10
0.0
 20
0.0
 30
0.0
210
0.0
220
0.0
230
1.0
  2
SOLID
 70
     1
 71
     1
 91
        1
 92
        1
 93
        1
 72
     4
 94
        3
 73
     0
 74
     0
 95
       17
 96
       13
 40
0.0
 40
0.0
 40
0.0
 40
0.0
 40
1.0
 40
1.0
 40
1.0
 40
2.0
 40
2.0
 40
2.0
 40
3.0
 40
3.0
 40
3.0
 40
4.0
 40
4.0
 40
4.0
 40
4.0
 10
90.25650632509213
 20
-139.341710034609
 10
90.25650632509213
 20
-139.341710034609
 10
90.00466984512035
 20
-139.341710034609
 10
90.00466984512035
 20
-139.341710034609
 10
90.00466984512035
 20
-139.341710034609
 10
90.00466984512035
 20
-139.1270805858779
 10
90.00466984512035
 20
-139.1270805858779
 10
90.00466984512035
 20
-139.1270805858779
 10
90.25650632509213
 20
-139.1270805858779
 10
90.25650632509213
 20
-139.1270805858779
 10
90.25650632509213
 20
-139.1270805858779
 10
90.25650632509213
 20
-139.341710034609
 10
90.25650632509213
 20
-139.341710034609
 97
        0
 97
        1
330
D9
 75
     2
 76
     1
 98
        1
 10
0.0
 20
0.0
450
        0
451
        0
460
0.0
461
0.0
452
        0
462
0.0
453
        0
470

  0
SPLINE
  5
DB
330
D3
100
AcDbEntity
  8
レイヤー 1
100
AcDbSpline
210
0.0
220
0.0
230
1.0
 70
    11
 71
     3
 72
    26
 73
    22
 74
     0
 42
0.0000000001
 43
0.0000000001
 40
0.0
 40
0.0
 40
0.0
 40
0.0
 40
1.0
 40
1.0
 40
1.0
 40
2.0
 40
2.0
 40
2.0
 40
3.0
 40
3.0
 40
3.0
 40
4.0
 40
4.0
 40
4.0
 40
5.0
 40
5.0
 40
5.0
 40
6.0
 40
6.0
 40
6.0
 40
7.0
 40
7.0
 40
7.0
 40
7.0
 10
90.25650632509213
 20
-138.5410698438369
 30
0.0
 10
90.25650632509213
 20
-138.5410698438369
 30
0.0
 10
89.15235322206955
 20
-138.5410698438369
 30
0.0
 10
89.15235322206955
 20
-138.5410698438369
 30
0.0
 10
89.15235322206955
 20
-138.5410698438369
 30
0.0
 10
89.15235322206955
 20
-138.8225341449818
 30
0.0
 10
89.15235322206955
 20
-138.8225341449818
 30
0.0
 10
89.15235322206955
 20
-138.8225341449818
 30
0.0
 10
89.00421411620381
 20
-138.8225341449818
 30
0.0
 10
89.00421411620381
 20
-138.8225341449818
 30
0.0
 10
88.98940020561724
 20
-138.5393472960943
 30
0.0
 10
88.82644718916493
 20
-138.4997286980139
 30
0.0
 10
88.71207001905462
 20
-138.4745795009716
 30
0.0
 10
88.71207001905462
 20
-138.4745795009716
 30
0.0
 10
88.71207001905462
 20
-138.3498670444056
 30
0.0
 10
88.71207001905462
 20
-138.3498670444056
 30
0.0
 10
88.71207001905462
 20
-138.3498670444056
 30
0.0
 10
90.25650632509213
 20
-138.3498670444056
 30
0.0
 10
90.25650632509213
 20
-138.3498670444056
 30
0.0
 10
90.25650632509213
 20
-138.3498670444056
 30
0.0
 10
90.25650632509213
 20
-138.5410698438369
 30
0.0
 10
90.25650632509213
 20
-138.5410698438369
 30
0.0
  0
HATCH
  5
DC
330
D3
100
AcDbEntity
  8
レイヤー 1
 62
   250
420
  2299925
440
 33554687
100
AcDbHatch
 10
0.0
 20
0.0
 30
0.0
210
0.0
220
0.0
230
1.0
  2
SOLID
 70
     1
 71
     1
 91
        1
 92
        1
 93
        1
 72
     4
 94
        3
 73
     0
 74
     0
 95
       26
 96
       22
 40
0.0
 40
0.0
 40
0.0
 40
0.0
 40
1.0
 40
1.0
 40
1.0
 40
2.0
 40
2.0
 40
2.0
 40
3.0
 40
3.0
 40
3.0
 40
4.0
 40
4.0
 40
4.0
 40
5.0
 40
5.0
 40
5.0
 40
6.0
 40
6.0
 40
6.0
 40
7.0
 40
7.0
 40
7.0
 40
7.0
 10
90.25650632509213
 20
-138.5410698438369
 10
90.25650632509213
 20
-138.5410698438369
 10
89.15235322206955
 20
-138.5410698438369
 10
89.15235322206955
 20
-138.5410698438369
 10
89.15235322206955
 20
-138.5410698438369
 10
89.15235322206955
 20
-138.8225341449818
 10
89.15235322206955
 20
-138.8225341449818
 10
89.15235322206955
 20
-138.8225341449818
 10
89.00421411620381
 20
-138.8225341449818
 10
89.00421411620381
 20
-138.8225341449818
 10
88.98940020561724
 20
-138.5393472960943
 10
88.82644718916493
 20
-138.4997286980139
 10
88.71207001905462
 20
-138.4745795009716
 10
88.71207001905462
 20
-138.4745795009716
 10
88.71207001905462
 20
-138.3498670444056
 10
88.71207001905462
 20
-138.3498670444056
 10
88.71207001905462
 20
-138.3498670444056
 10
90.25650632509213
 20
-138.3498670444056
 10
90.25650632509213
 20
-138.3498670444056
 10
90.25650632509213
 20
-138.3498670444056
 10
90.25650632509213
 20
-138.5410698438369
 10
90.25650632509213
 20
-138.5410698438369
 97
        0
 97
        1
330
DB
 75
     2
 76
     1
 98
        1
 10
0.0
 20
0.0
450
        0
451
        0
460
0.0
461
0.0
452
        0
462
0.0
453
        0
470

  0
ENDBLK
  5
D6
330
D3
100
AcDbEntity
  8
0
100
AcDbBlockEnd
  0
BLOCK
  5
E1
330
DF
100
AcDbEntity
  8
0
100
AcDbBlockBegin
  2
Block_11
 70
     0
 10
0.0
 20
0.0
 30
0.0
  3
Block_11
  1

  0
LINE
  5
E3
330
DF
100
AcDbEntity
  8
レイヤー 1
 62
    18
420
        0
370
     9
100
AcDbLine
 10
108.6476781380005
 20
-154.7141489597525
 30
0.0
 11
108.3808332801401
 21
-153.7503767264814
 31
0.0
  0
LINE
  5
E4
330
DF
100
AcDbEntity
  8
レイヤー 1
 62
    18
420
        0
370
     9
100
AcDbLine
 10
108.6476781380005
 20
-154.7141489597525
 30
0.0
 11
108.6132439306234
 21
-153.1001883969484
 31
0.0
  0
LINE
  5
E5
330
DF
100
AcDbEntity
  8
レイヤー 1
 62
    18
420
        0
370
     9
100
AcDbLine
 10
108.6476781380005
 20
-154.7141489597525
 30
0.0
 11
108.8985262155064
 21
-153.7459685043657
 31
0.0
  0
ENDBLK
  5
E2
330
DF
100
AcDbEntity
  8
0
100
AcDbBlockEnd
  0
BLOCK
  5
E8
330
E6
100
AcDbEntity
  8
0
100
AcDbBlockBegin
  2
Block_12
 70
     0
 10
0.0
 20
0.0
 30
0.0
  3
Block_12
  1

  0
INSERT
  5
EB
330
E6
100
AcDbEntity
  8
レイヤー 1
100
AcDbBlockReference
  2
Block_13
 10
0.0
 20
0.0
 30
0.0
  0
ENDBLK
  5
E9
330
E6
100
AcDbEntity
  8
0
100
AcDbBlockEnd
  0
BLOCK
  5
EC
330
EA
100
AcDbEntity
  8
0
100
AcDbBlockBegin
  2
Block_13
 70
     0
 10
0.0
 20
0.0
 30
0.0
  3
Block_13
  1

  0
SPLINE
  5
EE
330
EA
100
AcDbEntity
  8
レイヤー 1
100
AcDbSpline
210
0.0
220
0.0
230
1.0
 70
     9
 71
     3
 72
    17
 73
    13
 74
     0
 42
0.0000000001
 43
0.0000000001
 40
0.0
 40
0.0
 40
0.0
 40
0.0
 40
1.0
 40
1.0
 40
1.0
 40
2.0
 40
2.0
 40
2.0
 40
3.0
 40
3.0
 40
3.0
 40
4.0
 40
4.0
 40
4.0
 40
4.0
 10
104.6616563323415
 20
-152.0337863118179
 30
0.0
 10
104.6446031096895
 20
-152.0634141329911
 30
0.0
 10
104.5939602060564
 20
-152.1564317110928
 30
0.0
 10
104.5832804100521
 20
-152.1753797362617
 30
0.0
 10
104.7736219356121
 20
-152.234635378608
 30
0.0
 10
104.7948092728464
 20
-152.24118106003
 30
0.0
 10
104.8668117684881
 20
-152.268741823912
 30
0.0
 10
104.9217610414779
 20
-152.1819254176837
 30
0.0
 10
104.9450154360033
 20
-152.1078558647508
 30
0.0
 10
104.9598293465899
 20
-152.0337863118179
 30
0.0
 10
104.9598293465899
 20
-152.0337863118179
 30
0.0
 10
104.6616563323415
 20
-152.0337863118179
 30
0.0
 10
104.6616563323415
 20
-152.0337863118179
 30
0.0
  0
SPLINE
  5
EF
330
EA
100
AcDbEntity
  8
レイヤー 1
100
AcDbSpline
210
0.0
220
0.0
230
1.0
 70
    11
 71
     3
 72
    20
 73
    16
 74
     0
 42
0.0000000001
 43
0.0000000001
 40
0.0
 40
0.0
 40
0.0
 40
0.0
 40
1.0
 40
1.0
 40
1.0
 40
2.0
 40
2.0
 40
2.0
 40
3.0
 40
3.0
 40
3.0
 40
4.0
 40
4.0
 40
4.0
 40
5.0
 40
5.0
 40
5.0
 40
5.0
 10
104.5980943206387
 20
-151.1835367460583
 30
0.0
 10
104.5980943206387
 20
-151.1835367460583
 30
0.0
 10
104.5663994421744
 20
-151.1835367460583
 30
0.0
 10
104.5663994421744
 20
-151.1835367460583
 30
0.0
 10
104.6129082312252
 20
-151.2827554960334
 30
0.0
 10
104.6446031096895
 20
-151.3630262208398
 30
0.0
 10
104.6785373002192
 20
-151.4901502442455
 30
0.0
 10
104.6785373002192
 20
-151.4901502442455
 30
0.0
 10
104.885759793657
 20
-151.4901502442455
 30
0.0
 10
104.885759793657
 20
-151.4901502442455
 30
0.0
 10
104.9176269268956
 20
-151.3971326661438
 30
0.0
 10
104.940881321421
 20
-151.3123833172066
 30
0.0
 10
104.9641357159464
 20
-151.1835367460583
 30
0.0
 10
104.9641357159464
 20
-151.1835367460583
 30
0.0
 10
104.5980943206387
 20
-151.1835367460583
 30
0.0
 10
104.5980943206387
 20
-151.1835367460583
 30
0.0
  0
SPLINE
  5
F0
330
EA
100
AcDbEntity
  8
レイヤー 1
100
AcDbSpline
210
0.0
220
0.0
230
1.0
 70
     9
 71
     3
 72
   242
 73
   238
 74
     0
 42
0.0000000001
 43
0.0000000001
 40
0.0
 40
0.0
 40
0.0
 40
0.0
 40
1.0
 40
1.0
 40
1.0
 40
2.0
 40
2.0
 40
2.0
 40
3.0
 40
3.0
 40
3.0
 40
4.0
 40
4.0
 40
4.0
 40
5.0
 40
5.0
 40
5.0
 40
6.0
 40
6.0
 40
6.0
 40
7.0
 40
7.0
 40
7.0
 40
8.0
 40
8.0
 40
8.0
 40
9.0
 40
9.0
 40
9.0
 40
10.0
 40
10.0
 40
10.0
 40
11.0
 40
11.0
 40
11.0
 40
12.0
 40
12.0
 40
12.0
 40
13.0
 40
13.0
 40
13.0
 40
14.0
 40
14.0
 40
14.0
 40
15.0
 40
15.0
 40
15.0
 40
16.0
 40
16.0
 40
16.0
 40
17.0
 40
17.0
 40
17.0
 40
18.0
 40
18.0
 40
18.0
 40
19.0
 40
19.0
 40
19.0
 40
20.0
 40
20.0
 40
20.0
 40
21.0
 40
21.0
 40
21.0
 40
22.0
 40
22.0
 40
22.0
 40
23.0
 40
23.0
 40
23.0
 40
24.0
 40
24.0
 40
24.0
 40
25.0
 40
25.0
 40
25.0
 40
26.0
 40
26.0
 40
26.0
 40
27.0
 40
27.0
 40
27.0
 40
28.0
 40
28.0
 40
28.0
 40
29.0
 40
29.0
 40
29.0
 40
30.0
 40
30.0
 40
30.0
 40
31.0
 40
31.0
 40
31.0
 40
32.0
 40
32.0
 40
32.0
 40
33.0
 40
33.0
 40
33.0
 40
34.0
 40
34.0
 40
34.0
 40
35.0
 40
35.0
 40
35.0
 40
36.0
 40
36.0
 40
36.0
 40
37.0
 40
37.0
 40
37.0
 40
38.0
 40
38.0
 40
38.0
 40
39.0
 40
39.0
 40
39.0
 40
40.0
 40
40.0
 40
40.0
 40
41.0
 40
41.0
 40
41.0
 40
42.0
 40
42.0
 40
42.0
 40
43.0
 40
43.0
 40
43.0
 40
44.0
 40
44.0
 40
44.0
 40
45.0
 40
45.0
 40
45.0
 40
46.0
 40
46.0
 40
46.0
 40
47.0
 40
47.0
 40
47.0
 40
48.0
 40
48.0
 40
48.0
 40
49.0
 40
49.0
 40
49.0
 40
50.0
 40
50.0
 40
50.0
 40
51.0
 40
51.0
 40
51.0
 40
52.0
 40
52.0
 40
52.0
 40
53.0
 40
53.0
 40
53.0
 40
54.0
 40
54.0
 40
54.0
 40
55.0
 40
55.0
 40
55.0
 40
56.0
 40
56.0
 40
56.0
 40
57.0
 40
57.0
 40
57.0
 40
58.0
 40
58.0
 40
58.0
 40
59.0
 40
59.0
 40
59.0
 40
60.0
 40
60.0
 40
60.0
 40
61.0
 40
61.0
 40
61.0
 40
62.0
 40
62.0
 40
62.0
 40
63.0
 40
63.0
 40
63.0
 40
64.0
 40
64.0
 40
64.0
 40
65.0
 40
65.0
 40
65.0
 40
66.0
 40
66.0
 40
66.0
 40
67.0
 40
67.0
 40
67.0
 40
68.0
 40
68.0
 40
68.0
 40
69.0
 40
69.0
 40
69.0
 40
70.0
 40
70.0
 40
70.0
 40
71.0
 40
71.0
 40
71.0
 40
72.0
 40
72.0
 40
72.0
 40
73.0
 40
73.0
 40
73.0
 40
74.0
 40
74.0
 40
74.0
 40
75.0
 40
75.0
 40
75.0
 40
76.0
 40
76.0
 40
76.0
 40
77.0
 40
77.0
 40
77.0
 40
78.0
 40
78.0
 40
78.0
 40
79.0
 40
79.0
 40
79.0
 40
79.0
 10
105.2264797371482
 20
-151.648624636567
 30
0.0
 10
105.2264797371482
 20
-151.648624636567
 30
0.0
 10
104.9725761998853
 20
-151.648624636567
 30
0.0
 10
104.9725761998853
 20
-151.648624636567
 30
0.0
 10
104.9725761998853
 20
-151.648624636567
 30
0.0
 10
104.695418268097
 20
-151.648624636567
 30
0.0
 10
104.695418268097
 20
-151.648624636567
 30
0.0
 10
104.695418268097
 20
-151.648624636567
 30
0.0
 10
104.8223700367284
 20
-151.6909993110356
 30
0.0
 10
104.8223700367284
 20
-151.6909993110356
 30
0.0
 10
104.8328775779584
 20
-151.6954779351664
 30
0.0
 10
104.8456244312539
 20
-151.7016791070398
 30
0.0
 10
104.8456244312539
 20
-151.7144259603353
 30
0.0
 10
104.8456244312539
 20
-151.7354410427953
 30
0.0
 10
104.8139295527896
 20
-151.7419867242173
 30
0.0
 10
104.7927422155553
 20
-151.7461208387996
 30
0.0
 10
104.7822346743253
 20
-151.7692029785507
 30
0.0
 10
104.7526068531521
 20
-151.835004302319
 30
0.0
 10
104.733486573209
 20
-151.8794460340787
 30
0.0
 10
104.733486573209
 20
-151.8794460340787
 30
0.0
 10
105.0042710783496
 20
-151.8794460340787
 30
0.0
 10
105.0042710783496
 20
-151.8794460340787
 30
0.0
 10
105.0952215991602
 20
-151.8794460340787
 30
0.0
 10
105.291936551368
 20
-151.8749674099479
 30
0.0
 10
105.433702230586
 20
-151.8666991807833
 30
0.0
 10
105.433702230586
 20
-151.8666991807833
 30
0.0
 10
105.433702230586
 20
-152.0444661078222
 30
0.0
 10
105.433702230586
 20
-152.0444661078222
 30
0.0
 10
105.3511921937143
 20
-152.0399874836914
 30
0.0
 10
105.33000485648
 20
-152.0399874836914
 30
0.0
 10
105.1501708721499
 20
-152.0358533691091
 30
0.0
 10
105.1184759936856
 20
-152.1901936468483
 30
0.0
 10
105.0740342619259
 20
-152.2708088812031
 30
0.0
 10
105.0295925301662
 20
-152.3403998100052
 30
0.0
 10
105.1501708721499
 20
-152.3996554523515
 30
0.0
 10
105.2561075583214
 20
-152.4675238334109
 30
0.0
 10
105.3596326776531
 20
-152.5498616155084
 30
0.0
 10
105.3596326776531
 20
-152.5498616155084
 30
0.0
 10
105.2412936477348
 20
-152.716948746543
 30
0.0
 10
105.2412936477348
 20
-152.716948746543
 30
0.0
 10
105.2180392532094
 20
-152.6980007213741
 30
0.0
 10
105.2052923999139
 20
-152.6897324922095
 30
0.0
 10
105.0931545418691
 20
-152.6049831432723
 30
0.0
 10
105.0444064407528
 20
-152.5667425833861
 30
0.0
 10
104.9853230531807
 20
-152.5309135903395
 30
0.0
 10
104.9048800736001
 20
-152.4864718585798
 30
0.0
 10
104.6933512108058
 20
-152.6728515243318
 30
0.0
 10
104.4880235198849
 20
-152.6959336640829
 30
0.0
 10
104.1982909895754
 20
-152.7255614852561
 30
0.0
 10
104.1982909895754
 20
-152.7255614852561
 30
0.0
 10
104.0945936154694
 20
-152.545727500926
 30
0.0
 10
104.0945936154694
 20
-152.545727500926
 30
0.0
 10
104.4118869096609
 20
-152.5415933863438
 30
0.0
 10
104.5875867794086
 20
-152.5160996797529
 30
0.0
 10
104.7398599998567
 20
-152.4062011337735
 30
0.0
 10
104.6213487151641
 20
-152.3552137205918
 30
0.0
 10
104.5324652516446
 20
-152.3279974662583
 30
0.0
 10
104.4966362585981
 20
-152.3152506129628
 30
0.0
 10
104.4775159786549
 20
-152.3428113768448
 30
0.0
 10
104.4627020680683
 20
-152.3617594020137
 30
0.0
 10
104.4351413041863
 20
-152.3955213377692
 30
0.0
 10
104.4351413041863
 20
-152.3955213377692
 30
0.0
 10
104.2384263519786
 20
-152.3131835556717
 30
0.0
 10
104.2384263519786
 20
-152.3131835556717
 30
0.0
 10
104.3209363888503
 20
-152.2325683213169
 30
0.0
 10
104.3822590884877
 20
-152.1374836859239
 30
0.0
 10
104.4394476735429
 20
-152.0358533691091
 30
0.0
 10
104.2491061479829
 20
-152.0399874836914
 30
0.0
 10
104.2279188107485
 20
-152.0399874836914
 30
0.0
 10
104.1454087738768
 20
-152.0444661078222
 30
0.0
 10
104.1454087738768
 20
-152.0444661078222
 30
0.0
 10
104.1454087738768
 20
-151.8666991807833
 30
0.0
 10
104.1454087738768
 20
-151.8666991807833
 30
0.0
 10
104.2849351410294
 20
-151.8729003526568
 30
0.0
 10
104.4943969465326
 20
-151.8773789767876
 30
0.0
 10
104.5198906531235
 20
-151.8773789767876
 30
0.0
 10
104.5367716210012
 20
-151.8432725314836
 30
0.0
 10
104.5917208939909
 20
-151.7226941894999
 30
0.0
 10
104.6108411739341
 20
-151.648624636567
 30
0.0
 10
104.5917208939909
 20
-151.648624636567
 30
0.0
 10
104.4141262217263
 20
-151.655170317989
 30
0.0
 10
104.2194783268097
 20
-151.6679171712844
 30
0.0
 10
104.2194783268097
 20
-151.6679171712844
 30
0.0
 10
104.2194783268097
 20
-151.8012423665636
 30
0.0
 10
104.2194783268097
 20
-151.8012423665636
 30
0.0
 10
104.1707302256934
 20
-151.8263915636059
 30
0.0
 10
104.1114745833471
 20
-151.8580864420702
 30
0.0
 10
103.9783216428422
 20
-151.9238877658385
 30
0.0
 10
103.9783216428422
 20
-151.9238877658385
 30
0.0
 10
103.9783216428422
 20
-152.0696153048645
 30
0.0
 10
103.9783216428422
 20
-152.0696153048645
 30
0.0
 10
103.9783216428422
 20
-152.0696153048645
 30
0.0
 10
103.9783216428422
 20
-152.5374592717614
 30
0.0
 10
103.9783216428422
 20
-152.5374592717614
 30
0.0
 10
103.9783216428422
 20
-152.6642387856186
 30
0.0
 10
103.9423203950214
 20
-152.723494427965
 30
0.0
 10
103.6587890365853
 20
-152.7148816892518
 30
0.0
 10
103.6587890365853
 20
-152.7148816892518
 30
0.0
 10
103.5550916624793
 20
-152.5078314505883
 30
0.0
 10
103.5550916624793
 20
-152.5078314505883
 30
0.0
 10
103.6186536741821
 20
-152.5202337943352
 30
0.0
 10
103.6672295205242
 20
-152.524712418466
 30
0.0
 10
103.7075371377016
 20
-152.524712418466
 30
0.0
 10
103.7836737479256
 20
-152.524712418466
 30
0.0
 10
103.7941812891556
 20
-152.5012857691663
 30
0.0
 10
103.7941812891556
 20
-152.4358289549466
 30
0.0
 10
103.7941812891556
 20
-152.4358289549466
 30
0.0
 10
103.7941812891556
 20
-152.0062255479359
 30
0.0
 10
103.7941812891556
 20
-152.0062255479359
 30
0.0
 10
103.6968573416973
 20
-152.0465331651134
 30
0.0
 10
103.6799763738196
 20
-152.0527343369868
 30
0.0
 10
103.6334675847687
 20
-152.0720268717042
 30
0.0
 10
103.6291612154121
 20
-152.0930419541642
 30
0.0
 10
103.6250271008298
 20
-152.1226697753374
 30
0.0
 10
103.6059068208867
 20
-152.1226697753374
 30
0.0
 10
103.5974663369478
 20
-152.1226697753374
 30
0.0
 10
103.5869587957178
 20
-152.1185356607551
 30
0.0
 10
103.5805853690701
 20
-152.0951090114554
 30
0.0
 10
103.5805853690701
 20
-152.0951090114554
 30
0.0
 10
103.5277031533715
 20
-151.9025281738299
 30
0.0
 10
103.5277031533715
 20
-151.9025281738299
 30
0.0
 10
103.6736029471719
 20
-151.856019384779
 30
0.0
 10
103.7392320161659
 20
-151.8329372450279
 30
0.0
 10
103.7941812891556
 20
-151.8115776530193
 30
0.0
 10
103.7941812891556
 20
-151.8115776530193
 30
0.0
 10
103.7941812891556
 20
-151.3991997234349
 30
0.0
 10
103.7941812891556
 20
-151.3991997234349
 30
0.0
 10
103.7941812891556
 20
-151.3991997234349
 30
0.0
 10
103.741299073457
 20
-151.3991997234349
 30
0.0
 10
103.741299073457
 20
-151.3991997234349
 30
0.0
 10
103.741299073457
 20
-151.3991997234349
 30
0.0
 10
103.6630954059418
 20
-151.3991997234349
 30
0.0
 10
103.6630954059418
 20
-151.3991997234349
 30
0.0
 10
103.5953992796567
 20
-151.3991997234349
 30
0.0
 10
103.5869587957178
 20
-151.3991997234349
 30
0.0
 10
103.550957547897
 20
-151.4054008953084
 30
0.0
 10
103.550957547897
 20
-151.4054008953084
 30
0.0
 10
103.550957547897
 20
-151.2107530003917
 30
0.0
 10
103.550957547897
 20
-151.2107530003917
 30
0.0
 10
103.578518311779
 20
-151.2172986818137
 30
0.0
 10
103.5869587957178
 20
-151.2172986818137
 30
0.0
 10
103.6567219792941
 20
-151.2172986818137
 30
0.0
 10
103.6567219792941
 20
-151.2172986818137
 30
0.0
 10
103.7900471745733
 20
-151.2172986818137
 30
0.0
 10
103.7900471745733
 20
-151.2172986818137
 30
0.0
 10
103.7900471745733
 20
-151.1473632434631
 30
0.0
 10
103.7900471745733
 20
-151.0650254613657
 30
0.0
 10
103.7878078625079
 20
-151.0605468372349
 30
0.0
 10
103.779367378569
 20
-150.8807128529048
 30
0.0
 10
103.779367378569
 20
-150.8617648277359
 30
0.0
 10
103.7773003212779
 20
-150.8152560386851
 30
0.0
 10
103.7773003212779
 20
-150.8152560386851
 30
0.0
 10
103.9931355534288
 20
-150.8238687773982
 30
0.0
 10
103.9931355534288
 20
-150.8238687773982
 30
0.0
 10
104.0036430946588
 20
-150.8238687773982
 30
0.0
 10
104.0248304318931
 20
-150.8259358346893
 30
0.0
 10
104.0248304318931
 20
-150.8428168025671
 30
0.0
 10
104.0248304318931
 20
-150.8617648277359
 30
0.0
 10
104.0100165213065
 20
-150.8724446237402
 30
0.0
 10
103.9846950694899
 20
-150.8913926489091
 30
0.0
 10
103.9846950694899
 20
-150.9420355525423
 30
0.0
 10
103.9783216428422
 20
-151.1707898927628
 30
0.0
 10
103.9803887001333
 20
-151.2172986818137
 30
0.0
 10
104.109407526056
 20
-151.2172986818137
 30
0.0
 10
104.1221543793514
 20
-151.2172986818137
 30
0.0
 10
104.2194783268097
 20
-151.2086859431006
 30
0.0
 10
104.2194783268097
 20
-151.2086859431006
 30
0.0
 10
104.2194783268097
 20
-151.4033338380172
 30
0.0
 10
104.2194783268097
 20
-151.4033338380172
 30
0.0
 10
104.1814100216977
 20
-151.4012667807261
 30
0.0
 10
104.1137138954125
 20
-151.3971326661438
 30
0.0
 10
103.9783216428422
 20
-151.3991997234349
 30
0.0
 10
103.9783216428422
 20
-151.3991997234349
 30
0.0
 10
103.9783216428422
 20
-151.7375081000865
 30
0.0
 10
103.9783216428422
 20
-151.7375081000865
 30
0.0
 10
104.0332709158319
 20
-151.7144259603353
 30
0.0
 10
104.0988999848259
 20
-151.6868651964533
 30
0.0
 10
104.147475831168
 20
-151.6634385471536
 30
0.0
 10
104.147475831168
 20
-151.6634385471536
 30
0.0
 10
104.147475831168
 20
-151.4860161296632
 30
0.0
 10
104.147475831168
 20
-151.4860161296632
 30
0.0
 10
104.261680746504
 20
-151.4984184734101
 30
0.0
 10
104.3801920311966
 20
-151.4984184734101
 30
0.0
 10
104.4966362585981
 20
-151.4984184734101
 30
0.0
 10
104.4732096092983
 20
-151.4033338380172
 30
0.0
 10
104.4458211001906
 20
-151.3209960559197
 30
0.0
 10
104.3822590884877
 20
-151.1876708606406
 30
0.0
 10
104.337817356728
 20
-151.1897379179317
 30
0.0
 10
104.2554795746306
 20
-151.193872032514
 30
0.0
 10
104.2172390147443
 20
-151.1959390898052
 30
0.0
 10
104.2172390147443
 20
-151.1959390898052
 30
0.0
 10
104.2172390147443
 20
-151.0161051054751
 30
0.0
 10
104.2172390147443
 20
-151.0161051054751
 30
0.0
 10
104.3421237260846
 20
-151.0247178441882
 30
0.0
 10
104.5155842837669
 20
-151.0288519587705
 30
0.0
 10
104.5980943206387
 20
-151.0288519587705
 30
0.0
 10
104.5980943206387
 20
-151.0288519587705
 30
0.0
 10
104.6806043575104
 20
-151.0288519587705
 30
0.0
 10
104.6806043575104
 20
-151.0288519587705
 30
0.0
 10
104.6806043575104
 20
-150.8658989423182
 30
0.0
 10
104.6806043575104
 20
-150.8555636558625
 30
0.0
 10
104.6785373002192
 20
-150.8004421280985
 30
0.0
 10
104.6785373002192
 20
-150.8004421280985
 30
0.0
 10
104.902813016309
 20
-150.8259358346893
 30
0.0
 10
104.902813016309
 20
-150.8259358346893
 30
0.0
 10
104.9069471308913
 20
-150.8259358346893
 30
0.0
 10
104.9281344681256
 20
-150.8280028919805
 30
0.0
 10
104.9281344681256
 20
-150.8448838598582
 30
0.0
 10
104.9281344681256
 20
-150.8596977704448
 30
0.0
 10
104.9176269268956
 20
-150.8683105091579
 30
0.0
 10
104.8900661630136
 20
-150.8831244197445
 30
0.0
 10
104.8836927363659
 20
-150.9485812339642
 30
0.0
 10
104.8816256790747
 20
-150.9695963164243
 30
0.0
 10
104.8816256790747
 20
-151.0288519587705
 30
0.0
 10
104.8816256790747
 20
-151.0288519587705
 30
0.0
 10
104.9767103144676
 20
-151.0288519587705
 30
0.0
 10
104.9767103144676
 20
-151.0288519587705
 30
0.0
 10
105.0592203513393
 20
-151.0288519587705
 30
0.0
 10
105.2326809090217
 20
-151.0247178441882
 30
0.0
 10
105.357565620362
 20
-151.0161051054751
 30
0.0
 10
105.357565620362
 20
-151.0161051054751
 30
0.0
 10
105.357565620362
 20
-151.1959390898052
 30
0.0
 10
105.357565620362
 20
-151.1959390898052
 30
0.0
 10
105.3279377991888
 20
-151.193872032514
 30
0.0
 10
105.2094265144962
 20
-151.1897379179317
 30
0.0
 10
105.1692911520931
 20
-151.1876708606406
 30
0.0
 10
105.1544772415065
 20
-151.2383137642737
 30
0.0
 10
105.1207153057511
 20
-151.3506238770929
 30
0.0
 10
105.055086236757
 20
-151.4901502442455
 30
0.0
 10
105.0972886564514
 20
-151.4901502442455
 30
0.0
 10
105.3744465882397
 20
-151.4712022190766
 30
0.0
 10
105.4357692878772
 20
-151.4687906522369
 30
0.0
 10
105.4357692878772
 20
-151.4687906522369
 30
0.0
 10
105.4357692878772
 20
-151.6531032606978
 30
0.0
 10
105.4357692878772
 20
-151.6531032606978
 30
0.0
 10
105.4063137214783
 20
-151.6531032606978
 30
0.0
 10
105.3892604988263
 20
-151.648624636567
 30
0.0
 10
105.2264797371482
 20
-151.648624636567
 30
0.0
  0
HATCH
  5
F1
330
EA
100
AcDbEntity
  8
レイヤー 1
 62
    18
420
        0
440
 33554687
100
AcDbHatch
 10
0.0
 20
0.0
 30
0.0
210
0.0
220
0.0
230
1.0
  2
SOLID
 70
     1
 71
     1
 91
        3
 92
        1
 93
        1
 72
     4
 94
        3
 73
     0
 74
     0
 95
       17
 96
       13
 40
0.0
 40
0.0
 40
0.0
 40
0.0
 40
1.0
 40
1.0
 40
1.0
 40
2.0
 40
2.0
 40
2.0
 40
3.0
 40
3.0
 40
3.0
 40
4.0
 40
4.0
 40
4.0
 40
4.0
 10
104.6616563323415
 20
-152.0337863118179
 10
104.6446031096895
 20
-152.0634141329911
 10
104.5939602060564
 20
-152.1564317110928
 10
104.5832804100521
 20
-152.1753797362617
 10
104.7736219356121
 20
-152.234635378608
 10
104.7948092728464
 20
-152.24118106003
 10
104.8668117684881
 20
-152.268741823912
 10
104.9217610414779
 20
-152.1819254176837
 10
104.9450154360033
 20
-152.1078558647508
 10
104.9598293465899
 20
-152.0337863118179
 10
104.9598293465899
 20
-152.0337863118179
 10
104.6616563323415
 20
-152.0337863118179
 10
104.6616563323415
 20
-152.0337863118179
 97
        0
 97
        1
330
EE
 92
        1
 93
        1
 72
     4
 94
        3
 73
     0
 74
     0
 95
       20
 96
       16
 40
0.0
 40
0.0
 40
0.0
 40
0.0
 40
1.0
 40
1.0
 40
1.0
 40
2.0
 40
2.0
 40
2.0
 40
3.0
 40
3.0
 40
3.0
 40
4.0
 40
4.0
 40
4.0
 40
5.0
 40
5.0
 40
5.0
 40
5.0
 10
104.5980943206387
 20
-151.1835367460583
 10
104.5980943206387
 20
-151.1835367460583
 10
104.5663994421744
 20
-151.1835367460583
 10
104.5663994421744
 20
-151.1835367460583
 10
104.6129082312252
 20
-151.2827554960334
 10
104.6446031096895
 20
-151.3630262208398
 10
104.6785373002192
 20
-151.4901502442455
 10
104.6785373002192
 20
-151.4901502442455
 10
104.885759793657
 20
-151.4901502442455
 10
104.885759793657
 20
-151.4901502442455
 10
104.9176269268956
 20
-151.3971326661438
 10
104.940881321421
 20
-151.3123833172066
 10
104.9641357159464
 20
-151.1835367460583
 10
104.9641357159464
 20
-151.1835367460583
 10
104.5980943206387
 20
-151.1835367460583
 10
104.5980943206387
 20
-151.1835367460583
 97
        0
 97
        1
330
EF
 92
        1
 93
        1
 72
     4
 94
        3
 73
     0
 74
     0
 95
      242
 96
      238
 40
0.0
 40
0.0
 40
0.0
 40
0.0
 40
1.0
 40
1.0
 40
1.0
 40
2.0
 40
2.0
 40
2.0
 40
3.0
 40
3.0
 40
3.0
 40
4.0
 40
4.0
 40
4.0
 40
5.0
 40
5.0
 40
5.0
 40
6.0
 40
6.0
 40
6.0
 40
7.0
 40
7.0
 40
7.0
 40
8.0
 40
8.0
 40
8.0
 40
9.0
 40
9.0
 40
9.0
 40
10.0
 40
10.0
 40
10.0
 40
11.0
 40
11.0
 40
11.0
 40
12.0
 40
12.0
 40
12.0
 40
13.0
 40
13.0
 40
13.0
 40
14.0
 40
14.0
 40
14.0
 40
15.0
 40
15.0
 40
15.0
 40
16.0
 40
16.0
 40
16.0
 40
17.0
 40
17.0
 40
17.0
 40
18.0
 40
18.0
 40
18.0
 40
19.0
 40
19.0
 40
19.0
 40
20.0
 40
20.0
 40
20.0
 40
21.0
 40
21.0
 40
21.0
 40
22.0
 40
22.0
 40
22.0
 40
23.0
 40
23.0
 40
23.0
 40
24.0
 40
24.0
 40
24.0
 40
25.0
 40
25.0
 40
25.0
 40
26.0
 40
26.0
 40
26.0
 40
27.0
 40
27.0
 40
27.0
 40
28.0
 40
28.0
 40
28.0
 40
29.0
 40
29.0
 40
29.0
 40
30.0
 40
30.0
 40
30.0
 40
31.0
 40
31.0
 40
31.0
 40
32.0
 40
32.0
 40
32.0
 40
33.0
 40
33.0
 40
33.0
 40
34.0
 40
34.0
 40
34.0
 40
35.0
 40
35.0
 40
35.0
 40
36.0
 40
36.0
 40
36.0
 40
37.0
 40
37.0
 40
37.0
 40
38.0
 40
38.0
 40
38.0
 40
39.0
 40
39.0
 40
39.0
 40
40.0
 40
40.0
 40
40.0
 40
41.0
 40
41.0
 40
41.0
 40
42.0
 40
42.0
 40
42.0
 40
43.0
 40
43.0
 40
43.0
 40
44.0
 40
44.0
 40
44.0
 40
45.0
 40
45.0
 40
45.0
 40
46.0
 40
46.0
 40
46.0
 40
47.0
 40
47.0
 40
47.0
 40
48.0
 40
48.0
 40
48.0
 40
49.0
 40
49.0
 40
49.0
 40
50.0
 40
50.0
 40
50.0
 40
51.0
 40
51.0
 40
51.0
 40
52.0
 40
52.0
 40
52.0
 40
53.0
 40
53.0
 40
53.0
 40
54.0
 40
54.0
 40
54.0
 40
55.0
 40
55.0
 40
55.0
 40
56.0
 40
56.0
 40
56.0
 40
57.0
 40
57.0
 40
57.0
 40
58.0
 40
58.0
 40
58.0
 40
59.0
 40
59.0
 40
59.0
 40
60.0
 40
60.0
 40
60.0
 40
61.0
 40
61.0
 40
61.0
 40
62.0
 40
62.0
 40
62.0
 40
63.0
 40
63.0
 40
63.0
 40
64.0
 40
64.0
 40
64.0
 40
65.0
 40
65.0
 40
65.0
 40
66.0
 40
66.0
 40
66.0
 40
67.0
 40
67.0
 40
67.0
 40
68.0
 40
68.0
 40
68.0
 40
69.0
 40
69.0
 40
69.0
 40
70.0
 40
70.0
 40
70.0
 40
71.0
 40
71.0
 40
71.0
 40
72.0
 40
72.0
 40
72.0
 40
73.0
 40
73.0
 40
73.0
 40
74.0
 40
74.0
 40
74.0
 40
75.0
 40
75.0
 40
75.0
 40
76.0
 40
76.0
 40
76.0
 40
77.0
 40
77.0
 40
77.0
 40
78.0
 40
78.0
 40
78.0
 40
79.0
 40
79.0
 40
79.0
 40
79.0
 10
105.2264797371482
 20
-151.648624636567
 10
105.2264797371482
 20
-151.648624636567
 10
104.9725761998853
 20
-151.648624636567
 10
104.9725761998853
 20
-151.648624636567
 10
104.9725761998853
 20
-151.648624636567
 10
104.695418268097
 20
-151.648624636567
 10
104.695418268097
 20
-151.648624636567
 10
104.695418268097
 20
-151.648624636567
 10
104.8223700367284
 20
-151.6909993110356
 10
104.8223700367284
 20
-151.6909993110356
 10
104.8328775779584
 20
-151.6954779351664
 10
104.8456244312539
 20
-151.7016791070398
 10
104.8456244312539
 20
-151.7144259603353
 10
104.8456244312539
 20
-151.7354410427953
 10
104.8139295527896
 20
-151.7419867242173
 10
104.7927422155553
 20
-151.7461208387996
 10
104.7822346743253
 20
-151.7692029785507
 10
104.7526068531521
 20
-151.835004302319
 10
104.733486573209
 20
-151.8794460340787
 10
104.733486573209
 20
-151.8794460340787
 10
105.0042710783496
 20
-151.8794460340787
 10
105.0042710783496
 20
-151.8794460340787
 10
105.0952215991602
 20
-151.8794460340787
 10
105.291936551368
 20
-151.8749674099479
 10
105.433702230586
 20
-151.8666991807833
 10
105.433702230586
 20
-151.8666991807833
 10
105.433702230586
 20
-152.0444661078222
 10
105.433702230586
 20
-152.0444661078222
 10
105.3511921937143
 20
-152.0399874836914
 10
105.33000485648
 20
-152.0399874836914
 10
105.1501708721499
 20
-152.0358533691091
 10
105.1184759936856
 20
-152.1901936468483
 10
105.0740342619259
 20
-152.2708088812031
 10
105.0295925301662
 20
-152.3403998100052
 10
105.1501708721499
 20
-152.3996554523515
 10
105.2561075583214
 20
-152.4675238334109
 10
105.3596326776531
 20
-152.5498616155084
 10
105.3596326776531
 20
-152.5498616155084
 10
105.2412936477348
 20
-152.716948746543
 10
105.2412936477348
 20
-152.716948746543
 10
105.2180392532094
 20
-152.6980007213741
 10
105.2052923999139
 20
-152.6897324922095
 10
105.0931545418691
 20
-152.6049831432723
 10
105.0444064407528
 20
-152.5667425833861
 10
104.9853230531807
 20
-152.5309135903395
 10
104.9048800736001
 20
-152.4864718585798
 10
104.6933512108058
 20
-152.6728515243318
 10
104.4880235198849
 20
-152.6959336640829
 10
104.1982909895754
 20
-152.7255614852561
 10
104.1982909895754
 20
-152.7255614852561
 10
104.0945936154694
 20
-152.545727500926
 10
104.0945936154694
 20
-152.545727500926
 10
104.4118869096609
 20
-152.5415933863438
 10
104.5875867794086
 20
-152.5160996797529
 10
104.7398599998567
 20
-152.4062011337735
 10
104.6213487151641
 20
-152.3552137205918
 10
104.5324652516446
 20
-152.3279974662583
 10
104.4966362585981
 20
-152.3152506129628
 10
104.4775159786549
 20
-152.3428113768448
 10
104.4627020680683
 20
-152.3617594020137
 10
104.4351413041863
 20
-152.3955213377692
 10
104.4351413041863
 20
-152.3955213377692
 10
104.2384263519786
 20
-152.3131835556717
 10
104.2384263519786
 20
-152.3131835556717
 10
104.3209363888503
 20
-152.2325683213169
 10
104.3822590884877
 20
-152.1374836859239
 10
104.4394476735429
 20
-152.0358533691091
 10
104.2491061479829
 20
-152.0399874836914
 10
104.2279188107485
 20
-152.0399874836914
 10
104.1454087738768
 20
-152.0444661078222
 10
104.1454087738768
 20
-152.0444661078222
 10
104.1454087738768
 20
-151.8666991807833
 10
104.1454087738768
 20
-151.8666991807833
 10
104.2849351410294
 20
-151.8729003526568
 10
104.4943969465326
 20
-151.8773789767876
 10
104.5198906531235
 20
-151.8773789767876
 10
104.5367716210012
 20
-151.8432725314836
 10
104.5917208939909
 20
-151.7226941894999
 10
104.6108411739341
 20
-151.648624636567
 10
104.5917208939909
 20
-151.648624636567
 10
104.4141262217263
 20
-151.655170317989
 10
104.2194783268097
 20
-151.6679171712844
 10
104.2194783268097
 20
-151.6679171712844
 10
104.2194783268097
 20
-151.8012423665636
 10
104.2194783268097
 20
-151.8012423665636
 10
104.1707302256934
 20
-151.8263915636059
 10
104.1114745833471
 20
-151.8580864420702
 10
103.9783216428422
 20
-151.9238877658385
 10
103.9783216428422
 20
-151.9238877658385
 10
103.9783216428422
 20
-152.0696153048645
 10
103.9783216428422
 20
-152.0696153048645
 10
103.9783216428422
 20
-152.0696153048645
 10
103.9783216428422
 20
-152.5374592717614
 10
103.9783216428422
 20
-152.5374592717614
 10
103.9783216428422
 20
-152.6642387856186
 10
103.9423203950214
 20
-152.723494427965
 10
103.6587890365853
 20
-152.7148816892518
 10
103.6587890365853
 20
-152.7148816892518
 10
103.5550916624793
 20
-152.5078314505883
 10
103.5550916624793
 20
-152.5078314505883
 10
103.6186536741821
 20
-152.5202337943352
 10
103.6672295205242
 20
-152.524712418466
 10
103.7075371377016
 20
-152.524712418466
 10
103.7836737479256
 20
-152.524712418466
 10
103.7941812891556
 20
-152.5012857691663
 10
103.7941812891556
 20
-152.4358289549466
 10
103.7941812891556
 20
-152.4358289549466
 10
103.7941812891556
 20
-152.0062255479359
 10
103.7941812891556
 20
-152.0062255479359
 10
103.6968573416973
 20
-152.0465331651134
 10
103.6799763738196
 20
-152.0527343369868
 10
103.6334675847687
 20
-152.0720268717042
 10
103.6291612154121
 20
-152.0930419541642
 10
103.6250271008298
 20
-152.1226697753374
 10
103.6059068208867
 20
-152.1226697753374
 10
103.5974663369478
 20
-152.1226697753374
 10
103.5869587957178
 20
-152.1185356607551
 10
103.5805853690701
 20
-152.0951090114554
 10
103.5805853690701
 20
-152.0951090114554
 10
103.5277031533715
 20
-151.9025281738299
 10
103.5277031533715
 20
-151.9025281738299
 10
103.6736029471719
 20
-151.856019384779
 10
103.7392320161659
 20
-151.8329372450279
 10
103.7941812891556
 20
-151.8115776530193
 10
103.7941812891556
 20
-151.8115776530193
 10
103.7941812891556
 20
-151.3991997234349
 10
103.7941812891556
 20
-151.3991997234349
 10
103.7941812891556
 20
-151.3991997234349
 10
103.741299073457
 20
-151.3991997234349
 10
103.741299073457
 20
-151.3991997234349
 10
103.741299073457
 20
-151.3991997234349
 10
103.6630954059418
 20
-151.3991997234349
 10
103.6630954059418
 20
-151.3991997234349
 10
103.5953992796567
 20
-151.3991997234349
 10
103.5869587957178
 20
-151.3991997234349
 10
103.550957547897
 20
-151.4054008953084
 10
103.550957547897
 20
-151.4054008953084
 10
103.550957547897
 20
-151.2107530003917
 10
103.550957547897
 20
-151.2107530003917
 10
103.578518311779
 20
-151.2172986818137
 10
103.5869587957178
 20
-151.2172986818137
 10
103.6567219792941
 20
-151.2172986818137
 10
103.6567219792941
 20
-151.2172986818137
 10
103.7900471745733
 20
-151.2172986818137
 10
103.7900471745733
 20
-151.2172986818137
 10
103.7900471745733
 20
-151.1473632434631
 10
103.7900471745733
 20
-151.0650254613657
 10
103.7878078625079
 20
-151.0605468372349
 10
103.779367378569
 20
-150.8807128529048
 10
103.779367378569
 20
-150.8617648277359
 10
103.7773003212779
 20
-150.8152560386851
 10
103.7773003212779
 20
-150.8152560386851
 10
103.9931355534288
 20
-150.8238687773982
 10
103.9931355534288
 20
-150.8238687773982
 10
104.0036430946588
 20
-150.8238687773982
 10
104.0248304318931
 20
-150.8259358346893
 10
104.0248304318931
 20
-150.8428168025671
 10
104.0248304318931
 20
-150.8617648277359
 10
104.0100165213065
 20
-150.8724446237402
 10
103.9846950694899
 20
-150.8913926489091
 10
103.9846950694899
 20
-150.9420355525423
 10
103.9783216428422
 20
-151.1707898927628
 10
103.9803887001333
 20
-151.2172986818137
 10
104.109407526056
 20
-151.2172986818137
 10
104.1221543793514
 20
-151.2172986818137
 10
104.2194783268097
 20
-151.2086859431006
 10
104.2194783268097
 20
-151.2086859431006
 10
104.2194783268097
 20
-151.4033338380172
 10
104.2194783268097
 20
-151.4033338380172
 10
104.1814100216977
 20
-151.4012667807261
 10
104.1137138954125
 20
-151.3971326661438
 10
103.9783216428422
 20
-151.3991997234349
 10
103.9783216428422
 20
-151.3991997234349
 10
103.9783216428422
 20
-151.7375081000865
 10
103.9783216428422
 20
-151.7375081000865
 10
104.0332709158319
 20
-151.7144259603353
 10
104.0988999848259
 20
-151.6868651964533
 10
104.147475831168
 20
-151.6634385471536
 10
104.147475831168
 20
-151.6634385471536
 10
104.147475831168
 20
-151.4860161296632
 10
104.147475831168
 20
-151.4860161296632
 10
104.261680746504
 20
-151.4984184734101
 10
104.3801920311966
 20
-151.4984184734101
 10
104.4966362585981
 20
-151.4984184734101
 10
104.4732096092983
 20
-151.4033338380172
 10
104.4458211001906
 20
-151.3209960559197
 10
104.3822590884877
 20
-151.1876708606406
 10
104.337817356728
 20
-151.1897379179317
 10
104.2554795746306
 20
-151.193872032514
 10
104.2172390147443
 20
-151.1959390898052
 10
104.2172390147443
 20
-151.1959390898052
 10
104.2172390147443
 20
-151.0161051054751
 10
104.2172390147443
 20
-151.0161051054751
 10
104.3421237260846
 20
-151.0247178441882
 10
104.5155842837669
 20
-151.0288519587705
 10
104.5980943206387
 20
-151.0288519587705
 10
104.5980943206387
 20
-151.0288519587705
 10
104.6806043575104
 20
-151.0288519587705
 10
104.6806043575104
 20
-151.0288519587705
 10
104.6806043575104
 20
-150.8658989423182
 10
104.6806043575104
 20
-150.8555636558625
 10
104.6785373002192
 20
-150.8004421280985
 10
104.6785373002192
 20
-150.8004421280985
 10
104.902813016309
 20
-150.8259358346893
 10
104.902813016309
 20
-150.8259358346893
 10
104.9069471308913
 20
-150.8259358346893
 10
104.9281344681256
 20
-150.8280028919805
 10
104.9281344681256
 20
-150.8448838598582
 10
104.9281344681256
 20
-150.8596977704448
 10
104.9176269268956
 20
-150.8683105091579
 10
104.8900661630136
 20
-150.8831244197445
 10
104.8836927363659
 20
-150.9485812339642
 10
104.8816256790747
 20
-150.9695963164243
 10
104.8816256790747
 20
-151.0288519587705
 10
104.8816256790747
 20
-151.0288519587705
 10
104.9767103144676
 20
-151.0288519587705
 10
104.9767103144676
 20
-151.0288519587705
 10
105.0592203513393
 20
-151.0288519587705
 10
105.2326809090217
 20
-151.0247178441882
 10
105.357565620362
 20
-151.0161051054751
 10
105.357565620362
 20
-151.0161051054751
 10
105.357565620362
 20
-151.1959390898052
 10
105.357565620362
 20
-151.1959390898052
 10
105.3279377991888
 20
-151.193872032514
 10
105.2094265144962
 20
-151.1897379179317
 10
105.1692911520931
 20
-151.1876708606406
 10
105.1544772415065
 20
-151.2383137642737
 10
105.1207153057511
 20
-151.3506238770929
 10
105.055086236757
 20
-151.4901502442455
 10
105.0972886564514
 20
-151.4901502442455
 10
105.3744465882397
 20
-151.4712022190766
 10
105.4357692878772
 20
-151.4687906522369
 10
105.4357692878772
 20
-151.4687906522369
 10
105.4357692878772
 20
-151.6531032606978
 10
105.4357692878772
 20
-151.6531032606978
 10
105.4063137214783
 20
-151.6531032606978
 10
105.3892604988263
 20
-151.648624636567
 10
105.2264797371482
 20
-151.648624636567
 97
        0
 97
        1
330
F0
 75
     2
 76
     1
 98
        1
 10
0.0
 20
0.0
450
        0
451
        0
460
0.0
461
0.0
452
        0
462
0.0
453
        0
470

  0
SPLINE
  5
F2
330
EA
100
AcDbEntity
  8
レイヤー 1
100
AcDbSpline
210
0.0
220
0.0
230
1.0
 70
    11
 71
     3
 72
    17
 73
    13
 74
     0
 42
0.0000000001
 43
0.0000000001
 40
0.0
 40
0.0
 40
0.0
 40
0.0
 40
1.0
 40
1.0
 40
1.0
 40
2.0
 40
2.0
 40
2.0
 40
3.0
 40
3.0
 40
3.0
 40
4.0
 40
4.0
 40
4.0
 40
4.0
 10
107.0828694393751
 20
-152.448575808242
 30
0.0
 10
107.0828694393751
 20
-152.448575808242
 30
0.0
 10
106.3762803553504
 20
-152.448575808242
 30
0.0
 10
106.3762803553504
 20
-152.448575808242
 30
0.0
 10
106.3762803553504
 20
-152.448575808242
 30
0.0
 10
106.3762803553504
 20
-152.5626084688038
 30
0.0
 10
106.3762803553504
 20
-152.5626084688038
 30
0.0
 10
106.3762803553504
 20
-152.5626084688038
 30
0.0
 10
107.0828694393751
 20
-152.5626084688038
 30
0.0
 10
107.0828694393751
 20
-152.5626084688038
 30
0.0
 10
107.0828694393751
 20
-152.5626084688038
 30
0.0
 10
107.0828694393751
 20
-152.448575808242
 30
0.0
 10
107.0828694393751
 20
-152.448575808242
 30
0.0
  0
SPLINE
  5
F3
330
EA
100
AcDbEntity
  8
レイヤー 1
100
AcDbSpline
210
0.0
220
0.0
230
1.0
 70
    11
 71
     3
 72
    17
 73
    13
 74
     0
 42
0.0000000001
 43
0.0000000001
 40
0.0
 40
0.0
 40
0.0
 40
0.0
 40
1.0
 40
1.0
 40
1.0
 40
2.0
 40
2.0
 40
2.0
 40
3.0
 40
3.0
 40
3.0
 40
4.0
 40
4.0
 40
4.0
 40
4.0
 10
107.0828694393751
 20
-152.2050075574348
 30
0.0
 10
107.0828694393751
 20
-152.2050075574348
 30
0.0
 10
106.3762803553504
 20
-152.2050075574348
 30
0.0
 10
106.3762803553504
 20
-152.2050075574348
 30
0.0
 10
106.3762803553504
 20
-152.2050075574348
 30
0.0
 10
106.3762803553504
 20
-152.3193847275451
 30
0.0
 10
106.3762803553504
 20
-152.3193847275451
 30
0.0
 10
106.3762803553504
 20
-152.3193847275451
 30
0.0
 10
107.0828694393751
 20
-152.3193847275451
 30
0.0
 10
107.0828694393751
 20
-152.3193847275451
 30
0.0
 10
107.0828694393751
 20
-152.3193847275451
 30
0.0
 10
107.0828694393751
 20
-152.2050075574348
 30
0.0
 10
107.0828694393751
 20
-152.2050075574348
 30
0.0
  0
SPLINE
  5
F4
330
EA
100
AcDbEntity
  8
レイヤー 1
100
AcDbSpline
210
0.0
220
0.0
230
1.0
 70
    11
 71
     3
 72
    17
 73
    13
 74
     0
 42
0.0000000001
 43
0.0000000001
 40
0.0
 40
0.0
 40
0.0
 40
0.0
 40
1.0
 40
1.0
 40
1.0
 40
2.0
 40
2.0
 40
2.0
 40
3.0
 40
3.0
 40
3.0
 40
4.0
 40
4.0
 40
4.0
 40
4.0
 10
107.0828694393751
 20
-151.9724636121805
 30
0.0
 10
107.0828694393751
 20
-151.9724636121805
 30
0.0
 10
106.3762803553504
 20
-151.9724636121805
 30
0.0
 10
106.3762803553504
 20
-151.9724636121805
 30
0.0
 10
106.3762803553504
 20
-151.9724636121805
 30
0.0
 10
106.3762803553504
 20
-152.0802951008688
 30
0.0
 10
106.3762803553504
 20
-152.0802951008688
 30
0.0
 10
106.3762803553504
 20
-152.0802951008688
 30
0.0
 10
107.0828694393751
 20
-152.0802951008688
 30
0.0
 10
107.0828694393751
 20
-152.0802951008688
 30
0.0
 10
107.0828694393751
 20
-152.0802951008688
 30
0.0
 10
107.0828694393751
 20
-151.9724636121805
 30
0.0
 10
107.0828694393751
 20
-151.9724636121805
 30
0.0
  0
SPLINE
  5
F5
330
EA
100
AcDbEntity
  8
レイヤー 1
100
AcDbSpline
210
0.0
220
0.0
230
1.0
 70
     9
 71
     3
 72
   203
 73
   199
 74
     0
 42
0.0000000001
 43
0.0000000001
 40
0.0
 40
0.0
 40
0.0
 40
0.0
 40
1.0
 40
1.0
 40
1.0
 40
2.0
 40
2.0
 40
2.0
 40
3.0
 40
3.0
 40
3.0
 40
4.0
 40
4.0
 40
4.0
 40
5.0
 40
5.0
 40
5.0
 40
6.0
 40
6.0
 40
6.0
 40
7.0
 40
7.0
 40
7.0
 40
8.0
 40
8.0
 40
8.0
 40
9.0
 40
9.0
 40
9.0
 40
10.0
 40
10.0
 40
10.0
 40
11.0
 40
11.0
 40
11.0
 40
12.0
 40
12.0
 40
12.0
 40
13.0
 40
13.0
 40
13.0
 40
14.0
 40
14.0
 40
14.0
 40
15.0
 40
15.0
 40
15.0
 40
16.0
 40
16.0
 40
16.0
 40
17.0
 40
17.0
 40
17.0
 40
18.0
 40
18.0
 40
18.0
 40
19.0
 40
19.0
 40
19.0
 40
20.0
 40
20.0
 40
20.0
 40
21.0
 40
21.0
 40
21.0
 40
22.0
 40
22.0
 40
22.0
 40
23.0
 40
23.0
 40
23.0
 40
24.0
 40
24.0
 40
24.0
 40
25.0
 40
25.0
 40
25.0
 40
26.0
 40
26.0
 40
26.0
 40
27.0
 40
27.0
 40
27.0
 40
28.0
 40
28.0
 40
28.0
 40
29.0
 40
29.0
 40
29.0
 40
30.0
 40
30.0
 40
30.0
 40
31.0
 40
31.0
 40
31.0
 40
32.0
 40
32.0
 40
32.0
 40
33.0
 40
33.0
 40
33.0
 40
34.0
 40
34.0
 40
34.0
 40
35.0
 40
35.0
 40
35.0
 40
36.0
 40
36.0
 40
36.0
 40
37.0
 40
37.0
 40
37.0
 40
38.0
 40
38.0
 40
38.0
 40
39.0
 40
39.0
 40
39.0
 40
40.0
 40
40.0
 40
40.0
 40
41.0
 40
41.0
 40
41.0
 40
42.0
 40
42.0
 40
42.0
 40
43.0
 40
43.0
 40
43.0
 40
44.0
 40
44.0
 40
44.0
 40
45.0
 40
45.0
 40
45.0
 40
46.0
 40
46.0
 40
46.0
 40
47.0
 40
47.0
 40
47.0
 40
48.0
 40
48.0
 40
48.0
 40
49.0
 40
49.0
 40
49.0
 40
50.0
 40
50.0
 40
50.0
 40
51.0
 40
51.0
 40
51.0
 40
52.0
 40
52.0
 40
52.0
 40
53.0
 40
53.0
 40
53.0
 40
54.0
 40
54.0
 40
54.0
 40
55.0
 40
55.0
 40
55.0
 40
56.0
 40
56.0
 40
56.0
 40
57.0
 40
57.0
 40
57.0
 40
58.0
 40
58.0
 40
58.0
 40
59.0
 40
59.0
 40
59.0
 40
60.0
 40
60.0
 40
60.0
 40
61.0
 40
61.0
 40
61.0
 40
62.0
 40
62.0
 40
62.0
 40
63.0
 40
63.0
 40
63.0
 40
64.0
 40
64.0
 40
64.0
 40
65.0
 40
65.0
 40
65.0
 40
66.0
 40
66.0
 40
66.0
 40
66.0
 10
106.9178493656316
 20
-151.7164930176264
 30
0.0
 10
106.9178493656316
 20
-151.7164930176264
 30
0.0
 10
106.3593993874726
 20
-151.7164930176264
 30
0.0
 10
106.3593993874726
 20
-151.7164930176264
 30
0.0
 10
106.3487195914684
 20
-151.7609347493861
 30
0.0
 10
106.3401068527552
 20
-151.7926296278504
 30
0.0
 10
106.3277045090083
 20
-151.8308701877367
 30
0.0
 10
106.3528537060506
 20
-151.8308701877367
 30
0.0
 10
106.3676676166372
 20
-151.8329372450279
 30
0.0
 10
106.3742132980592
 20
-151.8329372450279
 30
0.0
 10
106.3742132980592
 20
-151.8329372450279
 30
0.0
 10
106.5623155115539
 20
-151.8329372450279
 30
0.0
 10
106.5623155115539
 20
-151.8329372450279
 30
0.0
 10
106.5623155115539
 20
-151.8329372450279
 30
0.0
 10
106.9367973908005
 20
-151.8329372450279
 30
0.0
 10
106.9367973908005
 20
-151.8329372450279
 30
0.0
 10
106.9874402944337
 20
-151.8329372450279
 30
0.0
 10
107.2709716528697
 20
-151.8201903917324
 30
0.0
 10
107.302666531334
 20
-151.8201903917324
 30
0.0
 10
107.3005994740429
 20
-151.8477511556144
 30
0.0
 10
107.2985324167517
 20
-151.8666991807833
 30
0.0
 10
107.2985324167517
 20
-151.8963270019565
 30
0.0
 10
107.2964653594606
 20
-151.9280218804208
 30
0.0
 10
107.2964653594606
 20
-152.0634141329911
 30
0.0
 10
107.2964653594606
 20
-152.0909748968731
 30
0.0
 10
107.2964653594606
 20
-152.0909748968731
 30
0.0
 10
107.2964653594606
 20
-152.3362656954229
 30
0.0
 10
107.2964653594606
 20
-152.3362656954229
 30
0.0
 10
107.2964653594606
 20
-152.3807074271826
 30
0.0
 10
107.3005994740429
 20
-152.5774223793904
 30
0.0
 10
107.3050780981737
 20
-152.7296955998384
 30
0.0
 10
107.3050780981737
 20
-152.7296955998384
 30
0.0
 10
107.0783908152443
 20
-152.7296955998384
 30
0.0
 10
107.0783908152443
 20
-152.7296955998384
 30
0.0
 10
107.0783908152443
 20
-152.7296955998384
 30
0.0
 10
107.0808023820839
 20
-152.6959336640829
 30
0.0
 10
107.0808023820839
 20
-152.6959336640829
 30
0.0
 10
107.0808023820839
 20
-152.6959336640829
 30
0.0
 10
106.3783474126415
 20
-152.6959336640829
 30
0.0
 10
106.3783474126415
 20
-152.6959336640829
 30
0.0
 10
106.3783474126415
 20
-152.6959336640829
 30
0.0
 10
106.3804144699326
 20
-152.7296955998384
 30
0.0
 10
106.3804144699326
 20
-152.7296955998384
 30
0.0
 10
106.3804144699326
 20
-152.7296955998384
 30
0.0
 10
106.1626844352649
 20
-152.7296955998384
 30
0.0
 10
106.1626844352649
 20
-152.7296955998384
 30
0.0
 10
106.1668185498472
 20
-152.6749185816229
 30
0.0
 10
106.1668185498472
 20
-152.6621717283275
 30
0.0
 10
106.1730197217206
 20
-152.5477945582172
 30
0.0
 10
106.1750867790118
 20
-152.5202337943352
 30
0.0
 10
106.1774983458514
 20
-152.3872531086046
 30
0.0
 10
106.1774983458514
 20
-152.3679605738872
 30
0.0
 10
106.1774983458514
 20
-152.3679605738872
 30
0.0
 10
106.1774983458514
 20
-152.165044449806
 30
0.0
 10
106.1774983458514
 20
-152.165044449806
 30
0.0
 10
106.0376274691503
 20
-152.4144693629381
 30
0.0
 10
105.8684732808245
 20
-152.545727500926
 30
0.0
 10
105.7627088494274
 20
-152.6111843151458
 30
0.0
 10
105.7627088494274
 20
-152.6111843151458
 30
0.0
 10
105.5890760369708
 20
-152.4716579479932
 30
0.0
 10
105.5890760369708
 20
-152.4716579479932
 30
0.0
 10
105.6779595004902
 20
-152.42101504436
 30
0.0
 10
105.8219644917737
 20
-152.3341986381317
 30
0.0
 10
105.9594238016351
 20
-152.1395507432151
 30
0.0
 10
106.0503743224457
 20
-152.0127712293579
 30
0.0
 10
106.116175646214
 20
-151.8687662380744
 30
0.0
 10
106.1499375819694
 20
-151.7164930176264
 30
0.0
 10
105.9215277512974
 20
-151.7185600749176
 30
0.0
 10
105.7416937669673
 20
-151.7251057563395
 30
0.0
 10
105.6462646220259
 20
-151.7271728136307
 30
0.0
 10
105.6462646220259
 20
-151.7271728136307
 30
0.0
 10
105.6462646220259
 20
-151.5494058865918
 30
0.0
 10
105.6462646220259
 20
-151.5494058865918
 30
0.0
 10
105.8429795742337
 20
-151.5556070584653
 30
0.0
 10
106.1265109326697
 20
-151.5600856825961
 30
0.0
 10
106.2767170958266
 20
-151.5600856825961
 30
0.0
 10
106.2767170958266
 20
-151.5600856825961
 30
0.0
 10
106.4903130159121
 20
-151.5600856825961
 30
0.0
 10
106.4903130159121
 20
-151.5600856825961
 30
0.0
 10
106.4903130159121
 20
-151.5600856825961
 30
0.0
 10
106.4903130159121
 20
-151.4519096843592
 30
0.0
 10
106.4903130159121
 20
-151.4519096843592
 30
0.0
 10
106.4903130159121
 20
-151.4519096843592
 30
0.0
 10
106.344585476886
 20
-151.4519096843592
 30
0.0
 10
106.344585476886
 20
-151.4519096843592
 30
0.0
 10
106.1750867790118
 20
-151.4519096843592
 30
0.0
 10
106.005932590686
 20
-151.45638830849
 30
0.0
 10
105.8388454596514
 20
-151.4625894803635
 30
0.0
 10
105.8388454596514
 20
-151.4625894803635
 30
0.0
 10
105.8388454596514
 20
-151.2913682347466
 30
0.0
 10
105.8388454596514
 20
-151.2913682347466
 30
0.0
 10
105.9931857373906
 20
-151.3017035212024
 30
0.0
 10
106.1795654031426
 20
-151.3017035212024
 30
0.0
 10
106.344585476886
 20
-151.3017035212024
 30
0.0
 10
106.344585476886
 20
-151.3017035212024
 30
0.0
 10
106.4903130159121
 20
-151.3017035212024
 30
0.0
 10
106.4903130159121
 20
-151.3017035212024
 30
0.0
 10
106.4903130159121
 20
-151.3017035212024
 30
0.0
 10
106.4903130159121
 20
-151.1835367460583
 30
0.0
 10
106.4903130159121
 20
-151.1835367460583
 30
0.0
 10
106.4903130159121
 20
-151.1835367460583
 30
0.0
 10
106.3593993874726
 20
-151.1835367460583
 30
0.0
 10
106.3593993874726
 20
-151.1835367460583
 30
0.0
 10
106.3128905984218
 20
-151.1835367460583
 30
0.0
 10
106.109629964792
 20
-151.1918049752229
 30
0.0
 10
106.0672552903235
 20
-151.1918049752229
 30
0.0
 10
105.8643391662422
 20
-151.1959390898052
 30
0.0
 10
105.7882025560182
 20
-151.1980061470963
 30
0.0
 10
105.709998888503
 20
-151.200417713936
 30
0.0
 10
105.709998888503
 20
-151.200417713936
 30
0.0
 10
105.709998888503
 20
-151.0161051054751
 30
0.0
 10
105.709998888503
 20
-151.0161051054751
 30
0.0
 10
105.8240315490648
 20
-151.0247178441882
 30
0.0
 10
105.8684732808245
 20
-151.0247178441882
 30
0.0
 10
106.2515678987843
 20
-151.0333305829013
 30
0.0
 10
106.1878336323072
 20
-150.9379014379599
 30
0.0
 10
106.1602728684252
 20
-150.910340674078
 30
0.0
 10
106.1244438753786
 20
-150.8745116810314
 30
0.0
 10
106.1244438753786
 20
-150.8745116810314
 30
0.0
 10
106.3001437451263
 20
-150.7918293893854
 30
0.0
 10
106.3001437451263
 20
-150.7918293893854
 30
0.0
 10
106.3401068527552
 20
-150.8280028919805
 30
0.0
 10
106.384548584515
 20
-150.8703775664491
 30
0.0
 10
106.4586181374478
 20
-150.9802761124285
 30
0.0
 10
106.4586181374478
 20
-150.9802761124285
 30
0.0
 10
106.344585476886
 20
-151.0353976401925
 30
0.0
 10
106.344585476886
 20
-151.0353976401925
 30
0.0
 10
106.344585476886
 20
-151.0353976401925
 30
0.0
 10
106.3549207633418
 20
-151.0353976401925
 30
0.0
 10
106.3549207633418
 20
-151.0353976401925
 30
0.0
 10
106.3549207633418
 20
-151.0353976401925
 30
0.0
 10
106.8775417484542
 20
-151.0353976401925
 30
0.0
 10
106.8775417484542
 20
-151.0353976401925
 30
0.0
 10
106.8775417484542
 20
-151.0353976401925
 30
0.0
 10
106.7824571130613
 20
-150.9909559084328
 30
0.0
 10
106.7824571130613
 20
-150.9909559084328
 30
0.0
 10
106.8100178769433
 20
-150.9527153485465
 30
0.0
 10
106.8668619524499
 20
-150.8724446237402
 30
0.0
 10
106.8816758630365
 20
-150.7983750708073
 30
0.0
 10
106.8816758630365
 20
-150.7983750708073
 30
0.0
 10
107.0956162926705
 20
-150.8617648277359
 30
0.0
 10
107.0956162926705
 20
-150.8617648277359
 30
0.0
 10
107.1038845218351
 20
-150.8638318850271
 30
0.0
 10
107.1252441138437
 20
-150.8745116810314
 30
0.0
 10
107.1252441138437
 20
-150.8955267634914
 30
0.0
 10
107.1252441138437
 20
-150.9337673233777
 30
0.0
 10
107.0594427900754
 20
-150.9337673233777
 30
0.0
 10
107.0404947649065
 20
-150.9337673233777
 30
0.0
 10
107.0298149689022
 20
-150.9527153485465
 30
0.0
 10
107.0067328291511
 20
-150.993022965724
 30
0.0
 10
106.9771050079779
 20
-151.0333305829013
 30
0.0
 10
107.3767360842669
 20
-151.0267849014794
 30
0.0
 10
107.40636390544
 20
-151.0247178441882
 30
0.0
 10
107.4825005156641
 20
-151.0185166723148
 30
0.0
 10
107.4825005156641
 20
-151.0185166723148
 30
0.0
 10
107.4825005156641
 20
-151.200417713936
 30
0.0
 10
107.4825005156641
 20
-151.200417713936
 30
0.0
 10
107.4635524904952
 20
-151.200417713936
 30
0.0
 10
107.4380587839043
 20
-151.1980061470963
 30
0.0
 10
107.2182616919454
 20
-151.1897379179317
 30
0.0
 10
107.1672742787637
 20
-151.1876708606406
 30
0.0
 10
106.9474771868048
 20
-151.1835367460583
 30
0.0
 10
106.9030354550451
 20
-151.1835367460583
 30
0.0
 10
106.9030354550451
 20
-151.1835367460583
 30
0.0
 10
106.6870279681199
 20
-151.1835367460583
 30
0.0
 10
106.6870279681199
 20
-151.1835367460583
 30
0.0
 10
106.6870279681199
 20
-151.1835367460583
 30
0.0
 10
106.6870279681199
 20
-151.3017035212024
 30
0.0
 10
106.6870279681199
 20
-151.3017035212024
 30
0.0
 10
106.6870279681199
 20
-151.3017035212024
 30
0.0
 10
106.8606607805765
 20
-151.3017035212024
 30
0.0
 10
106.8606607805765
 20
-151.3017035212024
 30
0.0
 10
107.0236137970288
 20
-151.3017035212024
 30
0.0
 10
107.2137830678146
 20
-151.3017035212024
 30
0.0
 10
107.3705349123935
 20
-151.2913682347466
 30
0.0
 10
107.3705349123935
 20
-151.2913682347466
 30
0.0
 10
107.3705349123935
 20
-151.4625894803635
 30
0.0
 10
107.3705349123935
 20
-151.4625894803635
 30
0.0
 10
107.1610731068903
 20
-151.4543212511989
 30
0.0
 10
106.9643581546825
 20
-151.4519096843592
 30
0.0
 10
106.8606607805765
 20
-151.4519096843592
 30
0.0
 10
106.8606607805765
 20
-151.4519096843592
 30
0.0
 10
106.6870279681199
 20
-151.4519096843592
 30
0.0
 10
106.6870279681199
 20
-151.4519096843592
 30
0.0
 10
106.6870279681199
 20
-151.4519096843592
 30
0.0
 10
106.6870279681199
 20
-151.5600856825961
 30
0.0
 10
106.6870279681199
 20
-151.5600856825961
 30
0.0
 10
106.6870279681199
 20
-151.5600856825961
 30
0.0
 10
106.9178493656316
 20
-151.5600856825961
 30
0.0
 10
106.9178493656316
 20
-151.5600856825961
 30
0.0
 10
107.0511745609108
 20
-151.5600856825961
 30
0.0
 10
107.3388400339292
 20
-151.5556070584653
 30
0.0
 10
107.5483018394324
 20
-151.5494058865918
 30
0.0
 10
107.5483018394324
 20
-151.5494058865918
 30
0.0
 10
107.5483018394324
 20
-151.7271728136307
 30
0.0
 10
107.5483018394324
 20
-151.7271728136307
 30
0.0
 10
107.3557210018069
 20
-151.7206271322087
 30
0.0
 10
107.0425618221977
 20
-151.7164930176264
 30
0.0
 10
106.9178493656316
 20
-151.7164930176264
 30
0.0
  0
HATCH
  5
F6
330
EA
100
AcDbEntity
  8
レイヤー 1
 62
    18
420
        0
440
 33554687
100
AcDbHatch
 10
0.0
 20
0.0
 30
0.0
210
0.0
220
0.0
230
1.0
  2
SOLID
 70
     1
 71
     1
 91
        4
 92
        1
 93
        1
 72
     4
 94
        3
 73
     0
 74
     0
 95
       17
 96
       13
 40
0.0
 40
0.0
 40
0.0
 40
0.0
 40
1.0
 40
1.0
 40
1.0
 40
2.0
 40
2.0
 40
2.0
 40
3.0
 40
3.0
 40
3.0
 40
4.0
 40
4.0
 40
4.0
 40
4.0
 10
107.0828694393751
 20
-152.448575808242
 10
107.0828694393751
 20
-152.448575808242
 10
106.3762803553504
 20
-152.448575808242
 10
106.3762803553504
 20
-152.448575808242
 10
106.3762803553504
 20
-152.448575808242
 10
106.3762803553504
 20
-152.5626084688038
 10
106.3762803553504
 20
-152.5626084688038
 10
106.3762803553504
 20
-152.5626084688038
 10
107.0828694393751
 20
-152.5626084688038
 10
107.0828694393751
 20
-152.5626084688038
 10
107.0828694393751
 20
-152.5626084688038
 10
107.0828694393751
 20
-152.448575808242
 10
107.0828694393751
 20
-152.448575808242
 97
        0
 97
        1
330
F2
 92
        1
 93
        1
 72
     4
 94
        3
 73
     0
 74
     0
 95
       17
 96
       13
 40
0.0
 40
0.0
 40
0.0
 40
0.0
 40
1.0
 40
1.0
 40
1.0
 40
2.0
 40
2.0
 40
2.0
 40
3.0
 40
3.0
 40
3.0
 40
4.0
 40
4.0
 40
4.0
 40
4.0
 10
107.0828694393751
 20
-152.2050075574348
 10
107.0828694393751
 20
-152.2050075574348
 10
106.3762803553504
 20
-152.2050075574348
 10
106.3762803553504
 20
-152.2050075574348
 10
106.3762803553504
 20
-152.2050075574348
 10
106.3762803553504
 20
-152.3193847275451
 10
106.3762803553504
 20
-152.3193847275451
 10
106.3762803553504
 20
-152.3193847275451
 10
107.0828694393751
 20
-152.3193847275451
 10
107.0828694393751
 20
-152.3193847275451
 10
107.0828694393751
 20
-152.3193847275451
 10
107.0828694393751
 20
-152.2050075574348
 10
107.0828694393751
 20
-152.2050075574348
 97
        0
 97
        1
330
F3
 92
        1
 93
        1
 72
     4
 94
        3
 73
     0
 74
     0
 95
       17
 96
       13
 40
0.0
 40
0.0
 40
0.0
 40
0.0
 40
1.0
 40
1.0
 40
1.0
 40
2.0
 40
2.0
 40
2.0
 40
3.0
 40
3.0
 40
3.0
 40
4.0
 40
4.0
 40
4.0
 40
4.0
 10
107.0828694393751
 20
-151.9724636121805
 10
107.0828694393751
 20
-151.9724636121805
 10
106.3762803553504
 20
-151.9724636121805
 10
106.3762803553504
 20
-151.9724636121805
 10
106.3762803553504
 20
-151.9724636121805
 10
106.3762803553504
 20
-152.0802951008688
 10
106.3762803553504
 20
-152.0802951008688
 10
106.3762803553504
 20
-152.0802951008688
 10
107.0828694393751
 20
-152.0802951008688
 10
107.0828694393751
 20
-152.0802951008688
 10
107.0828694393751
 20
-152.0802951008688
 10
107.0828694393751
 20
-151.9724636121805
 10
107.0828694393751
 20
-151.9724636121805
 97
        0
 97
        1
330
F4
 92
        1
 93
        1
 72
     4
 94
        3
 73
     0
 74
     0
 95
      203
 96
      199
 40
0.0
 40
0.0
 40
0.0
 40
0.0
 40
1.0
 40
1.0
 40
1.0
 40
2.0
 40
2.0
 40
2.0
 40
3.0
 40
3.0
 40
3.0
 40
4.0
 40
4.0
 40
4.0
 40
5.0
 40
5.0
 40
5.0
 40
6.0
 40
6.0
 40
6.0
 40
7.0
 40
7.0
 40
7.0
 40
8.0
 40
8.0
 40
8.0
 40
9.0
 40
9.0
 40
9.0
 40
10.0
 40
10.0
 40
10.0
 40
11.0
 40
11.0
 40
11.0
 40
12.0
 40
12.0
 40
12.0
 40
13.0
 40
13.0
 40
13.0
 40
14.0
 40
14.0
 40
14.0
 40
15.0
 40
15.0
 40
15.0
 40
16.0
 40
16.0
 40
16.0
 40
17.0
 40
17.0
 40
17.0
 40
18.0
 40
18.0
 40
18.0
 40
19.0
 40
19.0
 40
19.0
 40
20.0
 40
20.0
 40
20.0
 40
21.0
 40
21.0
 40
21.0
 40
22.0
 40
22.0
 40
22.0
 40
23.0
 40
23.0
 40
23.0
 40
24.0
 40
24.0
 40
24.0
 40
25.0
 40
25.0
 40
25.0
 40
26.0
 40
26.0
 40
26.0
 40
27.0
 40
27.0
 40
27.0
 40
28.0
 40
28.0
 40
28.0
 40
29.0
 40
29.0
 40
29.0
 40
30.0
 40
30.0
 40
30.0
 40
31.0
 40
31.0
 40
31.0
 40
32.0
 40
32.0
 40
32.0
 40
33.0
 40
33.0
 40
33.0
 40
34.0
 40
34.0
 40
34.0
 40
35.0
 40
35.0
 40
35.0
 40
36.0
 40
36.0
 40
36.0
 40
37.0
 40
37.0
 40
37.0
 40
38.0
 40
38.0
 40
38.0
 40
39.0
 40
39.0
 40
39.0
 40
40.0
 40
40.0
 40
40.0
 40
41.0
 40
41.0
 40
41.0
 40
42.0
 40
42.0
 40
42.0
 40
43.0
 40
43.0
 40
43.0
 40
44.0
 40
44.0
 40
44.0
 40
45.0
 40
45.0
 40
45.0
 40
46.0
 40
46.0
 40
46.0
 40
47.0
 40
47.0
 40
47.0
 40
48.0
 40
48.0
 40
48.0
 40
49.0
 40
49.0
 40
49.0
 40
50.0
 40
50.0
 40
50.0
 40
51.0
 40
51.0
 40
51.0
 40
52.0
 40
52.0
 40
52.0
 40
53.0
 40
53.0
 40
53.0
 40
54.0
 40
54.0
 40
54.0
 40
55.0
 40
55.0
 40
55.0
 40
56.0
 40
56.0
 40
56.0
 40
57.0
 40
57.0
 40
57.0
 40
58.0
 40
58.0
 40
58.0
 40
59.0
 40
59.0
 40
59.0
 40
60.0
 40
60.0
 40
60.0
 40
61.0
 40
61.0
 40
61.0
 40
62.0
 40
62.0
 40
62.0
 40
63.0
 40
63.0
 40
63.0
 40
64.0
 40
64.0
 40
64.0
 40
65.0
 40
65.0
 40
65.0
 40
66.0
 40
66.0
 40
66.0
 40
66.0
 10
106.9178493656316
 20
-151.7164930176264
 10
106.9178493656316
 20
-151.7164930176264
 10
106.3593993874726
 20
-151.7164930176264
 10
106.3593993874726
 20
-151.7164930176264
 10
106.3487195914684
 20
-151.7609347493861
 10
106.3401068527552
 20
-151.7926296278504
 10
106.3277045090083
 20
-151.8308701877367
 10
106.3528537060506
 20
-151.8308701877367
 10
106.3676676166372
 20
-151.8329372450279
 10
106.3742132980592
 20
-151.8329372450279
 10
106.3742132980592
 20
-151.8329372450279
 10
106.5623155115539
 20
-151.8329372450279
 10
106.5623155115539
 20
-151.8329372450279
 10
106.5623155115539
 20
-151.8329372450279
 10
106.9367973908005
 20
-151.8329372450279
 10
106.9367973908005
 20
-151.8329372450279
 10
106.9874402944337
 20
-151.8329372450279
 10
107.2709716528697
 20
-151.8201903917324
 10
107.302666531334
 20
-151.8201903917324
 10
107.3005994740429
 20
-151.8477511556144
 10
107.2985324167517
 20
-151.8666991807833
 10
107.2985324167517
 20
-151.8963270019565
 10
107.2964653594606
 20
-151.9280218804208
 10
107.2964653594606
 20
-152.0634141329911
 10
107.2964653594606
 20
-152.0909748968731
 10
107.2964653594606
 20
-152.0909748968731
 10
107.2964653594606
 20
-152.3362656954229
 10
107.2964653594606
 20
-152.3362656954229
 10
107.2964653594606
 20
-152.3807074271826
 10
107.3005994740429
 20
-152.5774223793904
 10
107.3050780981737
 20
-152.7296955998384
 10
107.3050780981737
 20
-152.7296955998384
 10
107.0783908152443
 20
-152.7296955998384
 10
107.0783908152443
 20
-152.7296955998384
 10
107.0783908152443
 20
-152.7296955998384
 10
107.0808023820839
 20
-152.6959336640829
 10
107.0808023820839
 20
-152.6959336640829
 10
107.0808023820839
 20
-152.6959336640829
 10
106.3783474126415
 20
-152.6959336640829
 10
106.3783474126415
 20
-152.6959336640829
 10
106.3783474126415
 20
-152.6959336640829
 10
106.3804144699326
 20
-152.7296955998384
 10
106.3804144699326
 20
-152.7296955998384
 10
106.3804144699326
 20
-152.7296955998384
 10
106.1626844352649
 20
-152.7296955998384
 10
106.1626844352649
 20
-152.7296955998384
 10
106.1668185498472
 20
-152.6749185816229
 10
106.1668185498472
 20
-152.6621717283275
 10
106.1730197217206
 20
-152.5477945582172
 10
106.1750867790118
 20
-152.5202337943352
 10
106.1774983458514
 20
-152.3872531086046
 10
106.1774983458514
 20
-152.3679605738872
 10
106.1774983458514
 20
-152.3679605738872
 10
106.1774983458514
 20
-152.165044449806
 10
106.1774983458514
 20
-152.165044449806
 10
106.0376274691503
 20
-152.4144693629381
 10
105.8684732808245
 20
-152.545727500926
 10
105.7627088494274
 20
-152.6111843151458
 10
105.7627088494274
 20
-152.6111843151458
 10
105.5890760369708
 20
-152.4716579479932
 10
105.5890760369708
 20
-152.4716579479932
 10
105.6779595004902
 20
-152.42101504436
 10
105.8219644917737
 20
-152.3341986381317
 10
105.9594238016351
 20
-152.1395507432151
 10
106.0503743224457
 20
-152.0127712293579
 10
106.116175646214
 20
-151.8687662380744
 10
106.1499375819694
 20
-151.7164930176264
 10
105.9215277512974
 20
-151.7185600749176
 10
105.7416937669673
 20
-151.7251057563395
 10
105.6462646220259
 20
-151.7271728136307
 10
105.6462646220259
 20
-151.7271728136307
 10
105.6462646220259
 20
-151.5494058865918
 10
105.6462646220259
 20
-151.5494058865918
 10
105.8429795742337
 20
-151.5556070584653
 10
106.1265109326697
 20
-151.5600856825961
 10
106.2767170958266
 20
-151.5600856825961
 10
106.2767170958266
 20
-151.5600856825961
 10
106.4903130159121
 20
-151.5600856825961
 10
106.4903130159121
 20
-151.5600856825961
 10
106.4903130159121
 20
-151.5600856825961
 10
106.4903130159121
 20
-151.4519096843592
 10
106.4903130159121
 20
-151.4519096843592
 10
106.4903130159121
 20
-151.4519096843592
 10
106.344585476886
 20
-151.4519096843592
 10
106.344585476886
 20
-151.4519096843592
 10
106.1750867790118
 20
-151.4519096843592
 10
106.005932590686
 20
-151.45638830849
 10
105.8388454596514
 20
-151.4625894803635
 10
105.8388454596514
 20
-151.4625894803635
 10
105.8388454596514
 20
-151.2913682347466
 10
105.8388454596514
 20
-151.2913682347466
 10
105.9931857373906
 20
-151.3017035212024
 10
106.1795654031426
 20
-151.3017035212024
 10
106.344585476886
 20
-151.3017035212024
 10
106.344585476886
 20
-151.3017035212024
 10
106.4903130159121
 20
-151.3017035212024
 10
106.4903130159121
 20
-151.3017035212024
 10
106.4903130159121
 20
-151.3017035212024
 10
106.4903130159121
 20
-151.1835367460583
 10
106.4903130159121
 20
-151.1835367460583
 10
106.4903130159121
 20
-151.1835367460583
 10
106.3593993874726
 20
-151.1835367460583
 10
106.3593993874726
 20
-151.1835367460583
 10
106.3128905984218
 20
-151.1835367460583
 10
106.109629964792
 20
-151.1918049752229
 10
106.0672552903235
 20
-151.1918049752229
 10
105.8643391662422
 20
-151.1959390898052
 10
105.7882025560182
 20
-151.1980061470963
 10
105.709998888503
 20
-151.200417713936
 10
105.709998888503
 20
-151.200417713936
 10
105.709998888503
 20
-151.0161051054751
 10
105.709998888503
 20
-151.0161051054751
 10
105.8240315490648
 20
-151.0247178441882
 10
105.8684732808245
 20
-151.0247178441882
 10
106.2515678987843
 20
-151.0333305829013
 10
106.1878336323072
 20
-150.9379014379599
 10
106.1602728684252
 20
-150.910340674078
 10
106.1244438753786
 20
-150.8745116810314
 10
106.1244438753786
 20
-150.8745116810314
 10
106.3001437451263
 20
-150.7918293893854
 10
106.3001437451263
 20
-150.7918293893854
 10
106.3401068527552
 20
-150.8280028919805
 10
106.384548584515
 20
-150.8703775664491
 10
106.4586181374478
 20
-150.9802761124285
 10
106.4586181374478
 20
-150.9802761124285
 10
106.344585476886
 20
-151.0353976401925
 10
106.344585476886
 20
-151.0353976401925
 10
106.344585476886
 20
-151.0353976401925
 10
106.3549207633418
 20
-151.0353976401925
 10
106.3549207633418
 20
-151.0353976401925
 10
106.3549207633418
 20
-151.0353976401925
 10
106.8775417484542
 20
-151.0353976401925
 10
106.8775417484542
 20
-151.0353976401925
 10
106.8775417484542
 20
-151.0353976401925
 10
106.7824571130613
 20
-150.9909559084328
 10
106.7824571130613
 20
-150.9909559084328
 10
106.8100178769433
 20
-150.9527153485465
 10
106.8668619524499
 20
-150.8724446237402
 10
106.8816758630365
 20
-150.7983750708073
 10
106.8816758630365
 20
-150.7983750708073
 10
107.0956162926705
 20
-150.8617648277359
 10
107.0956162926705
 20
-150.8617648277359
 10
107.1038845218351
 20
-150.8638318850271
 10
107.1252441138437
 20
-150.8745116810314
 10
107.1252441138437
 20
-150.8955267634914
 10
107.1252441138437
 20
-150.9337673233777
 10
107.0594427900754
 20
-150.9337673233777
 10
107.0404947649065
 20
-150.9337673233777
 10
107.0298149689022
 20
-150.9527153485465
 10
107.0067328291511
 20
-150.993022965724
 10
106.9771050079779
 20
-151.0333305829013
 10
107.3767360842669
 20
-151.0267849014794
 10
107.40636390544
 20
-151.0247178441882
 10
107.4825005156641
 20
-151.0185166723148
 10
107.4825005156641
 20
-151.0185166723148
 10
107.4825005156641
 20
-151.200417713936
 10
107.4825005156641
 20
-151.200417713936
 10
107.4635524904952
 20
-151.200417713936
 10
107.4380587839043
 20
-151.1980061470963
 10
107.2182616919454
 20
-151.1897379179317
 10
107.1672742787637
 20
-151.1876708606406
 10
106.9474771868048
 20
-151.1835367460583
 10
106.9030354550451
 20
-151.1835367460583
 10
106.9030354550451
 20
-151.1835367460583
 10
106.6870279681199
 20
-151.1835367460583
 10
106.6870279681199
 20
-151.1835367460583
 10
106.6870279681199
 20
-151.1835367460583
 10
106.6870279681199
 20
-151.3017035212024
 10
106.6870279681199
 20
-151.3017035212024
 10
106.6870279681199
 20
-151.3017035212024
 10
106.8606607805765
 20
-151.3017035212024
 10
106.8606607805765
 20
-151.3017035212024
 10
107.0236137970288
 20
-151.3017035212024
 10
107.2137830678146
 20
-151.3017035212024
 10
107.3705349123935
 20
-151.2913682347466
 10
107.3705349123935
 20
-151.2913682347466
 10
107.3705349123935
 20
-151.4625894803635
 10
107.3705349123935
 20
-151.4625894803635
 10
107.1610731068903
 20
-151.4543212511989
 10
106.9643581546825
 20
-151.4519096843592
 10
106.8606607805765
 20
-151.4519096843592
 10
106.8606607805765
 20
-151.4519096843592
 10
106.6870279681199
 20
-151.4519096843592
 10
106.6870279681199
 20
-151.4519096843592
 10
106.6870279681199
 20
-151.4519096843592
 10
106.6870279681199
 20
-151.5600856825961
 10
106.6870279681199
 20
-151.5600856825961
 10
106.6870279681199
 20
-151.5600856825961
 10
106.9178493656316
 20
-151.5600856825961
 10
106.9178493656316
 20
-151.5600856825961
 10
107.0511745609108
 20
-151.5600856825961
 10
107.3388400339292
 20
-151.5556070584653
 10
107.5483018394324
 20
-151.5494058865918
 10
107.5483018394324
 20
-151.5494058865918
 10
107.5483018394324
 20
-151.7271728136307
 10
107.5483018394324
 20
-151.7271728136307
 10
107.3557210018069
 20
-151.7206271322087
 10
107.0425618221977
 20
-151.7164930176264
 10
106.9178493656316
 20
-151.7164930176264
 97
        0
 97
        1
330
F5
 75
     2
 76
     1
 98
        1
 10
0.0
 20
0.0
450
        0
451
        0
460
0.0
461
0.0
452
        0
462
0.0
453
        0
470

  0
SPLINE
  5
F7
330
EA
100
AcDbEntity
  8
レイヤー 1
100
AcDbSpline
210
0.0
220
0.0
230
1.0
 70
     9
 71
     3
 72
    29
 73
    25
 74
     0
 42
0.0000000001
 43
0.0000000001
 40
0.0
 40
0.0
 40
0.0
 40
0.0
 40
1.0
 40
1.0
 40
1.0
 40
2.0
 40
2.0
 40
2.0
 40
3.0
 40
3.0
 40
3.0
 40
4.0
 40
4.0
 40
4.0
 40
5.0
 40
5.0
 40
5.0
 40
6.0
 40
6.0
 40
6.0
 40
7.0
 40
7.0
 40
7.0
 40
8.0
 40
8.0
 40
8.0
 40
8.0
 10
108.7933593478016
 20
-151.1642442113409
 30
0.0
 10
108.7933593478016
 20
-151.1642442113409
 30
0.0
 10
108.439892551015
 20
-151.1642442113409
 30
0.0
 10
108.439892551015
 20
-151.1642442113409
 30
0.0
 10
108.3279269477444
 20
-151.1642442113409
 30
0.0
 10
108.1884005805918
 20
-151.1707898927628
 30
0.0
 10
108.0802245823549
 20
-151.1835367460583
 30
0.0
 10
108.0802245823549
 20
-151.1835367460583
 30
0.0
 10
108.0802245823549
 20
-150.9485812339642
 30
0.0
 10
108.0802245823549
 20
-150.9485812339642
 30
0.0
 10
108.1987358670475
 20
-150.9633951445508
 30
0.0
 10
108.3827039659599
 20
-150.9675292591331
 30
0.0
 10
108.439892551015
 20
-150.9675292591331
 30
0.0
 10
108.439892551015
 20
-150.9675292591331
 30
0.0
 10
108.7933593478016
 20
-150.9675292591331
 30
0.0
 10
108.7933593478016
 20
-150.9675292591331
 30
0.0
 10
108.8123073729705
 20
-150.9675292591331
 30
0.0
 10
109.0155680066003
 20
-150.9675292591331
 30
0.0
 10
109.157161431044
 20
-150.9485812339642
 30
0.0
 10
109.157161431044
 20
-150.9485812339642
 30
0.0
 10
109.157161431044
 20
-151.1835367460583
 30
0.0
 10
109.157161431044
 20
-151.1835367460583
 30
0.0
 10
109.0007540960137
 20
-151.1642442113409
 30
0.0
 10
108.8102403156794
 20
-151.1642442113409
 30
0.0
 10
108.7933593478016
 20
-151.1642442113409
 30
0.0
  0
SPLINE
  5
F8
330
EA
100
AcDbEntity
  8
レイヤー 1
100
AcDbSpline
210
0.0
220
0.0
230
1.0
 70
     9
 71
     3
 72
    47
 73
    43
 74
     0
 42
0.0000000001
 43
0.0000000001
 40
0.0
 40
0.0
 40
0.0
 40
0.0
 40
1.0
 40
1.0
 40
1.0
 40
2.0
 40
2.0
 40
2.0
 40
3.0
 40
3.0
 40
3.0
 40
4.0
 40
4.0
 40
4.0
 40
5.0
 40
5.0
 40
5.0
 40
6.0
 40
6.0
 40
6.0
 40
7.0
 40
7.0
 40
7.0
 40
8.0
 40
8.0
 40
8.0
 40
9.0
 40
9.0
 40
9.0
 40
10.0
 40
10.0
 40
10.0
 40
11.0
 40
11.0
 40
11.0
 40
12.0
 40
12.0
 40
12.0
 40
13.0
 40
13.0
 40
13.0
 40
14.0
 40
14.0
 40
14.0
 40
14.0
 10
108.894645155068
 20
-151.6930663683267
 30
0.0
 10
108.894645155068
 20
-151.6930663683267
 30
0.0
 10
108.7933593478016
 20
-151.6930663683267
 30
0.0
 10
108.7933593478016
 20
-151.6930663683267
 30
0.0
 10
108.7933593478016
 20
-151.779882774555
 30
0.0
 10
108.7719997557931
 20
-152.1691785643882
 30
0.0
 10
108.5752848035853
 20
-152.3893201658957
 30
0.0
 10
108.4230115831373
 20
-152.5584743542215
 30
0.0
 10
108.2156168349252
 20
-152.628409792572
 30
0.0
 10
108.1312119955366
 20
-152.6556260469055
 30
0.0
 10
108.1312119955366
 20
-152.6556260469055
 30
0.0
 10
107.93656410062
 20
-152.4885389158709
 30
0.0
 10
107.93656410062
 20
-152.4885389158709
 30
0.0
 10
108.033715793304
 20
-152.4757920625755
 30
0.0
 10
108.2094156630518
 20
-152.4527099228243
 30
0.0
 10
108.3975178765464
 20
-152.2642631997811
 30
0.0
 10
108.4715874294793
 20
-152.1926052136879
 30
0.0
 10
108.5752848035853
 20
-152.0527343369868
 30
0.0
 10
108.5752848035853
 20
-151.6930663683267
 30
0.0
 10
108.5752848035853
 20
-151.6930663683267
 30
0.0
 10
108.3448079156221
 20
-151.6930663683267
 30
0.0
 10
108.3448079156221
 20
-151.6930663683267
 30
0.0
 10
108.1587727594186
 20
-151.6930663683267
 30
0.0
 10
107.9723930936666
 20
-151.6975449924575
 30
0.0
 10
107.7863579374631
 20
-151.7123589030441
 30
0.0
 10
107.7863579374631
 20
-151.7123589030441
 30
0.0
 10
107.7863579374631
 20
-151.4922173015366
 30
0.0
 10
107.7863579374631
 20
-151.4922173015366
 30
0.0
 10
107.9744601509577
 20
-151.5070312121232
 30
0.0
 10
108.260058566685
 20
-151.5111653267055
 30
0.0
 10
108.3448079156221
 20
-151.5111653267055
 30
0.0
 10
108.3448079156221
 20
-151.5111653267055
 30
0.0
 10
108.894645155068
 20
-151.5111653267055
 30
0.0
 10
108.894645155068
 20
-151.5111653267055
 30
0.0
 10
108.9139376897854
 20
-151.5111653267055
 30
0.0
 10
109.2312309839769
 20
-151.5111653267055
 30
0.0
 10
109.459640814649
 20
-151.4922173015366
 30
0.0
 10
109.459640814649
 20
-151.4922173015366
 30
0.0
 10
109.459640814649
 20
-151.7123589030441
 30
0.0
 10
109.459640814649
 20
-151.7123589030441
 30
0.0
 10
109.2715386011543
 20
-151.6975449924575
 30
0.0
 10
109.0830918781112
 20
-151.6930663683267
 30
0.0
 10
108.894645155068
 20
-151.6930663683267
 30
0.0
  0
HATCH
  5
F9
330
EA
100
AcDbEntity
  8
レイヤー 1
 62
    18
420
        0
440
 33554687
100
AcDbHatch
 10
0.0
 20
0.0
 30
0.0
210
0.0
220
0.0
230
1.0
  2
SOLID
 70
     1
 71
     1
 91
        2
 92
        1
 93
        1
 72
     4
 94
        3
 73
     0
 74
     0
 95
       29
 96
       25
 40
0.0
 40
0.0
 40
0.0
 40
0.0
 40
1.0
 40
1.0
 40
1.0
 40
2.0
 40
2.0
 40
2.0
 40
3.0
 40
3.0
 40
3.0
 40
4.0
 40
4.0
 40
4.0
 40
5.0
 40
5.0
 40
5.0
 40
6.0
 40
6.0
 40
6.0
 40
7.0
 40
7.0
 40
7.0
 40
8.0
 40
8.0
 40
8.0
 40
8.0
 10
108.7933593478016
 20
-151.1642442113409
 10
108.7933593478016
 20
-151.1642442113409
 10
108.439892551015
 20
-151.1642442113409
 10
108.439892551015
 20
-151.1642442113409
 10
108.3279269477444
 20
-151.1642442113409
 10
108.1884005805918
 20
-151.1707898927628
 10
108.0802245823549
 20
-151.1835367460583
 10
108.0802245823549
 20
-151.1835367460583
 10
108.0802245823549
 20
-150.9485812339642
 10
108.0802245823549
 20
-150.9485812339642
 10
108.1987358670475
 20
-150.9633951445508
 10
108.3827039659599
 20
-150.9675292591331
 10
108.439892551015
 20
-150.9675292591331
 10
108.439892551015
 20
-150.9675292591331
 10
108.7933593478016
 20
-150.9675292591331
 10
108.7933593478016
 20
-150.9675292591331
 10
108.8123073729705
 20
-150.9675292591331
 10
109.0155680066003
 20
-150.9675292591331
 10
109.157161431044
 20
-150.9485812339642
 10
109.157161431044
 20
-150.9485812339642
 10
109.157161431044
 20
-151.1835367460583
 10
109.157161431044
 20
-151.1835367460583
 10
109.0007540960137
 20
-151.1642442113409
 10
108.8102403156794
 20
-151.1642442113409
 10
108.7933593478016
 20
-151.1642442113409
 97
        0
 97
        1
330
F7
 92
        1
 93
        1
 72
     4
 94
        3
 73
     0
 74
     0
 95
       47
 96
       43
 40
0.0
 40
0.0
 40
0.0
 40
0.0
 40
1.0
 40
1.0
 40
1.0
 40
2.0
 40
2.0
 40
2.0
 40
3.0
 40
3.0
 40
3.0
 40
4.0
 40
4.0
 40
4.0
 40
5.0
 40
5.0
 40
5.0
 40
6.0
 40
6.0
 40
6.0
 40
7.0
 40
7.0
 40
7.0
 40
8.0
 40
8.0
 40
8.0
 40
9.0
 40
9.0
 40
9.0
 40
10.0
 40
10.0
 40
10.0
 40
11.0
 40
11.0
 40
11.0
 40
12.0
 40
12.0
 40
12.0
 40
13.0
 40
13.0
 40
13.0
 40
14.0
 40
14.0
 40
14.0
 40
14.0
 10
108.894645155068
 20
-151.6930663683267
 10
108.894645155068
 20
-151.6930663683267
 10
108.7933593478016
 20
-151.6930663683267
 10
108.7933593478016
 20
-151.6930663683267
 10
108.7933593478016
 20
-151.779882774555
 10
108.7719997557931
 20
-152.1691785643882
 10
108.5752848035853
 20
-152.3893201658957
 10
108.4230115831373
 20
-152.5584743542215
 10
108.2156168349252
 20
-152.628409792572
 10
108.1312119955366
 20
-152.6556260469055
 10
108.1312119955366
 20
-152.6556260469055
 10
107.93656410062
 20
-152.4885389158709
 10
107.93656410062
 20
-152.4885389158709
 10
108.033715793304
 20
-152.4757920625755
 10
108.2094156630518
 20
-152.4527099228243
 10
108.3975178765464
 20
-152.2642631997811
 10
108.4715874294793
 20
-152.1926052136879
 10
108.5752848035853
 20
-152.0527343369868
 10
108.5752848035853
 20
-151.6930663683267
 10
108.5752848035853
 20
-151.6930663683267
 10
108.3448079156221
 20
-151.6930663683267
 10
108.3448079156221
 20
-151.6930663683267
 10
108.1587727594186
 20
-151.6930663683267
 10
107.9723930936666
 20
-151.6975449924575
 10
107.7863579374631
 20
-151.7123589030441
 10
107.7863579374631
 20
-151.7123589030441
 10
107.7863579374631
 20
-151.4922173015366
 10
107.7863579374631
 20
-151.4922173015366
 10
107.9744601509577
 20
-151.5070312121232
 10
108.260058566685
 20
-151.5111653267055
 10
108.3448079156221
 20
-151.5111653267055
 10
108.3448079156221
 20
-151.5111653267055
 10
108.894645155068
 20
-151.5111653267055
 10
108.894645155068
 20
-151.5111653267055
 10
108.9139376897854
 20
-151.5111653267055
 10
109.2312309839769
 20
-151.5111653267055
 10
109.459640814649
 20
-151.4922173015366
 10
109.459640814649
 20
-151.4922173015366
 10
109.459640814649
 20
-151.7123589030441
 10
109.459640814649
 20
-151.7123589030441
 10
109.2715386011543
 20
-151.6975449924575
 10
109.0830918781112
 20
-151.6930663683267
 10
108.894645155068
 20
-151.6930663683267
 97
        0
 97
        1
330
F8
 75
     2
 76
     1
 98
        1
 10
0.0
 20
0.0
450
        0
451
        0
460
0.0
461
0.0
452
        0
462
0.0
453
        0
470

  0
SPLINE
  5
FA
330
EA
100
AcDbEntity
  8
レイヤー 1
100
AcDbSpline
210
0.0
220
0.0
230
1.0
 70
     9
 71
     3
 72
    29
 73
    25
 74
     0
 42
0.0000000001
 43
0.0000000001
 40
0.0
 40
0.0
 40
0.0
 40
0.0
 40
1.0
 40
1.0
 40
1.0
 40
2.0
 40
2.0
 40
2.0
 40
3.0
 40
3.0
 40
3.0
 40
4.0
 40
4.0
 40
4.0
 40
5.0
 40
5.0
 40
5.0
 40
6.0
 40
6.0
 40
6.0
 40
7.0
 40
7.0
 40
7.0
 40
8.0
 40
8.0
 40
8.0
 40
8.0
 10
110.7405273160648
 20
-151.856019384779
 30
0.0
 10
110.7405273160648
 20
-151.856019384779
 30
0.0
 10
110.2561468908387
 20
-151.856019384779
 30
0.0
 10
110.2561468908387
 20
-151.856019384779
 30
0.0
 10
110.2285861269567
 20
-151.856019384779
 30
0.0
 10
109.9112928327652
 20
-151.856019384779
 30
0.0
 10
109.6997639699709
 20
-151.8815130913699
 30
0.0
 10
109.6997639699709
 20
-151.8815130913699
 30
0.0
 10
109.6997639699709
 20
-151.6510362034067
 30
0.0
 10
109.6997639699709
 20
-151.6510362034067
 30
0.0
 10
109.8585828718409
 20
-151.6741183431578
 30
0.0
 10
110.0487521426267
 20
-151.676185400449
 30
0.0
 10
110.2561468908387
 20
-151.676185400449
 30
0.0
 10
110.2561468908387
 20
-151.676185400449
 30
0.0
 10
110.7405273160648
 20
-151.676185400449
 30
0.0
 10
110.7405273160648
 20
-151.676185400449
 30
0.0
 10
110.9269069818169
 20
-151.676185400449
 30
0.0
 10
111.1129421380204
 20
-151.6741183431578
 30
0.0
 10
111.2969102369327
 20
-151.6510362034067
 30
0.0
 10
111.2969102369327
 20
-151.6510362034067
 30
0.0
 10
111.2969102369327
 20
-151.8815130913699
 30
0.0
 10
111.2969102369327
 20
-151.8815130913699
 30
0.0
 10
111.1129421380204
 20
-151.8580864420702
 30
0.0
 10
110.8655842821794
 20
-151.856019384779
 30
0.0
 10
110.7405273160648
 20
-151.856019384779
 30
0.0
  0
HATCH
  5
FB
330
EA
100
AcDbEntity
  8
レイヤー 1
 62
    18
420
        0
440
 33554687
100
AcDbHatch
 10
0.0
 20
0.0
 30
0.0
210
0.0
220
0.0
230
1.0
  2
SOLID
 70
     1
 71
     1
 91
        1
 92
        1
 93
        1
 72
     4
 94
        3
 73
     0
 74
     0
 95
       29
 96
       25
 40
0.0
 40
0.0
 40
0.0
 40
0.0
 40
1.0
 40
1.0
 40
1.0
 40
2.0
 40
2.0
 40
2.0
 40
3.0
 40
3.0
 40
3.0
 40
4.0
 40
4.0
 40
4.0
 40
5.0
 40
5.0
 40
5.0
 40
6.0
 40
6.0
 40
6.0
 40
7.0
 40
7.0
 40
7.0
 40
8.0
 40
8.0
 40
8.0
 40
8.0
 10
110.7405273160648
 20
-151.856019384779
 10
110.7405273160648
 20
-151.856019384779
 10
110.2561468908387
 20
-151.856019384779
 10
110.2561468908387
 20
-151.856019384779
 10
110.2285861269567
 20
-151.856019384779
 10
109.9112928327652
 20
-151.856019384779
 10
109.6997639699709
 20
-151.8815130913699
 10
109.6997639699709
 20
-151.8815130913699
 10
109.6997639699709
 20
-151.6510362034067
 10
109.6997639699709
 20
-151.6510362034067
 10
109.8585828718409
 20
-151.6741183431578
 10
110.0487521426267
 20
-151.676185400449
 10
110.2561468908387
 20
-151.676185400449
 10
110.2561468908387
 20
-151.676185400449
 10
110.7405273160648
 20
-151.676185400449
 10
110.7405273160648
 20
-151.676185400449
 10
110.9269069818169
 20
-151.676185400449
 10
111.1129421380204
 20
-151.6741183431578
 10
111.2969102369327
 20
-151.6510362034067
 10
111.2969102369327
 20
-151.6510362034067
 10
111.2969102369327
 20
-151.8815130913699
 10
111.2969102369327
 20
-151.8815130913699
 10
111.1129421380204
 20
-151.8580864420702
 10
110.8655842821794
 20
-151.856019384779
 10
110.7405273160648
 20
-151.856019384779
 97
        0
 97
        1
330
FA
 75
     2
 76
     1
 98
        1
 10
0.0
 20
0.0
450
        0
451
        0
460
0.0
461
0.0
452
        0
462
0.0
453
        0
470

  0
SPLINE
  5
FC
330
EA
100
AcDbEntity
  8
レイヤー 1
100
AcDbSpline
210
0.0
220
0.0
230
1.0
 70
     9
 71
     3
 72
    47
 73
    43
 74
     0
 42
0.0000000001
 43
0.0000000001
 40
0.0
 40
0.0
 40
0.0
 40
0.0
 40
1.0
 40
1.0
 40
1.0
 40
2.0
 40
2.0
 40
2.0
 40
3.0
 40
3.0
 40
3.0
 40
4.0
 40
4.0
 40
4.0
 40
5.0
 40
5.0
 40
5.0
 40
6.0
 40
6.0
 40
6.0
 40
7.0
 40
7.0
 40
7.0
 40
8.0
 40
8.0
 40
8.0
 40
9.0
 40
9.0
 40
9.0
 40
10.0
 40
10.0
 40
10.0
 40
11.0
 40
11.0
 40
11.0
 40
12.0
 40
12.0
 40
12.0
 40
13.0
 40
13.0
 40
13.0
 40
14.0
 40
14.0
 40
14.0
 40
14.0
 10
112.9608913563084
 20
-151.2617404135734
 30
0.0
 10
112.8909559179578
 20
-151.5407931478787
 30
0.0
 10
112.8148193077338
 20
-151.8456840983233
 30
0.0
 10
112.5016601281246
 20
-152.1777913031014
 30
0.0
 10
112.2646375587394
 20
-152.4272162162335
 30
0.0
 10
112.0193467601896
 20
-152.5267794757572
 30
0.0
 10
111.9135823287924
 20
-152.5691541502258
 30
0.0
 10
111.9135823287924
 20
-152.5691541502258
 30
0.0
 10
111.7189344338758
 20
-152.3872531086046
 30
0.0
 10
111.7189344338758
 20
-152.3872531086046
 30
0.0
 10
111.9049695900793
 20
-152.3403998100052
 30
0.0
 10
112.267049125579
 20
-152.2473822319034
 30
0.0
 10
112.562982827762
 20
-151.752322010673
 30
0.0
 10
112.7238687869232
 20
-151.4860161296632
 30
0.0
 10
112.7366156402186
 20
-151.3123833172066
 30
0.0
 10
112.7448838693832
 20
-151.221432796396
 30
0.0
 10
112.7448838693832
 20
-151.221432796396
 30
0.0
 10
112.2394883616971
 20
-151.221432796396
 30
0.0
 10
112.2394883616971
 20
-151.221432796396
 30
0.0
 10
112.1209770770045
 20
-151.221432796396
 30
0.0
 10
111.6999864087069
 20
-151.2403808215649
 30
0.0
 10
111.5477131882589
 20
-151.2510606175692
 30
0.0
 10
111.5477131882589
 20
-151.2510606175692
 30
0.0
 10
111.5477131882589
 20
-151.041598812066
 30
0.0
 10
111.5477131882589
 20
-151.041598812066
 30
0.0
 10
111.6893066127027
 20
-151.0543456653614
 30
0.0
 10
111.9666367992653
 20
-151.0584797799437
 30
0.0
 10
112.0827365171182
 20
-151.0584797799437
 30
0.0
 10
112.0827365171182
 20
-151.0584797799437
 30
0.0
 10
112.438270371196
 20
-151.0584797799437
 30
0.0
 10
112.438270371196
 20
-151.0584797799437
 30
0.0
 10
112.465831135078
 20
-151.0584797799437
 30
0.0
 10
112.6263725846906
 20
-151.0564127226525
 30
0.0
 10
112.7366156402186
 20
-151.041598812066
 30
0.0
 10
112.7938042252738
 20
-151.0353976401925
 30
0.0
 10
112.8106851931515
 20
-151.0161051054751
 30
0.0
 10
112.8337673329027
 20
-150.993022965724
 30
0.0
 10
112.8337673329027
 20
-150.993022965724
 30
0.0
 10
113.0222140559458
 20
-151.1432291288809
 30
0.0
 10
113.0222140559458
 20
-151.1432291288809
 30
0.0
 10
113.0074001453593
 20
-151.172856950054
 30
0.0
 10
112.996720349355
 20
-151.1918049752229
 30
0.0
 10
112.9608913563084
 20
-151.2617404135734
 30
0.0
  0
HATCH
  5
FD
330
EA
100
AcDbEntity
  8
レイヤー 1
 62
    18
420
        0
440
 33554687
100
AcDbHatch
 10
0.0
 20
0.0
 30
0.0
210
0.0
220
0.0
230
1.0
  2
SOLID
 70
     1
 71
     1
 91
        1
 92
        1
 93
        1
 72
     4
 94
        3
 73
     0
 74
     0
 95
       47
 96
       43
 40
0.0
 40
0.0
 40
0.0
 40
0.0
 40
1.0
 40
1.0
 40
1.0
 40
2.0
 40
2.0
 40
2.0
 40
3.0
 40
3.0
 40
3.0
 40
4.0
 40
4.0
 40
4.0
 40
5.0
 40
5.0
 40
5.0
 40
6.0
 40
6.0
 40
6.0
 40
7.0
 40
7.0
 40
7.0
 40
8.0
 40
8.0
 40
8.0
 40
9.0
 40
9.0
 40
9.0
 40
10.0
 40
10.0
 40
10.0
 40
11.0
 40
11.0
 40
11.0
 40
12.0
 40
12.0
 40
12.0
 40
13.0
 40
13.0
 40
13.0
 40
14.0
 40
14.0
 40
14.0
 40
14.0
 10
112.9608913563084
 20
-151.2617404135734
 10
112.8909559179578
 20
-151.5407931478787
 10
112.8148193077338
 20
-151.8456840983233
 10
112.5016601281246
 20
-152.1777913031014
 10
112.2646375587394
 20
-152.4272162162335
 10
112.0193467601896
 20
-152.5267794757572
 10
111.9135823287924
 20
-152.5691541502258
 10
111.9135823287924
 20
-152.5691541502258
 10
111.7189344338758
 20
-152.3872531086046
 10
111.7189344338758
 20
-152.3872531086046
 10
111.9049695900793
 20
-152.3403998100052
 10
112.267049125579
 20
-152.2473822319034
 10
112.562982827762
 20
-151.752322010673
 10
112.7238687869232
 20
-151.4860161296632
 10
112.7366156402186
 20
-151.3123833172066
 10
112.7448838693832
 20
-151.221432796396
 10
112.7448838693832
 20
-151.221432796396
 10
112.2394883616971
 20
-151.221432796396
 10
112.2394883616971
 20
-151.221432796396
 10
112.1209770770045
 20
-151.221432796396
 10
111.6999864087069
 20
-151.2403808215649
 10
111.5477131882589
 20
-151.2510606175692
 10
111.5477131882589
 20
-151.2510606175692
 10
111.5477131882589
 20
-151.041598812066
 10
111.5477131882589
 20
-151.041598812066
 10
111.6893066127027
 20
-151.0543456653614
 10
111.9666367992653
 20
-151.0584797799437
 10
112.0827365171182
 20
-151.0584797799437
 10
112.0827365171182
 20
-151.0584797799437
 10
112.438270371196
 20
-151.0584797799437
 10
112.438270371196
 20
-151.0584797799437
 10
112.465831135078
 20
-151.0584797799437
 10
112.6263725846906
 20
-151.0564127226525
 10
112.7366156402186
 20
-151.041598812066
 10
112.7938042252738
 20
-151.0353976401925
 10
112.8106851931515
 20
-151.0161051054751
 10
112.8337673329027
 20
-150.993022965724
 10
112.8337673329027
 20
-150.993022965724
 10
113.0222140559458
 20
-151.1432291288809
 10
113.0222140559458
 20
-151.1432291288809
 10
113.0074001453593
 20
-151.172856950054
 10
112.996720349355
 20
-151.1918049752229
 10
112.9608913563084
 20
-151.2617404135734
 97
        0
 97
        1
330
FC
 75
     2
 76
     1
 98
        1
 10
0.0
 20
0.0
450
        0
451
        0
460
0.0
461
0.0
452
        0
462
0.0
453
        0
470

  0
SPLINE
  5
FE
330
EA
100
AcDbEntity
  8
レイヤー 1
100
AcDbSpline
210
0.0
220
0.0
230
1.0
 70
    11
 71
     3
 72
    17
 73
    13
 74
     0
 42
0.0000000001
 43
0.0000000001
 40
0.0
 40
0.0
 40
0.0
 40
0.0
 40
1.0
 40
1.0
 40
1.0
 40
2.0
 40
2.0
 40
2.0
 40
3.0
 40
3.0
 40
3.0
 40
4.0
 40
4.0
 40
4.0
 40
4.0
 10
113.3512206747872
 20
-151.0436658693571
 30
0.0
 10
113.3512206747872
 20
-151.1029215117034
 30
0.0
 10
113.3977294638381
 20
-151.1494303007543
 30
0.0
 10
113.4569851061844
 20
-151.1494303007543
 30
0.0
 10
113.5162407485306
 20
-151.1494303007543
 30
0.0
 10
113.5648165948727
 20
-151.1029215117034
 30
0.0
 10
113.5648165948727
 20
-151.0436658693571
 30
0.0
 10
113.5648165948727
 20
-150.9844102270108
 30
0.0
 10
113.5162407485306
 20
-150.9358343806688
 30
0.0
 10
113.4569851061844
 20
-150.9358343806688
 30
0.0
 10
113.3977294638381
 20
-150.9358343806688
 30
0.0
 10
113.3512206747872
 20
-150.9844102270108
 30
0.0
 10
113.3512206747872
 20
-151.0436658693571
 30
0.0
  0
SPLINE
  5
FF
330
EA
100
AcDbEntity
  8
レイヤー 1
100
AcDbSpline
210
0.0
220
0.0
230
1.0
 70
     9
 71
     3
 72
    17
 73
    13
 74
     0
 42
0.0000000001
 43
0.0000000001
 40
0.0
 40
0.0
 40
0.0
 40
0.0
 40
1.0
 40
1.0
 40
1.0
 40
2.0
 40
2.0
 40
2.0
 40
3.0
 40
3.0
 40
3.0
 40
4.0
 40
4.0
 40
4.0
 40
4.0
 10
113.666102402139
 20
-151.0436658693571
 30
0.0
 10
113.666102402139
 20
-151.1580430394674
 30
0.0
 10
113.5730848240373
 20
-151.2531276748603
 30
0.0
 10
113.4569851061844
 20
-151.2531276748603
 30
0.0
 10
113.342607936074
 20
-151.2531276748603
 30
0.0
 10
113.2475233006811
 20
-151.1580430394674
 30
0.0
 10
113.2475233006811
 20
-151.0436658693571
 30
0.0
 10
113.2475233006811
 20
-150.9272216419557
 30
0.0
 10
113.342607936074
 20
-150.8342040638539
 30
0.0
 10
113.4569851061844
 20
-150.8342040638539
 30
0.0
 10
113.5710177667461
 20
-150.8342040638539
 30
0.0
 10
113.666102402139
 20
-150.9272216419557
 30
0.0
 10
113.666102402139
 20
-151.0436658693571
 30
0.0
  0
HATCH
  5
100
330
EA
100
AcDbEntity
  8
レイヤー 1
 62
    18
420
        0
440
 33554687
100
AcDbHatch
 10
0.0
 20
0.0
 30
0.0
210
0.0
220
0.0
230
1.0
  2
SOLID
 70
     1
 71
     1
 91
        2
 92
        1
 93
        1
 72
     4
 94
        3
 73
     0
 74
     0
 95
       17
 96
       13
 40
0.0
 40
0.0
 40
0.0
 40
0.0
 40
1.0
 40
1.0
 40
1.0
 40
2.0
 40
2.0
 40
2.0
 40
3.0
 40
3.0
 40
3.0
 40
4.0
 40
4.0
 40
4.0
 40
4.0
 10
113.3512206747872
 20
-151.0436658693571
 10
113.3512206747872
 20
-151.1029215117034
 10
113.3977294638381
 20
-151.1494303007543
 10
113.4569851061844
 20
-151.1494303007543
 10
113.5162407485306
 20
-151.1494303007543
 10
113.5648165948727
 20
-151.1029215117034
 10
113.5648165948727
 20
-151.0436658693571
 10
113.5648165948727
 20
-150.9844102270108
 10
113.5162407485306
 20
-150.9358343806688
 10
113.4569851061844
 20
-150.9358343806688
 10
113.3977294638381
 20
-150.9358343806688
 10
113.3512206747872
 20
-150.9844102270108
 10
113.3512206747872
 20
-151.0436658693571
 97
        0
 97
        1
330
FE
 92
        1
 93
        1
 72
     4
 94
        3
 73
     0
 74
     0
 95
       17
 96
       13
 40
0.0
 40
0.0
 40
0.0
 40
0.0
 40
1.0
 40
1.0
 40
1.0
 40
2.0
 40
2.0
 40
2.0
 40
3.0
 40
3.0
 40
3.0
 40
4.0
 40
4.0
 40
4.0
 40
4.0
 10
113.666102402139
 20
-151.0436658693571
 10
113.666102402139
 20
-151.1580430394674
 10
113.5730848240373
 20
-151.2531276748603
 10
113.4569851061844
 20
-151.2531276748603
 10
113.342607936074
 20
-151.2531276748603
 10
113.2475233006811
 20
-151.1580430394674
 10
113.2475233006811
 20
-151.0436658693571
 10
113.2475233006811
 20
-150.9272216419557
 10
113.342607936074
 20
-150.8342040638539
 10
113.4569851061844
 20
-150.8342040638539
 10
113.5710177667461
 20
-150.8342040638539
 10
113.666102402139
 20
-150.9272216419557
 10
113.666102402139
 20
-151.0436658693571
 97
        0
 97
        1
330
FF
 75
     2
 76
     1
 98
        1
 10
0.0
 20
0.0
450
        0
451
        0
460
0.0
461
0.0
452
        0
462
0.0
453
        0
470

  0
ENDBLK
  5
ED
330
EA
100
AcDbEntity
  8
0
100
AcDbBlockEnd
  0
ENDSEC
  0
SECTION
  2
ENTITIES
  0
INSERT
  5
7A
330
70
100
AcDbEntity
  8
レイヤー 1
100
AcDbBlockReference
  2
Block_0
 10
0.0
 20
0.0
 30
0.0
  0
LINE
  5
DD
330
70
100
AcDbEntity
  8
レイヤー 1
  6
AI-Linetype-0
 62
   154
420
    23468
370
    25
100
AcDbLine
 10
103.9521976564459
 20
-154.9202266232805
 30
0.0
 11
113.886554963495
 21
-154.9202266232805
 31
0.0
  0
INSERT
  5
E0
330
70
100
AcDbEntity
  8
レイヤー 1
100
AcDbBlockReference
  2
Block_11
 10
0.0
 20
0.0
 30
0.0
  0
INSERT
  5
E7
330
70
100
AcDbEntity
  8
レイヤー 1
100
AcDbBlockReference
  2
Block_12
 10
0.0
 20
0.0
 30
0.0
  0
ENDSEC
  0
SECTION
  2
OBJECTS
  0
DICTIONARY
  5
C
330
0
100
AcDbDictionary
281
     1
  3
ACAD_COLOR
350
63
  3
ACAD_DETAILVIEWSTYLE
350
6A
  3
ACAD_GROUP
350
D
  3
ACAD_LAYOUT
350
62
  3
ACAD_MATERIAL
350
10
  3
ACAD_MLEADERSTYLE
350
66
  3
ACAD_MLINESTYLE
350
5F
  3
ACAD_PLOTSETTINGS
350
61
  3
ACAD_PLOTSTYLENAME
350
E
  3
ACAD_SCALELIST
350
42
  3
ACAD_SECTIONVIEWSTYLE
350
68
  3
ACAD_TABLESTYLE
350
64
  3
ACAD_VISUALSTYLE
350
29
  3
ACDB_RECOMPOSE_DATA
350
109
  3
AcDbVariableDictionary
350
101
  0
DICTIONARY
  5
63
102
{ACAD_REACTORS
330
C
102
}
330
C
100
AcDbDictionary
281
     1
  0
DICTIONARY
  5
6A
102
{ACAD_REACTORS
330
C
102
}
330
C
100
AcDbDictionary
281
     1
  3
Imperial24
350
6B
  0
DICTIONARY
  5
D
102
{ACAD_REACTORS
330
C
102
}
330
C
100
AcDbDictionary
281
     1
  0
DICTIONARY
  5
62
102
{ACAD_REACTORS
330
C
102
}
330
C
100
AcDbDictionary
281
     1
  3
Layout1
350
6F
  3
Layout2
350
77
  3
Model
350
73
  0
DICTIONARY
  5
10
102
{ACAD_REACTORS
330
C
102
}
330
C
100
AcDbDictionary
281
     1
  3
ByBlock
350
19
  3
ByLayer
350
11
  3
Global
350
21
  0
DICTIONARY
  5
66
102
{ACAD_REACTORS
330
C
102
}
330
C
100
AcDbDictionary
281
     1
  3
Standard
350
67
  0
DICTIONARY
  5
5F
102
{ACAD_REACTORS
330
C
102
}
330
C
100
AcDbDictionary
281
     1
  3
Standard
350
60
  0
DICTIONARY
  5
61
102
{ACAD_REACTORS
330
C
102
}
330
C
100
AcDbDictionary
281
     1
  0
ACDBDICTIONARYWDFLT
  5
E
102
{ACAD_REACTORS
330
C
102
}
330
C
100
AcDbDictionary
281
     1
  3
Normal
350
F
100
AcDbDictionaryWithDefault
340
F
  0
DICTIONARY
  5
42
102
{ACAD_REACTORS
330
C
102
}
330
C
100
AcDbDictionary
281
     1
  3
A0
350
43
  3
A1
350
44
  3
A2
350
45
  3
A3
350
46
  3
A4
350
47
  3
A5
350
48
  3
A6
350
49
  3
A7
350
4A
  3
A8
350
4B
  3
A9
350
4C
  3
B0
350
4D
  3
B1
350
4E
  3
B2
350
4F
  3
B3
350
50
  3
B4
350
51
  3
B5
350
52
  3
B6
350
53
  0
DICTIONARY
  5
68
102
{ACAD_REACTORS
330
C
102
}
330
C
100
AcDbDictionary
281
     1
  3
Imperial24
350
69
  0
DICTIONARY
  5
64
102
{ACAD_REACTORS
330
C
102
}
330
C
100
AcDbDictionary
281
     1
  3
Standard
350
65
  0
DICTIONARY
  5
29
102
{ACAD_REACTORS
330
C
102
}
330
C
100
AcDbDictionary
281
     1
  3
2dWireframe
350
2F
  3
Basic
350
2E
  3
Brighten
350
35
  3
ColorChange
350
39
  3
Conceptual
350
32
  3
Dim
350
34
  3
EdgeColorOff
350
41
  3
Facepattern
350
38
  3
Flat
350
2A
  3
FlatWithEdges
350
2B
  3
Gouraud
350
2C
  3
GouraudWithEdges
350
2D
  3
Hidden
350
31
  3
JitterOff
350
3F
  3
Linepattern
350
37
  3
OverhangOff
350
40
  3
Realistic
350
33
  3
Shaded
350
3E
  3
Shaded with edges
350
3D
  3
Shades of Gray
350
3A
  3
Sketchy
350
3B
  3
Thicken
350
36
  3
Wireframe
350
30
  3
X-Ray
350
3C
  0
XRECORD
  5
109
102
{ACAD_REACTORS
330
C
102
}
330
C
100
AcDbXrecord
280
     1
 90
        1
330
65
  0
DICTIONARY
  5
101
102
{ACAD_REACTORS
330
C
102
}
330
C
100
AcDbDictionary
281
     1
  3
CANNOSCALE
350
106
  3
CMLEADERSTYLE
350
103
  3
CTABLESTYLE
350
102
  3
CVIEWDETAILSTYLE
350
104
  3
CVIEWSECTIONSTYLE
350
105
  0
ACDBDETAILVIEWSTYLE
  5
6B
102
{ACAD_XDICTIONARY
360
13E
102
}
102
{ACAD_REACTORS
330
6A
102
}
330
6A
100
AcDbModelDocViewStyle
 70
     0
  3
Imperial24
290
     0
100
AcDbDetailViewStyle
 70
     0
 71
     0
 90
        3
 71
     1
340
55
 62
   256
 40
0.24
340
0
 62
   256
 40
0.24
300

 40
0.36
280
     3
 71
     2
340
5D
 90
       25
 62
   256
 71
     3
340
55
 62
   256
 40
0.24
 90
        1
 40
0.75
 90
        1
300
%<\AcVar ViewType \f "%tc1">% %<\AcVar ViewDetailId>%\PSCALE %<\AcVar ViewScale \f "%sn">%
 71
     4
340
5D
 90
       25
 62
   256
340
5D
 90
       25
 62
   256
280
     0
  0
LAYOUT
  5
6F
102
{ACAD_REACTORS
330
62
102
}
330
62
100
AcDbPlotSettings
  1

  2

  4

  6

 40
0.0
 41
0.0
 42
0.0
 43
0.0
 44
0.0
 45
0.0
 46
0.0
 47
0.0
 48
0.0
 49
0.0
140
0.0
141
0.0
142
1.0
143
1.0
 70
   688
 72
     0
 73
     0
 74
     5
  7

 75
    16
147
1.0
 76
     0
 77
     2
 78
   300
148
0.0
149
0.0
100
AcDbLayout
  1
Layout1
 70
     1
 71
     1
 10
0.0
 20
0.0
 11
12.0
 21
9.0
 12
0.0
 22
0.0
 32
0.0
 14
0.0
 24
0.0
 34
0.0
 15
0.0
 25
0.0
 35
0.0
146
0.0
 13
0.0
 23
0.0
 33
0.0
 16
1.0
 26
0.0
 36
0.0
 17
0.0
 27
1.0
 37
0.0
 76
     0
330
6C
  0
LAYOUT
  5
77
102
{ACAD_REACTORS
330
62
102
}
330
62
100
AcDbPlotSettings
  1

  2

  4

  6

 40
0.0
 41
0.0
 42
0.0
 43
0.0
 44
0.0
 45
0.0
 46
0.0
 47
0.0
 48
0.0
 49
0.0
140
0.0
141
0.0
142
1.0
143
1.0
 70
   688
 72
     0
 73
     0
 74
     5
  7

 75
    16
147
1.0
 76
     0
 77
     2
 78
   300
148
0.0
149
0.0
100
AcDbLayout
  1
Layout2
 70
     1
 71
     2
 10
0.0
 20
0.0
 11
12.0
 21
9.0
 12
0.0
 22
0.0
 32
0.0
 14
0.0
 24
0.0
 34
0.0
 15
0.0
 25
0.0
 35
0.0
146
0.0
 13
0.0
 23
0.0
 33
0.0
 16
1.0
 26
0.0
 36
0.0
 17
0.0
 27
1.0
 37
0.0
 76
     0
330
74
  0
LAYOUT
  5
73
102
{ACAD_REACTORS
330
62
102
}
330
62
100
AcDbPlotSettings
  1

  2

  4

  6

 40
0.0
 41
0.0
 42
0.0
 43
0.0
 44
0.0
 45
0.0
 46
0.0
 47
0.0
 48
0.0
 49
0.0
140
0.0
141
0.0
142
1.0
143
1.0
 70
  1712
 72
     0
 73
     0
 74
     0
  7

 75
     0
147
1.0
 76
     0
 77
     2
 78
   300
148
0.0
149
0.0
100
AcDbLayout
  1
Model
 70
     1
 71
     0
 10
0.0
 20
0.0
 11
12.0
 21
9.0
 12
0.0
 22
0.0
 32
0.0
 14
0.0
 24
0.0
 34
0.0
 15
0.0
 25
0.0
 35
0.0
146
0.0
 13
0.0
 23
0.0
 33
0.0
 16
1.0
 26
0.0
 36
0.0
 17
0.0
 27
1.0
 37
0.0
 76
     0
330
70
  0
MATERIAL
  5
19
102
{ACAD_XDICTIONARY
360
1A
102
}
102
{ACAD_REACTORS
330
10
102
}
330
10
100
AcDbMaterial
  1
ByBlock
 72
     0
 43
0.0208333333333333
 43
0.0
 43
0.0
 43
0.0
 43
0.0
 43
0.0208333333333333
 43
0.0
 43
0.0
 43
0.0
 43
0.0
 43
1.0
 43
0.0
 43
0.0
 43
0.0
 43
0.0
 43
1.0
 77
     0
 47
0.0208333333333333
 47
0.0
 47
0.0
 47
0.0
 47
0.0
 47
0.0208333333333333
 47
0.0
 47
0.0
 47
0.0
 47
0.0
 47
1.0
 47
0.0
 47
0.0
 47
0.0
 47
0.0
 47
1.0
171
     0
 49
0.0208333333333333
 49
0.0
 49
0.0
 49
0.0
 49
0.0
 49
0.0208333333333333
 49
0.0
 49
0.0
 49
0.0
 49
0.0
 49
1.0
 49
0.0
 49
0.0
 49
0.0
 49
0.0
 49
1.0
175
     0
142
0.0208333333333333
142
0.0
142
0.0
142
0.0
142
0.0
142
0.0208333333333333
142
0.0
142
0.0
142
0.0
142
0.0
142
1.0
142
0.0
142
0.0
142
0.0
142
0.0
142
1.0
179
     0
144
0.0208333333333333
144
0.0
144
0.0
144
0.0
144
0.0
144
0.0208333333333333
144
0.0
144
0.0
144
0.0
144
0.0
144
1.0
144
0.0
144
0.0
144
0.0
144
0.0
144
1.0
147
0.0208333333333333
147
0.0
147
0.0
147
0.0
147
0.0
147
0.0208333333333333
147
0.0
147
0.0
147
0.0
147
0.0
147
1.0
147
0.0
147
0.0
147
0.0
147
0.0
147
1.0
  0
MATERIAL
  5
11
102
{ACAD_XDICTIONARY
360
12
102
}
102
{ACAD_REACTORS
330
10
102
}
330
10
100
AcDbMaterial
  1
ByLayer
 72
     0
 43
0.0208333333333333
 43
0.0
 43
0.0
 43
0.0
 43
0.0
 43
0.0208333333333333
 43
0.0
 43
0.0
 43
0.0
 43
0.0
 43
1.0
 43
0.0
 43
0.0
 43
0.0
 43
0.0
 43
1.0
 77
     0
 47
0.0208333333333333
 47
0.0
 47
0.0
 47
0.0
 47
0.0
 47
0.0208333333333333
 47
0.0
 47
0.0
 47
0.0
 47
0.0
 47
1.0
 47
0.0
 47
0.0
 47
0.0
 47
0.0
 47
1.0
171
     0
 49
0.0208333333333333
 49
0.0
 49
0.0
 49
0.0
 49
0.0
 49
0.0208333333333333
 49
0.0
 49
0.0
 49
0.0
 49
0.0
 49
1.0
 49
0.0
 49
0.0
 49
0.0
 49
0.0
 49
1.0
175
     0
142
0.0208333333333333
142
0.0
142
0.0
142
0.0
142
0.0
142
0.0208333333333333
142
0.0
142
0.0
142
0.0
142
0.0
142
1.0
142
0.0
142
0.0
142
0.0
142
0.0
142
1.0
179
     0
144
0.0208333333333333
144
0.0
144
0.0
144
0.0
144
0.0
144
0.0208333333333333
144
0.0
144
0.0
144
0.0
144
0.0
144
1.0
144
0.0
144
0.0
144
0.0
144
0.0
144
1.0
147
0.0208333333333333
147
0.0
147
0.0
147
0.0
147
0.0
147
0.0208333333333333
147
0.0
147
0.0
147
0.0
147
0.0
147
1.0
147
0.0
147
0.0
147
0.0
147
0.0
147
1.0
  0
MATERIAL
  5
21
102
{ACAD_XDICTIONARY
360
22
102
}
102
{ACAD_REACTORS
330
10
102
}
330
10
100
AcDbMaterial
  1
Global
 72
     0
 43
0.0208333333333333
 43
0.0
 43
0.0
 43
0.0
 43
0.0
 43
0.0208333333333333
 43
0.0
 43
0.0
 43
0.0
 43
0.0
 43
1.0
 43
0.0
 43
0.0
 43
0.0
 43
0.0
 43
1.0
 77
     0
 47
0.0208333333333333
 47
0.0
 47
0.0
 47
0.0
 47
0.0
 47
0.0208333333333333
 47
0.0
 47
0.0
 47
0.0
 47
0.0
 47
1.0
 47
0.0
 47
0.0
 47
0.0
 47
0.0
 47
1.0
171
     0
 49
0.0208333333333333
 49
0.0
 49
0.0
 49
0.0
 49
0.0
 49
0.0208333333333333
 49
0.0
 49
0.0
 49
0.0
 49
0.0
 49
1.0
 49
0.0
 49
0.0
 49
0.0
 49
0.0
 49
1.0
175
     0
142
0.0208333333333333
142
0.0
142
0.0
142
0.0
142
0.0
142
0.0208333333333333
142
0.0
142
0.0
142
0.0
142
0.0
142
1.0
142
0.0
142
0.0
142
0.0
142
0.0
142
1.0
179
     0
144
0.0208333333333333
144
0.0
144
0.0
144
0.0
144
0.0
144
0.0208333333333333
144
0.0
144
0.0
144
0.0
144
0.0
144
1.0
144
0.0
144
0.0
144
0.0
144
0.0
144
1.0
147
0.0208333333333333
147
0.0
147
0.0
147
0.0
147
0.0
147
0.0208333333333333
147
0.0
147
0.0
147
0.0
147
0.0
147
1.0
147
0.0
147
0.0
147
0.0
147
0.0
147
1.0
  0
MLEADERSTYLE
  5
67
102
{ACAD_XDICTIONARY
360
13A
102
}
102
{ACAD_REACTORS
330
66
102
}
330
66
100
AcDbMLeaderStyle
179
     2
170
     2
171
     1
172
     0
 90
        2
 40
0.0
 41
0.0
173
     1
 91
-1056964608
340
5B
 92
       -2
290
     1
 42
0.09
291
     1
 43
0.36
  3
Standard
 44
0.18
300

342
55
174
     1
178
     6
175
     1
176
     0
 93
-1056964608
 45
0.18
292
     0
297
     0
 46
0.18
 94
-1056964608
 47
1.0
 49
1.0
140
1.0
293
     1
141
0.0
294
     1
177
     0
142
1.0
295
     0
296
     0
143
0.125
271
     0
272
     9
273
     9
  0
MLINESTYLE
  5
60
102
{ACAD_REACTORS
330
5F
102
}
330
5F
100
AcDbMlineStyle
  2
STANDARD
 70
     0
  3

 62
   256
 51
90.0
 52
90.0
 71
     2
 49
0.5
 62
   256
  6
BYLAYER
 49
-0.5
 62
   256
  6
BYLAYER
  0
ACDBPLACEHOLDER
  5
F
102
{ACAD_REACTORS
330
E
102
}
330
E
  0
SCALE
  5
43
102
{ACAD_REACTORS
330
42
102
}
330
42
100
AcDbScale
 70
     0
300
1:1
140
1.0
141
1.0
290
     1
  0
SCALE
  5
44
102
{ACAD_REACTORS
330
42
102
}
330
42
100
AcDbScale
 70
     0
300
1/128" = 1'-0"
140
0.0078125
141
12.0
290
     0
  0
SCALE
  5
45
102
{ACAD_REACTORS
330
42
102
}
330
42
100
AcDbScale
 70
     0
300
1/64" = 1'-0"
140
0.015625
141
12.0
290
     0
  0
SCALE
  5
46
102
{ACAD_REACTORS
330
42
102
}
330
42
100
AcDbScale
 70
     0
300
1/32" = 1'-0"
140
0.03125
141
12.0
290
     0
  0
SCALE
  5
47
102
{ACAD_REACTORS
330
42
102
}
330
42
100
AcDbScale
 70
     0
300
1/16" = 1'-0"
140
0.0625
141
12.0
290
     0
  0
SCALE
  5
48
102
{ACAD_REACTORS
330
42
102
}
330
42
100
AcDbScale
 70
     0
300
3/32" = 1'-0"
140
0.09375
141
12.0
290
     0
  0
SCALE
  5
49
102
{ACAD_REACTORS
330
42
102
}
330
42
100
AcDbScale
 70
     0
300
1/8" = 1'-0"
140
0.125
141
12.0
290
     0
  0
SCALE
  5
4A
102
{ACAD_REACTORS
330
42
102
}
330
42
100
AcDbScale
 70
     0
300
3/16" = 1'-0"
140
0.1875
141
12.0
290
     0
  0
SCALE
  5
4B
102
{ACAD_REACTORS
330
42
102
}
330
42
100
AcDbScale
 70
     0
300
1/4" = 1'-0"
140
0.25
141
12.0
290
     0
  0
SCALE
  5
4C
102
{ACAD_REACTORS
330
42
102
}
330
42
100
AcDbScale
 70
     0
300
3/8" = 1'-0"
140
0.375
141
12.0
290
     0
  0
SCALE
  5
4D
102
{ACAD_REACTORS
330
42
102
}
330
42
100
AcDbScale
 70
     0
300
1/2" = 1'-0"
140
0.5
141
12.0
290
     0
  0
SCALE
  5
4E
102
{ACAD_REACTORS
330
42
102
}
330
42
100
AcDbScale
 70
     0
300
3/4" = 1'-0"
140
0.75
141
12.0
290
     0
  0
SCALE
  5
4F
102
{ACAD_REACTORS
330
42
102
}
330
42
100
AcDbScale
 70
     0
300
1" = 1'-0"
140
1.0
141
12.0
290
     0
  0
SCALE
  5
50
102
{ACAD_REACTORS
330
42
102
}
330
42
100
AcDbScale
 70
     0
300
1-1/2" = 1'-0"
140
1.5
141
12.0
290
     0
  0
SCALE
  5
51
102
{ACAD_REACTORS
330
42
102
}
330
42
100
AcDbScale
 70
     0
300
3" = 1'-0"
140
3.0
141
12.0
290
     0
  0
SCALE
  5
52
102
{ACAD_REACTORS
330
42
102
}
330
42
100
AcDbScale
 70
     0
300
6" = 1'-0"
140
6.0
141
12.0
290
     0
  0
SCALE
  5
53
102
{ACAD_REACTORS
330
42
102
}
330
42
100
AcDbScale
 70
     0
300
1'-0" = 1'-0"
140
12.0
141
12.0
290
     0
  0
ACDBSECTIONVIEWSTYLE
  5
69
102
{ACAD_XDICTIONARY
360
13C
102
}
102
{ACAD_REACTORS
330
68
102
}
330
68
100
AcDbModelDocViewStyle
 70
     0
  3
Imperial24
290
     0
100
AcDbSectionViewStyle
 70
     0
 71
     0
 90
       78
 71
     1
340
55
 62
   256
 40
0.24
340
0
340
0
 62
   256
 40
0.24
300
I, O, Q, S, X, Z
 40
0.48
 90
        3
 40
0.18
 90
        1
 71
     2
340
5D
 90
       25
 62
   256
340
5D
 90
       50
 62
   256
 40
0.24
 40
0.0
 40
0.24
 71
     3
340
55
 62
   256
 40
0.24
 90
        1
 40
0.75
 90
        1
300
%<\AcVar ViewType \f "%tc1">% %<\AcVar ViewSectionStartId>%-%<\AcVar ViewSectionEndId>%\PSCALE %<\AcVar ViewScale \f "%sn">%
 71
     4
 62
   256
 62
   257
300
ANSI31
 40
1.0
 90
        0
290
     0
290
     0
 90
        6
 40
0.0
 40
1.570796326794896
 40
0.2617993877991494
 40
1.308996938995747
 40
-0.2617993877991494
 40
1.832595714594046
  0
TABLESTYLE
  5
65
102
{ACAD_XDICTIONARY
360
107
102
}
102
{ACAD_REACTORS
330
64
102
}
330
64
100
AcDbTableStyle
280
     0
  3
Standard
 70
     0
 71
     0
 40
0.06
 41
0.06
280
     0
281
     0
  7
Standard
140
0.18
170
     2
 62
     0
 63
     7
283
     0
 90
      512
 91
        0
  1

274
    -2
284
     1
 64
     0
275
    -2
285
     1
 65
     0
276
    -2
286
     1
 66
     0
277
    -2
287
     1
 67
     0
278
    -2
288
     1
 68
     0
279
    -2
289
     1
 69
     0
  7
Standard
140
0.25
170
     5
 62
     0
 63
     7
283
     0
 90
      512
 91
        0
  1

274
    -2
284
     1
 64
     0
275
    -2
285
     1
 65
     0
276
    -2
286
     1
 66
     0
277
    -2
287
     1
 67
     0
278
    -2
288
     1
 68
     0
279
    -2
289
     1
 69
     0
  7
Standard
140
0.18
170
     5
 62
     0
 63
     7
283
     0
 90
      512
 91
        0
  1

274
    -2
284
     1
 64
     0
275
    -2
285
     1
 65
     0
276
    -2
286
     1
 66
     0
277
    -2
287
     1
 67
     0
278
    -2
288
     1
 68
     0
279
    -2
289
     1
 69
     0
  0
VISUALSTYLE
  5
2F
102
{ACAD_XDICTIONARY
360
114
102
}
102
{ACAD_REACTORS
330
29
102
}
330
29
100
AcDbVisualStyle
  2
2dWireframe
 70
     4
177
     2
291
     0
 71
     0
176
     1
 72
     2
176
     1
 73
     0
176
     1
 90
        0
176
     1
 40
0.6
176
     1
 41
30.0
176
     1
 63
     7
421
 16777215
176
     1
 74
     1
176
     1
 91
        4
176
     1
 64
     7
176
     1
 65
   257
176
     1
 75
     1
176
     1
175
     1
176
     1
 42
1.0
176
     1
 92
        0
176
     1
 66
   257
176
     1
 43
1.0
176
     1
 76
     1
176
     1
 77
     6
176
     1
 78
     2
176
     1
 67
     7
176
     1
 79
     5
176
     1
170
     0
176
     1
171
     0
176
     1
290
     0
176
     1
 93
        1
176
     1
 44
0.0
176
     1
173
     0
176
     1
1001
ACAD
1000
AcDbSavedByObjectVersion
1070
     0
  0
VISUALSTYLE
  5
2E
102
{ACAD_XDICTIONARY
360
112
102
}
102
{ACAD_REACTORS
330
29
102
}
330
29
100
AcDbVisualStyle
  2
Basic
 70
     7
177
     2
291
     1
 71
     1
176
     1
 72
     0
176
     1
 73
     1
176
     1
 90
        0
176
     1
 40
0.6
176
     1
 41
30.0
176
     1
 63
     7
421
 16777215
176
     1
 74
     0
176
     1
 91
        4
176
     1
 64
     7
176
     1
 65
   257
176
     1
 75
     1
176
     1
175
     1
176
     1
 42
1.0
176
     1
 92
        8
176
     1
 66
     7
176
     1
 43
1.0
176
     1
 76
     1
176
     1
 77
     6
176
     1
 78
     2
176
     1
 67
     7
176
     1
 79
     5
176
     1
170
     0
176
     1
171
     0
176
     1
290
     0
176
     1
 93
        1
176
     1
 44
0.0
176
     1
173
     0
176
     1
1001
ACAD
1000
AcDbSavedByObjectVersion
1070
     0
  0
VISUALSTYLE
  5
35
102
{ACAD_XDICTIONARY
360
120
102
}
102
{ACAD_REACTORS
330
29
102
}
330
29
100
AcDbVisualStyle
  2
Brighten
 70
    12
177
     2
291
     1
 71
     2
176
     1
 72
     2
176
     1
 73
     0
176
     1
 90
        0
176
     1
 40
0.6
176
     1
 41
30.0
176
     1
 63
     7
421
 16777215
176
     1
 74
     1
176
     1
 91
        4
176
     1
 64
     7
176
     1
 65
   257
176
     1
 75
     1
176
     1
175
     1
176
     1
 42
1.0
176
     1
 92
        8
176
     1
 66
     7
176
     1
 43
1.0
176
     1
 76
     1
176
     1
 77
     6
176
     1
 78
     2
176
     1
 67
     7
176
     1
 79
     5
176
     1
170
     0
176
     1
171
     0
176
     1
290
     0
176
     1
 93
        1
176
     1
 44
50.0
176
     1
173
     0
176
     1
1001
ACAD
1000
AcDbSavedByObjectVersion
1070
     0
  0
VISUALSTYLE
  5
39
102
{ACAD_XDICTIONARY
360
128
102
}
102
{ACAD_REACTORS
330
29
102
}
330
29
100
AcDbVisualStyle
  2
ColorChange
 70
    16
177
     2
291
     1
 71
     2
176
     1
 72
     2
176
     1
 73
     3
176
     1
 90
        0
176
     1
 40
0.6
176
     1
 41
30.0
176
     1
 63
     8
421
  8421504
176
     1
 74
     1
176
     1
 91
        4
176
     1
 64
     7
176
     1
 65
   257
176
     1
 75
     1
176
     1
175
     1
176
     1
 42
1.0
176
     1
 92
        8
176
     1
 66
     8
424
  8421504
176
     1
 43
1.0
176
     1
 76
     1
176
     1
 77
     6
176
     1
 78
     2
176
     1
 67
     7
176
     1
 79
     5
176
     1
170
     0
176
     1
171
     0
176
     1
290
     0
176
     1
 93
        1
176
     1
 44
0.0
176
     1
173
     0
176
     1
1001
ACAD
1000
AcDbSavedByObjectVersion
1070
     0
  0
VISUALSTYLE
  5
32
102
{ACAD_XDICTIONARY
360
11A
102
}
102
{ACAD_REACTORS
330
29
102
}
330
29
100
AcDbVisualStyle
  2
Conceptual
 70
     9
177
     2
291
     0
 71
     3
176
     1
 72
     2
176
     1
 73
     0
176
     1
 90
        0
176
     1
 40
0.6
176
     1
 41
30.0
176
     1
 63
     7
421
 16777215
176
     1
 74
     2
176
     1
 91
        2
176
     1
 64
     7
176
     1
 65
   257
176
     1
 75
     1
176
     1
175
     1
176
     1
 42
179.0
176
     1
 92
        8
176
     1
 66
     7
176
     1
 43
1.0
176
     1
 76
     1
176
     1
 77
     6
176
     1
 78
     2
176
     1
 67
     7
176
     1
 79
     3
176
     1
170
     0
176
     1
171
     0
176
     1
290
     0
176
     1
 93
        1
176
     1
 44
0.0
176
     1
173
     0
176
     1
1001
ACAD
1000
AcDbSavedByObjectVersion
1070
     0
  0
VISUALSTYLE
  5
34
102
{ACAD_XDICTIONARY
360
11E
102
}
102
{ACAD_REACTORS
330
29
102
}
330
29
100
AcDbVisualStyle
  2
Dim
 70
    11
177
     2
291
     1
 71
     2
176
     1
 72
     2
176
     1
 73
     0
176
     1
 90
        0
176
     1
 40
0.6
176
     1
 41
30.0
176
     1
 63
     7
421
 16777215
176
     1
 74
     1
176
     1
 91
        4
176
     1
 64
     7
176
     1
 65
   257
176
     1
 75
     1
176
     1
175
     1
176
     1
 42
1.0
176
     1
 92
        8
176
     1
 66
     7
176
     1
 43
1.0
176
     1
 76
     1
176
     1
 77
     6
176
     1
 78
     2
176
     1
 67
     7
176
     1
 79
     5
176
     1
170
     0
176
     1
171
     0
176
     1
290
     0
176
     1
 93
        1
176
     1
 44
-50.0
176
     1
173
     0
176
     1
1001
ACAD
1000
AcDbSavedByObjectVersion
1070
     0
  0
VISUALSTYLE
  5
41
102
{ACAD_XDICTIONARY
360
138
102
}
102
{ACAD_REACTORS
330
29
102
}
330
29
100
AcDbVisualStyle
  2
EdgeColorOff
 70
    22
177
     2
291
     1
 71
     2
176
     0
 72
     2
176
     0
 73
     0
176
     0
 90
        0
176
     0
 40
0.6
176
     0
 41
30.0
176
     0
 63
     7
421
 16777215
176
     0
 74
     1
176
     0
 91
        4
176
     0
 64
     7
176
     0
 65
   257
176
     0
 75
     1
176
     0
175
     1
176
     0
 42
1.0
176
     0
 92
        8
176
     2
 66
     7
176
     0
 43
1.0
176
     0
 76
     1
176
     0
 77
     6
176
     0
 78
     2
176
     0
 67
     7
176
     0
 79
     5
176
     0
170
     0
176
     0
171
     0
176
     0
290
     0
176
     0
 93
        1
176
     0
 44
0.0
176
     0
173
     0
176
     0
1001
ACAD
1000
AcDbSavedByObjectVersion
1070
     0
  0
VISUALSTYLE
  5
38
102
{ACAD_XDICTIONARY
360
126
102
}
102
{ACAD_REACTORS
330
29
102
}
330
29
100
AcDbVisualStyle
  2
Facepattern
 70
    15
177
     2
291
     1
 71
     2
176
     1
 72
     2
176
     1
 73
     0
176
     1
 90
        0
176
     1
 40
0.6
176
     1
 41
30.0
176
     1
 63
     7
421
 16777215
176
     1
 74
     1
176
     1
 91
        4
176
     1
 64
     7
176
     1
 65
   257
176
     1
 75
     1
176
     1
175
     1
176
     1
 42
1.0
176
     1
 92
        8
176
     1
 66
     7
176
     1
 43
1.0
176
     1
 76
     1
176
     1
 77
     6
176
     1
 78
     2
176
     1
 67
     7
176
     1
 79
     5
176
     1
170
     0
176
     1
171
     0
176
     1
290
     0
176
     1
 93
        1
176
     1
 44
0.0
176
     1
173
     0
176
     1
1001
ACAD
1000
AcDbSavedByObjectVersion
1070
     0
  0
VISUALSTYLE
  5
2A
102
{ACAD_XDICTIONARY
360
10A
102
}
102
{ACAD_REACTORS
330
29
102
}
330
29
100
AcDbVisualStyle
  2
Flat
 70
     0
177
     2
291
     1
 71
     2
176
     1
 72
     1
176
     1
 73
     1
176
     1
 90
        2
176
     1
 40
0.6
176
     1
 41
30.0
176
     1
 63
     7
421
 16777215
176
     1
 74
     0
176
     1
 91
        0
176
     1
 64
     7
176
     1
 65
   257
176
     1
 75
     1
176
     1
175
     1
176
     1
 42
1.0
176
     1
 92
        8
176
     1
 66
     7
176
     1
 43
1.0
176
     1
 76
     1
176
     1
 77
     6
176
     1
 78
     2
176
     1
 67
     7
176
     1
 79
     5
176
     1
170
     0
176
     1
171
     0
176
     1
290
     0
176
     1
 93
       13
176
     1
 44
0.0
176
     1
173
     0
176
     1
1001
ACAD
1000
AcDbSavedByObjectVersion
1070
     0
  0
VISUALSTYLE
  5
2B
102
{ACAD_XDICTIONARY
360
10C
102
}
102
{ACAD_REACTORS
330
29
102
}
330
29
100
AcDbVisualStyle
  2
FlatWithEdges
 70
     1
177
     2
291
     1
 71
     2
176
     1
 72
     1
176
     1
 73
     1
176
     1
 90
        2
176
     1
 40
0.6
176
     1
 41
30.0
176
     1
 63
     7
421
 16777215
176
     1
 74
     1
176
     1
 91
        0
176
     1
 64
     7
176
     1
 65
   257
176
     1
 75
     1
176
     1
175
     1
176
     1
 42
1.0
176
     1
 92
        0
176
     1
 66
   257
176
     1
 43
1.0
176
     1
 76
     1
176
     1
 77
     6
176
     1
 78
     2
176
     1
 67
     7
176
     1
 79
     5
176
     1
170
     0
176
     1
171
     0
176
     1
290
     0
176
     1
 93
       13
176
     1
 44
0.0
176
     1
173
     0
176
     1
1001
ACAD
1000
AcDbSavedByObjectVersion
1070
     0
  0
VISUALSTYLE
  5
2C
102
{ACAD_XDICTIONARY
360
10E
102
}
102
{ACAD_REACTORS
330
29
102
}
330
29
100
AcDbVisualStyle
  2
Gouraud
 70
     2
177
     2
291
     1
 71
     2
176
     1
 72
     2
176
     1
 73
     1
176
     1
 90
        2
176
     1
 40
0.6
176
     1
 41
30.0
176
     1
 63
     7
421
 16777215
176
     1
 74
     0
176
     1
 91
        0
176
     1
 64
     7
176
     1
 65
   257
176
     1
 75
     1
176
     1
175
     1
176
     1
 42
1.0
176
     1
 92
        0
176
     1
 66
     7
176
     1
 43
1.0
176
     1
 76
     1
176
     1
 77
     6
176
     1
 78
     2
176
     1
 67
     7
176
     1
 79
     5
176
     1
170
     0
176
     1
171
     0
176
     1
290
     0
176
     1
 93
       13
176
     1
 44
0.0
176
     1
173
     0
176
     1
1001
ACAD
1000
AcDbSavedByObjectVersion
1070
     0
  0
VISUALSTYLE
  5
2D
102
{ACAD_XDICTIONARY
360
110
102
}
102
{ACAD_REACTORS
330
29
102
}
330
29
100
AcDbVisualStyle
  2
GouraudWithEdges
 70
     3
177
     2
291
     1
 71
     2
176
     1
 72
     2
176
     1
 73
     1
176
     1
 90
        2
176
     1
 40
0.6
176
     1
 41
30.0
176
     1
 63
     7
421
 16777215
176
     1
 74
     1
176
     1
 91
        0
176
     1
 64
     7
176
     1
 65
   257
176
     1
 75
     1
176
     1
175
     1
176
     1
 42
1.0
176
     1
 92
        0
176
     1
 66
   257
176
     1
 43
1.0
176
     1
 76
     1
176
     1
 77
     6
176
     1
 78
     2
176
     1
 67
     7
176
     1
 79
     5
176
     1
170
     0
176
     1
171
     0
176
     1
290
     0
176
     1
 93
       13
176
     1
 44
0.0
176
     1
173
     0
176
     1
1001
ACAD
1000
AcDbSavedByObjectVersion
1070
     0
  0
VISUALSTYLE
  5
31
102
{ACAD_XDICTIONARY
360
118
102
}
102
{ACAD_REACTORS
330
29
102
}
330
29
100
AcDbVisualStyle
  2
Hidden
 70
     6
177
     2
291
     0
 71
     1
176
     1
 72
     2
176
     1
 73
     2
176
     1
 90
        0
176
     1
 40
0.6
176
     1
 41
30.0
176
     1
 63
     7
421
 16777215
176
     1
 74
     2
176
     1
 91
        2
176
     1
 64
     7
176
     1
 65
   257
176
     1
 75
     2
176
     1
175
     1
176
     1
 42
40.0
176
     1
 92
        0
176
     1
 66
   257
176
     1
 43
1.0
176
     1
 76
     1
176
     1
 77
     6
176
     1
 78
     2
176
     1
 67
     7
176
     1
 79
     3
176
     1
170
     0
176
     1
171
     0
176
     1
290
     0
176
     1
 93
        1
176
     1
 44
0.0
176
     1
173
     0
176
     1
1001
ACAD
1000
AcDbSavedByObjectVersion
1070
     0
  0
VISUALSTYLE
  5
3F
102
{ACAD_XDICTIONARY
360
134
102
}
102
{ACAD_REACTORS
330
29
102
}
330
29
100
AcDbVisualStyle
  2
JitterOff
 70
    20
177
     2
291
     1
 71
     2
176
     0
 72
     2
176
     0
 73
     0
176
     0
 90
        0
176
     0
 40
0.6
176
     0
 41
30.0
176
     0
 63
     7
421
 16777215
176
     0
 74
     1
176
     0
 91
        4
176
     0
 64
     7
176
     0
 65
   257
176
     0
 75
     1
176
     0
175
     1
176
     0
 42
1.0
176
     0
 92
       10
176
     2
 66
     7
176
     0
 43
1.0
176
     0
 76
     1
176
     0
 77
     6
176
     0
 78
     2
176
     0
 67
     7
176
     0
 79
     5
176
     0
170
     0
176
     0
171
     0
176
     0
290
     0
176
     0
 93
        1
176
     0
 44
0.0
176
     0
173
     0
176
     0
1001
ACAD
1000
AcDbSavedByObjectVersion
1070
     0
  0
VISUALSTYLE
  5
37
102
{ACAD_XDICTIONARY
360
124
102
}
102
{ACAD_REACTORS
330
29
102
}
330
29
100
AcDbVisualStyle
  2
Linepattern
 70
    14
177
     2
291
     1
 71
     2
176
     1
 72
     2
176
     1
 73
     0
176
     1
 90
        0
176
     1
 40
0.6
176
     1
 41
30.0
176
     1
 63
     7
421
 16777215
176
     1
 74
     1
176
     1
 91
        4
176
     1
 64
     7
176
     1
 65
   257
176
     1
 75
     7
176
     1
175
     7
176
     1
 42
1.0
176
     1
 92
        8
176
     1
 66
     7
176
     1
 43
1.0
176
     1
 76
     1
176
     1
 77
     6
176
     1
 78
     2
176
     1
 67
     7
176
     1
 79
     5
176
     1
170
     0
176
     1
171
     0
176
     1
290
     0
176
     1
 93
        1
176
     1
 44
0.0
176
     1
173
     0
176
     1
1001
ACAD
1000
AcDbSavedByObjectVersion
1070
     0
  0
VISUALSTYLE
  5
40
102
{ACAD_XDICTIONARY
360
136
102
}
102
{ACAD_REACTORS
330
29
102
}
330
29
100
AcDbVisualStyle
  2
OverhangOff
 70
    21
177
     2
291
     1
 71
     2
176
     0
 72
     2
176
     0
 73
     0
176
     0
 90
        0
176
     0
 40
0.6
176
     0
 41
30.0
176
     0
 63
     7
421
 16777215
176
     0
 74
     1
176
     0
 91
        4
176
     0
 64
     7
176
     0
 65
   257
176
     0
 75
     1
176
     0
175
     1
176
     0
 42
1.0
176
     0
 92
        9
176
     2
 66
     7
176
     0
 43
1.0
176
     0
 76
     1
176
     0
 77
     6
176
     0
 78
     2
176
     0
 67
     7
176
     0
 79
     5
176
     0
170
     0
176
     0
171
     0
176
     0
290
     0
176
     0
 93
        1
176
     0
 44
0.0
176
     0
173
     0
176
     0
1001
ACAD
1000
AcDbSavedByObjectVersion
1070
     0
  0
VISUALSTYLE
  5
33
102
{ACAD_XDICTIONARY
360
11C
102
}
102
{ACAD_REACTORS
330
29
102
}
330
29
100
AcDbVisualStyle
  2
Realistic
 70
     8
177
     2
291
     0
 71
     2
176
     1
 72
     3
176
     1
 73
     0
176
     1
 90
        2
176
     1
 40
0.6
176
     1
 41
30.0
176
     1
 63
     7
421
 16777215
176
     1
 74
     0
176
     1
 91
        0
176
     1
 64
     7
176
     1
 65
   257
176
     1
 75
     1
176
     1
175
     1
176
     1
 42
1.0
176
     1
 92
        8
176
     1
 66
   257
176
     1
 43
1.0
176
     1
 76
     1
176
     1
 77
     6
176
     1
 78
     2
176
     1
 67
     7
176
     1
 79
     3
176
     1
170
     0
176
     1
171
     0
176
     1
290
     0
176
     1
 93
       13
176
     1
 44
0.0
176
     1
173
     0
176
     1
1001
ACAD
1000
AcDbSavedByObjectVersion
1070
     0
  0
VISUALSTYLE
  5
3E
102
{ACAD_XDICTIONARY
360
132
102
}
102
{ACAD_REACTORS
330
29
102
}
330
29
100
AcDbVisualStyle
  2
Shaded
 70
    27
177
     2
291
     0
 71
     2
176
     1
 72
     2
176
     1
 73
     1
176
     1
 90
        2
176
     1
 40
0.6
176
     1
 41
30.0
176
     1
 63
     7
421
 16777215
176
     1
 74
     0
176
     1
 91
        4
176
     1
 64
     7
176
     1
 65
   257
176
     1
 75
     1
176
     1
175
     1
176
     1
 42
1.0
176
     1
 92
        8
176
     1
 66
   257
176
     1
 43
1.0
176
     1
 76
     1
176
     1
 77
     6
176
     1
 78
     2
176
     1
 67
     8
425
  7895160
176
     1
 79
     3
176
     1
170
     0
176
     1
171
     0
176
     1
290
     0
176
     1
 93
        5
176
     1
 44
0.0
176
     1
173
     0
176
     1
1001
ACAD
1000
AcDbSavedByObjectVersion
1070
     0
  0
VISUALSTYLE
  5
3D
102
{ACAD_XDICTIONARY
360
130
102
}
102
{ACAD_REACTORS
330
29
102
}
330
29
100
AcDbVisualStyle
  2
Shaded with edges
 70
    26
177
     2
291
     0
 71
     2
176
     1
 72
     2
176
     1
 73
     1
176
     1
 90
        2
176
     1
 40
0.6
176
     1
 41
30.0
176
     1
 63
     7
421
 16777215
176
     1
 74
     1
176
     1
 91
        2
176
     1
 64
     7
176
     1
 65
   257
176
     1
 75
     2
176
     1
175
     1
176
     1
 42
1.0
176
     1
 92
        8
176
     1
 66
   257
176
     1
 43
1.0
176
     1
 76
     1
176
     1
 77
     6
176
     1
 78
     2
176
     1
 67
     7
176
     1
 79
     3
176
     1
170
     0
176
     1
171
     0
176
     1
290
     0
176
     1
 93
        5
176
     1
 44
0.0
176
     1
173
     0
176
     1
1001
ACAD
1000
AcDbSavedByObjectVersion
1070
     0
  0
VISUALSTYLE
  5
3A
102
{ACAD_XDICTIONARY
360
12A
102
}
102
{ACAD_REACTORS
330
29
102
}
330
29
100
AcDbVisualStyle
  2
Shades of Gray
 70
    23
177
     2
291
     0
 71
     2
176
     1
 72
     2
176
     1
 73
     3
176
     1
 90
        0
176
     1
 40
0.6
176
     1
 41
30.0
176
     1
 63
     7
421
 16777215
176
     1
 74
     2
176
     1
 91
        2
176
     1
 64
     7
176
     1
 65
     7
176
     1
 75
     1
176
     1
175
     1
176
     1
 42
40.0
176
     1
 92
        8
176
     1
 66
     7
176
     1
 43
1.0
176
     1
 76
     1
176
     1
 77
     6
176
     1
 78
     2
176
     1
 67
     7
176
     1
 79
     3
176
     1
170
     0
176
     1
171
     0
176
     1
290
     0
176
     1
 93
        1
176
     1
 44
0.0
176
     1
173
     0
176
     1
1001
ACAD
1000
AcDbSavedByObjectVersion
1070
     0
  0
VISUALSTYLE
  5
3B
102
{ACAD_XDICTIONARY
360
12C
102
}
102
{ACAD_REACTORS
330
29
102
}
330
29
100
AcDbVisualStyle
  2
Sketchy
 70
    24
177
     2
291
     0
 71
     1
176
     1
 72
     2
176
     1
 73
     2
176
     1
 90
        0
176
     1
 40
0.6
176
     1
 41
30.0
176
     1
 63
     7
421
 16777215
176
     1
 74
     2
176
     1
 91
        2
176
     1
 64
     7
176
     1
 65
     7
176
     1
 75
     1
176
     1
175
     1
176
     1
 42
40.0
176
     1
 92
       11
176
     1
 66
     7
176
     1
 43
1.0
176
     1
 76
     1
176
     1
 77
     6
176
     1
 78
     2
176
     1
 67
     7
176
     1
 79
     6
176
     1
170
     0
176
     1
171
     0
176
     1
290
     0
176
     1
 93
        1
176
     1
 44
0.0
176
     1
173
     0
176
     1
1001
ACAD
1000
AcDbSavedByObjectVersion
1070
     0
  0
VISUALSTYLE
  5
36
102
{ACAD_XDICTIONARY
360
122
102
}
102
{ACAD_REACTORS
330
29
102
}
330
29
100
AcDbVisualStyle
  2
Thicken
 70
    13
177
     2
291
     1
 71
     2
176
     1
 72
     2
176
     1
 73
     0
176
     1
 90
        0
176
     1
 40
0.6
176
     1
 41
30.0
176
     1
 63
     7
421
 16777215
176
     1
 74
     1
176
     1
 91
        4
176
     1
 64
     7
176
     1
 65
   257
176
     1
 75
     1
176
     1
175
     1
176
     1
 42
1.0
176
     1
 92
       12
176
     1
 66
     7
176
     1
 43
1.0
176
     1
 76
     1
176
     1
 77
     6
176
     1
 78
     2
176
     1
 67
     7
176
     1
 79
     5
176
     1
170
     0
176
     1
171
     0
176
     1
290
     0
176
     1
 93
        1
176
     1
 44
0.0
176
     1
173
     0
176
     1
1001
ACAD
1000
AcDbSavedByObjectVersion
1070
     0
  0
VISUALSTYLE
  5
30
102
{ACAD_XDICTIONARY
360
116
102
}
102
{ACAD_REACTORS
330
29
102
}
330
29
100
AcDbVisualStyle
  2
Wireframe
 70
     5
177
     2
291
     0
 71
     0
176
     1
 72
     2
176
     1
 73
     0
176
     1
 90
        0
176
     1
 40
0.6
176
     1
 41
30.0
176
     1
 63
     7
421
 16777215
176
     1
 74
     1
176
     1
 91
        4
176
     1
 64
     7
176
     1
 65
   257
176
     1
 75
     1
176
     1
175
     1
176
     1
 42
1.0
176
     1
 92
        0
176
     1
 66
   257
176
     1
 43
1.0
176
     1
 76
     1
176
     1
 77
     6
176
     1
 78
     2
176
     1
 67
     7
176
     1
 79
     3
176
     1
170
     0
176
     1
171
     0
176
     1
290
     0
176
     1
 93
        1
176
     1
 44
0.0
176
     1
173
     0
176
     1
1001
ACAD
1000
AcDbSavedByObjectVersion
1070
     0
  0
VISUALSTYLE
  5
3C
102
{ACAD_XDICTIONARY
360
12E
102
}
102
{ACAD_REACTORS
330
29
102
}
330
29
100
AcDbVisualStyle
  2
X-Ray
 70
    25
177
     2
291
     0
 71
     2
176
     1
 72
     2
176
     1
 73
     1
176
     1
 90
        1
176
     1
 40
0.5
176
     1
 41
30.0
176
     1
 63
     7
421
 16777215
176
     1
 74
     1
176
     1
 91
        0
176
     1
 64
     7
176
     1
 65
   257
176
     1
 75
     1
176
     1
175
     1
176
     1
 42
1.0
176
     1
 92
        8
176
     1
 66
     7
176
     1
 43
1.0
176
     1
 76
     1
176
     1
 77
     6
176
     1
 78
     2
176
     1
 67
     7
176
     1
 79
     3
176
     1
170
     0
176
     1
171
     0
176
     1
290
     0
176
     1
 93
       13
176
     1
 44
0.0
176
     1
173
     0
176
     1
1001
ACAD
1000
AcDbSavedByObjectVersion
1070
     0
  0
DICTIONARYVAR
  5
106
102
{ACAD_REACTORS
330
101
102
}
330
101
100
DictionaryVariables
280
     0
  1
1:1
  0
DICTIONARYVAR
  5
103
102
{ACAD_REACTORS
330
101
102
}
330
101
100
DictionaryVariables
280
     0
  1
STANDARD
  0
DICTIONARYVAR
  5
102
102
{ACAD_REACTORS
330
101
102
}
330
101
100
DictionaryVariables
280
     0
  1
STANDARD
  0
DICTIONARYVAR
  5
104
102
{ACAD_REACTORS
330
101
102
}
330
101
100
DictionaryVariables
280
     0
  1
Imperial24
  0
DICTIONARYVAR
  5
105
102
{ACAD_REACTORS
330
101
102
}
330
101
100
DictionaryVariables
280
     0
  1
Imperial24
  0
DICTIONARY
  5
13E
330
6B
100
AcDbDictionary
280
     1
281
     1
  3
ACAD_XREC_ROUNDTRIP
360
13F
  0
DICTIONARY
  5
1A
330
19
100
AcDbDictionary
280
     1
281
     1
  3
BUMPTILE
360
1C
  3
DIFFUSETILE
360
1B
  3
OPACITYTILE
360
1F
  3
REFLECTIONTILE
360
1E
  3
REFRACTIONTILE
360
20
  3
SPECULARTILE
360
1D
  0
DICTIONARY
  5
12
330
11
100
AcDbDictionary
280
     1
281
     1
  3
BUMPTILE
360
14
  3
DIFFUSETILE
360
13
  3
OPACITYTILE
360
17
  3
REFLECTIONTILE
360
16
  3
REFRACTIONTILE
360
18
  3
SPECULARTILE
360
15
  0
DICTIONARY
  5
22
330
21
100
AcDbDictionary
280
     1
281
     1
  3
BUMPTILE
360
24
  3
DIFFUSETILE
360
23
  3
OPACITYTILE
360
27
  3
REFLECTIONTILE
360
26
  3
REFRACTIONTILE
360
28
  3
SPECULARTILE
360
25
  0
DICTIONARY
  5
13A
330
67
100
AcDbDictionary
280
     1
281
     1
  3
ACAD_XREC_ROUNDTRIP
360
13B
  0
DICTIONARY
  5
13C
330
69
100
AcDbDictionary
280
     1
281
     1
  3
ACAD_XREC_ROUNDTRIP
360
13D
  0
DICTIONARY
  5
107
330
65
100
AcDbDictionary
280
     1
281
     1
  3
ACAD_ROUNDTRIP_2008_TABLESTYLE_CELLSTYLEMAP
360
108
  0
DICTIONARY
  5
114
330
2F
100
AcDbDictionary
280
     1
281
     1
  3
ACAD_XREC_ROUNDTRIP
360
115
  0
DICTIONARY
  5
112
330
2E
100
AcDbDictionary
280
     1
281
     1
  3
ACAD_XREC_ROUNDTRIP
360
113
  0
DICTIONARY
  5
120
330
35
100
AcDbDictionary
280
     1
281
     1
  3
ACAD_XREC_ROUNDTRIP
360
121
  0
DICTIONARY
  5
128
330
39
100
AcDbDictionary
280
     1
281
     1
  3
ACAD_XREC_ROUNDTRIP
360
129
  0
DICTIONARY
  5
11A
330
32
100
AcDbDictionary
280
     1
281
     1
  3
ACAD_XREC_ROUNDTRIP
360
11B
  0
DICTIONARY
  5
11E
330
34
100
AcDbDictionary
280
     1
281
     1
  3
ACAD_XREC_ROUNDTRIP
360
11F
  0
DICTIONARY
  5
138
330
41
100
AcDbDictionary
280
     1
281
     1
  3
ACAD_XREC_ROUNDTRIP
360
139
  0
DICTIONARY
  5
126
330
38
100
AcDbDictionary
280
     1
281
     1
  3
ACAD_XREC_ROUNDTRIP
360
127
  0
DICTIONARY
  5
10A
330
2A
100
AcDbDictionary
280
     1
281
     1
  3
ACAD_XREC_ROUNDTRIP
360
10B
  0
DICTIONARY
  5
10C
330
2B
100
AcDbDictionary
280
     1
281
     1
  3
ACAD_XREC_ROUNDTRIP
360
10D
  0
DICTIONARY
  5
10E
330
2C
100
AcDbDictionary
280
     1
281
     1
  3
ACAD_XREC_ROUNDTRIP
360
10F
  0
DICTIONARY
  5
110
330
2D
100
AcDbDictionary
280
     1
281
     1
  3
ACAD_XREC_ROUNDTRIP
360
111
  0
DICTIONARY
  5
118
330
31
100
AcDbDictionary
280
     1
281
     1
  3
ACAD_XREC_ROUNDTRIP
360
119
  0
DICTIONARY
  5
134
330
3F
100
AcDbDictionary
280
     1
281
     1
  3
ACAD_XREC_ROUNDTRIP
360
135
  0
DICTIONARY
  5
124
330
37
100
AcDbDictionary
280
     1
281
     1
  3
ACAD_XREC_ROUNDTRIP
360
125
  0
DICTIONARY
  5
136
330
40
100
AcDbDictionary
280
     1
281
     1
  3
ACAD_XREC_ROUNDTRIP
360
137
  0
DICTIONARY
  5
11C
330
33
100
AcDbDictionary
280
     1
281
     1
  3
ACAD_XREC_ROUNDTRIP
360
11D
  0
DICTIONARY
  5
132
330
3E
100
AcDbDictionary
280
     1
281
     1
  3
ACAD_XREC_ROUNDTRIP
360
133
  0
DICTIONARY
  5
130
330
3D
100
AcDbDictionary
280
     1
281
     1
  3
ACAD_XREC_ROUNDTRIP
360
131
  0
DICTIONARY
  5
12A
330
3A
100
AcDbDictionary
280
     1
281
     1
  3
ACAD_XREC_ROUNDTRIP
360
12B
  0
DICTIONARY
  5
12C
330
3B
100
AcDbDictionary
280
     1
281
     1
  3
ACAD_XREC_ROUNDTRIP
360
12D
  0
DICTIONARY
  5
122
330
36
100
AcDbDictionary
280
     1
281
     1
  3
ACAD_XREC_ROUNDTRIP
360
123
  0
DICTIONARY
  5
116
330
30
100
AcDbDictionary
280
     1
281
     1
  3
ACAD_XREC_ROUNDTRIP
360
117
  0
DICTIONARY
  5
12E
330
3C
100
AcDbDictionary
280
     1
281
     1
  3
ACAD_XREC_ROUNDTRIP
360
12F
  0
XRECORD
  5
13F
102
{ACAD_REACTORS
330
13E
102
}
330
13E
100
AcDbXrecord
280
     1
102
DISPLAYNAME
  1
Imperial24
102
FLAGS
 90
        0
  0
XRECORD
  5
1C
102
{ACAD_REACTORS
330
1A
102
}
330
1A
100
AcDbXrecord
280
     1
270
     1
271
     1
  0
XRECORD
  5
1B
102
{ACAD_REACTORS
330
1A
102
}
330
1A
100
AcDbXrecord
280
     1
270
     1
271
     1
  0
XRECORD
  5
1F
102
{ACAD_REACTORS
330
1A
102
}
330
1A
100
AcDbXrecord
280
     1
270
     1
271
     1
  0
XRECORD
  5
1E
102
{ACAD_REACTORS
330
1A
102
}
330
1A
100
AcDbXrecord
280
     1
270
     1
271
     1
  0
XRECORD
  5
20
102
{ACAD_REACTORS
330
1A
102
}
330
1A
100
AcDbXrecord
280
     1
270
     1
271
     1
  0
XRECORD
  5
1D
102
{ACAD_REACTORS
330
1A
102
}
330
1A
100
AcDbXrecord
280
     1
270
     1
271
     1
  0
XRECORD
  5
14
102
{ACAD_REACTORS
330
12
102
}
330
12
100
AcDbXrecord
280
     1
270
     1
271
     1
  0
XRECORD
  5
13
102
{ACAD_REACTORS
330
12
102
}
330
12
100
AcDbXrecord
280
     1
270
     1
271
     1
  0
XRECORD
  5
17
102
{ACAD_REACTORS
330
12
102
}
330
12
100
AcDbXrecord
280
     1
270
     1
271
     1
  0
XRECORD
  5
16
102
{ACAD_REACTORS
330
12
102
}
330
12
100
AcDbXrecord
280
     1
270
     1
271
     1
  0
XRECORD
  5
18
102
{ACAD_REACTORS
330
12
102
}
330
12
100
AcDbXrecord
280
     1
270
     1
271
     1
  0
XRECORD
  5
15
102
{ACAD_REACTORS
330
12
102
}
330
12
100
AcDbXrecord
280
     1
270
     1
271
     1
  0
XRECORD
  5
24
102
{ACAD_REACTORS
330
22
102
}
330
22
100
AcDbXrecord
280
     1
270
     1
271
     1
  0
XRECORD
  5
23
102
{ACAD_REACTORS
330
22
102
}
330
22
100
AcDbXrecord
280
     1
270
     1
271
     1
  0
XRECORD
  5
27
102
{ACAD_REACTORS
330
22
102
}
330
22
100
AcDbXrecord
280
     1
270
     1
271
     1
  0
XRECORD
  5
26
102
{ACAD_REACTORS
330
22
102
}
330
22
100
AcDbXrecord
280
     1
270
     1
271
     1
  0
XRECORD
  5
28
102
{ACAD_REACTORS
330
22
102
}
330
22
100
AcDbXrecord
280
     1
270
     1
271
     1
  0
XRECORD
  5
25
102
{ACAD_REACTORS
330
22
102
}
330
22
100
AcDbXrecord
280
     1
270
     1
271
     1
  0
XRECORD
  5
13B
102
{ACAD_REACTORS
330
13A
102
}
330
13A
100
AcDbXrecord
280
     1
102
ACAD_ROUNDTRIP_2012_MLEADER_STYLE
298
     1
  0
XRECORD
  5
13D
102
{ACAD_REACTORS
330
13C
102
}
330
13C
100
AcDbXrecord
280
     1
102
DISPLAYNAME
  1
Imperial24
102
FLAGS
 90
        0
  0
CELLSTYLEMAP
  5
108
102
{ACAD_REACTORS
330
107
102
}
330
107
100
AcDbCellStyleMap
 90
        3
300
CELLSTYLE
  1
TABLEFORMAT_BEGIN
 90
        5
170
     1
 91
        0
 92
    32768
 62
   257
 93
        1
300
CONTENTFORMAT
  1
CONTENTFORMAT_BEGIN
 90
        0
 91
        0
 92
      512
 93
        0
300

 40
0.0
140
1.0
 94
        5
 62
     0
340
55
144
0.25
309
CONTENTFORMAT_END
171
     0
 94
        0
309
TABLEFORMAT_END
  1
CELLSTYLE_BEGIN
 90
        1
 91
        1
300
_TITLE
309
CELLSTYLE_END
300
CELLSTYLE
  1
TABLEFORMAT_BEGIN
 90
        5
170
     1
 91
        0
 92
        0
 62
   257
 93
        1
300
CONTENTFORMAT
  1
CONTENTFORMAT_BEGIN
 90
        0
 91
        0
 92
      512
 93
        0
300

 40
0.0
140
1.0
 94
        5
 62
     0
340
55
144
0.18
309
CONTENTFORMAT_END
171
     0
 94
        0
309
TABLEFORMAT_END
  1
CELLSTYLE_BEGIN
 90
        2
 91
        1
300
_HEADER
309
CELLSTYLE_END
300
CELLSTYLE
  1
TABLEFORMAT_BEGIN
 90
        5
170
     1
 91
        0
 92
        0
 62
   257
 93
        1
300
CONTENTFORMAT
  1
CONTENTFORMAT_BEGIN
 90
        0
 91
        0
 92
      512
 93
        0
300

 40
0.0
140
1.0
 94
        2
 62
     0
340
55
144
0.18
309
CONTENTFORMAT_END
171
     0
 94
        0
309
TABLEFORMAT_END
  1
CELLSTYLE_BEGIN
 90
        3
 91
        2
300
_DATA
309
CELLSTYLE_END
  0
XRECORD
  5
115
102
{ACAD_REACTORS
330
114
102
}
330
114
100
AcDbXrecord
280
     1
102
RTVSPost2010Prop28
280
     1
102
RTVSPost2010PropOp28
 70
     1
102
RTVSPost2010Prop29
280
     1
102
RTVSPost2010PropOp29
 70
     1
102
RTVSPost2010Prop30
280
     0
102
RTVSPost2010PropOp30
 70
     1
102
RTVSPost2010Prop31
280
     0
102
RTVSPost2010PropOp31
 70
     1
102
RTVSPost2010Prop32
280
     0
102
RTVSPost2010PropOp32
 70
     1
102
RTVSPost2010Prop33
280
     0
102
RTVSPost2010PropOp33
 70
     1
102
RTVSPost2010Prop34
280
     0
102
RTVSPost2010PropOp34
 70
     1
102
RTVSPost2010Prop35
280
     0
102
RTVSPost2010PropOp35
 70
     1
102
RTVSPost2010Prop36
280
     0
102
RTVSPost2010PropOp36
 70
     1
102
RTVSPost2010Prop37
 90
       50
102
RTVSPost2010PropOp37
 70
     1
102
RTVSPost2010Prop38
140
0.0
102
RTVSPost2010PropOp38
 70
     1
102
RTVSPost2010Prop39
140
1.0
102
RTVSPost2010PropOp39
 70
     1
102
RTVSPost2010Prop40
 90
        0
102
RTVSPost2010PropOp40
 70
     1
102
RTVSPost2010Prop41ColorIndex
 90
       18
102
RTVSPost2010Prop41ColorRGB
 90
        0
102
RTVSPost2010PropOp41
 70
     1
102
RTVSPost2010Prop42
 90
       50
102
RTVSPost2010PropOp42
 70
     1
102
RTVSPost2010Prop43
 90
        3
102
RTVSPost2010PropOp43
 70
     1
102
RTVSPost2010Prop44ColorIndex
 90
        5
102
RTVSPost2010Prop44ColorRGB
 90
      255
102
RTVSPost2010PropOp44
 70
     1
102
RTVSPost2010Prop45
280
     0
102
RTVSPost2010PropOp45
 70
     1
102
RTVSPost2010Prop46
 90
       50
102
RTVSPost2010PropOp46
 70
     1
102
RTVSPost2010Prop47
 90
       50
102
RTVSPost2010PropOp47
 70
     1
102
RTVSPost2010Prop48
 90
       50
102
RTVSPost2010PropOp48
 70
     1
102
RTVSPost2010Prop49
280
     0
102
RTVSPost2010PropOp49
 70
     1
102
RTVSPost2010Prop50
 90
       50
102
RTVSPost2010PropOp50
 70
     1
102
RTVSPost2010Prop51ColorIndex
 90
      256
102
RTVSPost2010Prop51ColorRGB
 90
-16777216
102
RTVSPost2010PropOp51
 70
     0
102
RTVSPost2010Prop52
140
1.0
102
RTVSPost2010PropOp52
 70
     0
102
RTVSPost2010Prop53
 90
        2
102
RTVSPost2010PropOp53
 70
     1
102
RTVSPost2010Prop54
  1
strokes_ogs.tif
102
RTVSPost2010PropOp54
 70
     1
102
RTVSPost2010Prop55
280
     0
102
RTVSPost2010PropOp55
 70
     1
102
RTVSPost2010Prop56
140
1.0
102
RTVSPost2010PropOp56
 70
     1
102
RTVSPost2010Prop57
140
1.0
102
RTVSPost2010PropOp57
 70
     1
  0
XRECORD
  5
113
102
{ACAD_REACTORS
330
112
102
}
330
112
100
AcDbXrecord
280
     1
102
RTVSPost2010Prop28
280
     0
102
RTVSPost2010PropOp28
 70
     1
102
RTVSPost2010Prop29
280
     1
102
RTVSPost2010PropOp29
 70
     1
102
RTVSPost2010Prop30
280
     1
102
RTVSPost2010PropOp30
 70
     1
102
RTVSPost2010Prop31
280
     0
102
RTVSPost2010PropOp31
 70
     1
102
RTVSPost2010Prop32
280
     0
102
RTVSPost2010PropOp32
 70
     1
102
RTVSPost2010Prop33
280
     0
102
RTVSPost2010PropOp33
 70
     1
102
RTVSPost2010Prop34
280
     0
102
RTVSPost2010PropOp34
 70
     1
102
RTVSPost2010Prop35
280
     0
102
RTVSPost2010PropOp35
 70
     1
102
RTVSPost2010Prop36
280
     0
102
RTVSPost2010PropOp36
 70
     1
102
RTVSPost2010Prop37
 90
       50
102
RTVSPost2010PropOp37
 70
     1
102
RTVSPost2010Prop38
140
0.0
102
RTVSPost2010PropOp38
 70
     1
102
RTVSPost2010Prop39
140
1.0
102
RTVSPost2010PropOp39
 70
     1
102
RTVSPost2010Prop40
 90
        0
102
RTVSPost2010PropOp40
 70
     1
102
RTVSPost2010Prop41ColorIndex
 90
       18
102
RTVSPost2010Prop41ColorRGB
 90
        0
102
RTVSPost2010PropOp41
 70
     1
102
RTVSPost2010Prop42
 90
       50
102
RTVSPost2010PropOp42
 70
     1
102
RTVSPost2010Prop43
 90
        3
102
RTVSPost2010PropOp43
 70
     1
102
RTVSPost2010Prop44ColorIndex
 90
        5
102
RTVSPost2010Prop44ColorRGB
 90
      255
102
RTVSPost2010PropOp44
 70
     1
102
RTVSPost2010Prop45
280
     0
102
RTVSPost2010PropOp45
 70
     1
102
RTVSPost2010Prop46
 90
       50
102
RTVSPost2010PropOp46
 70
     1
102
RTVSPost2010Prop47
 90
       50
102
RTVSPost2010PropOp47
 70
     1
102
RTVSPost2010Prop48
 90
       50
102
RTVSPost2010PropOp48
 70
     1
102
RTVSPost2010Prop49
280
     0
102
RTVSPost2010PropOp49
 70
     1
102
RTVSPost2010Prop50
 90
       50
102
RTVSPost2010PropOp50
 70
     1
102
RTVSPost2010Prop51ColorIndex
 90
      256
102
RTVSPost2010Prop51ColorRGB
 90
-16777216
102
RTVSPost2010PropOp51
 70
     0
102
RTVSPost2010Prop52
140
1.0
102
RTVSPost2010PropOp52
 70
     0
102
RTVSPost2010Prop53
 90
        2
102
RTVSPost2010PropOp53
 70
     1
102
RTVSPost2010Prop54
  1
strokes_ogs.tif
102
RTVSPost2010PropOp54
 70
     1
102
RTVSPost2010Prop55
280
     0
102
RTVSPost2010PropOp55
 70
     1
102
RTVSPost2010Prop56
140
1.0
102
RTVSPost2010PropOp56
 70
     1
102
RTVSPost2010Prop57
140
1.0
102
RTVSPost2010PropOp57
 70
     1
  0
XRECORD
  5
121
102
{ACAD_REACTORS
330
120
102
}
330
120
100
AcDbXrecord
280
     1
102
RTVSPost2010Prop28
280
     0
102
RTVSPost2010PropOp28
 70
     1
102
RTVSPost2010Prop29
280
     1
102
RTVSPost2010PropOp29
 70
     1
102
RTVSPost2010Prop30
280
     1
102
RTVSPost2010PropOp30
 70
     1
102
RTVSPost2010Prop31
280
     0
102
RTVSPost2010PropOp31
 70
     1
102
RTVSPost2010Prop32
280
     0
102
RTVSPost2010PropOp32
 70
     1
102
RTVSPost2010Prop33
280
     0
102
RTVSPost2010PropOp33
 70
     1
102
RTVSPost2010Prop34
280
     0
102
RTVSPost2010PropOp34
 70
     1
102
RTVSPost2010Prop35
280
     0
102
RTVSPost2010PropOp35
 70
     1
102
RTVSPost2010Prop36
280
     0
102
RTVSPost2010PropOp36
 70
     1
102
RTVSPost2010Prop37
 90
       50
102
RTVSPost2010PropOp37
 70
     1
102
RTVSPost2010Prop38
140
0.0
102
RTVSPost2010PropOp38
 70
     1
102
RTVSPost2010Prop39
140
1.0
102
RTVSPost2010PropOp39
 70
     1
102
RTVSPost2010Prop40
 90
        0
102
RTVSPost2010PropOp40
 70
     1
102
RTVSPost2010Prop41ColorIndex
 90
       18
102
RTVSPost2010Prop41ColorRGB
 90
        0
102
RTVSPost2010PropOp41
 70
     1
102
RTVSPost2010Prop42
 90
       50
102
RTVSPost2010PropOp42
 70
     1
102
RTVSPost2010Prop43
 90
        3
102
RTVSPost2010PropOp43
 70
     1
102
RTVSPost2010Prop44ColorIndex
 90
        5
102
RTVSPost2010Prop44ColorRGB
 90
      255
102
RTVSPost2010PropOp44
 70
     1
102
RTVSPost2010Prop45
280
     0
102
RTVSPost2010PropOp45
 70
     1
102
RTVSPost2010Prop46
 90
       50
102
RTVSPost2010PropOp46
 70
     1
102
RTVSPost2010Prop47
 90
       50
102
RTVSPost2010PropOp47
 70
     1
102
RTVSPost2010Prop48
 90
       50
102
RTVSPost2010PropOp48
 70
     1
102
RTVSPost2010Prop49
280
     0
102
RTVSPost2010PropOp49
 70
     1
102
RTVSPost2010Prop50
 90
       50
102
RTVSPost2010PropOp50
 70
     1
102
RTVSPost2010Prop51ColorIndex
 90
      256
102
RTVSPost2010Prop51ColorRGB
 90
-16777216
102
RTVSPost2010PropOp51
 70
     0
102
RTVSPost2010Prop52
140
1.0
102
RTVSPost2010PropOp52
 70
     0
102
RTVSPost2010Prop53
 90
        2
102
RTVSPost2010PropOp53
 70
     1
102
RTVSPost2010Prop54
  1
strokes_ogs.tif
102
RTVSPost2010PropOp54
 70
     1
102
RTVSPost2010Prop55
280
     0
102
RTVSPost2010PropOp55
 70
     1
102
RTVSPost2010Prop56
140
1.0
102
RTVSPost2010PropOp56
 70
     1
102
RTVSPost2010Prop57
140
1.0
102
RTVSPost2010PropOp57
 70
     1
  0
XRECORD
  5
129
102
{ACAD_REACTORS
330
128
102
}
330
128
100
AcDbXrecord
280
     1
102
RTVSPost2010Prop28
280
     0
102
RTVSPost2010PropOp28
 70
     1
102
RTVSPost2010Prop29
280
     1
102
RTVSPost2010PropOp29
 70
     1
102
RTVSPost2010Prop30
280
     1
102
RTVSPost2010PropOp30
 70
     1
102
RTVSPost2010Prop31
280
     0
102
RTVSPost2010PropOp31
 70
     1
102
RTVSPost2010Prop32
280
     0
102
RTVSPost2010PropOp32
 70
     1
102
RTVSPost2010Prop33
280
     0
102
RTVSPost2010PropOp33
 70
     1
102
RTVSPost2010Prop34
280
     0
102
RTVSPost2010PropOp34
 70
     1
102
RTVSPost2010Prop35
280
     0
102
RTVSPost2010PropOp35
 70
     1
102
RTVSPost2010Prop36
280
     0
102
RTVSPost2010PropOp36
 70
     1
102
RTVSPost2010Prop37
 90
       50
102
RTVSPost2010PropOp37
 70
     1
102
RTVSPost2010Prop38
140
0.0
102
RTVSPost2010PropOp38
 70
     1
102
RTVSPost2010Prop39
140
1.0
102
RTVSPost2010PropOp39
 70
     1
102
RTVSPost2010Prop40
 90
        0
102
RTVSPost2010PropOp40
 70
     1
102
RTVSPost2010Prop41ColorIndex
 90
       18
102
RTVSPost2010Prop41ColorRGB
 90
        0
102
RTVSPost2010PropOp41
 70
     1
102
RTVSPost2010Prop42
 90
       50
102
RTVSPost2010PropOp42
 70
     1
102
RTVSPost2010Prop43
 90
        3
102
RTVSPost2010PropOp43
 70
     1
102
RTVSPost2010Prop44ColorIndex
 90
        5
102
RTVSPost2010Prop44ColorRGB
 90
      255
102
RTVSPost2010PropOp44
 70
     1
102
RTVSPost2010Prop45
280
     0
102
RTVSPost2010PropOp45
 70
     1
102
RTVSPost2010Prop46
 90
       50
102
RTVSPost2010PropOp46
 70
     1
102
RTVSPost2010Prop47
 90
       50
102
RTVSPost2010PropOp47
 70
     1
102
RTVSPost2010Prop48
 90
       50
102
RTVSPost2010PropOp48
 70
     1
102
RTVSPost2010Prop49
280
     0
102
RTVSPost2010PropOp49
 70
     1
102
RTVSPost2010Prop50
 90
       50
102
RTVSPost2010PropOp50
 70
     1
102
RTVSPost2010Prop51ColorIndex
 90
      256
102
RTVSPost2010Prop51ColorRGB
 90
-16777216
102
RTVSPost2010PropOp51
 70
     0
102
RTVSPost2010Prop52
140
1.0
102
RTVSPost2010PropOp52
 70
     0
102
RTVSPost2010Prop53
 90
        2
102
RTVSPost2010PropOp53
 70
     1
102
RTVSPost2010Prop54
  1
strokes_ogs.tif
102
RTVSPost2010PropOp54
 70
     1
102
RTVSPost2010Prop55
280
     0
102
RTVSPost2010PropOp55
 70
     1
102
RTVSPost2010Prop56
140
1.0
102
RTVSPost2010PropOp56
 70
     1
102
RTVSPost2010Prop57
140
1.0
102
RTVSPost2010PropOp57
 70
     1
  0
XRECORD
  5
11B
102
{ACAD_REACTORS
330
11A
102
}
330
11A
100
AcDbXrecord
280
     1
102
RTVSPost2010Prop28
280
     0
102
RTVSPost2010PropOp28
 70
     1
102
RTVSPost2010Prop29
280
     1
102
RTVSPost2010PropOp29
 70
     1
102
RTVSPost2010Prop30
280
     1
102
RTVSPost2010PropOp30
 70
     1
102
RTVSPost2010Prop31
280
     0
102
RTVSPost2010PropOp31
 70
     1
102
RTVSPost2010Prop32
280
     0
102
RTVSPost2010PropOp32
 70
     1
102
RTVSPost2010Prop33
280
     0
102
RTVSPost2010PropOp33
 70
     1
102
RTVSPost2010Prop34
280
     0
102
RTVSPost2010PropOp34
 70
     1
102
RTVSPost2010Prop35
280
     0
102
RTVSPost2010PropOp35
 70
     1
102
RTVSPost2010Prop36
280
     0
102
RTVSPost2010PropOp36
 70
     1
102
RTVSPost2010Prop37
 90
       50
102
RTVSPost2010PropOp37
 70
     1
102
RTVSPost2010Prop38
140
0.0
102
RTVSPost2010PropOp38
 70
     1
102
RTVSPost2010Prop39
140
1.0
102
RTVSPost2010PropOp39
 70
     1
102
RTVSPost2010Prop40
 90
        0
102
RTVSPost2010PropOp40
 70
     1
102
RTVSPost2010Prop41ColorIndex
 90
       18
102
RTVSPost2010Prop41ColorRGB
 90
        0
102
RTVSPost2010PropOp41
 70
     1
102
RTVSPost2010Prop42
 90
       50
102
RTVSPost2010PropOp42
 70
     1
102
RTVSPost2010Prop43
 90
        3
102
RTVSPost2010PropOp43
 70
     1
102
RTVSPost2010Prop44ColorIndex
 90
        5
102
RTVSPost2010Prop44ColorRGB
 90
      255
102
RTVSPost2010PropOp44
 70
     1
102
RTVSPost2010Prop45
280
     0
102
RTVSPost2010PropOp45
 70
     1
102
RTVSPost2010Prop46
 90
       50
102
RTVSPost2010PropOp46
 70
     1
102
RTVSPost2010Prop47
 90
       50
102
RTVSPost2010PropOp47
 70
     1
102
RTVSPost2010Prop48
 90
       50
102
RTVSPost2010PropOp48
 70
     1
102
RTVSPost2010Prop49
280
     0
102
RTVSPost2010PropOp49
 70
     1
102
RTVSPost2010Prop50
 90
       50
102
RTVSPost2010PropOp50
 70
     1
102
RTVSPost2010Prop51ColorIndex
 90
      256
102
RTVSPost2010Prop51ColorRGB
 90
-16777216
102
RTVSPost2010PropOp51
 70
     0
102
RTVSPost2010Prop52
140
1.0
102
RTVSPost2010PropOp52
 70
     0
102
RTVSPost2010Prop53
 90
        2
102
RTVSPost2010PropOp53
 70
     1
102
RTVSPost2010Prop54
  1
strokes_ogs.tif
102
RTVSPost2010PropOp54
 70
     1
102
RTVSPost2010Prop55
280
     0
102
RTVSPost2010PropOp55
 70
     1
102
RTVSPost2010Prop56
140
1.0
102
RTVSPost2010PropOp56
 70
     1
102
RTVSPost2010Prop57
140
1.0
102
RTVSPost2010PropOp57
 70
     1
  0
XRECORD
  5
11F
102
{ACAD_REACTORS
330
11E
102
}
330
11E
100
AcDbXrecord
280
     1
102
RTVSPost2010Prop28
280
     0
102
RTVSPost2010PropOp28
 70
     1
102
RTVSPost2010Prop29
280
     1
102
RTVSPost2010PropOp29
 70
     1
102
RTVSPost2010Prop30
280
     1
102
RTVSPost2010PropOp30
 70
     1
102
RTVSPost2010Prop31
280
     0
102
RTVSPost2010PropOp31
 70
     1
102
RTVSPost2010Prop32
280
     0
102
RTVSPost2010PropOp32
 70
     1
102
RTVSPost2010Prop33
280
     0
102
RTVSPost2010PropOp33
 70
     1
102
RTVSPost2010Prop34
280
     0
102
RTVSPost2010PropOp34
 70
     1
102
RTVSPost2010Prop35
280
     0
102
RTVSPost2010PropOp35
 70
     1
102
RTVSPost2010Prop36
280
     0
102
RTVSPost2010PropOp36
 70
     1
102
RTVSPost2010Prop37
 90
       50
102
RTVSPost2010PropOp37
 70
     1
102
RTVSPost2010Prop38
140
0.0
102
RTVSPost2010PropOp38
 70
     1
102
RTVSPost2010Prop39
140
1.0
102
RTVSPost2010PropOp39
 70
     1
102
RTVSPost2010Prop40
 90
        0
102
RTVSPost2010PropOp40
 70
     1
102
RTVSPost2010Prop41ColorIndex
 90
       18
102
RTVSPost2010Prop41ColorRGB
 90
        0
102
RTVSPost2010PropOp41
 70
     1
102
RTVSPost2010Prop42
 90
       50
102
RTVSPost2010PropOp42
 70
     1
102
RTVSPost2010Prop43
 90
        3
102
RTVSPost2010PropOp43
 70
     1
102
RTVSPost2010Prop44ColorIndex
 90
        5
102
RTVSPost2010Prop44ColorRGB
 90
      255
102
RTVSPost2010PropOp44
 70
     1
102
RTVSPost2010Prop45
280
     0
102
RTVSPost2010PropOp45
 70
     1
102
RTVSPost2010Prop46
 90
       50
102
RTVSPost2010PropOp46
 70
     1
102
RTVSPost2010Prop47
 90
       50
102
RTVSPost2010PropOp47
 70
     1
102
RTVSPost2010Prop48
 90
       50
102
RTVSPost2010PropOp48
 70
     1
102
RTVSPost2010Prop49
280
     0
102
RTVSPost2010PropOp49
 70
     1
102
RTVSPost2010Prop50
 90
       50
102
RTVSPost2010PropOp50
 70
     1
102
RTVSPost2010Prop51ColorIndex
 90
      256
102
RTVSPost2010Prop51ColorRGB
 90
-16777216
102
RTVSPost2010PropOp51
 70
     0
102
RTVSPost2010Prop52
140
1.0
102
RTVSPost2010PropOp52
 70
     0
102
RTVSPost2010Prop53
 90
        2
102
RTVSPost2010PropOp53
 70
     1
102
RTVSPost2010Prop54
  1
strokes_ogs.tif
102
RTVSPost2010PropOp54
 70
     1
102
RTVSPost2010Prop55
280
     0
102
RTVSPost2010PropOp55
 70
     1
102
RTVSPost2010Prop56
140
1.0
102
RTVSPost2010PropOp56
 70
     1
102
RTVSPost2010Prop57
140
1.0
102
RTVSPost2010PropOp57
 70
     1
  0
XRECORD
  5
139
102
{ACAD_REACTORS
330
138
102
}
330
138
100
AcDbXrecord
280
     1
102
RTVSPost2010Prop28
280
     0
102
RTVSPost2010PropOp28
 70
     0
102
RTVSPost2010Prop29
280
     1
102
RTVSPost2010PropOp29
 70
     0
102
RTVSPost2010Prop30
280
     1
102
RTVSPost2010PropOp30
 70
     0
102
RTVSPost2010Prop31
280
     0
102
RTVSPost2010PropOp31
 70
     0
102
RTVSPost2010Prop32
280
     0
102
RTVSPost2010PropOp32
 70
     0
102
RTVSPost2010Prop33
280
     0
102
RTVSPost2010PropOp33
 70
     0
102
RTVSPost2010Prop34
280
     0
102
RTVSPost2010PropOp34
 70
     0
102
RTVSPost2010Prop35
280
     0
102
RTVSPost2010PropOp35
 70
     0
102
RTVSPost2010Prop36
280
     0
102
RTVSPost2010PropOp36
 70
     0
102
RTVSPost2010Prop37
 90
       50
102
RTVSPost2010PropOp37
 70
     0
102
RTVSPost2010Prop38
140
0.0
102
RTVSPost2010PropOp38
 70
     0
102
RTVSPost2010Prop39
140
1.0
102
RTVSPost2010PropOp39
 70
     0
102
RTVSPost2010Prop40
 90
        0
102
RTVSPost2010PropOp40
 70
     0
102
RTVSPost2010Prop41ColorIndex
 90
       18
102
RTVSPost2010Prop41ColorRGB
 90
        0
102
RTVSPost2010PropOp41
 70
     0
102
RTVSPost2010Prop42
 90
       50
102
RTVSPost2010PropOp42
 70
     0
102
RTVSPost2010Prop43
 90
        3
102
RTVSPost2010PropOp43
 70
     0
102
RTVSPost2010Prop44ColorIndex
 90
        5
102
RTVSPost2010Prop44ColorRGB
 90
      255
102
RTVSPost2010PropOp44
 70
     0
102
RTVSPost2010Prop45
280
     0
102
RTVSPost2010PropOp45
 70
     0
102
RTVSPost2010Prop46
 90
       50
102
RTVSPost2010PropOp46
 70
     0
102
RTVSPost2010Prop47
 90
       50
102
RTVSPost2010PropOp47
 70
     0
102
RTVSPost2010Prop48
 90
       50
102
RTVSPost2010PropOp48
 70
     0
102
RTVSPost2010Prop49
280
     0
102
RTVSPost2010PropOp49
 70
     0
102
RTVSPost2010Prop50
 90
       50
102
RTVSPost2010PropOp50
 70
     0
102
RTVSPost2010Prop51ColorIndex
 90
      256
102
RTVSPost2010Prop51ColorRGB
 90
-16777216
102
RTVSPost2010PropOp51
 70
     0
102
RTVSPost2010Prop52
140
1.0
102
RTVSPost2010PropOp52
 70
     0
102
RTVSPost2010Prop53
 90
        2
102
RTVSPost2010PropOp53
 70
     0
102
RTVSPost2010Prop54
  1
strokes_ogs.tif
102
RTVSPost2010PropOp54
 70
     0
102
RTVSPost2010Prop55
280
     0
102
RTVSPost2010PropOp55
 70
     0
102
RTVSPost2010Prop56
140
1.0
102
RTVSPost2010PropOp56
 70
     0
102
RTVSPost2010Prop57
140
1.0
102
RTVSPost2010PropOp57
 70
     0
  0
XRECORD
  5
127
102
{ACAD_REACTORS
330
126
102
}
330
126
100
AcDbXrecord
280
     1
102
RTVSPost2010Prop28
280
     0
102
RTVSPost2010PropOp28
 70
     1
102
RTVSPost2010Prop29
280
     1
102
RTVSPost2010PropOp29
 70
     1
102
RTVSPost2010Prop30
280
     1
102
RTVSPost2010PropOp30
 70
     1
102
RTVSPost2010Prop31
280
     0
102
RTVSPost2010PropOp31
 70
     1
102
RTVSPost2010Prop32
280
     0
102
RTVSPost2010PropOp32
 70
     1
102
RTVSPost2010Prop33
280
     0
102
RTVSPost2010PropOp33
 70
     1
102
RTVSPost2010Prop34
280
     0
102
RTVSPost2010PropOp34
 70
     1
102
RTVSPost2010Prop35
280
     0
102
RTVSPost2010PropOp35
 70
     1
102
RTVSPost2010Prop36
280
     0
102
RTVSPost2010PropOp36
 70
     1
102
RTVSPost2010Prop37
 90
       50
102
RTVSPost2010PropOp37
 70
     1
102
RTVSPost2010Prop38
140
0.0
102
RTVSPost2010PropOp38
 70
     1
102
RTVSPost2010Prop39
140
1.0
102
RTVSPost2010PropOp39
 70
     1
102
RTVSPost2010Prop40
 90
        0
102
RTVSPost2010PropOp40
 70
     1
102
RTVSPost2010Prop41ColorIndex
 90
       18
102
RTVSPost2010Prop41ColorRGB
 90
        0
102
RTVSPost2010PropOp41
 70
     1
102
RTVSPost2010Prop42
 90
       50
102
RTVSPost2010PropOp42
 70
     1
102
RTVSPost2010Prop43
 90
        3
102
RTVSPost2010PropOp43
 70
     1
102
RTVSPost2010Prop44ColorIndex
 90
        5
102
RTVSPost2010Prop44ColorRGB
 90
      255
102
RTVSPost2010PropOp44
 70
     1
102
RTVSPost2010Prop45
280
     0
102
RTVSPost2010PropOp45
 70
     1
102
RTVSPost2010Prop46
 90
       50
102
RTVSPost2010PropOp46
 70
     1
102
RTVSPost2010Prop47
 90
       50
102
RTVSPost2010PropOp47
 70
     1
102
RTVSPost2010Prop48
 90
       50
102
RTVSPost2010PropOp48
 70
     1
102
RTVSPost2010Prop49
280
     0
102
RTVSPost2010PropOp49
 70
     1
102
RTVSPost2010Prop50
 90
       50
102
RTVSPost2010PropOp50
 70
     1
102
RTVSPost2010Prop51ColorIndex
 90
      256
102
RTVSPost2010Prop51ColorRGB
 90
-16777216
102
RTVSPost2010PropOp51
 70
     0
102
RTVSPost2010Prop52
140
1.0
102
RTVSPost2010PropOp52
 70
     0
102
RTVSPost2010Prop53
 90
        2
102
RTVSPost2010PropOp53
 70
     1
102
RTVSPost2010Prop54
  1
strokes_ogs.tif
102
RTVSPost2010PropOp54
 70
     1
102
RTVSPost2010Prop55
280
     0
102
RTVSPost2010PropOp55
 70
     1
102
RTVSPost2010Prop56
140
1.0
102
RTVSPost2010PropOp56
 70
     1
102
RTVSPost2010Prop57
140
1.0
102
RTVSPost2010PropOp57
 70
     1
  0
XRECORD
  5
10B
102
{ACAD_REACTORS
330
10A
102
}
330
10A
100
AcDbXrecord
280
     1
102
RTVSPost2010Prop28
280
     0
102
RTVSPost2010PropOp28
 70
     1
102
RTVSPost2010Prop29
280
     1
102
RTVSPost2010PropOp29
 70
     1
102
RTVSPost2010Prop30
280
     1
102
RTVSPost2010PropOp30
 70
     1
102
RTVSPost2010Prop31
280
     0
102
RTVSPost2010PropOp31
 70
     1
102
RTVSPost2010Prop32
280
     0
102
RTVSPost2010PropOp32
 70
     1
102
RTVSPost2010Prop33
280
     0
102
RTVSPost2010PropOp33
 70
     1
102
RTVSPost2010Prop34
280
     0
102
RTVSPost2010PropOp34
 70
     1
102
RTVSPost2010Prop35
280
     0
102
RTVSPost2010PropOp35
 70
     1
102
RTVSPost2010Prop36
280
     0
102
RTVSPost2010PropOp36
 70
     1
102
RTVSPost2010Prop37
 90
       50
102
RTVSPost2010PropOp37
 70
     1
102
RTVSPost2010Prop38
140
0.0
102
RTVSPost2010PropOp38
 70
     1
102
RTVSPost2010Prop39
140
1.0
102
RTVSPost2010PropOp39
 70
     1
102
RTVSPost2010Prop40
 90
        0
102
RTVSPost2010PropOp40
 70
     1
102
RTVSPost2010Prop41ColorIndex
 90
       18
102
RTVSPost2010Prop41ColorRGB
 90
        0
102
RTVSPost2010PropOp41
 70
     1
102
RTVSPost2010Prop42
 90
       50
102
RTVSPost2010PropOp42
 70
     1
102
RTVSPost2010Prop43
 90
        3
102
RTVSPost2010PropOp43
 70
     1
102
RTVSPost2010Prop44ColorIndex
 90
        5
102
RTVSPost2010Prop44ColorRGB
 90
      255
102
RTVSPost2010PropOp44
 70
     1
102
RTVSPost2010Prop45
280
     0
102
RTVSPost2010PropOp45
 70
     1
102
RTVSPost2010Prop46
 90
       50
102
RTVSPost2010PropOp46
 70
     1
102
RTVSPost2010Prop47
 90
       50
102
RTVSPost2010PropOp47
 70
     1
102
RTVSPost2010Prop48
 90
       50
102
RTVSPost2010PropOp48
 70
     1
102
RTVSPost2010Prop49
280
     0
102
RTVSPost2010PropOp49
 70
     1
102
RTVSPost2010Prop50
 90
       50
102
RTVSPost2010PropOp50
 70
     1
102
RTVSPost2010Prop51ColorIndex
 90
      256
102
RTVSPost2010Prop51ColorRGB
 90
-16777216
102
RTVSPost2010PropOp51
 70
     0
102
RTVSPost2010Prop52
140
1.0
102
RTVSPost2010PropOp52
 70
     0
102
RTVSPost2010Prop53
 90
        2
102
RTVSPost2010PropOp53
 70
     1
102
RTVSPost2010Prop54
  1
strokes_ogs.tif
102
RTVSPost2010PropOp54
 70
     1
102
RTVSPost2010Prop55
280
     0
102
RTVSPost2010PropOp55
 70
     1
102
RTVSPost2010Prop56
140
1.0
102
RTVSPost2010PropOp56
 70
     1
102
RTVSPost2010Prop57
140
1.0
102
RTVSPost2010PropOp57
 70
     1
  0
XRECORD
  5
10D
102
{ACAD_REACTORS
330
10C
102
}
330
10C
100
AcDbXrecord
280
     1
102
RTVSPost2010Prop28
280
     0
102
RTVSPost2010PropOp28
 70
     1
102
RTVSPost2010Prop29
280
     1
102
RTVSPost2010PropOp29
 70
     1
102
RTVSPost2010Prop30
280
     1
102
RTVSPost2010PropOp30
 70
     1
102
RTVSPost2010Prop31
280
     0
102
RTVSPost2010PropOp31
 70
     1
102
RTVSPost2010Prop32
280
     0
102
RTVSPost2010PropOp32
 70
     1
102
RTVSPost2010Prop33
280
     0
102
RTVSPost2010PropOp33
 70
     1
102
RTVSPost2010Prop34
280
     0
102
RTVSPost2010PropOp34
 70
     1
102
RTVSPost2010Prop35
280
     0
102
RTVSPost2010PropOp35
 70
     1
102
RTVSPost2010Prop36
280
     0
102
RTVSPost2010PropOp36
 70
     1
102
RTVSPost2010Prop37
 90
       50
102
RTVSPost2010PropOp37
 70
     1
102
RTVSPost2010Prop38
140
0.0
102
RTVSPost2010PropOp38
 70
     1
102
RTVSPost2010Prop39
140
1.0
102
RTVSPost2010PropOp39
 70
     1
102
RTVSPost2010Prop40
 90
        0
102
RTVSPost2010PropOp40
 70
     1
102
RTVSPost2010Prop41ColorIndex
 90
       18
102
RTVSPost2010Prop41ColorRGB
 90
        0
102
RTVSPost2010PropOp41
 70
     1
102
RTVSPost2010Prop42
 90
       50
102
RTVSPost2010PropOp42
 70
     1
102
RTVSPost2010Prop43
 90
        3
102
RTVSPost2010PropOp43
 70
     1
102
RTVSPost2010Prop44ColorIndex
 90
        5
102
RTVSPost2010Prop44ColorRGB
 90
      255
102
RTVSPost2010PropOp44
 70
     1
102
RTVSPost2010Prop45
280
     0
102
RTVSPost2010PropOp45
 70
     1
102
RTVSPost2010Prop46
 90
       50
102
RTVSPost2010PropOp46
 70
     1
102
RTVSPost2010Prop47
 90
       50
102
RTVSPost2010PropOp47
 70
     1
102
RTVSPost2010Prop48
 90
       50
102
RTVSPost2010PropOp48
 70
     1
102
RTVSPost2010Prop49
280
     0
102
RTVSPost2010PropOp49
 70
     1
102
RTVSPost2010Prop50
 90
       50
102
RTVSPost2010PropOp50
 70
     1
102
RTVSPost2010Prop51ColorIndex
 90
      256
102
RTVSPost2010Prop51ColorRGB
 90
-16777216
102
RTVSPost2010PropOp51
 70
     0
102
RTVSPost2010Prop52
140
1.0
102
RTVSPost2010PropOp52
 70
     0
102
RTVSPost2010Prop53
 90
        2
102
RTVSPost2010PropOp53
 70
     1
102
RTVSPost2010Prop54
  1
strokes_ogs.tif
102
RTVSPost2010PropOp54
 70
     1
102
RTVSPost2010Prop55
280
     0
102
RTVSPost2010PropOp55
 70
     1
102
RTVSPost2010Prop56
140
1.0
102
RTVSPost2010PropOp56
 70
     1
102
RTVSPost2010Prop57
140
1.0
102
RTVSPost2010PropOp57
 70
     1
  0
XRECORD
  5
10F
102
{ACAD_REACTORS
330
10E
102
}
330
10E
100
AcDbXrecord
280
     1
102
RTVSPost2010Prop28
280
     0
102
RTVSPost2010PropOp28
 70
     1
102
RTVSPost2010Prop29
280
     1
102
RTVSPost2010PropOp29
 70
     1
102
RTVSPost2010Prop30
280
     1
102
RTVSPost2010PropOp30
 70
     1
102
RTVSPost2010Prop31
280
     0
102
RTVSPost2010PropOp31
 70
     1
102
RTVSPost2010Prop32
280
     0
102
RTVSPost2010PropOp32
 70
     1
102
RTVSPost2010Prop33
280
     0
102
RTVSPost2010PropOp33
 70
     1
102
RTVSPost2010Prop34
280
     0
102
RTVSPost2010PropOp34
 70
     1
102
RTVSPost2010Prop35
280
     0
102
RTVSPost2010PropOp35
 70
     1
102
RTVSPost2010Prop36
280
     0
102
RTVSPost2010PropOp36
 70
     1
102
RTVSPost2010Prop37
 90
       50
102
RTVSPost2010PropOp37
 70
     1
102
RTVSPost2010Prop38
140
0.0
102
RTVSPost2010PropOp38
 70
     1
102
RTVSPost2010Prop39
140
1.0
102
RTVSPost2010PropOp39
 70
     1
102
RTVSPost2010Prop40
 90
        0
102
RTVSPost2010PropOp40
 70
     1
102
RTVSPost2010Prop41ColorIndex
 90
       18
102
RTVSPost2010Prop41ColorRGB
 90
        0
102
RTVSPost2010PropOp41
 70
     1
102
RTVSPost2010Prop42
 90
       50
102
RTVSPost2010PropOp42
 70
     1
102
RTVSPost2010Prop43
 90
        3
102
RTVSPost2010PropOp43
 70
     1
102
RTVSPost2010Prop44ColorIndex
 90
        5
102
RTVSPost2010Prop44ColorRGB
 90
      255
102
RTVSPost2010PropOp44
 70
     1
102
RTVSPost2010Prop45
280
     0
102
RTVSPost2010PropOp45
 70
     1
102
RTVSPost2010Prop46
 90
       50
102
RTVSPost2010PropOp46
 70
     1
102
RTVSPost2010Prop47
 90
       50
102
RTVSPost2010PropOp47
 70
     1
102
RTVSPost2010Prop48
 90
       50
102
RTVSPost2010PropOp48
 70
     1
102
RTVSPost2010Prop49
280
     0
102
RTVSPost2010PropOp49
 70
     1
102
RTVSPost2010Prop50
 90
       50
102
RTVSPost2010PropOp50
 70
     1
102
RTVSPost2010Prop51ColorIndex
 90
      256
102
RTVSPost2010Prop51ColorRGB
 90
-16777216
102
RTVSPost2010PropOp51
 70
     0
102
RTVSPost2010Prop52
140
1.0
102
RTVSPost2010PropOp52
 70
     0
102
RTVSPost2010Prop53
 90
        2
102
RTVSPost2010PropOp53
 70
     1
102
RTVSPost2010Prop54
  1
strokes_ogs.tif
102
RTVSPost2010PropOp54
 70
     1
102
RTVSPost2010Prop55
280
     0
102
RTVSPost2010PropOp55
 70
     1
102
RTVSPost2010Prop56
140
1.0
102
RTVSPost2010PropOp56
 70
     1
102
RTVSPost2010Prop57
140
1.0
102
RTVSPost2010PropOp57
 70
     1
  0
XRECORD
  5
111
102
{ACAD_REACTORS
330
110
102
}
330
110
100
AcDbXrecord
280
     1
102
RTVSPost2010Prop28
280
     0
102
RTVSPost2010PropOp28
 70
     1
102
RTVSPost2010Prop29
280
     1
102
RTVSPost2010PropOp29
 70
     1
102
RTVSPost2010Prop30
280
     1
102
RTVSPost2010PropOp30
 70
     1
102
RTVSPost2010Prop31
280
     0
102
RTVSPost2010PropOp31
 70
     1
102
RTVSPost2010Prop32
280
     0
102
RTVSPost2010PropOp32
 70
     1
102
RTVSPost2010Prop33
280
     0
102
RTVSPost2010PropOp33
 70
     1
102
RTVSPost2010Prop34
280
     0
102
RTVSPost2010PropOp34
 70
     1
102
RTVSPost2010Prop35
280
     0
102
RTVSPost2010PropOp35
 70
     1
102
RTVSPost2010Prop36
280
     0
102
RTVSPost2010PropOp36
 70
     1
102
RTVSPost2010Prop37
 90
       50
102
RTVSPost2010PropOp37
 70
     1
102
RTVSPost2010Prop38
140
0.0
102
RTVSPost2010PropOp38
 70
     1
102
RTVSPost2010Prop39
140
1.0
102
RTVSPost2010PropOp39
 70
     1
102
RTVSPost2010Prop40
 90
        0
102
RTVSPost2010PropOp40
 70
     1
102
RTVSPost2010Prop41ColorIndex
 90
       18
102
RTVSPost2010Prop41ColorRGB
 90
        0
102
RTVSPost2010PropOp41
 70
     1
102
RTVSPost2010Prop42
 90
       50
102
RTVSPost2010PropOp42
 70
     1
102
RTVSPost2010Prop43
 90
        3
102
RTVSPost2010PropOp43
 70
     1
102
RTVSPost2010Prop44ColorIndex
 90
        5
102
RTVSPost2010Prop44ColorRGB
 90
      255
102
RTVSPost2010PropOp44
 70
     1
102
RTVSPost2010Prop45
280
     0
102
RTVSPost2010PropOp45
 70
     1
102
RTVSPost2010Prop46
 90
       50
102
RTVSPost2010PropOp46
 70
     1
102
RTVSPost2010Prop47
 90
       50
102
RTVSPost2010PropOp47
 70
     1
102
RTVSPost2010Prop48
 90
       50
102
RTVSPost2010PropOp48
 70
     1
102
RTVSPost2010Prop49
280
     0
102
RTVSPost2010PropOp49
 70
     1
102
RTVSPost2010Prop50
 90
       50
102
RTVSPost2010PropOp50
 70
     1
102
RTVSPost2010Prop51ColorIndex
 90
      256
102
RTVSPost2010Prop51ColorRGB
 90
-16777216
102
RTVSPost2010PropOp51
 70
     0
102
RTVSPost2010Prop52
140
1.0
102
RTVSPost2010PropOp52
 70
     0
102
RTVSPost2010Prop53
 90
        2
102
RTVSPost2010PropOp53
 70
     1
102
RTVSPost2010Prop54
  1
strokes_ogs.tif
102
RTVSPost2010PropOp54
 70
     1
102
RTVSPost2010Prop55
280
     0
102
RTVSPost2010PropOp55
 70
     1
102
RTVSPost2010Prop56
140
1.0
102
RTVSPost2010PropOp56
 70
     1
102
RTVSPost2010Prop57
140
1.0
102
RTVSPost2010PropOp57
 70
     1
  0
XRECORD
  5
119
102
{ACAD_REACTORS
330
118
102
}
330
118
100
AcDbXrecord
280
     1
102
RTVSPost2010Prop28
280
     0
102
RTVSPost2010PropOp28
 70
     1
102
RTVSPost2010Prop29
280
     1
102
RTVSPost2010PropOp29
 70
     1
102
RTVSPost2010Prop30
280
     1
102
RTVSPost2010PropOp30
 70
     1
102
RTVSPost2010Prop31
280
     0
102
RTVSPost2010PropOp31
 70
     1
102
RTVSPost2010Prop32
280
     0
102
RTVSPost2010PropOp32
 70
     1
102
RTVSPost2010Prop33
280
     0
102
RTVSPost2010PropOp33
 70
     1
102
RTVSPost2010Prop34
280
     0
102
RTVSPost2010PropOp34
 70
     1
102
RTVSPost2010Prop35
280
     0
102
RTVSPost2010PropOp35
 70
     1
102
RTVSPost2010Prop36
280
     0
102
RTVSPost2010PropOp36
 70
     1
102
RTVSPost2010Prop37
 90
       50
102
RTVSPost2010PropOp37
 70
     1
102
RTVSPost2010Prop38
140
0.0
102
RTVSPost2010PropOp38
 70
     1
102
RTVSPost2010Prop39
140
1.0
102
RTVSPost2010PropOp39
 70
     1
102
RTVSPost2010Prop40
 90
        0
102
RTVSPost2010PropOp40
 70
     1
102
RTVSPost2010Prop41ColorIndex
 90
       18
102
RTVSPost2010Prop41ColorRGB
 90
        0
102
RTVSPost2010PropOp41
 70
     1
102
RTVSPost2010Prop42
 90
       50
102
RTVSPost2010PropOp42
 70
     1
102
RTVSPost2010Prop43
 90
        3
102
RTVSPost2010PropOp43
 70
     1
102
RTVSPost2010Prop44ColorIndex
 90
        5
102
RTVSPost2010Prop44ColorRGB
 90
      255
102
RTVSPost2010PropOp44
 70
     1
102
RTVSPost2010Prop45
280
     0
102
RTVSPost2010PropOp45
 70
     1
102
RTVSPost2010Prop46
 90
       50
102
RTVSPost2010PropOp46
 70
     1
102
RTVSPost2010Prop47
 90
       50
102
RTVSPost2010PropOp47
 70
     1
102
RTVSPost2010Prop48
 90
       50
102
RTVSPost2010PropOp48
 70
     1
102
RTVSPost2010Prop49
280
     0
102
RTVSPost2010PropOp49
 70
     1
102
RTVSPost2010Prop50
 90
       50
102
RTVSPost2010PropOp50
 70
     1
102
RTVSPost2010Prop51ColorIndex
 90
      256
102
RTVSPost2010Prop51ColorRGB
 90
-16777216
102
RTVSPost2010PropOp51
 70
     0
102
RTVSPost2010Prop52
140
1.0
102
RTVSPost2010PropOp52
 70
     0
102
RTVSPost2010Prop53
 90
        2
102
RTVSPost2010PropOp53
 70
     1
102
RTVSPost2010Prop54
  1
strokes_ogs.tif
102
RTVSPost2010PropOp54
 70
     1
102
RTVSPost2010Prop55
280
     0
102
RTVSPost2010PropOp55
 70
     1
102
RTVSPost2010Prop56
140
1.0
102
RTVSPost2010PropOp56
 70
     1
102
RTVSPost2010Prop57
140
1.0
102
RTVSPost2010PropOp57
 70
     1
  0
XRECORD
  5
135
102
{ACAD_REACTORS
330
134
102
}
330
134
100
AcDbXrecord
280
     1
102
RTVSPost2010Prop28
280
     0
102
RTVSPost2010PropOp28
 70
     0
102
RTVSPost2010Prop29
280
     1
102
RTVSPost2010PropOp29
 70
     0
102
RTVSPost2010Prop30
280
     1
102
RTVSPost2010PropOp30
 70
     0
102
RTVSPost2010Prop31
280
     0
102
RTVSPost2010PropOp31
 70
     0
102
RTVSPost2010Prop32
280
     0
102
RTVSPost2010PropOp32
 70
     0
102
RTVSPost2010Prop33
280
     0
102
RTVSPost2010PropOp33
 70
     0
102
RTVSPost2010Prop34
280
     0
102
RTVSPost2010PropOp34
 70
     0
102
RTVSPost2010Prop35
280
     0
102
RTVSPost2010PropOp35
 70
     0
102
RTVSPost2010Prop36
280
     0
102
RTVSPost2010PropOp36
 70
     0
102
RTVSPost2010Prop37
 90
       50
102
RTVSPost2010PropOp37
 70
     0
102
RTVSPost2010Prop38
140
0.0
102
RTVSPost2010PropOp38
 70
     0
102
RTVSPost2010Prop39
140
1.0
102
RTVSPost2010PropOp39
 70
     0
102
RTVSPost2010Prop40
 90
        0
102
RTVSPost2010PropOp40
 70
     0
102
RTVSPost2010Prop41ColorIndex
 90
       18
102
RTVSPost2010Prop41ColorRGB
 90
        0
102
RTVSPost2010PropOp41
 70
     0
102
RTVSPost2010Prop42
 90
       50
102
RTVSPost2010PropOp42
 70
     0
102
RTVSPost2010Prop43
 90
        3
102
RTVSPost2010PropOp43
 70
     0
102
RTVSPost2010Prop44ColorIndex
 90
        5
102
RTVSPost2010Prop44ColorRGB
 90
      255
102
RTVSPost2010PropOp44
 70
     0
102
RTVSPost2010Prop45
280
     0
102
RTVSPost2010PropOp45
 70
     0
102
RTVSPost2010Prop46
 90
       50
102
RTVSPost2010PropOp46
 70
     0
102
RTVSPost2010Prop47
 90
       50
102
RTVSPost2010PropOp47
 70
     0
102
RTVSPost2010Prop48
 90
       50
102
RTVSPost2010PropOp48
 70
     0
102
RTVSPost2010Prop49
280
     0
102
RTVSPost2010PropOp49
 70
     0
102
RTVSPost2010Prop50
 90
       50
102
RTVSPost2010PropOp50
 70
     0
102
RTVSPost2010Prop51ColorIndex
 90
      256
102
RTVSPost2010Prop51ColorRGB
 90
-16777216
102
RTVSPost2010PropOp51
 70
     0
102
RTVSPost2010Prop52
140
1.0
102
RTVSPost2010PropOp52
 70
     0
102
RTVSPost2010Prop53
 90
        2
102
RTVSPost2010PropOp53
 70
     0
102
RTVSPost2010Prop54
  1
strokes_ogs.tif
102
RTVSPost2010PropOp54
 70
     0
102
RTVSPost2010Prop55
280
     0
102
RTVSPost2010PropOp55
 70
     0
102
RTVSPost2010Prop56
140
1.0
102
RTVSPost2010PropOp56
 70
     0
102
RTVSPost2010Prop57
140
1.0
102
RTVSPost2010PropOp57
 70
     0
  0
XRECORD
  5
125
102
{ACAD_REACTORS
330
124
102
}
330
124
100
AcDbXrecord
280
     1
102
RTVSPost2010Prop28
280
     0
102
RTVSPost2010PropOp28
 70
     1
102
RTVSPost2010Prop29
280
     1
102
RTVSPost2010PropOp29
 70
     1
102
RTVSPost2010Prop30
280
     1
102
RTVSPost2010PropOp30
 70
     1
102
RTVSPost2010Prop31
280
     0
102
RTVSPost2010PropOp31
 70
     1
102
RTVSPost2010Prop32
280
     0
102
RTVSPost2010PropOp32
 70
     1
102
RTVSPost2010Prop33
280
     0
102
RTVSPost2010PropOp33
 70
     1
102
RTVSPost2010Prop34
280
     0
102
RTVSPost2010PropOp34
 70
     1
102
RTVSPost2010Prop35
280
     0
102
RTVSPost2010PropOp35
 70
     1
102
RTVSPost2010Prop36
280
     0
102
RTVSPost2010PropOp36
 70
     1
102
RTVSPost2010Prop37
 90
       50
102
RTVSPost2010PropOp37
 70
     1
102
RTVSPost2010Prop38
140
0.0
102
RTVSPost2010PropOp38
 70
     1
102
RTVSPost2010Prop39
140
1.0
102
RTVSPost2010PropOp39
 70
     1
102
RTVSPost2010Prop40
 90
        0
102
RTVSPost2010PropOp40
 70
     1
102
RTVSPost2010Prop41ColorIndex
 90
       18
102
RTVSPost2010Prop41ColorRGB
 90
        0
102
RTVSPost2010PropOp41
 70
     1
102
RTVSPost2010Prop42
 90
       50
102
RTVSPost2010PropOp42
 70
     1
102
RTVSPost2010Prop43
 90
        3
102
RTVSPost2010PropOp43
 70
     1
102
RTVSPost2010Prop44ColorIndex
 90
        5
102
RTVSPost2010Prop44ColorRGB
 90
      255
102
RTVSPost2010PropOp44
 70
     1
102
RTVSPost2010Prop45
280
     0
102
RTVSPost2010PropOp45
 70
     1
102
RTVSPost2010Prop46
 90
       50
102
RTVSPost2010PropOp46
 70
     1
102
RTVSPost2010Prop47
 90
       50
102
RTVSPost2010PropOp47
 70
     1
102
RTVSPost2010Prop48
 90
       50
102
RTVSPost2010PropOp48
 70
     1
102
RTVSPost2010Prop49
280
     0
102
RTVSPost2010PropOp49
 70
     1
102
RTVSPost2010Prop50
 90
       50
102
RTVSPost2010PropOp50
 70
     1
102
RTVSPost2010Prop51ColorIndex
 90
      256
102
RTVSPost2010Prop51ColorRGB
 90
-16777216
102
RTVSPost2010PropOp51
 70
     0
102
RTVSPost2010Prop52
140
1.0
102
RTVSPost2010PropOp52
 70
     0
102
RTVSPost2010Prop53
 90
        2
102
RTVSPost2010PropOp53
 70
     1
102
RTVSPost2010Prop54
  1
strokes_ogs.tif
102
RTVSPost2010PropOp54
 70
     1
102
RTVSPost2010Prop55
280
     0
102
RTVSPost2010PropOp55
 70
     1
102
RTVSPost2010Prop56
140
1.0
102
RTVSPost2010PropOp56
 70
     1
102
RTVSPost2010Prop57
140
1.0
102
RTVSPost2010PropOp57
 70
     1
  0
XRECORD
  5
137
102
{ACAD_REACTORS
330
136
102
}
330
136
100
AcDbXrecord
280
     1
102
RTVSPost2010Prop28
280
     0
102
RTVSPost2010PropOp28
 70
     0
102
RTVSPost2010Prop29
280
     1
102
RTVSPost2010PropOp29
 70
     0
102
RTVSPost2010Prop30
280
     1
102
RTVSPost2010PropOp30
 70
     0
102
RTVSPost2010Prop31
280
     0
102
RTVSPost2010PropOp31
 70
     0
102
RTVSPost2010Prop32
280
     0
102
RTVSPost2010PropOp32
 70
     0
102
RTVSPost2010Prop33
280
     0
102
RTVSPost2010PropOp33
 70
     0
102
RTVSPost2010Prop34
280
     0
102
RTVSPost2010PropOp34
 70
     0
102
RTVSPost2010Prop35
280
     0
102
RTVSPost2010PropOp35
 70
     0
102
RTVSPost2010Prop36
280
     0
102
RTVSPost2010PropOp36
 70
     0
102
RTVSPost2010Prop37
 90
       50
102
RTVSPost2010PropOp37
 70
     0
102
RTVSPost2010Prop38
140
0.0
102
RTVSPost2010PropOp38
 70
     0
102
RTVSPost2010Prop39
140
1.0
102
RTVSPost2010PropOp39
 70
     0
102
RTVSPost2010Prop40
 90
        0
102
RTVSPost2010PropOp40
 70
     0
102
RTVSPost2010Prop41ColorIndex
 90
       18
102
RTVSPost2010Prop41ColorRGB
 90
        0
102
RTVSPost2010PropOp41
 70
     0
102
RTVSPost2010Prop42
 90
       50
102
RTVSPost2010PropOp42
 70
     0
102
RTVSPost2010Prop43
 90
        3
102
RTVSPost2010PropOp43
 70
     0
102
RTVSPost2010Prop44ColorIndex
 90
        5
102
RTVSPost2010Prop44ColorRGB
 90
      255
102
RTVSPost2010PropOp44
 70
     0
102
RTVSPost2010Prop45
280
     0
102
RTVSPost2010PropOp45
 70
     0
102
RTVSPost2010Prop46
 90
       50
102
RTVSPost2010PropOp46
 70
     0
102
RTVSPost2010Prop47
 90
       50
102
RTVSPost2010PropOp47
 70
     0
102
RTVSPost2010Prop48
 90
       50
102
RTVSPost2010PropOp48
 70
     0
102
RTVSPost2010Prop49
280
     0
102
RTVSPost2010PropOp49
 70
     0
102
RTVSPost2010Prop50
 90
       50
102
RTVSPost2010PropOp50
 70
     0
102
RTVSPost2010Prop51ColorIndex
 90
      256
102
RTVSPost2010Prop51ColorRGB
 90
-16777216
102
RTVSPost2010PropOp51
 70
     0
102
RTVSPost2010Prop52
140
1.0
102
RTVSPost2010PropOp52
 70
     0
102
RTVSPost2010Prop53
 90
        2
102
RTVSPost2010PropOp53
 70
     0
102
RTVSPost2010Prop54
  1
strokes_ogs.tif
102
RTVSPost2010PropOp54
 70
     0
102
RTVSPost2010Prop55
280
     0
102
RTVSPost2010PropOp55
 70
     0
102
RTVSPost2010Prop56
140
1.0
102
RTVSPost2010PropOp56
 70
     0
102
RTVSPost2010Prop57
140
1.0
102
RTVSPost2010PropOp57
 70
     0
  0
XRECORD
  5
11D
102
{ACAD_REACTORS
330
11C
102
}
330
11C
100
AcDbXrecord
280
     1
102
RTVSPost2010Prop28
280
     0
102
RTVSPost2010PropOp28
 70
     1
102
RTVSPost2010Prop29
280
     1
102
RTVSPost2010PropOp29
 70
     1
102
RTVSPost2010Prop30
280
     1
102
RTVSPost2010PropOp30
 70
     1
102
RTVSPost2010Prop31
280
     0
102
RTVSPost2010PropOp31
 70
     1
102
RTVSPost2010Prop32
280
     0
102
RTVSPost2010PropOp32
 70
     1
102
RTVSPost2010Prop33
280
     0
102
RTVSPost2010PropOp33
 70
     1
102
RTVSPost2010Prop34
280
     0
102
RTVSPost2010PropOp34
 70
     1
102
RTVSPost2010Prop35
280
     0
102
RTVSPost2010PropOp35
 70
     1
102
RTVSPost2010Prop36
280
     0
102
RTVSPost2010PropOp36
 70
     1
102
RTVSPost2010Prop37
 90
       50
102
RTVSPost2010PropOp37
 70
     1
102
RTVSPost2010Prop38
140
0.0
102
RTVSPost2010PropOp38
 70
     1
102
RTVSPost2010Prop39
140
1.0
102
RTVSPost2010PropOp39
 70
     1
102
RTVSPost2010Prop40
 90
        0
102
RTVSPost2010PropOp40
 70
     1
102
RTVSPost2010Prop41ColorIndex
 90
       18
102
RTVSPost2010Prop41ColorRGB
 90
        0
102
RTVSPost2010PropOp41
 70
     1
102
RTVSPost2010Prop42
 90
       50
102
RTVSPost2010PropOp42
 70
     1
102
RTVSPost2010Prop43
 90
        3
102
RTVSPost2010PropOp43
 70
     1
102
RTVSPost2010Prop44ColorIndex
 90
        5
102
RTVSPost2010Prop44ColorRGB
 90
      255
102
RTVSPost2010PropOp44
 70
     1
102
RTVSPost2010Prop45
280
     0
102
RTVSPost2010PropOp45
 70
     1
102
RTVSPost2010Prop46
 90
       50
102
RTVSPost2010PropOp46
 70
     1
102
RTVSPost2010Prop47
 90
       50
102
RTVSPost2010PropOp47
 70
     1
102
RTVSPost2010Prop48
 90
       50
102
RTVSPost2010PropOp48
 70
     1
102
RTVSPost2010Prop49
280
     0
102
RTVSPost2010PropOp49
 70
     1
102
RTVSPost2010Prop50
 90
       50
102
RTVSPost2010PropOp50
 70
     1
102
RTVSPost2010Prop51ColorIndex
 90
      256
102
RTVSPost2010Prop51ColorRGB
 90
-16777216
102
RTVSPost2010PropOp51
 70
     0
102
RTVSPost2010Prop52
140
1.0
102
RTVSPost2010PropOp52
 70
     0
102
RTVSPost2010Prop53
 90
        2
102
RTVSPost2010PropOp53
 70
     1
102
RTVSPost2010Prop54
  1
strokes_ogs.tif
102
RTVSPost2010PropOp54
 70
     1
102
RTVSPost2010Prop55
280
     0
102
RTVSPost2010PropOp55
 70
     1
102
RTVSPost2010Prop56
140
1.0
102
RTVSPost2010PropOp56
 70
     1
102
RTVSPost2010Prop57
140
1.0
102
RTVSPost2010PropOp57
 70
     1
  0
XRECORD
  5
133
102
{ACAD_REACTORS
330
132
102
}
330
132
100
AcDbXrecord
280
     1
102
RTVSPost2010Prop28
280
     0
102
RTVSPost2010PropOp28
 70
     1
102
RTVSPost2010Prop29
280
     1
102
RTVSPost2010PropOp29
 70
     1
102
RTVSPost2010Prop30
280
     1
102
RTVSPost2010PropOp30
 70
     1
102
RTVSPost2010Prop31
280
     0
102
RTVSPost2010PropOp31
 70
     1
102
RTVSPost2010Prop32
280
     0
102
RTVSPost2010PropOp32
 70
     1
102
RTVSPost2010Prop33
280
     0
102
RTVSPost2010PropOp33
 70
     1
102
RTVSPost2010Prop34
280
     0
102
RTVSPost2010PropOp34
 70
     1
102
RTVSPost2010Prop35
280
     0
102
RTVSPost2010PropOp35
 70
     1
102
RTVSPost2010Prop36
280
     0
102
RTVSPost2010PropOp36
 70
     1
102
RTVSPost2010Prop37
 90
       50
102
RTVSPost2010PropOp37
 70
     1
102
RTVSPost2010Prop38
140
0.0
102
RTVSPost2010PropOp38
 70
     1
102
RTVSPost2010Prop39
140
1.0
102
RTVSPost2010PropOp39
 70
     1
102
RTVSPost2010Prop40
 90
        0
102
RTVSPost2010PropOp40
 70
     1
102
RTVSPost2010Prop41ColorIndex
 90
       18
102
RTVSPost2010Prop41ColorRGB
 90
        0
102
RTVSPost2010PropOp41
 70
     1
102
RTVSPost2010Prop42
 90
       50
102
RTVSPost2010PropOp42
 70
     1
102
RTVSPost2010Prop43
 90
        3
102
RTVSPost2010PropOp43
 70
     1
102
RTVSPost2010Prop44ColorIndex
 90
        5
102
RTVSPost2010Prop44ColorRGB
 90
      255
102
RTVSPost2010PropOp44
 70
     1
102
RTVSPost2010Prop45
280
     0
102
RTVSPost2010PropOp45
 70
     1
102
RTVSPost2010Prop46
 90
       50
102
RTVSPost2010PropOp46
 70
     1
102
RTVSPost2010Prop47
 90
       50
102
RTVSPost2010PropOp47
 70
     1
102
RTVSPost2010Prop48
 90
       50
102
RTVSPost2010PropOp48
 70
     1
102
RTVSPost2010Prop49
280
     0
102
RTVSPost2010PropOp49
 70
     1
102
RTVSPost2010Prop50
 90
       50
102
RTVSPost2010PropOp50
 70
     1
102
RTVSPost2010Prop51ColorIndex
 90
      256
102
RTVSPost2010Prop51ColorRGB
 90
-16777216
102
RTVSPost2010PropOp51
 70
     0
102
RTVSPost2010Prop52
140
1.0
102
RTVSPost2010PropOp52
 70
     0
102
RTVSPost2010Prop53
 90
        2
102
RTVSPost2010PropOp53
 70
     1
102
RTVSPost2010Prop54
  1
strokes_ogs.tif
102
RTVSPost2010PropOp54
 70
     1
102
RTVSPost2010Prop55
280
     0
102
RTVSPost2010PropOp55
 70
     1
102
RTVSPost2010Prop56
140
1.0
102
RTVSPost2010PropOp56
 70
     1
102
RTVSPost2010Prop57
140
1.0
102
RTVSPost2010PropOp57
 70
     1
  0
XRECORD
  5
131
102
{ACAD_REACTORS
330
130
102
}
330
130
100
AcDbXrecord
280
     1
102
RTVSPost2010Prop28
280
     0
102
RTVSPost2010PropOp28
 70
     1
102
RTVSPost2010Prop29
280
     1
102
RTVSPost2010PropOp29
 70
     1
102
RTVSPost2010Prop30
280
     1
102
RTVSPost2010PropOp30
 70
     1
102
RTVSPost2010Prop31
280
     0
102
RTVSPost2010PropOp31
 70
     1
102
RTVSPost2010Prop32
280
     0
102
RTVSPost2010PropOp32
 70
     1
102
RTVSPost2010Prop33
280
     0
102
RTVSPost2010PropOp33
 70
     1
102
RTVSPost2010Prop34
280
     0
102
RTVSPost2010PropOp34
 70
     1
102
RTVSPost2010Prop35
280
     0
102
RTVSPost2010PropOp35
 70
     1
102
RTVSPost2010Prop36
280
     0
102
RTVSPost2010PropOp36
 70
     1
102
RTVSPost2010Prop37
 90
       50
102
RTVSPost2010PropOp37
 70
     1
102
RTVSPost2010Prop38
140
0.0
102
RTVSPost2010PropOp38
 70
     1
102
RTVSPost2010Prop39
140
1.0
102
RTVSPost2010PropOp39
 70
     1
102
RTVSPost2010Prop40
 90
        0
102
RTVSPost2010PropOp40
 70
     1
102
RTVSPost2010Prop41ColorIndex
 90
       18
102
RTVSPost2010Prop41ColorRGB
 90
        0
102
RTVSPost2010PropOp41
 70
     1
102
RTVSPost2010Prop42
 90
       50
102
RTVSPost2010PropOp42
 70
     1
102
RTVSPost2010Prop43
 90
        3
102
RTVSPost2010PropOp43
 70
     1
102
RTVSPost2010Prop44ColorIndex
 90
        5
102
RTVSPost2010Prop44ColorRGB
 90
      255
102
RTVSPost2010PropOp44
 70
     1
102
RTVSPost2010Prop45
280
     0
102
RTVSPost2010PropOp45
 70
     1
102
RTVSPost2010Prop46
 90
       50
102
RTVSPost2010PropOp46
 70
     1
102
RTVSPost2010Prop47
 90
       50
102
RTVSPost2010PropOp47
 70
     1
102
RTVSPost2010Prop48
 90
       50
102
RTVSPost2010PropOp48
 70
     1
102
RTVSPost2010Prop49
280
     0
102
RTVSPost2010PropOp49
 70
     1
102
RTVSPost2010Prop50
 90
       50
102
RTVSPost2010PropOp50
 70
     1
102
RTVSPost2010Prop51ColorIndex
 90
      256
102
RTVSPost2010Prop51ColorRGB
 90
-16777216
102
RTVSPost2010PropOp51
 70
     0
102
RTVSPost2010Prop52
140
1.0
102
RTVSPost2010PropOp52
 70
     0
102
RTVSPost2010Prop53
 90
        2
102
RTVSPost2010PropOp53
 70
     1
102
RTVSPost2010Prop54
  1
strokes_ogs.tif
102
RTVSPost2010PropOp54
 70
     1
102
RTVSPost2010Prop55
280
     0
102
RTVSPost2010PropOp55
 70
     1
102
RTVSPost2010Prop56
140
1.0
102
RTVSPost2010PropOp56
 70
     1
102
RTVSPost2010Prop57
140
1.0
102
RTVSPost2010PropOp57
 70
     1
  0
XRECORD
  5
12B
102
{ACAD_REACTORS
330
12A
102
}
330
12A
100
AcDbXrecord
280
     1
102
RTVSPost2010Prop28
280
     0
102
RTVSPost2010PropOp28
 70
     1
102
RTVSPost2010Prop29
280
     1
102
RTVSPost2010PropOp29
 70
     1
102
RTVSPost2010Prop30
280
     1
102
RTVSPost2010PropOp30
 70
     1
102
RTVSPost2010Prop31
280
     0
102
RTVSPost2010PropOp31
 70
     1
102
RTVSPost2010Prop32
280
     0
102
RTVSPost2010PropOp32
 70
     1
102
RTVSPost2010Prop33
280
     0
102
RTVSPost2010PropOp33
 70
     1
102
RTVSPost2010Prop34
280
     0
102
RTVSPost2010PropOp34
 70
     1
102
RTVSPost2010Prop35
280
     0
102
RTVSPost2010PropOp35
 70
     1
102
RTVSPost2010Prop36
280
     0
102
RTVSPost2010PropOp36
 70
     1
102
RTVSPost2010Prop37
 90
       50
102
RTVSPost2010PropOp37
 70
     1
102
RTVSPost2010Prop38
140
0.0
102
RTVSPost2010PropOp38
 70
     1
102
RTVSPost2010Prop39
140
1.0
102
RTVSPost2010PropOp39
 70
     1
102
RTVSPost2010Prop40
 90
        0
102
RTVSPost2010PropOp40
 70
     1
102
RTVSPost2010Prop41ColorIndex
 90
       18
102
RTVSPost2010Prop41ColorRGB
 90
        0
102
RTVSPost2010PropOp41
 70
     1
102
RTVSPost2010Prop42
 90
       50
102
RTVSPost2010PropOp42
 70
     1
102
RTVSPost2010Prop43
 90
        3
102
RTVSPost2010PropOp43
 70
     1
102
RTVSPost2010Prop44ColorIndex
 90
        5
102
RTVSPost2010Prop44ColorRGB
 90
      255
102
RTVSPost2010PropOp44
 70
     1
102
RTVSPost2010Prop45
280
     0
102
RTVSPost2010PropOp45
 70
     1
102
RTVSPost2010Prop46
 90
       50
102
RTVSPost2010PropOp46
 70
     1
102
RTVSPost2010Prop47
 90
       50
102
RTVSPost2010PropOp47
 70
     1
102
RTVSPost2010Prop48
 90
       50
102
RTVSPost2010PropOp48
 70
     1
102
RTVSPost2010Prop49
280
     0
102
RTVSPost2010PropOp49
 70
     1
102
RTVSPost2010Prop50
 90
       50
102
RTVSPost2010PropOp50
 70
     1
102
RTVSPost2010Prop51ColorIndex
 90
      256
102
RTVSPost2010Prop51ColorRGB
 90
-16777216
102
RTVSPost2010PropOp51
 70
     0
102
RTVSPost2010Prop52
140
1.0
102
RTVSPost2010PropOp52
 70
     0
102
RTVSPost2010Prop53
 90
        2
102
RTVSPost2010PropOp53
 70
     1
102
RTVSPost2010Prop54
  1
strokes_ogs.tif
102
RTVSPost2010PropOp54
 70
     1
102
RTVSPost2010Prop55
280
     0
102
RTVSPost2010PropOp55
 70
     1
102
RTVSPost2010Prop56
140
1.0
102
RTVSPost2010PropOp56
 70
     1
102
RTVSPost2010Prop57
140
1.0
102
RTVSPost2010PropOp57
 70
     1
  0
XRECORD
  5
12D
102
{ACAD_REACTORS
330
12C
102
}
330
12C
100
AcDbXrecord
280
     1
102
RTVSPost2010Prop28
280
     0
102
RTVSPost2010PropOp28
 70
     1
102
RTVSPost2010Prop29
280
     1
102
RTVSPost2010PropOp29
 70
     1
102
RTVSPost2010Prop30
280
     1
102
RTVSPost2010PropOp30
 70
     1
102
RTVSPost2010Prop31
280
     0
102
RTVSPost2010PropOp31
 70
     1
102
RTVSPost2010Prop32
280
     0
102
RTVSPost2010PropOp32
 70
     1
102
RTVSPost2010Prop33
280
     0
102
RTVSPost2010PropOp33
 70
     1
102
RTVSPost2010Prop34
280
     0
102
RTVSPost2010PropOp34
 70
     1
102
RTVSPost2010Prop35
280
     0
102
RTVSPost2010PropOp35
 70
     1
102
RTVSPost2010Prop36
280
     0
102
RTVSPost2010PropOp36
 70
     1
102
RTVSPost2010Prop37
 90
       50
102
RTVSPost2010PropOp37
 70
     1
102
RTVSPost2010Prop38
140
0.0
102
RTVSPost2010PropOp38
 70
     1
102
RTVSPost2010Prop39
140
1.0
102
RTVSPost2010PropOp39
 70
     1
102
RTVSPost2010Prop40
 90
        0
102
RTVSPost2010PropOp40
 70
     1
102
RTVSPost2010Prop41ColorIndex
 90
       18
102
RTVSPost2010Prop41ColorRGB
 90
        0
102
RTVSPost2010PropOp41
 70
     1
102
RTVSPost2010Prop42
 90
       50
102
RTVSPost2010PropOp42
 70
     1
102
RTVSPost2010Prop43
 90
        3
102
RTVSPost2010PropOp43
 70
     1
102
RTVSPost2010Prop44ColorIndex
 90
        5
102
RTVSPost2010Prop44ColorRGB
 90
      255
102
RTVSPost2010PropOp44
 70
     1
102
RTVSPost2010Prop45
280
     0
102
RTVSPost2010PropOp45
 70
     1
102
RTVSPost2010Prop46
 90
       50
102
RTVSPost2010PropOp46
 70
     1
102
RTVSPost2010Prop47
 90
       50
102
RTVSPost2010PropOp47
 70
     1
102
RTVSPost2010Prop48
 90
       50
102
RTVSPost2010PropOp48
 70
     1
102
RTVSPost2010Prop49
280
     0
102
RTVSPost2010PropOp49
 70
     1
102
RTVSPost2010Prop50
 90
       50
102
RTVSPost2010PropOp50
 70
     1
102
RTVSPost2010Prop51ColorIndex
 90
      256
102
RTVSPost2010Prop51ColorRGB
 90
-16777216
102
RTVSPost2010PropOp51
 70
     0
102
RTVSPost2010Prop52
140
1.0
102
RTVSPost2010PropOp52
 70
     0
102
RTVSPost2010Prop53
 90
        2
102
RTVSPost2010PropOp53
 70
     1
102
RTVSPost2010Prop54
  1
strokes_ogs.tif
102
RTVSPost2010PropOp54
 70
     1
102
RTVSPost2010Prop55
280
     0
102
RTVSPost2010PropOp55
 70
     1
102
RTVSPost2010Prop56
140
1.0
102
RTVSPost2010PropOp56
 70
     1
102
RTVSPost2010Prop57
140
1.0
102
RTVSPost2010PropOp57
 70
     1
  0
XRECORD
  5
123
102
{ACAD_REACTORS
330
122
102
}
330
122
100
AcDbXrecord
280
     1
102
RTVSPost2010Prop28
280
     0
102
RTVSPost2010PropOp28
 70
     1
102
RTVSPost2010Prop29
280
     1
102
RTVSPost2010PropOp29
 70
     1
102
RTVSPost2010Prop30
280
     1
102
RTVSPost2010PropOp30
 70
     1
102
RTVSPost2010Prop31
280
     0
102
RTVSPost2010PropOp31
 70
     1
102
RTVSPost2010Prop32
280
     0
102
RTVSPost2010PropOp32
 70
     1
102
RTVSPost2010Prop33
280
     0
102
RTVSPost2010PropOp33
 70
     1
102
RTVSPost2010Prop34
280
     0
102
RTVSPost2010PropOp34
 70
     1
102
RTVSPost2010Prop35
280
     0
102
RTVSPost2010PropOp35
 70
     1
102
RTVSPost2010Prop36
280
     0
102
RTVSPost2010PropOp36
 70
     1
102
RTVSPost2010Prop37
 90
       50
102
RTVSPost2010PropOp37
 70
     1
102
RTVSPost2010Prop38
140
0.0
102
RTVSPost2010PropOp38
 70
     1
102
RTVSPost2010Prop39
140
1.0
102
RTVSPost2010PropOp39
 70
     1
102
RTVSPost2010Prop40
 90
        0
102
RTVSPost2010PropOp40
 70
     1
102
RTVSPost2010Prop41ColorIndex
 90
       18
102
RTVSPost2010Prop41ColorRGB
 90
        0
102
RTVSPost2010PropOp41
 70
     1
102
RTVSPost2010Prop42
 90
       50
102
RTVSPost2010PropOp42
 70
     1
102
RTVSPost2010Prop43
 90
        3
102
RTVSPost2010PropOp43
 70
     1
102
RTVSPost2010Prop44ColorIndex
 90
        5
102
RTVSPost2010Prop44ColorRGB
 90
      255
102
RTVSPost2010PropOp44
 70
     1
102
RTVSPost2010Prop45
280
     0
102
RTVSPost2010PropOp45
 70
     1
102
RTVSPost2010Prop46
 90
       50
102
RTVSPost2010PropOp46
 70
     1
102
RTVSPost2010Prop47
 90
       50
102
RTVSPost2010PropOp47
 70
     1
102
RTVSPost2010Prop48
 90
       50
102
RTVSPost2010PropOp48
 70
     1
102
RTVSPost2010Prop49
280
     0
102
RTVSPost2010PropOp49
 70
     1
102
RTVSPost2010Prop50
 90
       50
102
RTVSPost2010PropOp50
 70
     1
102
RTVSPost2010Prop51ColorIndex
 90
      256
102
RTVSPost2010Prop51ColorRGB
 90
-16777216
102
RTVSPost2010PropOp51
 70
     0
102
RTVSPost2010Prop52
140
1.0
102
RTVSPost2010PropOp52
 70
     0
102
RTVSPost2010Prop53
 90
        2
102
RTVSPost2010PropOp53
 70
     1
102
RTVSPost2010Prop54
  1
strokes_ogs.tif
102
RTVSPost2010PropOp54
 70
     1
102
RTVSPost2010Prop55
280
     0
102
RTVSPost2010PropOp55
 70
     1
102
RTVSPost2010Prop56
140
1.0
102
RTVSPost2010PropOp56
 70
     1
102
RTVSPost2010Prop57
140
1.0
102
RTVSPost2010PropOp57
 70
     1
  0
XRECORD
  5
117
102
{ACAD_REACTORS
330
116
102
}
330
116
100
AcDbXrecord
280
     1
102
RTVSPost2010Prop28
280
     0
102
RTVSPost2010PropOp28
 70
     1
102
RTVSPost2010Prop29
280
     1
102
RTVSPost2010PropOp29
 70
     1
102
RTVSPost2010Prop30
280
     1
102
RTVSPost2010PropOp30
 70
     1
102
RTVSPost2010Prop31
280
     0
102
RTVSPost2010PropOp31
 70
     1
102
RTVSPost2010Prop32
280
     0
102
RTVSPost2010PropOp32
 70
     1
102
RTVSPost2010Prop33
280
     0
102
RTVSPost2010PropOp33
 70
     1
102
RTVSPost2010Prop34
280
     0
102
RTVSPost2010PropOp34
 70
     1
102
RTVSPost2010Prop35
280
     0
102
RTVSPost2010PropOp35
 70
     1
102
RTVSPost2010Prop36
280
     0
102
RTVSPost2010PropOp36
 70
     1
102
RTVSPost2010Prop37
 90
       50
102
RTVSPost2010PropOp37
 70
     1
102
RTVSPost2010Prop38
140
0.0
102
RTVSPost2010PropOp38
 70
     1
102
RTVSPost2010Prop39
140
1.0
102
RTVSPost2010PropOp39
 70
     1
102
RTVSPost2010Prop40
 90
        0
102
RTVSPost2010PropOp40
 70
     1
102
RTVSPost2010Prop41ColorIndex
 90
       18
102
RTVSPost2010Prop41ColorRGB
 90
        0
102
RTVSPost2010PropOp41
 70
     1
102
RTVSPost2010Prop42
 90
       50
102
RTVSPost2010PropOp42
 70
     1
102
RTVSPost2010Prop43
 90
        3
102
RTVSPost2010PropOp43
 70
     1
102
RTVSPost2010Prop44ColorIndex
 90
        5
102
RTVSPost2010Prop44ColorRGB
 90
      255
102
RTVSPost2010PropOp44
 70
     1
102
RTVSPost2010Prop45
280
     0
102
RTVSPost2010PropOp45
 70
     1
102
RTVSPost2010Prop46
 90
       50
102
RTVSPost2010PropOp46
 70
     1
102
RTVSPost2010Prop47
 90
       50
102
RTVSPost2010PropOp47
 70
     1
102
RTVSPost2010Prop48
 90
       50
102
RTVSPost2010PropOp48
 70
     1
102
RTVSPost2010Prop49
280
     0
102
RTVSPost2010PropOp49
 70
     1
102
RTVSPost2010Prop50
 90
       50
102
RTVSPost2010PropOp50
 70
     1
102
RTVSPost2010Prop51ColorIndex
 90
      256
102
RTVSPost2010Prop51ColorRGB
 90
-16777216
102
RTVSPost2010PropOp51
 70
     0
102
RTVSPost2010Prop52
140
1.0
102
RTVSPost2010PropOp52
 70
     0
102
RTVSPost2010Prop53
 90
        2
102
RTVSPost2010PropOp53
 70
     1
102
RTVSPost2010Prop54
  1
strokes_ogs.tif
102
RTVSPost2010PropOp54
 70
     1
102
RTVSPost2010Prop55
280
     0
102
RTVSPost2010PropOp55
 70
     1
102
RTVSPost2010Prop56
140
1.0
102
RTVSPost2010PropOp56
 70
     1
102
RTVSPost2010Prop57
140
1.0
102
RTVSPost2010PropOp57
 70
     1
  0
XRECORD
  5
12F
102
{ACAD_REACTORS
330
12E
102
}
330
12E
100
AcDbXrecord
280
     1
102
RTVSPost2010Prop28
280
     0
102
RTVSPost2010PropOp28
 70
     1
102
RTVSPost2010Prop29
280
     1
102
RTVSPost2010PropOp29
 70
     1
102
RTVSPost2010Prop30
280
     1
102
RTVSPost2010PropOp30
 70
     1
102
RTVSPost2010Prop31
280
     0
102
RTVSPost2010PropOp31
 70
     1
102
RTVSPost2010Prop32
280
     0
102
RTVSPost2010PropOp32
 70
     1
102
RTVSPost2010Prop33
280
     0
102
RTVSPost2010PropOp33
 70
     1
102
RTVSPost2010Prop34
280
     0
102
RTVSPost2010PropOp34
 70
     1
102
RTVSPost2010Prop35
280
     0
102
RTVSPost2010PropOp35
 70
     1
102
RTVSPost2010Prop36
280
     0
102
RTVSPost2010PropOp36
 70
     1
102
RTVSPost2010Prop37
 90
       50
102
RTVSPost2010PropOp37
 70
     1
102
RTVSPost2010Prop38
140
0.0
102
RTVSPost2010PropOp38
 70
     1
102
RTVSPost2010Prop39
140
1.0
102
RTVSPost2010PropOp39
 70
     1
102
RTVSPost2010Prop40
 90
        0
102
RTVSPost2010PropOp40
 70
     1
102
RTVSPost2010Prop41ColorIndex
 90
       18
102
RTVSPost2010Prop41ColorRGB
 90
        0
102
RTVSPost2010PropOp41
 70
     1
102
RTVSPost2010Prop42
 90
       50
102
RTVSPost2010PropOp42
 70
     1
102
RTVSPost2010Prop43
 90
        3
102
RTVSPost2010PropOp43
 70
     1
102
RTVSPost2010Prop44ColorIndex
 90
        5
102
RTVSPost2010Prop44ColorRGB
 90
      255
102
RTVSPost2010PropOp44
 70
     1
102
RTVSPost2010Prop45
280
     0
102
RTVSPost2010PropOp45
 70
     1
102
RTVSPost2010Prop46
 90
       50
102
RTVSPost2010PropOp46
 70
     1
102
RTVSPost2010Prop47
 90
       50
102
RTVSPost2010PropOp47
 70
     1
102
RTVSPost2010Prop48
 90
       50
102
RTVSPost2010PropOp48
 70
     1
102
RTVSPost2010Prop49
280
     0
102
RTVSPost2010PropOp49
 70
     1
102
RTVSPost2010Prop50
 90
       50
102
RTVSPost2010PropOp50
 70
     1
102
RTVSPost2010Prop51ColorIndex
 90
      256
102
RTVSPost2010Prop51ColorRGB
 90
-16777216
102
RTVSPost2010PropOp51
 70
     0
102
RTVSPost2010Prop52
140
1.0
102
RTVSPost2010PropOp52
 70
     0
102
RTVSPost2010Prop53
 90
        2
102
RTVSPost2010PropOp53
 70
     1
102
RTVSPost2010Prop54
  1
strokes_ogs.tif
102
RTVSPost2010PropOp54
 70
     1
102
RTVSPost2010Prop55
280
     0
102
RTVSPost2010PropOp55
 70
     1
102
RTVSPost2010Prop56
140
1.0
102
RTVSPost2010PropOp56
 70
     1
102
RTVSPost2010Prop57
140
1.0
102
RTVSPost2010PropOp57
 70
     1
  0
ENDSEC
  0
EOF
