  0
SECTION
  2
HEADER
  9
$ACADVER
  1
AC1024
  9
$ACADMAINTVER
 70
   226
  9
$DWGCODEPAGE
  3
ANSI_932
  9
$INSBASE
 10
0.0
 20
0.0
 30
0.0
  9
$EXTMIN
 10
1.000000000000000E+20
 20
1.000000000000000E+20
 30
1.000000000000000E+20
  9
$EXTMAX
 10
-1.000000000000000E+20
 20
-1.000000000000000E+20
 30
-1.000000000000000E+20
  9
$LIMMIN
 10
0.0
 20
0.0
  9
$LIMMAX
 10
12.0
 20
9.0
  9
$ORTHOMODE
 70
     0
  9
$REGENMODE
 70
     1
  9
$FILLMODE
 70
     1
  9
$QTEXTMODE
 70
     0
  9
$MIRRTEXT
 70
     0
  9
$LTSCALE
 40
1.0
  9
$ATTMODE
 70
     1
  9
$TEXTSIZE
 40
0.2
  9
$TRACEWID
 40
0.05
  9
$TEXTSTYLE
  7
Standard
  9
$CLAYER
  8
0
  9
$CELTYPE
  6
ByLayer
  9
$CECOLOR
 62
   256
  9
$CELTSCALE
 40
1.0
  9
$DISPSILH
 70
     0
  9
$DIMSCALE
 40
1.0
  9
$DIMASZ
 40
0.18
  9
$DIMEXO
 40
0.0625
  9
$DIMDLI
 40
0.38
  9
$DIMRND
 40
0.0
  9
$DIMDLE
 40
0.0
  9
$DIMEXE
 40
0.18
  9
$DIMTP
 40
0.0
  9
$DIMTM
 40
0.0
  9
$DIMTXT
 40
0.18
  9
$DIMCEN
 40
0.09
  9
$DIMTSZ
 40
0.0
  9
$DIMTOL
 70
     0
  9
$DIMLIM
 70
     0
  9
$DIMTIH
 70
     1
  9
$DIMTOH
 70
     1
  9
$DIMSE1
 70
     0
  9
$DIMSE2
 70
     0
  9
$DIMTAD
 70
     0
  9
$DIMZIN
 70
     0
  9
$DIMBLK
  1

  9
$DIMASO
 70
     1
  9
$DIMSHO
 70
     1
  9
$DIMPOST
  1

  9
$DIMAPOST
  1

  9
$DIMALT
 70
     0
  9
$DIMALTD
 70
     2
  9
$DIMALTF
 40
25.4
  9
$DIMLFAC
 40
1.0
  9
$DIMTOFL
 70
     0
  9
$DIMTVP
 40
0.0
  9
$DIMTIX
 70
     0
  9
$DIMSOXD
 70
     0
  9
$DIMSAH
 70
     0
  9
$DIMBLK1
  1

  9
$DIMBLK2
  1

  9
$DIMSTYLE
  2
Standard
  9
$DIMCLRD
 70
     0
  9
$DIMCLRE
 70
     0
  9
$DIMCLRT
 70
     0
  9
$DIMTFAC
 40
1.0
  9
$DIMGAP
 40
0.09
  9
$DIMJUST
 70
     0
  9
$DIMSD1
 70
     0
  9
$DIMSD2
 70
     0
  9
$DIMTOLJ
 70
     1
  9
$DIMTZIN
 70
     0
  9
$DIMALTZ
 70
     0
  9
$DIMALTTZ
 70
     0
  9
$DIMUPT
 70
     0
  9
$DIMDEC
 70
     4
  9
$DIMTDEC
 70
     4
  9
$DIMALTU
 70
     2
  9
$DIMALTTD
 70
     2
  9
$DIMTXSTY
  7
Standard
  9
$DIMAUNIT
 70
     0
  9
$DIMADEC
 70
     0
  9
$DIMALTRND
 40
0.0
  9
$DIMAZIN
 70
     0
  9
$DIMDSEP
 70
    46
  9
$DIMATFIT
 70
     3
  9
$DIMFRAC
 70
     0
  9
$DIMLDRBLK
  1

  9
$DIMLUNIT
 70
     2
  9
$DIMLWD
 70
    -2
  9
$DIMLWE
 70
    -2
  9
$DIMTMOVE
 70
     0
  9
$DIMFXL
 40
1.0
  9
$DIMFXLON
 70
     0
  9
$DIMJOGANG
 40
0.7853981633974483
  9
$DIMTFILL
 70
     0
  9
$DIMTFILLCLR
 70
     0
  9
$DIMARCSYM
 70
     0
  9
$DIMLTYPE
  6

  9
$DIMLTEX1
  6

  9
$DIMLTEX2
  6

  9
$DIMTXTDIRECTION
 70
     0
  9
$LUNITS
 70
     2
  9
$LUPREC
 70
     4
  9
$SKETCHINC
 40
0.1
  9
$FILLETRAD
 40
0.0
  9
$AUNITS
 70
     0
  9
$AUPREC
 70
     0
  9
$MENU
  1
.
  9
$ELEVATION
 40
0.0
  9
$PELEVATION
 40
0.0
  9
$THICKNESS
 40
0.0
  9
$LIMCHECK
 70
     0
  9
$CHAMFERA
 40
0.0
  9
$CHAMFERB
 40
0.0
  9
$CHAMFERC
 40
0.0
  9
$CHAMFERD
 40
0.0
  9
$SKPOLY
 70
     0
  9
$TDCREATE
 40
2459569.490300926
  9
$TDUCREATE
 40
2459569.115300926
  9
$TDUPDATE
 40
2459569.490300926
  9
$TDUUPDATE
 40
2459569.115300926
  9
$TDINDWG
 40
0.0000000000
  9
$TDUSRTIMER
 40
0.0000000000
  9
$USRTIMER
 70
     1
  9
$ANGBASE
 50
0.0
  9
$ANGDIR
 70
     0
  9
$PDMODE
 70
     0
  9
$PDSIZE
 40
0.0
  9
$PLINEWID
 40
0.0
  9
$SPLFRAME
 70
     0
  9
$SPLINETYPE
 70
     6
  9
$SPLINESEGS
 70
     8
  9
$HANDSEED
  5
145
  9
$SURFTAB1
 70
     6
  9
$SURFTAB2
 70
     6
  9
$SURFTYPE
 70
     6
  9
$SURFU
 70
     6
  9
$SURFV
 70
     6
  9
$UCSBASE
  2

  9
$UCSNAME
  2

  9
$UCSORG
 10
0.0
 20
0.0
 30
0.0
  9
$UCSXDIR
 10
1.0
 20
0.0
 30
0.0
  9
$UCSYDIR
 10
0.0
 20
1.0
 30
0.0
  9
$UCSORTHOREF
  2

  9
$UCSORTHOVIEW
 70
     0
  9
$UCSORGTOP
 10
0.0
 20
0.0
 30
0.0
  9
$UCSORGBOTTOM
 10
0.0
 20
0.0
 30
0.0
  9
$UCSORGLEFT
 10
0.0
 20
0.0
 30
0.0
  9
$UCSORGRIGHT
 10
0.0
 20
0.0
 30
0.0
  9
$UCSORGFRONT
 10
0.0
 20
0.0
 30
0.0
  9
$UCSORGBACK
 10
0.0
 20
0.0
 30
0.0
  9
$PUCSBASE
  2

  9
$PUCSNAME
  2

  9
$PUCSORG
 10
0.0
 20
0.0
 30
0.0
  9
$PUCSXDIR
 10
1.0
 20
0.0
 30
0.0
  9
$PUCSYDIR
 10
0.0
 20
1.0
 30
0.0
  9
$PUCSORTHOREF
  2

  9
$PUCSORTHOVIEW
 70
     0
  9
$PUCSORGTOP
 10
0.0
 20
0.0
 30
0.0
  9
$PUCSORGBOTTOM
 10
0.0
 20
0.0
 30
0.0
  9
$PUCSORGLEFT
 10
0.0
 20
0.0
 30
0.0
  9
$PUCSORGRIGHT
 10
0.0
 20
0.0
 30
0.0
  9
$PUCSORGFRONT
 10
0.0
 20
0.0
 30
0.0
  9
$PUCSORGBACK
 10
0.0
 20
0.0
 30
0.0
  9
$USERI1
 70
     0
  9
$USERI2
 70
     0
  9
$USERI3
 70
     0
  9
$USERI4
 70
     0
  9
$USERI5
 70
     0
  9
$USERR1
 40
0.0
  9
$USERR2
 40
0.0
  9
$USERR3
 40
0.0
  9
$USERR4
 40
0.0
  9
$USERR5
 40
0.0
  9
$WORLDVIEW
 70
     1
  9
$SHADEDGE
 70
     3
  9
$SHADEDIF
 70
    70
  9
$TILEMODE
 70
     1
  9
$MAXACTVP
 70
    64
  9
$PINSBASE
 10
0.0
 20
0.0
 30
0.0
  9
$PLIMCHECK
 70
     0
  9
$PEXTMIN
 10
1.000000000000000E+20
 20
1.000000000000000E+20
 30
1.000000000000000E+20
  9
$PEXTMAX
 10
-1.000000000000000E+20
 20
-1.000000000000000E+20
 30
-1.000000000000000E+20
  9
$PLIMMIN
 10
0.0
 20
0.0
  9
$PLIMMAX
 10
12.0
 20
9.0
  9
$UNITMODE
 70
     0
  9
$VISRETAIN
 70
     1
  9
$PLINEGEN
 70
     0
  9
$PSLTSCALE
 70
     1
  9
$TREEDEPTH
 70
  3020
  9
$CMLSTYLE
  2
Standard
  9
$CMLJUST
 70
     0
  9
$CMLSCALE
 40
1.0
  9
$PROXYGRAPHICS
 70
     1
  9
$MEASUREMENT
 70
     0
  9
$CELWEIGHT
370
    -1
  9
$ENDCAPS
280
     0
  9
$JOINSTYLE
280
     0
  9
$LWDISPLAY
290
     1
  9
$INSUNITS
 70
     4
  9
$HYPERLINKBASE
  1

  9
$STYLESHEET
  1

  9
$XEDIT
290
     1
  9
$CEPSNTYPE
380
     0
  9
$PSTYLEMODE
290
     1
  9
$FINGERPRINTGUID
  2
{A6BCEF26-C3C8-C54D-A16A-C15F602F6170}
  9
$VERSIONGUID
  2
{D42C3DF5-4579-B345-AB08-BC874C11044B}
  9
$EXTNAMES
290
     1
  9
$PSVPSCALE
 40
0.0
  9
$OLESTARTUP
290
     0
  9
$SORTENTS
280
   127
  9
$INDEXCTL
280
     0
  9
$HIDETEXT
280
     1
  9
$XCLIPFRAME
280
     2
  9
$HALOGAP
280
     0
  9
$OBSCOLOR
 70
   257
  9
$OBSLTYPE
280
     0
  9
$INTERSECTIONDISPLAY
280
     0
  9
$INTERSECTIONCOLOR
 70
   257
  9
$DIMASSOC
280
     2
  9
$PROJECTNAME
  1

  9
$CAMERADISPLAY
290
     0
  9
$LENSLENGTH
 40
50.0
  9
$CAMERAHEIGHT
 40
0.0
  9
$STEPSPERSEC
 40
2.0
  9
$STEPSIZE
 40
6.0
  9
$3DDWFPREC
 40
2.0
  9
$PSOLWIDTH
 40
0.25
  9
$PSOLHEIGHT
 40
4.0
  9
$LOFTANG1
 40
1.570796326794896
  9
$LOFTANG2
 40
1.570796326794896
  9
$LOFTMAG1
 40
0.0
  9
$LOFTMAG2
 40
0.0
  9
$LOFTPARAM
 70
     7
  9
$LOFTNORMALS
280
     1
  9
$LATITUDE
 40
37.795
  9
$LONGITUDE
 40
-122.394
  9
$NORTHDIRECTION
 40
0.0
  9
$TIMEZONE
 70
 -8000
  9
$LIGHTGLYPHDISPLAY
280
     1
  9
$TILEMODELIGHTSYNCH
280
     1
  9
$CMATERIAL
347
11
  9
$SOLIDHIST
280
     0
  9
$SHOWHIST
280
     1
  9
$DWFFRAME
280
     2
  9
$DGNFRAME
280
     0
  9
$REALWORLDSCALE
290
     1
  9
$INTERFERECOLOR
 62
     1
  9
$INTERFEREOBJVS
345
33
  9
$INTERFEREVPVS
346
30
  9
$CSHADOW
280
     0
  9
$SHADOWPLANELOCATION
 40
0.0
  0
ENDSEC
  0
SECTION
  2
CLASSES
  0
CLASS
  1
ACDBDICTIONARYWDFLT
  2
AcDbDictionaryWithDefault
  3
ObjectDBX Classes
 90
        0
 91
        1
280
     0
281
     0
  0
CLASS
  1
MATERIAL
  2
AcDbMaterial
  3
ObjectDBX Classes
 90
     1153
 91
        3
280
     0
281
     0
  0
CLASS
  1
VISUALSTYLE
  2
AcDbVisualStyle
  3
ObjectDBX Classes
 90
     4095
 91
       24
280
     0
281
     0
  0
CLASS
  1
SCALE
  2
AcDbScale
  3
ObjectDBX Classes
 90
     1153
 91
       17
280
     0
281
     0
  0
CLASS
  1
TABLESTYLE
  2
AcDbTableStyle
  3
ObjectDBX Classes
 90
     4095
 91
        1
280
     0
281
     0
  0
CLASS
  1
MLEADERSTYLE
  2
AcDbMLeaderStyle
  3
ACDB_MLEADERSTYLE_CLASS
 90
     4095
 91
        1
280
     0
281
     0
  0
CLASS
  1
ACDBSECTIONVIEWSTYLE
  2
AcDbSectionViewStyle
  3
ObjectDBX Classes
 90
     1025
 91
        1
280
     0
281
     0
  0
CLASS
  1
ACDBDETAILVIEWSTYLE
  2
AcDbDetailViewStyle
  3
ObjectDBX Classes
 90
     1025
 91
        1
280
     0
281
     0
  0
CLASS
  1
DICTIONARYVAR
  2
AcDbDictionaryVar
  3
ObjectDBX Classes
 90
        0
 91
        5
280
     0
281
     0
  0
CLASS
  1
CELLSTYLEMAP
  2
AcDbCellStyleMap
  3
ObjectDBX Classes
 90
     1152
 91
        1
280
     0
281
     0
  0
ENDSEC
  0
SECTION
  2
TABLES
  0
TABLE
  2
VPORT
  5
8
330
0
100
AcDbSymbolTable
 70
     1
  0
VPORT
  5
57
330
8
100
AcDbSymbolTableRecord
100
AcDbViewportTableRecord
  2
*Active
 70
     0
 10
0.0
 20
0.0
 11
1.0
 21
1.0
 12
0.0
 22
0.0
 13
0.0
 23
0.0
 14
1.0
 24
1.0
 15
0.0
 25
0.0
 16
0.0
 26
0.0
 36
1.0
 17
104.9999999737534
 27
-148.4999999628701
 37
0.0
 40
302.939999924255
 41
0.7070707070707534
 42
50.0
 43
0.0
 44
0.0
 50
0.0
 51
0.0
 71
     0
 72
   100
 73
     1
 74
     0
 75
     1
 76
     0
 77
     0
 78
     0
281
     0
 65
     1
110
0.0
120
0.0
130
0.0
111
1.0
121
0.0
131
0.0
112
0.0
122
1.0
132
0.0
 79
     0
146
0.0
 60
     3
 61
     5
292
     1
282
     1
141
0.0
142
0.0
 63
   250
421
  3355443
  0
ENDTAB
  0
TABLE
  2
LTYPE
  5
5
330
0
100
AcDbSymbolTable
 70
     2
  0
LTYPE
  5
5B
330
5
100
AcDbSymbolTableRecord
100
AcDbLinetypeTableRecord
  2
ByBlock
 70
     0
  3

 72
    65
 73
     0
 40
0.0
  0
LTYPE
  5
5C
330
5
100
AcDbSymbolTableRecord
100
AcDbLinetypeTableRecord
  2
ByLayer
 70
     0
  3

 72
    65
 73
     0
 40
0.0
  0
LTYPE
  5
5D
330
5
100
AcDbSymbolTableRecord
100
AcDbLinetypeTableRecord
  2
Continuous
 70
     0
  3
Solid line
 72
    65
 73
     0
 40
0.0
  0
LTYPE
  5
E3
330
5
100
AcDbSymbolTableRecord
100
AcDbLinetypeTableRecord
  2
AI-Linetype-0
 70
     0
  3
Adobe Illustrator Linetype No. 0
 72
    65
 73
     2
 40
1.411111110758333
 49
0.7055555553791667
 74
     0
 49
-0.7055555553791667
 74
     0
  0
ENDTAB
  0
TABLE
  2
LAYER
  5
2
330
0
100
AcDbSymbolTable
 70
     2
  0
LAYER
  5
54
330
2
100
AcDbSymbolTableRecord
100
AcDbLayerTableRecord
  2
0
 70
     0
 62
     7
  6
Continuous
370
    -3
390
F
347
21
  0
LAYER
  5
78
330
2
100
AcDbSymbolTableRecord
100
AcDbLayerTableRecord
  2
レイヤー 1
 70
     0
 62
     7
  6
Continuous
370
     0
390
F
347
21
  0
ENDTAB
  0
TABLE
  2
STYLE
  5
3
330
0
100
AcDbSymbolTable
 70
     2
  0
STYLE
  5
55
330
3
100
AcDbSymbolTableRecord
100
AcDbTextStyleTableRecord
  2
Standard
 70
     0
 40
0.0
 41
1.0
 50
0.0
 71
     0
 42
0.2
  3
txt
  4

  0
STYLE
  5
5A
330
3
100
AcDbSymbolTableRecord
100
AcDbTextStyleTableRecord
  2
Annotative
 70
     0
 40
0.0
 41
1.0
 50
0.0
 71
     0
 42
0.2
  3
txt
  4

1001
AcadAnnotative
1000
AnnotativeData
1002
{
1070
     1
1070
     1
1002
}
  0
ENDTAB
  0
TABLE
  2
VIEW
  5
6
330
0
100
AcDbSymbolTable
 70
     0
  0
ENDTAB
  0
TABLE
  2
UCS
  5
7
330
0
100
AcDbSymbolTable
 70
     0
  0
ENDTAB
  0
TABLE
  2
APPID
  5
9
330
0
100
AcDbSymbolTable
 70
     2
  0
APPID
  5
56
330
9
100
AcDbSymbolTableRecord
100
AcDbRegAppTableRecord
  2
ACAD
 70
     0
  0
APPID
  5
5E
330
9
100
AcDbSymbolTableRecord
100
AcDbRegAppTableRecord
  2
AcadAnnotative
 70
     0
  0
ENDTAB
  0
TABLE
  2
DIMSTYLE
  5
A
330
0
100
AcDbSymbolTable
 70
     2
100
AcDbDimStyleTable
 71
     0
  0
DIMSTYLE
105
58
330
A
100
AcDbSymbolTableRecord
100
AcDbDimStyleTableRecord
  2
Standard
 70
     0
340
55
  0
DIMSTYLE
105
59
330
A
100
AcDbSymbolTableRecord
100
AcDbDimStyleTableRecord
  2
Annotative
 70
     0
340
55
1001
AcadAnnotative
1000
AnnotativeData
1002
{
1070
     1
1070
     1
1002
}
  0
ENDTAB
  0
TABLE
  2
BLOCK_RECORD
  5
1
330
0
100
AcDbSymbolTable
 70
    15
  0
BLOCK_RECORD
  5
70
330
1
100
AcDbSymbolTableRecord
100
AcDbBlockTableRecord
  2
*Model_Space
340
73
 70
     0
280
     1
281
     0
  0
BLOCK_RECORD
  5
6C
330
1
100
AcDbSymbolTableRecord
100
AcDbBlockTableRecord
  2
*Paper_Space
340
6F
 70
     0
280
     1
281
     0
  0
BLOCK_RECORD
  5
74
330
1
100
AcDbSymbolTableRecord
100
AcDbBlockTableRecord
  2
*Paper_Space0
340
77
 70
     0
280
     1
281
     0
  0
BLOCK_RECORD
  5
79
330
1
100
AcDbSymbolTableRecord
100
AcDbBlockTableRecord
  2
Block_0
340
0
102
{BLKREFS
331
7A
102
}
 70
     0
280
     1
281
     0
  0
BLOCK_RECORD
  5
7D
330
1
100
AcDbSymbolTableRecord
100
AcDbBlockTableRecord
  2
Block_1
340
0
102
{BLKREFS
331
7E
102
}
 70
     0
280
     1
281
     0
  0
BLOCK_RECORD
  5
94
330
1
100
AcDbSymbolTableRecord
100
AcDbBlockTableRecord
  2
Block_2
340
0
102
{BLKREFS
331
95
102
}
 70
     0
280
     1
281
     0
  0
BLOCK_RECORD
  5
9D
330
1
100
AcDbSymbolTableRecord
100
AcDbBlockTableRecord
  2
Block_3
340
0
102
{BLKREFS
331
9E
102
}
 70
     0
280
     1
281
     0
  0
BLOCK_RECORD
  5
A1
330
1
100
AcDbSymbolTableRecord
100
AcDbBlockTableRecord
  2
Block_4
340
0
102
{BLKREFS
331
A2
102
}
 70
     0
280
     1
281
     0
  0
BLOCK_RECORD
  5
AB
330
1
100
AcDbSymbolTableRecord
100
AcDbBlockTableRecord
  2
Block_5
340
0
102
{BLKREFS
331
AC
102
}
 70
     0
280
     1
281
     0
  0
BLOCK_RECORD
  5
AF
330
1
100
AcDbSymbolTableRecord
100
AcDbBlockTableRecord
  2
Block_6
340
0
102
{BLKREFS
331
B0
102
}
 70
     0
280
     1
281
     0
  0
BLOCK_RECORD
  5
BF
330
1
100
AcDbSymbolTableRecord
100
AcDbBlockTableRecord
  2
Block_7
340
0
102
{BLKREFS
331
C0
102
}
 70
     0
280
     1
281
     0
  0
BLOCK_RECORD
  5
C3
330
1
100
AcDbSymbolTableRecord
100
AcDbBlockTableRecord
  2
Block_8
340
0
102
{BLKREFS
331
C4
102
}
 70
     0
280
     1
281
     0
  0
BLOCK_RECORD
  5
D3
330
1
100
AcDbSymbolTableRecord
100
AcDbBlockTableRecord
  2
Block_9
340
0
102
{BLKREFS
331
D4
102
}
 70
     0
280
     1
281
     0
  0
BLOCK_RECORD
  5
D7
330
1
100
AcDbSymbolTableRecord
100
AcDbBlockTableRecord
  2
Block_10
340
0
102
{BLKREFS
331
D8
102
}
 70
     0
280
     1
281
     0
  0
BLOCK_RECORD
  5
E4
330
1
100
AcDbSymbolTableRecord
100
AcDbBlockTableRecord
  2
Block_11
340
0
102
{BLKREFS
331
E5
102
}
 70
     0
280
     1
281
     0
  0
BLOCK_RECORD
  5
EB
330
1
100
AcDbSymbolTableRecord
100
AcDbBlockTableRecord
  2
Block_12
340
0
102
{BLKREFS
331
EC
102
}
 70
     0
280
     1
281
     0
  0
BLOCK_RECORD
  5
EF
330
1
100
AcDbSymbolTableRecord
100
AcDbBlockTableRecord
  2
Block_13
340
0
102
{BLKREFS
331
F0
102
}
 70
     0
280
     1
281
     0
  0
ENDTAB
  0
ENDSEC
  0
SECTION
  2
BLOCKS
  0
BLOCK
  5
71
330
70
100
AcDbEntity
  8
0
100
AcDbBlockBegin
  2
*Model_Space
 70
     0
 10
0.0
 20
0.0
 30
0.0
  3
*Model_Space
  1

  0
ENDBLK
  5
72
330
70
100
AcDbEntity
  8
0
100
AcDbBlockEnd
  0
BLOCK
  5
6D
330
6C
100
AcDbEntity
 67
     1
  8
0
100
AcDbBlockBegin
  2
*Paper_Space
 70
     0
 10
0.0
 20
0.0
 30
0.0
  3
*Paper_Space
  1

  0
ENDBLK
  5
6E
330
6C
100
AcDbEntity
 67
     1
  8
0
100
AcDbBlockEnd
  0
BLOCK
  5
75
330
74
100
AcDbEntity
 67
     1
  8
0
100
AcDbBlockBegin
  2
*Paper_Space0
 70
     0
 10
0.0
 20
0.0
 30
0.0
  3
*Paper_Space0
  1

  0
ENDBLK
  5
76
330
74
100
AcDbEntity
 67
     1
  8
0
100
AcDbBlockEnd
  0
BLOCK
  5
7B
330
79
100
AcDbEntity
  8
0
100
AcDbBlockBegin
  2
Block_0
 70
     0
 10
0.0
 20
0.0
 30
0.0
  3
Block_0
  1

  0
INSERT
  5
7E
330
79
100
AcDbEntity
  8
レイヤー 1
100
AcDbBlockReference
  2
Block_1
 10
0.0
 20
0.0
 30
0.0
  0
ENDBLK
  5
7C
330
79
100
AcDbEntity
  8
0
100
AcDbBlockEnd
  0
BLOCK
  5
7F
330
7D
100
AcDbEntity
  8
0
100
AcDbBlockBegin
  2
Block_1
 70
     0
 10
0.0
 20
0.0
 30
0.0
  3
Block_1
  1

  0
LINE
  5
81
330
7D
100
AcDbEntity
  8
レイヤー 1
 62
   250
420
  2299925
370
    25
100
AcDbLine
 10
92.72754714250927
 20
-141.7572075444661
 30
0.0
 11
97.72755464125941
 21
-141.7572075444661
 31
0.0
  0
LINE
  5
82
330
7D
100
AcDbEntity
  8
レイヤー 1
 62
   250
420
  2299925
370
    25
100
AcDbLine
 10
96.72755832215928
 20
-142.7569800060917
 30
0.0
 11
96.72755832215928
 21
-155.2570367933102
 31
0.0
  0
LINE
  5
83
330
7D
100
AcDbEntity
  8
レイヤー 1
 62
   250
420
  2299925
370
    25
100
AcDbLine
 10
92.72754714250927
 20
-142.756979741182
 30
0.0
 11
96.72755825262061
 21
-142.756979741182
 31
0.0
  0
LINE
  5
84
330
7D
100
AcDbEntity
  8
レイヤー 1
 62
   250
420
  2299925
370
    25
100
AcDbLine
 10
92.72754714250927
 20
-141.7572075444661
 30
0.0
 11
92.72754714250927
 21
-142.756979741182
 31
0.0
  0
LINE
  5
85
330
7D
100
AcDbEntity
  8
レイヤー 1
 62
   250
420
  2299925
370
    25
100
AcDbLine
 10
97.72755470591349
 20
-141.7572078093755
 30
0.0
 11
97.72755470591349
 21
-154.2573579324518
 31
0.0
  0
LINE
  5
86
330
7D
100
AcDbEntity
  8
レイヤー 1
 62
   250
420
  2299925
370
    25
100
AcDbLine
 10
113.7275303914526
 20
-154.2573579324518
 30
0.0
 11
113.7275303914526
 21
-154.6573373666919
 31
0.0
  0
LINE
  5
87
330
7D
100
AcDbEntity
  8
レイヤー 1
 62
   250
420
  2299925
370
    25
100
AcDbLine
 10
97.72755471079809
 20
-154.2573579324518
 30
0.0
 11
113.7275303914526
 21
-154.2573579324518
 31
0.0
  0
LINE
  5
88
330
7D
100
AcDbEntity
  8
レイヤー 1
 62
   250
420
  2299925
370
    25
100
AcDbLine
 10
113.7275303914526
 20
-154.6573373666919
 30
0.0
 11
96.72755832215928
 21
-155.2570367933102
 31
0.0
  0
SPLINE
  5
89
330
7D
100
AcDbEntity
  8
レイヤー 1
 62
   250
420
  2299925
370
     9
100
AcDbSpline
210
0.0
220
0.0
230
1.0
 70
    11
 71
     3
 72
    17
 73
    13
 74
     0
 42
0.0000000001
 43
0.0000000001
 40
0.0
 40
0.0
 40
0.0
 40
0.0
 40
1.0
 40
1.0
 40
1.0
 40
2.0
 40
2.0
 40
2.0
 40
3.0
 40
3.0
 40
3.0
 40
4.0
 40
4.0
 40
4.0
 40
4.0
 10
117.8279027613286
 20
-141.7572075444661
 30
0.0
 10
117.8279027613286
 20
-141.7019272680986
 30
0.0
 10
117.7830999835619
 20
-141.6571244914638
 30
0.0
 10
117.7272894560769
 20
-141.6571244914638
 30
0.0
 10
117.6721855685945
 20
-141.6571244914638
 30
0.0
 10
117.6273827919591
 20
-141.7019272680986
 30
0.0
 10
117.6273827919591
 20
-141.7572075444661
 30
0.0
 10
117.6273827919591
 20
-141.8124878208338
 30
0.0
 10
117.6721855685945
 20
-141.8572905974683
 30
0.0
 10
117.7272894560769
 20
-141.8572905974683
 30
0.0
 10
117.7830999835619
 20
-141.8572905974683
 30
0.0
 10
117.8279027613286
 20
-141.8124878208338
 30
0.0
 10
117.8279027613286
 20
-141.7572075444661
 30
0.0
  0
SPLINE
  5
8A
330
7D
100
AcDbEntity
  8
レイヤー 1
 62
   250
420
  2299925
370
     9
100
AcDbSpline
210
0.0
220
0.0
230
1.0
 70
     9
 71
     3
 72
    17
 73
    13
 74
     0
 42
0.0000000001
 43
0.0000000001
 40
0.0
 40
0.0
 40
0.0
 40
0.0
 40
1.0
 40
1.0
 40
1.0
 40
2.0
 40
2.0
 40
2.0
 40
3.0
 40
3.0
 40
3.0
 40
4.0
 40
4.0
 40
4.0
 40
4.0
 10
117.8279027613286
 20
-154.2573579324518
 30
0.0
 10
117.8279027613286
 20
-154.2019012671999
 30
0.0
 10
117.7830999835619
 20
-154.1570984905652
 30
0.0
 10
117.7272894560769
 20
-154.1570984905652
 30
0.0
 10
117.6721855685945
 20
-154.1570984905652
 30
0.0
 10
117.6273827919591
 20
-154.2019012671999
 30
0.0
 10
117.6273827919591
 20
-154.2573579324518
 30
0.0
 10
117.6273827919591
 20
-154.3124618199349
 30
0.0
 10
117.6721855685945
 20
-154.3572645965696
 30
0.0
 10
117.7272894560769
 20
-154.3572645965696
 30
0.0
 10
117.7830999835619
 20
-154.3572645965696
 30
0.0
 10
117.8279027613286
 20
-154.3124618199349
 30
0.0
 10
117.8279027613286
 20
-154.2573579324518
 30
0.0
  0
SPLINE
  5
8B
330
7D
100
AcDbEntity
  8
レイヤー 1
 62
   250
420
  2299925
370
     9
100
AcDbSpline
210
0.0
220
0.0
230
1.0
 70
     9
 71
     3
 72
    17
 73
    13
 74
     0
 42
0.0000000001
 43
0.0000000001
 40
0.0
 40
0.0
 40
0.0
 40
0.0
 40
1.0
 40
1.0
 40
1.0
 40
2.0
 40
2.0
 40
2.0
 40
3.0
 40
3.0
 40
3.0
 40
4.0
 40
4.0
 40
4.0
 40
4.0
 10
117.8279027613286
 20
-154.6573373666919
 30
0.0
 10
117.8279027613286
 20
-154.60188070144
 30
0.0
 10
117.7830999835619
 20
-154.5570779248053
 30
0.0
 10
117.7272894560769
 20
-154.5570779248053
 30
0.0
 10
117.6721855685945
 20
-154.5570779248053
 30
0.0
 10
117.6273827919591
 20
-154.60188070144
 30
0.0
 10
117.6273827919591
 20
-154.6573373666919
 30
0.0
 10
117.6273827919591
 20
-154.712441254175
 30
0.0
 10
117.6721855685945
 20
-154.7572440308097
 30
0.0
 10
117.7272894560769
 20
-154.7572440308097
 30
0.0
 10
117.7830999835619
 20
-154.7572440308097
 30
0.0
 10
117.8279027613286
 20
-154.712441254175
 30
0.0
 10
117.8279027613286
 20
-154.6573373666919
 30
0.0
  0
CIRCLE
  5
8C
330
7D
100
AcDbEntity
  8
レイヤー 1
 62
   250
420
  2299925
370
     9
100
AcDbCircle
 10
113.7275303914526
 20
-159.3569722467942
 30
0.0
 40
0.0999066641178353
  0
SPLINE
  5
8D
330
7D
100
AcDbEntity
  8
レイヤー 1
 62
   250
420
  2299925
370
     9
100
AcDbSpline
210
0.0
220
0.0
230
1.0
 70
     9
 71
     3
 72
    17
 73
    13
 74
     0
 42
0.0000000001
 43
0.0000000001
 40
0.0
 40
0.0
 40
0.0
 40
0.0
 40
1.0
 40
1.0
 40
1.0
 40
2.0
 40
2.0
 40
2.0
 40
3.0
 40
3.0
 40
3.0
 40
4.0
 40
4.0
 40
4.0
 40
4.0
 10
92.82763019803979
 20
-159.3569722467942
 30
0.0
 10
92.82763019803979
 20
-159.3018270908643
 30
0.0
 10
92.78282742027307
 20
-159.2570655826764
 30
0.0
 10
92.72754714250927
 20
-159.2570655826764
 30
0.0
 10
92.67226686474549
 20
-159.2570655826764
 30
0.0
 10
92.62764047586763
 20
-159.3018270908643
 30
0.0
 10
92.62764047586763
 20
-159.3569722467942
 30
0.0
 10
92.62764047586763
 20
-159.4120761342773
 30
0.0
 10
92.67226686474549
 20
-159.4568789109121
 30
0.0
 10
92.72754714250927
 20
-159.4568789109121
 30
0.0
 10
92.78282742027307
 20
-159.4568789109121
 30
0.0
 10
92.82763019803979
 20
-159.4120761342773
 30
0.0
 10
92.82763019803979
 20
-159.3569722467942
 30
0.0
  0
SPLINE
  5
8E
330
7D
100
AcDbEntity
  8
レイヤー 1
 62
   250
420
  2299925
370
     9
100
AcDbSpline
210
0.0
220
0.0
230
1.0
 70
    11
 71
     3
 72
    17
 73
    13
 74
     0
 42
0.0000000001
 43
0.0000000001
 40
0.0
 40
0.0
 40
0.0
 40
0.0
 40
1.0
 40
1.0
 40
1.0
 40
2.0
 40
2.0
 40
2.0
 40
3.0
 40
3.0
 40
3.0
 40
4.0
 40
4.0
 40
4.0
 40
4.0
 10
90.77777964299677
 20
-141.7572075444661
 30
0.0
 10
90.77777964299677
 20
-141.7019272680986
 30
0.0
 10
90.73301214300789
 20
-141.6571244914638
 30
0.0
 10
90.67787297635515
 20
-141.6571244914638
 30
0.0
 10
90.62259269859071
 20
-141.6571244914638
 30
0.0
 10
90.57782519860181
 20
-141.7019272680986
 30
0.0
 10
90.57782519860181
 20
-141.7572075444661
 30
0.0
 10
90.57782519860181
 20
-141.8124878208338
 30
0.0
 10
90.62259269859071
 20
-141.8572905974683
 30
0.0
 10
90.67787297635515
 20
-141.8572905974683
 30
0.0
 10
90.73301214300789
 20
-141.8572905974683
 30
0.0
 10
90.77777964299677
 20
-141.8124878208338
 30
0.0
 10
90.77777964299677
 20
-141.7572075444661
 30
0.0
  0
SPLINE
  5
8F
330
7D
100
AcDbEntity
  8
レイヤー 1
 62
   250
420
  2299925
370
     9
100
AcDbSpline
210
0.0
220
0.0
230
1.0
 70
     9
 71
     3
 72
    17
 73
    13
 74
     0
 42
0.0000000001
 43
0.0000000001
 40
0.0
 40
0.0
 40
0.0
 40
0.0
 40
1.0
 40
1.0
 40
1.0
 40
2.0
 40
2.0
 40
2.0
 40
3.0
 40
3.0
 40
3.0
 40
4.0
 40
4.0
 40
4.0
 40
4.0
 10
90.77777964299677
 20
-142.756979741182
 30
0.0
 10
90.77777964299677
 20
-142.701840575922
 30
0.0
 10
90.73301214300789
 20
-142.6570730770641
 30
0.0
 10
90.67787297635515
 20
-142.6570730770641
 30
0.0
 10
90.62259269859071
 20
-142.6570730770641
 30
0.0
 10
90.57782519860181
 20
-142.701840575922
 30
0.0
 10
90.57782519860181
 20
-142.756979741182
 30
0.0
 10
90.57782519860181
 20
-142.8124364064338
 30
0.0
 10
90.62259269859071
 20
-142.8572391830686
 30
0.0
 10
90.67787297635515
 20
-142.8572391830686
 30
0.0
 10
90.73301214300789
 20
-142.8572391830686
 30
0.0
 10
90.77777964299677
 20
-142.8124364064338
 30
0.0
 10
90.77777964299677
 20
-142.756979741182
 30
0.0
  0
SPLINE
  5
90
330
7D
100
AcDbEntity
  8
レイヤー 1
 62
   250
420
  2299925
370
     9
100
AcDbSpline
210
0.0
220
0.0
230
1.0
 70
     9
 71
     3
 72
    17
 73
    13
 74
     0
 42
0.0000000001
 43
0.0000000001
 40
0.0
 40
0.0
 40
0.0
 40
0.0
 40
1.0
 40
1.0
 40
1.0
 40
2.0
 40
2.0
 40
2.0
 40
3.0
 40
3.0
 40
3.0
 40
4.0
 40
4.0
 40
4.0
 40
4.0
 10
96.82760609991197
 20
-159.3569722467942
 30
0.0
 10
96.82760609991197
 20
-159.3018270908643
 30
0.0
 10
96.78283859992308
 20
-159.2570655826764
 30
0.0
 10
96.72755832215928
 20
-159.2570655826764
 30
0.0
 10
96.6724191555059
 20
-159.2570655826764
 30
0.0
 10
96.62765165551766
 20
-159.3018270908643
 30
0.0
 10
96.62765165551766
 20
-159.3569722467942
 30
0.0
 10
96.62765165551766
 20
-159.4120761342773
 30
0.0
 10
96.6724191555059
 20
-159.4568789109121
 30
0.0
 10
96.72755832215928
 20
-159.4568789109121
 30
0.0
 10
96.78283859992308
 20
-159.4568789109121
 30
0.0
 10
96.82760609991197
 20
-159.4120761342773
 30
0.0
 10
96.82760609991197
 20
-159.3569722467942
 30
0.0
  0
LINE
  5
91
330
7D
100
AcDbEntity
  8
レイヤー 1
 62
   250
420
  2299925
370
     9
100
AcDbLine
 10
92.72772353139815
 20
-159.3569722467942
 30
0.0
 11
96.72755825262061
 21
-159.3569722467942
 31
0.0
  0
LINE
  5
92
330
7D
100
AcDbEntity
  8
レイヤー 1
 62
   250
420
  2299925
370
     9
100
AcDbLine
 10
92.72754714250927
 20
-145.3971335498465
 30
0.0
 11
92.72754714250927
 21
-160.3574147212708
 31
0.0
  0
LINE
  5
93
330
7D
100
AcDbEntity
  8
レイヤー 1
 62
   250
420
  2299925
370
     9
100
AcDbLine
 10
96.72755832215928
 20
-157.8969308951541
 30
0.0
 11
96.72755832215928
 21
-160.3574147212708
 31
0.0
  0
INSERT
  5
95
330
7D
100
AcDbEntity
  8
レイヤー 1
100
AcDbBlockReference
  2
Block_2
 10
0.0
 20
0.0
 30
0.0
  0
LINE
  5
9B
330
7D
100
AcDbEntity
  8
レイヤー 1
 62
   250
420
  2299925
370
     9
100
AcDbLine
 10
96.72755832215928
 20
-159.3569722467942
 30
0.0
 11
113.7275303914526
 21
-159.3569722467942
 31
0.0
  0
LINE
  5
9C
330
7D
100
AcDbEntity
  8
レイヤー 1
 62
   250
420
  2299925
370
     9
100
AcDbLine
 10
113.7275303914526
 20
-157.1968786907917
 30
0.0
 11
113.7275303914526
 21
-160.3574147212708
 31
0.0
  0
INSERT
  5
9E
330
7D
100
AcDbEntity
  8
レイヤー 1
100
AcDbBlockReference
  2
Block_3
 10
0.0
 20
0.0
 30
0.0
  0
LINE
  5
A9
330
7D
100
AcDbEntity
  8
レイヤー 1
 62
   250
420
  2299925
370
     9
100
AcDbLine
 10
117.7272894560769
 20
-154.2573579324518
 30
0.0
 11
117.7272894560769
 21
-141.7572078093755
 31
0.0
  0
LINE
  5
AA
330
7D
100
AcDbEntity
  8
レイヤー 1
 62
   250
420
  2299925
370
     9
100
AcDbLine
 10
100.3676252656936
 20
-141.7572075444661
 30
0.0
 11
118.7277319305535
 21
-141.7572075444661
 31
0.0
  0
INSERT
  5
AC
330
7D
100
AcDbEntity
  8
レイヤー 1
100
AcDbBlockReference
  2
Block_5
 10
0.0
 20
0.0
 30
0.0
  0
LINE
  5
BB
330
7D
100
AcDbEntity
  8
レイヤー 1
 62
   250
420
  2299925
370
     9
100
AcDbLine
 10
117.7272894560769
 20
-154.6573373666919
 30
0.0
 11
117.7272894560769
 21
-155.6571095634078
 31
0.0
  0
LINE
  5
BC
330
7D
100
AcDbEntity
  8
レイヤー 1
 62
   250
420
  2299925
370
     9
100
AcDbLine
 10
117.7272894560769
 20
-154.2573579324518
 30
0.0
 11
117.7272894560769
 21
-154.6573373666919
 31
0.0
  0
LINE
  5
BD
330
7D
100
AcDbEntity
  8
レイヤー 1
 62
   250
420
  2299925
370
     9
100
AcDbLine
 10
116.2672481044368
 20
-154.2573579324518
 30
0.0
 11
118.7277319305535
 21
-154.2573579324518
 31
0.0
  0
LINE
  5
BE
330
7D
100
AcDbEntity
  8
レイヤー 1
 62
   250
420
  2299925
370
     9
100
AcDbLine
 10
116.2672481044368
 20
-154.6573373666919
 30
0.0
 11
118.7277319305535
 21
-154.6573373666919
 31
0.0
  0
INSERT
  5
C0
330
7D
100
AcDbEntity
  8
レイヤー 1
100
AcDbBlockReference
  2
Block_7
 10
0.0
 20
0.0
 30
0.0
  0
LINE
  5
CF
330
7D
100
AcDbEntity
  8
レイヤー 1
 62
   250
420
  2299925
370
     9
100
AcDbLine
 10
90.67787297635515
 20
-141.7572075444661
 30
0.0
 11
90.67787297635515
 21
-140.7572589588657
 31
0.0
  0
LINE
  5
D0
330
7D
100
AcDbEntity
  8
レイヤー 1
 62
   250
420
  2299925
370
     9
100
AcDbLine
 10
90.67787297635515
 20
-141.7572075444661
 30
0.0
 11
90.67787297635515
 21
-143.7570694378898
 31
0.0
  0
LINE
  5
D1
330
7D
100
AcDbEntity
  8
レイヤー 1
 62
   250
420
  2299925
370
     9
100
AcDbLine
 10
92.1377379759903
 20
-141.7572075444661
 30
0.0
 11
89.67778325438267
 21
-141.7572075444661
 31
0.0
  0
LINE
  5
D2
330
7D
100
AcDbEntity
  8
レイヤー 1
 62
   250
420
  2299925
370
     9
100
AcDbLine
 10
92.1377379759903
 20
-142.756979741182
 30
0.0
 11
89.67778325438267
 21
-142.756979741182
 31
0.0
  0
INSERT
  5
D4
330
7D
100
AcDbEntity
  8
レイヤー 1
100
AcDbBlockReference
  2
Block_9
 10
0.0
 20
0.0
 30
0.0
  0
ENDBLK
  5
80
330
7D
100
AcDbEntity
  8
0
100
AcDbBlockEnd
  0
BLOCK
  5
96
330
94
100
AcDbEntity
  8
0
100
AcDbBlockBegin
  2
Block_2
 70
     0
 10
0.0
 20
0.0
 30
0.0
  3
Block_2
  1

  0
SPLINE
  5
98
330
94
100
AcDbEntity
  8
レイヤー 1
100
AcDbSpline
210
0.0
220
0.0
230
1.0
 70
    11
 71
     3
 72
    14
 73
    10
 74
     0
 42
0.0000000001
 43
0.0000000001
 40
0.0
 40
0.0
 40
0.0
 40
0.0
 40
1.0
 40
1.0
 40
1.0
 40
2.0
 40
2.0
 40
2.0
 40
3.0
 40
3.0
 40
3.0
 40
3.0
 10
94.81298961388356
 20
-157.5097655856225
 30
0.0
 10
94.81298961388356
 20
-157.5097655856225
 30
0.0
 10
94.42334931450181
 20
-158.1657117660141
 30
0.0
 10
94.42334931450181
 20
-158.1657117660141
 30
0.0
 10
94.42334931450181
 20
-158.1657117660141
 30
0.0
 10
94.81298961388356
 20
-158.1657117660141
 30
0.0
 10
94.81298961388356
 20
-158.1657117660141
 30
0.0
 10
94.81298961388356
 20
-158.1657117660141
 30
0.0
 10
94.81298961388356
 20
-157.5097655856225
 30
0.0
 10
94.81298961388356
 20
-157.5097655856225
 30
0.0
  0
SPLINE
  5
99
330
94
100
AcDbEntity
  8
レイヤー 1
100
AcDbSpline
210
0.0
220
0.0
230
1.0
 70
    11
 71
     3
 72
    38
 73
    34
 74
     0
 42
0.0000000001
 43
0.0000000001
 40
0.0
 40
0.0
 40
0.0
 40
0.0
 40
1.0
 40
1.0
 40
1.0
 40
2.0
 40
2.0
 40
2.0
 40
3.0
 40
3.0
 40
3.0
 40
4.0
 40
4.0
 40
4.0
 40
5.0
 40
5.0
 40
5.0
 40
6.0
 40
6.0
 40
6.0
 40
7.0
 40
7.0
 40
7.0
 40
8.0
 40
8.0
 40
8.0
 40
9.0
 40
9.0
 40
9.0
 40
10.0
 40
10.0
 40
10.0
 40
11.0
 40
11.0
 40
11.0
 40
11.0
 10
94.99868026053853
 20
-158.364493775513
 30
0.0
 10
94.99868026053853
 20
-158.364493775513
 30
0.0
 10
94.99868026053853
 20
-158.7114148908777
 30
0.0
 10
94.99868026053853
 20
-158.7114148908777
 30
0.0
 10
94.99868026053853
 20
-158.7114148908777
 30
0.0
 10
94.81298961388356
 20
-158.7114148908777
 30
0.0
 10
94.81298961388356
 20
-158.7114148908777
 30
0.0
 10
94.81298961388356
 20
-158.7114148908777
 30
0.0
 10
94.81298961388356
 20
-158.364493775513
 30
0.0
 10
94.81298961388356
 20
-158.364493775513
 30
0.0
 10
94.81298961388356
 20
-158.364493775513
 30
0.0
 10
94.25385061662751
 20
-158.364493775513
 30
0.0
 10
94.25385061662751
 20
-158.364493775513
 30
0.0
 10
94.25385061662751
 20
-158.364493775513
 30
0.0
 10
94.25385061662751
 20
-158.1402180594233
 30
0.0
 10
94.25385061662751
 20
-158.1402180594233
 30
0.0
 10
94.25385061662751
 20
-158.1402180594233
 30
0.0
 10
94.83279891292374
 20
-157.1669785848402
 30
0.0
 10
94.83279891292374
 20
-157.1669785848402
 30
0.0
 10
94.83279891292374
 20
-157.1669785848402
 30
0.0
 10
94.99868026053853
 20
-157.1669785848402
 30
0.0
 10
94.99868026053853
 20
-157.1669785848402
 30
0.0
 10
94.99868026053853
 20
-157.1669785848402
 30
0.0
 10
94.99868026053853
 20
-158.1657117660141
 30
0.0
 10
94.99868026053853
 20
-158.1657117660141
 30
0.0
 10
94.99868026053853
 20
-158.1657117660141
 30
0.0
 10
95.17541365893185
 20
-158.1657117660141
 30
0.0
 10
95.17541365893185
 20
-158.1657117660141
 30
0.0
 10
95.17541365893185
 20
-158.1657117660141
 30
0.0
 10
95.17541365893185
 20
-158.364493775513
 30
0.0
 10
95.17541365893185
 20
-158.364493775513
 30
0.0
 10
95.17541365893185
 20
-158.364493775513
 30
0.0
 10
94.99868026053853
 20
-158.364493775513
 30
0.0
 10
94.99868026053853
 20
-158.364493775513
 30
0.0
  0
HATCH
  5
9A
330
94
100
AcDbEntity
  8
レイヤー 1
 62
   250
420
  2299925
440
 33554687
100
AcDbHatch
 10
0.0
 20
0.0
 30
0.0
210
0.0
220
0.0
230
1.0
  2
SOLID
 70
     1
 71
     1
 91
        2
 92
        1
 93
        1
 72
     4
 94
        3
 73
     0
 74
     0
 95
       14
 96
       10
 40
0.0
 40
0.0
 40
0.0
 40
0.0
 40
1.0
 40
1.0
 40
1.0
 40
2.0
 40
2.0
 40
2.0
 40
3.0
 40
3.0
 40
3.0
 40
3.0
 10
94.81298961388356
 20
-157.5097655856225
 10
94.81298961388356
 20
-157.5097655856225
 10
94.42334931450181
 20
-158.1657117660141
 10
94.42334931450181
 20
-158.1657117660141
 10
94.42334931450181
 20
-158.1657117660141
 10
94.81298961388356
 20
-158.1657117660141
 10
94.81298961388356
 20
-158.1657117660141
 10
94.81298961388356
 20
-158.1657117660141
 10
94.81298961388356
 20
-157.5097655856225
 10
94.81298961388356
 20
-157.5097655856225
 97
        0
 97
        1
330
98
 92
        1
 93
        1
 72
     4
 94
        3
 73
     0
 74
     0
 95
       38
 96
       34
 40
0.0
 40
0.0
 40
0.0
 40
0.0
 40
1.0
 40
1.0
 40
1.0
 40
2.0
 40
2.0
 40
2.0
 40
3.0
 40
3.0
 40
3.0
 40
4.0
 40
4.0
 40
4.0
 40
5.0
 40
5.0
 40
5.0
 40
6.0
 40
6.0
 40
6.0
 40
7.0
 40
7.0
 40
7.0
 40
8.0
 40
8.0
 40
8.0
 40
9.0
 40
9.0
 40
9.0
 40
10.0
 40
10.0
 40
10.0
 40
11.0
 40
11.0
 40
11.0
 40
11.0
 10
94.99868026053853
 20
-158.364493775513
 10
94.99868026053853
 20
-158.364493775513
 10
94.99868026053853
 20
-158.7114148908777
 10
94.99868026053853
 20
-158.7114148908777
 10
94.99868026053853
 20
-158.7114148908777
 10
94.81298961388356
 20
-158.7114148908777
 10
94.81298961388356
 20
-158.7114148908777
 10
94.81298961388356
 20
-158.7114148908777
 10
94.81298961388356
 20
-158.364493775513
 10
94.81298961388356
 20
-158.364493775513
 10
94.81298961388356
 20
-158.364493775513
 10
94.25385061662751
 20
-158.364493775513
 10
94.25385061662751
 20
-158.364493775513
 10
94.25385061662751
 20
-158.364493775513
 10
94.25385061662751
 20
-158.1402180594233
 10
94.25385061662751
 20
-158.1402180594233
 10
94.25385061662751
 20
-158.1402180594233
 10
94.83279891292374
 20
-157.1669785848402
 10
94.83279891292374
 20
-157.1669785848402
 10
94.83279891292374
 20
-157.1669785848402
 10
94.99868026053853
 20
-157.1669785848402
 10
94.99868026053853
 20
-157.1669785848402
 10
94.99868026053853
 20
-157.1669785848402
 10
94.99868026053853
 20
-158.1657117660141
 10
94.99868026053853
 20
-158.1657117660141
 10
94.99868026053853
 20
-158.1657117660141
 10
95.17541365893185
 20
-158.1657117660141
 10
95.17541365893185
 20
-158.1657117660141
 10
95.17541365893185
 20
-158.1657117660141
 10
95.17541365893185
 20
-158.364493775513
 10
95.17541365893185
 20
-158.364493775513
 10
95.17541365893185
 20
-158.364493775513
 10
94.99868026053853
 20
-158.364493775513
 10
94.99868026053853
 20
-158.364493775513
 97
        0
 97
        1
330
99
 75
     2
 76
     1
 98
        1
 10
0.0
 20
0.0
450
        0
451
        0
460
0.0
461
0.0
452
        0
462
0.0
453
        0
470

  0
ENDBLK
  5
97
330
94
100
AcDbEntity
  8
0
100
AcDbBlockEnd
  0
BLOCK
  5
9F
330
9D
100
AcDbEntity
  8
0
100
AcDbBlockBegin
  2
Block_3
 70
     0
 10
0.0
 20
0.0
 30
0.0
  3
Block_3
  1

  0
INSERT
  5
A2
330
9D
100
AcDbEntity
  8
レイヤー 1
100
AcDbBlockReference
  2
Block_4
 10
0.0
 20
0.0
 30
0.0
  0
ENDBLK
  5
A0
330
9D
100
AcDbEntity
  8
0
100
AcDbBlockEnd
  0
BLOCK
  5
A3
330
A1
100
AcDbEntity
  8
0
100
AcDbBlockBegin
  2
Block_4
 70
     0
 10
0.0
 20
0.0
 30
0.0
  3
Block_4
  1

  0
SPLINE
  5
A5
330
A1
100
AcDbEntity
  8
レイヤー 1
100
AcDbSpline
210
0.0
220
0.0
230
1.0
 70
    11
 71
     3
 72
    26
 73
    22
 74
     0
 42
0.0000000001
 43
0.0000000001
 40
0.0
 40
0.0
 40
0.0
 40
0.0
 40
1.0
 40
1.0
 40
1.0
 40
2.0
 40
2.0
 40
2.0
 40
3.0
 40
3.0
 40
3.0
 40
4.0
 40
4.0
 40
4.0
 40
5.0
 40
5.0
 40
5.0
 40
6.0
 40
6.0
 40
6.0
 40
7.0
 40
7.0
 40
7.0
 40
7.0
 10
104.6857720007382
 20
-158.7114148908777
 30
0.0
 10
104.6857720007382
 20
-158.7114148908777
 30
0.0
 10
104.6857720007382
 20
-157.6072617878551
 30
0.0
 10
104.6857720007382
 20
-157.6072617878551
 30
0.0
 10
104.6857720007382
 20
-157.6072617878551
 30
0.0
 10
104.4043076995933
 20
-157.6072617878551
 30
0.0
 10
104.4043076995933
 20
-157.6072617878551
 30
0.0
 10
104.4043076995933
 20
-157.6072617878551
 30
0.0
 10
104.4043076995933
 20
-157.4591226819894
 30
0.0
 10
104.4043076995933
 20
-157.4591226819894
 30
0.0
 10
104.6874945484809
 20
-157.4443087714028
 30
0.0
 10
104.7271131465613
 20
-157.2813557549505
 30
0.0
 10
104.7522623436036
 20
-157.1669785848402
 30
0.0
 10
104.7522623436036
 20
-157.1669785848402
 30
0.0
 10
104.8769748001696
 20
-157.1669785848402
 30
0.0
 10
104.8769748001696
 20
-157.1669785848402
 30
0.0
 10
104.8769748001696
 20
-157.1669785848402
 30
0.0
 10
104.8769748001696
 20
-158.7114148908777
 30
0.0
 10
104.8769748001696
 20
-158.7114148908777
 30
0.0
 10
104.8769748001696
 20
-158.7114148908777
 30
0.0
 10
104.6857720007382
 20
-158.7114148908777
 30
0.0
 10
104.6857720007382
 20
-158.7114148908777
 30
0.0
  0
HATCH
  5
A6
330
A1
100
AcDbEntity
  8
レイヤー 1
 62
   250
420
  2299925
440
 33554687
100
AcDbHatch
 10
0.0
 20
0.0
 30
0.0
210
0.0
220
0.0
230
1.0
  2
SOLID
 70
     1
 71
     1
 91
        1
 92
        1
 93
        1
 72
     4
 94
        3
 73
     0
 74
     0
 95
       26
 96
       22
 40
0.0
 40
0.0
 40
0.0
 40
0.0
 40
1.0
 40
1.0
 40
1.0
 40
2.0
 40
2.0
 40
2.0
 40
3.0
 40
3.0
 40
3.0
 40
4.0
 40
4.0
 40
4.0
 40
5.0
 40
5.0
 40
5.0
 40
6.0
 40
6.0
 40
6.0
 40
7.0
 40
7.0
 40
7.0
 40
7.0
 10
104.6857720007382
 20
-158.7114148908777
 10
104.6857720007382
 20
-158.7114148908777
 10
104.6857720007382
 20
-157.6072617878551
 10
104.6857720007382
 20
-157.6072617878551
 10
104.6857720007382
 20
-157.6072617878551
 10
104.4043076995933
 20
-157.6072617878551
 10
104.4043076995933
 20
-157.6072617878551
 10
104.4043076995933
 20
-157.6072617878551
 10
104.4043076995933
 20
-157.4591226819894
 10
104.4043076995933
 20
-157.4591226819894
 10
104.6874945484809
 20
-157.4443087714028
 10
104.7271131465613
 20
-157.2813557549505
 10
104.7522623436036
 20
-157.1669785848402
 10
104.7522623436036
 20
-157.1669785848402
 10
104.8769748001696
 20
-157.1669785848402
 10
104.8769748001696
 20
-157.1669785848402
 10
104.8769748001696
 20
-157.1669785848402
 10
104.8769748001696
 20
-158.7114148908777
 10
104.8769748001696
 20
-158.7114148908777
 10
104.8769748001696
 20
-158.7114148908777
 10
104.6857720007382
 20
-158.7114148908777
 10
104.6857720007382
 20
-158.7114148908777
 97
        0
 97
        1
330
A5
 75
     2
 76
     1
 98
        1
 10
0.0
 20
0.0
450
        0
451
        0
460
0.0
461
0.0
452
        0
462
0.0
453
        0
470

  0
SPLINE
  5
A7
330
A1
100
AcDbEntity
  8
レイヤー 1
100
AcDbSpline
210
0.0
220
0.0
230
1.0
 70
     9
 71
     3
 72
    26
 73
    22
 74
     0
 42
0.0000000001
 43
0.0000000001
 40
0.0
 40
0.0
 40
0.0
 40
0.0
 40
1.0
 40
1.0
 40
1.0
 40
2.0
 40
2.0
 40
2.0
 40
3.0
 40
3.0
 40
3.0
 40
4.0
 40
4.0
 40
4.0
 40
5.0
 40
5.0
 40
5.0
 40
6.0
 40
6.0
 40
6.0
 40
7.0
 40
7.0
 40
7.0
 40
7.0
 10
105.6531548129964
 20
-158.7114148908777
 30
0.0
 10
105.6531548129964
 20
-158.7114148908777
 30
0.0
 10
105.4512722175608
 20
-158.7114148908777
 30
0.0
 10
105.4512722175608
 20
-158.7114148908777
 30
0.0
 10
105.4729763191178
 20
-158.4023898258508
 30
0.0
 10
105.6369628642157
 20
-157.8842474648692
 30
0.0
 10
105.9831949604834
 20
-157.3785074476345
 30
0.0
 10
105.9831949604834
 20
-157.3785074476345
 30
0.0
 10
105.2690266663911
 20
-157.3785074476345
 30
0.0
 10
105.2690266663911
 20
-157.3785074476345
 30
0.0
 10
105.2690266663911
 20
-157.3785074476345
 30
0.0
 10
105.2690266663911
 20
-157.1669785848402
 30
0.0
 10
105.2690266663911
 20
-157.1669785848402
 30
0.0
 10
105.2690266663911
 20
-157.1669785848402
 30
0.0
 10
106.185077555919
 20
-157.1669785848402
 30
0.0
 10
106.185077555919
 20
-157.1669785848402
 30
0.0
 10
106.185077555919
 20
-157.1669785848402
 30
0.0
 10
106.185077555919
 20
-157.3785074476345
 30
0.0
 10
106.185077555919
 20
-157.3785074476345
 30
0.0
 10
105.909469917099
 20
-157.6685844874926
 30
0.0
 10
105.6820936150725
 20
-158.260796401407
 30
0.0
 10
105.6531548129964
 20
-158.7114148908777
 30
0.0
  0
HATCH
  5
A8
330
A1
100
AcDbEntity
  8
レイヤー 1
 62
   250
420
  2299925
440
 33554687
100
AcDbHatch
 10
0.0
 20
0.0
 30
0.0
210
0.0
220
0.0
230
1.0
  2
SOLID
 70
     1
 71
     1
 91
        1
 92
        1
 93
        1
 72
     4
 94
        3
 73
     0
 74
     0
 95
       26
 96
       22
 40
0.0
 40
0.0
 40
0.0
 40
0.0
 40
1.0
 40
1.0
 40
1.0
 40
2.0
 40
2.0
 40
2.0
 40
3.0
 40
3.0
 40
3.0
 40
4.0
 40
4.0
 40
4.0
 40
5.0
 40
5.0
 40
5.0
 40
6.0
 40
6.0
 40
6.0
 40
7.0
 40
7.0
 40
7.0
 40
7.0
 10
105.6531548129964
 20
-158.7114148908777
 10
105.6531548129964
 20
-158.7114148908777
 10
105.4512722175608
 20
-158.7114148908777
 10
105.4512722175608
 20
-158.7114148908777
 10
105.4729763191178
 20
-158.4023898258508
 10
105.6369628642157
 20
-157.8842474648692
 10
105.9831949604834
 20
-157.3785074476345
 10
105.9831949604834
 20
-157.3785074476345
 10
105.2690266663911
 20
-157.3785074476345
 10
105.2690266663911
 20
-157.3785074476345
 10
105.2690266663911
 20
-157.3785074476345
 10
105.2690266663911
 20
-157.1669785848402
 10
105.2690266663911
 20
-157.1669785848402
 10
105.2690266663911
 20
-157.1669785848402
 10
106.185077555919
 20
-157.1669785848402
 10
106.185077555919
 20
-157.1669785848402
 10
106.185077555919
 20
-157.1669785848402
 10
106.185077555919
 20
-157.3785074476345
 10
106.185077555919
 20
-157.3785074476345
 10
105.909469917099
 20
-157.6685844874926
 10
105.6820936150725
 20
-158.260796401407
 10
105.6531548129964
 20
-158.7114148908777
 97
        0
 97
        1
330
A7
 75
     2
 76
     1
 98
        1
 10
0.0
 20
0.0
450
        0
451
        0
460
0.0
461
0.0
452
        0
462
0.0
453
        0
470

  0
ENDBLK
  5
A4
330
A1
100
AcDbEntity
  8
0
100
AcDbBlockEnd
  0
BLOCK
  5
AD
330
AB
100
AcDbEntity
  8
0
100
AcDbBlockBegin
  2
Block_5
 70
     0
 10
0.0
 20
0.0
 30
0.0
  3
Block_5
  1

  0
INSERT
  5
B0
330
AB
100
AcDbEntity
  8
レイヤー 1
100
AcDbBlockReference
  2
Block_6
 10
0.0
 20
0.0
 30
0.0
  0
ENDBLK
  5
AE
330
AB
100
AcDbEntity
  8
0
100
AcDbBlockEnd
  0
BLOCK
  5
B1
330
AF
100
AcDbEntity
  8
0
100
AcDbBlockBegin
  2
Block_6
 70
     0
 10
0.0
 20
0.0
 30
0.0
  3
Block_6
  1

  0
SPLINE
  5
B3
330
AF
100
AcDbEntity
  8
レイヤー 1
100
AcDbSpline
210
0.0
220
0.0
230
1.0
 70
    11
 71
     3
 72
    26
 73
    22
 74
     0
 42
0.0000000001
 43
0.0000000001
 40
0.0
 40
0.0
 40
0.0
 40
0.0
 40
1.0
 40
1.0
 40
1.0
 40
2.0
 40
2.0
 40
2.0
 40
3.0
 40
3.0
 40
3.0
 40
4.0
 40
4.0
 40
4.0
 40
5.0
 40
5.0
 40
5.0
 40
6.0
 40
6.0
 40
6.0
 40
7.0
 40
7.0
 40
7.0
 40
7.0
 10
117.0815700662157
 20
-149.283566585943
 30
0.0
 10
117.0815700662157
 20
-149.283566585943
 30
0.0
 10
115.9774169631931
 20
-149.283566585943
 30
0.0
 10
115.9774169631931
 20
-149.283566585943
 30
0.0
 10
115.9774169631931
 20
-149.283566585943
 30
0.0
 10
115.9774169631931
 20
-149.5650308870879
 30
0.0
 10
115.9774169631931
 20
-149.5650308870879
 30
0.0
 10
115.9774169631931
 20
-149.5650308870879
 30
0.0
 10
115.8292778573274
 20
-149.5650308870879
 30
0.0
 10
115.8292778573274
 20
-149.5650308870879
 30
0.0
 10
115.8144639467408
 20
-149.2818440382003
 30
0.0
 10
115.6515109302885
 20
-149.24222544012
 30
0.0
 10
115.5371337601782
 20
-149.2170762430777
 30
0.0
 10
115.5371337601782
 20
-149.2170762430777
 30
0.0
 10
115.5371337601782
 20
-149.0923637865116
 30
0.0
 10
115.5371337601782
 20
-149.0923637865116
 30
0.0
 10
115.5371337601782
 20
-149.0923637865116
 30
0.0
 10
117.0815700662157
 20
-149.0923637865116
 30
0.0
 10
117.0815700662157
 20
-149.0923637865116
 30
0.0
 10
117.0815700662157
 20
-149.0923637865116
 30
0.0
 10
117.0815700662157
 20
-149.283566585943
 30
0.0
 10
117.0815700662157
 20
-149.283566585943
 30
0.0
  0
HATCH
  5
B4
330
AF
100
AcDbEntity
  8
レイヤー 1
 62
   250
420
  2299925
440
 33554687
100
AcDbHatch
 10
0.0
 20
0.0
 30
0.0
210
0.0
220
0.0
230
1.0
  2
SOLID
 70
     1
 71
     1
 91
        1
 92
        1
 93
        1
 72
     4
 94
        3
 73
     0
 74
     0
 95
       26
 96
       22
 40
0.0
 40
0.0
 40
0.0
 40
0.0
 40
1.0
 40
1.0
 40
1.0
 40
2.0
 40
2.0
 40
2.0
 40
3.0
 40
3.0
 40
3.0
 40
4.0
 40
4.0
 40
4.0
 40
5.0
 40
5.0
 40
5.0
 40
6.0
 40
6.0
 40
6.0
 40
7.0
 40
7.0
 40
7.0
 40
7.0
 10
117.0815700662157
 20
-149.283566585943
 10
117.0815700662157
 20
-149.283566585943
 10
115.9774169631931
 20
-149.283566585943
 10
115.9774169631931
 20
-149.283566585943
 10
115.9774169631931
 20
-149.283566585943
 10
115.9774169631931
 20
-149.5650308870879
 10
115.9774169631931
 20
-149.5650308870879
 10
115.9774169631931
 20
-149.5650308870879
 10
115.8292778573274
 20
-149.5650308870879
 10
115.8292778573274
 20
-149.5650308870879
 10
115.8144639467408
 20
-149.2818440382003
 10
115.6515109302885
 20
-149.24222544012
 10
115.5371337601782
 20
-149.2170762430777
 10
115.5371337601782
 20
-149.2170762430777
 10
115.5371337601782
 20
-149.0923637865116
 10
115.5371337601782
 20
-149.0923637865116
 10
115.5371337601782
 20
-149.0923637865116
 10
117.0815700662157
 20
-149.0923637865116
 10
117.0815700662157
 20
-149.0923637865116
 10
117.0815700662157
 20
-149.0923637865116
 10
117.0815700662157
 20
-149.283566585943
 10
117.0815700662157
 20
-149.283566585943
 97
        0
 97
        1
330
B3
 75
     2
 76
     1
 98
        1
 10
0.0
 20
0.0
450
        0
451
        0
460
0.0
461
0.0
452
        0
462
0.0
453
        0
470

  0
SPLINE
  5
B5
330
AF
100
AcDbEntity
  8
レイヤー 1
100
AcDbSpline
210
0.0
220
0.0
230
1.0
 70
     9
 71
     3
 72
    44
 73
    40
 74
     0
 42
0.0000000001
 43
0.0000000001
 40
0.0
 40
0.0
 40
0.0
 40
0.0
 40
1.0
 40
1.0
 40
1.0
 40
2.0
 40
2.0
 40
2.0
 40
3.0
 40
3.0
 40
3.0
 40
4.0
 40
4.0
 40
4.0
 40
5.0
 40
5.0
 40
5.0
 40
6.0
 40
6.0
 40
6.0
 40
7.0
 40
7.0
 40
7.0
 40
8.0
 40
8.0
 40
8.0
 40
9.0
 40
9.0
 40
9.0
 40
10.0
 40
10.0
 40
10.0
 40
11.0
 40
11.0
 40
11.0
 40
12.0
 40
12.0
 40
12.0
 40
13.0
 40
13.0
 40
13.0
 40
13.0
 10
116.499693438757
 20
-148.1611544768486
 30
0.0
 10
116.658512340627
 20
-148.3468451235036
 30
0.0
 10
116.7325818935599
 20
-148.4260823196643
 30
0.0
 10
116.8762423752948
 20
-148.4674234654873
 30
0.0
 10
116.8762423752948
 20
-148.4674234654873
 30
0.0
 10
116.8762423752948
 20
-147.8038980750282
 30
0.0
 10
116.8762423752948
 20
-147.8038980750282
 30
0.0
 10
116.8762423752948
 20
-147.8038980750282
 30
0.0
 10
117.0815700662157
 20
-147.8038980750282
 30
0.0
 10
117.0815700662157
 20
-147.8038980750282
 30
0.0
 10
117.0815700662157
 20
-147.8038980750282
 30
0.0
 10
117.0815700662157
 20
-148.6803303664757
 30
0.0
 10
117.0815700662157
 20
-148.6803303664757
 30
0.0
 10
116.7239691548468
 20
-148.6534586216908
 30
0.0
 10
116.6457654873316
 20
-148.5973035652812
 30
0.0
 10
116.347420218309
 20
-148.2693304750854
 30
0.0
 10
116.14863820881
 20
-148.0509114213206
 30
0.0
 10
116.0807698277506
 20
-147.9951008744595
 30
0.0
 10
115.9433105178891
 20
-147.9951008744595
 30
0.0
 10
115.8247992331966
 20
-147.9951008744595
 30
0.0
 10
115.6938856047571
 20
-148.056423574097
 30
0.0
 10
115.6938856047571
 20
-148.2241997242286
 30
0.0
 10
115.6938856047571
 20
-148.4460638734788
 30
0.0
 10
115.9243624927203
 20
-148.4532985739978
 30
0.0
 10
116.0408067201217
 20
-148.456743669483
 30
0.0
 10
116.0408067201217
 20
-148.456743669483
 30
0.0
 10
116.0408067201217
 20
-148.6479464689144
 30
0.0
 10
116.0408067201217
 20
-148.6479464689144
 30
0.0
 10
115.913682696716
 20
-148.6407117683954
 30
0.0
 10
115.8017170934454
 20
-148.6317545201337
 30
0.0
 10
115.6832058087528
 20
-148.5631971199772
 30
0.0
 10
115.5223198495916
 20
-148.4694905227784
 30
0.0
 10
115.4885579138362
 20
-148.3106716209084
 30
0.0
 10
115.4885579138362
 20
-148.2114528709332
 30
0.0
 10
115.4885579138362
 20
-147.9751193206451
 30
0.0
 10
115.6725260127485
 20
-147.7983859222518
 30
0.0
 10
115.9453775751803
 20
-147.7983859222518
 30
0.0
 10
116.1741319154009
 20
-147.7983859222518
 30
0.0
 10
116.2733506653761
 20
-147.897604672227
 30
0.0
 10
116.499693438757
 20
-148.1611544768486
 30
0.0
  0
HATCH
  5
B6
330
AF
100
AcDbEntity
  8
レイヤー 1
 62
   250
420
  2299925
440
 33554687
100
AcDbHatch
 10
0.0
 20
0.0
 30
0.0
210
0.0
220
0.0
230
1.0
  2
SOLID
 70
     1
 71
     1
 91
        1
 92
        1
 93
        1
 72
     4
 94
        3
 73
     0
 74
     0
 95
       44
 96
       40
 40
0.0
 40
0.0
 40
0.0
 40
0.0
 40
1.0
 40
1.0
 40
1.0
 40
2.0
 40
2.0
 40
2.0
 40
3.0
 40
3.0
 40
3.0
 40
4.0
 40
4.0
 40
4.0
 40
5.0
 40
5.0
 40
5.0
 40
6.0
 40
6.0
 40
6.0
 40
7.0
 40
7.0
 40
7.0
 40
8.0
 40
8.0
 40
8.0
 40
9.0
 40
9.0
 40
9.0
 40
10.0
 40
10.0
 40
10.0
 40
11.0
 40
11.0
 40
11.0
 40
12.0
 40
12.0
 40
12.0
 40
13.0
 40
13.0
 40
13.0
 40
13.0
 10
116.499693438757
 20
-148.1611544768486
 10
116.658512340627
 20
-148.3468451235036
 10
116.7325818935599
 20
-148.4260823196643
 10
116.8762423752948
 20
-148.4674234654873
 10
116.8762423752948
 20
-148.4674234654873
 10
116.8762423752948
 20
-147.8038980750282
 10
116.8762423752948
 20
-147.8038980750282
 10
116.8762423752948
 20
-147.8038980750282
 10
117.0815700662157
 20
-147.8038980750282
 10
117.0815700662157
 20
-147.8038980750282
 10
117.0815700662157
 20
-147.8038980750282
 10
117.0815700662157
 20
-148.6803303664757
 10
117.0815700662157
 20
-148.6803303664757
 10
116.7239691548468
 20
-148.6534586216908
 10
116.6457654873316
 20
-148.5973035652812
 10
116.347420218309
 20
-148.2693304750854
 10
116.14863820881
 20
-148.0509114213206
 10
116.0807698277506
 20
-147.9951008744595
 10
115.9433105178891
 20
-147.9951008744595
 10
115.8247992331966
 20
-147.9951008744595
 10
115.6938856047571
 20
-148.056423574097
 10
115.6938856047571
 20
-148.2241997242286
 10
115.6938856047571
 20
-148.4460638734788
 10
115.9243624927203
 20
-148.4532985739978
 10
116.0408067201217
 20
-148.456743669483
 10
116.0408067201217
 20
-148.456743669483
 10
116.0408067201217
 20
-148.6479464689144
 10
116.0408067201217
 20
-148.6479464689144
 10
115.913682696716
 20
-148.6407117683954
 10
115.8017170934454
 20
-148.6317545201337
 10
115.6832058087528
 20
-148.5631971199772
 10
115.5223198495916
 20
-148.4694905227784
 10
115.4885579138362
 20
-148.3106716209084
 10
115.4885579138362
 20
-148.2114528709332
 10
115.4885579138362
 20
-147.9751193206451
 10
115.6725260127485
 20
-147.7983859222518
 10
115.9453775751803
 20
-147.7983859222518
 10
116.1741319154009
 20
-147.7983859222518
 10
116.2733506653761
 20
-147.897604672227
 10
116.499693438757
 20
-148.1611544768486
 97
        0
 97
        1
330
B5
 75
     2
 76
     1
 98
        1
 10
0.0
 20
0.0
450
        0
451
        0
460
0.0
461
0.0
452
        0
462
0.0
453
        0
470

  0
SPLINE
  5
B7
330
AF
100
AcDbEntity
  8
レイヤー 1
100
AcDbSpline
210
0.0
220
0.0
230
1.0
 70
    11
 71
     3
 72
    17
 73
    13
 74
     0
 42
0.0000000001
 43
0.0000000001
 40
0.0
 40
0.0
 40
0.0
 40
0.0
 40
1.0
 40
1.0
 40
1.0
 40
2.0
 40
2.0
 40
2.0
 40
3.0
 40
3.0
 40
3.0
 40
4.0
 40
4.0
 40
4.0
 40
4.0
 10
117.0815700662157
 20
-147.6137288042424
 30
0.0
 10
117.0815700662157
 20
-147.6137288042424
 30
0.0
 10
116.8297335862439
 20
-147.6137288042424
 30
0.0
 10
116.8297335862439
 20
-147.6137288042424
 30
0.0
 10
116.8297335862439
 20
-147.6137288042424
 30
0.0
 10
116.8297335862439
 20
-147.3990993555113
 30
0.0
 10
116.8297335862439
 20
-147.3990993555113
 30
0.0
 10
116.8297335862439
 20
-147.3990993555113
 30
0.0
 10
117.0815700662157
 20
-147.3990993555113
 30
0.0
 10
117.0815700662157
 20
-147.3990993555113
 30
0.0
 10
117.0815700662157
 20
-147.3990993555113
 30
0.0
 10
117.0815700662157
 20
-147.6137288042424
 30
0.0
 10
117.0815700662157
 20
-147.6137288042424
 30
0.0
  0
HATCH
  5
B8
330
AF
100
AcDbEntity
  8
レイヤー 1
 62
   250
420
  2299925
440
 33554687
100
AcDbHatch
 10
0.0
 20
0.0
 30
0.0
210
0.0
220
0.0
230
1.0
  2
SOLID
 70
     1
 71
     1
 91
        1
 92
        1
 93
        1
 72
     4
 94
        3
 73
     0
 74
     0
 95
       17
 96
       13
 40
0.0
 40
0.0
 40
0.0
 40
0.0
 40
1.0
 40
1.0
 40
1.0
 40
2.0
 40
2.0
 40
2.0
 40
3.0
 40
3.0
 40
3.0
 40
4.0
 40
4.0
 40
4.0
 40
4.0
 10
117.0815700662157
 20
-147.6137288042424
 10
117.0815700662157
 20
-147.6137288042424
 10
116.8297335862439
 20
-147.6137288042424
 10
116.8297335862439
 20
-147.6137288042424
 10
116.8297335862439
 20
-147.6137288042424
 10
116.8297335862439
 20
-147.3990993555113
 10
116.8297335862439
 20
-147.3990993555113
 10
116.8297335862439
 20
-147.3990993555113
 10
117.0815700662157
 20
-147.3990993555113
 10
117.0815700662157
 20
-147.3990993555113
 10
117.0815700662157
 20
-147.3990993555113
 10
117.0815700662157
 20
-147.6137288042424
 10
117.0815700662157
 20
-147.6137288042424
 97
        0
 97
        1
330
B7
 75
     2
 76
     1
 98
        1
 10
0.0
 20
0.0
450
        0
451
        0
460
0.0
461
0.0
452
        0
462
0.0
453
        0
470

  0
SPLINE
  5
B9
330
AF
100
AcDbEntity
  8
レイヤー 1
100
AcDbSpline
210
0.0
220
0.0
230
1.0
 70
     9
 71
     3
 72
    53
 73
    49
 74
     0
 42
0.0000000001
 43
0.0000000001
 40
0.0
 40
0.0
 40
0.0
 40
0.0
 40
1.0
 40
1.0
 40
1.0
 40
2.0
 40
2.0
 40
2.0
 40
3.0
 40
3.0
 40
3.0
 40
4.0
 40
4.0
 40
4.0
 40
5.0
 40
5.0
 40
5.0
 40
6.0
 40
6.0
 40
6.0
 40
7.0
 40
7.0
 40
7.0
 40
8.0
 40
8.0
 40
8.0
 40
9.0
 40
9.0
 40
9.0
 40
10.0
 40
10.0
 40
10.0
 40
11.0
 40
11.0
 40
11.0
 40
12.0
 40
12.0
 40
12.0
 40
13.0
 40
13.0
 40
13.0
 40
14.0
 40
14.0
 40
14.0
 40
15.0
 40
15.0
 40
15.0
 40
16.0
 40
16.0
 40
16.0
 40
16.0
 10
117.1322129698489
 20
-146.787939416428
 30
0.0
 10
117.1322129698489
 20
-146.8547742688419
 30
0.0
 10
117.1153320019711
 20
-146.9412461655216
 30
0.0
 10
117.0519422450426
 20
-147.0277180622014
 30
0.0
 10
116.9420436990631
 20
-147.1755126585186
 30
0.0
 10
116.8107855610751
 20
-147.1937716645904
 30
0.0
 10
116.7029540723867
 20
-147.2099636133711
 30
0.0
 10
116.7029540723867
 20
-147.2099636133711
 30
0.0
 10
116.7029540723867
 20
-147.0204833616824
 30
0.0
 10
116.7029540723867
 20
-147.0204833616824
 30
0.0
 10
116.9017360818857
 20
-146.973630063083
 30
0.0
 10
116.9313639030588
 20
-146.8654540648461
 30
0.0
 10
116.9313639030588
 20
-146.7862168686854
 30
0.0
 10
116.9313639030588
 20
-146.6670165648957
 30
0.0
 10
116.8318006435351
 20
-146.5371364651018
 30
0.0
 10
116.5992566982807
 20
-146.5371364651018
 30
0.0
 10
116.3432861037267
 20
-146.5371364651018
 30
0.0
 10
116.2733506653761
 20
-146.6904432141954
 30
0.0
 10
116.2733506653761
 20
-146.7934515692044
 30
0.0
 10
116.2733506653761
 20
-146.8203233139893
 30
0.0
 10
116.2733506653761
 20
-146.9412461655216
 30
0.0
 10
116.402541746073
 20
-147.0170382661971
 30
0.0
 10
116.402541746073
 20
-147.0170382661971
 30
0.0
 10
116.3835937209041
 20
-147.166555410257
 30
0.0
 10
116.3835937209041
 20
-147.166555410257
 30
0.0
 10
116.3835937209041
 20
-147.166555410257
 30
0.0
 10
115.5371337601782
 20
-147.0638915647965
 30
0.0
 10
115.5371337601782
 20
-147.0638915647965
 30
0.0
 10
115.5371337601782
 20
-147.0638915647965
 30
0.0
 10
115.5371337601782
 20
-146.4003661743374
 30
0.0
 10
115.5371337601782
 20
-146.4003661743374
 30
0.0
 10
115.5371337601782
 20
-146.4003661743374
 30
0.0
 10
115.7317816550948
 20
-146.4003661743374
 30
0.0
 10
115.7317816550948
 20
-146.4003661743374
 30
0.0
 10
115.7317816550948
 20
-146.4003661743374
 30
0.0
 10
115.7317816550948
 20
-146.9250542167409
 30
0.0
 10
115.7317816550948
 20
-146.9250542167409
 30
0.0
 10
115.7317816550948
 20
-146.9250542167409
 30
0.0
 10
116.1548393806835
 20
-146.980864763602
 30
0.0
 10
116.1548393806835
 20
-146.980864763602
 30
0.0
 10
116.1210774449281
 20
-146.9284993122262
 30
0.0
 10
116.0807698277506
 20
-146.8582193643271
 30
0.0
 10
116.0807698277506
 20
-146.7572780666093
 30
0.0
 10
116.0807698277506
 20
-146.5409260701356
 30
0.0
 10
116.2671494935026
 20
-146.3390434746999
 30
0.0
 10
116.5803086731118
 20
-146.3390434746999
 30
0.0
 10
116.8976019673034
 20
-146.3390434746999
 30
0.0
 10
117.1322129698489
 20
-146.5299017645828
 30
0.0
 10
117.1322129698489
 20
-146.787939416428
 30
0.0
  0
HATCH
  5
BA
330
AF
100
AcDbEntity
  8
レイヤー 1
 62
   250
420
  2299925
440
 33554687
100
AcDbHatch
 10
0.0
 20
0.0
 30
0.0
210
0.0
220
0.0
230
1.0
  2
SOLID
 70
     1
 71
     1
 91
        1
 92
        1
 93
        1
 72
     4
 94
        3
 73
     0
 74
     0
 95
       53
 96
       49
 40
0.0
 40
0.0
 40
0.0
 40
0.0
 40
1.0
 40
1.0
 40
1.0
 40
2.0
 40
2.0
 40
2.0
 40
3.0
 40
3.0
 40
3.0
 40
4.0
 40
4.0
 40
4.0
 40
5.0
 40
5.0
 40
5.0
 40
6.0
 40
6.0
 40
6.0
 40
7.0
 40
7.0
 40
7.0
 40
8.0
 40
8.0
 40
8.0
 40
9.0
 40
9.0
 40
9.0
 40
10.0
 40
10.0
 40
10.0
 40
11.0
 40
11.0
 40
11.0
 40
12.0
 40
12.0
 40
12.0
 40
13.0
 40
13.0
 40
13.0
 40
14.0
 40
14.0
 40
14.0
 40
15.0
 40
15.0
 40
15.0
 40
16.0
 40
16.0
 40
16.0
 40
16.0
 10
117.1322129698489
 20
-146.787939416428
 10
117.1322129698489
 20
-146.8547742688419
 10
117.1153320019711
 20
-146.9412461655216
 10
117.0519422450426
 20
-147.0277180622014
 10
116.9420436990631
 20
-147.1755126585186
 10
116.8107855610751
 20
-147.1937716645904
 10
116.7029540723867
 20
-147.2099636133711
 10
116.7029540723867
 20
-147.2099636133711
 10
116.7029540723867
 20
-147.0204833616824
 10
116.7029540723867
 20
-147.0204833616824
 10
116.9017360818857
 20
-146.973630063083
 10
116.9313639030588
 20
-146.8654540648461
 10
116.9313639030588
 20
-146.7862168686854
 10
116.9313639030588
 20
-146.6670165648957
 10
116.8318006435351
 20
-146.5371364651018
 10
116.5992566982807
 20
-146.5371364651018
 10
116.3432861037267
 20
-146.5371364651018
 10
116.2733506653761
 20
-146.6904432141954
 10
116.2733506653761
 20
-146.7934515692044
 10
116.2733506653761
 20
-146.8203233139893
 10
116.2733506653761
 20
-146.9412461655216
 10
116.402541746073
 20
-147.0170382661971
 10
116.402541746073
 20
-147.0170382661971
 10
116.3835937209041
 20
-147.166555410257
 10
116.3835937209041
 20
-147.166555410257
 10
116.3835937209041
 20
-147.166555410257
 10
115.5371337601782
 20
-147.0638915647965
 10
115.5371337601782
 20
-147.0638915647965
 10
115.5371337601782
 20
-147.0638915647965
 10
115.5371337601782
 20
-146.4003661743374
 10
115.5371337601782
 20
-146.4003661743374
 10
115.5371337601782
 20
-146.4003661743374
 10
115.7317816550948
 20
-146.4003661743374
 10
115.7317816550948
 20
-146.4003661743374
 10
115.7317816550948
 20
-146.4003661743374
 10
115.7317816550948
 20
-146.9250542167409
 10
115.7317816550948
 20
-146.9250542167409
 10
115.7317816550948
 20
-146.9250542167409
 10
116.1548393806835
 20
-146.980864763602
 10
116.1548393806835
 20
-146.980864763602
 10
116.1210774449281
 20
-146.9284993122262
 10
116.0807698277506
 20
-146.8582193643271
 10
116.0807698277506
 20
-146.7572780666093
 10
116.0807698277506
 20
-146.5409260701356
 10
116.2671494935026
 20
-146.3390434746999
 10
116.5803086731118
 20
-146.3390434746999
 10
116.8976019673034
 20
-146.3390434746999
 10
117.1322129698489
 20
-146.5299017645828
 10
117.1322129698489
 20
-146.787939416428
 97
        0
 97
        1
330
B9
 75
     2
 76
     1
 98
        1
 10
0.0
 20
0.0
450
        0
451
        0
460
0.0
461
0.0
452
        0
462
0.0
453
        0
470

  0
ENDBLK
  5
B2
330
AF
100
AcDbEntity
  8
0
100
AcDbBlockEnd
  0
BLOCK
  5
C1
330
BF
100
AcDbEntity
  8
0
100
AcDbBlockBegin
  2
Block_7
 70
     0
 10
0.0
 20
0.0
 30
0.0
  3
Block_7
  1

  0
INSERT
  5
C4
330
BF
100
AcDbEntity
  8
レイヤー 1
100
AcDbBlockReference
  2
Block_8
 10
0.0
 20
0.0
 30
0.0
  0
ENDBLK
  5
C2
330
BF
100
AcDbEntity
  8
0
100
AcDbBlockEnd
  0
BLOCK
  5
C5
330
C3
100
AcDbEntity
  8
0
100
AcDbBlockBegin
  2
Block_8
 70
     0
 10
0.0
 20
0.0
 30
0.0
  3
Block_8
  1

  0
SPLINE
  5
C7
330
C3
100
AcDbEntity
  8
レイヤー 1
100
AcDbSpline
210
0.0
220
0.0
230
1.0
 70
     9
 71
     3
 72
    17
 73
    13
 74
     0
 42
0.0000000001
 43
0.0000000001
 40
0.0
 40
0.0
 40
0.0
 40
0.0
 40
1.0
 40
1.0
 40
1.0
 40
2.0
 40
2.0
 40
2.0
 40
3.0
 40
3.0
 40
3.0
 40
4.0
 40
4.0
 40
4.0
 40
4.0
 10
119.9144720837366
 20
-152.0833956868055
 30
0.0
 10
119.9144720837366
 20
-152.2959580782455
 30
0.0
 10
120.1980034421727
 20
-152.3359211858743
 30
0.0
 10
120.5428575002462
 20
-152.3359211858743
 30
0.0
 10
120.8622178517289
 20
-152.3359211858743
 30
0.0
 10
121.1708984072072
 20
-152.3052598360556
 30
0.0
 10
121.1708984072072
 20
-152.0833956868055
 30
0.0
 10
121.1708984072072
 20
-151.8722113335597
 30
0.0
 10
120.8897786156109
 20
-151.8308701877367
 30
0.0
 10
120.5428575002462
 20
-151.8308701877367
 30
0.0
 10
120.223152639215
 20
-151.8308701877367
 30
0.0
 10
119.9144720837366
 20
-151.8632540852981
 30
0.0
 10
119.9144720837366
 20
-152.0833956868055
 30
0.0
  0
SPLINE
  5
C8
330
C3
100
AcDbEntity
  8
レイヤー 1
100
AcDbSpline
210
0.0
220
0.0
230
1.0
 70
     9
 71
     3
 72
    29
 73
    25
 74
     0
 42
0.0000000001
 43
0.0000000001
 40
0.0
 40
0.0
 40
0.0
 40
0.0
 40
1.0
 40
1.0
 40
1.0
 40
2.0
 40
2.0
 40
2.0
 40
3.0
 40
3.0
 40
3.0
 40
4.0
 40
4.0
 40
4.0
 40
5.0
 40
5.0
 40
5.0
 40
6.0
 40
6.0
 40
6.0
 40
7.0
 40
7.0
 40
7.0
 40
8.0
 40
8.0
 40
8.0
 40
8.0
 10
121.1371364714518
 20
-151.7443982910569
 30
0.0
 10
121.346598276955
 20
-151.8363823405131
 30
0.0
 10
121.3655463021239
 20
-151.9841769368303
 30
0.0
 10
121.3655463021239
 20
-152.0833956868055
 30
0.0
 10
121.3655463021239
 20
-152.2205104871185
 30
0.0
 10
121.319037513073
 20
-152.3410888291022
 30
0.0
 10
121.1371364714518
 20
-152.4223930825541
 30
0.0
 10
120.9424885765352
 20
-152.5105875269765
 30
0.0
 10
120.70546600715
 20
-152.5267794757572
 30
0.0
 10
120.5428575002462
 20
-152.5267794757572
 30
0.0
 10
120.3988525089628
 20
-152.5267794757572
 30
0.0
 10
120.147016028991
 20
-152.5126545842676
 30
0.0
 10
119.9482340194921
 20
-152.4223930825541
 30
0.0
 10
119.7453178954109
 20
-152.3304090330979
 30
0.0
 10
119.7218912461112
 20
-152.193294232785
 30
0.0
 10
119.7218912461112
 20
-152.0833956868055
 30
0.0
 10
119.7218912461112
 20
-151.9480034342352
 30
0.0
 10
119.7663329778709
 20
-151.8253580349603
 30
0.0
 10
119.9482340194921
 20
-151.7443982910569
 30
0.0
 10
120.1408148571176
 20
-151.6596489421198
 30
0.0
 10
120.3692246877896
 20
-151.6396673883053
 30
0.0
 10
120.5428575002462
 20
-151.6396673883053
 30
0.0
 10
120.7140787458631
 20
-151.6396673883053
 30
0.0
 10
120.9445556338264
 20
-151.6579263943772
 30
0.0
 10
121.1371364714518
 20
-151.7443982910569
 30
0.0
  0
HATCH
  5
C9
330
C3
100
AcDbEntity
  8
レイヤー 1
 62
   250
420
  2299925
440
 33554687
100
AcDbHatch
 10
0.0
 20
0.0
 30
0.0
210
0.0
220
0.0
230
1.0
  2
SOLID
 70
     1
 71
     1
 91
        2
 92
        1
 93
        1
 72
     4
 94
        3
 73
     0
 74
     0
 95
       17
 96
       13
 40
0.0
 40
0.0
 40
0.0
 40
0.0
 40
1.0
 40
1.0
 40
1.0
 40
2.0
 40
2.0
 40
2.0
 40
3.0
 40
3.0
 40
3.0
 40
4.0
 40
4.0
 40
4.0
 40
4.0
 10
119.9144720837366
 20
-152.0833956868055
 10
119.9144720837366
 20
-152.2959580782455
 10
120.1980034421727
 20
-152.3359211858743
 10
120.5428575002462
 20
-152.3359211858743
 10
120.8622178517289
 20
-152.3359211858743
 10
121.1708984072072
 20
-152.3052598360556
 10
121.1708984072072
 20
-152.0833956868055
 10
121.1708984072072
 20
-151.8722113335597
 10
120.8897786156109
 20
-151.8308701877367
 10
120.5428575002462
 20
-151.8308701877367
 10
120.223152639215
 20
-151.8308701877367
 10
119.9144720837366
 20
-151.8632540852981
 10
119.9144720837366
 20
-152.0833956868055
 97
        0
 97
        1
330
C7
 92
        1
 93
        1
 72
     4
 94
        3
 73
     0
 74
     0
 95
       29
 96
       25
 40
0.0
 40
0.0
 40
0.0
 40
0.0
 40
1.0
 40
1.0
 40
1.0
 40
2.0
 40
2.0
 40
2.0
 40
3.0
 40
3.0
 40
3.0
 40
4.0
 40
4.0
 40
4.0
 40
5.0
 40
5.0
 40
5.0
 40
6.0
 40
6.0
 40
6.0
 40
7.0
 40
7.0
 40
7.0
 40
8.0
 40
8.0
 40
8.0
 40
8.0
 10
121.1371364714518
 20
-151.7443982910569
 10
121.346598276955
 20
-151.8363823405131
 10
121.3655463021239
 20
-151.9841769368303
 10
121.3655463021239
 20
-152.0833956868055
 10
121.3655463021239
 20
-152.2205104871185
 10
121.319037513073
 20
-152.3410888291022
 10
121.1371364714518
 20
-152.4223930825541
 10
120.9424885765352
 20
-152.5105875269765
 10
120.70546600715
 20
-152.5267794757572
 10
120.5428575002462
 20
-152.5267794757572
 10
120.3988525089628
 20
-152.5267794757572
 10
120.147016028991
 20
-152.5126545842676
 10
119.9482340194921
 20
-152.4223930825541
 10
119.7453178954109
 20
-152.3304090330979
 10
119.7218912461112
 20
-152.193294232785
 10
119.7218912461112
 20
-152.0833956868055
 10
119.7218912461112
 20
-151.9480034342352
 10
119.7663329778709
 20
-151.8253580349603
 10
119.9482340194921
 20
-151.7443982910569
 10
120.1408148571176
 20
-151.6596489421198
 10
120.3692246877896
 20
-151.6396673883053
 10
120.5428575002462
 20
-151.6396673883053
 10
120.7140787458631
 20
-151.6396673883053
 10
120.9445556338264
 20
-151.6579263943772
 10
121.1371364714518
 20
-151.7443982910569
 97
        0
 97
        1
330
C8
 75
     2
 76
     1
 98
        1
 10
0.0
 20
0.0
450
        0
451
        0
460
0.0
461
0.0
452
        0
462
0.0
453
        0
470

  0
SPLINE
  5
CA
330
C3
100
AcDbEntity
  8
レイヤー 1
100
AcDbSpline
210
0.0
220
0.0
230
1.0
 70
    11
 71
     3
 72
    17
 73
    13
 74
     0
 42
0.0000000001
 43
0.0000000001
 40
0.0
 40
0.0
 40
0.0
 40
0.0
 40
1.0
 40
1.0
 40
1.0
 40
2.0
 40
2.0
 40
2.0
 40
3.0
 40
3.0
 40
3.0
 40
4.0
 40
4.0
 40
4.0
 40
4.0
 10
121.3149033984907
 20
-151.4567328180386
 30
0.0
 10
121.3149033984907
 20
-151.4567328180386
 30
0.0
 10
121.0630669185189
 20
-151.4567328180386
 30
0.0
 10
121.0630669185189
 20
-151.4567328180386
 30
0.0
 10
121.0630669185189
 20
-151.4567328180386
 30
0.0
 10
121.0630669185189
 20
-151.2421033693075
 30
0.0
 10
121.0630669185189
 20
-151.2421033693075
 30
0.0
 10
121.0630669185189
 20
-151.2421033693075
 30
0.0
 10
121.3149033984907
 20
-151.2421033693075
 30
0.0
 10
121.3149033984907
 20
-151.2421033693075
 30
0.0
 10
121.3149033984907
 20
-151.2421033693075
 30
0.0
 10
121.3149033984907
 20
-151.4567328180386
 30
0.0
 10
121.3149033984907
 20
-151.4567328180386
 30
0.0
  0
HATCH
  5
CB
330
C3
100
AcDbEntity
  8
レイヤー 1
 62
   250
420
  2299925
440
 33554687
100
AcDbHatch
 10
0.0
 20
0.0
 30
0.0
210
0.0
220
0.0
230
1.0
  2
SOLID
 70
     1
 71
     1
 91
        1
 92
        1
 93
        1
 72
     4
 94
        3
 73
     0
 74
     0
 95
       17
 96
       13
 40
0.0
 40
0.0
 40
0.0
 40
0.0
 40
1.0
 40
1.0
 40
1.0
 40
2.0
 40
2.0
 40
2.0
 40
3.0
 40
3.0
 40
3.0
 40
4.0
 40
4.0
 40
4.0
 40
4.0
 10
121.3149033984907
 20
-151.4567328180386
 10
121.3149033984907
 20
-151.4567328180386
 10
121.0630669185189
 20
-151.4567328180386
 10
121.0630669185189
 20
-151.4567328180386
 10
121.0630669185189
 20
-151.4567328180386
 10
121.0630669185189
 20
-151.2421033693075
 10
121.0630669185189
 20
-151.2421033693075
 10
121.0630669185189
 20
-151.2421033693075
 10
121.3149033984907
 20
-151.2421033693075
 10
121.3149033984907
 20
-151.2421033693075
 10
121.3149033984907
 20
-151.2421033693075
 10
121.3149033984907
 20
-151.4567328180386
 10
121.3149033984907
 20
-151.4567328180386
 97
        0
 97
        1
330
CA
 75
     2
 76
     1
 98
        1
 10
0.0
 20
0.0
450
        0
451
        0
460
0.0
461
0.0
452
        0
462
0.0
453
        0
470

  0
SPLINE
  5
CC
330
C3
100
AcDbEntity
  8
レイヤー 1
100
AcDbSpline
210
0.0
220
0.0
230
1.0
 70
    11
 71
     3
 72
    14
 73
    10
 74
     0
 42
0.0000000001
 43
0.0000000001
 40
0.0
 40
0.0
 40
0.0
 40
0.0
 40
1.0
 40
1.0
 40
1.0
 40
2.0
 40
2.0
 40
2.0
 40
3.0
 40
3.0
 40
3.0
 40
3.0
 10
120.1132540932356
 20
-150.5172552792109
 30
0.0
 10
120.1132540932356
 20
-150.5172552792109
 30
0.0
 10
120.7692002736271
 20
-150.9068955785927
 30
0.0
 10
120.7692002736271
 20
-150.9068955785927
 30
0.0
 10
120.7692002736271
 20
-150.9068955785927
 30
0.0
 10
120.7692002736271
 20
-150.5172552792109
 30
0.0
 10
120.7692002736271
 20
-150.5172552792109
 30
0.0
 10
120.7692002736271
 20
-150.5172552792109
 30
0.0
 10
120.1132540932356
 20
-150.5172552792109
 30
0.0
 10
120.1132540932356
 20
-150.5172552792109
 30
0.0
  0
SPLINE
  5
CD
330
C3
100
AcDbEntity
  8
レイヤー 1
100
AcDbSpline
210
0.0
220
0.0
230
1.0
 70
    11
 71
     3
 72
    38
 73
    34
 74
     0
 42
0.0000000001
 43
0.0000000001
 40
0.0
 40
0.0
 40
0.0
 40
0.0
 40
1.0
 40
1.0
 40
1.0
 40
2.0
 40
2.0
 40
2.0
 40
3.0
 40
3.0
 40
3.0
 40
4.0
 40
4.0
 40
4.0
 40
5.0
 40
5.0
 40
5.0
 40
6.0
 40
6.0
 40
6.0
 40
7.0
 40
7.0
 40
7.0
 40
8.0
 40
8.0
 40
8.0
 40
9.0
 40
9.0
 40
9.0
 40
10.0
 40
10.0
 40
10.0
 40
11.0
 40
11.0
 40
11.0
 40
11.0
 10
120.967982283126
 20
-150.331564632556
 30
0.0
 10
120.967982283126
 20
-150.331564632556
 30
0.0
 10
121.3149033984907
 20
-150.331564632556
 30
0.0
 10
121.3149033984907
 20
-150.331564632556
 30
0.0
 10
121.3149033984907
 20
-150.331564632556
 30
0.0
 10
121.3149033984907
 20
-150.5172552792109
 30
0.0
 10
121.3149033984907
 20
-150.5172552792109
 30
0.0
 10
121.3149033984907
 20
-150.5172552792109
 30
0.0
 10
120.967982283126
 20
-150.5172552792109
 30
0.0
 10
120.967982283126
 20
-150.5172552792109
 30
0.0
 10
120.967982283126
 20
-150.5172552792109
 30
0.0
 10
120.967982283126
 20
-151.076394276467
 30
0.0
 10
120.967982283126
 20
-151.076394276467
 30
0.0
 10
120.967982283126
 20
-151.076394276467
 30
0.0
 10
120.7437065670363
 20
-151.076394276467
 30
0.0
 10
120.7437065670363
 20
-151.076394276467
 30
0.0
 10
120.7437065670363
 20
-151.076394276467
 30
0.0
 10
119.7704670924532
 20
-150.497618234945
 30
0.0
 10
119.7704670924532
 20
-150.497618234945
 30
0.0
 10
119.7704670924532
 20
-150.497618234945
 30
0.0
 10
119.7704670924532
 20
-150.331564632556
 30
0.0
 10
119.7704670924532
 20
-150.331564632556
 30
0.0
 10
119.7704670924532
 20
-150.331564632556
 30
0.0
 10
120.7692002736271
 20
-150.331564632556
 30
0.0
 10
120.7692002736271
 20
-150.331564632556
 30
0.0
 10
120.7692002736271
 20
-150.331564632556
 30
0.0
 10
120.7692002736271
 20
-150.1548312341627
 30
0.0
 10
120.7692002736271
 20
-150.1548312341627
 30
0.0
 10
120.7692002736271
 20
-150.1548312341627
 30
0.0
 10
120.967982283126
 20
-150.1548312341627
 30
0.0
 10
120.967982283126
 20
-150.1548312341627
 30
0.0
 10
120.967982283126
 20
-150.1548312341627
 30
0.0
 10
120.967982283126
 20
-150.331564632556
 30
0.0
 10
120.967982283126
 20
-150.331564632556
 30
0.0
  0
HATCH
  5
CE
330
C3
100
AcDbEntity
  8
レイヤー 1
 62
   250
420
  2299925
440
 33554687
100
AcDbHatch
 10
0.0
 20
0.0
 30
0.0
210
0.0
220
0.0
230
1.0
  2
SOLID
 70
     1
 71
     1
 91
        2
 92
        1
 93
        1
 72
     4
 94
        3
 73
     0
 74
     0
 95
       14
 96
       10
 40
0.0
 40
0.0
 40
0.0
 40
0.0
 40
1.0
 40
1.0
 40
1.0
 40
2.0
 40
2.0
 40
2.0
 40
3.0
 40
3.0
 40
3.0
 40
3.0
 10
120.1132540932356
 20
-150.5172552792109
 10
120.1132540932356
 20
-150.5172552792109
 10
120.7692002736271
 20
-150.9068955785927
 10
120.7692002736271
 20
-150.9068955785927
 10
120.7692002736271
 20
-150.9068955785927
 10
120.7692002736271
 20
-150.5172552792109
 10
120.7692002736271
 20
-150.5172552792109
 10
120.7692002736271
 20
-150.5172552792109
 10
120.1132540932356
 20
-150.5172552792109
 10
120.1132540932356
 20
-150.5172552792109
 97
        0
 97
        1
330
CC
 92
        1
 93
        1
 72
     4
 94
        3
 73
     0
 74
     0
 95
       38
 96
       34
 40
0.0
 40
0.0
 40
0.0
 40
0.0
 40
1.0
 40
1.0
 40
1.0
 40
2.0
 40
2.0
 40
2.0
 40
3.0
 40
3.0
 40
3.0
 40
4.0
 40
4.0
 40
4.0
 40
5.0
 40
5.0
 40
5.0
 40
6.0
 40
6.0
 40
6.0
 40
7.0
 40
7.0
 40
7.0
 40
8.0
 40
8.0
 40
8.0
 40
9.0
 40
9.0
 40
9.0
 40
10.0
 40
10.0
 40
10.0
 40
11.0
 40
11.0
 40
11.0
 40
11.0
 10
120.967982283126
 20
-150.331564632556
 10
120.967982283126
 20
-150.331564632556
 10
121.3149033984907
 20
-150.331564632556
 10
121.3149033984907
 20
-150.331564632556
 10
121.3149033984907
 20
-150.331564632556
 10
121.3149033984907
 20
-150.5172552792109
 10
121.3149033984907
 20
-150.5172552792109
 10
121.3149033984907
 20
-150.5172552792109
 10
120.967982283126
 20
-150.5172552792109
 10
120.967982283126
 20
-150.5172552792109
 10
120.967982283126
 20
-150.5172552792109
 10
120.967982283126
 20
-151.076394276467
 10
120.967982283126
 20
-151.076394276467
 10
120.967982283126
 20
-151.076394276467
 10
120.7437065670363
 20
-151.076394276467
 10
120.7437065670363
 20
-151.076394276467
 10
120.7437065670363
 20
-151.076394276467
 10
119.7704670924532
 20
-150.497618234945
 10
119.7704670924532
 20
-150.497618234945
 10
119.7704670924532
 20
-150.497618234945
 10
119.7704670924532
 20
-150.331564632556
 10
119.7704670924532
 20
-150.331564632556
 10
119.7704670924532
 20
-150.331564632556
 10
120.7692002736271
 20
-150.331564632556
 10
120.7692002736271
 20
-150.331564632556
 10
120.7692002736271
 20
-150.331564632556
 10
120.7692002736271
 20
-150.1548312341627
 10
120.7692002736271
 20
-150.1548312341627
 10
120.7692002736271
 20
-150.1548312341627
 10
120.967982283126
 20
-150.1548312341627
 10
120.967982283126
 20
-150.1548312341627
 10
120.967982283126
 20
-150.1548312341627
 10
120.967982283126
 20
-150.331564632556
 10
120.967982283126
 20
-150.331564632556
 97
        0
 97
        1
330
CD
 75
     2
 76
     1
 98
        1
 10
0.0
 20
0.0
450
        0
451
        0
460
0.0
461
0.0
452
        0
462
0.0
453
        0
470

  0
ENDBLK
  5
C6
330
C3
100
AcDbEntity
  8
0
100
AcDbBlockEnd
  0
BLOCK
  5
D5
330
D3
100
AcDbEntity
  8
0
100
AcDbBlockBegin
  2
Block_9
 70
     0
 10
0.0
 20
0.0
 30
0.0
  3
Block_9
  1

  0
INSERT
  5
D8
330
D3
100
AcDbEntity
  8
レイヤー 1
100
AcDbBlockReference
  2
Block_10
 10
0.0
 20
0.0
 30
0.0
  0
ENDBLK
  5
D6
330
D3
100
AcDbEntity
  8
0
100
AcDbBlockEnd
  0
BLOCK
  5
D9
330
D7
100
AcDbEntity
  8
0
100
AcDbBlockBegin
  2
Block_10
 70
     0
 10
0.0
 20
0.0
 30
0.0
  3
Block_10
  1

  0
SPLINE
  5
DB
330
D7
100
AcDbEntity
  8
レイヤー 1
100
AcDbSpline
210
0.0
220
0.0
230
1.0
 70
    11
 71
     3
 72
    26
 73
    22
 74
     0
 42
0.0000000001
 43
0.0000000001
 40
0.0
 40
0.0
 40
0.0
 40
0.0
 40
1.0
 40
1.0
 40
1.0
 40
2.0
 40
2.0
 40
2.0
 40
3.0
 40
3.0
 40
3.0
 40
4.0
 40
4.0
 40
4.0
 40
5.0
 40
5.0
 40
5.0
 40
6.0
 40
6.0
 40
6.0
 40
7.0
 40
7.0
 40
7.0
 40
7.0
 10
90.03171384467957
 20
-141.2602837103446
 30
0.0
 10
90.03171384467957
 20
-141.2602837103446
 30
0.0
 10
88.92756074165701
 20
-141.2602837103446
 30
0.0
 10
88.92756074165701
 20
-141.2602837103446
 30
0.0
 10
88.92756074165701
 20
-141.2602837103446
 30
0.0
 10
88.92756074165701
 20
-141.5417480114895
 30
0.0
 10
88.92756074165701
 20
-141.5417480114895
 30
0.0
 10
88.92756074165701
 20
-141.5417480114895
 30
0.0
 10
88.77942163579126
 20
-141.5417480114895
 30
0.0
 10
88.77942163579126
 20
-141.5417480114895
 30
0.0
 10
88.76460772520468
 20
-141.258561162602
 30
0.0
 10
88.60165470875235
 20
-141.2189425645216
 30
0.0
 10
88.48727753864208
 20
-141.1937933674793
 30
0.0
 10
88.48727753864208
 20
-141.1937933674793
 30
0.0
 10
88.48727753864208
 20
-141.0690809109133
 30
0.0
 10
88.48727753864208
 20
-141.0690809109133
 30
0.0
 10
88.48727753864208
 20
-141.0690809109133
 30
0.0
 10
90.03171384467957
 20
-141.0690809109133
 30
0.0
 10
90.03171384467957
 20
-141.0690809109133
 30
0.0
 10
90.03171384467957
 20
-141.0690809109133
 30
0.0
 10
90.03171384467957
 20
-141.2602837103446
 30
0.0
 10
90.03171384467957
 20
-141.2602837103446
 30
0.0
  0
HATCH
  5
DC
330
D7
100
AcDbEntity
  8
レイヤー 1
 62
   250
420
  2299925
440
 33554687
100
AcDbHatch
 10
0.0
 20
0.0
 30
0.0
210
0.0
220
0.0
230
1.0
  2
SOLID
 70
     1
 71
     1
 91
        1
 92
        1
 93
        1
 72
     4
 94
        3
 73
     0
 74
     0
 95
       26
 96
       22
 40
0.0
 40
0.0
 40
0.0
 40
0.0
 40
1.0
 40
1.0
 40
1.0
 40
2.0
 40
2.0
 40
2.0
 40
3.0
 40
3.0
 40
3.0
 40
4.0
 40
4.0
 40
4.0
 40
5.0
 40
5.0
 40
5.0
 40
6.0
 40
6.0
 40
6.0
 40
7.0
 40
7.0
 40
7.0
 40
7.0
 10
90.03171384467957
 20
-141.2602837103446
 10
90.03171384467957
 20
-141.2602837103446
 10
88.92756074165701
 20
-141.2602837103446
 10
88.92756074165701
 20
-141.2602837103446
 10
88.92756074165701
 20
-141.2602837103446
 10
88.92756074165701
 20
-141.5417480114895
 10
88.92756074165701
 20
-141.5417480114895
 10
88.92756074165701
 20
-141.5417480114895
 10
88.77942163579126
 20
-141.5417480114895
 10
88.77942163579126
 20
-141.5417480114895
 10
88.76460772520468
 20
-141.258561162602
 10
88.60165470875235
 20
-141.2189425645216
 10
88.48727753864208
 20
-141.1937933674793
 10
88.48727753864208
 20
-141.1937933674793
 10
88.48727753864208
 20
-141.0690809109133
 10
88.48727753864208
 20
-141.0690809109133
 10
88.48727753864208
 20
-141.0690809109133
 10
90.03171384467957
 20
-141.0690809109133
 10
90.03171384467957
 20
-141.0690809109133
 10
90.03171384467957
 20
-141.0690809109133
 10
90.03171384467957
 20
-141.2602837103446
 10
90.03171384467957
 20
-141.2602837103446
 97
        0
 97
        1
330
DB
 75
     2
 76
     1
 98
        1
 10
0.0
 20
0.0
450
        0
451
        0
460
0.0
461
0.0
452
        0
462
0.0
453
        0
470

  0
SPLINE
  5
DD
330
D7
100
AcDbEntity
  8
レイヤー 1
100
AcDbSpline
210
0.0
220
0.0
230
1.0
 70
    11
 71
     3
 72
    17
 73
    13
 74
     0
 42
0.0000000001
 43
0.0000000001
 40
0.0
 40
0.0
 40
0.0
 40
0.0
 40
1.0
 40
1.0
 40
1.0
 40
2.0
 40
2.0
 40
2.0
 40
3.0
 40
3.0
 40
3.0
 40
4.0
 40
4.0
 40
4.0
 40
4.0
 10
90.03171384467957
 20
-140.5922796957547
 30
0.0
 10
90.03171384467957
 20
-140.5922796957547
 30
0.0
 10
89.77987736470781
 20
-140.5922796957547
 30
0.0
 10
89.77987736470781
 20
-140.5922796957547
 30
0.0
 10
89.77987736470781
 20
-140.5922796957547
 30
0.0
 10
89.77987736470781
 20
-140.3776502470236
 30
0.0
 10
89.77987736470781
 20
-140.3776502470236
 30
0.0
 10
89.77987736470781
 20
-140.3776502470236
 30
0.0
 10
90.03171384467957
 20
-140.3776502470236
 30
0.0
 10
90.03171384467957
 20
-140.3776502470236
 30
0.0
 10
90.03171384467957
 20
-140.3776502470236
 30
0.0
 10
90.03171384467957
 20
-140.5922796957547
 30
0.0
 10
90.03171384467957
 20
-140.5922796957547
 30
0.0
  0
HATCH
  5
DE
330
D7
100
AcDbEntity
  8
レイヤー 1
 62
   250
420
  2299925
440
 33554687
100
AcDbHatch
 10
0.0
 20
0.0
 30
0.0
210
0.0
220
0.0
230
1.0
  2
SOLID
 70
     1
 71
     1
 91
        1
 92
        1
 93
        1
 72
     4
 94
        3
 73
     0
 74
     0
 95
       17
 96
       13
 40
0.0
 40
0.0
 40
0.0
 40
0.0
 40
1.0
 40
1.0
 40
1.0
 40
2.0
 40
2.0
 40
2.0
 40
3.0
 40
3.0
 40
3.0
 40
4.0
 40
4.0
 40
4.0
 40
4.0
 10
90.03171384467957
 20
-140.5922796957547
 10
90.03171384467957
 20
-140.5922796957547
 10
89.77987736470781
 20
-140.5922796957547
 10
89.77987736470781
 20
-140.5922796957547
 10
89.77987736470781
 20
-140.5922796957547
 10
89.77987736470781
 20
-140.3776502470236
 10
89.77987736470781
 20
-140.3776502470236
 10
89.77987736470781
 20
-140.3776502470236
 10
90.03171384467957
 20
-140.3776502470236
 10
90.03171384467957
 20
-140.3776502470236
 10
90.03171384467957
 20
-140.3776502470236
 10
90.03171384467957
 20
-140.5922796957547
 10
90.03171384467957
 20
-140.5922796957547
 97
        0
 97
        1
330
DD
 75
     2
 76
     1
 98
        1
 10
0.0
 20
0.0
450
        0
451
        0
460
0.0
461
0.0
452
        0
462
0.0
453
        0
470

  0
SPLINE
  5
DF
330
D7
100
AcDbEntity
  8
レイヤー 1
100
AcDbSpline
210
0.0
220
0.0
230
1.0
 70
     9
 71
     3
 72
    17
 73
    13
 74
     0
 42
0.0000000001
 43
0.0000000001
 40
0.0
 40
0.0
 40
0.0
 40
0.0
 40
1.0
 40
1.0
 40
1.0
 40
2.0
 40
2.0
 40
2.0
 40
3.0
 40
3.0
 40
3.0
 40
4.0
 40
4.0
 40
4.0
 40
4.0
 10
88.63128252992551
 20
-139.7502983591596
 30
0.0
 10
88.63128252992551
 20
-139.9632052601481
 30
0.0
 10
88.91481388836158
 20
-140.0028238582284
 30
0.0
 10
89.25966794643509
 20
-140.0028238582284
 30
0.0
 10
89.57902829791775
 20
-140.0028238582284
 30
0.0
 10
89.88770885339613
 20
-139.9721625084097
 30
0.0
 10
89.88770885339613
 20
-139.7502983591596
 30
0.0
 10
89.88770885339613
 20
-139.5391140059138
 30
0.0
 10
89.60658906179975
 20
-139.4977728600908
 30
0.0
 10
89.25966794643509
 20
-139.4977728600908
 30
0.0
 10
88.93996308540391
 20
-139.4977728600908
 30
0.0
 10
88.63128252992551
 20
-139.5301567576522
 30
0.0
 10
88.63128252992551
 20
-139.7502983591596
 30
0.0
  0
SPLINE
  5
E0
330
D7
100
AcDbEntity
  8
レイヤー 1
100
AcDbSpline
210
0.0
220
0.0
230
1.0
 70
     9
 71
     3
 72
    29
 73
    25
 74
     0
 42
0.0000000001
 43
0.0000000001
 40
0.0
 40
0.0
 40
0.0
 40
0.0
 40
1.0
 40
1.0
 40
1.0
 40
2.0
 40
2.0
 40
2.0
 40
3.0
 40
3.0
 40
3.0
 40
4.0
 40
4.0
 40
4.0
 40
5.0
 40
5.0
 40
5.0
 40
6.0
 40
6.0
 40
6.0
 40
7.0
 40
7.0
 40
7.0
 40
8.0
 40
8.0
 40
8.0
 40
8.0
 10
89.85394691764069
 20
-139.4113009634111
 30
0.0
 10
90.06340872314387
 20
-139.5032850128672
 30
0.0
 10
90.08235674831274
 20
-139.6510796091844
 30
0.0
 10
90.08235674831274
 20
-139.7502983591596
 30
0.0
 10
90.08235674831274
 20
-139.8874131594726
 30
0.0
 10
90.03584795926187
 20
-140.0079915014563
 30
0.0
 10
89.85394691764069
 20
-140.0892957549082
 30
0.0
 10
89.65929902272407
 20
-140.1774901993306
 30
0.0
 10
89.42227645333888
 20
-140.1940266576598
 30
0.0
 10
89.25966794643509
 20
-140.1940266576598
 30
0.0
 10
89.11566295515164
 20
-140.1940266576598
 30
0.0
 10
88.86382647517988
 20
-140.1795572566218
 30
0.0
 10
88.66504446568097
 20
-140.0892957549082
 30
0.0
 10
88.46212834159976
 20
-139.997311705452
 30
0.0
 10
88.43870169230006
 20
-139.8601969051391
 30
0.0
 10
88.43870169230006
 20
-139.7502983591596
 30
0.0
 10
88.43870169230006
 20
-139.6149061065893
 30
0.0
 10
88.48314342405977
 20
-139.4922607073144
 30
0.0
 10
88.66504446568097
 20
-139.4113009634111
 30
0.0
 10
88.85762530330643
 20
-139.3265516144739
 30
0.0
 10
89.08603513397849
 20
-139.3065700606594
 30
0.0
 10
89.25966794643509
 20
-139.3065700606594
 30
0.0
 10
89.430889192052
 20
-139.3065700606594
 30
0.0
 10
89.66136608001521
 20
-139.3248290667313
 30
0.0
 10
89.85394691764069
 20
-139.4113009634111
 30
0.0
  0
HATCH
  5
E1
330
D7
100
AcDbEntity
  8
レイヤー 1
 62
   250
420
  2299925
440
 33554687
100
AcDbHatch
 10
0.0
 20
0.0
 30
0.0
210
0.0
220
0.0
230
1.0
  2
SOLID
 70
     1
 71
     1
 91
        2
 92
        1
 93
        1
 72
     4
 94
        3
 73
     0
 74
     0
 95
       17
 96
       13
 40
0.0
 40
0.0
 40
0.0
 40
0.0
 40
1.0
 40
1.0
 40
1.0
 40
2.0
 40
2.0
 40
2.0
 40
3.0
 40
3.0
 40
3.0
 40
4.0
 40
4.0
 40
4.0
 40
4.0
 10
88.63128252992551
 20
-139.7502983591596
 10
88.63128252992551
 20
-139.9632052601481
 10
88.91481388836158
 20
-140.0028238582284
 10
89.25966794643509
 20
-140.0028238582284
 10
89.57902829791775
 20
-140.0028238582284
 10
89.88770885339613
 20
-139.9721625084097
 10
89.88770885339613
 20
-139.7502983591596
 10
89.88770885339613
 20
-139.5391140059138
 10
89.60658906179975
 20
-139.4977728600908
 10
89.25966794643509
 20
-139.4977728600908
 10
88.93996308540391
 20
-139.4977728600908
 10
88.63128252992551
 20
-139.5301567576522
 10
88.63128252992551
 20
-139.7502983591596
 97
        0
 97
        1
330
DF
 92
        1
 93
        1
 72
     4
 94
        3
 73
     0
 74
     0
 95
       29
 96
       25
 40
0.0
 40
0.0
 40
0.0
 40
0.0
 40
1.0
 40
1.0
 40
1.0
 40
2.0
 40
2.0
 40
2.0
 40
3.0
 40
3.0
 40
3.0
 40
4.0
 40
4.0
 40
4.0
 40
5.0
 40
5.0
 40
5.0
 40
6.0
 40
6.0
 40
6.0
 40
7.0
 40
7.0
 40
7.0
 40
8.0
 40
8.0
 40
8.0
 40
8.0
 10
89.85394691764069
 20
-139.4113009634111
 10
90.06340872314387
 20
-139.5032850128672
 10
90.08235674831274
 20
-139.6510796091844
 10
90.08235674831274
 20
-139.7502983591596
 10
90.08235674831274
 20
-139.8874131594726
 10
90.03584795926187
 20
-140.0079915014563
 10
89.85394691764069
 20
-140.0892957549082
 10
89.65929902272407
 20
-140.1774901993306
 10
89.42227645333888
 20
-140.1940266576598
 10
89.25966794643509
 20
-140.1940266576598
 10
89.11566295515164
 20
-140.1940266576598
 10
88.86382647517988
 20
-140.1795572566218
 10
88.66504446568097
 20
-140.0892957549082
 10
88.46212834159976
 20
-139.997311705452
 10
88.43870169230006
 20
-139.8601969051391
 10
88.43870169230006
 20
-139.7502983591596
 10
88.43870169230006
 20
-139.6149061065893
 10
88.48314342405977
 20
-139.4922607073144
 10
88.66504446568097
 20
-139.4113009634111
 10
88.85762530330643
 20
-139.3265516144739
 10
89.08603513397849
 20
-139.3065700606594
 10
89.25966794643509
 20
-139.3065700606594
 10
89.430889192052
 20
-139.3065700606594
 10
89.66136608001521
 20
-139.3248290667313
 10
89.85394691764069
 20
-139.4113009634111
 97
        0
 97
        1
330
E0
 75
     2
 76
     1
 98
        1
 10
0.0
 20
0.0
450
        0
451
        0
460
0.0
461
0.0
452
        0
462
0.0
453
        0
470

  0
ENDBLK
  5
DA
330
D7
100
AcDbEntity
  8
0
100
AcDbBlockEnd
  0
BLOCK
  5
E6
330
E4
100
AcDbEntity
  8
0
100
AcDbBlockBegin
  2
Block_11
 70
     0
 10
0.0
 20
0.0
 30
0.0
  3
Block_11
  1

  0
LINE
  5
E8
330
E4
100
AcDbEntity
  8
レイヤー 1
 62
    18
420
        0
370
     9
100
AcDbLine
 10
108.4230109337873
 20
-153.4639123693617
 30
0.0
 11
108.1561660759263
 21
-152.5001401360906
 31
0.0
  0
LINE
  5
E9
330
E4
100
AcDbEntity
  8
レイヤー 1
 62
    18
420
        0
370
     9
100
AcDbLine
 10
108.4230109337873
 20
-153.4639123693617
 30
0.0
 11
108.3885767264102
 21
-151.8499518065576
 31
0.0
  0
LINE
  5
EA
330
E4
100
AcDbEntity
  8
レイヤー 1
 62
    18
420
        0
370
     9
100
AcDbLine
 10
108.4230109337873
 20
-153.4639123693617
 30
0.0
 11
108.6738590112925
 21
-152.4957319139749
 31
0.0
  0
ENDBLK
  5
E7
330
E4
100
AcDbEntity
  8
0
100
AcDbBlockEnd
  0
BLOCK
  5
ED
330
EB
100
AcDbEntity
  8
0
100
AcDbBlockBegin
  2
Block_12
 70
     0
 10
0.0
 20
0.0
 30
0.0
  3
Block_12
  1

  0
INSERT
  5
F0
330
EB
100
AcDbEntity
  8
レイヤー 1
100
AcDbBlockReference
  2
Block_13
 10
0.0
 20
0.0
 30
0.0
  0
ENDBLK
  5
EE
330
EB
100
AcDbEntity
  8
0
100
AcDbBlockEnd
  0
BLOCK
  5
F1
330
EF
100
AcDbEntity
  8
0
100
AcDbBlockBegin
  2
Block_13
 70
     0
 10
0.0
 20
0.0
 30
0.0
  3
Block_13
  1

  0
SPLINE
  5
F3
330
EF
100
AcDbEntity
  8
レイヤー 1
100
AcDbSpline
210
0.0
220
0.0
230
1.0
 70
     9
 71
     3
 72
    17
 73
    13
 74
     0
 42
0.0000000001
 43
0.0000000001
 40
0.0
 40
0.0
 40
0.0
 40
0.0
 40
1.0
 40
1.0
 40
1.0
 40
2.0
 40
2.0
 40
2.0
 40
3.0
 40
3.0
 40
3.0
 40
4.0
 40
4.0
 40
4.0
 40
4.0
 10
104.436863851929
 20
-150.7835611602208
 30
0.0
 10
104.419810629277
 20
-150.8131889813939
 30
0.0
 10
104.3691677256438
 20
-150.9062065594956
 30
0.0
 10
104.3584879296395
 20
-150.9251545846645
 30
0.0
 10
104.5488294551996
 20
-150.9844102270108
 30
0.0
 10
104.5700167924339
 20
-150.9909559084328
 30
0.0
 10
104.6420192880756
 20
-151.0185166723148
 30
0.0
 10
104.6969685610653
 20
-150.9317002660865
 30
0.0
 10
104.7202229555908
 20
-150.8576307131536
 30
0.0
 10
104.7350368661773
 20
-150.7835611602208
 30
0.0
 10
104.7350368661773
 20
-150.7835611602208
 30
0.0
 10
104.436863851929
 20
-150.7835611602208
 30
0.0
 10
104.436863851929
 20
-150.7835611602208
 30
0.0
  0
SPLINE
  5
F4
330
EF
100
AcDbEntity
  8
レイヤー 1
100
AcDbSpline
210
0.0
220
0.0
230
1.0
 70
    11
 71
     3
 72
    20
 73
    16
 74
     0
 42
0.0000000001
 43
0.0000000001
 40
0.0
 40
0.0
 40
0.0
 40
0.0
 40
1.0
 40
1.0
 40
1.0
 40
2.0
 40
2.0
 40
2.0
 40
3.0
 40
3.0
 40
3.0
 40
4.0
 40
4.0
 40
4.0
 40
5.0
 40
5.0
 40
5.0
 40
5.0
 10
104.3733018402261
 20
-149.9333115944611
 30
0.0
 10
104.3733018402261
 20
-149.9333115944611
 30
0.0
 10
104.3416069617618
 20
-149.9333115944611
 30
0.0
 10
104.3416069617618
 20
-149.9333115944611
 30
0.0
 10
104.3881157508127
 20
-150.0325303444363
 30
0.0
 10
104.419810629277
 20
-150.1128010692426
 30
0.0
 10
104.4537448198067
 20
-150.2399250926483
 30
0.0
 10
104.4537448198067
 20
-150.2399250926483
 30
0.0
 10
104.6609673132445
 20
-150.2399250926483
 30
0.0
 10
104.6609673132445
 20
-150.2399250926483
 30
0.0
 10
104.692834446483
 20
-150.1469075145466
 30
0.0
 10
104.7160888410085
 20
-150.0621581656095
 30
0.0
 10
104.7393432355339
 20
-149.9333115944611
 30
0.0
 10
104.7393432355339
 20
-149.9333115944611
 30
0.0
 10
104.3733018402261
 20
-149.9333115944611
 30
0.0
 10
104.3733018402261
 20
-149.9333115944611
 30
0.0
  0
SPLINE
  5
F5
330
EF
100
AcDbEntity
  8
レイヤー 1
100
AcDbSpline
210
0.0
220
0.0
230
1.0
 70
     9
 71
     3
 72
   242
 73
   238
 74
     0
 42
0.0000000001
 43
0.0000000001
 40
0.0
 40
0.0
 40
0.0
 40
0.0
 40
1.0
 40
1.0
 40
1.0
 40
2.0
 40
2.0
 40
2.0
 40
3.0
 40
3.0
 40
3.0
 40
4.0
 40
4.0
 40
4.0
 40
5.0
 40
5.0
 40
5.0
 40
6.0
 40
6.0
 40
6.0
 40
7.0
 40
7.0
 40
7.0
 40
8.0
 40
8.0
 40
8.0
 40
9.0
 40
9.0
 40
9.0
 40
10.0
 40
10.0
 40
10.0
 40
11.0
 40
11.0
 40
11.0
 40
12.0
 40
12.0
 40
12.0
 40
13.0
 40
13.0
 40
13.0
 40
14.0
 40
14.0
 40
14.0
 40
15.0
 40
15.0
 40
15.0
 40
16.0
 40
16.0
 40
16.0
 40
17.0
 40
17.0
 40
17.0
 40
18.0
 40
18.0
 40
18.0
 40
19.0
 40
19.0
 40
19.0
 40
20.0
 40
20.0
 40
20.0
 40
21.0
 40
21.0
 40
21.0
 40
22.0
 40
22.0
 40
22.0
 40
23.0
 40
23.0
 40
23.0
 40
24.0
 40
24.0
 40
24.0
 40
25.0
 40
25.0
 40
25.0
 40
26.0
 40
26.0
 40
26.0
 40
27.0
 40
27.0
 40
27.0
 40
28.0
 40
28.0
 40
28.0
 40
29.0
 40
29.0
 40
29.0
 40
30.0
 40
30.0
 40
30.0
 40
31.0
 40
31.0
 40
31.0
 40
32.0
 40
32.0
 40
32.0
 40
33.0
 40
33.0
 40
33.0
 40
34.0
 40
34.0
 40
34.0
 40
35.0
 40
35.0
 40
35.0
 40
36.0
 40
36.0
 40
36.0
 40
37.0
 40
37.0
 40
37.0
 40
38.0
 40
38.0
 40
38.0
 40
39.0
 40
39.0
 40
39.0
 40
40.0
 40
40.0
 40
40.0
 40
41.0
 40
41.0
 40
41.0
 40
42.0
 40
42.0
 40
42.0
 40
43.0
 40
43.0
 40
43.0
 40
44.0
 40
44.0
 40
44.0
 40
45.0
 40
45.0
 40
45.0
 40
46.0
 40
46.0
 40
46.0
 40
47.0
 40
47.0
 40
47.0
 40
48.0
 40
48.0
 40
48.0
 40
49.0
 40
49.0
 40
49.0
 40
50.0
 40
50.0
 40
50.0
 40
51.0
 40
51.0
 40
51.0
 40
52.0
 40
52.0
 40
52.0
 40
53.0
 40
53.0
 40
53.0
 40
54.0
 40
54.0
 40
54.0
 40
55.0
 40
55.0
 40
55.0
 40
56.0
 40
56.0
 40
56.0
 40
57.0
 40
57.0
 40
57.0
 40
58.0
 40
58.0
 40
58.0
 40
59.0
 40
59.0
 40
59.0
 40
60.0
 40
60.0
 40
60.0
 40
61.0
 40
61.0
 40
61.0
 40
62.0
 40
62.0
 40
62.0
 40
63.0
 40
63.0
 40
63.0
 40
64.0
 40
64.0
 40
64.0
 40
65.0
 40
65.0
 40
65.0
 40
66.0
 40
66.0
 40
66.0
 40
67.0
 40
67.0
 40
67.0
 40
68.0
 40
68.0
 40
68.0
 40
69.0
 40
69.0
 40
69.0
 40
70.0
 40
70.0
 40
70.0
 40
71.0
 40
71.0
 40
71.0
 40
72.0
 40
72.0
 40
72.0
 40
73.0
 40
73.0
 40
73.0
 40
74.0
 40
74.0
 40
74.0
 40
75.0
 40
75.0
 40
75.0
 40
76.0
 40
76.0
 40
76.0
 40
77.0
 40
77.0
 40
77.0
 40
78.0
 40
78.0
 40
78.0
 40
79.0
 40
79.0
 40
79.0
 40
79.0
 10
105.0016872567357
 20
-150.3983994849698
 30
0.0
 10
105.0016872567357
 20
-150.3983994849698
 30
0.0
 10
104.7477837194727
 20
-150.3983994849698
 30
0.0
 10
104.7477837194727
 20
-150.3983994849698
 30
0.0
 10
104.7477837194727
 20
-150.3983994849698
 30
0.0
 10
104.4706257876844
 20
-150.3983994849698
 30
0.0
 10
104.4706257876844
 20
-150.3983994849698
 30
0.0
 10
104.4706257876844
 20
-150.3983994849698
 30
0.0
 10
104.5975775563159
 20
-150.4407741594384
 30
0.0
 10
104.5975775563159
 20
-150.4407741594384
 30
0.0
 10
104.6080850975459
 20
-150.4452527835692
 30
0.0
 10
104.6208319508413
 20
-150.4514539554427
 30
0.0
 10
104.6208319508413
 20
-150.4642008087381
 30
0.0
 10
104.6208319508413
 20
-150.4852158911981
 30
0.0
 10
104.589137072377
 20
-150.4917615726201
 30
0.0
 10
104.5679497351427
 20
-150.4958956872024
 30
0.0
 10
104.5574421939127
 20
-150.5189778269536
 30
0.0
 10
104.5278143727396
 20
-150.5847791507218
 30
0.0
 10
104.5086940927964
 20
-150.6292208824816
 30
0.0
 10
104.5086940927964
 20
-150.6292208824816
 30
0.0
 10
104.7794785979371
 20
-150.6292208824816
 30
0.0
 10
104.7794785979371
 20
-150.6292208824816
 30
0.0
 10
104.8704291187477
 20
-150.6292208824816
 30
0.0
 10
105.0671440709554
 20
-150.6247422583508
 30
0.0
 10
105.2089097501734
 20
-150.6164740291862
 30
0.0
 10
105.2089097501734
 20
-150.6164740291862
 30
0.0
 10
105.2089097501734
 20
-150.794240956225
 30
0.0
 10
105.2089097501734
 20
-150.794240956225
 30
0.0
 10
105.1263997133017
 20
-150.7897623320942
 30
0.0
 10
105.1052123760674
 20
-150.7897623320942
 30
0.0
 10
104.9253783917374
 20
-150.7856282175119
 30
0.0
 10
104.8936835132731
 20
-150.9399684952511
 30
0.0
 10
104.8492417815134
 20
-151.0205837296059
 30
0.0
 10
104.8048000497536
 20
-151.090174658408
 30
0.0
 10
104.9253783917374
 20
-151.1494303007543
 30
0.0
 10
105.0313150779088
 20
-151.2172986818137
 30
0.0
 10
105.1348401972406
 20
-151.2996364639112
 30
0.0
 10
105.1348401972406
 20
-151.2996364639112
 30
0.0
 10
105.0165011673223
 20
-151.4667235949458
 30
0.0
 10
105.0165011673223
 20
-151.4667235949458
 30
0.0
 10
104.9932467727968
 20
-151.4477755697769
 30
0.0
 10
104.9804999195014
 20
-151.4395073406123
 30
0.0
 10
104.8683620614565
 20
-151.3547579916752
 30
0.0
 10
104.8196139603402
 20
-151.3165174317889
 30
0.0
 10
104.7605305727682
 20
-151.2806884387423
 30
0.0
 10
104.6800875931876
 20
-151.2362467069826
 30
0.0
 10
104.4685587303933
 20
-151.4226263727346
 30
0.0
 10
104.2632310394724
 20
-151.4457085124858
 30
0.0
 10
103.9734985091629
 20
-151.4753363336589
 30
0.0
 10
103.9734985091629
 20
-151.4753363336589
 30
0.0
 10
103.8698011350568
 20
-151.2955023493289
 30
0.0
 10
103.8698011350568
 20
-151.2955023493289
 30
0.0
 10
104.1870944292484
 20
-151.2913682347466
 30
0.0
 10
104.3627942989961
 20
-151.2658745281557
 30
0.0
 10
104.5150675194441
 20
-151.1559759821763
 30
0.0
 10
104.3965562347515
 20
-151.1049885689946
 30
0.0
 10
104.3076727712321
 20
-151.0777723146611
 30
0.0
 10
104.2718437781855
 20
-151.0650254613657
 30
0.0
 10
104.2527234982423
 20
-151.0925862252477
 30
0.0
 10
104.2379095876558
 20
-151.1115342504165
 30
0.0
 10
104.2103488237738
 20
-151.145296186172
 30
0.0
 10
104.2103488237738
 20
-151.145296186172
 30
0.0
 10
104.013633871566
 20
-151.0629584040745
 30
0.0
 10
104.013633871566
 20
-151.0629584040745
 30
0.0
 10
104.0961439084377
 20
-150.9823431697197
 30
0.0
 10
104.1574666080752
 20
-150.8872585343268
 30
0.0
 10
104.2146551931304
 20
-150.7856282175119
 30
0.0
 10
104.0243136675703
 20
-150.7897623320942
 30
0.0
 10
104.003126330336
 20
-150.7897623320942
 30
0.0
 10
103.9206162934643
 20
-150.794240956225
 30
0.0
 10
103.9206162934643
 20
-150.794240956225
 30
0.0
 10
103.9206162934643
 20
-150.6164740291862
 30
0.0
 10
103.9206162934643
 20
-150.6164740291862
 30
0.0
 10
104.0601426606169
 20
-150.6226752010596
 30
0.0
 10
104.2696044661201
 20
-150.6271538251904
 30
0.0
 10
104.2950981727109
 20
-150.6271538251904
 30
0.0
 10
104.3119791405886
 20
-150.5930473798864
 30
0.0
 10
104.3669284135784
 20
-150.4724690379027
 30
0.0
 10
104.3860486935215
 20
-150.3983994849698
 30
0.0
 10
104.3669284135784
 20
-150.3983994849698
 30
0.0
 10
104.1893337413138
 20
-150.4049451663918
 30
0.0
 10
103.9946858463971
 20
-150.4176920196872
 30
0.0
 10
103.9946858463971
 20
-150.4176920196872
 30
0.0
 10
103.9946858463971
 20
-150.5510172149664
 30
0.0
 10
103.9946858463971
 20
-150.5510172149664
 30
0.0
 10
103.9459377452809
 20
-150.5761664120087
 30
0.0
 10
103.8866821029346
 20
-150.607861290473
 30
0.0
 10
103.7535291624297
 20
-150.6736626142413
 30
0.0
 10
103.7535291624297
 20
-150.6736626142413
 30
0.0
 10
103.7535291624297
 20
-150.8193901532674
 30
0.0
 10
103.7535291624297
 20
-150.8193901532674
 30
0.0
 10
103.7535291624297
 20
-150.8193901532674
 30
0.0
 10
103.7535291624297
 20
-151.2872341201643
 30
0.0
 10
103.7535291624297
 20
-151.2872341201643
 30
0.0
 10
103.7535291624297
 20
-151.4140136340215
 30
0.0
 10
103.7175279146088
 20
-151.4732692763678
 30
0.0
 10
103.4339965561727
 20
-151.4646565376547
 30
0.0
 10
103.4339965561727
 20
-151.4646565376547
 30
0.0
 10
103.3302991820667
 20
-151.2576062989911
 30
0.0
 10
103.3302991820667
 20
-151.2576062989911
 30
0.0
 10
103.3938611937696
 20
-151.270008642738
 30
0.0
 10
103.4424370401116
 20
-151.2744872668688
 30
0.0
 10
103.482744657289
 20
-151.2744872668688
 30
0.0
 10
103.558881267513
 20
-151.2744872668688
 30
0.0
 10
103.569388808743
 20
-151.2510606175692
 30
0.0
 10
103.569388808743
 20
-151.1856038033494
 30
0.0
 10
103.569388808743
 20
-151.1856038033494
 30
0.0
 10
103.569388808743
 20
-150.7560003963388
 30
0.0
 10
103.569388808743
 20
-150.7560003963388
 30
0.0
 10
103.4720648612847
 20
-150.7963080135162
 30
0.0
 10
103.455183893407
 20
-150.8025091853896
 30
0.0
 10
103.4086751043561
 20
-150.821801720107
 30
0.0
 10
103.4043687349996
 20
-150.8428168025671
 30
0.0
 10
103.4002346204173
 20
-150.8724446237402
 30
0.0
 10
103.3811143404741
 20
-150.8724446237402
 30
0.0
 10
103.3726738565353
 20
-150.8724446237402
 30
0.0
 10
103.3621663153053
 20
-150.8683105091579
 30
0.0
 10
103.3557928886576
 20
-150.8448838598582
 30
0.0
 10
103.3557928886576
 20
-150.8448838598582
 30
0.0
 10
103.302910672959
 20
-150.6523030222327
 30
0.0
 10
103.302910672959
 20
-150.6523030222327
 30
0.0
 10
103.4488104667593
 20
-150.6057942331818
 30
0.0
 10
103.5144395357533
 20
-150.5827120934307
 30
0.0
 10
103.569388808743
 20
-150.5613525014221
 30
0.0
 10
103.569388808743
 20
-150.5613525014221
 30
0.0
 10
103.569388808743
 20
-150.1489745718377
 30
0.0
 10
103.569388808743
 20
-150.1489745718377
 30
0.0
 10
103.569388808743
 20
-150.1489745718377
 30
0.0
 10
103.5165065930444
 20
-150.1489745718377
 30
0.0
 10
103.5165065930444
 20
-150.1489745718377
 30
0.0
 10
103.5165065930444
 20
-150.1489745718377
 30
0.0
 10
103.4383029255293
 20
-150.1489745718377
 30
0.0
 10
103.4383029255293
 20
-150.1489745718377
 30
0.0
 10
103.3706067992441
 20
-150.1489745718377
 30
0.0
 10
103.3621663153053
 20
-150.1489745718377
 30
0.0
 10
103.3261650674844
 20
-150.1551757437112
 30
0.0
 10
103.3261650674844
 20
-150.1551757437112
 30
0.0
 10
103.3261650674844
 20
-149.9605278487946
 30
0.0
 10
103.3261650674844
 20
-149.9605278487946
 30
0.0
 10
103.3537258313664
 20
-149.9670735302165
 30
0.0
 10
103.3621663153053
 20
-149.9670735302165
 30
0.0
 10
103.4319294988816
 20
-149.9670735302165
 30
0.0
 10
103.4319294988816
 20
-149.9670735302165
 30
0.0
 10
103.5652546941608
 20
-149.9670735302165
 30
0.0
 10
103.5652546941608
 20
-149.9670735302165
 30
0.0
 10
103.5652546941608
 20
-149.897138091866
 30
0.0
 10
103.5652546941608
 20
-149.8148003097685
 30
0.0
 10
103.5630153820953
 20
-149.8103216856377
 30
0.0
 10
103.5545748981565
 20
-149.6304877013076
 30
0.0
 10
103.5545748981565
 20
-149.6115396761388
 30
0.0
 10
103.5525078408653
 20
-149.5650308870879
 30
0.0
 10
103.5525078408653
 20
-149.5650308870879
 30
0.0
 10
103.7683430730162
 20
-149.573643625801
 30
0.0
 10
103.7683430730162
 20
-149.573643625801
 30
0.0
 10
103.7788506142462
 20
-149.573643625801
 30
0.0
 10
103.8000379514805
 20
-149.5757106830922
 30
0.0
 10
103.8000379514805
 20
-149.5925916509699
 30
0.0
 10
103.8000379514805
 20
-149.6115396761388
 30
0.0
 10
103.785224040894
 20
-149.622219472143
 30
0.0
 10
103.7599025890774
 20
-149.6411674973119
 30
0.0
 10
103.7599025890774
 20
-149.6918104009451
 30
0.0
 10
103.7535291624297
 20
-149.9205647411657
 30
0.0
 10
103.7555962197208
 20
-149.9670735302165
 30
0.0
 10
103.8846150456434
 20
-149.9670735302165
 30
0.0
 10
103.8973618989388
 20
-149.9670735302165
 30
0.0
 10
103.9946858463971
 20
-149.9584607915034
 30
0.0
 10
103.9946858463971
 20
-149.9584607915034
 30
0.0
 10
103.9946858463971
 20
-150.15310868642
 30
0.0
 10
103.9946858463971
 20
-150.15310868642
 30
0.0
 10
103.9566175412851
 20
-150.1510416291289
 30
0.0
 10
103.888921415
 20
-150.1469075145466
 30
0.0
 10
103.7535291624297
 20
-150.1489745718377
 30
0.0
 10
103.7535291624297
 20
-150.1489745718377
 30
0.0
 10
103.7535291624297
 20
-150.4872829484893
 30
0.0
 10
103.7535291624297
 20
-150.4872829484893
 30
0.0
 10
103.8084784354194
 20
-150.4642008087381
 30
0.0
 10
103.8741075044134
 20
-150.4366400448561
 30
0.0
 10
103.9226833507554
 20
-150.4132133955564
 30
0.0
 10
103.9226833507554
 20
-150.4132133955564
 30
0.0
 10
103.9226833507554
 20
-150.235790978066
 30
0.0
 10
103.9226833507554
 20
-150.235790978066
 30
0.0
 10
104.0368882660914
 20
-150.2481933218129
 30
0.0
 10
104.1553995507841
 20
-150.2481933218129
 30
0.0
 10
104.2718437781855
 20
-150.2481933218129
 30
0.0
 10
104.2484171288858
 20
-150.15310868642
 30
0.0
 10
104.2210286197781
 20
-150.0707709043226
 30
0.0
 10
104.1574666080752
 20
-149.9374457090434
 30
0.0
 10
104.1130248763155
 20
-149.9395127663345
 30
0.0
 10
104.030687094218
 20
-149.9436468809169
 30
0.0
 10
103.9924465343317
 20
-149.945713938208
 30
0.0
 10
103.9924465343317
 20
-149.945713938208
 30
0.0
 10
103.9924465343317
 20
-149.765879953878
 30
0.0
 10
103.9924465343317
 20
-149.765879953878
 30
0.0
 10
104.117331245672
 20
-149.7744926925911
 30
0.0
 10
104.2907918033544
 20
-149.7786268071734
 30
0.0
 10
104.3733018402261
 20
-149.7786268071734
 30
0.0
 10
104.3733018402261
 20
-149.7786268071734
 30
0.0
 10
104.4558118770978
 20
-149.7786268071734
 30
0.0
 10
104.4558118770978
 20
-149.7786268071734
 30
0.0
 10
104.4558118770978
 20
-149.615673790721
 30
0.0
 10
104.4558118770978
 20
-149.6053385042653
 30
0.0
 10
104.4537448198067
 20
-149.5502169765013
 30
0.0
 10
104.4537448198067
 20
-149.5502169765013
 30
0.0
 10
104.6780205358964
 20
-149.5757106830922
 30
0.0
 10
104.6780205358964
 20
-149.5757106830922
 30
0.0
 10
104.6821546504787
 20
-149.5757106830922
 30
0.0
 10
104.703341987713
 20
-149.5777777403833
 30
0.0
 10
104.703341987713
 20
-149.594658708261
 30
0.0
 10
104.703341987713
 20
-149.6094726188476
 30
0.0
 10
104.692834446483
 20
-149.6180853575608
 30
0.0
 10
104.665273682601
 20
-149.6328992681473
 30
0.0
 10
104.6589002559533
 20
-149.6983560823671
 30
0.0
 10
104.6568331986622
 20
-149.7193711648271
 30
0.0
 10
104.6568331986622
 20
-149.7786268071734
 30
0.0
 10
104.6568331986622
 20
-149.7786268071734
 30
0.0
 10
104.7519178340551
 20
-149.7786268071734
 30
0.0
 10
104.7519178340551
 20
-149.7786268071734
 30
0.0
 10
104.8344278709268
 20
-149.7786268071734
 30
0.0
 10
105.0078884286091
 20
-149.7744926925911
 30
0.0
 10
105.1327731399494
 20
-149.765879953878
 30
0.0
 10
105.1327731399494
 20
-149.765879953878
 30
0.0
 10
105.1327731399494
 20
-149.945713938208
 30
0.0
 10
105.1327731399494
 20
-149.945713938208
 30
0.0
 10
105.1031453187763
 20
-149.9436468809169
 30
0.0
 10
104.9846340340837
 20
-149.9395127663345
 30
0.0
 10
104.9444986716805
 20
-149.9374457090434
 30
0.0
 10
104.9296847610939
 20
-149.9880886126766
 30
0.0
 10
104.8959228253385
 20
-150.1003987254957
 30
0.0
 10
104.8302937563445
 20
-150.2399250926483
 30
0.0
 10
104.8724961760388
 20
-150.2399250926483
 30
0.0
 10
105.1496541078271
 20
-150.2209770674794
 30
0.0
 10
105.2109768074646
 20
-150.2185655006398
 30
0.0
 10
105.2109768074646
 20
-150.2185655006398
 30
0.0
 10
105.2109768074646
 20
-150.4028781091006
 30
0.0
 10
105.2109768074646
 20
-150.4028781091006
 30
0.0
 10
105.1815212410657
 20
-150.4028781091006
 30
0.0
 10
105.1644680184137
 20
-150.3983994849698
 30
0.0
 10
105.0016872567357
 20
-150.3983994849698
 30
0.0
  0
HATCH
  5
F6
330
EF
100
AcDbEntity
  8
レイヤー 1
 62
    18
420
        0
440
 33554687
100
AcDbHatch
 10
0.0
 20
0.0
 30
0.0
210
0.0
220
0.0
230
1.0
  2
SOLID
 70
     1
 71
     1
 91
        3
 92
        1
 93
        1
 72
     4
 94
        3
 73
     0
 74
     0
 95
       17
 96
       13
 40
0.0
 40
0.0
 40
0.0
 40
0.0
 40
1.0
 40
1.0
 40
1.0
 40
2.0
 40
2.0
 40
2.0
 40
3.0
 40
3.0
 40
3.0
 40
4.0
 40
4.0
 40
4.0
 40
4.0
 10
104.436863851929
 20
-150.7835611602208
 10
104.419810629277
 20
-150.8131889813939
 10
104.3691677256438
 20
-150.9062065594956
 10
104.3584879296395
 20
-150.9251545846645
 10
104.5488294551996
 20
-150.9844102270108
 10
104.5700167924339
 20
-150.9909559084328
 10
104.6420192880756
 20
-151.0185166723148
 10
104.6969685610653
 20
-150.9317002660865
 10
104.7202229555908
 20
-150.8576307131536
 10
104.7350368661773
 20
-150.7835611602208
 10
104.7350368661773
 20
-150.7835611602208
 10
104.436863851929
 20
-150.7835611602208
 10
104.436863851929
 20
-150.7835611602208
 97
        0
 97
        1
330
F3
 92
        1
 93
        1
 72
     4
 94
        3
 73
     0
 74
     0
 95
       20
 96
       16
 40
0.0
 40
0.0
 40
0.0
 40
0.0
 40
1.0
 40
1.0
 40
1.0
 40
2.0
 40
2.0
 40
2.0
 40
3.0
 40
3.0
 40
3.0
 40
4.0
 40
4.0
 40
4.0
 40
5.0
 40
5.0
 40
5.0
 40
5.0
 10
104.3733018402261
 20
-149.9333115944611
 10
104.3733018402261
 20
-149.9333115944611
 10
104.3416069617618
 20
-149.9333115944611
 10
104.3416069617618
 20
-149.9333115944611
 10
104.3881157508127
 20
-150.0325303444363
 10
104.419810629277
 20
-150.1128010692426
 10
104.4537448198067
 20
-150.2399250926483
 10
104.4537448198067
 20
-150.2399250926483
 10
104.6609673132445
 20
-150.2399250926483
 10
104.6609673132445
 20
-150.2399250926483
 10
104.692834446483
 20
-150.1469075145466
 10
104.7160888410085
 20
-150.0621581656095
 10
104.7393432355339
 20
-149.9333115944611
 10
104.7393432355339
 20
-149.9333115944611
 10
104.3733018402261
 20
-149.9333115944611
 10
104.3733018402261
 20
-149.9333115944611
 97
        0
 97
        1
330
F4
 92
        1
 93
        1
 72
     4
 94
        3
 73
     0
 74
     0
 95
      242
 96
      238
 40
0.0
 40
0.0
 40
0.0
 40
0.0
 40
1.0
 40
1.0
 40
1.0
 40
2.0
 40
2.0
 40
2.0
 40
3.0
 40
3.0
 40
3.0
 40
4.0
 40
4.0
 40
4.0
 40
5.0
 40
5.0
 40
5.0
 40
6.0
 40
6.0
 40
6.0
 40
7.0
 40
7.0
 40
7.0
 40
8.0
 40
8.0
 40
8.0
 40
9.0
 40
9.0
 40
9.0
 40
10.0
 40
10.0
 40
10.0
 40
11.0
 40
11.0
 40
11.0
 40
12.0
 40
12.0
 40
12.0
 40
13.0
 40
13.0
 40
13.0
 40
14.0
 40
14.0
 40
14.0
 40
15.0
 40
15.0
 40
15.0
 40
16.0
 40
16.0
 40
16.0
 40
17.0
 40
17.0
 40
17.0
 40
18.0
 40
18.0
 40
18.0
 40
19.0
 40
19.0
 40
19.0
 40
20.0
 40
20.0
 40
20.0
 40
21.0
 40
21.0
 40
21.0
 40
22.0
 40
22.0
 40
22.0
 40
23.0
 40
23.0
 40
23.0
 40
24.0
 40
24.0
 40
24.0
 40
25.0
 40
25.0
 40
25.0
 40
26.0
 40
26.0
 40
26.0
 40
27.0
 40
27.0
 40
27.0
 40
28.0
 40
28.0
 40
28.0
 40
29.0
 40
29.0
 40
29.0
 40
30.0
 40
30.0
 40
30.0
 40
31.0
 40
31.0
 40
31.0
 40
32.0
 40
32.0
 40
32.0
 40
33.0
 40
33.0
 40
33.0
 40
34.0
 40
34.0
 40
34.0
 40
35.0
 40
35.0
 40
35.0
 40
36.0
 40
36.0
 40
36.0
 40
37.0
 40
37.0
 40
37.0
 40
38.0
 40
38.0
 40
38.0
 40
39.0
 40
39.0
 40
39.0
 40
40.0
 40
40.0
 40
40.0
 40
41.0
 40
41.0
 40
41.0
 40
42.0
 40
42.0
 40
42.0
 40
43.0
 40
43.0
 40
43.0
 40
44.0
 40
44.0
 40
44.0
 40
45.0
 40
45.0
 40
45.0
 40
46.0
 40
46.0
 40
46.0
 40
47.0
 40
47.0
 40
47.0
 40
48.0
 40
48.0
 40
48.0
 40
49.0
 40
49.0
 40
49.0
 40
50.0
 40
50.0
 40
50.0
 40
51.0
 40
51.0
 40
51.0
 40
52.0
 40
52.0
 40
52.0
 40
53.0
 40
53.0
 40
53.0
 40
54.0
 40
54.0
 40
54.0
 40
55.0
 40
55.0
 40
55.0
 40
56.0
 40
56.0
 40
56.0
 40
57.0
 40
57.0
 40
57.0
 40
58.0
 40
58.0
 40
58.0
 40
59.0
 40
59.0
 40
59.0
 40
60.0
 40
60.0
 40
60.0
 40
61.0
 40
61.0
 40
61.0
 40
62.0
 40
62.0
 40
62.0
 40
63.0
 40
63.0
 40
63.0
 40
64.0
 40
64.0
 40
64.0
 40
65.0
 40
65.0
 40
65.0
 40
66.0
 40
66.0
 40
66.0
 40
67.0
 40
67.0
 40
67.0
 40
68.0
 40
68.0
 40
68.0
 40
69.0
 40
69.0
 40
69.0
 40
70.0
 40
70.0
 40
70.0
 40
71.0
 40
71.0
 40
71.0
 40
72.0
 40
72.0
 40
72.0
 40
73.0
 40
73.0
 40
73.0
 40
74.0
 40
74.0
 40
74.0
 40
75.0
 40
75.0
 40
75.0
 40
76.0
 40
76.0
 40
76.0
 40
77.0
 40
77.0
 40
77.0
 40
78.0
 40
78.0
 40
78.0
 40
79.0
 40
79.0
 40
79.0
 40
79.0
 10
105.0016872567357
 20
-150.3983994849698
 10
105.0016872567357
 20
-150.3983994849698
 10
104.7477837194727
 20
-150.3983994849698
 10
104.7477837194727
 20
-150.3983994849698
 10
104.7477837194727
 20
-150.3983994849698
 10
104.4706257876844
 20
-150.3983994849698
 10
104.4706257876844
 20
-150.3983994849698
 10
104.4706257876844
 20
-150.3983994849698
 10
104.5975775563159
 20
-150.4407741594384
 10
104.5975775563159
 20
-150.4407741594384
 10
104.6080850975459
 20
-150.4452527835692
 10
104.6208319508413
 20
-150.4514539554427
 10
104.6208319508413
 20
-150.4642008087381
 10
104.6208319508413
 20
-150.4852158911981
 10
104.589137072377
 20
-150.4917615726201
 10
104.5679497351427
 20
-150.4958956872024
 10
104.5574421939127
 20
-150.5189778269536
 10
104.5278143727396
 20
-150.5847791507218
 10
104.5086940927964
 20
-150.6292208824816
 10
104.5086940927964
 20
-150.6292208824816
 10
104.7794785979371
 20
-150.6292208824816
 10
104.7794785979371
 20
-150.6292208824816
 10
104.8704291187477
 20
-150.6292208824816
 10
105.0671440709554
 20
-150.6247422583508
 10
105.2089097501734
 20
-150.6164740291862
 10
105.2089097501734
 20
-150.6164740291862
 10
105.2089097501734
 20
-150.794240956225
 10
105.2089097501734
 20
-150.794240956225
 10
105.1263997133017
 20
-150.7897623320942
 10
105.1052123760674
 20
-150.7897623320942
 10
104.9253783917374
 20
-150.7856282175119
 10
104.8936835132731
 20
-150.9399684952511
 10
104.8492417815134
 20
-151.0205837296059
 10
104.8048000497536
 20
-151.090174658408
 10
104.9253783917374
 20
-151.1494303007543
 10
105.0313150779088
 20
-151.2172986818137
 10
105.1348401972406
 20
-151.2996364639112
 10
105.1348401972406
 20
-151.2996364639112
 10
105.0165011673223
 20
-151.4667235949458
 10
105.0165011673223
 20
-151.4667235949458
 10
104.9932467727968
 20
-151.4477755697769
 10
104.9804999195014
 20
-151.4395073406123
 10
104.8683620614565
 20
-151.3547579916752
 10
104.8196139603402
 20
-151.3165174317889
 10
104.7605305727682
 20
-151.2806884387423
 10
104.6800875931876
 20
-151.2362467069826
 10
104.4685587303933
 20
-151.4226263727346
 10
104.2632310394724
 20
-151.4457085124858
 10
103.9734985091629
 20
-151.4753363336589
 10
103.9734985091629
 20
-151.4753363336589
 10
103.8698011350568
 20
-151.2955023493289
 10
103.8698011350568
 20
-151.2955023493289
 10
104.1870944292484
 20
-151.2913682347466
 10
104.3627942989961
 20
-151.2658745281557
 10
104.5150675194441
 20
-151.1559759821763
 10
104.3965562347515
 20
-151.1049885689946
 10
104.3076727712321
 20
-151.0777723146611
 10
104.2718437781855
 20
-151.0650254613657
 10
104.2527234982423
 20
-151.0925862252477
 10
104.2379095876558
 20
-151.1115342504165
 10
104.2103488237738
 20
-151.145296186172
 10
104.2103488237738
 20
-151.145296186172
 10
104.013633871566
 20
-151.0629584040745
 10
104.013633871566
 20
-151.0629584040745
 10
104.0961439084377
 20
-150.9823431697197
 10
104.1574666080752
 20
-150.8872585343268
 10
104.2146551931304
 20
-150.7856282175119
 10
104.0243136675703
 20
-150.7897623320942
 10
104.003126330336
 20
-150.7897623320942
 10
103.9206162934643
 20
-150.794240956225
 10
103.9206162934643
 20
-150.794240956225
 10
103.9206162934643
 20
-150.6164740291862
 10
103.9206162934643
 20
-150.6164740291862
 10
104.0601426606169
 20
-150.6226752010596
 10
104.2696044661201
 20
-150.6271538251904
 10
104.2950981727109
 20
-150.6271538251904
 10
104.3119791405886
 20
-150.5930473798864
 10
104.3669284135784
 20
-150.4724690379027
 10
104.3860486935215
 20
-150.3983994849698
 10
104.3669284135784
 20
-150.3983994849698
 10
104.1893337413138
 20
-150.4049451663918
 10
103.9946858463971
 20
-150.4176920196872
 10
103.9946858463971
 20
-150.4176920196872
 10
103.9946858463971
 20
-150.5510172149664
 10
103.9946858463971
 20
-150.5510172149664
 10
103.9459377452809
 20
-150.5761664120087
 10
103.8866821029346
 20
-150.607861290473
 10
103.7535291624297
 20
-150.6736626142413
 10
103.7535291624297
 20
-150.6736626142413
 10
103.7535291624297
 20
-150.8193901532674
 10
103.7535291624297
 20
-150.8193901532674
 10
103.7535291624297
 20
-150.8193901532674
 10
103.7535291624297
 20
-151.2872341201643
 10
103.7535291624297
 20
-151.2872341201643
 10
103.7535291624297
 20
-151.4140136340215
 10
103.7175279146088
 20
-151.4732692763678
 10
103.4339965561727
 20
-151.4646565376547
 10
103.4339965561727
 20
-151.4646565376547
 10
103.3302991820667
 20
-151.2576062989911
 10
103.3302991820667
 20
-151.2576062989911
 10
103.3938611937696
 20
-151.270008642738
 10
103.4424370401116
 20
-151.2744872668688
 10
103.482744657289
 20
-151.2744872668688
 10
103.558881267513
 20
-151.2744872668688
 10
103.569388808743
 20
-151.2510606175692
 10
103.569388808743
 20
-151.1856038033494
 10
103.569388808743
 20
-151.1856038033494
 10
103.569388808743
 20
-150.7560003963388
 10
103.569388808743
 20
-150.7560003963388
 10
103.4720648612847
 20
-150.7963080135162
 10
103.455183893407
 20
-150.8025091853896
 10
103.4086751043561
 20
-150.821801720107
 10
103.4043687349996
 20
-150.8428168025671
 10
103.4002346204173
 20
-150.8724446237402
 10
103.3811143404741
 20
-150.8724446237402
 10
103.3726738565353
 20
-150.8724446237402
 10
103.3621663153053
 20
-150.8683105091579
 10
103.3557928886576
 20
-150.8448838598582
 10
103.3557928886576
 20
-150.8448838598582
 10
103.302910672959
 20
-150.6523030222327
 10
103.302910672959
 20
-150.6523030222327
 10
103.4488104667593
 20
-150.6057942331818
 10
103.5144395357533
 20
-150.5827120934307
 10
103.569388808743
 20
-150.5613525014221
 10
103.569388808743
 20
-150.5613525014221
 10
103.569388808743
 20
-150.1489745718377
 10
103.569388808743
 20
-150.1489745718377
 10
103.569388808743
 20
-150.1489745718377
 10
103.5165065930444
 20
-150.1489745718377
 10
103.5165065930444
 20
-150.1489745718377
 10
103.5165065930444
 20
-150.1489745718377
 10
103.4383029255293
 20
-150.1489745718377
 10
103.4383029255293
 20
-150.1489745718377
 10
103.3706067992441
 20
-150.1489745718377
 10
103.3621663153053
 20
-150.1489745718377
 10
103.3261650674844
 20
-150.1551757437112
 10
103.3261650674844
 20
-150.1551757437112
 10
103.3261650674844
 20
-149.9605278487946
 10
103.3261650674844
 20
-149.9605278487946
 10
103.3537258313664
 20
-149.9670735302165
 10
103.3621663153053
 20
-149.9670735302165
 10
103.4319294988816
 20
-149.9670735302165
 10
103.4319294988816
 20
-149.9670735302165
 10
103.5652546941608
 20
-149.9670735302165
 10
103.5652546941608
 20
-149.9670735302165
 10
103.5652546941608
 20
-149.897138091866
 10
103.5652546941608
 20
-149.8148003097685
 10
103.5630153820953
 20
-149.8103216856377
 10
103.5545748981565
 20
-149.6304877013076
 10
103.5545748981565
 20
-149.6115396761388
 10
103.5525078408653
 20
-149.5650308870879
 10
103.5525078408653
 20
-149.5650308870879
 10
103.7683430730162
 20
-149.573643625801
 10
103.7683430730162
 20
-149.573643625801
 10
103.7788506142462
 20
-149.573643625801
 10
103.8000379514805
 20
-149.5757106830922
 10
103.8000379514805
 20
-149.5925916509699
 10
103.8000379514805
 20
-149.6115396761388
 10
103.785224040894
 20
-149.622219472143
 10
103.7599025890774
 20
-149.6411674973119
 10
103.7599025890774
 20
-149.6918104009451
 10
103.7535291624297
 20
-149.9205647411657
 10
103.7555962197208
 20
-149.9670735302165
 10
103.8846150456434
 20
-149.9670735302165
 10
103.8973618989388
 20
-149.9670735302165
 10
103.9946858463971
 20
-149.9584607915034
 10
103.9946858463971
 20
-149.9584607915034
 10
103.9946858463971
 20
-150.15310868642
 10
103.9946858463971
 20
-150.15310868642
 10
103.9566175412851
 20
-150.1510416291289
 10
103.888921415
 20
-150.1469075145466
 10
103.7535291624297
 20
-150.1489745718377
 10
103.7535291624297
 20
-150.1489745718377
 10
103.7535291624297
 20
-150.4872829484893
 10
103.7535291624297
 20
-150.4872829484893
 10
103.8084784354194
 20
-150.4642008087381
 10
103.8741075044134
 20
-150.4366400448561
 10
103.9226833507554
 20
-150.4132133955564
 10
103.9226833507554
 20
-150.4132133955564
 10
103.9226833507554
 20
-150.235790978066
 10
103.9226833507554
 20
-150.235790978066
 10
104.0368882660914
 20
-150.2481933218129
 10
104.1553995507841
 20
-150.2481933218129
 10
104.2718437781855
 20
-150.2481933218129
 10
104.2484171288858
 20
-150.15310868642
 10
104.2210286197781
 20
-150.0707709043226
 10
104.1574666080752
 20
-149.9374457090434
 10
104.1130248763155
 20
-149.9395127663345
 10
104.030687094218
 20
-149.9436468809169
 10
103.9924465343317
 20
-149.945713938208
 10
103.9924465343317
 20
-149.945713938208
 10
103.9924465343317
 20
-149.765879953878
 10
103.9924465343317
 20
-149.765879953878
 10
104.117331245672
 20
-149.7744926925911
 10
104.2907918033544
 20
-149.7786268071734
 10
104.3733018402261
 20
-149.7786268071734
 10
104.3733018402261
 20
-149.7786268071734
 10
104.4558118770978
 20
-149.7786268071734
 10
104.4558118770978
 20
-149.7786268071734
 10
104.4558118770978
 20
-149.615673790721
 10
104.4558118770978
 20
-149.6053385042653
 10
104.4537448198067
 20
-149.5502169765013
 10
104.4537448198067
 20
-149.5502169765013
 10
104.6780205358964
 20
-149.5757106830922
 10
104.6780205358964
 20
-149.5757106830922
 10
104.6821546504787
 20
-149.5757106830922
 10
104.703341987713
 20
-149.5777777403833
 10
104.703341987713
 20
-149.594658708261
 10
104.703341987713
 20
-149.6094726188476
 10
104.692834446483
 20
-149.6180853575608
 10
104.665273682601
 20
-149.6328992681473
 10
104.6589002559533
 20
-149.6983560823671
 10
104.6568331986622
 20
-149.7193711648271
 10
104.6568331986622
 20
-149.7786268071734
 10
104.6568331986622
 20
-149.7786268071734
 10
104.7519178340551
 20
-149.7786268071734
 10
104.7519178340551
 20
-149.7786268071734
 10
104.8344278709268
 20
-149.7786268071734
 10
105.0078884286091
 20
-149.7744926925911
 10
105.1327731399494
 20
-149.765879953878
 10
105.1327731399494
 20
-149.765879953878
 10
105.1327731399494
 20
-149.945713938208
 10
105.1327731399494
 20
-149.945713938208
 10
105.1031453187763
 20
-149.9436468809169
 10
104.9846340340837
 20
-149.9395127663345
 10
104.9444986716805
 20
-149.9374457090434
 10
104.9296847610939
 20
-149.9880886126766
 10
104.8959228253385
 20
-150.1003987254957
 10
104.8302937563445
 20
-150.2399250926483
 10
104.8724961760388
 20
-150.2399250926483
 10
105.1496541078271
 20
-150.2209770674794
 10
105.2109768074646
 20
-150.2185655006398
 10
105.2109768074646
 20
-150.2185655006398
 10
105.2109768074646
 20
-150.4028781091006
 10
105.2109768074646
 20
-150.4028781091006
 10
105.1815212410657
 20
-150.4028781091006
 10
105.1644680184137
 20
-150.3983994849698
 10
105.0016872567357
 20
-150.3983994849698
 97
        0
 97
        1
330
F5
 75
     2
 76
     1
 98
        1
 10
0.0
 20
0.0
450
        0
451
        0
460
0.0
461
0.0
452
        0
462
0.0
453
        0
470

  0
SPLINE
  5
F7
330
EF
100
AcDbEntity
  8
レイヤー 1
100
AcDbSpline
210
0.0
220
0.0
230
1.0
 70
    11
 71
     3
 72
    17
 73
    13
 74
     0
 42
0.0000000001
 43
0.0000000001
 40
0.0
 40
0.0
 40
0.0
 40
0.0
 40
1.0
 40
1.0
 40
1.0
 40
2.0
 40
2.0
 40
2.0
 40
3.0
 40
3.0
 40
3.0
 40
4.0
 40
4.0
 40
4.0
 40
4.0
 10
106.8582492137368
 20
-151.1983506566448
 30
0.0
 10
106.8582492137368
 20
-151.1983506566448
 30
0.0
 10
106.1516601297121
 20
-151.1983506566448
 30
0.0
 10
106.1516601297121
 20
-151.1983506566448
 30
0.0
 10
106.1516601297121
 20
-151.1983506566448
 30
0.0
 10
106.1516601297121
 20
-151.3123833172066
 30
0.0
 10
106.1516601297121
 20
-151.3123833172066
 30
0.0
 10
106.1516601297121
 20
-151.3123833172066
 30
0.0
 10
106.8582492137368
 20
-151.3123833172066
 30
0.0
 10
106.8582492137368
 20
-151.3123833172066
 30
0.0
 10
106.8582492137368
 20
-151.3123833172066
 30
0.0
 10
106.8582492137368
 20
-151.1983506566448
 30
0.0
 10
106.8582492137368
 20
-151.1983506566448
 30
0.0
  0
SPLINE
  5
F8
330
EF
100
AcDbEntity
  8
レイヤー 1
100
AcDbSpline
210
0.0
220
0.0
230
1.0
 70
    11
 71
     3
 72
    17
 73
    13
 74
     0
 42
0.0000000001
 43
0.0000000001
 40
0.0
 40
0.0
 40
0.0
 40
0.0
 40
1.0
 40
1.0
 40
1.0
 40
2.0
 40
2.0
 40
2.0
 40
3.0
 40
3.0
 40
3.0
 40
4.0
 40
4.0
 40
4.0
 40
4.0
 10
106.8582492137368
 20
-150.9547824058377
 30
0.0
 10
106.8582492137368
 20
-150.9547824058377
 30
0.0
 10
106.1516601297121
 20
-150.9547824058377
 30
0.0
 10
106.1516601297121
 20
-150.9547824058377
 30
0.0
 10
106.1516601297121
 20
-150.9547824058377
 30
0.0
 10
106.1516601297121
 20
-151.069159575948
 30
0.0
 10
106.1516601297121
 20
-151.069159575948
 30
0.0
 10
106.1516601297121
 20
-151.069159575948
 30
0.0
 10
106.8582492137368
 20
-151.069159575948
 30
0.0
 10
106.8582492137368
 20
-151.069159575948
 30
0.0
 10
106.8582492137368
 20
-151.069159575948
 30
0.0
 10
106.8582492137368
 20
-150.9547824058377
 30
0.0
 10
106.8582492137368
 20
-150.9547824058377
 30
0.0
  0
SPLINE
  5
F9
330
EF
100
AcDbEntity
  8
レイヤー 1
100
AcDbSpline
210
0.0
220
0.0
230
1.0
 70
    11
 71
     3
 72
    17
 73
    13
 74
     0
 42
0.0000000001
 43
0.0000000001
 40
0.0
 40
0.0
 40
0.0
 40
0.0
 40
1.0
 40
1.0
 40
1.0
 40
2.0
 40
2.0
 40
2.0
 40
3.0
 40
3.0
 40
3.0
 40
4.0
 40
4.0
 40
4.0
 40
4.0
 10
106.8582492137368
 20
-150.7222384605833
 30
0.0
 10
106.8582492137368
 20
-150.7222384605833
 30
0.0
 10
106.1516601297121
 20
-150.7222384605833
 30
0.0
 10
106.1516601297121
 20
-150.7222384605833
 30
0.0
 10
106.1516601297121
 20
-150.7222384605833
 30
0.0
 10
106.1516601297121
 20
-150.8300699492716
 30
0.0
 10
106.1516601297121
 20
-150.8300699492716
 30
0.0
 10
106.1516601297121
 20
-150.8300699492716
 30
0.0
 10
106.8582492137368
 20
-150.8300699492716
 30
0.0
 10
106.8582492137368
 20
-150.8300699492716
 30
0.0
 10
106.8582492137368
 20
-150.8300699492716
 30
0.0
 10
106.8582492137368
 20
-150.7222384605833
 30
0.0
 10
106.8582492137368
 20
-150.7222384605833
 30
0.0
  0
SPLINE
  5
FA
330
EF
100
AcDbEntity
  8
レイヤー 1
100
AcDbSpline
210
0.0
220
0.0
230
1.0
 70
     9
 71
     3
 72
   203
 73
   199
 74
     0
 42
0.0000000001
 43
0.0000000001
 40
0.0
 40
0.0
 40
0.0
 40
0.0
 40
1.0
 40
1.0
 40
1.0
 40
2.0
 40
2.0
 40
2.0
 40
3.0
 40
3.0
 40
3.0
 40
4.0
 40
4.0
 40
4.0
 40
5.0
 40
5.0
 40
5.0
 40
6.0
 40
6.0
 40
6.0
 40
7.0
 40
7.0
 40
7.0
 40
8.0
 40
8.0
 40
8.0
 40
9.0
 40
9.0
 40
9.0
 40
10.0
 40
10.0
 40
10.0
 40
11.0
 40
11.0
 40
11.0
 40
12.0
 40
12.0
 40
12.0
 40
13.0
 40
13.0
 40
13.0
 40
14.0
 40
14.0
 40
14.0
 40
15.0
 40
15.0
 40
15.0
 40
16.0
 40
16.0
 40
16.0
 40
17.0
 40
17.0
 40
17.0
 40
18.0
 40
18.0
 40
18.0
 40
19.0
 40
19.0
 40
19.0
 40
20.0
 40
20.0
 40
20.0
 40
21.0
 40
21.0
 40
21.0
 40
22.0
 40
22.0
 40
22.0
 40
23.0
 40
23.0
 40
23.0
 40
24.0
 40
24.0
 40
24.0
 40
25.0
 40
25.0
 40
25.0
 40
26.0
 40
26.0
 40
26.0
 40
27.0
 40
27.0
 40
27.0
 40
28.0
 40
28.0
 40
28.0
 40
29.0
 40
29.0
 40
29.0
 40
30.0
 40
30.0
 40
30.0
 40
31.0
 40
31.0
 40
31.0
 40
32.0
 40
32.0
 40
32.0
 40
33.0
 40
33.0
 40
33.0
 40
34.0
 40
34.0
 40
34.0
 40
35.0
 40
35.0
 40
35.0
 40
36.0
 40
36.0
 40
36.0
 40
37.0
 40
37.0
 40
37.0
 40
38.0
 40
38.0
 40
38.0
 40
39.0
 40
39.0
 40
39.0
 40
40.0
 40
40.0
 40
40.0
 40
41.0
 40
41.0
 40
41.0
 40
42.0
 40
42.0
 40
42.0
 40
43.0
 40
43.0
 40
43.0
 40
44.0
 40
44.0
 40
44.0
 40
45.0
 40
45.0
 40
45.0
 40
46.0
 40
46.0
 40
46.0
 40
47.0
 40
47.0
 40
47.0
 40
48.0
 40
48.0
 40
48.0
 40
49.0
 40
49.0
 40
49.0
 40
50.0
 40
50.0
 40
50.0
 40
51.0
 40
51.0
 40
51.0
 40
52.0
 40
52.0
 40
52.0
 40
53.0
 40
53.0
 40
53.0
 40
54.0
 40
54.0
 40
54.0
 40
55.0
 40
55.0
 40
55.0
 40
56.0
 40
56.0
 40
56.0
 40
57.0
 40
57.0
 40
57.0
 40
58.0
 40
58.0
 40
58.0
 40
59.0
 40
59.0
 40
59.0
 40
60.0
 40
60.0
 40
60.0
 40
61.0
 40
61.0
 40
61.0
 40
62.0
 40
62.0
 40
62.0
 40
63.0
 40
63.0
 40
63.0
 40
64.0
 40
64.0
 40
64.0
 40
65.0
 40
65.0
 40
65.0
 40
66.0
 40
66.0
 40
66.0
 40
66.0
 10
106.6932291399933
 20
-150.4662678660293
 30
0.0
 10
106.6932291399933
 20
-150.4662678660293
 30
0.0
 10
106.1347791618343
 20
-150.4662678660293
 30
0.0
 10
106.1347791618343
 20
-150.4662678660293
 30
0.0
 10
106.1240993658301
 20
-150.510709597789
 30
0.0
 10
106.1154866271169
 20
-150.5424044762533
 30
0.0
 10
106.10308428337
 20
-150.5806450361395
 30
0.0
 10
106.1282334804124
 20
-150.5806450361395
 30
0.0
 10
106.1430473909989
 20
-150.5827120934307
 30
0.0
 10
106.1495930724209
 20
-150.5827120934307
 30
0.0
 10
106.1495930724209
 20
-150.5827120934307
 30
0.0
 10
106.3376952859156
 20
-150.5827120934307
 30
0.0
 10
106.3376952859156
 20
-150.5827120934307
 30
0.0
 10
106.3376952859156
 20
-150.5827120934307
 30
0.0
 10
106.7121771651622
 20
-150.5827120934307
 30
0.0
 10
106.7121771651622
 20
-150.5827120934307
 30
0.0
 10
106.7628200687954
 20
-150.5827120934307
 30
0.0
 10
107.0463514272314
 20
-150.5699652401353
 30
0.0
 10
107.0780463056957
 20
-150.5699652401353
 30
0.0
 10
107.0759792484046
 20
-150.5975260040172
 30
0.0
 10
107.0739121911134
 20
-150.6164740291862
 30
0.0
 10
107.0739121911134
 20
-150.6461018503593
 30
0.0
 10
107.0718451338223
 20
-150.6777967288236
 30
0.0
 10
107.0718451338223
 20
-150.8131889813939
 30
0.0
 10
107.0718451338223
 20
-150.8407497452759
 30
0.0
 10
107.0718451338223
 20
-150.8407497452759
 30
0.0
 10
107.0718451338223
 20
-151.0860405438257
 30
0.0
 10
107.0718451338223
 20
-151.0860405438257
 30
0.0
 10
107.0718451338223
 20
-151.1304822755854
 30
0.0
 10
107.0759792484046
 20
-151.3271972277932
 30
0.0
 10
107.0804578725354
 20
-151.4794704482412
 30
0.0
 10
107.0804578725354
 20
-151.4794704482412
 30
0.0
 10
106.853770589606
 20
-151.4794704482412
 30
0.0
 10
106.853770589606
 20
-151.4794704482412
 30
0.0
 10
106.853770589606
 20
-151.4794704482412
 30
0.0
 10
106.8561821564457
 20
-151.4457085124858
 30
0.0
 10
106.8561821564457
 20
-151.4457085124858
 30
0.0
 10
106.8561821564457
 20
-151.4457085124858
 30
0.0
 10
106.1537271870032
 20
-151.4457085124858
 30
0.0
 10
106.1537271870032
 20
-151.4457085124858
 30
0.0
 10
106.1537271870032
 20
-151.4457085124858
 30
0.0
 10
106.1557942442943
 20
-151.4794704482412
 30
0.0
 10
106.1557942442943
 20
-151.4794704482412
 30
0.0
 10
106.1557942442943
 20
-151.4794704482412
 30
0.0
 10
105.9380642096266
 20
-151.4794704482412
 30
0.0
 10
105.9380642096266
 20
-151.4794704482412
 30
0.0
 10
105.9421983242089
 20
-151.4246934300258
 30
0.0
 10
105.9421983242089
 20
-151.4119465767303
 30
0.0
 10
105.9483994960823
 20
-151.29756940662
 30
0.0
 10
105.9504665533735
 20
-151.270008642738
 30
0.0
 10
105.9528781202131
 20
-151.1370279570074
 30
0.0
 10
105.9528781202131
 20
-151.11773542229
 30
0.0
 10
105.9528781202131
 20
-151.11773542229
 30
0.0
 10
105.9528781202131
 20
-150.9148192982088
 30
0.0
 10
105.9528781202131
 20
-150.9148192982088
 30
0.0
 10
105.813007243512
 20
-151.1642442113409
 30
0.0
 10
105.6438530551862
 20
-151.2955023493289
 30
0.0
 10
105.5380886237891
 20
-151.3609591635486
 30
0.0
 10
105.5380886237891
 20
-151.3609591635486
 30
0.0
 10
105.3644558113325
 20
-151.221432796396
 30
0.0
 10
105.3644558113325
 20
-151.221432796396
 30
0.0
 10
105.4533392748519
 20
-151.1707898927628
 30
0.0
 10
105.5973442661354
 20
-151.0839734865345
 30
0.0
 10
105.7348035759968
 20
-150.8893255916179
 30
0.0
 10
105.8257540968074
 20
-150.7625460777607
 30
0.0
 10
105.8915554205757
 20
-150.6185410864773
 30
0.0
 10
105.9253173563311
 20
-150.4662678660293
 30
0.0
 10
105.6969075256591
 20
-150.4683349233204
 30
0.0
 10
105.517073541329
 20
-150.4748806047424
 30
0.0
 10
105.4216443963876
 20
-150.4769476620335
 30
0.0
 10
105.4216443963876
 20
-150.4769476620335
 30
0.0
 10
105.4216443963876
 20
-150.2991807349946
 30
0.0
 10
105.4216443963876
 20
-150.2991807349946
 30
0.0
 10
105.6183593485954
 20
-150.3053819068681
 30
0.0
 10
105.9018907070314
 20
-150.3098605309989
 30
0.0
 10
106.0520968701883
 20
-150.3098605309989
 30
0.0
 10
106.0520968701883
 20
-150.3098605309989
 30
0.0
 10
106.2656927902738
 20
-150.3098605309989
 30
0.0
 10
106.2656927902738
 20
-150.3098605309989
 30
0.0
 10
106.2656927902738
 20
-150.3098605309989
 30
0.0
 10
106.2656927902738
 20
-150.2016845327621
 30
0.0
 10
106.2656927902738
 20
-150.2016845327621
 30
0.0
 10
106.2656927902738
 20
-150.2016845327621
 30
0.0
 10
106.1199652512478
 20
-150.2016845327621
 30
0.0
 10
106.1199652512478
 20
-150.2016845327621
 30
0.0
 10
105.9504665533735
 20
-150.2016845327621
 30
0.0
 10
105.7813123650477
 20
-150.2061631568929
 30
0.0
 10
105.6142252340131
 20
-150.2123643287663
 30
0.0
 10
105.6142252340131
 20
-150.2123643287663
 30
0.0
 10
105.6142252340131
 20
-150.0411430831494
 30
0.0
 10
105.6142252340131
 20
-150.0411430831494
 30
0.0
 10
105.7685655117523
 20
-150.0514783696052
 30
0.0
 10
105.9549451775043
 20
-150.0514783696052
 30
0.0
 10
106.1199652512478
 20
-150.0514783696052
 30
0.0
 10
106.1199652512478
 20
-150.0514783696052
 30
0.0
 10
106.2656927902738
 20
-150.0514783696052
 30
0.0
 10
106.2656927902738
 20
-150.0514783696052
 30
0.0
 10
106.2656927902738
 20
-150.0514783696052
 30
0.0
 10
106.2656927902738
 20
-149.9333115944611
 30
0.0
 10
106.2656927902738
 20
-149.9333115944611
 30
0.0
 10
106.2656927902738
 20
-149.9333115944611
 30
0.0
 10
106.1347791618343
 20
-149.9333115944611
 30
0.0
 10
106.1347791618343
 20
-149.9333115944611
 30
0.0
 10
106.0882703727835
 20
-149.9333115944611
 30
0.0
 10
105.8850097391537
 20
-149.9415798236257
 30
0.0
 10
105.8426350646852
 20
-149.9415798236257
 30
0.0
 10
105.6397189406039
 20
-149.945713938208
 30
0.0
 10
105.5635823303799
 20
-149.9477809954991
 30
0.0
 10
105.4853786628648
 20
-149.9501925623388
 30
0.0
 10
105.4853786628648
 20
-149.9501925623388
 30
0.0
 10
105.4853786628648
 20
-149.765879953878
 30
0.0
 10
105.4853786628648
 20
-149.765879953878
 30
0.0
 10
105.5994113234265
 20
-149.7744926925911
 30
0.0
 10
105.6438530551862
 20
-149.7744926925911
 30
0.0
 10
106.026947673146
 20
-149.7831054313042
 30
0.0
 10
105.9632134066689
 20
-149.6876762863628
 30
0.0
 10
105.9356526427869
 20
-149.6601155224808
 30
0.0
 10
105.8998236497403
 20
-149.6242865294342
 30
0.0
 10
105.8998236497403
 20
-149.6242865294342
 30
0.0
 10
106.0755235194881
 20
-149.5416042377882
 30
0.0
 10
106.0755235194881
 20
-149.5416042377882
 30
0.0
 10
106.1154866271169
 20
-149.5777777403833
 30
0.0
 10
106.1599283588767
 20
-149.6201524148519
 30
0.0
 10
106.2339979118095
 20
-149.7300509608314
 30
0.0
 10
106.2339979118095
 20
-149.7300509608314
 30
0.0
 10
106.1199652512478
 20
-149.7851724885953
 30
0.0
 10
106.1199652512478
 20
-149.7851724885953
 30
0.0
 10
106.1199652512478
 20
-149.7851724885953
 30
0.0
 10
106.1303005377035
 20
-149.7851724885953
 30
0.0
 10
106.1303005377035
 20
-149.7851724885953
 30
0.0
 10
106.1303005377035
 20
-149.7851724885953
 30
0.0
 10
106.6529215228159
 20
-149.7851724885953
 30
0.0
 10
106.6529215228159
 20
-149.7851724885953
 30
0.0
 10
106.6529215228159
 20
-149.7851724885953
 30
0.0
 10
106.557836887423
 20
-149.7407307568356
 30
0.0
 10
106.557836887423
 20
-149.7407307568356
 30
0.0
 10
106.585397651305
 20
-149.7024901969494
 30
0.0
 10
106.6422417268116
 20
-149.622219472143
 30
0.0
 10
106.6570556373982
 20
-149.5481499192102
 30
0.0
 10
106.6570556373982
 20
-149.5481499192102
 30
0.0
 10
106.8709960670322
 20
-149.6115396761388
 30
0.0
 10
106.8709960670322
 20
-149.6115396761388
 30
0.0
 10
106.8792642961968
 20
-149.6136067334299
 30
0.0
 10
106.9006238882054
 20
-149.6242865294342
 30
0.0
 10
106.9006238882054
 20
-149.6453016118942
 30
0.0
 10
106.9006238882054
 20
-149.6835421717805
 30
0.0
 10
106.8348225644371
 20
-149.6835421717805
 30
0.0
 10
106.8158745392682
 20
-149.6835421717805
 30
0.0
 10
106.8051947432639
 20
-149.7024901969494
 30
0.0
 10
106.7821126035128
 20
-149.7427978141268
 30
0.0
 10
106.7524847823396
 20
-149.7831054313042
 30
0.0
 10
107.1521158586286
 20
-149.7765597498822
 30
0.0
 10
107.1817436798018
 20
-149.7744926925911
 30
0.0
 10
107.2578802900258
 20
-149.7682915207176
 30
0.0
 10
107.2578802900258
 20
-149.7682915207176
 30
0.0
 10
107.2578802900258
 20
-149.9501925623388
 30
0.0
 10
107.2578802900258
 20
-149.9501925623388
 30
0.0
 10
107.2389322648569
 20
-149.9501925623388
 30
0.0
 10
107.2134385582661
 20
-149.9477809954991
 30
0.0
 10
106.9936414663071
 20
-149.9395127663345
 30
0.0
 10
106.9426540531254
 20
-149.9374457090434
 30
0.0
 10
106.7228569611665
 20
-149.9333115944611
 30
0.0
 10
106.6784152294068
 20
-149.9333115944611
 30
0.0
 10
106.6784152294068
 20
-149.9333115944611
 30
0.0
 10
106.4624077424816
 20
-149.9333115944611
 30
0.0
 10
106.4624077424816
 20
-149.9333115944611
 30
0.0
 10
106.4624077424816
 20
-149.9333115944611
 30
0.0
 10
106.4624077424816
 20
-150.0514783696052
 30
0.0
 10
106.4624077424816
 20
-150.0514783696052
 30
0.0
 10
106.4624077424816
 20
-150.0514783696052
 30
0.0
 10
106.6360405549382
 20
-150.0514783696052
 30
0.0
 10
106.6360405549382
 20
-150.0514783696052
 30
0.0
 10
106.7989935713905
 20
-150.0514783696052
 30
0.0
 10
106.9891628421763
 20
-150.0514783696052
 30
0.0
 10
107.1459146867552
 20
-150.0411430831494
 30
0.0
 10
107.1459146867552
 20
-150.0411430831494
 30
0.0
 10
107.1459146867552
 20
-150.2123643287663
 30
0.0
 10
107.1459146867552
 20
-150.2123643287663
 30
0.0
 10
106.936452881252
 20
-150.2040960996017
 30
0.0
 10
106.7397379290442
 20
-150.2016845327621
 30
0.0
 10
106.6360405549382
 20
-150.2016845327621
 30
0.0
 10
106.6360405549382
 20
-150.2016845327621
 30
0.0
 10
106.4624077424816
 20
-150.2016845327621
 30
0.0
 10
106.4624077424816
 20
-150.2016845327621
 30
0.0
 10
106.4624077424816
 20
-150.2016845327621
 30
0.0
 10
106.4624077424816
 20
-150.3098605309989
 30
0.0
 10
106.4624077424816
 20
-150.3098605309989
 30
0.0
 10
106.4624077424816
 20
-150.3098605309989
 30
0.0
 10
106.6932291399933
 20
-150.3098605309989
 30
0.0
 10
106.6932291399933
 20
-150.3098605309989
 30
0.0
 10
106.8265543352725
 20
-150.3098605309989
 30
0.0
 10
107.1142198082909
 20
-150.3053819068681
 30
0.0
 10
107.3236816137941
 20
-150.2991807349946
 30
0.0
 10
107.3236816137941
 20
-150.2991807349946
 30
0.0
 10
107.3236816137941
 20
-150.4769476620335
 30
0.0
 10
107.3236816137941
 20
-150.4769476620335
 30
0.0
 10
107.1311007761686
 20
-150.4704019806115
 30
0.0
 10
106.8179415965594
 20
-150.4662678660293
 30
0.0
 10
106.6932291399933
 20
-150.4662678660293
 30
0.0
  0
HATCH
  5
FB
330
EF
100
AcDbEntity
  8
レイヤー 1
 62
    18
420
        0
440
 33554687
100
AcDbHatch
 10
0.0
 20
0.0
 30
0.0
210
0.0
220
0.0
230
1.0
  2
SOLID
 70
     1
 71
     1
 91
        4
 92
        1
 93
        1
 72
     4
 94
        3
 73
     0
 74
     0
 95
       17
 96
       13
 40
0.0
 40
0.0
 40
0.0
 40
0.0
 40
1.0
 40
1.0
 40
1.0
 40
2.0
 40
2.0
 40
2.0
 40
3.0
 40
3.0
 40
3.0
 40
4.0
 40
4.0
 40
4.0
 40
4.0
 10
106.8582492137368
 20
-151.1983506566448
 10
106.8582492137368
 20
-151.1983506566448
 10
106.1516601297121
 20
-151.1983506566448
 10
106.1516601297121
 20
-151.1983506566448
 10
106.1516601297121
 20
-151.1983506566448
 10
106.1516601297121
 20
-151.3123833172066
 10
106.1516601297121
 20
-151.3123833172066
 10
106.1516601297121
 20
-151.3123833172066
 10
106.8582492137368
 20
-151.3123833172066
 10
106.8582492137368
 20
-151.3123833172066
 10
106.8582492137368
 20
-151.3123833172066
 10
106.8582492137368
 20
-151.1983506566448
 10
106.8582492137368
 20
-151.1983506566448
 97
        0
 97
        1
330
F7
 92
        1
 93
        1
 72
     4
 94
        3
 73
     0
 74
     0
 95
       17
 96
       13
 40
0.0
 40
0.0
 40
0.0
 40
0.0
 40
1.0
 40
1.0
 40
1.0
 40
2.0
 40
2.0
 40
2.0
 40
3.0
 40
3.0
 40
3.0
 40
4.0
 40
4.0
 40
4.0
 40
4.0
 10
106.8582492137368
 20
-150.9547824058377
 10
106.8582492137368
 20
-150.9547824058377
 10
106.1516601297121
 20
-150.9547824058377
 10
106.1516601297121
 20
-150.9547824058377
 10
106.1516601297121
 20
-150.9547824058377
 10
106.1516601297121
 20
-151.069159575948
 10
106.1516601297121
 20
-151.069159575948
 10
106.1516601297121
 20
-151.069159575948
 10
106.8582492137368
 20
-151.069159575948
 10
106.8582492137368
 20
-151.069159575948
 10
106.8582492137368
 20
-151.069159575948
 10
106.8582492137368
 20
-150.9547824058377
 10
106.8582492137368
 20
-150.9547824058377
 97
        0
 97
        1
330
F8
 92
        1
 93
        1
 72
     4
 94
        3
 73
     0
 74
     0
 95
       17
 96
       13
 40
0.0
 40
0.0
 40
0.0
 40
0.0
 40
1.0
 40
1.0
 40
1.0
 40
2.0
 40
2.0
 40
2.0
 40
3.0
 40
3.0
 40
3.0
 40
4.0
 40
4.0
 40
4.0
 40
4.0
 10
106.8582492137368
 20
-150.7222384605833
 10
106.8582492137368
 20
-150.7222384605833
 10
106.1516601297121
 20
-150.7222384605833
 10
106.1516601297121
 20
-150.7222384605833
 10
106.1516601297121
 20
-150.7222384605833
 10
106.1516601297121
 20
-150.8300699492716
 10
106.1516601297121
 20
-150.8300699492716
 10
106.1516601297121
 20
-150.8300699492716
 10
106.8582492137368
 20
-150.8300699492716
 10
106.8582492137368
 20
-150.8300699492716
 10
106.8582492137368
 20
-150.8300699492716
 10
106.8582492137368
 20
-150.7222384605833
 10
106.8582492137368
 20
-150.7222384605833
 97
        0
 97
        1
330
F9
 92
        1
 93
        1
 72
     4
 94
        3
 73
     0
 74
     0
 95
      203
 96
      199
 40
0.0
 40
0.0
 40
0.0
 40
0.0
 40
1.0
 40
1.0
 40
1.0
 40
2.0
 40
2.0
 40
2.0
 40
3.0
 40
3.0
 40
3.0
 40
4.0
 40
4.0
 40
4.0
 40
5.0
 40
5.0
 40
5.0
 40
6.0
 40
6.0
 40
6.0
 40
7.0
 40
7.0
 40
7.0
 40
8.0
 40
8.0
 40
8.0
 40
9.0
 40
9.0
 40
9.0
 40
10.0
 40
10.0
 40
10.0
 40
11.0
 40
11.0
 40
11.0
 40
12.0
 40
12.0
 40
12.0
 40
13.0
 40
13.0
 40
13.0
 40
14.0
 40
14.0
 40
14.0
 40
15.0
 40
15.0
 40
15.0
 40
16.0
 40
16.0
 40
16.0
 40
17.0
 40
17.0
 40
17.0
 40
18.0
 40
18.0
 40
18.0
 40
19.0
 40
19.0
 40
19.0
 40
20.0
 40
20.0
 40
20.0
 40
21.0
 40
21.0
 40
21.0
 40
22.0
 40
22.0
 40
22.0
 40
23.0
 40
23.0
 40
23.0
 40
24.0
 40
24.0
 40
24.0
 40
25.0
 40
25.0
 40
25.0
 40
26.0
 40
26.0
 40
26.0
 40
27.0
 40
27.0
 40
27.0
 40
28.0
 40
28.0
 40
28.0
 40
29.0
 40
29.0
 40
29.0
 40
30.0
 40
30.0
 40
30.0
 40
31.0
 40
31.0
 40
31.0
 40
32.0
 40
32.0
 40
32.0
 40
33.0
 40
33.0
 40
33.0
 40
34.0
 40
34.0
 40
34.0
 40
35.0
 40
35.0
 40
35.0
 40
36.0
 40
36.0
 40
36.0
 40
37.0
 40
37.0
 40
37.0
 40
38.0
 40
38.0
 40
38.0
 40
39.0
 40
39.0
 40
39.0
 40
40.0
 40
40.0
 40
40.0
 40
41.0
 40
41.0
 40
41.0
 40
42.0
 40
42.0
 40
42.0
 40
43.0
 40
43.0
 40
43.0
 40
44.0
 40
44.0
 40
44.0
 40
45.0
 40
45.0
 40
45.0
 40
46.0
 40
46.0
 40
46.0
 40
47.0
 40
47.0
 40
47.0
 40
48.0
 40
48.0
 40
48.0
 40
49.0
 40
49.0
 40
49.0
 40
50.0
 40
50.0
 40
50.0
 40
51.0
 40
51.0
 40
51.0
 40
52.0
 40
52.0
 40
52.0
 40
53.0
 40
53.0
 40
53.0
 40
54.0
 40
54.0
 40
54.0
 40
55.0
 40
55.0
 40
55.0
 40
56.0
 40
56.0
 40
56.0
 40
57.0
 40
57.0
 40
57.0
 40
58.0
 40
58.0
 40
58.0
 40
59.0
 40
59.0
 40
59.0
 40
60.0
 40
60.0
 40
60.0
 40
61.0
 40
61.0
 40
61.0
 40
62.0
 40
62.0
 40
62.0
 40
63.0
 40
63.0
 40
63.0
 40
64.0
 40
64.0
 40
64.0
 40
65.0
 40
65.0
 40
65.0
 40
66.0
 40
66.0
 40
66.0
 40
66.0
 10
106.6932291399933
 20
-150.4662678660293
 10
106.6932291399933
 20
-150.4662678660293
 10
106.1347791618343
 20
-150.4662678660293
 10
106.1347791618343
 20
-150.4662678660293
 10
106.1240993658301
 20
-150.510709597789
 10
106.1154866271169
 20
-150.5424044762533
 10
106.10308428337
 20
-150.5806450361395
 10
106.1282334804124
 20
-150.5806450361395
 10
106.1430473909989
 20
-150.5827120934307
 10
106.1495930724209
 20
-150.5827120934307
 10
106.1495930724209
 20
-150.5827120934307
 10
106.3376952859156
 20
-150.5827120934307
 10
106.3376952859156
 20
-150.5827120934307
 10
106.3376952859156
 20
-150.5827120934307
 10
106.7121771651622
 20
-150.5827120934307
 10
106.7121771651622
 20
-150.5827120934307
 10
106.7628200687954
 20
-150.5827120934307
 10
107.0463514272314
 20
-150.5699652401353
 10
107.0780463056957
 20
-150.5699652401353
 10
107.0759792484046
 20
-150.5975260040172
 10
107.0739121911134
 20
-150.6164740291862
 10
107.0739121911134
 20
-150.6461018503593
 10
107.0718451338223
 20
-150.6777967288236
 10
107.0718451338223
 20
-150.8131889813939
 10
107.0718451338223
 20
-150.8407497452759
 10
107.0718451338223
 20
-150.8407497452759
 10
107.0718451338223
 20
-151.0860405438257
 10
107.0718451338223
 20
-151.0860405438257
 10
107.0718451338223
 20
-151.1304822755854
 10
107.0759792484046
 20
-151.3271972277932
 10
107.0804578725354
 20
-151.4794704482412
 10
107.0804578725354
 20
-151.4794704482412
 10
106.853770589606
 20
-151.4794704482412
 10
106.853770589606
 20
-151.4794704482412
 10
106.853770589606
 20
-151.4794704482412
 10
106.8561821564457
 20
-151.4457085124858
 10
106.8561821564457
 20
-151.4457085124858
 10
106.8561821564457
 20
-151.4457085124858
 10
106.1537271870032
 20
-151.4457085124858
 10
106.1537271870032
 20
-151.4457085124858
 10
106.1537271870032
 20
-151.4457085124858
 10
106.1557942442943
 20
-151.4794704482412
 10
106.1557942442943
 20
-151.4794704482412
 10
106.1557942442943
 20
-151.4794704482412
 10
105.9380642096266
 20
-151.4794704482412
 10
105.9380642096266
 20
-151.4794704482412
 10
105.9421983242089
 20
-151.4246934300258
 10
105.9421983242089
 20
-151.4119465767303
 10
105.9483994960823
 20
-151.29756940662
 10
105.9504665533735
 20
-151.270008642738
 10
105.9528781202131
 20
-151.1370279570074
 10
105.9528781202131
 20
-151.11773542229
 10
105.9528781202131
 20
-151.11773542229
 10
105.9528781202131
 20
-150.9148192982088
 10
105.9528781202131
 20
-150.9148192982088
 10
105.813007243512
 20
-151.1642442113409
 10
105.6438530551862
 20
-151.2955023493289
 10
105.5380886237891
 20
-151.3609591635486
 10
105.5380886237891
 20
-151.3609591635486
 10
105.3644558113325
 20
-151.221432796396
 10
105.3644558113325
 20
-151.221432796396
 10
105.4533392748519
 20
-151.1707898927628
 10
105.5973442661354
 20
-151.0839734865345
 10
105.7348035759968
 20
-150.8893255916179
 10
105.8257540968074
 20
-150.7625460777607
 10
105.8915554205757
 20
-150.6185410864773
 10
105.9253173563311
 20
-150.4662678660293
 10
105.6969075256591
 20
-150.4683349233204
 10
105.517073541329
 20
-150.4748806047424
 10
105.4216443963876
 20
-150.4769476620335
 10
105.4216443963876
 20
-150.4769476620335
 10
105.4216443963876
 20
-150.2991807349946
 10
105.4216443963876
 20
-150.2991807349946
 10
105.6183593485954
 20
-150.3053819068681
 10
105.9018907070314
 20
-150.3098605309989
 10
106.0520968701883
 20
-150.3098605309989
 10
106.0520968701883
 20
-150.3098605309989
 10
106.2656927902738
 20
-150.3098605309989
 10
106.2656927902738
 20
-150.3098605309989
 10
106.2656927902738
 20
-150.3098605309989
 10
106.2656927902738
 20
-150.2016845327621
 10
106.2656927902738
 20
-150.2016845327621
 10
106.2656927902738
 20
-150.2016845327621
 10
106.1199652512478
 20
-150.2016845327621
 10
106.1199652512478
 20
-150.2016845327621
 10
105.9504665533735
 20
-150.2016845327621
 10
105.7813123650477
 20
-150.2061631568929
 10
105.6142252340131
 20
-150.2123643287663
 10
105.6142252340131
 20
-150.2123643287663
 10
105.6142252340131
 20
-150.0411430831494
 10
105.6142252340131
 20
-150.0411430831494
 10
105.7685655117523
 20
-150.0514783696052
 10
105.9549451775043
 20
-150.0514783696052
 10
106.1199652512478
 20
-150.0514783696052
 10
106.1199652512478
 20
-150.0514783696052
 10
106.2656927902738
 20
-150.0514783696052
 10
106.2656927902738
 20
-150.0514783696052
 10
106.2656927902738
 20
-150.0514783696052
 10
106.2656927902738
 20
-149.9333115944611
 10
106.2656927902738
 20
-149.9333115944611
 10
106.2656927902738
 20
-149.9333115944611
 10
106.1347791618343
 20
-149.9333115944611
 10
106.1347791618343
 20
-149.9333115944611
 10
106.0882703727835
 20
-149.9333115944611
 10
105.8850097391537
 20
-149.9415798236257
 10
105.8426350646852
 20
-149.9415798236257
 10
105.6397189406039
 20
-149.945713938208
 10
105.5635823303799
 20
-149.9477809954991
 10
105.4853786628648
 20
-149.9501925623388
 10
105.4853786628648
 20
-149.9501925623388
 10
105.4853786628648
 20
-149.765879953878
 10
105.4853786628648
 20
-149.765879953878
 10
105.5994113234265
 20
-149.7744926925911
 10
105.6438530551862
 20
-149.7744926925911
 10
106.026947673146
 20
-149.7831054313042
 10
105.9632134066689
 20
-149.6876762863628
 10
105.9356526427869
 20
-149.6601155224808
 10
105.8998236497403
 20
-149.6242865294342
 10
105.8998236497403
 20
-149.6242865294342
 10
106.0755235194881
 20
-149.5416042377882
 10
106.0755235194881
 20
-149.5416042377882
 10
106.1154866271169
 20
-149.5777777403833
 10
106.1599283588767
 20
-149.6201524148519
 10
106.2339979118095
 20
-149.7300509608314
 10
106.2339979118095
 20
-149.7300509608314
 10
106.1199652512478
 20
-149.7851724885953
 10
106.1199652512478
 20
-149.7851724885953
 10
106.1199652512478
 20
-149.7851724885953
 10
106.1303005377035
 20
-149.7851724885953
 10
106.1303005377035
 20
-149.7851724885953
 10
106.1303005377035
 20
-149.7851724885953
 10
106.6529215228159
 20
-149.7851724885953
 10
106.6529215228159
 20
-149.7851724885953
 10
106.6529215228159
 20
-149.7851724885953
 10
106.557836887423
 20
-149.7407307568356
 10
106.557836887423
 20
-149.7407307568356
 10
106.585397651305
 20
-149.7024901969494
 10
106.6422417268116
 20
-149.622219472143
 10
106.6570556373982
 20
-149.5481499192102
 10
106.6570556373982
 20
-149.5481499192102
 10
106.8709960670322
 20
-149.6115396761388
 10
106.8709960670322
 20
-149.6115396761388
 10
106.8792642961968
 20
-149.6136067334299
 10
106.9006238882054
 20
-149.6242865294342
 10
106.9006238882054
 20
-149.6453016118942
 10
106.9006238882054
 20
-149.6835421717805
 10
106.8348225644371
 20
-149.6835421717805
 10
106.8158745392682
 20
-149.6835421717805
 10
106.8051947432639
 20
-149.7024901969494
 10
106.7821126035128
 20
-149.7427978141268
 10
106.7524847823396
 20
-149.7831054313042
 10
107.1521158586286
 20
-149.7765597498822
 10
107.1817436798018
 20
-149.7744926925911
 10
107.2578802900258
 20
-149.7682915207176
 10
107.2578802900258
 20
-149.7682915207176
 10
107.2578802900258
 20
-149.9501925623388
 10
107.2578802900258
 20
-149.9501925623388
 10
107.2389322648569
 20
-149.9501925623388
 10
107.2134385582661
 20
-149.9477809954991
 10
106.9936414663071
 20
-149.9395127663345
 10
106.9426540531254
 20
-149.9374457090434
 10
106.7228569611665
 20
-149.9333115944611
 10
106.6784152294068
 20
-149.9333115944611
 10
106.6784152294068
 20
-149.9333115944611
 10
106.4624077424816
 20
-149.9333115944611
 10
106.4624077424816
 20
-149.9333115944611
 10
106.4624077424816
 20
-149.9333115944611
 10
106.4624077424816
 20
-150.0514783696052
 10
106.4624077424816
 20
-150.0514783696052
 10
106.4624077424816
 20
-150.0514783696052
 10
106.6360405549382
 20
-150.0514783696052
 10
106.6360405549382
 20
-150.0514783696052
 10
106.7989935713905
 20
-150.0514783696052
 10
106.9891628421763
 20
-150.0514783696052
 10
107.1459146867552
 20
-150.0411430831494
 10
107.1459146867552
 20
-150.0411430831494
 10
107.1459146867552
 20
-150.2123643287663
 10
107.1459146867552
 20
-150.2123643287663
 10
106.936452881252
 20
-150.2040960996017
 10
106.7397379290442
 20
-150.2016845327621
 10
106.6360405549382
 20
-150.2016845327621
 10
106.6360405549382
 20
-150.2016845327621
 10
106.4624077424816
 20
-150.2016845327621
 10
106.4624077424816
 20
-150.2016845327621
 10
106.4624077424816
 20
-150.2016845327621
 10
106.4624077424816
 20
-150.3098605309989
 10
106.4624077424816
 20
-150.3098605309989
 10
106.4624077424816
 20
-150.3098605309989
 10
106.6932291399933
 20
-150.3098605309989
 10
106.6932291399933
 20
-150.3098605309989
 10
106.8265543352725
 20
-150.3098605309989
 10
107.1142198082909
 20
-150.3053819068681
 10
107.3236816137941
 20
-150.2991807349946
 10
107.3236816137941
 20
-150.2991807349946
 10
107.3236816137941
 20
-150.4769476620335
 10
107.3236816137941
 20
-150.4769476620335
 10
107.1311007761686
 20
-150.4704019806115
 10
106.8179415965594
 20
-150.4662678660293
 10
106.6932291399933
 20
-150.4662678660293
 97
        0
 97
        1
330
FA
 75
     2
 76
     1
 98
        1
 10
0.0
 20
0.0
450
        0
451
        0
460
0.0
461
0.0
452
        0
462
0.0
453
        0
470

  0
SPLINE
  5
FC
330
EF
100
AcDbEntity
  8
レイヤー 1
100
AcDbSpline
210
0.0
220
0.0
230
1.0
 70
     9
 71
     3
 72
    29
 73
    25
 74
     0
 42
0.0000000001
 43
0.0000000001
 40
0.0
 40
0.0
 40
0.0
 40
0.0
 40
1.0
 40
1.0
 40
1.0
 40
2.0
 40
2.0
 40
2.0
 40
3.0
 40
3.0
 40
3.0
 40
4.0
 40
4.0
 40
4.0
 40
5.0
 40
5.0
 40
5.0
 40
6.0
 40
6.0
 40
6.0
 40
7.0
 40
7.0
 40
7.0
 40
8.0
 40
8.0
 40
8.0
 40
8.0
 10
108.5687391221634
 20
-149.9140190597437
 30
0.0
 10
108.5687391221634
 20
-149.9140190597437
 30
0.0
 10
108.2152723253767
 20
-149.9140190597437
 30
0.0
 10
108.2152723253767
 20
-149.9140190597437
 30
0.0
 10
108.1033067221061
 20
-149.9140190597437
 30
0.0
 10
107.9637803549535
 20
-149.9205647411657
 30
0.0
 10
107.8556043567166
 20
-149.9333115944611
 30
0.0
 10
107.8556043567166
 20
-149.9333115944611
 30
0.0
 10
107.8556043567166
 20
-149.6983560823671
 30
0.0
 10
107.8556043567166
 20
-149.6983560823671
 30
0.0
 10
107.9741156414092
 20
-149.7131699929536
 30
0.0
 10
108.1580837403216
 20
-149.7173041075359
 30
0.0
 10
108.2152723253767
 20
-149.7173041075359
 30
0.0
 10
108.2152723253767
 20
-149.7173041075359
 30
0.0
 10
108.5687391221634
 20
-149.7173041075359
 30
0.0
 10
108.5687391221634
 20
-149.7173041075359
 30
0.0
 10
108.5876871473322
 20
-149.7173041075359
 30
0.0
 10
108.790947780962
 20
-149.7173041075359
 30
0.0
 10
108.9325412054057
 20
-149.6983560823671
 30
0.0
 10
108.9325412054057
 20
-149.6983560823671
 30
0.0
 10
108.9325412054057
 20
-149.9333115944611
 30
0.0
 10
108.9325412054057
 20
-149.9333115944611
 30
0.0
 10
108.7761338703754
 20
-149.9140190597437
 30
0.0
 10
108.5856200900411
 20
-149.9140190597437
 30
0.0
 10
108.5687391221634
 20
-149.9140190597437
 30
0.0
  0
SPLINE
  5
FD
330
EF
100
AcDbEntity
  8
レイヤー 1
100
AcDbSpline
210
0.0
220
0.0
230
1.0
 70
     9
 71
     3
 72
    47
 73
    43
 74
     0
 42
0.0000000001
 43
0.0000000001
 40
0.0
 40
0.0
 40
0.0
 40
0.0
 40
1.0
 40
1.0
 40
1.0
 40
2.0
 40
2.0
 40
2.0
 40
3.0
 40
3.0
 40
3.0
 40
4.0
 40
4.0
 40
4.0
 40
5.0
 40
5.0
 40
5.0
 40
6.0
 40
6.0
 40
6.0
 40
7.0
 40
7.0
 40
7.0
 40
8.0
 40
8.0
 40
8.0
 40
9.0
 40
9.0
 40
9.0
 40
10.0
 40
10.0
 40
10.0
 40
11.0
 40
11.0
 40
11.0
 40
12.0
 40
12.0
 40
12.0
 40
13.0
 40
13.0
 40
13.0
 40
14.0
 40
14.0
 40
14.0
 40
14.0
 10
108.6700249294297
 20
-150.4428412167295
 30
0.0
 10
108.6700249294297
 20
-150.4428412167295
 30
0.0
 10
108.5687391221634
 20
-150.4428412167295
 30
0.0
 10
108.5687391221634
 20
-150.4428412167295
 30
0.0
 10
108.5687391221634
 20
-150.5296576229578
 30
0.0
 10
108.5473795301548
 20
-150.9189534127911
 30
0.0
 10
108.350664577947
 20
-151.1390950142985
 30
0.0
 10
108.198391357499
 20
-151.3082492026243
 30
0.0
 10
107.990996609287
 20
-151.3781846409749
 30
0.0
 10
107.9065917698983
 20
-151.4054008953084
 30
0.0
 10
107.9065917698983
 20
-151.4054008953084
 30
0.0
 10
107.7119438749817
 20
-151.2383137642737
 30
0.0
 10
107.7119438749817
 20
-151.2383137642737
 30
0.0
 10
107.8090955676658
 20
-151.2255669109783
 30
0.0
 10
107.9847954374135
 20
-151.2024847712272
 30
0.0
 10
108.1728976509081
 20
-151.014038048184
 30
0.0
 10
108.246967203841
 20
-150.9423800620908
 30
0.0
 10
108.350664577947
 20
-150.8025091853896
 30
0.0
 10
108.350664577947
 20
-150.4428412167295
 30
0.0
 10
108.350664577947
 20
-150.4428412167295
 30
0.0
 10
108.1201876899838
 20
-150.4428412167295
 30
0.0
 10
108.1201876899838
 20
-150.4428412167295
 30
0.0
 10
107.9341525337803
 20
-150.4428412167295
 30
0.0
 10
107.7477728680283
 20
-150.4473198408604
 30
0.0
 10
107.5617377118248
 20
-150.4621337514469
 30
0.0
 10
107.5617377118248
 20
-150.4621337514469
 30
0.0
 10
107.5617377118248
 20
-150.2419921499395
 30
0.0
 10
107.5617377118248
 20
-150.2419921499395
 30
0.0
 10
107.7498399253195
 20
-150.2568060605261
 30
0.0
 10
108.0354383410467
 20
-150.2609401751084
 30
0.0
 10
108.1201876899838
 20
-150.2609401751084
 30
0.0
 10
108.1201876899838
 20
-150.2609401751084
 30
0.0
 10
108.6700249294297
 20
-150.2609401751084
 30
0.0
 10
108.6700249294297
 20
-150.2609401751084
 30
0.0
 10
108.6893174641471
 20
-150.2609401751084
 30
0.0
 10
109.0066107583386
 20
-150.2609401751084
 30
0.0
 10
109.2350205890107
 20
-150.2419921499395
 30
0.0
 10
109.2350205890107
 20
-150.2419921499395
 30
0.0
 10
109.2350205890107
 20
-150.4621337514469
 30
0.0
 10
109.2350205890107
 20
-150.4621337514469
 30
0.0
 10
109.046918375516
 20
-150.4473198408604
 30
0.0
 10
108.8584716524729
 20
-150.4428412167295
 30
0.0
 10
108.6700249294297
 20
-150.4428412167295
 30
0.0
  0
HATCH
  5
FE
330
EF
100
AcDbEntity
  8
レイヤー 1
 62
    18
420
        0
440
 33554687
100
AcDbHatch
 10
0.0
 20
0.0
 30
0.0
210
0.0
220
0.0
230
1.0
  2
SOLID
 70
     1
 71
     1
 91
        2
 92
        1
 93
        1
 72
     4
 94
        3
 73
     0
 74
     0
 95
       29
 96
       25
 40
0.0
 40
0.0
 40
0.0
 40
0.0
 40
1.0
 40
1.0
 40
1.0
 40
2.0
 40
2.0
 40
2.0
 40
3.0
 40
3.0
 40
3.0
 40
4.0
 40
4.0
 40
4.0
 40
5.0
 40
5.0
 40
5.0
 40
6.0
 40
6.0
 40
6.0
 40
7.0
 40
7.0
 40
7.0
 40
8.0
 40
8.0
 40
8.0
 40
8.0
 10
108.5687391221634
 20
-149.9140190597437
 10
108.5687391221634
 20
-149.9140190597437
 10
108.2152723253767
 20
-149.9140190597437
 10
108.2152723253767
 20
-149.9140190597437
 10
108.1033067221061
 20
-149.9140190597437
 10
107.9637803549535
 20
-149.9205647411657
 10
107.8556043567166
 20
-149.9333115944611
 10
107.8556043567166
 20
-149.9333115944611
 10
107.8556043567166
 20
-149.6983560823671
 10
107.8556043567166
 20
-149.6983560823671
 10
107.9741156414092
 20
-149.7131699929536
 10
108.1580837403216
 20
-149.7173041075359
 10
108.2152723253767
 20
-149.7173041075359
 10
108.2152723253767
 20
-149.7173041075359
 10
108.5687391221634
 20
-149.7173041075359
 10
108.5687391221634
 20
-149.7173041075359
 10
108.5876871473322
 20
-149.7173041075359
 10
108.790947780962
 20
-149.7173041075359
 10
108.9325412054057
 20
-149.6983560823671
 10
108.9325412054057
 20
-149.6983560823671
 10
108.9325412054057
 20
-149.9333115944611
 10
108.9325412054057
 20
-149.9333115944611
 10
108.7761338703754
 20
-149.9140190597437
 10
108.5856200900411
 20
-149.9140190597437
 10
108.5687391221634
 20
-149.9140190597437
 97
        0
 97
        1
330
FC
 92
        1
 93
        1
 72
     4
 94
        3
 73
     0
 74
     0
 95
       47
 96
       43
 40
0.0
 40
0.0
 40
0.0
 40
0.0
 40
1.0
 40
1.0
 40
1.0
 40
2.0
 40
2.0
 40
2.0
 40
3.0
 40
3.0
 40
3.0
 40
4.0
 40
4.0
 40
4.0
 40
5.0
 40
5.0
 40
5.0
 40
6.0
 40
6.0
 40
6.0
 40
7.0
 40
7.0
 40
7.0
 40
8.0
 40
8.0
 40
8.0
 40
9.0
 40
9.0
 40
9.0
 40
10.0
 40
10.0
 40
10.0
 40
11.0
 40
11.0
 40
11.0
 40
12.0
 40
12.0
 40
12.0
 40
13.0
 40
13.0
 40
13.0
 40
14.0
 40
14.0
 40
14.0
 40
14.0
 10
108.6700249294297
 20
-150.4428412167295
 10
108.6700249294297
 20
-150.4428412167295
 10
108.5687391221634
 20
-150.4428412167295
 10
108.5687391221634
 20
-150.4428412167295
 10
108.5687391221634
 20
-150.5296576229578
 10
108.5473795301548
 20
-150.9189534127911
 10
108.350664577947
 20
-151.1390950142985
 10
108.198391357499
 20
-151.3082492026243
 10
107.990996609287
 20
-151.3781846409749
 10
107.9065917698983
 20
-151.4054008953084
 10
107.9065917698983
 20
-151.4054008953084
 10
107.7119438749817
 20
-151.2383137642737
 10
107.7119438749817
 20
-151.2383137642737
 10
107.8090955676658
 20
-151.2255669109783
 10
107.9847954374135
 20
-151.2024847712272
 10
108.1728976509081
 20
-151.014038048184
 10
108.246967203841
 20
-150.9423800620908
 10
108.350664577947
 20
-150.8025091853896
 10
108.350664577947
 20
-150.4428412167295
 10
108.350664577947
 20
-150.4428412167295
 10
108.1201876899838
 20
-150.4428412167295
 10
108.1201876899838
 20
-150.4428412167295
 10
107.9341525337803
 20
-150.4428412167295
 10
107.7477728680283
 20
-150.4473198408604
 10
107.5617377118248
 20
-150.4621337514469
 10
107.5617377118248
 20
-150.4621337514469
 10
107.5617377118248
 20
-150.2419921499395
 10
107.5617377118248
 20
-150.2419921499395
 10
107.7498399253195
 20
-150.2568060605261
 10
108.0354383410467
 20
-150.2609401751084
 10
108.1201876899838
 20
-150.2609401751084
 10
108.1201876899838
 20
-150.2609401751084
 10
108.6700249294297
 20
-150.2609401751084
 10
108.6700249294297
 20
-150.2609401751084
 10
108.6893174641471
 20
-150.2609401751084
 10
109.0066107583386
 20
-150.2609401751084
 10
109.2350205890107
 20
-150.2419921499395
 10
109.2350205890107
 20
-150.2419921499395
 10
109.2350205890107
 20
-150.4621337514469
 10
109.2350205890107
 20
-150.4621337514469
 10
109.046918375516
 20
-150.4473198408604
 10
108.8584716524729
 20
-150.4428412167295
 10
108.6700249294297
 20
-150.4428412167295
 97
        0
 97
        1
330
FD
 75
     2
 76
     1
 98
        1
 10
0.0
 20
0.0
450
        0
451
        0
460
0.0
461
0.0
452
        0
462
0.0
453
        0
470

  0
SPLINE
  5
FF
330
EF
100
AcDbEntity
  8
レイヤー 1
100
AcDbSpline
210
0.0
220
0.0
230
1.0
 70
     9
 71
     3
 72
    29
 73
    25
 74
     0
 42
0.0000000001
 43
0.0000000001
 40
0.0
 40
0.0
 40
0.0
 40
0.0
 40
1.0
 40
1.0
 40
1.0
 40
2.0
 40
2.0
 40
2.0
 40
3.0
 40
3.0
 40
3.0
 40
4.0
 40
4.0
 40
4.0
 40
5.0
 40
5.0
 40
5.0
 40
6.0
 40
6.0
 40
6.0
 40
7.0
 40
7.0
 40
7.0
 40
8.0
 40
8.0
 40
8.0
 40
8.0
 10
110.5159070904266
 20
-150.6057942331818
 30
0.0
 10
110.5159070904266
 20
-150.6057942331818
 30
0.0
 10
110.0315266652004
 20
-150.6057942331818
 30
0.0
 10
110.0315266652004
 20
-150.6057942331818
 30
0.0
 10
110.0039659013184
 20
-150.6057942331818
 30
0.0
 10
109.6866726071269
 20
-150.6057942331818
 30
0.0
 10
109.4751437443326
 20
-150.6312879397727
 30
0.0
 10
109.4751437443326
 20
-150.6312879397727
 30
0.0
 10
109.4751437443326
 20
-150.4008110518095
 30
0.0
 10
109.4751437443326
 20
-150.4008110518095
 30
0.0
 10
109.6339626462026
 20
-150.4238931915607
 30
0.0
 10
109.8241319169884
 20
-150.4259602488518
 30
0.0
 10
110.0315266652004
 20
-150.4259602488518
 30
0.0
 10
110.0315266652004
 20
-150.4259602488518
 30
0.0
 10
110.5159070904266
 20
-150.4259602488518
 30
0.0
 10
110.5159070904266
 20
-150.4259602488518
 30
0.0
 10
110.7022867561786
 20
-150.4259602488518
 30
0.0
 10
110.8883219123821
 20
-150.4238931915607
 30
0.0
 10
111.0722900112944
 20
-150.4008110518095
 30
0.0
 10
111.0722900112944
 20
-150.4008110518095
 30
0.0
 10
111.0722900112944
 20
-150.6312879397727
 30
0.0
 10
111.0722900112944
 20
-150.6312879397727
 30
0.0
 10
110.8883219123821
 20
-150.607861290473
 30
0.0
 10
110.6409640565411
 20
-150.6057942331818
 30
0.0
 10
110.5159070904266
 20
-150.6057942331818
 30
0.0
  0
HATCH
  5
100
330
EF
100
AcDbEntity
  8
レイヤー 1
 62
    18
420
        0
440
 33554687
100
AcDbHatch
 10
0.0
 20
0.0
 30
0.0
210
0.0
220
0.0
230
1.0
  2
SOLID
 70
     1
 71
     1
 91
        1
 92
        1
 93
        1
 72
     4
 94
        3
 73
     0
 74
     0
 95
       29
 96
       25
 40
0.0
 40
0.0
 40
0.0
 40
0.0
 40
1.0
 40
1.0
 40
1.0
 40
2.0
 40
2.0
 40
2.0
 40
3.0
 40
3.0
 40
3.0
 40
4.0
 40
4.0
 40
4.0
 40
5.0
 40
5.0
 40
5.0
 40
6.0
 40
6.0
 40
6.0
 40
7.0
 40
7.0
 40
7.0
 40
8.0
 40
8.0
 40
8.0
 40
8.0
 10
110.5159070904266
 20
-150.6057942331818
 10
110.5159070904266
 20
-150.6057942331818
 10
110.0315266652004
 20
-150.6057942331818
 10
110.0315266652004
 20
-150.6057942331818
 10
110.0039659013184
 20
-150.6057942331818
 10
109.6866726071269
 20
-150.6057942331818
 10
109.4751437443326
 20
-150.6312879397727
 10
109.4751437443326
 20
-150.6312879397727
 10
109.4751437443326
 20
-150.4008110518095
 10
109.4751437443326
 20
-150.4008110518095
 10
109.6339626462026
 20
-150.4238931915607
 10
109.8241319169884
 20
-150.4259602488518
 10
110.0315266652004
 20
-150.4259602488518
 10
110.0315266652004
 20
-150.4259602488518
 10
110.5159070904266
 20
-150.4259602488518
 10
110.5159070904266
 20
-150.4259602488518
 10
110.7022867561786
 20
-150.4259602488518
 10
110.8883219123821
 20
-150.4238931915607
 10
111.0722900112944
 20
-150.4008110518095
 10
111.0722900112944
 20
-150.4008110518095
 10
111.0722900112944
 20
-150.6312879397727
 10
111.0722900112944
 20
-150.6312879397727
 10
110.8883219123821
 20
-150.607861290473
 10
110.6409640565411
 20
-150.6057942331818
 10
110.5159070904266
 20
-150.6057942331818
 97
        0
 97
        1
330
FF
 75
     2
 76
     1
 98
        1
 10
0.0
 20
0.0
450
        0
451
        0
460
0.0
461
0.0
452
        0
462
0.0
453
        0
470

  0
SPLINE
  5
101
330
EF
100
AcDbEntity
  8
レイヤー 1
100
AcDbSpline
210
0.0
220
0.0
230
1.0
 70
     9
 71
     3
 72
    47
 73
    43
 74
     0
 42
0.0000000001
 43
0.0000000001
 40
0.0
 40
0.0
 40
0.0
 40
0.0
 40
1.0
 40
1.0
 40
1.0
 40
2.0
 40
2.0
 40
2.0
 40
3.0
 40
3.0
 40
3.0
 40
4.0
 40
4.0
 40
4.0
 40
5.0
 40
5.0
 40
5.0
 40
6.0
 40
6.0
 40
6.0
 40
7.0
 40
7.0
 40
7.0
 40
8.0
 40
8.0
 40
8.0
 40
9.0
 40
9.0
 40
9.0
 40
10.0
 40
10.0
 40
10.0
 40
11.0
 40
11.0
 40
11.0
 40
12.0
 40
12.0
 40
12.0
 40
13.0
 40
13.0
 40
13.0
 40
14.0
 40
14.0
 40
14.0
 40
14.0
 10
112.7362711306701
 20
-150.0115152619763
 30
0.0
 10
112.6663356923195
 20
-150.2905679962815
 30
0.0
 10
112.5901990820955
 20
-150.5954589467261
 30
0.0
 10
112.2770399024863
 20
-150.9275661515042
 30
0.0
 10
112.0400173331011
 20
-151.1769910646363
 30
0.0
 10
111.7947265345513
 20
-151.27655432416
 30
0.0
 10
111.6889621031541
 20
-151.3189289986286
 30
0.0
 10
111.6889621031541
 20
-151.3189289986286
 30
0.0
 10
111.4943142082375
 20
-151.1370279570074
 30
0.0
 10
111.4943142082375
 20
-151.1370279570074
 30
0.0
 10
111.680349364441
 20
-151.090174658408
 30
0.0
 10
112.0424288999408
 20
-150.9971570803062
 30
0.0
 10
112.3383626021237
 20
-150.5020968590758
 30
0.0
 10
112.4992485612849
 20
-150.235790978066
 30
0.0
 10
112.5119954145803
 20
-150.0621581656095
 30
0.0
 10
112.5202636437449
 20
-149.9712076447988
 30
0.0
 10
112.5202636437449
 20
-149.9712076447988
 30
0.0
 10
112.0148681360588
 20
-149.9712076447988
 30
0.0
 10
112.0148681360588
 20
-149.9712076447988
 30
0.0
 10
111.8963568513662
 20
-149.9712076447988
 30
0.0
 10
111.4753661830686
 20
-149.9901556699677
 30
0.0
 10
111.3230929626206
 20
-150.000835465972
 30
0.0
 10
111.3230929626206
 20
-150.000835465972
 30
0.0
 10
111.3230929626206
 20
-149.7913736604688
 30
0.0
 10
111.3230929626206
 20
-149.7913736604688
 30
0.0
 10
111.4646863870644
 20
-149.8041205137642
 30
0.0
 10
111.742016573627
 20
-149.8082546283465
 30
0.0
 10
111.8581162914799
 20
-149.8082546283465
 30
0.0
 10
111.8581162914799
 20
-149.8082546283465
 30
0.0
 10
112.2136501455577
 20
-149.8082546283465
 30
0.0
 10
112.2136501455577
 20
-149.8082546283465
 30
0.0
 10
112.2412109094397
 20
-149.8082546283465
 30
0.0
 10
112.4017523590523
 20
-149.8061875710554
 30
0.0
 10
112.5119954145803
 20
-149.7913736604688
 30
0.0
 10
112.5691839996355
 20
-149.7851724885953
 30
0.0
 10
112.5860649675132
 20
-149.765879953878
 30
0.0
 10
112.6091471072644
 20
-149.7427978141268
 30
0.0
 10
112.6091471072644
 20
-149.7427978141268
 30
0.0
 10
112.7975938303075
 20
-149.8930039772837
 30
0.0
 10
112.7975938303075
 20
-149.8930039772837
 30
0.0
 10
112.782779919721
 20
-149.9226317984568
 30
0.0
 10
112.7721001237167
 20
-149.9415798236257
 30
0.0
 10
112.7362711306701
 20
-150.0115152619763
 30
0.0
  0
HATCH
  5
102
330
EF
100
AcDbEntity
  8
レイヤー 1
 62
    18
420
        0
440
 33554687
100
AcDbHatch
 10
0.0
 20
0.0
 30
0.0
210
0.0
220
0.0
230
1.0
  2
SOLID
 70
     1
 71
     1
 91
        1
 92
        1
 93
        1
 72
     4
 94
        3
 73
     0
 74
     0
 95
       47
 96
       43
 40
0.0
 40
0.0
 40
0.0
 40
0.0
 40
1.0
 40
1.0
 40
1.0
 40
2.0
 40
2.0
 40
2.0
 40
3.0
 40
3.0
 40
3.0
 40
4.0
 40
4.0
 40
4.0
 40
5.0
 40
5.0
 40
5.0
 40
6.0
 40
6.0
 40
6.0
 40
7.0
 40
7.0
 40
7.0
 40
8.0
 40
8.0
 40
8.0
 40
9.0
 40
9.0
 40
9.0
 40
10.0
 40
10.0
 40
10.0
 40
11.0
 40
11.0
 40
11.0
 40
12.0
 40
12.0
 40
12.0
 40
13.0
 40
13.0
 40
13.0
 40
14.0
 40
14.0
 40
14.0
 40
14.0
 10
112.7362711306701
 20
-150.0115152619763
 10
112.6663356923195
 20
-150.2905679962815
 10
112.5901990820955
 20
-150.5954589467261
 10
112.2770399024863
 20
-150.9275661515042
 10
112.0400173331011
 20
-151.1769910646363
 10
111.7947265345513
 20
-151.27655432416
 10
111.6889621031541
 20
-151.3189289986286
 10
111.6889621031541
 20
-151.3189289986286
 10
111.4943142082375
 20
-151.1370279570074
 10
111.4943142082375
 20
-151.1370279570074
 10
111.680349364441
 20
-151.090174658408
 10
112.0424288999408
 20
-150.9971570803062
 10
112.3383626021237
 20
-150.5020968590758
 10
112.4992485612849
 20
-150.235790978066
 10
112.5119954145803
 20
-150.0621581656095
 10
112.5202636437449
 20
-149.9712076447988
 10
112.5202636437449
 20
-149.9712076447988
 10
112.0148681360588
 20
-149.9712076447988
 10
112.0148681360588
 20
-149.9712076447988
 10
111.8963568513662
 20
-149.9712076447988
 10
111.4753661830686
 20
-149.9901556699677
 10
111.3230929626206
 20
-150.000835465972
 10
111.3230929626206
 20
-150.000835465972
 10
111.3230929626206
 20
-149.7913736604688
 10
111.3230929626206
 20
-149.7913736604688
 10
111.4646863870644
 20
-149.8041205137642
 10
111.742016573627
 20
-149.8082546283465
 10
111.8581162914799
 20
-149.8082546283465
 10
111.8581162914799
 20
-149.8082546283465
 10
112.2136501455577
 20
-149.8082546283465
 10
112.2136501455577
 20
-149.8082546283465
 10
112.2412109094397
 20
-149.8082546283465
 10
112.4017523590523
 20
-149.8061875710554
 10
112.5119954145803
 20
-149.7913736604688
 10
112.5691839996355
 20
-149.7851724885953
 10
112.5860649675132
 20
-149.765879953878
 10
112.6091471072644
 20
-149.7427978141268
 10
112.6091471072644
 20
-149.7427978141268
 10
112.7975938303075
 20
-149.8930039772837
 10
112.7975938303075
 20
-149.8930039772837
 10
112.782779919721
 20
-149.9226317984568
 10
112.7721001237167
 20
-149.9415798236257
 10
112.7362711306701
 20
-150.0115152619763
 97
        0
 97
        1
330
101
 75
     2
 76
     1
 98
        1
 10
0.0
 20
0.0
450
        0
451
        0
460
0.0
461
0.0
452
        0
462
0.0
453
        0
470

  0
SPLINE
  5
103
330
EF
100
AcDbEntity
  8
レイヤー 1
100
AcDbSpline
210
0.0
220
0.0
230
1.0
 70
    11
 71
     3
 72
    17
 73
    13
 74
     0
 42
0.0000000001
 43
0.0000000001
 40
0.0
 40
0.0
 40
0.0
 40
0.0
 40
1.0
 40
1.0
 40
1.0
 40
2.0
 40
2.0
 40
2.0
 40
3.0
 40
3.0
 40
3.0
 40
4.0
 40
4.0
 40
4.0
 40
4.0
 10
113.1266004491489
 20
-149.7934407177599
 30
0.0
 10
113.1266004491489
 20
-149.8526963601062
 30
0.0
 10
113.1731092381998
 20
-149.8992051491571
 30
0.0
 10
113.2323648805461
 20
-149.8992051491571
 30
0.0
 10
113.2916205228923
 20
-149.8992051491571
 30
0.0
 10
113.3401963692344
 20
-149.8526963601062
 30
0.0
 10
113.3401963692344
 20
-149.7934407177599
 30
0.0
 10
113.3401963692344
 20
-149.7341850754136
 30
0.0
 10
113.2916205228923
 20
-149.6856092290717
 30
0.0
 10
113.2323648805461
 20
-149.6856092290717
 30
0.0
 10
113.1731092381998
 20
-149.6856092290717
 30
0.0
 10
113.1266004491489
 20
-149.7341850754136
 30
0.0
 10
113.1266004491489
 20
-149.7934407177599
 30
0.0
  0
SPLINE
  5
104
330
EF
100
AcDbEntity
  8
レイヤー 1
100
AcDbSpline
210
0.0
220
0.0
230
1.0
 70
     9
 71
     3
 72
    17
 73
    13
 74
     0
 42
0.0000000001
 43
0.0000000001
 40
0.0
 40
0.0
 40
0.0
 40
0.0
 40
1.0
 40
1.0
 40
1.0
 40
2.0
 40
2.0
 40
2.0
 40
3.0
 40
3.0
 40
3.0
 40
4.0
 40
4.0
 40
4.0
 40
4.0
 10
113.4414821765007
 20
-149.7934407177599
 30
0.0
 10
113.4414821765007
 20
-149.9078178878702
 30
0.0
 10
113.348464598399
 20
-150.0029025232632
 30
0.0
 10
113.2323648805461
 20
-150.0029025232632
 30
0.0
 10
113.1179877104358
 20
-150.0029025232632
 30
0.0
 10
113.0229030750429
 20
-149.9078178878702
 30
0.0
 10
113.0229030750429
 20
-149.7934407177599
 30
0.0
 10
113.0229030750429
 20
-149.6769964903585
 30
0.0
 10
113.1179877104358
 20
-149.5839789122568
 30
0.0
 10
113.2323648805461
 20
-149.5839789122568
 30
0.0
 10
113.3463975411078
 20
-149.5839789122568
 30
0.0
 10
113.4414821765007
 20
-149.6769964903585
 30
0.0
 10
113.4414821765007
 20
-149.7934407177599
 30
0.0
  0
HATCH
  5
105
330
EF
100
AcDbEntity
  8
レイヤー 1
 62
    18
420
        0
440
 33554687
100
AcDbHatch
 10
0.0
 20
0.0
 30
0.0
210
0.0
220
0.0
230
1.0
  2
SOLID
 70
     1
 71
     1
 91
        2
 92
        1
 93
        1
 72
     4
 94
        3
 73
     0
 74
     0
 95
       17
 96
       13
 40
0.0
 40
0.0
 40
0.0
 40
0.0
 40
1.0
 40
1.0
 40
1.0
 40
2.0
 40
2.0
 40
2.0
 40
3.0
 40
3.0
 40
3.0
 40
4.0
 40
4.0
 40
4.0
 40
4.0
 10
113.1266004491489
 20
-149.7934407177599
 10
113.1266004491489
 20
-149.8526963601062
 10
113.1731092381998
 20
-149.8992051491571
 10
113.2323648805461
 20
-149.8992051491571
 10
113.2916205228923
 20
-149.8992051491571
 10
113.3401963692344
 20
-149.8526963601062
 10
113.3401963692344
 20
-149.7934407177599
 10
113.3401963692344
 20
-149.7341850754136
 10
113.2916205228923
 20
-149.6856092290717
 10
113.2323648805461
 20
-149.6856092290717
 10
113.1731092381998
 20
-149.6856092290717
 10
113.1266004491489
 20
-149.7341850754136
 10
113.1266004491489
 20
-149.7934407177599
 97
        0
 97
        1
330
103
 92
        1
 93
        1
 72
     4
 94
        3
 73
     0
 74
     0
 95
       17
 96
       13
 40
0.0
 40
0.0
 40
0.0
 40
0.0
 40
1.0
 40
1.0
 40
1.0
 40
2.0
 40
2.0
 40
2.0
 40
3.0
 40
3.0
 40
3.0
 40
4.0
 40
4.0
 40
4.0
 40
4.0
 10
113.4414821765007
 20
-149.7934407177599
 10
113.4414821765007
 20
-149.9078178878702
 10
113.348464598399
 20
-150.0029025232632
 10
113.2323648805461
 20
-150.0029025232632
 10
113.1179877104358
 20
-150.0029025232632
 10
113.0229030750429
 20
-149.9078178878702
 10
113.0229030750429
 20
-149.7934407177599
 10
113.0229030750429
 20
-149.6769964903585
 10
113.1179877104358
 20
-149.5839789122568
 10
113.2323648805461
 20
-149.5839789122568
 10
113.3463975411078
 20
-149.5839789122568
 10
113.4414821765007
 20
-149.6769964903585
 10
113.4414821765007
 20
-149.7934407177599
 97
        0
 97
        1
330
104
 75
     2
 76
     1
 98
        1
 10
0.0
 20
0.0
450
        0
451
        0
460
0.0
461
0.0
452
        0
462
0.0
453
        0
470

  0
ENDBLK
  5
F2
330
EF
100
AcDbEntity
  8
0
100
AcDbBlockEnd
  0
ENDSEC
  0
SECTION
  2
ENTITIES
  0
INSERT
  5
7A
330
70
100
AcDbEntity
  8
レイヤー 1
100
AcDbBlockReference
  2
Block_0
 10
0.0
 20
0.0
 30
0.0
  0
LINE
  5
E2
330
70
100
AcDbEntity
  8
レイヤー 1
  6
AI-Linetype-0
 62
   154
420
    23468
370
    25
100
AcDbLine
 10
103.6160333834719
 20
-153.6699900328897
 30
0.0
 11
113.6618877592818
 21
-153.6699900328897
 31
0.0
  0
INSERT
  5
E5
330
70
100
AcDbEntity
  8
レイヤー 1
100
AcDbBlockReference
  2
Block_11
 10
0.0
 20
0.0
 30
0.0
  0
INSERT
  5
EC
330
70
100
AcDbEntity
  8
レイヤー 1
100
AcDbBlockReference
  2
Block_12
 10
0.0
 20
0.0
 30
0.0
  0
ENDSEC
  0
SECTION
  2
OBJECTS
  0
DICTIONARY
  5
C
330
0
100
AcDbDictionary
281
     1
  3
ACAD_COLOR
350
63
  3
ACAD_DETAILVIEWSTYLE
350
6A
  3
ACAD_GROUP
350
D
  3
ACAD_LAYOUT
350
62
  3
ACAD_MATERIAL
350
10
  3
ACAD_MLEADERSTYLE
350
66
  3
ACAD_MLINESTYLE
350
5F
  3
ACAD_PLOTSETTINGS
350
61
  3
ACAD_PLOTSTYLENAME
350
E
  3
ACAD_SCALELIST
350
42
  3
ACAD_SECTIONVIEWSTYLE
350
68
  3
ACAD_TABLESTYLE
350
64
  3
ACAD_VISUALSTYLE
350
29
  3
ACDB_RECOMPOSE_DATA
350
10E
  3
AcDbVariableDictionary
350
106
  0
DICTIONARY
  5
63
102
{ACAD_REACTORS
330
C
102
}
330
C
100
AcDbDictionary
281
     1
  0
DICTIONARY
  5
6A
102
{ACAD_REACTORS
330
C
102
}
330
C
100
AcDbDictionary
281
     1
  3
Imperial24
350
6B
  0
DICTIONARY
  5
D
102
{ACAD_REACTORS
330
C
102
}
330
C
100
AcDbDictionary
281
     1
  0
DICTIONARY
  5
62
102
{ACAD_REACTORS
330
C
102
}
330
C
100
AcDbDictionary
281
     1
  3
Layout1
350
6F
  3
Layout2
350
77
  3
Model
350
73
  0
DICTIONARY
  5
10
102
{ACAD_REACTORS
330
C
102
}
330
C
100
AcDbDictionary
281
     1
  3
ByBlock
350
19
  3
ByLayer
350
11
  3
Global
350
21
  0
DICTIONARY
  5
66
102
{ACAD_REACTORS
330
C
102
}
330
C
100
AcDbDictionary
281
     1
  3
Standard
350
67
  0
DICTIONARY
  5
5F
102
{ACAD_REACTORS
330
C
102
}
330
C
100
AcDbDictionary
281
     1
  3
Standard
350
60
  0
DICTIONARY
  5
61
102
{ACAD_REACTORS
330
C
102
}
330
C
100
AcDbDictionary
281
     1
  0
ACDBDICTIONARYWDFLT
  5
E
102
{ACAD_REACTORS
330
C
102
}
330
C
100
AcDbDictionary
281
     1
  3
Normal
350
F
100
AcDbDictionaryWithDefault
340
F
  0
DICTIONARY
  5
42
102
{ACAD_REACTORS
330
C
102
}
330
C
100
AcDbDictionary
281
     1
  3
A0
350
43
  3
A1
350
44
  3
A2
350
45
  3
A3
350
46
  3
A4
350
47
  3
A5
350
48
  3
A6
350
49
  3
A7
350
4A
  3
A8
350
4B
  3
A9
350
4C
  3
B0
350
4D
  3
B1
350
4E
  3
B2
350
4F
  3
B3
350
50
  3
B4
350
51
  3
B5
350
52
  3
B6
350
53
  0
DICTIONARY
  5
68
102
{ACAD_REACTORS
330
C
102
}
330
C
100
AcDbDictionary
281
     1
  3
Imperial24
350
69
  0
DICTIONARY
  5
64
102
{ACAD_REACTORS
330
C
102
}
330
C
100
AcDbDictionary
281
     1
  3
Standard
350
65
  0
DICTIONARY
  5
29
102
{ACAD_REACTORS
330
C
102
}
330
C
100
AcDbDictionary
281
     1
  3
2dWireframe
350
2F
  3
Basic
350
2E
  3
Brighten
350
35
  3
ColorChange
350
39
  3
Conceptual
350
32
  3
Dim
350
34
  3
EdgeColorOff
350
41
  3
Facepattern
350
38
  3
Flat
350
2A
  3
FlatWithEdges
350
2B
  3
Gouraud
350
2C
  3
GouraudWithEdges
350
2D
  3
Hidden
350
31
  3
JitterOff
350
3F
  3
Linepattern
350
37
  3
OverhangOff
350
40
  3
Realistic
350
33
  3
Shaded
350
3E
  3
Shaded with edges
350
3D
  3
Shades of Gray
350
3A
  3
Sketchy
350
3B
  3
Thicken
350
36
  3
Wireframe
350
30
  3
X-Ray
350
3C
  0
XRECORD
  5
10E
102
{ACAD_REACTORS
330
C
102
}
330
C
100
AcDbXrecord
280
     1
 90
        1
330
65
  0
DICTIONARY
  5
106
102
{ACAD_REACTORS
330
C
102
}
330
C
100
AcDbDictionary
281
     1
  3
CANNOSCALE
350
10B
  3
CMLEADERSTYLE
350
108
  3
CTABLESTYLE
350
107
  3
CVIEWDETAILSTYLE
350
109
  3
CVIEWSECTIONSTYLE
350
10A
  0
ACDBDETAILVIEWSTYLE
  5
6B
102
{ACAD_XDICTIONARY
360
143
102
}
102
{ACAD_REACTORS
330
6A
102
}
330
6A
100
AcDbModelDocViewStyle
 70
     0
  3
Imperial24
290
     0
100
AcDbDetailViewStyle
 70
     0
 71
     0
 90
        3
 71
     1
340
55
 62
   256
 40
0.24
340
0
 62
   256
 40
0.24
300

 40
0.36
280
     3
 71
     2
340
5D
 90
       25
 62
   256
 71
     3
340
55
 62
   256
 40
0.24
 90
        1
 40
0.75
 90
        1
300
%<\AcVar ViewType \f "%tc1">% %<\AcVar ViewDetailId>%\PSCALE %<\AcVar ViewScale \f "%sn">%
 71
     4
340
5D
 90
       25
 62
   256
340
5D
 90
       25
 62
   256
280
     0
  0
LAYOUT
  5
6F
102
{ACAD_REACTORS
330
62
102
}
330
62
100
AcDbPlotSettings
  1

  2

  4

  6

 40
0.0
 41
0.0
 42
0.0
 43
0.0
 44
0.0
 45
0.0
 46
0.0
 47
0.0
 48
0.0
 49
0.0
140
0.0
141
0.0
142
1.0
143
1.0
 70
   688
 72
     0
 73
     0
 74
     5
  7

 75
    16
147
1.0
 76
     0
 77
     2
 78
   300
148
0.0
149
0.0
100
AcDbLayout
  1
Layout1
 70
     1
 71
     1
 10
0.0
 20
0.0
 11
12.0
 21
9.0
 12
0.0
 22
0.0
 32
0.0
 14
0.0
 24
0.0
 34
0.0
 15
0.0
 25
0.0
 35
0.0
146
0.0
 13
0.0
 23
0.0
 33
0.0
 16
1.0
 26
0.0
 36
0.0
 17
0.0
 27
1.0
 37
0.0
 76
     0
330
6C
  0
LAYOUT
  5
77
102
{ACAD_REACTORS
330
62
102
}
330
62
100
AcDbPlotSettings
  1

  2

  4

  6

 40
0.0
 41
0.0
 42
0.0
 43
0.0
 44
0.0
 45
0.0
 46
0.0
 47
0.0
 48
0.0
 49
0.0
140
0.0
141
0.0
142
1.0
143
1.0
 70
   688
 72
     0
 73
     0
 74
     5
  7

 75
    16
147
1.0
 76
     0
 77
     2
 78
   300
148
0.0
149
0.0
100
AcDbLayout
  1
Layout2
 70
     1
 71
     2
 10
0.0
 20
0.0
 11
12.0
 21
9.0
 12
0.0
 22
0.0
 32
0.0
 14
0.0
 24
0.0
 34
0.0
 15
0.0
 25
0.0
 35
0.0
146
0.0
 13
0.0
 23
0.0
 33
0.0
 16
1.0
 26
0.0
 36
0.0
 17
0.0
 27
1.0
 37
0.0
 76
     0
330
74
  0
LAYOUT
  5
73
102
{ACAD_REACTORS
330
62
102
}
330
62
100
AcDbPlotSettings
  1

  2

  4

  6

 40
0.0
 41
0.0
 42
0.0
 43
0.0
 44
0.0
 45
0.0
 46
0.0
 47
0.0
 48
0.0
 49
0.0
140
0.0
141
0.0
142
1.0
143
1.0
 70
  1712
 72
     0
 73
     0
 74
     0
  7

 75
     0
147
1.0
 76
     0
 77
     2
 78
   300
148
0.0
149
0.0
100
AcDbLayout
  1
Model
 70
     1
 71
     0
 10
0.0
 20
0.0
 11
12.0
 21
9.0
 12
0.0
 22
0.0
 32
0.0
 14
0.0
 24
0.0
 34
0.0
 15
0.0
 25
0.0
 35
0.0
146
0.0
 13
0.0
 23
0.0
 33
0.0
 16
1.0
 26
0.0
 36
0.0
 17
0.0
 27
1.0
 37
0.0
 76
     0
330
70
  0
MATERIAL
  5
19
102
{ACAD_XDICTIONARY
360
1A
102
}
102
{ACAD_REACTORS
330
10
102
}
330
10
100
AcDbMaterial
  1
ByBlock
 72
     0
 43
0.0208333333333333
 43
0.0
 43
0.0
 43
0.0
 43
0.0
 43
0.0208333333333333
 43
0.0
 43
0.0
 43
0.0
 43
0.0
 43
1.0
 43
0.0
 43
0.0
 43
0.0
 43
0.0
 43
1.0
 77
     0
 47
0.0208333333333333
 47
0.0
 47
0.0
 47
0.0
 47
0.0
 47
0.0208333333333333
 47
0.0
 47
0.0
 47
0.0
 47
0.0
 47
1.0
 47
0.0
 47
0.0
 47
0.0
 47
0.0
 47
1.0
171
     0
 49
0.0208333333333333
 49
0.0
 49
0.0
 49
0.0
 49
0.0
 49
0.0208333333333333
 49
0.0
 49
0.0
 49
0.0
 49
0.0
 49
1.0
 49
0.0
 49
0.0
 49
0.0
 49
0.0
 49
1.0
175
     0
142
0.0208333333333333
142
0.0
142
0.0
142
0.0
142
0.0
142
0.0208333333333333
142
0.0
142
0.0
142
0.0
142
0.0
142
1.0
142
0.0
142
0.0
142
0.0
142
0.0
142
1.0
179
     0
144
0.0208333333333333
144
0.0
144
0.0
144
0.0
144
0.0
144
0.0208333333333333
144
0.0
144
0.0
144
0.0
144
0.0
144
1.0
144
0.0
144
0.0
144
0.0
144
0.0
144
1.0
147
0.0208333333333333
147
0.0
147
0.0
147
0.0
147
0.0
147
0.0208333333333333
147
0.0
147
0.0
147
0.0
147
0.0
147
1.0
147
0.0
147
0.0
147
0.0
147
0.0
147
1.0
  0
MATERIAL
  5
11
102
{ACAD_XDICTIONARY
360
12
102
}
102
{ACAD_REACTORS
330
10
102
}
330
10
100
AcDbMaterial
  1
ByLayer
 72
     0
 43
0.0208333333333333
 43
0.0
 43
0.0
 43
0.0
 43
0.0
 43
0.0208333333333333
 43
0.0
 43
0.0
 43
0.0
 43
0.0
 43
1.0
 43
0.0
 43
0.0
 43
0.0
 43
0.0
 43
1.0
 77
     0
 47
0.0208333333333333
 47
0.0
 47
0.0
 47
0.0
 47
0.0
 47
0.0208333333333333
 47
0.0
 47
0.0
 47
0.0
 47
0.0
 47
1.0
 47
0.0
 47
0.0
 47
0.0
 47
0.0
 47
1.0
171
     0
 49
0.0208333333333333
 49
0.0
 49
0.0
 49
0.0
 49
0.0
 49
0.0208333333333333
 49
0.0
 49
0.0
 49
0.0
 49
0.0
 49
1.0
 49
0.0
 49
0.0
 49
0.0
 49
0.0
 49
1.0
175
     0
142
0.0208333333333333
142
0.0
142
0.0
142
0.0
142
0.0
142
0.0208333333333333
142
0.0
142
0.0
142
0.0
142
0.0
142
1.0
142
0.0
142
0.0
142
0.0
142
0.0
142
1.0
179
     0
144
0.0208333333333333
144
0.0
144
0.0
144
0.0
144
0.0
144
0.0208333333333333
144
0.0
144
0.0
144
0.0
144
0.0
144
1.0
144
0.0
144
0.0
144
0.0
144
0.0
144
1.0
147
0.0208333333333333
147
0.0
147
0.0
147
0.0
147
0.0
147
0.0208333333333333
147
0.0
147
0.0
147
0.0
147
0.0
147
1.0
147
0.0
147
0.0
147
0.0
147
0.0
147
1.0
  0
MATERIAL
  5
21
102
{ACAD_XDICTIONARY
360
22
102
}
102
{ACAD_REACTORS
330
10
102
}
330
10
100
AcDbMaterial
  1
Global
 72
     0
 43
0.0208333333333333
 43
0.0
 43
0.0
 43
0.0
 43
0.0
 43
0.0208333333333333
 43
0.0
 43
0.0
 43
0.0
 43
0.0
 43
1.0
 43
0.0
 43
0.0
 43
0.0
 43
0.0
 43
1.0
 77
     0
 47
0.0208333333333333
 47
0.0
 47
0.0
 47
0.0
 47
0.0
 47
0.0208333333333333
 47
0.0
 47
0.0
 47
0.0
 47
0.0
 47
1.0
 47
0.0
 47
0.0
 47
0.0
 47
0.0
 47
1.0
171
     0
 49
0.0208333333333333
 49
0.0
 49
0.0
 49
0.0
 49
0.0
 49
0.0208333333333333
 49
0.0
 49
0.0
 49
0.0
 49
0.0
 49
1.0
 49
0.0
 49
0.0
 49
0.0
 49
0.0
 49
1.0
175
     0
142
0.0208333333333333
142
0.0
142
0.0
142
0.0
142
0.0
142
0.0208333333333333
142
0.0
142
0.0
142
0.0
142
0.0
142
1.0
142
0.0
142
0.0
142
0.0
142
0.0
142
1.0
179
     0
144
0.0208333333333333
144
0.0
144
0.0
144
0.0
144
0.0
144
0.0208333333333333
144
0.0
144
0.0
144
0.0
144
0.0
144
1.0
144
0.0
144
0.0
144
0.0
144
0.0
144
1.0
147
0.0208333333333333
147
0.0
147
0.0
147
0.0
147
0.0
147
0.0208333333333333
147
0.0
147
0.0
147
0.0
147
0.0
147
1.0
147
0.0
147
0.0
147
0.0
147
0.0
147
1.0
  0
MLEADERSTYLE
  5
67
102
{ACAD_XDICTIONARY
360
13F
102
}
102
{ACAD_REACTORS
330
66
102
}
330
66
100
AcDbMLeaderStyle
179
     2
170
     2
171
     1
172
     0
 90
        2
 40
0.0
 41
0.0
173
     1
 91
-1056964608
340
5B
 92
       -2
290
     1
 42
0.09
291
     1
 43
0.36
  3
Standard
 44
0.18
300

342
55
174
     1
178
     6
175
     1
176
     0
 93
-1056964608
 45
0.18
292
     0
297
     0
 46
0.18
 94
-1056964608
 47
1.0
 49
1.0
140
1.0
293
     1
141
0.0
294
     1
177
     0
142
1.0
295
     0
296
     0
143
0.125
271
     0
272
     9
273
     9
  0
MLINESTYLE
  5
60
102
{ACAD_REACTORS
330
5F
102
}
330
5F
100
AcDbMlineStyle
  2
STANDARD
 70
     0
  3

 62
   256
 51
90.0
 52
90.0
 71
     2
 49
0.5
 62
   256
  6
BYLAYER
 49
-0.5
 62
   256
  6
BYLAYER
  0
ACDBPLACEHOLDER
  5
F
102
{ACAD_REACTORS
330
E
102
}
330
E
  0
SCALE
  5
43
102
{ACAD_REACTORS
330
42
102
}
330
42
100
AcDbScale
 70
     0
300
1:1
140
1.0
141
1.0
290
     1
  0
SCALE
  5
44
102
{ACAD_REACTORS
330
42
102
}
330
42
100
AcDbScale
 70
     0
300
1/128" = 1'-0"
140
0.0078125
141
12.0
290
     0
  0
SCALE
  5
45
102
{ACAD_REACTORS
330
42
102
}
330
42
100
AcDbScale
 70
     0
300
1/64" = 1'-0"
140
0.015625
141
12.0
290
     0
  0
SCALE
  5
46
102
{ACAD_REACTORS
330
42
102
}
330
42
100
AcDbScale
 70
     0
300
1/32" = 1'-0"
140
0.03125
141
12.0
290
     0
  0
SCALE
  5
47
102
{ACAD_REACTORS
330
42
102
}
330
42
100
AcDbScale
 70
     0
300
1/16" = 1'-0"
140
0.0625
141
12.0
290
     0
  0
SCALE
  5
48
102
{ACAD_REACTORS
330
42
102
}
330
42
100
AcDbScale
 70
     0
300
3/32" = 1'-0"
140
0.09375
141
12.0
290
     0
  0
SCALE
  5
49
102
{ACAD_REACTORS
330
42
102
}
330
42
100
AcDbScale
 70
     0
300
1/8" = 1'-0"
140
0.125
141
12.0
290
     0
  0
SCALE
  5
4A
102
{ACAD_REACTORS
330
42
102
}
330
42
100
AcDbScale
 70
     0
300
3/16" = 1'-0"
140
0.1875
141
12.0
290
     0
  0
SCALE
  5
4B
102
{ACAD_REACTORS
330
42
102
}
330
42
100
AcDbScale
 70
     0
300
1/4" = 1'-0"
140
0.25
141
12.0
290
     0
  0
SCALE
  5
4C
102
{ACAD_REACTORS
330
42
102
}
330
42
100
AcDbScale
 70
     0
300
3/8" = 1'-0"
140
0.375
141
12.0
290
     0
  0
SCALE
  5
4D
102
{ACAD_REACTORS
330
42
102
}
330
42
100
AcDbScale
 70
     0
300
1/2" = 1'-0"
140
0.5
141
12.0
290
     0
  0
SCALE
  5
4E
102
{ACAD_REACTORS
330
42
102
}
330
42
100
AcDbScale
 70
     0
300
3/4" = 1'-0"
140
0.75
141
12.0
290
     0
  0
SCALE
  5
4F
102
{ACAD_REACTORS
330
42
102
}
330
42
100
AcDbScale
 70
     0
300
1" = 1'-0"
140
1.0
141
12.0
290
     0
  0
SCALE
  5
50
102
{ACAD_REACTORS
330
42
102
}
330
42
100
AcDbScale
 70
     0
300
1-1/2" = 1'-0"
140
1.5
141
12.0
290
     0
  0
SCALE
  5
51
102
{ACAD_REACTORS
330
42
102
}
330
42
100
AcDbScale
 70
     0
300
3" = 1'-0"
140
3.0
141
12.0
290
     0
  0
SCALE
  5
52
102
{ACAD_REACTORS
330
42
102
}
330
42
100
AcDbScale
 70
     0
300
6" = 1'-0"
140
6.0
141
12.0
290
     0
  0
SCALE
  5
53
102
{ACAD_REACTORS
330
42
102
}
330
42
100
AcDbScale
 70
     0
300
1'-0" = 1'-0"
140
12.0
141
12.0
290
     0
  0
ACDBSECTIONVIEWSTYLE
  5
69
102
{ACAD_XDICTIONARY
360
141
102
}
102
{ACAD_REACTORS
330
68
102
}
330
68
100
AcDbModelDocViewStyle
 70
     0
  3
Imperial24
290
     0
100
AcDbSectionViewStyle
 70
     0
 71
     0
 90
       78
 71
     1
340
55
 62
   256
 40
0.24
340
0
340
0
 62
   256
 40
0.24
300
I, O, Q, S, X, Z
 40
0.48
 90
        3
 40
0.18
 90
        1
 71
     2
340
5D
 90
       25
 62
   256
340
5D
 90
       50
 62
   256
 40
0.24
 40
0.0
 40
0.24
 71
     3
340
55
 62
   256
 40
0.24
 90
        1
 40
0.75
 90
        1
300
%<\AcVar ViewType \f "%tc1">% %<\AcVar ViewSectionStartId>%-%<\AcVar ViewSectionEndId>%\PSCALE %<\AcVar ViewScale \f "%sn">%
 71
     4
 62
   256
 62
   257
300
ANSI31
 40
1.0
 90
        0
290
     0
290
     0
 90
        6
 40
0.0
 40
1.570796326794896
 40
0.2617993877991494
 40
1.308996938995747
 40
-0.2617993877991494
 40
1.832595714594046
  0
TABLESTYLE
  5
65
102
{ACAD_XDICTIONARY
360
10C
102
}
102
{ACAD_REACTORS
330
64
102
}
330
64
100
AcDbTableStyle
280
     0
  3
Standard
 70
     0
 71
     0
 40
0.06
 41
0.06
280
     0
281
     0
  7
Standard
140
0.18
170
     2
 62
     0
 63
     7
283
     0
 90
      512
 91
        0
  1

274
    -2
284
     1
 64
     0
275
    -2
285
     1
 65
     0
276
    -2
286
     1
 66
     0
277
    -2
287
     1
 67
     0
278
    -2
288
     1
 68
     0
279
    -2
289
     1
 69
     0
  7
Standard
140
0.25
170
     5
 62
     0
 63
     7
283
     0
 90
      512
 91
        0
  1

274
    -2
284
     1
 64
     0
275
    -2
285
     1
 65
     0
276
    -2
286
     1
 66
     0
277
    -2
287
     1
 67
     0
278
    -2
288
     1
 68
     0
279
    -2
289
     1
 69
     0
  7
Standard
140
0.18
170
     5
 62
     0
 63
     7
283
     0
 90
      512
 91
        0
  1

274
    -2
284
     1
 64
     0
275
    -2
285
     1
 65
     0
276
    -2
286
     1
 66
     0
277
    -2
287
     1
 67
     0
278
    -2
288
     1
 68
     0
279
    -2
289
     1
 69
     0
  0
VISUALSTYLE
  5
2F
102
{ACAD_XDICTIONARY
360
119
102
}
102
{ACAD_REACTORS
330
29
102
}
330
29
100
AcDbVisualStyle
  2
2dWireframe
 70
     4
177
     2
291
     0
 71
     0
176
     1
 72
     2
176
     1
 73
     0
176
     1
 90
        0
176
     1
 40
0.6
176
     1
 41
30.0
176
     1
 63
     7
421
 16777215
176
     1
 74
     1
176
     1
 91
        4
176
     1
 64
     7
176
     1
 65
   257
176
     1
 75
     1
176
     1
175
     1
176
     1
 42
1.0
176
     1
 92
        0
176
     1
 66
   257
176
     1
 43
1.0
176
     1
 76
     1
176
     1
 77
     6
176
     1
 78
     2
176
     1
 67
     7
176
     1
 79
     5
176
     1
170
     0
176
     1
171
     0
176
     1
290
     0
176
     1
 93
        1
176
     1
 44
0.0
176
     1
173
     0
176
     1
1001
ACAD
1000
AcDbSavedByObjectVersion
1070
     0
  0
VISUALSTYLE
  5
2E
102
{ACAD_XDICTIONARY
360
117
102
}
102
{ACAD_REACTORS
330
29
102
}
330
29
100
AcDbVisualStyle
  2
Basic
 70
     7
177
     2
291
     1
 71
     1
176
     1
 72
     0
176
     1
 73
     1
176
     1
 90
        0
176
     1
 40
0.6
176
     1
 41
30.0
176
     1
 63
     7
421
 16777215
176
     1
 74
     0
176
     1
 91
        4
176
     1
 64
     7
176
     1
 65
   257
176
     1
 75
     1
176
     1
175
     1
176
     1
 42
1.0
176
     1
 92
        8
176
     1
 66
     7
176
     1
 43
1.0
176
     1
 76
     1
176
     1
 77
     6
176
     1
 78
     2
176
     1
 67
     7
176
     1
 79
     5
176
     1
170
     0
176
     1
171
     0
176
     1
290
     0
176
     1
 93
        1
176
     1
 44
0.0
176
     1
173
     0
176
     1
1001
ACAD
1000
AcDbSavedByObjectVersion
1070
     0
  0
VISUALSTYLE
  5
35
102
{ACAD_XDICTIONARY
360
125
102
}
102
{ACAD_REACTORS
330
29
102
}
330
29
100
AcDbVisualStyle
  2
Brighten
 70
    12
177
     2
291
     1
 71
     2
176
     1
 72
     2
176
     1
 73
     0
176
     1
 90
        0
176
     1
 40
0.6
176
     1
 41
30.0
176
     1
 63
     7
421
 16777215
176
     1
 74
     1
176
     1
 91
        4
176
     1
 64
     7
176
     1
 65
   257
176
     1
 75
     1
176
     1
175
     1
176
     1
 42
1.0
176
     1
 92
        8
176
     1
 66
     7
176
     1
 43
1.0
176
     1
 76
     1
176
     1
 77
     6
176
     1
 78
     2
176
     1
 67
     7
176
     1
 79
     5
176
     1
170
     0
176
     1
171
     0
176
     1
290
     0
176
     1
 93
        1
176
     1
 44
50.0
176
     1
173
     0
176
     1
1001
ACAD
1000
AcDbSavedByObjectVersion
1070
     0
  0
VISUALSTYLE
  5
39
102
{ACAD_XDICTIONARY
360
12D
102
}
102
{ACAD_REACTORS
330
29
102
}
330
29
100
AcDbVisualStyle
  2
ColorChange
 70
    16
177
     2
291
     1
 71
     2
176
     1
 72
     2
176
     1
 73
     3
176
     1
 90
        0
176
     1
 40
0.6
176
     1
 41
30.0
176
     1
 63
     8
421
  8421504
176
     1
 74
     1
176
     1
 91
        4
176
     1
 64
     7
176
     1
 65
   257
176
     1
 75
     1
176
     1
175
     1
176
     1
 42
1.0
176
     1
 92
        8
176
     1
 66
     8
424
  8421504
176
     1
 43
1.0
176
     1
 76
     1
176
     1
 77
     6
176
     1
 78
     2
176
     1
 67
     7
176
     1
 79
     5
176
     1
170
     0
176
     1
171
     0
176
     1
290
     0
176
     1
 93
        1
176
     1
 44
0.0
176
     1
173
     0
176
     1
1001
ACAD
1000
AcDbSavedByObjectVersion
1070
     0
  0
VISUALSTYLE
  5
32
102
{ACAD_XDICTIONARY
360
11F
102
}
102
{ACAD_REACTORS
330
29
102
}
330
29
100
AcDbVisualStyle
  2
Conceptual
 70
     9
177
     2
291
     0
 71
     3
176
     1
 72
     2
176
     1
 73
     0
176
     1
 90
        0
176
     1
 40
0.6
176
     1
 41
30.0
176
     1
 63
     7
421
 16777215
176
     1
 74
     2
176
     1
 91
        2
176
     1
 64
     7
176
     1
 65
   257
176
     1
 75
     1
176
     1
175
     1
176
     1
 42
179.0
176
     1
 92
        8
176
     1
 66
     7
176
     1
 43
1.0
176
     1
 76
     1
176
     1
 77
     6
176
     1
 78
     2
176
     1
 67
     7
176
     1
 79
     3
176
     1
170
     0
176
     1
171
     0
176
     1
290
     0
176
     1
 93
        1
176
     1
 44
0.0
176
     1
173
     0
176
     1
1001
ACAD
1000
AcDbSavedByObjectVersion
1070
     0
  0
VISUALSTYLE
  5
34
102
{ACAD_XDICTIONARY
360
123
102
}
102
{ACAD_REACTORS
330
29
102
}
330
29
100
AcDbVisualStyle
  2
Dim
 70
    11
177
     2
291
     1
 71
     2
176
     1
 72
     2
176
     1
 73
     0
176
     1
 90
        0
176
     1
 40
0.6
176
     1
 41
30.0
176
     1
 63
     7
421
 16777215
176
     1
 74
     1
176
     1
 91
        4
176
     1
 64
     7
176
     1
 65
   257
176
     1
 75
     1
176
     1
175
     1
176
     1
 42
1.0
176
     1
 92
        8
176
     1
 66
     7
176
     1
 43
1.0
176
     1
 76
     1
176
     1
 77
     6
176
     1
 78
     2
176
     1
 67
     7
176
     1
 79
     5
176
     1
170
     0
176
     1
171
     0
176
     1
290
     0
176
     1
 93
        1
176
     1
 44
-50.0
176
     1
173
     0
176
     1
1001
ACAD
1000
AcDbSavedByObjectVersion
1070
     0
  0
VISUALSTYLE
  5
41
102
{ACAD_XDICTIONARY
360
13D
102
}
102
{ACAD_REACTORS
330
29
102
}
330
29
100
AcDbVisualStyle
  2
EdgeColorOff
 70
    22
177
     2
291
     1
 71
     2
176
     0
 72
     2
176
     0
 73
     0
176
     0
 90
        0
176
     0
 40
0.6
176
     0
 41
30.0
176
     0
 63
     7
421
 16777215
176
     0
 74
     1
176
     0
 91
        4
176
     0
 64
     7
176
     0
 65
   257
176
     0
 75
     1
176
     0
175
     1
176
     0
 42
1.0
176
     0
 92
        8
176
     2
 66
     7
176
     0
 43
1.0
176
     0
 76
     1
176
     0
 77
     6
176
     0
 78
     2
176
     0
 67
     7
176
     0
 79
     5
176
     0
170
     0
176
     0
171
     0
176
     0
290
     0
176
     0
 93
        1
176
     0
 44
0.0
176
     0
173
     0
176
     0
1001
ACAD
1000
AcDbSavedByObjectVersion
1070
     0
  0
VISUALSTYLE
  5
38
102
{ACAD_XDICTIONARY
360
12B
102
}
102
{ACAD_REACTORS
330
29
102
}
330
29
100
AcDbVisualStyle
  2
Facepattern
 70
    15
177
     2
291
     1
 71
     2
176
     1
 72
     2
176
     1
 73
     0
176
     1
 90
        0
176
     1
 40
0.6
176
     1
 41
30.0
176
     1
 63
     7
421
 16777215
176
     1
 74
     1
176
     1
 91
        4
176
     1
 64
     7
176
     1
 65
   257
176
     1
 75
     1
176
     1
175
     1
176
     1
 42
1.0
176
     1
 92
        8
176
     1
 66
     7
176
     1
 43
1.0
176
     1
 76
     1
176
     1
 77
     6
176
     1
 78
     2
176
     1
 67
     7
176
     1
 79
     5
176
     1
170
     0
176
     1
171
     0
176
     1
290
     0
176
     1
 93
        1
176
     1
 44
0.0
176
     1
173
     0
176
     1
1001
ACAD
1000
AcDbSavedByObjectVersion
1070
     0
  0
VISUALSTYLE
  5
2A
102
{ACAD_XDICTIONARY
360
10F
102
}
102
{ACAD_REACTORS
330
29
102
}
330
29
100
AcDbVisualStyle
  2
Flat
 70
     0
177
     2
291
     1
 71
     2
176
     1
 72
     1
176
     1
 73
     1
176
     1
 90
        2
176
     1
 40
0.6
176
     1
 41
30.0
176
     1
 63
     7
421
 16777215
176
     1
 74
     0
176
     1
 91
        0
176
     1
 64
     7
176
     1
 65
   257
176
     1
 75
     1
176
     1
175
     1
176
     1
 42
1.0
176
     1
 92
        8
176
     1
 66
     7
176
     1
 43
1.0
176
     1
 76
     1
176
     1
 77
     6
176
     1
 78
     2
176
     1
 67
     7
176
     1
 79
     5
176
     1
170
     0
176
     1
171
     0
176
     1
290
     0
176
     1
 93
       13
176
     1
 44
0.0
176
     1
173
     0
176
     1
1001
ACAD
1000
AcDbSavedByObjectVersion
1070
     0
  0
VISUALSTYLE
  5
2B
102
{ACAD_XDICTIONARY
360
111
102
}
102
{ACAD_REACTORS
330
29
102
}
330
29
100
AcDbVisualStyle
  2
FlatWithEdges
 70
     1
177
     2
291
     1
 71
     2
176
     1
 72
     1
176
     1
 73
     1
176
     1
 90
        2
176
     1
 40
0.6
176
     1
 41
30.0
176
     1
 63
     7
421
 16777215
176
     1
 74
     1
176
     1
 91
        0
176
     1
 64
     7
176
     1
 65
   257
176
     1
 75
     1
176
     1
175
     1
176
     1
 42
1.0
176
     1
 92
        0
176
     1
 66
   257
176
     1
 43
1.0
176
     1
 76
     1
176
     1
 77
     6
176
     1
 78
     2
176
     1
 67
     7
176
     1
 79
     5
176
     1
170
     0
176
     1
171
     0
176
     1
290
     0
176
     1
 93
       13
176
     1
 44
0.0
176
     1
173
     0
176
     1
1001
ACAD
1000
AcDbSavedByObjectVersion
1070
     0
  0
VISUALSTYLE
  5
2C
102
{ACAD_XDICTIONARY
360
113
102
}
102
{ACAD_REACTORS
330
29
102
}
330
29
100
AcDbVisualStyle
  2
Gouraud
 70
     2
177
     2
291
     1
 71
     2
176
     1
 72
     2
176
     1
 73
     1
176
     1
 90
        2
176
     1
 40
0.6
176
     1
 41
30.0
176
     1
 63
     7
421
 16777215
176
     1
 74
     0
176
     1
 91
        0
176
     1
 64
     7
176
     1
 65
   257
176
     1
 75
     1
176
     1
175
     1
176
     1
 42
1.0
176
     1
 92
        0
176
     1
 66
     7
176
     1
 43
1.0
176
     1
 76
     1
176
     1
 77
     6
176
     1
 78
     2
176
     1
 67
     7
176
     1
 79
     5
176
     1
170
     0
176
     1
171
     0
176
     1
290
     0
176
     1
 93
       13
176
     1
 44
0.0
176
     1
173
     0
176
     1
1001
ACAD
1000
AcDbSavedByObjectVersion
1070
     0
  0
VISUALSTYLE
  5
2D
102
{ACAD_XDICTIONARY
360
115
102
}
102
{ACAD_REACTORS
330
29
102
}
330
29
100
AcDbVisualStyle
  2
GouraudWithEdges
 70
     3
177
     2
291
     1
 71
     2
176
     1
 72
     2
176
     1
 73
     1
176
     1
 90
        2
176
     1
 40
0.6
176
     1
 41
30.0
176
     1
 63
     7
421
 16777215
176
     1
 74
     1
176
     1
 91
        0
176
     1
 64
     7
176
     1
 65
   257
176
     1
 75
     1
176
     1
175
     1
176
     1
 42
1.0
176
     1
 92
        0
176
     1
 66
   257
176
     1
 43
1.0
176
     1
 76
     1
176
     1
 77
     6
176
     1
 78
     2
176
     1
 67
     7
176
     1
 79
     5
176
     1
170
     0
176
     1
171
     0
176
     1
290
     0
176
     1
 93
       13
176
     1
 44
0.0
176
     1
173
     0
176
     1
1001
ACAD
1000
AcDbSavedByObjectVersion
1070
     0
  0
VISUALSTYLE
  5
31
102
{ACAD_XDICTIONARY
360
11D
102
}
102
{ACAD_REACTORS
330
29
102
}
330
29
100
AcDbVisualStyle
  2
Hidden
 70
     6
177
     2
291
     0
 71
     1
176
     1
 72
     2
176
     1
 73
     2
176
     1
 90
        0
176
     1
 40
0.6
176
     1
 41
30.0
176
     1
 63
     7
421
 16777215
176
     1
 74
     2
176
     1
 91
        2
176
     1
 64
     7
176
     1
 65
   257
176
     1
 75
     2
176
     1
175
     1
176
     1
 42
40.0
176
     1
 92
        0
176
     1
 66
   257
176
     1
 43
1.0
176
     1
 76
     1
176
     1
 77
     6
176
     1
 78
     2
176
     1
 67
     7
176
     1
 79
     3
176
     1
170
     0
176
     1
171
     0
176
     1
290
     0
176
     1
 93
        1
176
     1
 44
0.0
176
     1
173
     0
176
     1
1001
ACAD
1000
AcDbSavedByObjectVersion
1070
     0
  0
VISUALSTYLE
  5
3F
102
{ACAD_XDICTIONARY
360
139
102
}
102
{ACAD_REACTORS
330
29
102
}
330
29
100
AcDbVisualStyle
  2
JitterOff
 70
    20
177
     2
291
     1
 71
     2
176
     0
 72
     2
176
     0
 73
     0
176
     0
 90
        0
176
     0
 40
0.6
176
     0
 41
30.0
176
     0
 63
     7
421
 16777215
176
     0
 74
     1
176
     0
 91
        4
176
     0
 64
     7
176
     0
 65
   257
176
     0
 75
     1
176
     0
175
     1
176
     0
 42
1.0
176
     0
 92
       10
176
     2
 66
     7
176
     0
 43
1.0
176
     0
 76
     1
176
     0
 77
     6
176
     0
 78
     2
176
     0
 67
     7
176
     0
 79
     5
176
     0
170
     0
176
     0
171
     0
176
     0
290
     0
176
     0
 93
        1
176
     0
 44
0.0
176
     0
173
     0
176
     0
1001
ACAD
1000
AcDbSavedByObjectVersion
1070
     0
  0
VISUALSTYLE
  5
37
102
{ACAD_XDICTIONARY
360
129
102
}
102
{ACAD_REACTORS
330
29
102
}
330
29
100
AcDbVisualStyle
  2
Linepattern
 70
    14
177
     2
291
     1
 71
     2
176
     1
 72
     2
176
     1
 73
     0
176
     1
 90
        0
176
     1
 40
0.6
176
     1
 41
30.0
176
     1
 63
     7
421
 16777215
176
     1
 74
     1
176
     1
 91
        4
176
     1
 64
     7
176
     1
 65
   257
176
     1
 75
     7
176
     1
175
     7
176
     1
 42
1.0
176
     1
 92
        8
176
     1
 66
     7
176
     1
 43
1.0
176
     1
 76
     1
176
     1
 77
     6
176
     1
 78
     2
176
     1
 67
     7
176
     1
 79
     5
176
     1
170
     0
176
     1
171
     0
176
     1
290
     0
176
     1
 93
        1
176
     1
 44
0.0
176
     1
173
     0
176
     1
1001
ACAD
1000
AcDbSavedByObjectVersion
1070
     0
  0
VISUALSTYLE
  5
40
102
{ACAD_XDICTIONARY
360
13B
102
}
102
{ACAD_REACTORS
330
29
102
}
330
29
100
AcDbVisualStyle
  2
OverhangOff
 70
    21
177
     2
291
     1
 71
     2
176
     0
 72
     2
176
     0
 73
     0
176
     0
 90
        0
176
     0
 40
0.6
176
     0
 41
30.0
176
     0
 63
     7
421
 16777215
176
     0
 74
     1
176
     0
 91
        4
176
     0
 64
     7
176
     0
 65
   257
176
     0
 75
     1
176
     0
175
     1
176
     0
 42
1.0
176
     0
 92
        9
176
     2
 66
     7
176
     0
 43
1.0
176
     0
 76
     1
176
     0
 77
     6
176
     0
 78
     2
176
     0
 67
     7
176
     0
 79
     5
176
     0
170
     0
176
     0
171
     0
176
     0
290
     0
176
     0
 93
        1
176
     0
 44
0.0
176
     0
173
     0
176
     0
1001
ACAD
1000
AcDbSavedByObjectVersion
1070
     0
  0
VISUALSTYLE
  5
33
102
{ACAD_XDICTIONARY
360
121
102
}
102
{ACAD_REACTORS
330
29
102
}
330
29
100
AcDbVisualStyle
  2
Realistic
 70
     8
177
     2
291
     0
 71
     2
176
     1
 72
     3
176
     1
 73
     0
176
     1
 90
        2
176
     1
 40
0.6
176
     1
 41
30.0
176
     1
 63
     7
421
 16777215
176
     1
 74
     0
176
     1
 91
        0
176
     1
 64
     7
176
     1
 65
   257
176
     1
 75
     1
176
     1
175
     1
176
     1
 42
1.0
176
     1
 92
        8
176
     1
 66
   257
176
     1
 43
1.0
176
     1
 76
     1
176
     1
 77
     6
176
     1
 78
     2
176
     1
 67
     7
176
     1
 79
     3
176
     1
170
     0
176
     1
171
     0
176
     1
290
     0
176
     1
 93
       13
176
     1
 44
0.0
176
     1
173
     0
176
     1
1001
ACAD
1000
AcDbSavedByObjectVersion
1070
     0
  0
VISUALSTYLE
  5
3E
102
{ACAD_XDICTIONARY
360
137
102
}
102
{ACAD_REACTORS
330
29
102
}
330
29
100
AcDbVisualStyle
  2
Shaded
 70
    27
177
     2
291
     0
 71
     2
176
     1
 72
     2
176
     1
 73
     1
176
     1
 90
        2
176
     1
 40
0.6
176
     1
 41
30.0
176
     1
 63
     7
421
 16777215
176
     1
 74
     0
176
     1
 91
        4
176
     1
 64
     7
176
     1
 65
   257
176
     1
 75
     1
176
     1
175
     1
176
     1
 42
1.0
176
     1
 92
        8
176
     1
 66
   257
176
     1
 43
1.0
176
     1
 76
     1
176
     1
 77
     6
176
     1
 78
     2
176
     1
 67
     8
425
  7895160
176
     1
 79
     3
176
     1
170
     0
176
     1
171
     0
176
     1
290
     0
176
     1
 93
        5
176
     1
 44
0.0
176
     1
173
     0
176
     1
1001
ACAD
1000
AcDbSavedByObjectVersion
1070
     0
  0
VISUALSTYLE
  5
3D
102
{ACAD_XDICTIONARY
360
135
102
}
102
{ACAD_REACTORS
330
29
102
}
330
29
100
AcDbVisualStyle
  2
Shaded with edges
 70
    26
177
     2
291
     0
 71
     2
176
     1
 72
     2
176
     1
 73
     1
176
     1
 90
        2
176
     1
 40
0.6
176
     1
 41
30.0
176
     1
 63
     7
421
 16777215
176
     1
 74
     1
176
     1
 91
        2
176
     1
 64
     7
176
     1
 65
   257
176
     1
 75
     2
176
     1
175
     1
176
     1
 42
1.0
176
     1
 92
        8
176
     1
 66
   257
176
     1
 43
1.0
176
     1
 76
     1
176
     1
 77
     6
176
     1
 78
     2
176
     1
 67
     7
176
     1
 79
     3
176
     1
170
     0
176
     1
171
     0
176
     1
290
     0
176
     1
 93
        5
176
     1
 44
0.0
176
     1
173
     0
176
     1
1001
ACAD
1000
AcDbSavedByObjectVersion
1070
     0
  0
VISUALSTYLE
  5
3A
102
{ACAD_XDICTIONARY
360
12F
102
}
102
{ACAD_REACTORS
330
29
102
}
330
29
100
AcDbVisualStyle
  2
Shades of Gray
 70
    23
177
     2
291
     0
 71
     2
176
     1
 72
     2
176
     1
 73
     3
176
     1
 90
        0
176
     1
 40
0.6
176
     1
 41
30.0
176
     1
 63
     7
421
 16777215
176
     1
 74
     2
176
     1
 91
        2
176
     1
 64
     7
176
     1
 65
     7
176
     1
 75
     1
176
     1
175
     1
176
     1
 42
40.0
176
     1
 92
        8
176
     1
 66
     7
176
     1
 43
1.0
176
     1
 76
     1
176
     1
 77
     6
176
     1
 78
     2
176
     1
 67
     7
176
     1
 79
     3
176
     1
170
     0
176
     1
171
     0
176
     1
290
     0
176
     1
 93
        1
176
     1
 44
0.0
176
     1
173
     0
176
     1
1001
ACAD
1000
AcDbSavedByObjectVersion
1070
     0
  0
VISUALSTYLE
  5
3B
102
{ACAD_XDICTIONARY
360
131
102
}
102
{ACAD_REACTORS
330
29
102
}
330
29
100
AcDbVisualStyle
  2
Sketchy
 70
    24
177
     2
291
     0
 71
     1
176
     1
 72
     2
176
     1
 73
     2
176
     1
 90
        0
176
     1
 40
0.6
176
     1
 41
30.0
176
     1
 63
     7
421
 16777215
176
     1
 74
     2
176
     1
 91
        2
176
     1
 64
     7
176
     1
 65
     7
176
     1
 75
     1
176
     1
175
     1
176
     1
 42
40.0
176
     1
 92
       11
176
     1
 66
     7
176
     1
 43
1.0
176
     1
 76
     1
176
     1
 77
     6
176
     1
 78
     2
176
     1
 67
     7
176
     1
 79
     6
176
     1
170
     0
176
     1
171
     0
176
     1
290
     0
176
     1
 93
        1
176
     1
 44
0.0
176
     1
173
     0
176
     1
1001
ACAD
1000
AcDbSavedByObjectVersion
1070
     0
  0
VISUALSTYLE
  5
36
102
{ACAD_XDICTIONARY
360
127
102
}
102
{ACAD_REACTORS
330
29
102
}
330
29
100
AcDbVisualStyle
  2
Thicken
 70
    13
177
     2
291
     1
 71
     2
176
     1
 72
     2
176
     1
 73
     0
176
     1
 90
        0
176
     1
 40
0.6
176
     1
 41
30.0
176
     1
 63
     7
421
 16777215
176
     1
 74
     1
176
     1
 91
        4
176
     1
 64
     7
176
     1
 65
   257
176
     1
 75
     1
176
     1
175
     1
176
     1
 42
1.0
176
     1
 92
       12
176
     1
 66
     7
176
     1
 43
1.0
176
     1
 76
     1
176
     1
 77
     6
176
     1
 78
     2
176
     1
 67
     7
176
     1
 79
     5
176
     1
170
     0
176
     1
171
     0
176
     1
290
     0
176
     1
 93
        1
176
     1
 44
0.0
176
     1
173
     0
176
     1
1001
ACAD
1000
AcDbSavedByObjectVersion
1070
     0
  0
VISUALSTYLE
  5
30
102
{ACAD_XDICTIONARY
360
11B
102
}
102
{ACAD_REACTORS
330
29
102
}
330
29
100
AcDbVisualStyle
  2
Wireframe
 70
     5
177
     2
291
     0
 71
     0
176
     1
 72
     2
176
     1
 73
     0
176
     1
 90
        0
176
     1
 40
0.6
176
     1
 41
30.0
176
     1
 63
     7
421
 16777215
176
     1
 74
     1
176
     1
 91
        4
176
     1
 64
     7
176
     1
 65
   257
176
     1
 75
     1
176
     1
175
     1
176
     1
 42
1.0
176
     1
 92
        0
176
     1
 66
   257
176
     1
 43
1.0
176
     1
 76
     1
176
     1
 77
     6
176
     1
 78
     2
176
     1
 67
     7
176
     1
 79
     3
176
     1
170
     0
176
     1
171
     0
176
     1
290
     0
176
     1
 93
        1
176
     1
 44
0.0
176
     1
173
     0
176
     1
1001
ACAD
1000
AcDbSavedByObjectVersion
1070
     0
  0
VISUALSTYLE
  5
3C
102
{ACAD_XDICTIONARY
360
133
102
}
102
{ACAD_REACTORS
330
29
102
}
330
29
100
AcDbVisualStyle
  2
X-Ray
 70
    25
177
     2
291
     0
 71
     2
176
     1
 72
     2
176
     1
 73
     1
176
     1
 90
        1
176
     1
 40
0.5
176
     1
 41
30.0
176
     1
 63
     7
421
 16777215
176
     1
 74
     1
176
     1
 91
        0
176
     1
 64
     7
176
     1
 65
   257
176
     1
 75
     1
176
     1
175
     1
176
     1
 42
1.0
176
     1
 92
        8
176
     1
 66
     7
176
     1
 43
1.0
176
     1
 76
     1
176
     1
 77
     6
176
     1
 78
     2
176
     1
 67
     7
176
     1
 79
     3
176
     1
170
     0
176
     1
171
     0
176
     1
290
     0
176
     1
 93
       13
176
     1
 44
0.0
176
     1
173
     0
176
     1
1001
ACAD
1000
AcDbSavedByObjectVersion
1070
     0
  0
DICTIONARYVAR
  5
10B
102
{ACAD_REACTORS
330
106
102
}
330
106
100
DictionaryVariables
280
     0
  1
1:1
  0
DICTIONARYVAR
  5
108
102
{ACAD_REACTORS
330
106
102
}
330
106
100
DictionaryVariables
280
     0
  1
STANDARD
  0
DICTIONARYVAR
  5
107
102
{ACAD_REACTORS
330
106
102
}
330
106
100
DictionaryVariables
280
     0
  1
STANDARD
  0
DICTIONARYVAR
  5
109
102
{ACAD_REACTORS
330
106
102
}
330
106
100
DictionaryVariables
280
     0
  1
Imperial24
  0
DICTIONARYVAR
  5
10A
102
{ACAD_REACTORS
330
106
102
}
330
106
100
DictionaryVariables
280
     0
  1
Imperial24
  0
DICTIONARY
  5
143
330
6B
100
AcDbDictionary
280
     1
281
     1
  3
ACAD_XREC_ROUNDTRIP
360
144
  0
DICTIONARY
  5
1A
330
19
100
AcDbDictionary
280
     1
281
     1
  3
BUMPTILE
360
1C
  3
DIFFUSETILE
360
1B
  3
OPACITYTILE
360
1F
  3
REFLECTIONTILE
360
1E
  3
REFRACTIONTILE
360
20
  3
SPECULARTILE
360
1D
  0
DICTIONARY
  5
12
330
11
100
AcDbDictionary
280
     1
281
     1
  3
BUMPTILE
360
14
  3
DIFFUSETILE
360
13
  3
OPACITYTILE
360
17
  3
REFLECTIONTILE
360
16
  3
REFRACTIONTILE
360
18
  3
SPECULARTILE
360
15
  0
DICTIONARY
  5
22
330
21
100
AcDbDictionary
280
     1
281
     1
  3
BUMPTILE
360
24
  3
DIFFUSETILE
360
23
  3
OPACITYTILE
360
27
  3
REFLECTIONTILE
360
26
  3
REFRACTIONTILE
360
28
  3
SPECULARTILE
360
25
  0
DICTIONARY
  5
13F
330
67
100
AcDbDictionary
280
     1
281
     1
  3
ACAD_XREC_ROUNDTRIP
360
140
  0
DICTIONARY
  5
141
330
69
100
AcDbDictionary
280
     1
281
     1
  3
ACAD_XREC_ROUNDTRIP
360
142
  0
DICTIONARY
  5
10C
330
65
100
AcDbDictionary
280
     1
281
     1
  3
ACAD_ROUNDTRIP_2008_TABLESTYLE_CELLSTYLEMAP
360
10D
  0
DICTIONARY
  5
119
330
2F
100
AcDbDictionary
280
     1
281
     1
  3
ACAD_XREC_ROUNDTRIP
360
11A
  0
DICTIONARY
  5
117
330
2E
100
AcDbDictionary
280
     1
281
     1
  3
ACAD_XREC_ROUNDTRIP
360
118
  0
DICTIONARY
  5
125
330
35
100
AcDbDictionary
280
     1
281
     1
  3
ACAD_XREC_ROUNDTRIP
360
126
  0
DICTIONARY
  5
12D
330
39
100
AcDbDictionary
280
     1
281
     1
  3
ACAD_XREC_ROUNDTRIP
360
12E
  0
DICTIONARY
  5
11F
330
32
100
AcDbDictionary
280
     1
281
     1
  3
ACAD_XREC_ROUNDTRIP
360
120
  0
DICTIONARY
  5
123
330
34
100
AcDbDictionary
280
     1
281
     1
  3
ACAD_XREC_ROUNDTRIP
360
124
  0
DICTIONARY
  5
13D
330
41
100
AcDbDictionary
280
     1
281
     1
  3
ACAD_XREC_ROUNDTRIP
360
13E
  0
DICTIONARY
  5
12B
330
38
100
AcDbDictionary
280
     1
281
     1
  3
ACAD_XREC_ROUNDTRIP
360
12C
  0
DICTIONARY
  5
10F
330
2A
100
AcDbDictionary
280
     1
281
     1
  3
ACAD_XREC_ROUNDTRIP
360
110
  0
DICTIONARY
  5
111
330
2B
100
AcDbDictionary
280
     1
281
     1
  3
ACAD_XREC_ROUNDTRIP
360
112
  0
DICTIONARY
  5
113
330
2C
100
AcDbDictionary
280
     1
281
     1
  3
ACAD_XREC_ROUNDTRIP
360
114
  0
DICTIONARY
  5
115
330
2D
100
AcDbDictionary
280
     1
281
     1
  3
ACAD_XREC_ROUNDTRIP
360
116
  0
DICTIONARY
  5
11D
330
31
100
AcDbDictionary
280
     1
281
     1
  3
ACAD_XREC_ROUNDTRIP
360
11E
  0
DICTIONARY
  5
139
330
3F
100
AcDbDictionary
280
     1
281
     1
  3
ACAD_XREC_ROUNDTRIP
360
13A
  0
DICTIONARY
  5
129
330
37
100
AcDbDictionary
280
     1
281
     1
  3
ACAD_XREC_ROUNDTRIP
360
12A
  0
DICTIONARY
  5
13B
330
40
100
AcDbDictionary
280
     1
281
     1
  3
ACAD_XREC_ROUNDTRIP
360
13C
  0
DICTIONARY
  5
121
330
33
100
AcDbDictionary
280
     1
281
     1
  3
ACAD_XREC_ROUNDTRIP
360
122
  0
DICTIONARY
  5
137
330
3E
100
AcDbDictionary
280
     1
281
     1
  3
ACAD_XREC_ROUNDTRIP
360
138
  0
DICTIONARY
  5
135
330
3D
100
AcDbDictionary
280
     1
281
     1
  3
ACAD_XREC_ROUNDTRIP
360
136
  0
DICTIONARY
  5
12F
330
3A
100
AcDbDictionary
280
     1
281
     1
  3
ACAD_XREC_ROUNDTRIP
360
130
  0
DICTIONARY
  5
131
330
3B
100
AcDbDictionary
280
     1
281
     1
  3
ACAD_XREC_ROUNDTRIP
360
132
  0
DICTIONARY
  5
127
330
36
100
AcDbDictionary
280
     1
281
     1
  3
ACAD_XREC_ROUNDTRIP
360
128
  0
DICTIONARY
  5
11B
330
30
100
AcDbDictionary
280
     1
281
     1
  3
ACAD_XREC_ROUNDTRIP
360
11C
  0
DICTIONARY
  5
133
330
3C
100
AcDbDictionary
280
     1
281
     1
  3
ACAD_XREC_ROUNDTRIP
360
134
  0
XRECORD
  5
144
102
{ACAD_REACTORS
330
143
102
}
330
143
100
AcDbXrecord
280
     1
102
DISPLAYNAME
  1
Imperial24
102
FLAGS
 90
        0
  0
XRECORD
  5
1C
102
{ACAD_REACTORS
330
1A
102
}
330
1A
100
AcDbXrecord
280
     1
270
     1
271
     1
  0
XRECORD
  5
1B
102
{ACAD_REACTORS
330
1A
102
}
330
1A
100
AcDbXrecord
280
     1
270
     1
271
     1
  0
XRECORD
  5
1F
102
{ACAD_REACTORS
330
1A
102
}
330
1A
100
AcDbXrecord
280
     1
270
     1
271
     1
  0
XRECORD
  5
1E
102
{ACAD_REACTORS
330
1A
102
}
330
1A
100
AcDbXrecord
280
     1
270
     1
271
     1
  0
XRECORD
  5
20
102
{ACAD_REACTORS
330
1A
102
}
330
1A
100
AcDbXrecord
280
     1
270
     1
271
     1
  0
XRECORD
  5
1D
102
{ACAD_REACTORS
330
1A
102
}
330
1A
100
AcDbXrecord
280
     1
270
     1
271
     1
  0
XRECORD
  5
14
102
{ACAD_REACTORS
330
12
102
}
330
12
100
AcDbXrecord
280
     1
270
     1
271
     1
  0
XRECORD
  5
13
102
{ACAD_REACTORS
330
12
102
}
330
12
100
AcDbXrecord
280
     1
270
     1
271
     1
  0
XRECORD
  5
17
102
{ACAD_REACTORS
330
12
102
}
330
12
100
AcDbXrecord
280
     1
270
     1
271
     1
  0
XRECORD
  5
16
102
{ACAD_REACTORS
330
12
102
}
330
12
100
AcDbXrecord
280
     1
270
     1
271
     1
  0
XRECORD
  5
18
102
{ACAD_REACTORS
330
12
102
}
330
12
100
AcDbXrecord
280
     1
270
     1
271
     1
  0
XRECORD
  5
15
102
{ACAD_REACTORS
330
12
102
}
330
12
100
AcDbXrecord
280
     1
270
     1
271
     1
  0
XRECORD
  5
24
102
{ACAD_REACTORS
330
22
102
}
330
22
100
AcDbXrecord
280
     1
270
     1
271
     1
  0
XRECORD
  5
23
102
{ACAD_REACTORS
330
22
102
}
330
22
100
AcDbXrecord
280
     1
270
     1
271
     1
  0
XRECORD
  5
27
102
{ACAD_REACTORS
330
22
102
}
330
22
100
AcDbXrecord
280
     1
270
     1
271
     1
  0
XRECORD
  5
26
102
{ACAD_REACTORS
330
22
102
}
330
22
100
AcDbXrecord
280
     1
270
     1
271
     1
  0
XRECORD
  5
28
102
{ACAD_REACTORS
330
22
102
}
330
22
100
AcDbXrecord
280
     1
270
     1
271
     1
  0
XRECORD
  5
25
102
{ACAD_REACTORS
330
22
102
}
330
22
100
AcDbXrecord
280
     1
270
     1
271
     1
  0
XRECORD
  5
140
102
{ACAD_REACTORS
330
13F
102
}
330
13F
100
AcDbXrecord
280
     1
102
ACAD_ROUNDTRIP_2012_MLEADER_STYLE
298
     1
  0
XRECORD
  5
142
102
{ACAD_REACTORS
330
141
102
}
330
141
100
AcDbXrecord
280
     1
102
DISPLAYNAME
  1
Imperial24
102
FLAGS
 90
        0
  0
CELLSTYLEMAP
  5
10D
102
{ACAD_REACTORS
330
10C
102
}
330
10C
100
AcDbCellStyleMap
 90
        3
300
CELLSTYLE
  1
TABLEFORMAT_BEGIN
 90
        5
170
     1
 91
        0
 92
    32768
 62
   257
 93
        1
300
CONTENTFORMAT
  1
CONTENTFORMAT_BEGIN
 90
        0
 91
        0
 92
      512
 93
        0
300

 40
0.0
140
1.0
 94
        5
 62
     0
340
55
144
0.25
309
CONTENTFORMAT_END
171
     0
 94
        0
309
TABLEFORMAT_END
  1
CELLSTYLE_BEGIN
 90
        1
 91
        1
300
_TITLE
309
CELLSTYLE_END
300
CELLSTYLE
  1
TABLEFORMAT_BEGIN
 90
        5
170
     1
 91
        0
 92
        0
 62
   257
 93
        1
300
CONTENTFORMAT
  1
CONTENTFORMAT_BEGIN
 90
        0
 91
        0
 92
      512
 93
        0
300

 40
0.0
140
1.0
 94
        5
 62
     0
340
55
144
0.18
309
CONTENTFORMAT_END
171
     0
 94
        0
309
TABLEFORMAT_END
  1
CELLSTYLE_BEGIN
 90
        2
 91
        1
300
_HEADER
309
CELLSTYLE_END
300
CELLSTYLE
  1
TABLEFORMAT_BEGIN
 90
        5
170
     1
 91
        0
 92
        0
 62
   257
 93
        1
300
CONTENTFORMAT
  1
CONTENTFORMAT_BEGIN
 90
        0
 91
        0
 92
      512
 93
        0
300

 40
0.0
140
1.0
 94
        2
 62
     0
340
55
144
0.18
309
CONTENTFORMAT_END
171
     0
 94
        0
309
TABLEFORMAT_END
  1
CELLSTYLE_BEGIN
 90
        3
 91
        2
300
_DATA
309
CELLSTYLE_END
  0
XRECORD
  5
11A
102
{ACAD_REACTORS
330
119
102
}
330
119
100
AcDbXrecord
280
     1
102
RTVSPost2010Prop28
280
     1
102
RTVSPost2010PropOp28
 70
     1
102
RTVSPost2010Prop29
280
     1
102
RTVSPost2010PropOp29
 70
     1
102
RTVSPost2010Prop30
280
     0
102
RTVSPost2010PropOp30
 70
     1
102
RTVSPost2010Prop31
280
     0
102
RTVSPost2010PropOp31
 70
     1
102
RTVSPost2010Prop32
280
     0
102
RTVSPost2010PropOp32
 70
     1
102
RTVSPost2010Prop33
280
     0
102
RTVSPost2010PropOp33
 70
     1
102
RTVSPost2010Prop34
280
     0
102
RTVSPost2010PropOp34
 70
     1
102
RTVSPost2010Prop35
280
     0
102
RTVSPost2010PropOp35
 70
     1
102
RTVSPost2010Prop36
280
     0
102
RTVSPost2010PropOp36
 70
     1
102
RTVSPost2010Prop37
 90
       50
102
RTVSPost2010PropOp37
 70
     1
102
RTVSPost2010Prop38
140
0.0
102
RTVSPost2010PropOp38
 70
     1
102
RTVSPost2010Prop39
140
1.0
102
RTVSPost2010PropOp39
 70
     1
102
RTVSPost2010Prop40
 90
        0
102
RTVSPost2010PropOp40
 70
     1
102
RTVSPost2010Prop41ColorIndex
 90
       18
102
RTVSPost2010Prop41ColorRGB
 90
        0
102
RTVSPost2010PropOp41
 70
     1
102
RTVSPost2010Prop42
 90
       50
102
RTVSPost2010PropOp42
 70
     1
102
RTVSPost2010Prop43
 90
        3
102
RTVSPost2010PropOp43
 70
     1
102
RTVSPost2010Prop44ColorIndex
 90
        5
102
RTVSPost2010Prop44ColorRGB
 90
      255
102
RTVSPost2010PropOp44
 70
     1
102
RTVSPost2010Prop45
280
     0
102
RTVSPost2010PropOp45
 70
     1
102
RTVSPost2010Prop46
 90
       50
102
RTVSPost2010PropOp46
 70
     1
102
RTVSPost2010Prop47
 90
       50
102
RTVSPost2010PropOp47
 70
     1
102
RTVSPost2010Prop48
 90
       50
102
RTVSPost2010PropOp48
 70
     1
102
RTVSPost2010Prop49
280
     0
102
RTVSPost2010PropOp49
 70
     1
102
RTVSPost2010Prop50
 90
       50
102
RTVSPost2010PropOp50
 70
     1
102
RTVSPost2010Prop51ColorIndex
 90
      256
102
RTVSPost2010Prop51ColorRGB
 90
-16777216
102
RTVSPost2010PropOp51
 70
     0
102
RTVSPost2010Prop52
140
1.0
102
RTVSPost2010PropOp52
 70
     0
102
RTVSPost2010Prop53
 90
        2
102
RTVSPost2010PropOp53
 70
     1
102
RTVSPost2010Prop54
  1
strokes_ogs.tif
102
RTVSPost2010PropOp54
 70
     1
102
RTVSPost2010Prop55
280
     0
102
RTVSPost2010PropOp55
 70
     1
102
RTVSPost2010Prop56
140
1.0
102
RTVSPost2010PropOp56
 70
     1
102
RTVSPost2010Prop57
140
1.0
102
RTVSPost2010PropOp57
 70
     1
  0
XRECORD
  5
118
102
{ACAD_REACTORS
330
117
102
}
330
117
100
AcDbXrecord
280
     1
102
RTVSPost2010Prop28
280
     0
102
RTVSPost2010PropOp28
 70
     1
102
RTVSPost2010Prop29
280
     1
102
RTVSPost2010PropOp29
 70
     1
102
RTVSPost2010Prop30
280
     1
102
RTVSPost2010PropOp30
 70
     1
102
RTVSPost2010Prop31
280
     0
102
RTVSPost2010PropOp31
 70
     1
102
RTVSPost2010Prop32
280
     0
102
RTVSPost2010PropOp32
 70
     1
102
RTVSPost2010Prop33
280
     0
102
RTVSPost2010PropOp33
 70
     1
102
RTVSPost2010Prop34
280
     0
102
RTVSPost2010PropOp34
 70
     1
102
RTVSPost2010Prop35
280
     0
102
RTVSPost2010PropOp35
 70
     1
102
RTVSPost2010Prop36
280
     0
102
RTVSPost2010PropOp36
 70
     1
102
RTVSPost2010Prop37
 90
       50
102
RTVSPost2010PropOp37
 70
     1
102
RTVSPost2010Prop38
140
0.0
102
RTVSPost2010PropOp38
 70
     1
102
RTVSPost2010Prop39
140
1.0
102
RTVSPost2010PropOp39
 70
     1
102
RTVSPost2010Prop40
 90
        0
102
RTVSPost2010PropOp40
 70
     1
102
RTVSPost2010Prop41ColorIndex
 90
       18
102
RTVSPost2010Prop41ColorRGB
 90
        0
102
RTVSPost2010PropOp41
 70
     1
102
RTVSPost2010Prop42
 90
       50
102
RTVSPost2010PropOp42
 70
     1
102
RTVSPost2010Prop43
 90
        3
102
RTVSPost2010PropOp43
 70
     1
102
RTVSPost2010Prop44ColorIndex
 90
        5
102
RTVSPost2010Prop44ColorRGB
 90
      255
102
RTVSPost2010PropOp44
 70
     1
102
RTVSPost2010Prop45
280
     0
102
RTVSPost2010PropOp45
 70
     1
102
RTVSPost2010Prop46
 90
       50
102
RTVSPost2010PropOp46
 70
     1
102
RTVSPost2010Prop47
 90
       50
102
RTVSPost2010PropOp47
 70
     1
102
RTVSPost2010Prop48
 90
       50
102
RTVSPost2010PropOp48
 70
     1
102
RTVSPost2010Prop49
280
     0
102
RTVSPost2010PropOp49
 70
     1
102
RTVSPost2010Prop50
 90
       50
102
RTVSPost2010PropOp50
 70
     1
102
RTVSPost2010Prop51ColorIndex
 90
      256
102
RTVSPost2010Prop51ColorRGB
 90
-16777216
102
RTVSPost2010PropOp51
 70
     0
102
RTVSPost2010Prop52
140
1.0
102
RTVSPost2010PropOp52
 70
     0
102
RTVSPost2010Prop53
 90
        2
102
RTVSPost2010PropOp53
 70
     1
102
RTVSPost2010Prop54
  1
strokes_ogs.tif
102
RTVSPost2010PropOp54
 70
     1
102
RTVSPost2010Prop55
280
     0
102
RTVSPost2010PropOp55
 70
     1
102
RTVSPost2010Prop56
140
1.0
102
RTVSPost2010PropOp56
 70
     1
102
RTVSPost2010Prop57
140
1.0
102
RTVSPost2010PropOp57
 70
     1
  0
XRECORD
  5
126
102
{ACAD_REACTORS
330
125
102
}
330
125
100
AcDbXrecord
280
     1
102
RTVSPost2010Prop28
280
     0
102
RTVSPost2010PropOp28
 70
     1
102
RTVSPost2010Prop29
280
     1
102
RTVSPost2010PropOp29
 70
     1
102
RTVSPost2010Prop30
280
     1
102
RTVSPost2010PropOp30
 70
     1
102
RTVSPost2010Prop31
280
     0
102
RTVSPost2010PropOp31
 70
     1
102
RTVSPost2010Prop32
280
     0
102
RTVSPost2010PropOp32
 70
     1
102
RTVSPost2010Prop33
280
     0
102
RTVSPost2010PropOp33
 70
     1
102
RTVSPost2010Prop34
280
     0
102
RTVSPost2010PropOp34
 70
     1
102
RTVSPost2010Prop35
280
     0
102
RTVSPost2010PropOp35
 70
     1
102
RTVSPost2010Prop36
280
     0
102
RTVSPost2010PropOp36
 70
     1
102
RTVSPost2010Prop37
 90
       50
102
RTVSPost2010PropOp37
 70
     1
102
RTVSPost2010Prop38
140
0.0
102
RTVSPost2010PropOp38
 70
     1
102
RTVSPost2010Prop39
140
1.0
102
RTVSPost2010PropOp39
 70
     1
102
RTVSPost2010Prop40
 90
        0
102
RTVSPost2010PropOp40
 70
     1
102
RTVSPost2010Prop41ColorIndex
 90
       18
102
RTVSPost2010Prop41ColorRGB
 90
        0
102
RTVSPost2010PropOp41
 70
     1
102
RTVSPost2010Prop42
 90
       50
102
RTVSPost2010PropOp42
 70
     1
102
RTVSPost2010Prop43
 90
        3
102
RTVSPost2010PropOp43
 70
     1
102
RTVSPost2010Prop44ColorIndex
 90
        5
102
RTVSPost2010Prop44ColorRGB
 90
      255
102
RTVSPost2010PropOp44
 70
     1
102
RTVSPost2010Prop45
280
     0
102
RTVSPost2010PropOp45
 70
     1
102
RTVSPost2010Prop46
 90
       50
102
RTVSPost2010PropOp46
 70
     1
102
RTVSPost2010Prop47
 90
       50
102
RTVSPost2010PropOp47
 70
     1
102
RTVSPost2010Prop48
 90
       50
102
RTVSPost2010PropOp48
 70
     1
102
RTVSPost2010Prop49
280
     0
102
RTVSPost2010PropOp49
 70
     1
102
RTVSPost2010Prop50
 90
       50
102
RTVSPost2010PropOp50
 70
     1
102
RTVSPost2010Prop51ColorIndex
 90
      256
102
RTVSPost2010Prop51ColorRGB
 90
-16777216
102
RTVSPost2010PropOp51
 70
     0
102
RTVSPost2010Prop52
140
1.0
102
RTVSPost2010PropOp52
 70
     0
102
RTVSPost2010Prop53
 90
        2
102
RTVSPost2010PropOp53
 70
     1
102
RTVSPost2010Prop54
  1
strokes_ogs.tif
102
RTVSPost2010PropOp54
 70
     1
102
RTVSPost2010Prop55
280
     0
102
RTVSPost2010PropOp55
 70
     1
102
RTVSPost2010Prop56
140
1.0
102
RTVSPost2010PropOp56
 70
     1
102
RTVSPost2010Prop57
140
1.0
102
RTVSPost2010PropOp57
 70
     1
  0
XRECORD
  5
12E
102
{ACAD_REACTORS
330
12D
102
}
330
12D
100
AcDbXrecord
280
     1
102
RTVSPost2010Prop28
280
     0
102
RTVSPost2010PropOp28
 70
     1
102
RTVSPost2010Prop29
280
     1
102
RTVSPost2010PropOp29
 70
     1
102
RTVSPost2010Prop30
280
     1
102
RTVSPost2010PropOp30
 70
     1
102
RTVSPost2010Prop31
280
     0
102
RTVSPost2010PropOp31
 70
     1
102
RTVSPost2010Prop32
280
     0
102
RTVSPost2010PropOp32
 70
     1
102
RTVSPost2010Prop33
280
     0
102
RTVSPost2010PropOp33
 70
     1
102
RTVSPost2010Prop34
280
     0
102
RTVSPost2010PropOp34
 70
     1
102
RTVSPost2010Prop35
280
     0
102
RTVSPost2010PropOp35
 70
     1
102
RTVSPost2010Prop36
280
     0
102
RTVSPost2010PropOp36
 70
     1
102
RTVSPost2010Prop37
 90
       50
102
RTVSPost2010PropOp37
 70
     1
102
RTVSPost2010Prop38
140
0.0
102
RTVSPost2010PropOp38
 70
     1
102
RTVSPost2010Prop39
140
1.0
102
RTVSPost2010PropOp39
 70
     1
102
RTVSPost2010Prop40
 90
        0
102
RTVSPost2010PropOp40
 70
     1
102
RTVSPost2010Prop41ColorIndex
 90
       18
102
RTVSPost2010Prop41ColorRGB
 90
        0
102
RTVSPost2010PropOp41
 70
     1
102
RTVSPost2010Prop42
 90
       50
102
RTVSPost2010PropOp42
 70
     1
102
RTVSPost2010Prop43
 90
        3
102
RTVSPost2010PropOp43
 70
     1
102
RTVSPost2010Prop44ColorIndex
 90
        5
102
RTVSPost2010Prop44ColorRGB
 90
      255
102
RTVSPost2010PropOp44
 70
     1
102
RTVSPost2010Prop45
280
     0
102
RTVSPost2010PropOp45
 70
     1
102
RTVSPost2010Prop46
 90
       50
102
RTVSPost2010PropOp46
 70
     1
102
RTVSPost2010Prop47
 90
       50
102
RTVSPost2010PropOp47
 70
     1
102
RTVSPost2010Prop48
 90
       50
102
RTVSPost2010PropOp48
 70
     1
102
RTVSPost2010Prop49
280
     0
102
RTVSPost2010PropOp49
 70
     1
102
RTVSPost2010Prop50
 90
       50
102
RTVSPost2010PropOp50
 70
     1
102
RTVSPost2010Prop51ColorIndex
 90
      256
102
RTVSPost2010Prop51ColorRGB
 90
-16777216
102
RTVSPost2010PropOp51
 70
     0
102
RTVSPost2010Prop52
140
1.0
102
RTVSPost2010PropOp52
 70
     0
102
RTVSPost2010Prop53
 90
        2
102
RTVSPost2010PropOp53
 70
     1
102
RTVSPost2010Prop54
  1
strokes_ogs.tif
102
RTVSPost2010PropOp54
 70
     1
102
RTVSPost2010Prop55
280
     0
102
RTVSPost2010PropOp55
 70
     1
102
RTVSPost2010Prop56
140
1.0
102
RTVSPost2010PropOp56
 70
     1
102
RTVSPost2010Prop57
140
1.0
102
RTVSPost2010PropOp57
 70
     1
  0
XRECORD
  5
120
102
{ACAD_REACTORS
330
11F
102
}
330
11F
100
AcDbXrecord
280
     1
102
RTVSPost2010Prop28
280
     0
102
RTVSPost2010PropOp28
 70
     1
102
RTVSPost2010Prop29
280
     1
102
RTVSPost2010PropOp29
 70
     1
102
RTVSPost2010Prop30
280
     1
102
RTVSPost2010PropOp30
 70
     1
102
RTVSPost2010Prop31
280
     0
102
RTVSPost2010PropOp31
 70
     1
102
RTVSPost2010Prop32
280
     0
102
RTVSPost2010PropOp32
 70
     1
102
RTVSPost2010Prop33
280
     0
102
RTVSPost2010PropOp33
 70
     1
102
RTVSPost2010Prop34
280
     0
102
RTVSPost2010PropOp34
 70
     1
102
RTVSPost2010Prop35
280
     0
102
RTVSPost2010PropOp35
 70
     1
102
RTVSPost2010Prop36
280
     0
102
RTVSPost2010PropOp36
 70
     1
102
RTVSPost2010Prop37
 90
       50
102
RTVSPost2010PropOp37
 70
     1
102
RTVSPost2010Prop38
140
0.0
102
RTVSPost2010PropOp38
 70
     1
102
RTVSPost2010Prop39
140
1.0
102
RTVSPost2010PropOp39
 70
     1
102
RTVSPost2010Prop40
 90
        0
102
RTVSPost2010PropOp40
 70
     1
102
RTVSPost2010Prop41ColorIndex
 90
       18
102
RTVSPost2010Prop41ColorRGB
 90
        0
102
RTVSPost2010PropOp41
 70
     1
102
RTVSPost2010Prop42
 90
       50
102
RTVSPost2010PropOp42
 70
     1
102
RTVSPost2010Prop43
 90
        3
102
RTVSPost2010PropOp43
 70
     1
102
RTVSPost2010Prop44ColorIndex
 90
        5
102
RTVSPost2010Prop44ColorRGB
 90
      255
102
RTVSPost2010PropOp44
 70
     1
102
RTVSPost2010Prop45
280
     0
102
RTVSPost2010PropOp45
 70
     1
102
RTVSPost2010Prop46
 90
       50
102
RTVSPost2010PropOp46
 70
     1
102
RTVSPost2010Prop47
 90
       50
102
RTVSPost2010PropOp47
 70
     1
102
RTVSPost2010Prop48
 90
       50
102
RTVSPost2010PropOp48
 70
     1
102
RTVSPost2010Prop49
280
     0
102
RTVSPost2010PropOp49
 70
     1
102
RTVSPost2010Prop50
 90
       50
102
RTVSPost2010PropOp50
 70
     1
102
RTVSPost2010Prop51ColorIndex
 90
      256
102
RTVSPost2010Prop51ColorRGB
 90
-16777216
102
RTVSPost2010PropOp51
 70
     0
102
RTVSPost2010Prop52
140
1.0
102
RTVSPost2010PropOp52
 70
     0
102
RTVSPost2010Prop53
 90
        2
102
RTVSPost2010PropOp53
 70
     1
102
RTVSPost2010Prop54
  1
strokes_ogs.tif
102
RTVSPost2010PropOp54
 70
     1
102
RTVSPost2010Prop55
280
     0
102
RTVSPost2010PropOp55
 70
     1
102
RTVSPost2010Prop56
140
1.0
102
RTVSPost2010PropOp56
 70
     1
102
RTVSPost2010Prop57
140
1.0
102
RTVSPost2010PropOp57
 70
     1
  0
XRECORD
  5
124
102
{ACAD_REACTORS
330
123
102
}
330
123
100
AcDbXrecord
280
     1
102
RTVSPost2010Prop28
280
     0
102
RTVSPost2010PropOp28
 70
     1
102
RTVSPost2010Prop29
280
     1
102
RTVSPost2010PropOp29
 70
     1
102
RTVSPost2010Prop30
280
     1
102
RTVSPost2010PropOp30
 70
     1
102
RTVSPost2010Prop31
280
     0
102
RTVSPost2010PropOp31
 70
     1
102
RTVSPost2010Prop32
280
     0
102
RTVSPost2010PropOp32
 70
     1
102
RTVSPost2010Prop33
280
     0
102
RTVSPost2010PropOp33
 70
     1
102
RTVSPost2010Prop34
280
     0
102
RTVSPost2010PropOp34
 70
     1
102
RTVSPost2010Prop35
280
     0
102
RTVSPost2010PropOp35
 70
     1
102
RTVSPost2010Prop36
280
     0
102
RTVSPost2010PropOp36
 70
     1
102
RTVSPost2010Prop37
 90
       50
102
RTVSPost2010PropOp37
 70
     1
102
RTVSPost2010Prop38
140
0.0
102
RTVSPost2010PropOp38
 70
     1
102
RTVSPost2010Prop39
140
1.0
102
RTVSPost2010PropOp39
 70
     1
102
RTVSPost2010Prop40
 90
        0
102
RTVSPost2010PropOp40
 70
     1
102
RTVSPost2010Prop41ColorIndex
 90
       18
102
RTVSPost2010Prop41ColorRGB
 90
        0
102
RTVSPost2010PropOp41
 70
     1
102
RTVSPost2010Prop42
 90
       50
102
RTVSPost2010PropOp42
 70
     1
102
RTVSPost2010Prop43
 90
        3
102
RTVSPost2010PropOp43
 70
     1
102
RTVSPost2010Prop44ColorIndex
 90
        5
102
RTVSPost2010Prop44ColorRGB
 90
      255
102
RTVSPost2010PropOp44
 70
     1
102
RTVSPost2010Prop45
280
     0
102
RTVSPost2010PropOp45
 70
     1
102
RTVSPost2010Prop46
 90
       50
102
RTVSPost2010PropOp46
 70
     1
102
RTVSPost2010Prop47
 90
       50
102
RTVSPost2010PropOp47
 70
     1
102
RTVSPost2010Prop48
 90
       50
102
RTVSPost2010PropOp48
 70
     1
102
RTVSPost2010Prop49
280
     0
102
RTVSPost2010PropOp49
 70
     1
102
RTVSPost2010Prop50
 90
       50
102
RTVSPost2010PropOp50
 70
     1
102
RTVSPost2010Prop51ColorIndex
 90
      256
102
RTVSPost2010Prop51ColorRGB
 90
-16777216
102
RTVSPost2010PropOp51
 70
     0
102
RTVSPost2010Prop52
140
1.0
102
RTVSPost2010PropOp52
 70
     0
102
RTVSPost2010Prop53
 90
        2
102
RTVSPost2010PropOp53
 70
     1
102
RTVSPost2010Prop54
  1
strokes_ogs.tif
102
RTVSPost2010PropOp54
 70
     1
102
RTVSPost2010Prop55
280
     0
102
RTVSPost2010PropOp55
 70
     1
102
RTVSPost2010Prop56
140
1.0
102
RTVSPost2010PropOp56
 70
     1
102
RTVSPost2010Prop57
140
1.0
102
RTVSPost2010PropOp57
 70
     1
  0
XRECORD
  5
13E
102
{ACAD_REACTORS
330
13D
102
}
330
13D
100
AcDbXrecord
280
     1
102
RTVSPost2010Prop28
280
     0
102
RTVSPost2010PropOp28
 70
     0
102
RTVSPost2010Prop29
280
     1
102
RTVSPost2010PropOp29
 70
     0
102
RTVSPost2010Prop30
280
     1
102
RTVSPost2010PropOp30
 70
     0
102
RTVSPost2010Prop31
280
     0
102
RTVSPost2010PropOp31
 70
     0
102
RTVSPost2010Prop32
280
     0
102
RTVSPost2010PropOp32
 70
     0
102
RTVSPost2010Prop33
280
     0
102
RTVSPost2010PropOp33
 70
     0
102
RTVSPost2010Prop34
280
     0
102
RTVSPost2010PropOp34
 70
     0
102
RTVSPost2010Prop35
280
     0
102
RTVSPost2010PropOp35
 70
     0
102
RTVSPost2010Prop36
280
     0
102
RTVSPost2010PropOp36
 70
     0
102
RTVSPost2010Prop37
 90
       50
102
RTVSPost2010PropOp37
 70
     0
102
RTVSPost2010Prop38
140
0.0
102
RTVSPost2010PropOp38
 70
     0
102
RTVSPost2010Prop39
140
1.0
102
RTVSPost2010PropOp39
 70
     0
102
RTVSPost2010Prop40
 90
        0
102
RTVSPost2010PropOp40
 70
     0
102
RTVSPost2010Prop41ColorIndex
 90
       18
102
RTVSPost2010Prop41ColorRGB
 90
        0
102
RTVSPost2010PropOp41
 70
     0
102
RTVSPost2010Prop42
 90
       50
102
RTVSPost2010PropOp42
 70
     0
102
RTVSPost2010Prop43
 90
        3
102
RTVSPost2010PropOp43
 70
     0
102
RTVSPost2010Prop44ColorIndex
 90
        5
102
RTVSPost2010Prop44ColorRGB
 90
      255
102
RTVSPost2010PropOp44
 70
     0
102
RTVSPost2010Prop45
280
     0
102
RTVSPost2010PropOp45
 70
     0
102
RTVSPost2010Prop46
 90
       50
102
RTVSPost2010PropOp46
 70
     0
102
RTVSPost2010Prop47
 90
       50
102
RTVSPost2010PropOp47
 70
     0
102
RTVSPost2010Prop48
 90
       50
102
RTVSPost2010PropOp48
 70
     0
102
RTVSPost2010Prop49
280
     0
102
RTVSPost2010PropOp49
 70
     0
102
RTVSPost2010Prop50
 90
       50
102
RTVSPost2010PropOp50
 70
     0
102
RTVSPost2010Prop51ColorIndex
 90
      256
102
RTVSPost2010Prop51ColorRGB
 90
-16777216
102
RTVSPost2010PropOp51
 70
     0
102
RTVSPost2010Prop52
140
1.0
102
RTVSPost2010PropOp52
 70
     0
102
RTVSPost2010Prop53
 90
        2
102
RTVSPost2010PropOp53
 70
     0
102
RTVSPost2010Prop54
  1
strokes_ogs.tif
102
RTVSPost2010PropOp54
 70
     0
102
RTVSPost2010Prop55
280
     0
102
RTVSPost2010PropOp55
 70
     0
102
RTVSPost2010Prop56
140
1.0
102
RTVSPost2010PropOp56
 70
     0
102
RTVSPost2010Prop57
140
1.0
102
RTVSPost2010PropOp57
 70
     0
  0
XRECORD
  5
12C
102
{ACAD_REACTORS
330
12B
102
}
330
12B
100
AcDbXrecord
280
     1
102
RTVSPost2010Prop28
280
     0
102
RTVSPost2010PropOp28
 70
     1
102
RTVSPost2010Prop29
280
     1
102
RTVSPost2010PropOp29
 70
     1
102
RTVSPost2010Prop30
280
     1
102
RTVSPost2010PropOp30
 70
     1
102
RTVSPost2010Prop31
280
     0
102
RTVSPost2010PropOp31
 70
     1
102
RTVSPost2010Prop32
280
     0
102
RTVSPost2010PropOp32
 70
     1
102
RTVSPost2010Prop33
280
     0
102
RTVSPost2010PropOp33
 70
     1
102
RTVSPost2010Prop34
280
     0
102
RTVSPost2010PropOp34
 70
     1
102
RTVSPost2010Prop35
280
     0
102
RTVSPost2010PropOp35
 70
     1
102
RTVSPost2010Prop36
280
     0
102
RTVSPost2010PropOp36
 70
     1
102
RTVSPost2010Prop37
 90
       50
102
RTVSPost2010PropOp37
 70
     1
102
RTVSPost2010Prop38
140
0.0
102
RTVSPost2010PropOp38
 70
     1
102
RTVSPost2010Prop39
140
1.0
102
RTVSPost2010PropOp39
 70
     1
102
RTVSPost2010Prop40
 90
        0
102
RTVSPost2010PropOp40
 70
     1
102
RTVSPost2010Prop41ColorIndex
 90
       18
102
RTVSPost2010Prop41ColorRGB
 90
        0
102
RTVSPost2010PropOp41
 70
     1
102
RTVSPost2010Prop42
 90
       50
102
RTVSPost2010PropOp42
 70
     1
102
RTVSPost2010Prop43
 90
        3
102
RTVSPost2010PropOp43
 70
     1
102
RTVSPost2010Prop44ColorIndex
 90
        5
102
RTVSPost2010Prop44ColorRGB
 90
      255
102
RTVSPost2010PropOp44
 70
     1
102
RTVSPost2010Prop45
280
     0
102
RTVSPost2010PropOp45
 70
     1
102
RTVSPost2010Prop46
 90
       50
102
RTVSPost2010PropOp46
 70
     1
102
RTVSPost2010Prop47
 90
       50
102
RTVSPost2010PropOp47
 70
     1
102
RTVSPost2010Prop48
 90
       50
102
RTVSPost2010PropOp48
 70
     1
102
RTVSPost2010Prop49
280
     0
102
RTVSPost2010PropOp49
 70
     1
102
RTVSPost2010Prop50
 90
       50
102
RTVSPost2010PropOp50
 70
     1
102
RTVSPost2010Prop51ColorIndex
 90
      256
102
RTVSPost2010Prop51ColorRGB
 90
-16777216
102
RTVSPost2010PropOp51
 70
     0
102
RTVSPost2010Prop52
140
1.0
102
RTVSPost2010PropOp52
 70
     0
102
RTVSPost2010Prop53
 90
        2
102
RTVSPost2010PropOp53
 70
     1
102
RTVSPost2010Prop54
  1
strokes_ogs.tif
102
RTVSPost2010PropOp54
 70
     1
102
RTVSPost2010Prop55
280
     0
102
RTVSPost2010PropOp55
 70
     1
102
RTVSPost2010Prop56
140
1.0
102
RTVSPost2010PropOp56
 70
     1
102
RTVSPost2010Prop57
140
1.0
102
RTVSPost2010PropOp57
 70
     1
  0
XRECORD
  5
110
102
{ACAD_REACTORS
330
10F
102
}
330
10F
100
AcDbXrecord
280
     1
102
RTVSPost2010Prop28
280
     0
102
RTVSPost2010PropOp28
 70
     1
102
RTVSPost2010Prop29
280
     1
102
RTVSPost2010PropOp29
 70
     1
102
RTVSPost2010Prop30
280
     1
102
RTVSPost2010PropOp30
 70
     1
102
RTVSPost2010Prop31
280
     0
102
RTVSPost2010PropOp31
 70
     1
102
RTVSPost2010Prop32
280
     0
102
RTVSPost2010PropOp32
 70
     1
102
RTVSPost2010Prop33
280
     0
102
RTVSPost2010PropOp33
 70
     1
102
RTVSPost2010Prop34
280
     0
102
RTVSPost2010PropOp34
 70
     1
102
RTVSPost2010Prop35
280
     0
102
RTVSPost2010PropOp35
 70
     1
102
RTVSPost2010Prop36
280
     0
102
RTVSPost2010PropOp36
 70
     1
102
RTVSPost2010Prop37
 90
       50
102
RTVSPost2010PropOp37
 70
     1
102
RTVSPost2010Prop38
140
0.0
102
RTVSPost2010PropOp38
 70
     1
102
RTVSPost2010Prop39
140
1.0
102
RTVSPost2010PropOp39
 70
     1
102
RTVSPost2010Prop40
 90
        0
102
RTVSPost2010PropOp40
 70
     1
102
RTVSPost2010Prop41ColorIndex
 90
       18
102
RTVSPost2010Prop41ColorRGB
 90
        0
102
RTVSPost2010PropOp41
 70
     1
102
RTVSPost2010Prop42
 90
       50
102
RTVSPost2010PropOp42
 70
     1
102
RTVSPost2010Prop43
 90
        3
102
RTVSPost2010PropOp43
 70
     1
102
RTVSPost2010Prop44ColorIndex
 90
        5
102
RTVSPost2010Prop44ColorRGB
 90
      255
102
RTVSPost2010PropOp44
 70
     1
102
RTVSPost2010Prop45
280
     0
102
RTVSPost2010PropOp45
 70
     1
102
RTVSPost2010Prop46
 90
       50
102
RTVSPost2010PropOp46
 70
     1
102
RTVSPost2010Prop47
 90
       50
102
RTVSPost2010PropOp47
 70
     1
102
RTVSPost2010Prop48
 90
       50
102
RTVSPost2010PropOp48
 70
     1
102
RTVSPost2010Prop49
280
     0
102
RTVSPost2010PropOp49
 70
     1
102
RTVSPost2010Prop50
 90
       50
102
RTVSPost2010PropOp50
 70
     1
102
RTVSPost2010Prop51ColorIndex
 90
      256
102
RTVSPost2010Prop51ColorRGB
 90
-16777216
102
RTVSPost2010PropOp51
 70
     0
102
RTVSPost2010Prop52
140
1.0
102
RTVSPost2010PropOp52
 70
     0
102
RTVSPost2010Prop53
 90
        2
102
RTVSPost2010PropOp53
 70
     1
102
RTVSPost2010Prop54
  1
strokes_ogs.tif
102
RTVSPost2010PropOp54
 70
     1
102
RTVSPost2010Prop55
280
     0
102
RTVSPost2010PropOp55
 70
     1
102
RTVSPost2010Prop56
140
1.0
102
RTVSPost2010PropOp56
 70
     1
102
RTVSPost2010Prop57
140
1.0
102
RTVSPost2010PropOp57
 70
     1
  0
XRECORD
  5
112
102
{ACAD_REACTORS
330
111
102
}
330
111
100
AcDbXrecord
280
     1
102
RTVSPost2010Prop28
280
     0
102
RTVSPost2010PropOp28
 70
     1
102
RTVSPost2010Prop29
280
     1
102
RTVSPost2010PropOp29
 70
     1
102
RTVSPost2010Prop30
280
     1
102
RTVSPost2010PropOp30
 70
     1
102
RTVSPost2010Prop31
280
     0
102
RTVSPost2010PropOp31
 70
     1
102
RTVSPost2010Prop32
280
     0
102
RTVSPost2010PropOp32
 70
     1
102
RTVSPost2010Prop33
280
     0
102
RTVSPost2010PropOp33
 70
     1
102
RTVSPost2010Prop34
280
     0
102
RTVSPost2010PropOp34
 70
     1
102
RTVSPost2010Prop35
280
     0
102
RTVSPost2010PropOp35
 70
     1
102
RTVSPost2010Prop36
280
     0
102
RTVSPost2010PropOp36
 70
     1
102
RTVSPost2010Prop37
 90
       50
102
RTVSPost2010PropOp37
 70
     1
102
RTVSPost2010Prop38
140
0.0
102
RTVSPost2010PropOp38
 70
     1
102
RTVSPost2010Prop39
140
1.0
102
RTVSPost2010PropOp39
 70
     1
102
RTVSPost2010Prop40
 90
        0
102
RTVSPost2010PropOp40
 70
     1
102
RTVSPost2010Prop41ColorIndex
 90
       18
102
RTVSPost2010Prop41ColorRGB
 90
        0
102
RTVSPost2010PropOp41
 70
     1
102
RTVSPost2010Prop42
 90
       50
102
RTVSPost2010PropOp42
 70
     1
102
RTVSPost2010Prop43
 90
        3
102
RTVSPost2010PropOp43
 70
     1
102
RTVSPost2010Prop44ColorIndex
 90
        5
102
RTVSPost2010Prop44ColorRGB
 90
      255
102
RTVSPost2010PropOp44
 70
     1
102
RTVSPost2010Prop45
280
     0
102
RTVSPost2010PropOp45
 70
     1
102
RTVSPost2010Prop46
 90
       50
102
RTVSPost2010PropOp46
 70
     1
102
RTVSPost2010Prop47
 90
       50
102
RTVSPost2010PropOp47
 70
     1
102
RTVSPost2010Prop48
 90
       50
102
RTVSPost2010PropOp48
 70
     1
102
RTVSPost2010Prop49
280
     0
102
RTVSPost2010PropOp49
 70
     1
102
RTVSPost2010Prop50
 90
       50
102
RTVSPost2010PropOp50
 70
     1
102
RTVSPost2010Prop51ColorIndex
 90
      256
102
RTVSPost2010Prop51ColorRGB
 90
-16777216
102
RTVSPost2010PropOp51
 70
     0
102
RTVSPost2010Prop52
140
1.0
102
RTVSPost2010PropOp52
 70
     0
102
RTVSPost2010Prop53
 90
        2
102
RTVSPost2010PropOp53
 70
     1
102
RTVSPost2010Prop54
  1
strokes_ogs.tif
102
RTVSPost2010PropOp54
 70
     1
102
RTVSPost2010Prop55
280
     0
102
RTVSPost2010PropOp55
 70
     1
102
RTVSPost2010Prop56
140
1.0
102
RTVSPost2010PropOp56
 70
     1
102
RTVSPost2010Prop57
140
1.0
102
RTVSPost2010PropOp57
 70
     1
  0
XRECORD
  5
114
102
{ACAD_REACTORS
330
113
102
}
330
113
100
AcDbXrecord
280
     1
102
RTVSPost2010Prop28
280
     0
102
RTVSPost2010PropOp28
 70
     1
102
RTVSPost2010Prop29
280
     1
102
RTVSPost2010PropOp29
 70
     1
102
RTVSPost2010Prop30
280
     1
102
RTVSPost2010PropOp30
 70
     1
102
RTVSPost2010Prop31
280
     0
102
RTVSPost2010PropOp31
 70
     1
102
RTVSPost2010Prop32
280
     0
102
RTVSPost2010PropOp32
 70
     1
102
RTVSPost2010Prop33
280
     0
102
RTVSPost2010PropOp33
 70
     1
102
RTVSPost2010Prop34
280
     0
102
RTVSPost2010PropOp34
 70
     1
102
RTVSPost2010Prop35
280
     0
102
RTVSPost2010PropOp35
 70
     1
102
RTVSPost2010Prop36
280
     0
102
RTVSPost2010PropOp36
 70
     1
102
RTVSPost2010Prop37
 90
       50
102
RTVSPost2010PropOp37
 70
     1
102
RTVSPost2010Prop38
140
0.0
102
RTVSPost2010PropOp38
 70
     1
102
RTVSPost2010Prop39
140
1.0
102
RTVSPost2010PropOp39
 70
     1
102
RTVSPost2010Prop40
 90
        0
102
RTVSPost2010PropOp40
 70
     1
102
RTVSPost2010Prop41ColorIndex
 90
       18
102
RTVSPost2010Prop41ColorRGB
 90
        0
102
RTVSPost2010PropOp41
 70
     1
102
RTVSPost2010Prop42
 90
       50
102
RTVSPost2010PropOp42
 70
     1
102
RTVSPost2010Prop43
 90
        3
102
RTVSPost2010PropOp43
 70
     1
102
RTVSPost2010Prop44ColorIndex
 90
        5
102
RTVSPost2010Prop44ColorRGB
 90
      255
102
RTVSPost2010PropOp44
 70
     1
102
RTVSPost2010Prop45
280
     0
102
RTVSPost2010PropOp45
 70
     1
102
RTVSPost2010Prop46
 90
       50
102
RTVSPost2010PropOp46
 70
     1
102
RTVSPost2010Prop47
 90
       50
102
RTVSPost2010PropOp47
 70
     1
102
RTVSPost2010Prop48
 90
       50
102
RTVSPost2010PropOp48
 70
     1
102
RTVSPost2010Prop49
280
     0
102
RTVSPost2010PropOp49
 70
     1
102
RTVSPost2010Prop50
 90
       50
102
RTVSPost2010PropOp50
 70
     1
102
RTVSPost2010Prop51ColorIndex
 90
      256
102
RTVSPost2010Prop51ColorRGB
 90
-16777216
102
RTVSPost2010PropOp51
 70
     0
102
RTVSPost2010Prop52
140
1.0
102
RTVSPost2010PropOp52
 70
     0
102
RTVSPost2010Prop53
 90
        2
102
RTVSPost2010PropOp53
 70
     1
102
RTVSPost2010Prop54
  1
strokes_ogs.tif
102
RTVSPost2010PropOp54
 70
     1
102
RTVSPost2010Prop55
280
     0
102
RTVSPost2010PropOp55
 70
     1
102
RTVSPost2010Prop56
140
1.0
102
RTVSPost2010PropOp56
 70
     1
102
RTVSPost2010Prop57
140
1.0
102
RTVSPost2010PropOp57
 70
     1
  0
XRECORD
  5
116
102
{ACAD_REACTORS
330
115
102
}
330
115
100
AcDbXrecord
280
     1
102
RTVSPost2010Prop28
280
     0
102
RTVSPost2010PropOp28
 70
     1
102
RTVSPost2010Prop29
280
     1
102
RTVSPost2010PropOp29
 70
     1
102
RTVSPost2010Prop30
280
     1
102
RTVSPost2010PropOp30
 70
     1
102
RTVSPost2010Prop31
280
     0
102
RTVSPost2010PropOp31
 70
     1
102
RTVSPost2010Prop32
280
     0
102
RTVSPost2010PropOp32
 70
     1
102
RTVSPost2010Prop33
280
     0
102
RTVSPost2010PropOp33
 70
     1
102
RTVSPost2010Prop34
280
     0
102
RTVSPost2010PropOp34
 70
     1
102
RTVSPost2010Prop35
280
     0
102
RTVSPost2010PropOp35
 70
     1
102
RTVSPost2010Prop36
280
     0
102
RTVSPost2010PropOp36
 70
     1
102
RTVSPost2010Prop37
 90
       50
102
RTVSPost2010PropOp37
 70
     1
102
RTVSPost2010Prop38
140
0.0
102
RTVSPost2010PropOp38
 70
     1
102
RTVSPost2010Prop39
140
1.0
102
RTVSPost2010PropOp39
 70
     1
102
RTVSPost2010Prop40
 90
        0
102
RTVSPost2010PropOp40
 70
     1
102
RTVSPost2010Prop41ColorIndex
 90
       18
102
RTVSPost2010Prop41ColorRGB
 90
        0
102
RTVSPost2010PropOp41
 70
     1
102
RTVSPost2010Prop42
 90
       50
102
RTVSPost2010PropOp42
 70
     1
102
RTVSPost2010Prop43
 90
        3
102
RTVSPost2010PropOp43
 70
     1
102
RTVSPost2010Prop44ColorIndex
 90
        5
102
RTVSPost2010Prop44ColorRGB
 90
      255
102
RTVSPost2010PropOp44
 70
     1
102
RTVSPost2010Prop45
280
     0
102
RTVSPost2010PropOp45
 70
     1
102
RTVSPost2010Prop46
 90
       50
102
RTVSPost2010PropOp46
 70
     1
102
RTVSPost2010Prop47
 90
       50
102
RTVSPost2010PropOp47
 70
     1
102
RTVSPost2010Prop48
 90
       50
102
RTVSPost2010PropOp48
 70
     1
102
RTVSPost2010Prop49
280
     0
102
RTVSPost2010PropOp49
 70
     1
102
RTVSPost2010Prop50
 90
       50
102
RTVSPost2010PropOp50
 70
     1
102
RTVSPost2010Prop51ColorIndex
 90
      256
102
RTVSPost2010Prop51ColorRGB
 90
-16777216
102
RTVSPost2010PropOp51
 70
     0
102
RTVSPost2010Prop52
140
1.0
102
RTVSPost2010PropOp52
 70
     0
102
RTVSPost2010Prop53
 90
        2
102
RTVSPost2010PropOp53
 70
     1
102
RTVSPost2010Prop54
  1
strokes_ogs.tif
102
RTVSPost2010PropOp54
 70
     1
102
RTVSPost2010Prop55
280
     0
102
RTVSPost2010PropOp55
 70
     1
102
RTVSPost2010Prop56
140
1.0
102
RTVSPost2010PropOp56
 70
     1
102
RTVSPost2010Prop57
140
1.0
102
RTVSPost2010PropOp57
 70
     1
  0
XRECORD
  5
11E
102
{ACAD_REACTORS
330
11D
102
}
330
11D
100
AcDbXrecord
280
     1
102
RTVSPost2010Prop28
280
     0
102
RTVSPost2010PropOp28
 70
     1
102
RTVSPost2010Prop29
280
     1
102
RTVSPost2010PropOp29
 70
     1
102
RTVSPost2010Prop30
280
     1
102
RTVSPost2010PropOp30
 70
     1
102
RTVSPost2010Prop31
280
     0
102
RTVSPost2010PropOp31
 70
     1
102
RTVSPost2010Prop32
280
     0
102
RTVSPost2010PropOp32
 70
     1
102
RTVSPost2010Prop33
280
     0
102
RTVSPost2010PropOp33
 70
     1
102
RTVSPost2010Prop34
280
     0
102
RTVSPost2010PropOp34
 70
     1
102
RTVSPost2010Prop35
280
     0
102
RTVSPost2010PropOp35
 70
     1
102
RTVSPost2010Prop36
280
     0
102
RTVSPost2010PropOp36
 70
     1
102
RTVSPost2010Prop37
 90
       50
102
RTVSPost2010PropOp37
 70
     1
102
RTVSPost2010Prop38
140
0.0
102
RTVSPost2010PropOp38
 70
     1
102
RTVSPost2010Prop39
140
1.0
102
RTVSPost2010PropOp39
 70
     1
102
RTVSPost2010Prop40
 90
        0
102
RTVSPost2010PropOp40
 70
     1
102
RTVSPost2010Prop41ColorIndex
 90
       18
102
RTVSPost2010Prop41ColorRGB
 90
        0
102
RTVSPost2010PropOp41
 70
     1
102
RTVSPost2010Prop42
 90
       50
102
RTVSPost2010PropOp42
 70
     1
102
RTVSPost2010Prop43
 90
        3
102
RTVSPost2010PropOp43
 70
     1
102
RTVSPost2010Prop44ColorIndex
 90
        5
102
RTVSPost2010Prop44ColorRGB
 90
      255
102
RTVSPost2010PropOp44
 70
     1
102
RTVSPost2010Prop45
280
     0
102
RTVSPost2010PropOp45
 70
     1
102
RTVSPost2010Prop46
 90
       50
102
RTVSPost2010PropOp46
 70
     1
102
RTVSPost2010Prop47
 90
       50
102
RTVSPost2010PropOp47
 70
     1
102
RTVSPost2010Prop48
 90
       50
102
RTVSPost2010PropOp48
 70
     1
102
RTVSPost2010Prop49
280
     0
102
RTVSPost2010PropOp49
 70
     1
102
RTVSPost2010Prop50
 90
       50
102
RTVSPost2010PropOp50
 70
     1
102
RTVSPost2010Prop51ColorIndex
 90
      256
102
RTVSPost2010Prop51ColorRGB
 90
-16777216
102
RTVSPost2010PropOp51
 70
     0
102
RTVSPost2010Prop52
140
1.0
102
RTVSPost2010PropOp52
 70
     0
102
RTVSPost2010Prop53
 90
        2
102
RTVSPost2010PropOp53
 70
     1
102
RTVSPost2010Prop54
  1
strokes_ogs.tif
102
RTVSPost2010PropOp54
 70
     1
102
RTVSPost2010Prop55
280
     0
102
RTVSPost2010PropOp55
 70
     1
102
RTVSPost2010Prop56
140
1.0
102
RTVSPost2010PropOp56
 70
     1
102
RTVSPost2010Prop57
140
1.0
102
RTVSPost2010PropOp57
 70
     1
  0
XRECORD
  5
13A
102
{ACAD_REACTORS
330
139
102
}
330
139
100
AcDbXrecord
280
     1
102
RTVSPost2010Prop28
280
     0
102
RTVSPost2010PropOp28
 70
     0
102
RTVSPost2010Prop29
280
     1
102
RTVSPost2010PropOp29
 70
     0
102
RTVSPost2010Prop30
280
     1
102
RTVSPost2010PropOp30
 70
     0
102
RTVSPost2010Prop31
280
     0
102
RTVSPost2010PropOp31
 70
     0
102
RTVSPost2010Prop32
280
     0
102
RTVSPost2010PropOp32
 70
     0
102
RTVSPost2010Prop33
280
     0
102
RTVSPost2010PropOp33
 70
     0
102
RTVSPost2010Prop34
280
     0
102
RTVSPost2010PropOp34
 70
     0
102
RTVSPost2010Prop35
280
     0
102
RTVSPost2010PropOp35
 70
     0
102
RTVSPost2010Prop36
280
     0
102
RTVSPost2010PropOp36
 70
     0
102
RTVSPost2010Prop37
 90
       50
102
RTVSPost2010PropOp37
 70
     0
102
RTVSPost2010Prop38
140
0.0
102
RTVSPost2010PropOp38
 70
     0
102
RTVSPost2010Prop39
140
1.0
102
RTVSPost2010PropOp39
 70
     0
102
RTVSPost2010Prop40
 90
        0
102
RTVSPost2010PropOp40
 70
     0
102
RTVSPost2010Prop41ColorIndex
 90
       18
102
RTVSPost2010Prop41ColorRGB
 90
        0
102
RTVSPost2010PropOp41
 70
     0
102
RTVSPost2010Prop42
 90
       50
102
RTVSPost2010PropOp42
 70
     0
102
RTVSPost2010Prop43
 90
        3
102
RTVSPost2010PropOp43
 70
     0
102
RTVSPost2010Prop44ColorIndex
 90
        5
102
RTVSPost2010Prop44ColorRGB
 90
      255
102
RTVSPost2010PropOp44
 70
     0
102
RTVSPost2010Prop45
280
     0
102
RTVSPost2010PropOp45
 70
     0
102
RTVSPost2010Prop46
 90
       50
102
RTVSPost2010PropOp46
 70
     0
102
RTVSPost2010Prop47
 90
       50
102
RTVSPost2010PropOp47
 70
     0
102
RTVSPost2010Prop48
 90
       50
102
RTVSPost2010PropOp48
 70
     0
102
RTVSPost2010Prop49
280
     0
102
RTVSPost2010PropOp49
 70
     0
102
RTVSPost2010Prop50
 90
       50
102
RTVSPost2010PropOp50
 70
     0
102
RTVSPost2010Prop51ColorIndex
 90
      256
102
RTVSPost2010Prop51ColorRGB
 90
-16777216
102
RTVSPost2010PropOp51
 70
     0
102
RTVSPost2010Prop52
140
1.0
102
RTVSPost2010PropOp52
 70
     0
102
RTVSPost2010Prop53
 90
        2
102
RTVSPost2010PropOp53
 70
     0
102
RTVSPost2010Prop54
  1
strokes_ogs.tif
102
RTVSPost2010PropOp54
 70
     0
102
RTVSPost2010Prop55
280
     0
102
RTVSPost2010PropOp55
 70
     0
102
RTVSPost2010Prop56
140
1.0
102
RTVSPost2010PropOp56
 70
     0
102
RTVSPost2010Prop57
140
1.0
102
RTVSPost2010PropOp57
 70
     0
  0
XRECORD
  5
12A
102
{ACAD_REACTORS
330
129
102
}
330
129
100
AcDbXrecord
280
     1
102
RTVSPost2010Prop28
280
     0
102
RTVSPost2010PropOp28
 70
     1
102
RTVSPost2010Prop29
280
     1
102
RTVSPost2010PropOp29
 70
     1
102
RTVSPost2010Prop30
280
     1
102
RTVSPost2010PropOp30
 70
     1
102
RTVSPost2010Prop31
280
     0
102
RTVSPost2010PropOp31
 70
     1
102
RTVSPost2010Prop32
280
     0
102
RTVSPost2010PropOp32
 70
     1
102
RTVSPost2010Prop33
280
     0
102
RTVSPost2010PropOp33
 70
     1
102
RTVSPost2010Prop34
280
     0
102
RTVSPost2010PropOp34
 70
     1
102
RTVSPost2010Prop35
280
     0
102
RTVSPost2010PropOp35
 70
     1
102
RTVSPost2010Prop36
280
     0
102
RTVSPost2010PropOp36
 70
     1
102
RTVSPost2010Prop37
 90
       50
102
RTVSPost2010PropOp37
 70
     1
102
RTVSPost2010Prop38
140
0.0
102
RTVSPost2010PropOp38
 70
     1
102
RTVSPost2010Prop39
140
1.0
102
RTVSPost2010PropOp39
 70
     1
102
RTVSPost2010Prop40
 90
        0
102
RTVSPost2010PropOp40
 70
     1
102
RTVSPost2010Prop41ColorIndex
 90
       18
102
RTVSPost2010Prop41ColorRGB
 90
        0
102
RTVSPost2010PropOp41
 70
     1
102
RTVSPost2010Prop42
 90
       50
102
RTVSPost2010PropOp42
 70
     1
102
RTVSPost2010Prop43
 90
        3
102
RTVSPost2010PropOp43
 70
     1
102
RTVSPost2010Prop44ColorIndex
 90
        5
102
RTVSPost2010Prop44ColorRGB
 90
      255
102
RTVSPost2010PropOp44
 70
     1
102
RTVSPost2010Prop45
280
     0
102
RTVSPost2010PropOp45
 70
     1
102
RTVSPost2010Prop46
 90
       50
102
RTVSPost2010PropOp46
 70
     1
102
RTVSPost2010Prop47
 90
       50
102
RTVSPost2010PropOp47
 70
     1
102
RTVSPost2010Prop48
 90
       50
102
RTVSPost2010PropOp48
 70
     1
102
RTVSPost2010Prop49
280
     0
102
RTVSPost2010PropOp49
 70
     1
102
RTVSPost2010Prop50
 90
       50
102
RTVSPost2010PropOp50
 70
     1
102
RTVSPost2010Prop51ColorIndex
 90
      256
102
RTVSPost2010Prop51ColorRGB
 90
-16777216
102
RTVSPost2010PropOp51
 70
     0
102
RTVSPost2010Prop52
140
1.0
102
RTVSPost2010PropOp52
 70
     0
102
RTVSPost2010Prop53
 90
        2
102
RTVSPost2010PropOp53
 70
     1
102
RTVSPost2010Prop54
  1
strokes_ogs.tif
102
RTVSPost2010PropOp54
 70
     1
102
RTVSPost2010Prop55
280
     0
102
RTVSPost2010PropOp55
 70
     1
102
RTVSPost2010Prop56
140
1.0
102
RTVSPost2010PropOp56
 70
     1
102
RTVSPost2010Prop57
140
1.0
102
RTVSPost2010PropOp57
 70
     1
  0
XRECORD
  5
13C
102
{ACAD_REACTORS
330
13B
102
}
330
13B
100
AcDbXrecord
280
     1
102
RTVSPost2010Prop28
280
     0
102
RTVSPost2010PropOp28
 70
     0
102
RTVSPost2010Prop29
280
     1
102
RTVSPost2010PropOp29
 70
     0
102
RTVSPost2010Prop30
280
     1
102
RTVSPost2010PropOp30
 70
     0
102
RTVSPost2010Prop31
280
     0
102
RTVSPost2010PropOp31
 70
     0
102
RTVSPost2010Prop32
280
     0
102
RTVSPost2010PropOp32
 70
     0
102
RTVSPost2010Prop33
280
     0
102
RTVSPost2010PropOp33
 70
     0
102
RTVSPost2010Prop34
280
     0
102
RTVSPost2010PropOp34
 70
     0
102
RTVSPost2010Prop35
280
     0
102
RTVSPost2010PropOp35
 70
     0
102
RTVSPost2010Prop36
280
     0
102
RTVSPost2010PropOp36
 70
     0
102
RTVSPost2010Prop37
 90
       50
102
RTVSPost2010PropOp37
 70
     0
102
RTVSPost2010Prop38
140
0.0
102
RTVSPost2010PropOp38
 70
     0
102
RTVSPost2010Prop39
140
1.0
102
RTVSPost2010PropOp39
 70
     0
102
RTVSPost2010Prop40
 90
        0
102
RTVSPost2010PropOp40
 70
     0
102
RTVSPost2010Prop41ColorIndex
 90
       18
102
RTVSPost2010Prop41ColorRGB
 90
        0
102
RTVSPost2010PropOp41
 70
     0
102
RTVSPost2010Prop42
 90
       50
102
RTVSPost2010PropOp42
 70
     0
102
RTVSPost2010Prop43
 90
        3
102
RTVSPost2010PropOp43
 70
     0
102
RTVSPost2010Prop44ColorIndex
 90
        5
102
RTVSPost2010Prop44ColorRGB
 90
      255
102
RTVSPost2010PropOp44
 70
     0
102
RTVSPost2010Prop45
280
     0
102
RTVSPost2010PropOp45
 70
     0
102
RTVSPost2010Prop46
 90
       50
102
RTVSPost2010PropOp46
 70
     0
102
RTVSPost2010Prop47
 90
       50
102
RTVSPost2010PropOp47
 70
     0
102
RTVSPost2010Prop48
 90
       50
102
RTVSPost2010PropOp48
 70
     0
102
RTVSPost2010Prop49
280
     0
102
RTVSPost2010PropOp49
 70
     0
102
RTVSPost2010Prop50
 90
       50
102
RTVSPost2010PropOp50
 70
     0
102
RTVSPost2010Prop51ColorIndex
 90
      256
102
RTVSPost2010Prop51ColorRGB
 90
-16777216
102
RTVSPost2010PropOp51
 70
     0
102
RTVSPost2010Prop52
140
1.0
102
RTVSPost2010PropOp52
 70
     0
102
RTVSPost2010Prop53
 90
        2
102
RTVSPost2010PropOp53
 70
     0
102
RTVSPost2010Prop54
  1
strokes_ogs.tif
102
RTVSPost2010PropOp54
 70
     0
102
RTVSPost2010Prop55
280
     0
102
RTVSPost2010PropOp55
 70
     0
102
RTVSPost2010Prop56
140
1.0
102
RTVSPost2010PropOp56
 70
     0
102
RTVSPost2010Prop57
140
1.0
102
RTVSPost2010PropOp57
 70
     0
  0
XRECORD
  5
122
102
{ACAD_REACTORS
330
121
102
}
330
121
100
AcDbXrecord
280
     1
102
RTVSPost2010Prop28
280
     0
102
RTVSPost2010PropOp28
 70
     1
102
RTVSPost2010Prop29
280
     1
102
RTVSPost2010PropOp29
 70
     1
102
RTVSPost2010Prop30
280
     1
102
RTVSPost2010PropOp30
 70
     1
102
RTVSPost2010Prop31
280
     0
102
RTVSPost2010PropOp31
 70
     1
102
RTVSPost2010Prop32
280
     0
102
RTVSPost2010PropOp32
 70
     1
102
RTVSPost2010Prop33
280
     0
102
RTVSPost2010PropOp33
 70
     1
102
RTVSPost2010Prop34
280
     0
102
RTVSPost2010PropOp34
 70
     1
102
RTVSPost2010Prop35
280
     0
102
RTVSPost2010PropOp35
 70
     1
102
RTVSPost2010Prop36
280
     0
102
RTVSPost2010PropOp36
 70
     1
102
RTVSPost2010Prop37
 90
       50
102
RTVSPost2010PropOp37
 70
     1
102
RTVSPost2010Prop38
140
0.0
102
RTVSPost2010PropOp38
 70
     1
102
RTVSPost2010Prop39
140
1.0
102
RTVSPost2010PropOp39
 70
     1
102
RTVSPost2010Prop40
 90
        0
102
RTVSPost2010PropOp40
 70
     1
102
RTVSPost2010Prop41ColorIndex
 90
       18
102
RTVSPost2010Prop41ColorRGB
 90
        0
102
RTVSPost2010PropOp41
 70
     1
102
RTVSPost2010Prop42
 90
       50
102
RTVSPost2010PropOp42
 70
     1
102
RTVSPost2010Prop43
 90
        3
102
RTVSPost2010PropOp43
 70
     1
102
RTVSPost2010Prop44ColorIndex
 90
        5
102
RTVSPost2010Prop44ColorRGB
 90
      255
102
RTVSPost2010PropOp44
 70
     1
102
RTVSPost2010Prop45
280
     0
102
RTVSPost2010PropOp45
 70
     1
102
RTVSPost2010Prop46
 90
       50
102
RTVSPost2010PropOp46
 70
     1
102
RTVSPost2010Prop47
 90
       50
102
RTVSPost2010PropOp47
 70
     1
102
RTVSPost2010Prop48
 90
       50
102
RTVSPost2010PropOp48
 70
     1
102
RTVSPost2010Prop49
280
     0
102
RTVSPost2010PropOp49
 70
     1
102
RTVSPost2010Prop50
 90
       50
102
RTVSPost2010PropOp50
 70
     1
102
RTVSPost2010Prop51ColorIndex
 90
      256
102
RTVSPost2010Prop51ColorRGB
 90
-16777216
102
RTVSPost2010PropOp51
 70
     0
102
RTVSPost2010Prop52
140
1.0
102
RTVSPost2010PropOp52
 70
     0
102
RTVSPost2010Prop53
 90
        2
102
RTVSPost2010PropOp53
 70
     1
102
RTVSPost2010Prop54
  1
strokes_ogs.tif
102
RTVSPost2010PropOp54
 70
     1
102
RTVSPost2010Prop55
280
     0
102
RTVSPost2010PropOp55
 70
     1
102
RTVSPost2010Prop56
140
1.0
102
RTVSPost2010PropOp56
 70
     1
102
RTVSPost2010Prop57
140
1.0
102
RTVSPost2010PropOp57
 70
     1
  0
XRECORD
  5
138
102
{ACAD_REACTORS
330
137
102
}
330
137
100
AcDbXrecord
280
     1
102
RTVSPost2010Prop28
280
     0
102
RTVSPost2010PropOp28
 70
     1
102
RTVSPost2010Prop29
280
     1
102
RTVSPost2010PropOp29
 70
     1
102
RTVSPost2010Prop30
280
     1
102
RTVSPost2010PropOp30
 70
     1
102
RTVSPost2010Prop31
280
     0
102
RTVSPost2010PropOp31
 70
     1
102
RTVSPost2010Prop32
280
     0
102
RTVSPost2010PropOp32
 70
     1
102
RTVSPost2010Prop33
280
     0
102
RTVSPost2010PropOp33
 70
     1
102
RTVSPost2010Prop34
280
     0
102
RTVSPost2010PropOp34
 70
     1
102
RTVSPost2010Prop35
280
     0
102
RTVSPost2010PropOp35
 70
     1
102
RTVSPost2010Prop36
280
     0
102
RTVSPost2010PropOp36
 70
     1
102
RTVSPost2010Prop37
 90
       50
102
RTVSPost2010PropOp37
 70
     1
102
RTVSPost2010Prop38
140
0.0
102
RTVSPost2010PropOp38
 70
     1
102
RTVSPost2010Prop39
140
1.0
102
RTVSPost2010PropOp39
 70
     1
102
RTVSPost2010Prop40
 90
        0
102
RTVSPost2010PropOp40
 70
     1
102
RTVSPost2010Prop41ColorIndex
 90
       18
102
RTVSPost2010Prop41ColorRGB
 90
        0
102
RTVSPost2010PropOp41
 70
     1
102
RTVSPost2010Prop42
 90
       50
102
RTVSPost2010PropOp42
 70
     1
102
RTVSPost2010Prop43
 90
        3
102
RTVSPost2010PropOp43
 70
     1
102
RTVSPost2010Prop44ColorIndex
 90
        5
102
RTVSPost2010Prop44ColorRGB
 90
      255
102
RTVSPost2010PropOp44
 70
     1
102
RTVSPost2010Prop45
280
     0
102
RTVSPost2010PropOp45
 70
     1
102
RTVSPost2010Prop46
 90
       50
102
RTVSPost2010PropOp46
 70
     1
102
RTVSPost2010Prop47
 90
       50
102
RTVSPost2010PropOp47
 70
     1
102
RTVSPost2010Prop48
 90
       50
102
RTVSPost2010PropOp48
 70
     1
102
RTVSPost2010Prop49
280
     0
102
RTVSPost2010PropOp49
 70
     1
102
RTVSPost2010Prop50
 90
       50
102
RTVSPost2010PropOp50
 70
     1
102
RTVSPost2010Prop51ColorIndex
 90
      256
102
RTVSPost2010Prop51ColorRGB
 90
-16777216
102
RTVSPost2010PropOp51
 70
     0
102
RTVSPost2010Prop52
140
1.0
102
RTVSPost2010PropOp52
 70
     0
102
RTVSPost2010Prop53
 90
        2
102
RTVSPost2010PropOp53
 70
     1
102
RTVSPost2010Prop54
  1
strokes_ogs.tif
102
RTVSPost2010PropOp54
 70
     1
102
RTVSPost2010Prop55
280
     0
102
RTVSPost2010PropOp55
 70
     1
102
RTVSPost2010Prop56
140
1.0
102
RTVSPost2010PropOp56
 70
     1
102
RTVSPost2010Prop57
140
1.0
102
RTVSPost2010PropOp57
 70
     1
  0
XRECORD
  5
136
102
{ACAD_REACTORS
330
135
102
}
330
135
100
AcDbXrecord
280
     1
102
RTVSPost2010Prop28
280
     0
102
RTVSPost2010PropOp28
 70
     1
102
RTVSPost2010Prop29
280
     1
102
RTVSPost2010PropOp29
 70
     1
102
RTVSPost2010Prop30
280
     1
102
RTVSPost2010PropOp30
 70
     1
102
RTVSPost2010Prop31
280
     0
102
RTVSPost2010PropOp31
 70
     1
102
RTVSPost2010Prop32
280
     0
102
RTVSPost2010PropOp32
 70
     1
102
RTVSPost2010Prop33
280
     0
102
RTVSPost2010PropOp33
 70
     1
102
RTVSPost2010Prop34
280
     0
102
RTVSPost2010PropOp34
 70
     1
102
RTVSPost2010Prop35
280
     0
102
RTVSPost2010PropOp35
 70
     1
102
RTVSPost2010Prop36
280
     0
102
RTVSPost2010PropOp36
 70
     1
102
RTVSPost2010Prop37
 90
       50
102
RTVSPost2010PropOp37
 70
     1
102
RTVSPost2010Prop38
140
0.0
102
RTVSPost2010PropOp38
 70
     1
102
RTVSPost2010Prop39
140
1.0
102
RTVSPost2010PropOp39
 70
     1
102
RTVSPost2010Prop40
 90
        0
102
RTVSPost2010PropOp40
 70
     1
102
RTVSPost2010Prop41ColorIndex
 90
       18
102
RTVSPost2010Prop41ColorRGB
 90
        0
102
RTVSPost2010PropOp41
 70
     1
102
RTVSPost2010Prop42
 90
       50
102
RTVSPost2010PropOp42
 70
     1
102
RTVSPost2010Prop43
 90
        3
102
RTVSPost2010PropOp43
 70
     1
102
RTVSPost2010Prop44ColorIndex
 90
        5
102
RTVSPost2010Prop44ColorRGB
 90
      255
102
RTVSPost2010PropOp44
 70
     1
102
RTVSPost2010Prop45
280
     0
102
RTVSPost2010PropOp45
 70
     1
102
RTVSPost2010Prop46
 90
       50
102
RTVSPost2010PropOp46
 70
     1
102
RTVSPost2010Prop47
 90
       50
102
RTVSPost2010PropOp47
 70
     1
102
RTVSPost2010Prop48
 90
       50
102
RTVSPost2010PropOp48
 70
     1
102
RTVSPost2010Prop49
280
     0
102
RTVSPost2010PropOp49
 70
     1
102
RTVSPost2010Prop50
 90
       50
102
RTVSPost2010PropOp50
 70
     1
102
RTVSPost2010Prop51ColorIndex
 90
      256
102
RTVSPost2010Prop51ColorRGB
 90
-16777216
102
RTVSPost2010PropOp51
 70
     0
102
RTVSPost2010Prop52
140
1.0
102
RTVSPost2010PropOp52
 70
     0
102
RTVSPost2010Prop53
 90
        2
102
RTVSPost2010PropOp53
 70
     1
102
RTVSPost2010Prop54
  1
strokes_ogs.tif
102
RTVSPost2010PropOp54
 70
     1
102
RTVSPost2010Prop55
280
     0
102
RTVSPost2010PropOp55
 70
     1
102
RTVSPost2010Prop56
140
1.0
102
RTVSPost2010PropOp56
 70
     1
102
RTVSPost2010Prop57
140
1.0
102
RTVSPost2010PropOp57
 70
     1
  0
XRECORD
  5
130
102
{ACAD_REACTORS
330
12F
102
}
330
12F
100
AcDbXrecord
280
     1
102
RTVSPost2010Prop28
280
     0
102
RTVSPost2010PropOp28
 70
     1
102
RTVSPost2010Prop29
280
     1
102
RTVSPost2010PropOp29
 70
     1
102
RTVSPost2010Prop30
280
     1
102
RTVSPost2010PropOp30
 70
     1
102
RTVSPost2010Prop31
280
     0
102
RTVSPost2010PropOp31
 70
     1
102
RTVSPost2010Prop32
280
     0
102
RTVSPost2010PropOp32
 70
     1
102
RTVSPost2010Prop33
280
     0
102
RTVSPost2010PropOp33
 70
     1
102
RTVSPost2010Prop34
280
     0
102
RTVSPost2010PropOp34
 70
     1
102
RTVSPost2010Prop35
280
     0
102
RTVSPost2010PropOp35
 70
     1
102
RTVSPost2010Prop36
280
     0
102
RTVSPost2010PropOp36
 70
     1
102
RTVSPost2010Prop37
 90
       50
102
RTVSPost2010PropOp37
 70
     1
102
RTVSPost2010Prop38
140
0.0
102
RTVSPost2010PropOp38
 70
     1
102
RTVSPost2010Prop39
140
1.0
102
RTVSPost2010PropOp39
 70
     1
102
RTVSPost2010Prop40
 90
        0
102
RTVSPost2010PropOp40
 70
     1
102
RTVSPost2010Prop41ColorIndex
 90
       18
102
RTVSPost2010Prop41ColorRGB
 90
        0
102
RTVSPost2010PropOp41
 70
     1
102
RTVSPost2010Prop42
 90
       50
102
RTVSPost2010PropOp42
 70
     1
102
RTVSPost2010Prop43
 90
        3
102
RTVSPost2010PropOp43
 70
     1
102
RTVSPost2010Prop44ColorIndex
 90
        5
102
RTVSPost2010Prop44ColorRGB
 90
      255
102
RTVSPost2010PropOp44
 70
     1
102
RTVSPost2010Prop45
280
     0
102
RTVSPost2010PropOp45
 70
     1
102
RTVSPost2010Prop46
 90
       50
102
RTVSPost2010PropOp46
 70
     1
102
RTVSPost2010Prop47
 90
       50
102
RTVSPost2010PropOp47
 70
     1
102
RTVSPost2010Prop48
 90
       50
102
RTVSPost2010PropOp48
 70
     1
102
RTVSPost2010Prop49
280
     0
102
RTVSPost2010PropOp49
 70
     1
102
RTVSPost2010Prop50
 90
       50
102
RTVSPost2010PropOp50
 70
     1
102
RTVSPost2010Prop51ColorIndex
 90
      256
102
RTVSPost2010Prop51ColorRGB
 90
-16777216
102
RTVSPost2010PropOp51
 70
     0
102
RTVSPost2010Prop52
140
1.0
102
RTVSPost2010PropOp52
 70
     0
102
RTVSPost2010Prop53
 90
        2
102
RTVSPost2010PropOp53
 70
     1
102
RTVSPost2010Prop54
  1
strokes_ogs.tif
102
RTVSPost2010PropOp54
 70
     1
102
RTVSPost2010Prop55
280
     0
102
RTVSPost2010PropOp55
 70
     1
102
RTVSPost2010Prop56
140
1.0
102
RTVSPost2010PropOp56
 70
     1
102
RTVSPost2010Prop57
140
1.0
102
RTVSPost2010PropOp57
 70
     1
  0
XRECORD
  5
132
102
{ACAD_REACTORS
330
131
102
}
330
131
100
AcDbXrecord
280
     1
102
RTVSPost2010Prop28
280
     0
102
RTVSPost2010PropOp28
 70
     1
102
RTVSPost2010Prop29
280
     1
102
RTVSPost2010PropOp29
 70
     1
102
RTVSPost2010Prop30
280
     1
102
RTVSPost2010PropOp30
 70
     1
102
RTVSPost2010Prop31
280
     0
102
RTVSPost2010PropOp31
 70
     1
102
RTVSPost2010Prop32
280
     0
102
RTVSPost2010PropOp32
 70
     1
102
RTVSPost2010Prop33
280
     0
102
RTVSPost2010PropOp33
 70
     1
102
RTVSPost2010Prop34
280
     0
102
RTVSPost2010PropOp34
 70
     1
102
RTVSPost2010Prop35
280
     0
102
RTVSPost2010PropOp35
 70
     1
102
RTVSPost2010Prop36
280
     0
102
RTVSPost2010PropOp36
 70
     1
102
RTVSPost2010Prop37
 90
       50
102
RTVSPost2010PropOp37
 70
     1
102
RTVSPost2010Prop38
140
0.0
102
RTVSPost2010PropOp38
 70
     1
102
RTVSPost2010Prop39
140
1.0
102
RTVSPost2010PropOp39
 70
     1
102
RTVSPost2010Prop40
 90
        0
102
RTVSPost2010PropOp40
 70
     1
102
RTVSPost2010Prop41ColorIndex
 90
       18
102
RTVSPost2010Prop41ColorRGB
 90
        0
102
RTVSPost2010PropOp41
 70
     1
102
RTVSPost2010Prop42
 90
       50
102
RTVSPost2010PropOp42
 70
     1
102
RTVSPost2010Prop43
 90
        3
102
RTVSPost2010PropOp43
 70
     1
102
RTVSPost2010Prop44ColorIndex
 90
        5
102
RTVSPost2010Prop44ColorRGB
 90
      255
102
RTVSPost2010PropOp44
 70
     1
102
RTVSPost2010Prop45
280
     0
102
RTVSPost2010PropOp45
 70
     1
102
RTVSPost2010Prop46
 90
       50
102
RTVSPost2010PropOp46
 70
     1
102
RTVSPost2010Prop47
 90
       50
102
RTVSPost2010PropOp47
 70
     1
102
RTVSPost2010Prop48
 90
       50
102
RTVSPost2010PropOp48
 70
     1
102
RTVSPost2010Prop49
280
     0
102
RTVSPost2010PropOp49
 70
     1
102
RTVSPost2010Prop50
 90
       50
102
RTVSPost2010PropOp50
 70
     1
102
RTVSPost2010Prop51ColorIndex
 90
      256
102
RTVSPost2010Prop51ColorRGB
 90
-16777216
102
RTVSPost2010PropOp51
 70
     0
102
RTVSPost2010Prop52
140
1.0
102
RTVSPost2010PropOp52
 70
     0
102
RTVSPost2010Prop53
 90
        2
102
RTVSPost2010PropOp53
 70
     1
102
RTVSPost2010Prop54
  1
strokes_ogs.tif
102
RTVSPost2010PropOp54
 70
     1
102
RTVSPost2010Prop55
280
     0
102
RTVSPost2010PropOp55
 70
     1
102
RTVSPost2010Prop56
140
1.0
102
RTVSPost2010PropOp56
 70
     1
102
RTVSPost2010Prop57
140
1.0
102
RTVSPost2010PropOp57
 70
     1
  0
XRECORD
  5
128
102
{ACAD_REACTORS
330
127
102
}
330
127
100
AcDbXrecord
280
     1
102
RTVSPost2010Prop28
280
     0
102
RTVSPost2010PropOp28
 70
     1
102
RTVSPost2010Prop29
280
     1
102
RTVSPost2010PropOp29
 70
     1
102
RTVSPost2010Prop30
280
     1
102
RTVSPost2010PropOp30
 70
     1
102
RTVSPost2010Prop31
280
     0
102
RTVSPost2010PropOp31
 70
     1
102
RTVSPost2010Prop32
280
     0
102
RTVSPost2010PropOp32
 70
     1
102
RTVSPost2010Prop33
280
     0
102
RTVSPost2010PropOp33
 70
     1
102
RTVSPost2010Prop34
280
     0
102
RTVSPost2010PropOp34
 70
     1
102
RTVSPost2010Prop35
280
     0
102
RTVSPost2010PropOp35
 70
     1
102
RTVSPost2010Prop36
280
     0
102
RTVSPost2010PropOp36
 70
     1
102
RTVSPost2010Prop37
 90
       50
102
RTVSPost2010PropOp37
 70
     1
102
RTVSPost2010Prop38
140
0.0
102
RTVSPost2010PropOp38
 70
     1
102
RTVSPost2010Prop39
140
1.0
102
RTVSPost2010PropOp39
 70
     1
102
RTVSPost2010Prop40
 90
        0
102
RTVSPost2010PropOp40
 70
     1
102
RTVSPost2010Prop41ColorIndex
 90
       18
102
RTVSPost2010Prop41ColorRGB
 90
        0
102
RTVSPost2010PropOp41
 70
     1
102
RTVSPost2010Prop42
 90
       50
102
RTVSPost2010PropOp42
 70
     1
102
RTVSPost2010Prop43
 90
        3
102
RTVSPost2010PropOp43
 70
     1
102
RTVSPost2010Prop44ColorIndex
 90
        5
102
RTVSPost2010Prop44ColorRGB
 90
      255
102
RTVSPost2010PropOp44
 70
     1
102
RTVSPost2010Prop45
280
     0
102
RTVSPost2010PropOp45
 70
     1
102
RTVSPost2010Prop46
 90
       50
102
RTVSPost2010PropOp46
 70
     1
102
RTVSPost2010Prop47
 90
       50
102
RTVSPost2010PropOp47
 70
     1
102
RTVSPost2010Prop48
 90
       50
102
RTVSPost2010PropOp48
 70
     1
102
RTVSPost2010Prop49
280
     0
102
RTVSPost2010PropOp49
 70
     1
102
RTVSPost2010Prop50
 90
       50
102
RTVSPost2010PropOp50
 70
     1
102
RTVSPost2010Prop51ColorIndex
 90
      256
102
RTVSPost2010Prop51ColorRGB
 90
-16777216
102
RTVSPost2010PropOp51
 70
     0
102
RTVSPost2010Prop52
140
1.0
102
RTVSPost2010PropOp52
 70
     0
102
RTVSPost2010Prop53
 90
        2
102
RTVSPost2010PropOp53
 70
     1
102
RTVSPost2010Prop54
  1
strokes_ogs.tif
102
RTVSPost2010PropOp54
 70
     1
102
RTVSPost2010Prop55
280
     0
102
RTVSPost2010PropOp55
 70
     1
102
RTVSPost2010Prop56
140
1.0
102
RTVSPost2010PropOp56
 70
     1
102
RTVSPost2010Prop57
140
1.0
102
RTVSPost2010PropOp57
 70
     1
  0
XRECORD
  5
11C
102
{ACAD_REACTORS
330
11B
102
}
330
11B
100
AcDbXrecord
280
     1
102
RTVSPost2010Prop28
280
     0
102
RTVSPost2010PropOp28
 70
     1
102
RTVSPost2010Prop29
280
     1
102
RTVSPost2010PropOp29
 70
     1
102
RTVSPost2010Prop30
280
     1
102
RTVSPost2010PropOp30
 70
     1
102
RTVSPost2010Prop31
280
     0
102
RTVSPost2010PropOp31
 70
     1
102
RTVSPost2010Prop32
280
     0
102
RTVSPost2010PropOp32
 70
     1
102
RTVSPost2010Prop33
280
     0
102
RTVSPost2010PropOp33
 70
     1
102
RTVSPost2010Prop34
280
     0
102
RTVSPost2010PropOp34
 70
     1
102
RTVSPost2010Prop35
280
     0
102
RTVSPost2010PropOp35
 70
     1
102
RTVSPost2010Prop36
280
     0
102
RTVSPost2010PropOp36
 70
     1
102
RTVSPost2010Prop37
 90
       50
102
RTVSPost2010PropOp37
 70
     1
102
RTVSPost2010Prop38
140
0.0
102
RTVSPost2010PropOp38
 70
     1
102
RTVSPost2010Prop39
140
1.0
102
RTVSPost2010PropOp39
 70
     1
102
RTVSPost2010Prop40
 90
        0
102
RTVSPost2010PropOp40
 70
     1
102
RTVSPost2010Prop41ColorIndex
 90
       18
102
RTVSPost2010Prop41ColorRGB
 90
        0
102
RTVSPost2010PropOp41
 70
     1
102
RTVSPost2010Prop42
 90
       50
102
RTVSPost2010PropOp42
 70
     1
102
RTVSPost2010Prop43
 90
        3
102
RTVSPost2010PropOp43
 70
     1
102
RTVSPost2010Prop44ColorIndex
 90
        5
102
RTVSPost2010Prop44ColorRGB
 90
      255
102
RTVSPost2010PropOp44
 70
     1
102
RTVSPost2010Prop45
280
     0
102
RTVSPost2010PropOp45
 70
     1
102
RTVSPost2010Prop46
 90
       50
102
RTVSPost2010PropOp46
 70
     1
102
RTVSPost2010Prop47
 90
       50
102
RTVSPost2010PropOp47
 70
     1
102
RTVSPost2010Prop48
 90
       50
102
RTVSPost2010PropOp48
 70
     1
102
RTVSPost2010Prop49
280
     0
102
RTVSPost2010PropOp49
 70
     1
102
RTVSPost2010Prop50
 90
       50
102
RTVSPost2010PropOp50
 70
     1
102
RTVSPost2010Prop51ColorIndex
 90
      256
102
RTVSPost2010Prop51ColorRGB
 90
-16777216
102
RTVSPost2010PropOp51
 70
     0
102
RTVSPost2010Prop52
140
1.0
102
RTVSPost2010PropOp52
 70
     0
102
RTVSPost2010Prop53
 90
        2
102
RTVSPost2010PropOp53
 70
     1
102
RTVSPost2010Prop54
  1
strokes_ogs.tif
102
RTVSPost2010PropOp54
 70
     1
102
RTVSPost2010Prop55
280
     0
102
RTVSPost2010PropOp55
 70
     1
102
RTVSPost2010Prop56
140
1.0
102
RTVSPost2010PropOp56
 70
     1
102
RTVSPost2010Prop57
140
1.0
102
RTVSPost2010PropOp57
 70
     1
  0
XRECORD
  5
134
102
{ACAD_REACTORS
330
133
102
}
330
133
100
AcDbXrecord
280
     1
102
RTVSPost2010Prop28
280
     0
102
RTVSPost2010PropOp28
 70
     1
102
RTVSPost2010Prop29
280
     1
102
RTVSPost2010PropOp29
 70
     1
102
RTVSPost2010Prop30
280
     1
102
RTVSPost2010PropOp30
 70
     1
102
RTVSPost2010Prop31
280
     0
102
RTVSPost2010PropOp31
 70
     1
102
RTVSPost2010Prop32
280
     0
102
RTVSPost2010PropOp32
 70
     1
102
RTVSPost2010Prop33
280
     0
102
RTVSPost2010PropOp33
 70
     1
102
RTVSPost2010Prop34
280
     0
102
RTVSPost2010PropOp34
 70
     1
102
RTVSPost2010Prop35
280
     0
102
RTVSPost2010PropOp35
 70
     1
102
RTVSPost2010Prop36
280
     0
102
RTVSPost2010PropOp36
 70
     1
102
RTVSPost2010Prop37
 90
       50
102
RTVSPost2010PropOp37
 70
     1
102
RTVSPost2010Prop38
140
0.0
102
RTVSPost2010PropOp38
 70
     1
102
RTVSPost2010Prop39
140
1.0
102
RTVSPost2010PropOp39
 70
     1
102
RTVSPost2010Prop40
 90
        0
102
RTVSPost2010PropOp40
 70
     1
102
RTVSPost2010Prop41ColorIndex
 90
       18
102
RTVSPost2010Prop41ColorRGB
 90
        0
102
RTVSPost2010PropOp41
 70
     1
102
RTVSPost2010Prop42
 90
       50
102
RTVSPost2010PropOp42
 70
     1
102
RTVSPost2010Prop43
 90
        3
102
RTVSPost2010PropOp43
 70
     1
102
RTVSPost2010Prop44ColorIndex
 90
        5
102
RTVSPost2010Prop44ColorRGB
 90
      255
102
RTVSPost2010PropOp44
 70
     1
102
RTVSPost2010Prop45
280
     0
102
RTVSPost2010PropOp45
 70
     1
102
RTVSPost2010Prop46
 90
       50
102
RTVSPost2010PropOp46
 70
     1
102
RTVSPost2010Prop47
 90
       50
102
RTVSPost2010PropOp47
 70
     1
102
RTVSPost2010Prop48
 90
       50
102
RTVSPost2010PropOp48
 70
     1
102
RTVSPost2010Prop49
280
     0
102
RTVSPost2010PropOp49
 70
     1
102
RTVSPost2010Prop50
 90
       50
102
RTVSPost2010PropOp50
 70
     1
102
RTVSPost2010Prop51ColorIndex
 90
      256
102
RTVSPost2010Prop51ColorRGB
 90
-16777216
102
RTVSPost2010PropOp51
 70
     0
102
RTVSPost2010Prop52
140
1.0
102
RTVSPost2010PropOp52
 70
     0
102
RTVSPost2010Prop53
 90
        2
102
RTVSPost2010PropOp53
 70
     1
102
RTVSPost2010Prop54
  1
strokes_ogs.tif
102
RTVSPost2010PropOp54
 70
     1
102
RTVSPost2010Prop55
280
     0
102
RTVSPost2010PropOp55
 70
     1
102
RTVSPost2010Prop56
140
1.0
102
RTVSPost2010PropOp56
 70
     1
102
RTVSPost2010Prop57
140
1.0
102
RTVSPost2010PropOp57
 70
     1
  0
ENDSEC
  0
EOF
