  0
SECTION
  2
HEADER
  9
$ACADVER
  1
AC1024
  9
$ACADMAINTVER
 70
   226
  9
$DWGCODEPAGE
  3
ANSI_932
  9
$INSBASE
 10
0.0
 20
0.0
 30
0.0
  9
$EXTMIN
 10
1.000000000000000E+20
 20
1.000000000000000E+20
 30
1.000000000000000E+20
  9
$EXTMAX
 10
-1.000000000000000E+20
 20
-1.000000000000000E+20
 30
-1.000000000000000E+20
  9
$LIMMIN
 10
0.0
 20
0.0
  9
$LIMMAX
 10
12.0
 20
9.0
  9
$ORTHOMODE
 70
     0
  9
$REGENMODE
 70
     1
  9
$FILLMODE
 70
     1
  9
$QTEXTMODE
 70
     0
  9
$MIRRTEXT
 70
     0
  9
$LTSCALE
 40
1.0
  9
$ATTMODE
 70
     1
  9
$TEXTSIZE
 40
0.2
  9
$TRACEWID
 40
0.05
  9
$TEXTSTYLE
  7
Standard
  9
$CLAYER
  8
0
  9
$CELTYPE
  6
ByLayer
  9
$CECOLOR
 62
   256
  9
$CELTSCALE
 40
1.0
  9
$DISPSILH
 70
     0
  9
$DIMSCALE
 40
1.0
  9
$DIMASZ
 40
0.18
  9
$DIMEXO
 40
0.0625
  9
$DIMDLI
 40
0.38
  9
$DIMRND
 40
0.0
  9
$DIMDLE
 40
0.0
  9
$DIMEXE
 40
0.18
  9
$DIMTP
 40
0.0
  9
$DIMTM
 40
0.0
  9
$DIMTXT
 40
0.18
  9
$DIMCEN
 40
0.09
  9
$DIMTSZ
 40
0.0
  9
$DIMTOL
 70
     0
  9
$DIMLIM
 70
     0
  9
$DIMTIH
 70
     1
  9
$DIMTOH
 70
     1
  9
$DIMSE1
 70
     0
  9
$DIMSE2
 70
     0
  9
$DIMTAD
 70
     0
  9
$DIMZIN
 70
     0
  9
$DIMBLK
  1

  9
$DIMASO
 70
     1
  9
$DIMSHO
 70
     1
  9
$DIMPOST
  1

  9
$DIMAPOST
  1

  9
$DIMALT
 70
     0
  9
$DIMALTD
 70
     2
  9
$DIMALTF
 40
25.4
  9
$DIMLFAC
 40
1.0
  9
$DIMTOFL
 70
     0
  9
$DIMTVP
 40
0.0
  9
$DIMTIX
 70
     0
  9
$DIMSOXD
 70
     0
  9
$DIMSAH
 70
     0
  9
$DIMBLK1
  1

  9
$DIMBLK2
  1

  9
$DIMSTYLE
  2
Standard
  9
$DIMCLRD
 70
     0
  9
$DIMCLRE
 70
     0
  9
$DIMCLRT
 70
     0
  9
$DIMTFAC
 40
1.0
  9
$DIMGAP
 40
0.09
  9
$DIMJUST
 70
     0
  9
$DIMSD1
 70
     0
  9
$DIMSD2
 70
     0
  9
$DIMTOLJ
 70
     1
  9
$DIMTZIN
 70
     0
  9
$DIMALTZ
 70
     0
  9
$DIMALTTZ
 70
     0
  9
$DIMUPT
 70
     0
  9
$DIMDEC
 70
     4
  9
$DIMTDEC
 70
     4
  9
$DIMALTU
 70
     2
  9
$DIMALTTD
 70
     2
  9
$DIMTXSTY
  7
Standard
  9
$DIMAUNIT
 70
     0
  9
$DIMADEC
 70
     0
  9
$DIMALTRND
 40
0.0
  9
$DIMAZIN
 70
     0
  9
$DIMDSEP
 70
    46
  9
$DIMATFIT
 70
     3
  9
$DIMFRAC
 70
     0
  9
$DIMLDRBLK
  1

  9
$DIMLUNIT
 70
     2
  9
$DIMLWD
 70
    -2
  9
$DIMLWE
 70
    -2
  9
$DIMTMOVE
 70
     0
  9
$DIMFXL
 40
1.0
  9
$DIMFXLON
 70
     0
  9
$DIMJOGANG
 40
0.7853981633974483
  9
$DIMTFILL
 70
     0
  9
$DIMTFILLCLR
 70
     0
  9
$DIMARCSYM
 70
     0
  9
$DIMLTYPE
  6

  9
$DIMLTEX1
  6

  9
$DIMLTEX2
  6

  9
$DIMTXTDIRECTION
 70
     0
  9
$LUNITS
 70
     2
  9
$LUPREC
 70
     4
  9
$SKETCHINC
 40
0.1
  9
$FILLETRAD
 40
0.0
  9
$AUNITS
 70
     0
  9
$AUPREC
 70
     0
  9
$MENU
  1
.
  9
$ELEVATION
 40
0.0
  9
$PELEVATION
 40
0.0
  9
$THICKNESS
 40
0.0
  9
$LIMCHECK
 70
     0
  9
$CHAMFERA
 40
0.0
  9
$CHAMFERB
 40
0.0
  9
$CHAMFERC
 40
0.0
  9
$CHAMFERD
 40
0.0
  9
$SKPOLY
 70
     0
  9
$TDCREATE
 40
2459569.490289352
  9
$TDUCREATE
 40
2459569.115289352
  9
$TDUPDATE
 40
2459569.490289352
  9
$TDUUPDATE
 40
2459569.115289352
  9
$TDINDWG
 40
0.0000000000
  9
$TDUSRTIMER
 40
0.0000000000
  9
$USRTIMER
 70
     1
  9
$ANGBASE
 50
0.0
  9
$ANGDIR
 70
     0
  9
$PDMODE
 70
     0
  9
$PDSIZE
 40
0.0
  9
$PLINEWID
 40
0.0
  9
$SPLFRAME
 70
     0
  9
$SPLINETYPE
 70
     6
  9
$SPLINESEGS
 70
     8
  9
$HANDSEED
  5
163
  9
$SURFTAB1
 70
     6
  9
$SURFTAB2
 70
     6
  9
$SURFTYPE
 70
     6
  9
$SURFU
 70
     6
  9
$SURFV
 70
     6
  9
$UCSBASE
  2

  9
$UCSNAME
  2

  9
$UCSORG
 10
0.0
 20
0.0
 30
0.0
  9
$UCSXDIR
 10
1.0
 20
0.0
 30
0.0
  9
$UCSYDIR
 10
0.0
 20
1.0
 30
0.0
  9
$UCSORTHOREF
  2

  9
$UCSORTHOVIEW
 70
     0
  9
$UCSORGTOP
 10
0.0
 20
0.0
 30
0.0
  9
$UCSORGBOTTOM
 10
0.0
 20
0.0
 30
0.0
  9
$UCSORGLEFT
 10
0.0
 20
0.0
 30
0.0
  9
$UCSORGRIGHT
 10
0.0
 20
0.0
 30
0.0
  9
$UCSORGFRONT
 10
0.0
 20
0.0
 30
0.0
  9
$UCSORGBACK
 10
0.0
 20
0.0
 30
0.0
  9
$PUCSBASE
  2

  9
$PUCSNAME
  2

  9
$PUCSORG
 10
0.0
 20
0.0
 30
0.0
  9
$PUCSXDIR
 10
1.0
 20
0.0
 30
0.0
  9
$PUCSYDIR
 10
0.0
 20
1.0
 30
0.0
  9
$PUCSORTHOREF
  2

  9
$PUCSORTHOVIEW
 70
     0
  9
$PUCSORGTOP
 10
0.0
 20
0.0
 30
0.0
  9
$PUCSORGBOTTOM
 10
0.0
 20
0.0
 30
0.0
  9
$PUCSORGLEFT
 10
0.0
 20
0.0
 30
0.0
  9
$PUCSORGRIGHT
 10
0.0
 20
0.0
 30
0.0
  9
$PUCSORGFRONT
 10
0.0
 20
0.0
 30
0.0
  9
$PUCSORGBACK
 10
0.0
 20
0.0
 30
0.0
  9
$USERI1
 70
     0
  9
$USERI2
 70
     0
  9
$USERI3
 70
     0
  9
$USERI4
 70
     0
  9
$USERI5
 70
     0
  9
$USERR1
 40
0.0
  9
$USERR2
 40
0.0
  9
$USERR3
 40
0.0
  9
$USERR4
 40
0.0
  9
$USERR5
 40
0.0
  9
$WORLDVIEW
 70
     1
  9
$SHADEDGE
 70
     3
  9
$SHADEDIF
 70
    70
  9
$TILEMODE
 70
     1
  9
$MAXACTVP
 70
    64
  9
$PINSBASE
 10
0.0
 20
0.0
 30
0.0
  9
$PLIMCHECK
 70
     0
  9
$PEXTMIN
 10
1.000000000000000E+20
 20
1.000000000000000E+20
 30
1.000000000000000E+20
  9
$PEXTMAX
 10
-1.000000000000000E+20
 20
-1.000000000000000E+20
 30
-1.000000000000000E+20
  9
$PLIMMIN
 10
0.0
 20
0.0
  9
$PLIMMAX
 10
12.0
 20
9.0
  9
$UNITMODE
 70
     0
  9
$VISRETAIN
 70
     1
  9
$PLINEGEN
 70
     0
  9
$PSLTSCALE
 70
     1
  9
$TREEDEPTH
 70
  3020
  9
$CMLSTYLE
  2
Standard
  9
$CMLJUST
 70
     0
  9
$CMLSCALE
 40
1.0
  9
$PROXYGRAPHICS
 70
     1
  9
$MEASUREMENT
 70
     0
  9
$CELWEIGHT
370
    -1
  9
$ENDCAPS
280
     0
  9
$JOINSTYLE
280
     0
  9
$LWDISPLAY
290
     1
  9
$INSUNITS
 70
     4
  9
$HYPERLINKBASE
  1

  9
$STYLESHEET
  1

  9
$XEDIT
290
     1
  9
$CEPSNTYPE
380
     0
  9
$PSTYLEMODE
290
     1
  9
$FINGERPRINTGUID
  2
{89AA7BA7-28A0-E548-B0D6-02B142ADEB50}
  9
$VERSIONGUID
  2
{82C18039-4F17-B647-969F-85E384B48BCA}
  9
$EXTNAMES
290
     1
  9
$PSVPSCALE
 40
0.0
  9
$OLESTARTUP
290
     0
  9
$SORTENTS
280
   127
  9
$INDEXCTL
280
     0
  9
$HIDETEXT
280
     1
  9
$XCLIPFRAME
280
     2
  9
$HALOGAP
280
     0
  9
$OBSCOLOR
 70
   257
  9
$OBSLTYPE
280
     0
  9
$INTERSECTIONDISPLAY
280
     0
  9
$INTERSECTIONCOLOR
 70
   257
  9
$DIMASSOC
280
     2
  9
$PROJECTNAME
  1

  9
$CAMERADISPLAY
290
     0
  9
$LENSLENGTH
 40
50.0
  9
$CAMERAHEIGHT
 40
0.0
  9
$STEPSPERSEC
 40
2.0
  9
$STEPSIZE
 40
6.0
  9
$3DDWFPREC
 40
2.0
  9
$PSOLWIDTH
 40
0.25
  9
$PSOLHEIGHT
 40
4.0
  9
$LOFTANG1
 40
1.570796326794896
  9
$LOFTANG2
 40
1.570796326794896
  9
$LOFTMAG1
 40
0.0
  9
$LOFTMAG2
 40
0.0
  9
$LOFTPARAM
 70
     7
  9
$LOFTNORMALS
280
     1
  9
$LATITUDE
 40
37.795
  9
$LONGITUDE
 40
-122.394
  9
$NORTHDIRECTION
 40
0.0
  9
$TIMEZONE
 70
 -8000
  9
$LIGHTGLYPHDISPLAY
280
     1
  9
$TILEMODELIGHTSYNCH
280
     1
  9
$CMATERIAL
347
11
  9
$SOLIDHIST
280
     0
  9
$SHOWHIST
280
     1
  9
$DWFFRAME
280
     2
  9
$DGNFRAME
280
     0
  9
$REALWORLDSCALE
290
     1
  9
$INTERFERECOLOR
 62
     1
  9
$INTERFEREOBJVS
345
33
  9
$INTERFEREVPVS
346
30
  9
$CSHADOW
280
     0
  9
$SHADOWPLANELOCATION
 40
0.0
  0
ENDSEC
  0
SECTION
  2
CLASSES
  0
CLASS
  1
ACDBDICTIONARYWDFLT
  2
AcDbDictionaryWithDefault
  3
ObjectDBX Classes
 90
        0
 91
        1
280
     0
281
     0
  0
CLASS
  1
MATERIAL
  2
AcDbMaterial
  3
ObjectDBX Classes
 90
     1153
 91
        3
280
     0
281
     0
  0
CLASS
  1
VISUALSTYLE
  2
AcDbVisualStyle
  3
ObjectDBX Classes
 90
     4095
 91
       24
280
     0
281
     0
  0
CLASS
  1
SCALE
  2
AcDbScale
  3
ObjectDBX Classes
 90
     1153
 91
       17
280
     0
281
     0
  0
CLASS
  1
TABLESTYLE
  2
AcDbTableStyle
  3
ObjectDBX Classes
 90
     4095
 91
        1
280
     0
281
     0
  0
CLASS
  1
MLEADERSTYLE
  2
AcDbMLeaderStyle
  3
ACDB_MLEADERSTYLE_CLASS
 90
     4095
 91
        1
280
     0
281
     0
  0
CLASS
  1
ACDBSECTIONVIEWSTYLE
  2
AcDbSectionViewStyle
  3
ObjectDBX Classes
 90
     1025
 91
        1
280
     0
281
     0
  0
CLASS
  1
ACDBDETAILVIEWSTYLE
  2
AcDbDetailViewStyle
  3
ObjectDBX Classes
 90
     1025
 91
        1
280
     0
281
     0
  0
CLASS
  1
DICTIONARYVAR
  2
AcDbDictionaryVar
  3
ObjectDBX Classes
 90
        0
 91
        5
280
     0
281
     0
  0
CLASS
  1
CELLSTYLEMAP
  2
AcDbCellStyleMap
  3
ObjectDBX Classes
 90
     1152
 91
        1
280
     0
281
     0
  0
ENDSEC
  0
SECTION
  2
TABLES
  0
TABLE
  2
VPORT
  5
8
330
0
100
AcDbSymbolTable
 70
     1
  0
VPORT
  5
57
330
8
100
AcDbSymbolTableRecord
100
AcDbViewportTableRecord
  2
*Active
 70
     0
 10
0.0
 20
0.0
 11
1.0
 21
1.0
 12
0.0
 22
0.0
 13
0.0
 23
0.0
 14
1.0
 24
1.0
 15
0.0
 25
0.0
 16
0.0
 26
0.0
 36
1.0
 17
104.9999999737534
 27
-148.4999999628701
 37
0.0
 40
302.939999924255
 41
0.7070707070707534
 42
50.0
 43
0.0
 44
0.0
 50
0.0
 51
0.0
 71
     0
 72
   100
 73
     1
 74
     0
 75
     1
 76
     0
 77
     0
 78
     0
281
     0
 65
     1
110
0.0
120
0.0
130
0.0
111
1.0
121
0.0
131
0.0
112
0.0
122
1.0
132
0.0
 79
     0
146
0.0
 60
     3
 61
     5
292
     1
282
     1
141
0.0
142
0.0
 63
   250
421
  3355443
  0
ENDTAB
  0
TABLE
  2
LTYPE
  5
5
330
0
100
AcDbSymbolTable
 70
     2
  0
LTYPE
  5
5B
330
5
100
AcDbSymbolTableRecord
100
AcDbLinetypeTableRecord
  2
ByBlock
 70
     0
  3

 72
    65
 73
     0
 40
0.0
  0
LTYPE
  5
5C
330
5
100
AcDbSymbolTableRecord
100
AcDbLinetypeTableRecord
  2
ByLayer
 70
     0
  3

 72
    65
 73
     0
 40
0.0
  0
LTYPE
  5
5D
330
5
100
AcDbSymbolTableRecord
100
AcDbLinetypeTableRecord
  2
Continuous
 70
     0
  3
Solid line
 72
    65
 73
     0
 40
0.0
  0
LTYPE
  5
E2
330
5
100
AcDbSymbolTableRecord
100
AcDbLinetypeTableRecord
  2
AI-Linetype-0
 70
     0
  3
Adobe Illustrator Linetype No. 0
 72
    65
 73
     2
 40
1.411111110758333
 49
0.7055555553791667
 74
     0
 49
-0.7055555553791667
 74
     0
  0
ENDTAB
  0
TABLE
  2
LAYER
  5
2
330
0
100
AcDbSymbolTable
 70
     2
  0
LAYER
  5
54
330
2
100
AcDbSymbolTableRecord
100
AcDbLayerTableRecord
  2
0
 70
     0
 62
     7
  6
Continuous
370
    -3
390
F
347
21
  0
LAYER
  5
78
330
2
100
AcDbSymbolTableRecord
100
AcDbLayerTableRecord
  2
レイヤー 1
 70
     0
 62
     7
  6
Continuous
370
     0
390
F
347
21
  0
ENDTAB
  0
TABLE
  2
STYLE
  5
3
330
0
100
AcDbSymbolTable
 70
     2
  0
STYLE
  5
55
330
3
100
AcDbSymbolTableRecord
100
AcDbTextStyleTableRecord
  2
Standard
 70
     0
 40
0.0
 41
1.0
 50
0.0
 71
     0
 42
0.2
  3
txt
  4

  0
STYLE
  5
5A
330
3
100
AcDbSymbolTableRecord
100
AcDbTextStyleTableRecord
  2
Annotative
 70
     0
 40
0.0
 41
1.0
 50
0.0
 71
     0
 42
0.2
  3
txt
  4

1001
AcadAnnotative
1000
AnnotativeData
1002
{
1070
     1
1070
     1
1002
}
  0
ENDTAB
  0
TABLE
  2
VIEW
  5
6
330
0
100
AcDbSymbolTable
 70
     0
  0
ENDTAB
  0
TABLE
  2
UCS
  5
7
330
0
100
AcDbSymbolTable
 70
     0
  0
ENDTAB
  0
TABLE
  2
APPID
  5
9
330
0
100
AcDbSymbolTable
 70
     2
  0
APPID
  5
56
330
9
100
AcDbSymbolTableRecord
100
AcDbRegAppTableRecord
  2
ACAD
 70
     0
  0
APPID
  5
5E
330
9
100
AcDbSymbolTableRecord
100
AcDbRegAppTableRecord
  2
AcadAnnotative
 70
     0
  0
ENDTAB
  0
TABLE
  2
DIMSTYLE
  5
A
330
0
100
AcDbSymbolTable
 70
     2
100
AcDbDimStyleTable
 71
     0
  0
DIMSTYLE
105
58
330
A
100
AcDbSymbolTableRecord
100
AcDbDimStyleTableRecord
  2
Standard
 70
     0
340
55
  0
DIMSTYLE
105
59
330
A
100
AcDbSymbolTableRecord
100
AcDbDimStyleTableRecord
  2
Annotative
 70
     0
340
55
1001
AcadAnnotative
1000
AnnotativeData
1002
{
1070
     1
1070
     1
1002
}
  0
ENDTAB
  0
TABLE
  2
BLOCK_RECORD
  5
1
330
0
100
AcDbSymbolTable
 70
    15
  0
BLOCK_RECORD
  5
70
330
1
100
AcDbSymbolTableRecord
100
AcDbBlockTableRecord
  2
*Model_Space
340
73
 70
     0
280
     1
281
     0
  0
BLOCK_RECORD
  5
6C
330
1
100
AcDbSymbolTableRecord
100
AcDbBlockTableRecord
  2
*Paper_Space
340
6F
 70
     0
280
     1
281
     0
  0
BLOCK_RECORD
  5
74
330
1
100
AcDbSymbolTableRecord
100
AcDbBlockTableRecord
  2
*Paper_Space0
340
77
 70
     0
280
     1
281
     0
  0
BLOCK_RECORD
  5
79
330
1
100
AcDbSymbolTableRecord
100
AcDbBlockTableRecord
  2
Block_0
340
0
102
{BLKREFS
331
7A
102
}
 70
     0
280
     1
281
     0
  0
BLOCK_RECORD
  5
7D
330
1
100
AcDbSymbolTableRecord
100
AcDbBlockTableRecord
  2
Block_1
340
0
102
{BLKREFS
331
7E
102
}
 70
     0
280
     1
281
     0
  0
BLOCK_RECORD
  5
94
330
1
100
AcDbSymbolTableRecord
100
AcDbBlockTableRecord
  2
Block_2
340
0
102
{BLKREFS
331
95
102
}
 70
     0
280
     1
281
     0
  0
BLOCK_RECORD
  5
9D
330
1
100
AcDbSymbolTableRecord
100
AcDbBlockTableRecord
  2
Block_3
340
0
102
{BLKREFS
331
9E
102
}
 70
     0
280
     1
281
     0
  0
BLOCK_RECORD
  5
A1
330
1
100
AcDbSymbolTableRecord
100
AcDbBlockTableRecord
  2
Block_4
340
0
102
{BLKREFS
331
A2
102
}
 70
     0
280
     1
281
     0
  0
BLOCK_RECORD
  5
AB
330
1
100
AcDbSymbolTableRecord
100
AcDbBlockTableRecord
  2
Block_5
340
0
102
{BLKREFS
331
AC
102
}
 70
     0
280
     1
281
     0
  0
BLOCK_RECORD
  5
AF
330
1
100
AcDbSymbolTableRecord
100
AcDbBlockTableRecord
  2
Block_6
340
0
102
{BLKREFS
331
B0
102
}
 70
     0
280
     1
281
     0
  0
BLOCK_RECORD
  5
BE
330
1
100
AcDbSymbolTableRecord
100
AcDbBlockTableRecord
  2
Block_7
340
0
102
{BLKREFS
331
BF
102
}
 70
     0
280
     1
281
     0
  0
BLOCK_RECORD
  5
C2
330
1
100
AcDbSymbolTableRecord
100
AcDbBlockTableRecord
  2
Block_8
340
0
102
{BLKREFS
331
C3
102
}
 70
     0
280
     1
281
     0
  0
BLOCK_RECORD
  5
D2
330
1
100
AcDbSymbolTableRecord
100
AcDbBlockTableRecord
  2
Block_9
340
0
102
{BLKREFS
331
D3
102
}
 70
     0
280
     1
281
     0
  0
BLOCK_RECORD
  5
D6
330
1
100
AcDbSymbolTableRecord
100
AcDbBlockTableRecord
  2
Block_10
340
0
102
{BLKREFS
331
D7
102
}
 70
     0
280
     1
281
     0
  0
BLOCK_RECORD
  5
E3
330
1
100
AcDbSymbolTableRecord
100
AcDbBlockTableRecord
  2
Block_11
340
0
102
{BLKREFS
331
E4
102
}
 70
     0
280
     1
281
     0
  0
BLOCK_RECORD
  5
EA
330
1
100
AcDbSymbolTableRecord
100
AcDbBlockTableRecord
  2
Block_12
340
0
102
{BLKREFS
331
EB
102
}
 70
     0
280
     1
281
     0
  0
BLOCK_RECORD
  5
EE
330
1
100
AcDbSymbolTableRecord
100
AcDbBlockTableRecord
  2
Block_13
340
0
102
{BLKREFS
331
EF
102
}
 70
     0
280
     1
281
     0
  0
ENDTAB
  0
ENDSEC
  0
SECTION
  2
BLOCKS
  0
BLOCK
  5
71
330
70
100
AcDbEntity
  8
0
100
AcDbBlockBegin
  2
*Model_Space
 70
     0
 10
0.0
 20
0.0
 30
0.0
  3
*Model_Space
  1

  0
ENDBLK
  5
72
330
70
100
AcDbEntity
  8
0
100
AcDbBlockEnd
  0
BLOCK
  5
6D
330
6C
100
AcDbEntity
 67
     1
  8
0
100
AcDbBlockBegin
  2
*Paper_Space
 70
     0
 10
0.0
 20
0.0
 30
0.0
  3
*Paper_Space
  1

  0
ENDBLK
  5
6E
330
6C
100
AcDbEntity
 67
     1
  8
0
100
AcDbBlockEnd
  0
BLOCK
  5
75
330
74
100
AcDbEntity
 67
     1
  8
0
100
AcDbBlockBegin
  2
*Paper_Space0
 70
     0
 10
0.0
 20
0.0
 30
0.0
  3
*Paper_Space0
  1

  0
ENDBLK
  5
76
330
74
100
AcDbEntity
 67
     1
  8
0
100
AcDbBlockEnd
  0
BLOCK
  5
7B
330
79
100
AcDbEntity
  8
0
100
AcDbBlockBegin
  2
Block_0
 70
     0
 10
0.0
 20
0.0
 30
0.0
  3
Block_0
  1

  0
INSERT
  5
7E
330
79
100
AcDbEntity
  8
レイヤー 1
100
AcDbBlockReference
  2
Block_1
 10
0.0
 20
0.0
 30
0.0
  0
ENDBLK
  5
7C
330
79
100
AcDbEntity
  8
0
100
AcDbBlockEnd
  0
BLOCK
  5
7F
330
7D
100
AcDbEntity
  8
0
100
AcDbBlockBegin
  2
Block_1
 70
     0
 10
0.0
 20
0.0
 30
0.0
  3
Block_1
  1

  0
LINE
  5
81
330
7D
100
AcDbEntity
  8
レイヤー 1
 62
   250
420
  2299925
370
    25
100
AcDbLine
 10
80.97870892893858
 20
-143.2572011094385
 30
0.0
 11
85.97871642768806
 21
-143.2572011094385
 31
0.0
  0
LINE
  5
82
330
7D
100
AcDbEntity
  8
レイヤー 1
 62
   250
420
  2299925
370
    25
100
AcDbLine
 10
84.97872010858859
 20
-144.2569733194
 30
0.0
 11
84.97872010858859
 21
-153.7570301073686
 31
0.0
  0
LINE
  5
83
330
7D
100
AcDbEntity
  8
レイヤー 1
 62
   250
420
  2299925
370
    25
100
AcDbLine
 10
80.97870892893858
 20
-144.2569733061544
 30
0.0
 11
84.97872003904959
 21
-144.2569733061544
 31
0.0
  0
LINE
  5
84
330
7D
100
AcDbEntity
  8
レイヤー 1
 62
   250
420
  2299925
370
    25
100
AcDbLine
 10
80.97870892893858
 20
-143.2572011094385
 30
0.0
 11
80.97870892893858
 21
-144.2569733061544
 31
0.0
  0
LINE
  5
85
330
7D
100
AcDbEntity
  8
レイヤー 1
 62
   250
420
  2299925
370
    25
100
AcDbLine
 10
85.9787164923431
 20
-143.2572011226841
 30
0.0
 11
85.9787164923431
 21
-152.7573512465102
 31
0.0
  0
LINE
  5
86
330
7D
100
AcDbEntity
  8
レイヤー 1
 62
   250
420
  2299925
370
    25
100
AcDbLine
 10
101.9786921778819
 20
-152.7573512465102
 30
0.0
 11
101.9786921778819
 21
-153.1573306807503
 31
0.0
  0
LINE
  5
87
330
7D
100
AcDbEntity
  8
レイヤー 1
 62
   250
420
  2299925
370
    25
100
AcDbLine
 10
85.97871649722707
 20
-152.7573512465102
 30
0.0
 11
101.9786921778819
 21
-152.7573512465102
 31
0.0
  0
LINE
  5
88
330
7D
100
AcDbEntity
  8
レイヤー 1
 62
   250
420
  2299925
370
    25
100
AcDbLine
 10
101.9786921778819
 20
-153.1573306807503
 30
0.0
 11
84.97872010858859
 21
-153.7570301073686
 31
0.0
  0
SPLINE
  5
89
330
7D
100
AcDbEntity
  8
レイヤー 1
 62
   250
420
  2299925
370
     9
100
AcDbSpline
210
0.0
220
0.0
230
1.0
 70
    11
 71
     3
 72
    17
 73
    13
 74
     0
 42
0.0000000001
 43
0.0000000001
 40
0.0
 40
0.0
 40
0.0
 40
0.0
 40
1.0
 40
1.0
 40
1.0
 40
2.0
 40
2.0
 40
2.0
 40
3.0
 40
3.0
 40
3.0
 40
4.0
 40
4.0
 40
4.0
 40
4.0
 10
106.0790645477579
 20
-143.2572011094385
 30
0.0
 10
106.0790645477579
 20
-143.201920833071
 30
0.0
 10
106.0342617699912
 20
-143.1571180564363
 30
0.0
 10
105.9784512425062
 20
-143.1571180564363
 30
0.0
 10
105.9233473550232
 20
-143.1571180564363
 30
0.0
 10
105.8785445783884
 20
-143.201920833071
 30
0.0
 10
105.8785445783884
 20
-143.2572011094385
 30
0.0
 10
105.8785445783884
 20
-143.312481385806
 30
0.0
 10
105.9233473550232
 20
-143.3572841624407
 30
0.0
 10
105.9784512425062
 20
-143.3572841624407
 30
0.0
 10
106.0342617699912
 20
-143.3572841624407
 30
0.0
 10
106.0790645477579
 20
-143.312481385806
 30
0.0
 10
106.0790645477579
 20
-143.2572011094385
 30
0.0
  0
SPLINE
  5
8A
330
7D
100
AcDbEntity
  8
レイヤー 1
 62
   250
420
  2299925
370
     9
100
AcDbSpline
210
0.0
220
0.0
230
1.0
 70
     9
 71
     3
 72
    17
 73
    13
 74
     0
 42
0.0000000001
 43
0.0000000001
 40
0.0
 40
0.0
 40
0.0
 40
0.0
 40
1.0
 40
1.0
 40
1.0
 40
2.0
 40
2.0
 40
2.0
 40
3.0
 40
3.0
 40
3.0
 40
4.0
 40
4.0
 40
4.0
 40
4.0
 10
106.0790645477579
 20
-152.7573512465102
 30
0.0
 10
106.0790645477579
 20
-152.7018945812583
 30
0.0
 10
106.0342617699912
 20
-152.6570918046236
 30
0.0
 10
105.9784512425062
 20
-152.6570918046236
 30
0.0
 10
105.9233473550232
 20
-152.6570918046236
 30
0.0
 10
105.8785445783884
 20
-152.7018945812583
 30
0.0
 10
105.8785445783884
 20
-152.7573512465102
 30
0.0
 10
105.8785445783884
 20
-152.8124551339932
 30
0.0
 10
105.9233473550232
 20
-152.857257910628
 30
0.0
 10
105.9784512425062
 20
-152.857257910628
 30
0.0
 10
106.0342617699912
 20
-152.857257910628
 30
0.0
 10
106.0790645477579
 20
-152.8124551339932
 30
0.0
 10
106.0790645477579
 20
-152.7573512465102
 30
0.0
  0
SPLINE
  5
8B
330
7D
100
AcDbEntity
  8
レイヤー 1
 62
   250
420
  2299925
370
     9
100
AcDbSpline
210
0.0
220
0.0
230
1.0
 70
     9
 71
     3
 72
    17
 73
    13
 74
     0
 42
0.0000000001
 43
0.0000000001
 40
0.0
 40
0.0
 40
0.0
 40
0.0
 40
1.0
 40
1.0
 40
1.0
 40
2.0
 40
2.0
 40
2.0
 40
3.0
 40
3.0
 40
3.0
 40
4.0
 40
4.0
 40
4.0
 40
4.0
 10
106.0790645477579
 20
-153.1573306807503
 30
0.0
 10
106.0790645477579
 20
-153.1018740154985
 30
0.0
 10
106.0342617699912
 20
-153.0570712388637
 30
0.0
 10
105.9784512425062
 20
-153.0570712388637
 30
0.0
 10
105.9233473550232
 20
-153.0570712388637
 30
0.0
 10
105.8785445783884
 20
-153.1018740154985
 30
0.0
 10
105.8785445783884
 20
-153.1573306807503
 30
0.0
 10
105.8785445783884
 20
-153.2124345682334
 30
0.0
 10
105.9233473550232
 20
-153.2572373448681
 30
0.0
 10
105.9784512425062
 20
-153.2572373448681
 30
0.0
 10
106.0342617699912
 20
-153.2572373448681
 30
0.0
 10
106.0790645477579
 20
-153.2124345682334
 30
0.0
 10
106.0790645477579
 20
-153.1573306807503
 30
0.0
  0
CIRCLE
  5
8C
330
7D
100
AcDbEntity
  8
レイヤー 1
 62
   250
420
  2299925
370
     9
100
AcDbCircle
 10
101.9786921778819
 20
-157.8569655608526
 30
0.0
 40
0.0999066641178353
  0
SPLINE
  5
8D
330
7D
100
AcDbEntity
  8
レイヤー 1
 62
   250
420
  2299925
370
     9
100
AcDbSpline
210
0.0
220
0.0
230
1.0
 70
     9
 71
     3
 72
    17
 73
    13
 74
     0
 42
0.0000000001
 43
0.0000000001
 40
0.0
 40
0.0
 40
0.0
 40
0.0
 40
1.0
 40
1.0
 40
1.0
 40
2.0
 40
2.0
 40
2.0
 40
3.0
 40
3.0
 40
3.0
 40
4.0
 40
4.0
 40
4.0
 40
4.0
 10
81.0787919844691
 20
-157.8569655608526
 30
0.0
 10
81.0787919844691
 20
-157.8018204049221
 30
0.0
 10
81.03398920670239
 20
-157.7570588967348
 30
0.0
 10
80.97870892893858
 20
-157.7570588967348
 30
0.0
 10
80.92342865117478
 20
-157.7570588967348
 30
0.0
 10
80.87880226229696
 20
-157.8018204049221
 30
0.0
 10
80.87880226229696
 20
-157.8569655608526
 30
0.0
 10
80.87880226229696
 20
-157.9120694483357
 30
0.0
 10
80.92342865117478
 20
-157.9568722249705
 30
0.0
 10
80.97870892893858
 20
-157.9568722249705
 30
0.0
 10
81.03398920670239
 20
-157.9568722249705
 30
0.0
 10
81.0787919844691
 20
-157.9120694483357
 30
0.0
 10
81.0787919844691
 20
-157.8569655608526
 30
0.0
  0
SPLINE
  5
8E
330
7D
100
AcDbEntity
  8
レイヤー 1
 62
   250
420
  2299925
370
     9
100
AcDbSpline
210
0.0
220
0.0
230
1.0
 70
    11
 71
     3
 72
    17
 73
    13
 74
     0
 42
0.0000000001
 43
0.0000000001
 40
0.0
 40
0.0
 40
0.0
 40
0.0
 40
1.0
 40
1.0
 40
1.0
 40
2.0
 40
2.0
 40
2.0
 40
3.0
 40
3.0
 40
3.0
 40
4.0
 40
4.0
 40
4.0
 40
4.0
 10
79.02894142942577
 20
-143.2572011094385
 30
0.0
 10
79.02894142942577
 20
-143.201920833071
 30
0.0
 10
78.9841739294372
 20
-143.1571180564363
 30
0.0
 10
78.92903476278476
 20
-143.1571180564363
 30
0.0
 10
78.87375448502033
 20
-143.1571180564363
 30
0.0
 10
78.82898698503113
 20
-143.201920833071
 30
0.0
 10
78.82898698503113
 20
-143.2572011094385
 30
0.0
 10
78.82898698503113
 20
-143.312481385806
 30
0.0
 10
78.87375448502033
 20
-143.3572841624407
 30
0.0
 10
78.92903476278476
 20
-143.3572841624407
 30
0.0
 10
78.9841739294372
 20
-143.3572841624407
 30
0.0
 10
79.02894142942577
 20
-143.312481385806
 30
0.0
 10
79.02894142942577
 20
-143.2572011094385
 30
0.0
  0
SPLINE
  5
8F
330
7D
100
AcDbEntity
  8
レイヤー 1
 62
   250
420
  2299925
370
     9
100
AcDbSpline
210
0.0
220
0.0
230
1.0
 70
     9
 71
     3
 72
    17
 73
    13
 74
     0
 42
0.0000000001
 43
0.0000000001
 40
0.0
 40
0.0
 40
0.0
 40
0.0
 40
1.0
 40
1.0
 40
1.0
 40
2.0
 40
2.0
 40
2.0
 40
3.0
 40
3.0
 40
3.0
 40
4.0
 40
4.0
 40
4.0
 40
4.0
 10
79.02894142942577
 20
-144.2569733061544
 30
0.0
 10
79.02894142942577
 20
-144.2018341408944
 30
0.0
 10
78.9841739294372
 20
-144.1570666420369
 30
0.0
 10
78.92903476278476
 20
-144.1570666420369
 30
0.0
 10
78.87375448502033
 20
-144.1570666420369
 30
0.0
 10
78.82898698503113
 20
-144.2018341408944
 30
0.0
 10
78.82898698503113
 20
-144.2569733061544
 30
0.0
 10
78.82898698503113
 20
-144.3124299714063
 30
0.0
 10
78.87375448502033
 20
-144.357232748041
 30
0.0
 10
78.92903476278476
 20
-144.357232748041
 30
0.0
 10
78.9841739294372
 20
-144.357232748041
 30
0.0
 10
79.02894142942577
 20
-144.3124299714063
 30
0.0
 10
79.02894142942577
 20
-144.2569733061544
 30
0.0
  0
SPLINE
  5
90
330
7D
100
AcDbEntity
  8
レイヤー 1
 62
   250
420
  2299925
370
     9
100
AcDbSpline
210
0.0
220
0.0
230
1.0
 70
     9
 71
     3
 72
    17
 73
    13
 74
     0
 42
0.0000000001
 43
0.0000000001
 40
0.0
 40
0.0
 40
0.0
 40
0.0
 40
1.0
 40
1.0
 40
1.0
 40
2.0
 40
2.0
 40
2.0
 40
3.0
 40
3.0
 40
3.0
 40
4.0
 40
4.0
 40
4.0
 40
4.0
 10
85.07876788634096
 20
-157.8569655608526
 30
0.0
 10
85.07876788634096
 20
-157.8018204049221
 30
0.0
 10
85.03400038635239
 20
-157.7570588967348
 30
0.0
 10
84.97872010858859
 20
-157.7570588967348
 30
0.0
 10
84.92358094193551
 20
-157.7570588967348
 30
0.0
 10
84.87881344194631
 20
-157.8018204049221
 30
0.0
 10
84.87881344194631
 20
-157.8569655608526
 30
0.0
 10
84.87881344194631
 20
-157.9120694483357
 30
0.0
 10
84.92358094193551
 20
-157.9568722249705
 30
0.0
 10
84.97872010858859
 20
-157.9568722249705
 30
0.0
 10
85.03400038635239
 20
-157.9568722249705
 30
0.0
 10
85.07876788634096
 20
-157.9120694483357
 30
0.0
 10
85.07876788634096
 20
-157.8569655608526
 30
0.0
  0
LINE
  5
91
330
7D
100
AcDbEntity
  8
レイヤー 1
 62
   250
420
  2299925
370
     9
100
AcDbLine
 10
80.97888531782748
 20
-157.8569655608526
 30
0.0
 11
84.97872003904959
 21
-157.8569655608526
 31
0.0
  0
LINE
  5
92
330
7D
100
AcDbEntity
  8
レイヤー 1
 62
   250
420
  2299925
370
     9
100
AcDbLine
 10
80.97870892893858
 20
-146.8971268631555
 30
0.0
 11
80.97870892893858
 21
-158.8574080353292
 31
0.0
  0
LINE
  5
93
330
7D
100
AcDbEntity
  8
レイヤー 1
 62
   250
420
  2299925
370
     9
100
AcDbLine
 10
84.97872010858859
 20
-156.3969242092125
 30
0.0
 11
84.97872010858859
 21
-158.8574080353292
 31
0.0
  0
INSERT
  5
95
330
7D
100
AcDbEntity
  8
レイヤー 1
100
AcDbBlockReference
  2
Block_2
 10
0.0
 20
0.0
 30
0.0
  0
LINE
  5
9B
330
7D
100
AcDbEntity
  8
レイヤー 1
 62
   250
420
  2299925
370
     9
100
AcDbLine
 10
84.97872010858859
 20
-157.8569655608526
 30
0.0
 11
101.9786921778819
 21
-157.8569655608526
 31
0.0
  0
LINE
  5
9C
330
7D
100
AcDbEntity
  8
レイヤー 1
 62
   250
420
  2299925
370
     9
100
AcDbLine
 10
101.9786921778819
 20
-155.6968720048501
 30
0.0
 11
101.9786921778819
 21
-158.8574080353292
 31
0.0
  0
INSERT
  5
9E
330
7D
100
AcDbEntity
  8
レイヤー 1
100
AcDbBlockReference
  2
Block_3
 10
0.0
 20
0.0
 30
0.0
  0
LINE
  5
A9
330
7D
100
AcDbEntity
  8
レイヤー 1
 62
   250
420
  2299925
370
     9
100
AcDbLine
 10
105.9784512425062
 20
-152.7573512465102
 30
0.0
 11
105.9784512425062
 21
-143.2572011226841
 31
0.0
  0
LINE
  5
AA
330
7D
100
AcDbEntity
  8
レイヤー 1
 62
   250
420
  2299925
370
     9
100
AcDbLine
 10
88.61878705212268
 20
-143.2572011094385
 30
0.0
 11
106.9788937169828
 21
-143.2572011094385
 31
0.0
  0
INSERT
  5
AC
330
7D
100
AcDbEntity
  8
レイヤー 1
100
AcDbBlockReference
  2
Block_5
 10
0.0
 20
0.0
 30
0.0
  0
LINE
  5
BA
330
7D
100
AcDbEntity
  8
レイヤー 1
 62
   250
420
  2299925
370
     9
100
AcDbLine
 10
105.9784512425062
 20
-153.1573306807503
 30
0.0
 11
105.9784512425062
 21
-154.1571028774662
 31
0.0
  0
LINE
  5
BB
330
7D
100
AcDbEntity
  8
レイヤー 1
 62
   250
420
  2299925
370
     9
100
AcDbLine
 10
105.9784512425062
 20
-152.7573512465102
 30
0.0
 11
105.9784512425062
 21
-153.1573306807503
 31
0.0
  0
LINE
  5
BC
330
7D
100
AcDbEntity
  8
レイヤー 1
 62
   250
420
  2299925
370
     9
100
AcDbLine
 10
104.5184098908661
 20
-152.7573512465102
 30
0.0
 11
106.9788937169828
 21
-152.7573512465102
 31
0.0
  0
LINE
  5
BD
330
7D
100
AcDbEntity
  8
レイヤー 1
 62
   250
420
  2299925
370
     9
100
AcDbLine
 10
104.5184098908661
 20
-153.1573306807503
 30
0.0
 11
106.9788937169828
 21
-153.1573306807503
 31
0.0
  0
INSERT
  5
BF
330
7D
100
AcDbEntity
  8
レイヤー 1
100
AcDbBlockReference
  2
Block_7
 10
0.0
 20
0.0
 30
0.0
  0
LINE
  5
CE
330
7D
100
AcDbEntity
  8
レイヤー 1
 62
   250
420
  2299925
370
     9
100
AcDbLine
 10
78.92903476278476
 20
-143.2572011094385
 30
0.0
 11
78.92903476278476
 21
-142.2572525238382
 31
0.0
  0
LINE
  5
CF
330
7D
100
AcDbEntity
  8
レイヤー 1
 62
   250
420
  2299925
370
     9
100
AcDbLine
 10
78.92903476278476
 20
-143.2572011094385
 30
0.0
 11
78.92903476278476
 21
-145.2570630028619
 31
0.0
  0
LINE
  5
D0
330
7D
100
AcDbEntity
  8
レイヤー 1
 62
   250
420
  2299925
370
     9
100
AcDbLine
 10
80.38889976241895
 20
-143.2572011094385
 30
0.0
 11
77.92894504081198
 21
-143.2572011094385
 31
0.0
  0
LINE
  5
D1
330
7D
100
AcDbEntity
  8
レイヤー 1
 62
   250
420
  2299925
370
     9
100
AcDbLine
 10
80.38889976241895
 20
-144.2569733061544
 30
0.0
 11
77.92894504081198
 21
-144.2569733061544
 31
0.0
  0
INSERT
  5
D3
330
7D
100
AcDbEntity
  8
レイヤー 1
100
AcDbBlockReference
  2
Block_9
 10
0.0
 20
0.0
 30
0.0
  0
ENDBLK
  5
80
330
7D
100
AcDbEntity
  8
0
100
AcDbBlockEnd
  0
BLOCK
  5
96
330
94
100
AcDbEntity
  8
0
100
AcDbBlockBegin
  2
Block_2
 70
     0
 10
0.0
 20
0.0
 30
0.0
  3
Block_2
  1

  0
SPLINE
  5
98
330
94
100
AcDbEntity
  8
レイヤー 1
100
AcDbSpline
210
0.0
220
0.0
230
1.0
 70
    11
 71
     3
 72
    14
 73
    10
 74
     0
 42
0.0000000001
 43
0.0000000001
 40
0.0
 40
0.0
 40
0.0
 40
0.0
 40
1.0
 40
1.0
 40
1.0
 40
2.0
 40
2.0
 40
2.0
 40
3.0
 40
3.0
 40
3.0
 40
3.0
 10
83.03455265936289
 20
-156.0094265017963
 30
0.0
 10
83.03455265936289
 20
-156.0094265017963
 30
0.0
 10
82.64491235998113
 20
-156.6653726821878
 30
0.0
 10
82.64491235998113
 20
-156.6653726821878
 30
0.0
 10
82.64491235998113
 20
-156.6653726821878
 30
0.0
 10
83.03455265936289
 20
-156.6653726821878
 30
0.0
 10
83.03455265936289
 20
-156.6653726821878
 30
0.0
 10
83.03455265936289
 20
-156.6653726821878
 30
0.0
 10
83.03455265936289
 20
-156.0094265017963
 30
0.0
 10
83.03455265936289
 20
-156.0094265017963
 30
0.0
  0
SPLINE
  5
99
330
94
100
AcDbEntity
  8
レイヤー 1
100
AcDbSpline
210
0.0
220
0.0
230
1.0
 70
    11
 71
     3
 72
    38
 73
    34
 74
     0
 42
0.0000000001
 43
0.0000000001
 40
0.0
 40
0.0
 40
0.0
 40
0.0
 40
1.0
 40
1.0
 40
1.0
 40
2.0
 40
2.0
 40
2.0
 40
3.0
 40
3.0
 40
3.0
 40
4.0
 40
4.0
 40
4.0
 40
5.0
 40
5.0
 40
5.0
 40
6.0
 40
6.0
 40
6.0
 40
7.0
 40
7.0
 40
7.0
 40
8.0
 40
8.0
 40
8.0
 40
9.0
 40
9.0
 40
9.0
 40
10.0
 40
10.0
 40
10.0
 40
11.0
 40
11.0
 40
11.0
 40
11.0
 10
83.22024330601786
 20
-156.8641546916867
 30
0.0
 10
83.22024330601786
 20
-156.8641546916867
 30
0.0
 10
83.22024330601786
 20
-157.2110758070514
 30
0.0
 10
83.22024330601786
 20
-157.2110758070514
 30
0.0
 10
83.22024330601786
 20
-157.2110758070514
 30
0.0
 10
83.03455265936289
 20
-157.2110758070514
 30
0.0
 10
83.03455265936289
 20
-157.2110758070514
 30
0.0
 10
83.03455265936289
 20
-157.2110758070514
 30
0.0
 10
83.03455265936289
 20
-156.8641546916867
 30
0.0
 10
83.03455265936289
 20
-156.8641546916867
 30
0.0
 10
83.03455265936289
 20
-156.8641546916867
 30
0.0
 10
82.47541366210684
 20
-156.8641546916867
 30
0.0
 10
82.47541366210684
 20
-156.8641546916867
 30
0.0
 10
82.47541366210684
 20
-156.8641546916867
 30
0.0
 10
82.47541366210684
 20
-156.639878975597
 30
0.0
 10
82.47541366210684
 20
-156.639878975597
 30
0.0
 10
82.47541366210684
 20
-156.639878975597
 30
0.0
 10
83.05418970362882
 20
-155.6666395010139
 30
0.0
 10
83.05418970362882
 20
-155.6666395010139
 30
0.0
 10
83.05418970362882
 20
-155.6666395010139
 30
0.0
 10
83.22024330601786
 20
-155.6666395010139
 30
0.0
 10
83.22024330601786
 20
-155.6666395010139
 30
0.0
 10
83.22024330601786
 20
-155.6666395010139
 30
0.0
 10
83.22024330601786
 20
-156.6653726821878
 30
0.0
 10
83.22024330601786
 20
-156.6653726821878
 30
0.0
 10
83.22024330601786
 20
-156.6653726821878
 30
0.0
 10
83.39697670441116
 20
-156.6653726821878
 30
0.0
 10
83.39697670441116
 20
-156.6653726821878
 30
0.0
 10
83.39697670441116
 20
-156.6653726821878
 30
0.0
 10
83.39697670441116
 20
-156.8641546916867
 30
0.0
 10
83.39697670441116
 20
-156.8641546916867
 30
0.0
 10
83.39697670441116
 20
-156.8641546916867
 30
0.0
 10
83.22024330601786
 20
-156.8641546916867
 30
0.0
 10
83.22024330601786
 20
-156.8641546916867
 30
0.0
  0
HATCH
  5
9A
330
94
100
AcDbEntity
  8
レイヤー 1
 62
   250
420
  2299925
440
 33554687
100
AcDbHatch
 10
0.0
 20
0.0
 30
0.0
210
0.0
220
0.0
230
1.0
  2
SOLID
 70
     1
 71
     1
 91
        2
 92
        1
 93
        1
 72
     4
 94
        3
 73
     0
 74
     0
 95
       14
 96
       10
 40
0.0
 40
0.0
 40
0.0
 40
0.0
 40
1.0
 40
1.0
 40
1.0
 40
2.0
 40
2.0
 40
2.0
 40
3.0
 40
3.0
 40
3.0
 40
3.0
 10
83.03455265936289
 20
-156.0094265017963
 10
83.03455265936289
 20
-156.0094265017963
 10
82.64491235998113
 20
-156.6653726821878
 10
82.64491235998113
 20
-156.6653726821878
 10
82.64491235998113
 20
-156.6653726821878
 10
83.03455265936289
 20
-156.6653726821878
 10
83.03455265936289
 20
-156.6653726821878
 10
83.03455265936289
 20
-156.6653726821878
 10
83.03455265936289
 20
-156.0094265017963
 10
83.03455265936289
 20
-156.0094265017963
 97
        0
 97
        1
330
98
 92
        1
 93
        1
 72
     4
 94
        3
 73
     0
 74
     0
 95
       38
 96
       34
 40
0.0
 40
0.0
 40
0.0
 40
0.0
 40
1.0
 40
1.0
 40
1.0
 40
2.0
 40
2.0
 40
2.0
 40
3.0
 40
3.0
 40
3.0
 40
4.0
 40
4.0
 40
4.0
 40
5.0
 40
5.0
 40
5.0
 40
6.0
 40
6.0
 40
6.0
 40
7.0
 40
7.0
 40
7.0
 40
8.0
 40
8.0
 40
8.0
 40
9.0
 40
9.0
 40
9.0
 40
10.0
 40
10.0
 40
10.0
 40
11.0
 40
11.0
 40
11.0
 40
11.0
 10
83.22024330601786
 20
-156.8641546916867
 10
83.22024330601786
 20
-156.8641546916867
 10
83.22024330601786
 20
-157.2110758070514
 10
83.22024330601786
 20
-157.2110758070514
 10
83.22024330601786
 20
-157.2110758070514
 10
83.03455265936289
 20
-157.2110758070514
 10
83.03455265936289
 20
-157.2110758070514
 10
83.03455265936289
 20
-157.2110758070514
 10
83.03455265936289
 20
-156.8641546916867
 10
83.03455265936289
 20
-156.8641546916867
 10
83.03455265936289
 20
-156.8641546916867
 10
82.47541366210684
 20
-156.8641546916867
 10
82.47541366210684
 20
-156.8641546916867
 10
82.47541366210684
 20
-156.8641546916867
 10
82.47541366210684
 20
-156.639878975597
 10
82.47541366210684
 20
-156.639878975597
 10
82.47541366210684
 20
-156.639878975597
 10
83.05418970362882
 20
-155.6666395010139
 10
83.05418970362882
 20
-155.6666395010139
 10
83.05418970362882
 20
-155.6666395010139
 10
83.22024330601786
 20
-155.6666395010139
 10
83.22024330601786
 20
-155.6666395010139
 10
83.22024330601786
 20
-155.6666395010139
 10
83.22024330601786
 20
-156.6653726821878
 10
83.22024330601786
 20
-156.6653726821878
 10
83.22024330601786
 20
-156.6653726821878
 10
83.39697670441116
 20
-156.6653726821878
 10
83.39697670441116
 20
-156.6653726821878
 10
83.39697670441116
 20
-156.6653726821878
 10
83.39697670441116
 20
-156.8641546916867
 10
83.39697670441116
 20
-156.8641546916867
 10
83.39697670441116
 20
-156.8641546916867
 10
83.22024330601786
 20
-156.8641546916867
 10
83.22024330601786
 20
-156.8641546916867
 97
        0
 97
        1
330
99
 75
     2
 76
     1
 98
        1
 10
0.0
 20
0.0
450
        0
451
        0
460
0.0
461
0.0
452
        0
462
0.0
453
        0
470

  0
ENDBLK
  5
97
330
94
100
AcDbEntity
  8
0
100
AcDbBlockEnd
  0
BLOCK
  5
9F
330
9D
100
AcDbEntity
  8
0
100
AcDbBlockBegin
  2
Block_3
 70
     0
 10
0.0
 20
0.0
 30
0.0
  3
Block_3
  1

  0
INSERT
  5
A2
330
9D
100
AcDbEntity
  8
レイヤー 1
100
AcDbBlockReference
  2
Block_4
 10
0.0
 20
0.0
 30
0.0
  0
ENDBLK
  5
A0
330
9D
100
AcDbEntity
  8
0
100
AcDbBlockEnd
  0
BLOCK
  5
A3
330
A1
100
AcDbEntity
  8
0
100
AcDbBlockBegin
  2
Block_4
 70
     0
 10
0.0
 20
0.0
 30
0.0
  3
Block_4
  1

  0
SPLINE
  5
A5
330
A1
100
AcDbEntity
  8
レイヤー 1
100
AcDbSpline
210
0.0
220
0.0
230
1.0
 70
    11
 71
     3
 72
    26
 73
    22
 74
     0
 42
0.0000000001
 43
0.0000000001
 40
0.0
 40
0.0
 40
0.0
 40
0.0
 40
1.0
 40
1.0
 40
1.0
 40
2.0
 40
2.0
 40
2.0
 40
3.0
 40
3.0
 40
3.0
 40
4.0
 40
4.0
 40
4.0
 40
5.0
 40
5.0
 40
5.0
 40
6.0
 40
6.0
 40
6.0
 40
7.0
 40
7.0
 40
7.0
 40
7.0
 10
92.93696286739075
 20
-157.2114203165999
 30
0.0
 10
92.93696286739075
 20
-157.2114203165999
 30
0.0
 10
92.93696286739075
 20
-156.1072672135773
 30
0.0
 10
92.93696286739075
 20
-156.1072672135773
 30
0.0
 10
92.93696286739075
 20
-156.1072672135773
 30
0.0
 10
92.65549856624586
 20
-156.1072672135773
 30
0.0
 10
92.65549856624586
 20
-156.1072672135773
 30
0.0
 10
92.65549856624586
 20
-156.1072672135773
 30
0.0
 10
92.65549856624586
 20
-155.9591281077116
 30
0.0
 10
92.65549856624586
 20
-155.9591281077116
 30
0.0
 10
92.93868541513338
 20
-155.944314197125
 30
0.0
 10
92.97830401321375
 20
-155.7813611806727
 30
0.0
 10
93.00345321025607
 20
-155.6669840105624
 30
0.0
 10
93.00345321025607
 20
-155.6669840105624
 30
0.0
 10
93.12816566682213
 20
-155.6669840105624
 30
0.0
 10
93.12816566682213
 20
-155.6669840105624
 30
0.0
 10
93.12816566682213
 20
-155.6669840105624
 30
0.0
 10
93.12816566682213
 20
-157.2114203165999
 30
0.0
 10
93.12816566682213
 20
-157.2114203165999
 30
0.0
 10
93.12816566682213
 20
-157.2114203165999
 30
0.0
 10
92.93696286739075
 20
-157.2114203165999
 30
0.0
 10
92.93696286739075
 20
-157.2114203165999
 30
0.0
  0
HATCH
  5
A6
330
A1
100
AcDbEntity
  8
レイヤー 1
 62
   250
420
  2299925
440
 33554687
100
AcDbHatch
 10
0.0
 20
0.0
 30
0.0
210
0.0
220
0.0
230
1.0
  2
SOLID
 70
     1
 71
     1
 91
        1
 92
        1
 93
        1
 72
     4
 94
        3
 73
     0
 74
     0
 95
       26
 96
       22
 40
0.0
 40
0.0
 40
0.0
 40
0.0
 40
1.0
 40
1.0
 40
1.0
 40
2.0
 40
2.0
 40
2.0
 40
3.0
 40
3.0
 40
3.0
 40
4.0
 40
4.0
 40
4.0
 40
5.0
 40
5.0
 40
5.0
 40
6.0
 40
6.0
 40
6.0
 40
7.0
 40
7.0
 40
7.0
 40
7.0
 10
92.93696286739075
 20
-157.2114203165999
 10
92.93696286739075
 20
-157.2114203165999
 10
92.93696286739075
 20
-156.1072672135773
 10
92.93696286739075
 20
-156.1072672135773
 10
92.93696286739075
 20
-156.1072672135773
 10
92.65549856624586
 20
-156.1072672135773
 10
92.65549856624586
 20
-156.1072672135773
 10
92.65549856624586
 20
-156.1072672135773
 10
92.65549856624586
 20
-155.9591281077116
 10
92.65549856624586
 20
-155.9591281077116
 10
92.93868541513338
 20
-155.944314197125
 10
92.97830401321375
 20
-155.7813611806727
 10
93.00345321025607
 20
-155.6669840105624
 10
93.00345321025607
 20
-155.6669840105624
 10
93.12816566682213
 20
-155.6669840105624
 10
93.12816566682213
 20
-155.6669840105624
 10
93.12816566682213
 20
-155.6669840105624
 10
93.12816566682213
 20
-157.2114203165999
 10
93.12816566682213
 20
-157.2114203165999
 10
93.12816566682213
 20
-157.2114203165999
 10
92.93696286739075
 20
-157.2114203165999
 10
92.93696286739075
 20
-157.2114203165999
 97
        0
 97
        1
330
A5
 75
     2
 76
     1
 98
        1
 10
0.0
 20
0.0
450
        0
451
        0
460
0.0
461
0.0
452
        0
462
0.0
453
        0
470

  0
SPLINE
  5
A7
330
A1
100
AcDbEntity
  8
レイヤー 1
100
AcDbSpline
210
0.0
220
0.0
230
1.0
 70
     9
 71
     3
 72
    26
 73
    22
 74
     0
 42
0.0000000001
 43
0.0000000001
 40
0.0
 40
0.0
 40
0.0
 40
0.0
 40
1.0
 40
1.0
 40
1.0
 40
2.0
 40
2.0
 40
2.0
 40
3.0
 40
3.0
 40
3.0
 40
4.0
 40
4.0
 40
4.0
 40
5.0
 40
5.0
 40
5.0
 40
6.0
 40
6.0
 40
6.0
 40
7.0
 40
7.0
 40
7.0
 40
7.0
 10
93.90434567964891
 20
-157.2114203165999
 30
0.0
 10
93.90434567964891
 20
-157.2114203165999
 30
0.0
 10
93.70246308421327
 20
-157.2114203165999
 30
0.0
 10
93.70246308421327
 20
-157.2114203165999
 30
0.0
 10
93.72416718577035
 20
-156.902395251573
 30
0.0
 10
93.88815373086824
 20
-156.3842528905914
 30
0.0
 10
94.23438582713584
 20
-155.8785128733567
 30
0.0
 10
94.23438582713584
 20
-155.8785128733567
 30
0.0
 10
93.52021753304356
 20
-155.8785128733567
 30
0.0
 10
93.52021753304356
 20
-155.8785128733567
 30
0.0
 10
93.52021753304356
 20
-155.8785128733567
 30
0.0
 10
93.52021753304356
 20
-155.6669840105624
 30
0.0
 10
93.52021753304356
 20
-155.6669840105624
 30
0.0
 10
93.52021753304356
 20
-155.6669840105624
 30
0.0
 10
94.43626842257149
 20
-155.6669840105624
 30
0.0
 10
94.43626842257149
 20
-155.6669840105624
 30
0.0
 10
94.43626842257149
 20
-155.6669840105624
 30
0.0
 10
94.43626842257149
 20
-155.8785128733567
 30
0.0
 10
94.43626842257149
 20
-155.8785128733567
 30
0.0
 10
94.1606607837515
 20
-156.1685899132148
 30
0.0
 10
93.93328448172502
 20
-156.7608018271292
 30
0.0
 10
93.90434567964891
 20
-157.2114203165999
 30
0.0
  0
HATCH
  5
A8
330
A1
100
AcDbEntity
  8
レイヤー 1
 62
   250
420
  2299925
440
 33554687
100
AcDbHatch
 10
0.0
 20
0.0
 30
0.0
210
0.0
220
0.0
230
1.0
  2
SOLID
 70
     1
 71
     1
 91
        1
 92
        1
 93
        1
 72
     4
 94
        3
 73
     0
 74
     0
 95
       26
 96
       22
 40
0.0
 40
0.0
 40
0.0
 40
0.0
 40
1.0
 40
1.0
 40
1.0
 40
2.0
 40
2.0
 40
2.0
 40
3.0
 40
3.0
 40
3.0
 40
4.0
 40
4.0
 40
4.0
 40
5.0
 40
5.0
 40
5.0
 40
6.0
 40
6.0
 40
6.0
 40
7.0
 40
7.0
 40
7.0
 40
7.0
 10
93.90434567964891
 20
-157.2114203165999
 10
93.90434567964891
 20
-157.2114203165999
 10
93.70246308421327
 20
-157.2114203165999
 10
93.70246308421327
 20
-157.2114203165999
 10
93.72416718577035
 20
-156.902395251573
 10
93.88815373086824
 20
-156.3842528905914
 10
94.23438582713584
 20
-155.8785128733567
 10
94.23438582713584
 20
-155.8785128733567
 10
93.52021753304356
 20
-155.8785128733567
 10
93.52021753304356
 20
-155.8785128733567
 10
93.52021753304356
 20
-155.8785128733567
 10
93.52021753304356
 20
-155.6669840105624
 10
93.52021753304356
 20
-155.6669840105624
 10
93.52021753304356
 20
-155.6669840105624
 10
94.43626842257149
 20
-155.6669840105624
 10
94.43626842257149
 20
-155.6669840105624
 10
94.43626842257149
 20
-155.6669840105624
 10
94.43626842257149
 20
-155.8785128733567
 10
94.43626842257149
 20
-155.8785128733567
 10
94.1606607837515
 20
-156.1685899132148
 10
93.93328448172502
 20
-156.7608018271292
 10
93.90434567964891
 20
-157.2114203165999
 97
        0
 97
        1
330
A7
 75
     2
 76
     1
 98
        1
 10
0.0
 20
0.0
450
        0
451
        0
460
0.0
461
0.0
452
        0
462
0.0
453
        0
470

  0
ENDBLK
  5
A4
330
A1
100
AcDbEntity
  8
0
100
AcDbBlockEnd
  0
BLOCK
  5
AD
330
AB
100
AcDbEntity
  8
0
100
AcDbBlockBegin
  2
Block_5
 70
     0
 10
0.0
 20
0.0
 30
0.0
  3
Block_5
  1

  0
INSERT
  5
B0
330
AB
100
AcDbEntity
  8
レイヤー 1
100
AcDbBlockReference
  2
Block_6
 10
0.0
 20
0.0
 30
0.0
  0
ENDBLK
  5
AE
330
AB
100
AcDbEntity
  8
0
100
AcDbBlockEnd
  0
BLOCK
  5
B1
330
AF
100
AcDbEntity
  8
0
100
AcDbBlockBegin
  2
Block_6
 70
     0
 10
0.0
 20
0.0
 30
0.0
  3
Block_6
  1

  0
SPLINE
  5
B3
330
AF
100
AcDbEntity
  8
レイヤー 1
100
AcDbSpline
210
0.0
220
0.0
230
1.0
 70
     9
 71
     3
 72
    17
 73
    13
 74
     0
 42
0.0000000001
 43
0.0000000001
 40
0.0
 40
0.0
 40
0.0
 40
0.0
 40
1.0
 40
1.0
 40
1.0
 40
2.0
 40
2.0
 40
2.0
 40
3.0
 40
3.0
 40
3.0
 40
4.0
 40
4.0
 40
4.0
 40
4.0
 10
103.9319851085656
 20
-148.7430311043073
 30
0.0
 10
103.9319851085656
 20
-148.8439724020251
 30
0.0
 10
103.9891736936207
 20
-148.9938340556335
 30
0.0
 10
104.274772109348
 20
-148.9938340556335
 30
0.0
 10
104.5011148827289
 20
-148.9938340556335
 30
0.0
 10
104.5961995181218
 20
-148.8746337518438
 30
0.0
 10
104.5961995181218
 20
-148.7592230530879
 30
0.0
 10
104.5961995181218
 20
-148.5356363560953
 30
0.0
 10
104.3867377126186
 20
-148.5032524585339
 30
0.0
 10
104.2702934852171
 20
-148.5032524585339
 30
0.0
 10
104.0949381250179
 20
-148.5032524585339
 30
0.0
 10
103.9319851085656
 20
-148.5842122024373
 30
0.0
 10
103.9319851085656
 20
-148.7430311043073
 30
0.0
  0
SPLINE
  5
B4
330
AF
100
AcDbEntity
  8
レイヤー 1
100
AcDbSpline
210
0.0
220
0.0
230
1.0
 70
     9
 71
     3
 72
    32
 73
    28
 74
     0
 42
0.0000000001
 43
0.0000000001
 40
0.0
 40
0.0
 40
0.0
 40
0.0
 40
1.0
 40
1.0
 40
1.0
 40
2.0
 40
2.0
 40
2.0
 40
3.0
 40
3.0
 40
3.0
 40
4.0
 40
4.0
 40
4.0
 40
5.0
 40
5.0
 40
5.0
 40
6.0
 40
6.0
 40
6.0
 40
7.0
 40
7.0
 40
7.0
 40
8.0
 40
8.0
 40
8.0
 40
9.0
 40
9.0
 40
9.0
 40
9.0
 10
105.3830593269528
 20
-148.7774820591598
 30
0.0
 10
105.3830593269528
 20
-148.925276655477
 30
0.0
 10
105.3134683981508
 20
-149.1343939514317
 30
0.0
 10
104.9813611933727
 20
-149.166777848993
 30
0.0
 10
104.9813611933727
 20
-149.166777848993
 30
0.0
 10
104.9813611933727
 20
-148.9845322978233
 30
0.0
 10
104.9813611933727
 20
-148.9845322978233
 30
0.0
 10
105.040616835719
 20
-148.9755750495616
 30
0.0
 10
105.1884114320362
 20
-148.9487033047767
 30
0.0
 10
105.1884114320362
 20
-148.7754150018686
 30
0.0
 10
105.1884114320362
 20
-148.5266791078336
 30
0.0
 10
104.8583712845493
 20
-148.4942952102722
 30
0.0
 10
104.6533881031769
 20
-148.4832709047194
 30
0.0
 10
104.7336588279832
 20
-148.5607855531376
 30
0.0
 10
104.7908474130384
 20
-148.6186631572897
 30
0.0
 10
104.7908474130384
 20
-148.773692454126
 30
0.0
 10
104.7908474130384
 20
-148.9269992032196
 30
0.0
 10
104.6850829816412
 20
-149.1850368550648
 30
0.0
 10
104.2789062239303
 20
-149.1850368550648
 30
0.0
 10
103.9595458724476
 20
-149.1850368550648
 30
0.0
 10
103.7394042709401
 20
-149.015193647642
 30
0.0
 10
103.7394042709401
 20
-148.7447536520499
 30
0.0
 10
103.7394042709401
 20
-148.3065375063261
 30
0.0
 10
104.2937201345168
 20
-148.2975802580645
 30
0.0
 10
104.5073160546023
 20
-148.2975802580645
 30
0.0
 10
104.7377929425655
 20
-148.2975802580645
 30
0.0
 10
105.3830593269528
 20
-148.3137722068452
 30
0.0
 10
105.3830593269528
 20
-148.7774820591598
 30
0.0
  0
HATCH
  5
B5
330
AF
100
AcDbEntity
  8
レイヤー 1
 62
   250
420
  2299925
440
 33554687
100
AcDbHatch
 10
0.0
 20
0.0
 30
0.0
210
0.0
220
0.0
230
1.0
  2
SOLID
 70
     1
 71
     1
 91
        2
 92
        1
 93
        1
 72
     4
 94
        3
 73
     0
 74
     0
 95
       17
 96
       13
 40
0.0
 40
0.0
 40
0.0
 40
0.0
 40
1.0
 40
1.0
 40
1.0
 40
2.0
 40
2.0
 40
2.0
 40
3.0
 40
3.0
 40
3.0
 40
4.0
 40
4.0
 40
4.0
 40
4.0
 10
103.9319851085656
 20
-148.7430311043073
 10
103.9319851085656
 20
-148.8439724020251
 10
103.9891736936207
 20
-148.9938340556335
 10
104.274772109348
 20
-148.9938340556335
 10
104.5011148827289
 20
-148.9938340556335
 10
104.5961995181218
 20
-148.8746337518438
 10
104.5961995181218
 20
-148.7592230530879
 10
104.5961995181218
 20
-148.5356363560953
 10
104.3867377126186
 20
-148.5032524585339
 10
104.2702934852171
 20
-148.5032524585339
 10
104.0949381250179
 20
-148.5032524585339
 10
103.9319851085656
 20
-148.5842122024373
 10
103.9319851085656
 20
-148.7430311043073
 97
        0
 97
        1
330
B3
 92
        1
 93
        1
 72
     4
 94
        3
 73
     0
 74
     0
 95
       32
 96
       28
 40
0.0
 40
0.0
 40
0.0
 40
0.0
 40
1.0
 40
1.0
 40
1.0
 40
2.0
 40
2.0
 40
2.0
 40
3.0
 40
3.0
 40
3.0
 40
4.0
 40
4.0
 40
4.0
 40
5.0
 40
5.0
 40
5.0
 40
6.0
 40
6.0
 40
6.0
 40
7.0
 40
7.0
 40
7.0
 40
8.0
 40
8.0
 40
8.0
 40
9.0
 40
9.0
 40
9.0
 40
9.0
 10
105.3830593269528
 20
-148.7774820591598
 10
105.3830593269528
 20
-148.925276655477
 10
105.3134683981508
 20
-149.1343939514317
 10
104.9813611933727
 20
-149.166777848993
 10
104.9813611933727
 20
-149.166777848993
 10
104.9813611933727
 20
-148.9845322978233
 10
104.9813611933727
 20
-148.9845322978233
 10
105.040616835719
 20
-148.9755750495616
 10
105.1884114320362
 20
-148.9487033047767
 10
105.1884114320362
 20
-148.7754150018686
 10
105.1884114320362
 20
-148.5266791078336
 10
104.8583712845493
 20
-148.4942952102722
 10
104.6533881031769
 20
-148.4832709047194
 10
104.7336588279832
 20
-148.5607855531376
 10
104.7908474130384
 20
-148.6186631572897
 10
104.7908474130384
 20
-148.773692454126
 10
104.7908474130384
 20
-148.9269992032196
 10
104.6850829816412
 20
-149.1850368550648
 10
104.2789062239303
 20
-149.1850368550648
 10
103.9595458724476
 20
-149.1850368550648
 10
103.7394042709401
 20
-149.015193647642
 10
103.7394042709401
 20
-148.7447536520499
 10
103.7394042709401
 20
-148.3065375063261
 10
104.2937201345168
 20
-148.2975802580645
 10
104.5073160546023
 20
-148.2975802580645
 10
104.7377929425655
 20
-148.2975802580645
 10
105.3830593269528
 20
-148.3137722068452
 10
105.3830593269528
 20
-148.7774820591598
 97
        0
 97
        1
330
B4
 75
     2
 76
     1
 98
        1
 10
0.0
 20
0.0
450
        0
451
        0
460
0.0
461
0.0
452
        0
462
0.0
453
        0
470

  0
SPLINE
  5
B6
330
AF
100
AcDbEntity
  8
レイヤー 1
100
AcDbSpline
210
0.0
220
0.0
230
1.0
 70
    11
 71
     3
 72
    17
 73
    13
 74
     0
 42
0.0000000001
 43
0.0000000001
 40
0.0
 40
0.0
 40
0.0
 40
0.0
 40
1.0
 40
1.0
 40
1.0
 40
2.0
 40
2.0
 40
2.0
 40
3.0
 40
3.0
 40
3.0
 40
4.0
 40
4.0
 40
4.0
 40
4.0
 10
105.3324164233197
 20
-148.1146456877977
 30
0.0
 10
105.3324164233197
 20
-148.1146456877977
 30
0.0
 10
105.0805799433479
 20
-148.1146456877977
 30
0.0
 10
105.0805799433479
 20
-148.1146456877977
 30
0.0
 10
105.0805799433479
 20
-148.1146456877977
 30
0.0
 10
105.0805799433479
 20
-147.9000162390667
 30
0.0
 10
105.0805799433479
 20
-147.9000162390667
 30
0.0
 10
105.0805799433479
 20
-147.9000162390667
 30
0.0
 10
105.3324164233197
 20
-147.9000162390667
 30
0.0
 10
105.3324164233197
 20
-147.9000162390667
 30
0.0
 10
105.3324164233197
 20
-147.9000162390667
 30
0.0
 10
105.3324164233197
 20
-148.1146456877977
 30
0.0
 10
105.3324164233197
 20
-148.1146456877977
 30
0.0
  0
HATCH
  5
B7
330
AF
100
AcDbEntity
  8
レイヤー 1
 62
   250
420
  2299925
440
 33554687
100
AcDbHatch
 10
0.0
 20
0.0
 30
0.0
210
0.0
220
0.0
230
1.0
  2
SOLID
 70
     1
 71
     1
 91
        1
 92
        1
 93
        1
 72
     4
 94
        3
 73
     0
 74
     0
 95
       17
 96
       13
 40
0.0
 40
0.0
 40
0.0
 40
0.0
 40
1.0
 40
1.0
 40
1.0
 40
2.0
 40
2.0
 40
2.0
 40
3.0
 40
3.0
 40
3.0
 40
4.0
 40
4.0
 40
4.0
 40
4.0
 10
105.3324164233197
 20
-148.1146456877977
 10
105.3324164233197
 20
-148.1146456877977
 10
105.0805799433479
 20
-148.1146456877977
 10
105.0805799433479
 20
-148.1146456877977
 10
105.0805799433479
 20
-148.1146456877977
 10
105.0805799433479
 20
-147.9000162390667
 10
105.0805799433479
 20
-147.9000162390667
 10
105.0805799433479
 20
-147.9000162390667
 10
105.3324164233197
 20
-147.9000162390667
 10
105.3324164233197
 20
-147.9000162390667
 10
105.3324164233197
 20
-147.9000162390667
 10
105.3324164233197
 20
-148.1146456877977
 10
105.3324164233197
 20
-148.1146456877977
 97
        0
 97
        1
330
B6
 75
     2
 76
     1
 98
        1
 10
0.0
 20
0.0
450
        0
451
        0
460
0.0
461
0.0
452
        0
462
0.0
453
        0
470

  0
SPLINE
  5
B8
330
AF
100
AcDbEntity
  8
レイヤー 1
100
AcDbSpline
210
0.0
220
0.0
230
1.0
 70
     9
 71
     3
 72
    53
 73
    49
 74
     0
 42
0.0000000001
 43
0.0000000001
 40
0.0
 40
0.0
 40
0.0
 40
0.0
 40
1.0
 40
1.0
 40
1.0
 40
2.0
 40
2.0
 40
2.0
 40
3.0
 40
3.0
 40
3.0
 40
4.0
 40
4.0
 40
4.0
 40
5.0
 40
5.0
 40
5.0
 40
6.0
 40
6.0
 40
6.0
 40
7.0
 40
7.0
 40
7.0
 40
8.0
 40
8.0
 40
8.0
 40
9.0
 40
9.0
 40
9.0
 40
10.0
 40
10.0
 40
10.0
 40
11.0
 40
11.0
 40
11.0
 40
12.0
 40
12.0
 40
12.0
 40
13.0
 40
13.0
 40
13.0
 40
14.0
 40
14.0
 40
14.0
 40
15.0
 40
15.0
 40
15.0
 40
16.0
 40
16.0
 40
16.0
 40
16.0
 10
105.3830593269528
 20
-147.2888562999833
 30
0.0
 10
105.3830593269528
 20
-147.3556911523972
 30
0.0
 10
105.3661783590751
 20
-147.4421630490769
 30
0.0
 10
105.3027886021465
 20
-147.5286349457567
 30
0.0
 10
105.192890056167
 20
-147.6764295420739
 30
0.0
 10
105.061631918179
 20
-147.6946885481458
 30
0.0
 10
104.9538004294907
 20
-147.7108804969264
 30
0.0
 10
104.9538004294907
 20
-147.7108804969264
 30
0.0
 10
104.9538004294907
 20
-147.5214002452377
 30
0.0
 10
104.9538004294907
 20
-147.5214002452377
 30
0.0
 10
105.1525824389896
 20
-147.4745469466383
 30
0.0
 10
105.1822102601628
 20
-147.3663709484014
 30
0.0
 10
105.1822102601628
 20
-147.2871337522407
 30
0.0
 10
105.1822102601628
 20
-147.167933448451
 30
0.0
 10
105.082647000639
 20
-147.0380533486572
 30
0.0
 10
104.8501030553847
 20
-147.0380533486572
 30
0.0
 10
104.5941324608306
 20
-147.0380533486572
 30
0.0
 10
104.52419702248
 20
-147.1913600977508
 30
0.0
 10
104.52419702248
 20
-147.2943684527597
 30
0.0
 10
104.52419702248
 20
-147.3212401975447
 30
0.0
 10
104.52419702248
 20
-147.4421630490769
 30
0.0
 10
104.6533881031769
 20
-147.5179551497524
 30
0.0
 10
104.6533881031769
 20
-147.5179551497524
 30
0.0
 10
104.634440078008
 20
-147.6674722938123
 30
0.0
 10
104.634440078008
 20
-147.6674722938123
 30
0.0
 10
104.634440078008
 20
-147.6674722938123
 30
0.0
 10
103.7879801172822
 20
-147.5648084483518
 30
0.0
 10
103.7879801172822
 20
-147.5648084483518
 30
0.0
 10
103.7879801172822
 20
-147.5648084483518
 30
0.0
 10
103.7879801172822
 20
-146.9012830578927
 30
0.0
 10
103.7879801172822
 20
-146.9012830578927
 30
0.0
 10
103.7879801172822
 20
-146.9012830578927
 30
0.0
 10
103.9826280121988
 20
-146.9012830578927
 30
0.0
 10
103.9826280121988
 20
-146.9012830578927
 30
0.0
 10
103.9826280121988
 20
-146.9012830578927
 30
0.0
 10
103.9826280121988
 20
-147.4259711002963
 30
0.0
 10
103.9826280121988
 20
-147.4259711002963
 30
0.0
 10
103.9826280121988
 20
-147.4259711002963
 30
0.0
 10
104.4056857377875
 20
-147.4817816471573
 30
0.0
 10
104.4056857377875
 20
-147.4817816471573
 30
0.0
 10
104.371923802032
 20
-147.4294161957815
 30
0.0
 10
104.3316161848546
 20
-147.3591362478824
 30
0.0
 10
104.3316161848546
 20
-147.2581949501646
 30
0.0
 10
104.3316161848546
 20
-147.0418429536909
 30
0.0
 10
104.5179958506066
 20
-146.8399603582553
 30
0.0
 10
104.8311550302158
 20
-146.8399603582553
 30
0.0
 10
105.1484483244073
 20
-146.8399603582553
 30
0.0
 10
105.3830593269528
 20
-147.0308186481381
 30
0.0
 10
105.3830593269528
 20
-147.2888562999833
 30
0.0
  0
HATCH
  5
B9
330
AF
100
AcDbEntity
  8
レイヤー 1
 62
   250
420
  2299925
440
 33554687
100
AcDbHatch
 10
0.0
 20
0.0
 30
0.0
210
0.0
220
0.0
230
1.0
  2
SOLID
 70
     1
 71
     1
 91
        1
 92
        1
 93
        1
 72
     4
 94
        3
 73
     0
 74
     0
 95
       53
 96
       49
 40
0.0
 40
0.0
 40
0.0
 40
0.0
 40
1.0
 40
1.0
 40
1.0
 40
2.0
 40
2.0
 40
2.0
 40
3.0
 40
3.0
 40
3.0
 40
4.0
 40
4.0
 40
4.0
 40
5.0
 40
5.0
 40
5.0
 40
6.0
 40
6.0
 40
6.0
 40
7.0
 40
7.0
 40
7.0
 40
8.0
 40
8.0
 40
8.0
 40
9.0
 40
9.0
 40
9.0
 40
10.0
 40
10.0
 40
10.0
 40
11.0
 40
11.0
 40
11.0
 40
12.0
 40
12.0
 40
12.0
 40
13.0
 40
13.0
 40
13.0
 40
14.0
 40
14.0
 40
14.0
 40
15.0
 40
15.0
 40
15.0
 40
16.0
 40
16.0
 40
16.0
 40
16.0
 10
105.3830593269528
 20
-147.2888562999833
 10
105.3830593269528
 20
-147.3556911523972
 10
105.3661783590751
 20
-147.4421630490769
 10
105.3027886021465
 20
-147.5286349457567
 10
105.192890056167
 20
-147.6764295420739
 10
105.061631918179
 20
-147.6946885481458
 10
104.9538004294907
 20
-147.7108804969264
 10
104.9538004294907
 20
-147.7108804969264
 10
104.9538004294907
 20
-147.5214002452377
 10
104.9538004294907
 20
-147.5214002452377
 10
105.1525824389896
 20
-147.4745469466383
 10
105.1822102601628
 20
-147.3663709484014
 10
105.1822102601628
 20
-147.2871337522407
 10
105.1822102601628
 20
-147.167933448451
 10
105.082647000639
 20
-147.0380533486572
 10
104.8501030553847
 20
-147.0380533486572
 10
104.5941324608306
 20
-147.0380533486572
 10
104.52419702248
 20
-147.1913600977508
 10
104.52419702248
 20
-147.2943684527597
 10
104.52419702248
 20
-147.3212401975447
 10
104.52419702248
 20
-147.4421630490769
 10
104.6533881031769
 20
-147.5179551497524
 10
104.6533881031769
 20
-147.5179551497524
 10
104.634440078008
 20
-147.6674722938123
 10
104.634440078008
 20
-147.6674722938123
 10
104.634440078008
 20
-147.6674722938123
 10
103.7879801172822
 20
-147.5648084483518
 10
103.7879801172822
 20
-147.5648084483518
 10
103.7879801172822
 20
-147.5648084483518
 10
103.7879801172822
 20
-146.9012830578927
 10
103.7879801172822
 20
-146.9012830578927
 10
103.7879801172822
 20
-146.9012830578927
 10
103.9826280121988
 20
-146.9012830578927
 10
103.9826280121988
 20
-146.9012830578927
 10
103.9826280121988
 20
-146.9012830578927
 10
103.9826280121988
 20
-147.4259711002963
 10
103.9826280121988
 20
-147.4259711002963
 10
103.9826280121988
 20
-147.4259711002963
 10
104.4056857377875
 20
-147.4817816471573
 10
104.4056857377875
 20
-147.4817816471573
 10
104.371923802032
 20
-147.4294161957815
 10
104.3316161848546
 20
-147.3591362478824
 10
104.3316161848546
 20
-147.2581949501646
 10
104.3316161848546
 20
-147.0418429536909
 10
104.5179958506066
 20
-146.8399603582553
 10
104.8311550302158
 20
-146.8399603582553
 10
105.1484483244073
 20
-146.8399603582553
 10
105.3830593269528
 20
-147.0308186481381
 10
105.3830593269528
 20
-147.2888562999833
 97
        0
 97
        1
330
B8
 75
     2
 76
     1
 98
        1
 10
0.0
 20
0.0
450
        0
451
        0
460
0.0
461
0.0
452
        0
462
0.0
453
        0
470

  0
ENDBLK
  5
B2
330
AF
100
AcDbEntity
  8
0
100
AcDbBlockEnd
  0
BLOCK
  5
C0
330
BE
100
AcDbEntity
  8
0
100
AcDbBlockBegin
  2
Block_7
 70
     0
 10
0.0
 20
0.0
 30
0.0
  3
Block_7
  1

  0
INSERT
  5
C3
330
BE
100
AcDbEntity
  8
レイヤー 1
100
AcDbBlockReference
  2
Block_8
 10
0.0
 20
0.0
 30
0.0
  0
ENDBLK
  5
C1
330
BE
100
AcDbEntity
  8
0
100
AcDbBlockEnd
  0
BLOCK
  5
C4
330
C2
100
AcDbEntity
  8
0
100
AcDbBlockBegin
  2
Block_8
 70
     0
 10
0.0
 20
0.0
 30
0.0
  3
Block_8
  1

  0
SPLINE
  5
C6
330
C2
100
AcDbEntity
  8
レイヤー 1
100
AcDbSpline
210
0.0
220
0.0
230
1.0
 70
     9
 71
     3
 72
    17
 73
    13
 74
     0
 42
0.0000000001
 43
0.0000000001
 40
0.0
 40
0.0
 40
0.0
 40
0.0
 40
1.0
 40
1.0
 40
1.0
 40
2.0
 40
2.0
 40
2.0
 40
3.0
 40
3.0
 40
3.0
 40
4.0
 40
4.0
 40
4.0
 40
4.0
 10
108.1656629503891
 20
-153.8328151742154
 30
0.0
 10
108.1656629503891
 20
-154.0453775656553
 30
0.0
 10
108.4491943088252
 20
-154.0853406732842
 30
0.0
 10
108.7940483668987
 20
-154.0853406732842
 30
0.0
 10
109.1134087183814
 20
-154.0853406732842
 30
0.0
 10
109.4220892738597
 20
-154.0546793234655
 30
0.0
 10
109.4220892738597
 20
-153.8328151742154
 30
0.0
 10
109.4220892738597
 20
-153.6216308209696
 30
0.0
 10
109.1409694822633
 20
-153.5802896751466
 30
0.0
 10
108.7940483668987
 20
-153.5802896751466
 30
0.0
 10
108.4743435058675
 20
-153.5802896751466
 30
0.0
 10
108.1656629503891
 20
-153.6126735727079
 30
0.0
 10
108.1656629503891
 20
-153.8328151742154
 30
0.0
  0
SPLINE
  5
C7
330
C2
100
AcDbEntity
  8
レイヤー 1
100
AcDbSpline
210
0.0
220
0.0
230
1.0
 70
     9
 71
     3
 72
    29
 73
    25
 74
     0
 42
0.0000000001
 43
0.0000000001
 40
0.0
 40
0.0
 40
0.0
 40
0.0
 40
1.0
 40
1.0
 40
1.0
 40
2.0
 40
2.0
 40
2.0
 40
3.0
 40
3.0
 40
3.0
 40
4.0
 40
4.0
 40
4.0
 40
5.0
 40
5.0
 40
5.0
 40
6.0
 40
6.0
 40
6.0
 40
7.0
 40
7.0
 40
7.0
 40
8.0
 40
8.0
 40
8.0
 40
8.0
 10
109.3883273381043
 20
-153.4938177784668
 30
0.0
 10
109.5977891436075
 20
-153.585801827923
 30
0.0
 10
109.6167371687764
 20
-153.7335964242402
 30
0.0
 10
109.6167371687764
 20
-153.8328151742154
 30
0.0
 10
109.6167371687764
 20
-153.9699299745283
 30
0.0
 10
109.5702283797255
 20
-154.0905083165121
 30
0.0
 10
109.3883273381043
 20
-154.171812569964
 30
0.0
 10
109.1936794431877
 20
-154.2600070143864
 30
0.0
 10
108.9566568738025
 20
-154.2761989631671
 30
0.0
 10
108.7940483668987
 20
-154.2761989631671
 30
0.0
 10
108.6500433756153
 20
-154.2761989631671
 30
0.0
 10
108.3982068956435
 20
-154.2620740716775
 30
0.0
 10
108.1994248861446
 20
-154.171812569964
 30
0.0
 10
107.9965087620633
 20
-154.0798285205078
 30
0.0
 10
107.9730821127637
 20
-153.9427137201949
 30
0.0
 10
107.9730821127637
 20
-153.8328151742154
 30
0.0
 10
107.9730821127637
 20
-153.6974229216451
 30
0.0
 10
108.0175238445234
 20
-153.5747775223702
 30
0.0
 10
108.1994248861446
 20
-153.4938177784668
 30
0.0
 10
108.39200572377
 20
-153.4090684295297
 30
0.0
 10
108.6204155544421
 20
-153.3890868757152
 30
0.0
 10
108.7940483668987
 20
-153.3890868757152
 30
0.0
 10
108.9652696125156
 20
-153.3890868757152
 30
0.0
 10
109.1957465004788
 20
-153.407345881787
 30
0.0
 10
109.3883273381043
 20
-153.4938177784668
 30
0.0
  0
HATCH
  5
C8
330
C2
100
AcDbEntity
  8
レイヤー 1
 62
   250
420
  2299925
440
 33554687
100
AcDbHatch
 10
0.0
 20
0.0
 30
0.0
210
0.0
220
0.0
230
1.0
  2
SOLID
 70
     1
 71
     1
 91
        2
 92
        1
 93
        1
 72
     4
 94
        3
 73
     0
 74
     0
 95
       17
 96
       13
 40
0.0
 40
0.0
 40
0.0
 40
0.0
 40
1.0
 40
1.0
 40
1.0
 40
2.0
 40
2.0
 40
2.0
 40
3.0
 40
3.0
 40
3.0
 40
4.0
 40
4.0
 40
4.0
 40
4.0
 10
108.1656629503891
 20
-153.8328151742154
 10
108.1656629503891
 20
-154.0453775656553
 10
108.4491943088252
 20
-154.0853406732842
 10
108.7940483668987
 20
-154.0853406732842
 10
109.1134087183814
 20
-154.0853406732842
 10
109.4220892738597
 20
-154.0546793234655
 10
109.4220892738597
 20
-153.8328151742154
 10
109.4220892738597
 20
-153.6216308209696
 10
109.1409694822633
 20
-153.5802896751466
 10
108.7940483668987
 20
-153.5802896751466
 10
108.4743435058675
 20
-153.5802896751466
 10
108.1656629503891
 20
-153.6126735727079
 10
108.1656629503891
 20
-153.8328151742154
 97
        0
 97
        1
330
C6
 92
        1
 93
        1
 72
     4
 94
        3
 73
     0
 74
     0
 95
       29
 96
       25
 40
0.0
 40
0.0
 40
0.0
 40
0.0
 40
1.0
 40
1.0
 40
1.0
 40
2.0
 40
2.0
 40
2.0
 40
3.0
 40
3.0
 40
3.0
 40
4.0
 40
4.0
 40
4.0
 40
5.0
 40
5.0
 40
5.0
 40
6.0
 40
6.0
 40
6.0
 40
7.0
 40
7.0
 40
7.0
 40
8.0
 40
8.0
 40
8.0
 40
8.0
 10
109.3883273381043
 20
-153.4938177784668
 10
109.5977891436075
 20
-153.585801827923
 10
109.6167371687764
 20
-153.7335964242402
 10
109.6167371687764
 20
-153.8328151742154
 10
109.6167371687764
 20
-153.9699299745283
 10
109.5702283797255
 20
-154.0905083165121
 10
109.3883273381043
 20
-154.171812569964
 10
109.1936794431877
 20
-154.2600070143864
 10
108.9566568738025
 20
-154.2761989631671
 10
108.7940483668987
 20
-154.2761989631671
 10
108.6500433756153
 20
-154.2761989631671
 10
108.3982068956435
 20
-154.2620740716775
 10
108.1994248861446
 20
-154.171812569964
 10
107.9965087620633
 20
-154.0798285205078
 10
107.9730821127637
 20
-153.9427137201949
 10
107.9730821127637
 20
-153.8328151742154
 10
107.9730821127637
 20
-153.6974229216451
 10
108.0175238445234
 20
-153.5747775223702
 10
108.1994248861446
 20
-153.4938177784668
 10
108.39200572377
 20
-153.4090684295297
 10
108.6204155544421
 20
-153.3890868757152
 10
108.7940483668987
 20
-153.3890868757152
 10
108.9652696125156
 20
-153.3890868757152
 10
109.1957465004788
 20
-153.407345881787
 10
109.3883273381043
 20
-153.4938177784668
 97
        0
 97
        1
330
C7
 75
     2
 76
     1
 98
        1
 10
0.0
 20
0.0
450
        0
451
        0
460
0.0
461
0.0
452
        0
462
0.0
453
        0
470

  0
SPLINE
  5
C9
330
C2
100
AcDbEntity
  8
レイヤー 1
100
AcDbSpline
210
0.0
220
0.0
230
1.0
 70
    11
 71
     3
 72
    17
 73
    13
 74
     0
 42
0.0000000001
 43
0.0000000001
 40
0.0
 40
0.0
 40
0.0
 40
0.0
 40
1.0
 40
1.0
 40
1.0
 40
2.0
 40
2.0
 40
2.0
 40
3.0
 40
3.0
 40
3.0
 40
4.0
 40
4.0
 40
4.0
 40
4.0
 10
109.5660942651432
 20
-153.2061523054484
 30
0.0
 10
109.5660942651432
 20
-153.2061523054484
 30
0.0
 10
109.3142577851714
 20
-153.2061523054484
 30
0.0
 10
109.3142577851714
 20
-153.2061523054484
 30
0.0
 10
109.3142577851714
 20
-153.2061523054484
 30
0.0
 10
109.3142577851714
 20
-152.9915228567174
 30
0.0
 10
109.3142577851714
 20
-152.9915228567174
 30
0.0
 10
109.3142577851714
 20
-152.9915228567174
 30
0.0
 10
109.5660942651432
 20
-152.9915228567174
 30
0.0
 10
109.5660942651432
 20
-152.9915228567174
 30
0.0
 10
109.5660942651432
 20
-152.9915228567174
 30
0.0
 10
109.5660942651432
 20
-153.2061523054484
 30
0.0
 10
109.5660942651432
 20
-153.2061523054484
 30
0.0
  0
HATCH
  5
CA
330
C2
100
AcDbEntity
  8
レイヤー 1
 62
   250
420
  2299925
440
 33554687
100
AcDbHatch
 10
0.0
 20
0.0
 30
0.0
210
0.0
220
0.0
230
1.0
  2
SOLID
 70
     1
 71
     1
 91
        1
 92
        1
 93
        1
 72
     4
 94
        3
 73
     0
 74
     0
 95
       17
 96
       13
 40
0.0
 40
0.0
 40
0.0
 40
0.0
 40
1.0
 40
1.0
 40
1.0
 40
2.0
 40
2.0
 40
2.0
 40
3.0
 40
3.0
 40
3.0
 40
4.0
 40
4.0
 40
4.0
 40
4.0
 10
109.5660942651432
 20
-153.2061523054484
 10
109.5660942651432
 20
-153.2061523054484
 10
109.3142577851714
 20
-153.2061523054484
 10
109.3142577851714
 20
-153.2061523054484
 10
109.3142577851714
 20
-153.2061523054484
 10
109.3142577851714
 20
-152.9915228567174
 10
109.3142577851714
 20
-152.9915228567174
 10
109.3142577851714
 20
-152.9915228567174
 10
109.5660942651432
 20
-152.9915228567174
 10
109.5660942651432
 20
-152.9915228567174
 10
109.5660942651432
 20
-152.9915228567174
 10
109.5660942651432
 20
-153.2061523054484
 10
109.5660942651432
 20
-153.2061523054484
 97
        0
 97
        1
330
C9
 75
     2
 76
     1
 98
        1
 10
0.0
 20
0.0
450
        0
451
        0
460
0.0
461
0.0
452
        0
462
0.0
453
        0
470

  0
SPLINE
  5
CB
330
C2
100
AcDbEntity
  8
レイヤー 1
100
AcDbSpline
210
0.0
220
0.0
230
1.0
 70
    11
 71
     3
 72
    14
 73
    10
 74
     0
 42
0.0000000001
 43
0.0000000001
 40
0.0
 40
0.0
 40
0.0
 40
0.0
 40
1.0
 40
1.0
 40
1.0
 40
2.0
 40
2.0
 40
2.0
 40
3.0
 40
3.0
 40
3.0
 40
3.0
 10
108.364444959888
 20
-152.2666747666208
 30
0.0
 10
108.364444959888
 20
-152.2666747666208
 30
0.0
 10
109.0203911402796
 20
-152.6563150660026
 30
0.0
 10
109.0203911402796
 20
-152.6563150660026
 30
0.0
 10
109.0203911402796
 20
-152.6563150660026
 30
0.0
 10
109.0203911402796
 20
-152.2666747666208
 30
0.0
 10
109.0203911402796
 20
-152.2666747666208
 30
0.0
 10
109.0203911402796
 20
-152.2666747666208
 30
0.0
 10
108.364444959888
 20
-152.2666747666208
 30
0.0
 10
108.364444959888
 20
-152.2666747666208
 30
0.0
  0
SPLINE
  5
CC
330
C2
100
AcDbEntity
  8
レイヤー 1
100
AcDbSpline
210
0.0
220
0.0
230
1.0
 70
    11
 71
     3
 72
    38
 73
    34
 74
     0
 42
0.0000000001
 43
0.0000000001
 40
0.0
 40
0.0
 40
0.0
 40
0.0
 40
1.0
 40
1.0
 40
1.0
 40
2.0
 40
2.0
 40
2.0
 40
3.0
 40
3.0
 40
3.0
 40
4.0
 40
4.0
 40
4.0
 40
5.0
 40
5.0
 40
5.0
 40
6.0
 40
6.0
 40
6.0
 40
7.0
 40
7.0
 40
7.0
 40
8.0
 40
8.0
 40
8.0
 40
9.0
 40
9.0
 40
9.0
 40
10.0
 40
10.0
 40
10.0
 40
11.0
 40
11.0
 40
11.0
 40
11.0
 10
109.2191731497785
 20
-152.0809841199659
 30
0.0
 10
109.2191731497785
 20
-152.0809841199659
 30
0.0
 10
109.5660942651432
 20
-152.0809841199659
 30
0.0
 10
109.5660942651432
 20
-152.0809841199659
 30
0.0
 10
109.5660942651432
 20
-152.0809841199659
 30
0.0
 10
109.5660942651432
 20
-152.2666747666208
 30
0.0
 10
109.5660942651432
 20
-152.2666747666208
 30
0.0
 10
109.5660942651432
 20
-152.2666747666208
 30
0.0
 10
109.2191731497785
 20
-152.2666747666208
 30
0.0
 10
109.2191731497785
 20
-152.2666747666208
 30
0.0
 10
109.2191731497785
 20
-152.2666747666208
 30
0.0
 10
109.2191731497785
 20
-152.8258137638769
 30
0.0
 10
109.2191731497785
 20
-152.8258137638769
 30
0.0
 10
109.2191731497785
 20
-152.8258137638769
 30
0.0
 10
108.9948974336887
 20
-152.8258137638769
 30
0.0
 10
108.9948974336887
 20
-152.8258137638769
 30
0.0
 10
108.9948974336887
 20
-152.8258137638769
 30
0.0
 10
108.0216579591057
 20
-152.2470377223549
 30
0.0
 10
108.0216579591057
 20
-152.2470377223549
 30
0.0
 10
108.0216579591057
 20
-152.2470377223549
 30
0.0
 10
108.0216579591057
 20
-152.0809841199659
 30
0.0
 10
108.0216579591057
 20
-152.0809841199659
 30
0.0
 10
108.0216579591057
 20
-152.0809841199659
 30
0.0
 10
109.0203911402796
 20
-152.0809841199659
 30
0.0
 10
109.0203911402796
 20
-152.0809841199659
 30
0.0
 10
109.0203911402796
 20
-152.0809841199659
 30
0.0
 10
109.0203911402796
 20
-151.9042507215725
 30
0.0
 10
109.0203911402796
 20
-151.9042507215725
 30
0.0
 10
109.0203911402796
 20
-151.9042507215725
 30
0.0
 10
109.2191731497785
 20
-151.9042507215725
 30
0.0
 10
109.2191731497785
 20
-151.9042507215725
 30
0.0
 10
109.2191731497785
 20
-151.9042507215725
 30
0.0
 10
109.2191731497785
 20
-152.0809841199659
 30
0.0
 10
109.2191731497785
 20
-152.0809841199659
 30
0.0
  0
HATCH
  5
CD
330
C2
100
AcDbEntity
  8
レイヤー 1
 62
   250
420
  2299925
440
 33554687
100
AcDbHatch
 10
0.0
 20
0.0
 30
0.0
210
0.0
220
0.0
230
1.0
  2
SOLID
 70
     1
 71
     1
 91
        2
 92
        1
 93
        1
 72
     4
 94
        3
 73
     0
 74
     0
 95
       14
 96
       10
 40
0.0
 40
0.0
 40
0.0
 40
0.0
 40
1.0
 40
1.0
 40
1.0
 40
2.0
 40
2.0
 40
2.0
 40
3.0
 40
3.0
 40
3.0
 40
3.0
 10
108.364444959888
 20
-152.2666747666208
 10
108.364444959888
 20
-152.2666747666208
 10
109.0203911402796
 20
-152.6563150660026
 10
109.0203911402796
 20
-152.6563150660026
 10
109.0203911402796
 20
-152.6563150660026
 10
109.0203911402796
 20
-152.2666747666208
 10
109.0203911402796
 20
-152.2666747666208
 10
109.0203911402796
 20
-152.2666747666208
 10
108.364444959888
 20
-152.2666747666208
 10
108.364444959888
 20
-152.2666747666208
 97
        0
 97
        1
330
CB
 92
        1
 93
        1
 72
     4
 94
        3
 73
     0
 74
     0
 95
       38
 96
       34
 40
0.0
 40
0.0
 40
0.0
 40
0.0
 40
1.0
 40
1.0
 40
1.0
 40
2.0
 40
2.0
 40
2.0
 40
3.0
 40
3.0
 40
3.0
 40
4.0
 40
4.0
 40
4.0
 40
5.0
 40
5.0
 40
5.0
 40
6.0
 40
6.0
 40
6.0
 40
7.0
 40
7.0
 40
7.0
 40
8.0
 40
8.0
 40
8.0
 40
9.0
 40
9.0
 40
9.0
 40
10.0
 40
10.0
 40
10.0
 40
11.0
 40
11.0
 40
11.0
 40
11.0
 10
109.2191731497785
 20
-152.0809841199659
 10
109.2191731497785
 20
-152.0809841199659
 10
109.5660942651432
 20
-152.0809841199659
 10
109.5660942651432
 20
-152.0809841199659
 10
109.5660942651432
 20
-152.0809841199659
 10
109.5660942651432
 20
-152.2666747666208
 10
109.5660942651432
 20
-152.2666747666208
 10
109.5660942651432
 20
-152.2666747666208
 10
109.2191731497785
 20
-152.2666747666208
 10
109.2191731497785
 20
-152.2666747666208
 10
109.2191731497785
 20
-152.2666747666208
 10
109.2191731497785
 20
-152.8258137638769
 10
109.2191731497785
 20
-152.8258137638769
 10
109.2191731497785
 20
-152.8258137638769
 10
108.9948974336887
 20
-152.8258137638769
 10
108.9948974336887
 20
-152.8258137638769
 10
108.9948974336887
 20
-152.8258137638769
 10
108.0216579591057
 20
-152.2470377223549
 10
108.0216579591057
 20
-152.2470377223549
 10
108.0216579591057
 20
-152.2470377223549
 10
108.0216579591057
 20
-152.0809841199659
 10
108.0216579591057
 20
-152.0809841199659
 10
108.0216579591057
 20
-152.0809841199659
 10
109.0203911402796
 20
-152.0809841199659
 10
109.0203911402796
 20
-152.0809841199659
 10
109.0203911402796
 20
-152.0809841199659
 10
109.0203911402796
 20
-151.9042507215725
 10
109.0203911402796
 20
-151.9042507215725
 10
109.0203911402796
 20
-151.9042507215725
 10
109.2191731497785
 20
-151.9042507215725
 10
109.2191731497785
 20
-151.9042507215725
 10
109.2191731497785
 20
-151.9042507215725
 10
109.2191731497785
 20
-152.0809841199659
 10
109.2191731497785
 20
-152.0809841199659
 97
        0
 97
        1
330
CC
 75
     2
 76
     1
 98
        1
 10
0.0
 20
0.0
450
        0
451
        0
460
0.0
461
0.0
452
        0
462
0.0
453
        0
470

  0
ENDBLK
  5
C5
330
C2
100
AcDbEntity
  8
0
100
AcDbBlockEnd
  0
BLOCK
  5
D4
330
D2
100
AcDbEntity
  8
0
100
AcDbBlockBegin
  2
Block_9
 70
     0
 10
0.0
 20
0.0
 30
0.0
  3
Block_9
  1

  0
INSERT
  5
D7
330
D2
100
AcDbEntity
  8
レイヤー 1
100
AcDbBlockReference
  2
Block_10
 10
0.0
 20
0.0
 30
0.0
  0
ENDBLK
  5
D5
330
D2
100
AcDbEntity
  8
0
100
AcDbBlockEnd
  0
BLOCK
  5
D8
330
D6
100
AcDbEntity
  8
0
100
AcDbBlockBegin
  2
Block_10
 70
     0
 10
0.0
 20
0.0
 30
0.0
  3
Block_10
  1

  0
SPLINE
  5
DA
330
D6
100
AcDbEntity
  8
レイヤー 1
100
AcDbSpline
210
0.0
220
0.0
230
1.0
 70
    11
 71
     3
 72
    26
 73
    22
 74
     0
 42
0.0000000001
 43
0.0000000001
 40
0.0
 40
0.0
 40
0.0
 40
0.0
 40
1.0
 40
1.0
 40
1.0
 40
2.0
 40
2.0
 40
2.0
 40
3.0
 40
3.0
 40
3.0
 40
4.0
 40
4.0
 40
4.0
 40
5.0
 40
5.0
 40
5.0
 40
6.0
 40
6.0
 40
6.0
 40
7.0
 40
7.0
 40
7.0
 40
7.0
 10
78.28290471133205
 20
-142.7602782846224
 30
0.0
 10
78.28290471133205
 20
-142.7602782846224
 30
0.0
 10
77.17875160830948
 20
-142.7602782846224
 30
0.0
 10
77.17875160830948
 20
-142.7602782846224
 30
0.0
 10
77.17875160830948
 20
-142.7602782846224
 30
0.0
 10
77.17875160830948
 20
-143.0417425857673
 30
0.0
 10
77.17875160830948
 20
-143.0417425857673
 30
0.0
 10
77.17875160830948
 20
-143.0417425857673
 30
0.0
 10
77.03061250244374
 20
-143.0417425857673
 30
0.0
 10
77.03061250244374
 20
-143.0417425857673
 30
0.0
 10
77.01579859185716
 20
-142.7585557368798
 30
0.0
 10
76.85284557540484
 20
-142.7189371387994
 30
0.0
 10
76.73846840529455
 20
-142.6937879417571
 30
0.0
 10
76.73846840529455
 20
-142.6937879417571
 30
0.0
 10
76.73846840529455
 20
-142.569075485191
 30
0.0
 10
76.73846840529455
 20
-142.569075485191
 30
0.0
 10
76.73846840529455
 20
-142.569075485191
 30
0.0
 10
78.28290471133205
 20
-142.569075485191
 30
0.0
 10
78.28290471133205
 20
-142.569075485191
 30
0.0
 10
78.28290471133205
 20
-142.569075485191
 30
0.0
 10
78.28290471133205
 20
-142.7602782846224
 30
0.0
 10
78.28290471133205
 20
-142.7602782846224
 30
0.0
  0
HATCH
  5
DB
330
D6
100
AcDbEntity
  8
レイヤー 1
 62
   250
420
  2299925
440
 33554687
100
AcDbHatch
 10
0.0
 20
0.0
 30
0.0
210
0.0
220
0.0
230
1.0
  2
SOLID
 70
     1
 71
     1
 91
        1
 92
        1
 93
        1
 72
     4
 94
        3
 73
     0
 74
     0
 95
       26
 96
       22
 40
0.0
 40
0.0
 40
0.0
 40
0.0
 40
1.0
 40
1.0
 40
1.0
 40
2.0
 40
2.0
 40
2.0
 40
3.0
 40
3.0
 40
3.0
 40
4.0
 40
4.0
 40
4.0
 40
5.0
 40
5.0
 40
5.0
 40
6.0
 40
6.0
 40
6.0
 40
7.0
 40
7.0
 40
7.0
 40
7.0
 10
78.28290471133205
 20
-142.7602782846224
 10
78.28290471133205
 20
-142.7602782846224
 10
77.17875160830948
 20
-142.7602782846224
 10
77.17875160830948
 20
-142.7602782846224
 10
77.17875160830948
 20
-142.7602782846224
 10
77.17875160830948
 20
-143.0417425857673
 10
77.17875160830948
 20
-143.0417425857673
 10
77.17875160830948
 20
-143.0417425857673
 10
77.03061250244374
 20
-143.0417425857673
 10
77.03061250244374
 20
-143.0417425857673
 10
77.01579859185716
 20
-142.7585557368798
 10
76.85284557540484
 20
-142.7189371387994
 10
76.73846840529455
 20
-142.6937879417571
 10
76.73846840529455
 20
-142.6937879417571
 10
76.73846840529455
 20
-142.569075485191
 10
76.73846840529455
 20
-142.569075485191
 10
76.73846840529455
 20
-142.569075485191
 10
78.28290471133205
 20
-142.569075485191
 10
78.28290471133205
 20
-142.569075485191
 10
78.28290471133205
 20
-142.569075485191
 10
78.28290471133205
 20
-142.7602782846224
 10
78.28290471133205
 20
-142.7602782846224
 97
        0
 97
        1
330
DA
 75
     2
 76
     1
 98
        1
 10
0.0
 20
0.0
450
        0
451
        0
460
0.0
461
0.0
452
        0
462
0.0
453
        0
470

  0
SPLINE
  5
DC
330
D6
100
AcDbEntity
  8
レイヤー 1
100
AcDbSpline
210
0.0
220
0.0
230
1.0
 70
    11
 71
     3
 72
    17
 73
    13
 74
     0
 42
0.0000000001
 43
0.0000000001
 40
0.0
 40
0.0
 40
0.0
 40
0.0
 40
1.0
 40
1.0
 40
1.0
 40
2.0
 40
2.0
 40
2.0
 40
3.0
 40
3.0
 40
3.0
 40
4.0
 40
4.0
 40
4.0
 40
4.0
 10
78.28290471133205
 20
-142.0922742700325
 30
0.0
 10
78.28290471133205
 20
-142.0922742700325
 30
0.0
 10
78.0310682313603
 20
-142.0922742700325
 30
0.0
 10
78.0310682313603
 20
-142.0922742700325
 30
0.0
 10
78.0310682313603
 20
-142.0922742700325
 30
0.0
 10
78.0310682313603
 20
-141.8776448213014
 30
0.0
 10
78.0310682313603
 20
-141.8776448213014
 30
0.0
 10
78.0310682313603
 20
-141.8776448213014
 30
0.0
 10
78.28290471133205
 20
-141.8776448213014
 30
0.0
 10
78.28290471133205
 20
-141.8776448213014
 30
0.0
 10
78.28290471133205
 20
-141.8776448213014
 30
0.0
 10
78.28290471133205
 20
-142.0922742700325
 30
0.0
 10
78.28290471133205
 20
-142.0922742700325
 30
0.0
  0
HATCH
  5
DD
330
D6
100
AcDbEntity
  8
レイヤー 1
 62
   250
420
  2299925
440
 33554687
100
AcDbHatch
 10
0.0
 20
0.0
 30
0.0
210
0.0
220
0.0
230
1.0
  2
SOLID
 70
     1
 71
     1
 91
        1
 92
        1
 93
        1
 72
     4
 94
        3
 73
     0
 74
     0
 95
       17
 96
       13
 40
0.0
 40
0.0
 40
0.0
 40
0.0
 40
1.0
 40
1.0
 40
1.0
 40
2.0
 40
2.0
 40
2.0
 40
3.0
 40
3.0
 40
3.0
 40
4.0
 40
4.0
 40
4.0
 40
4.0
 10
78.28290471133205
 20
-142.0922742700325
 10
78.28290471133205
 20
-142.0922742700325
 10
78.0310682313603
 20
-142.0922742700325
 10
78.0310682313603
 20
-142.0922742700325
 10
78.0310682313603
 20
-142.0922742700325
 10
78.0310682313603
 20
-141.8776448213014
 10
78.0310682313603
 20
-141.8776448213014
 10
78.0310682313603
 20
-141.8776448213014
 10
78.28290471133205
 20
-141.8776448213014
 10
78.28290471133205
 20
-141.8776448213014
 10
78.28290471133205
 20
-141.8776448213014
 10
78.28290471133205
 20
-142.0922742700325
 10
78.28290471133205
 20
-142.0922742700325
 97
        0
 97
        1
330
DC
 75
     2
 76
     1
 98
        1
 10
0.0
 20
0.0
450
        0
451
        0
460
0.0
461
0.0
452
        0
462
0.0
453
        0
470

  0
SPLINE
  5
DE
330
D6
100
AcDbEntity
  8
レイヤー 1
100
AcDbSpline
210
0.0
220
0.0
230
1.0
 70
     9
 71
     3
 72
    17
 73
    13
 74
     0
 42
0.0000000001
 43
0.0000000001
 40
0.0
 40
0.0
 40
0.0
 40
0.0
 40
1.0
 40
1.0
 40
1.0
 40
2.0
 40
2.0
 40
2.0
 40
3.0
 40
3.0
 40
3.0
 40
4.0
 40
4.0
 40
4.0
 40
4.0
 10
76.88247339657799
 20
-141.2502929334374
 30
0.0
 10
76.88247339657799
 20
-141.4631998344258
 30
0.0
 10
77.16600475501405
 20
-141.5028184325062
 30
0.0
 10
77.51085881308757
 20
-141.5028184325062
 30
0.0
 10
77.83021916457022
 20
-141.5028184325062
 30
0.0
 10
78.13889972004862
 20
-141.4721570826875
 30
0.0
 10
78.13889972004862
 20
-141.2502929334374
 30
0.0
 10
78.13889972004862
 20
-141.0391085801916
 30
0.0
 10
77.85777992845223
 20
-140.9977674343686
 30
0.0
 10
77.51085881308757
 20
-140.9977674343686
 30
0.0
 10
77.19115395205638
 20
-140.9977674343686
 30
0.0
 10
76.88247339657799
 20
-141.0301513319299
 30
0.0
 10
76.88247339657799
 20
-141.2502929334374
 30
0.0
  0
SPLINE
  5
DF
330
D6
100
AcDbEntity
  8
レイヤー 1
100
AcDbSpline
210
0.0
220
0.0
230
1.0
 70
     9
 71
     3
 72
    29
 73
    25
 74
     0
 42
0.0000000001
 43
0.0000000001
 40
0.0
 40
0.0
 40
0.0
 40
0.0
 40
1.0
 40
1.0
 40
1.0
 40
2.0
 40
2.0
 40
2.0
 40
3.0
 40
3.0
 40
3.0
 40
4.0
 40
4.0
 40
4.0
 40
5.0
 40
5.0
 40
5.0
 40
6.0
 40
6.0
 40
6.0
 40
7.0
 40
7.0
 40
7.0
 40
8.0
 40
8.0
 40
8.0
 40
8.0
 10
78.10513778429316
 20
-140.9112955376888
 30
0.0
 10
78.31459958979635
 20
-141.003279587145
 30
0.0
 10
78.33354761496522
 20
-141.1510741834622
 30
0.0
 10
78.33354761496522
 20
-141.2502929334374
 30
0.0
 10
78.33354761496522
 20
-141.3874077337503
 30
0.0
 10
78.28703882591435
 20
-141.5079860757341
 30
0.0
 10
78.10513778429316
 20
-141.589290329186
 30
0.0
 10
77.91048988937655
 20
-141.6774847736084
 30
0.0
 10
77.67346731999136
 20
-141.6940212319376
 30
0.0
 10
77.51085881308757
 20
-141.6940212319376
 30
0.0
 10
77.36685382180413
 20
-141.6940212319376
 30
0.0
 10
77.11501734183236
 20
-141.6795518308995
 30
0.0
 10
76.91623533233344
 20
-141.589290329186
 30
0.0
 10
76.71331920825223
 20
-141.4973062797298
 30
0.0
 10
76.68989255895254
 20
-141.3601914794169
 30
0.0
 10
76.68989255895254
 20
-141.2502929334374
 30
0.0
 10
76.68989255895254
 20
-141.1149006808671
 30
0.0
 10
76.73433429071225
 20
-140.9922552815922
 30
0.0
 10
76.91623533233344
 20
-140.9112955376888
 30
0.0
 10
77.10881616995891
 20
-140.8265461887517
 30
0.0
 10
77.33722600063098
 20
-140.8065646349372
 30
0.0
 10
77.51085881308757
 20
-140.8065646349372
 30
0.0
 10
77.68208005870448
 20
-140.8065646349372
 30
0.0
 10
77.91255694666769
 20
-140.8248236410091
 30
0.0
 10
78.10513778429316
 20
-140.9112955376888
 30
0.0
  0
HATCH
  5
E0
330
D6
100
AcDbEntity
  8
レイヤー 1
 62
   250
420
  2299925
440
 33554687
100
AcDbHatch
 10
0.0
 20
0.0
 30
0.0
210
0.0
220
0.0
230
1.0
  2
SOLID
 70
     1
 71
     1
 91
        2
 92
        1
 93
        1
 72
     4
 94
        3
 73
     0
 74
     0
 95
       17
 96
       13
 40
0.0
 40
0.0
 40
0.0
 40
0.0
 40
1.0
 40
1.0
 40
1.0
 40
2.0
 40
2.0
 40
2.0
 40
3.0
 40
3.0
 40
3.0
 40
4.0
 40
4.0
 40
4.0
 40
4.0
 10
76.88247339657799
 20
-141.2502929334374
 10
76.88247339657799
 20
-141.4631998344258
 10
77.16600475501405
 20
-141.5028184325062
 10
77.51085881308757
 20
-141.5028184325062
 10
77.83021916457022
 20
-141.5028184325062
 10
78.13889972004862
 20
-141.4721570826875
 10
78.13889972004862
 20
-141.2502929334374
 10
78.13889972004862
 20
-141.0391085801916
 10
77.85777992845223
 20
-140.9977674343686
 10
77.51085881308757
 20
-140.9977674343686
 10
77.19115395205638
 20
-140.9977674343686
 10
76.88247339657799
 20
-141.0301513319299
 10
76.88247339657799
 20
-141.2502929334374
 97
        0
 97
        1
330
DE
 92
        1
 93
        1
 72
     4
 94
        3
 73
     0
 74
     0
 95
       29
 96
       25
 40
0.0
 40
0.0
 40
0.0
 40
0.0
 40
1.0
 40
1.0
 40
1.0
 40
2.0
 40
2.0
 40
2.0
 40
3.0
 40
3.0
 40
3.0
 40
4.0
 40
4.0
 40
4.0
 40
5.0
 40
5.0
 40
5.0
 40
6.0
 40
6.0
 40
6.0
 40
7.0
 40
7.0
 40
7.0
 40
8.0
 40
8.0
 40
8.0
 40
8.0
 10
78.10513778429316
 20
-140.9112955376888
 10
78.31459958979635
 20
-141.003279587145
 10
78.33354761496522
 20
-141.1510741834622
 10
78.33354761496522
 20
-141.2502929334374
 10
78.33354761496522
 20
-141.3874077337503
 10
78.28703882591435
 20
-141.5079860757341
 10
78.10513778429316
 20
-141.589290329186
 10
77.91048988937655
 20
-141.6774847736084
 10
77.67346731999136
 20
-141.6940212319376
 10
77.51085881308757
 20
-141.6940212319376
 10
77.36685382180413
 20
-141.6940212319376
 10
77.11501734183236
 20
-141.6795518308995
 10
76.91623533233344
 20
-141.589290329186
 10
76.71331920825223
 20
-141.4973062797298
 10
76.68989255895254
 20
-141.3601914794169
 10
76.68989255895254
 20
-141.2502929334374
 10
76.68989255895254
 20
-141.1149006808671
 10
76.73433429071225
 20
-140.9922552815922
 10
76.91623533233344
 20
-140.9112955376888
 10
77.10881616995891
 20
-140.8265461887517
 10
77.33722600063098
 20
-140.8065646349372
 10
77.51085881308757
 20
-140.8065646349372
 10
77.68208005870448
 20
-140.8065646349372
 10
77.91255694666769
 20
-140.8248236410091
 10
78.10513778429316
 20
-140.9112955376888
 97
        0
 97
        1
330
DF
 75
     2
 76
     1
 98
        1
 10
0.0
 20
0.0
450
        0
451
        0
460
0.0
461
0.0
452
        0
462
0.0
453
        0
470

  0
ENDBLK
  5
D9
330
D6
100
AcDbEntity
  8
0
100
AcDbBlockEnd
  0
BLOCK
  5
E5
330
E3
100
AcDbEntity
  8
0
100
AcDbBlockBegin
  2
Block_11
 70
     0
 10
0.0
 20
0.0
 30
0.0
  3
Block_11
  1

  0
LINE
  5
E7
330
E3
100
AcDbEntity
  8
レイヤー 1
 62
    18
420
        0
370
     9
100
AcDbLine
 10
96.6741727202166
 20
-151.9639056834201
 30
0.0
 11
96.40732786235624
 21
-151.000133450149
 31
0.0
  0
LINE
  5
E8
330
E3
100
AcDbEntity
  8
レイヤー 1
 62
    18
420
        0
370
     9
100
AcDbLine
 10
96.6741727202166
 20
-151.9639056834201
 30
0.0
 11
96.63973851283953
 21
-150.349945120616
 31
0.0
  0
LINE
  5
E9
330
E3
100
AcDbEntity
  8
レイヤー 1
 62
    18
420
        0
370
     9
100
AcDbLine
 10
96.6741727202166
 20
-151.9639056834201
 30
0.0
 11
96.92502079772253
 21
-150.9957252280333
 31
0.0
  0
ENDBLK
  5
E6
330
E3
100
AcDbEntity
  8
0
100
AcDbBlockEnd
  0
BLOCK
  5
EC
330
EA
100
AcDbEntity
  8
0
100
AcDbBlockBegin
  2
Block_12
 70
     0
 10
0.0
 20
0.0
 30
0.0
  3
Block_12
  1

  0
INSERT
  5
EF
330
EA
100
AcDbEntity
  8
レイヤー 1
100
AcDbBlockReference
  2
Block_13
 10
0.0
 20
0.0
 30
0.0
  0
ENDBLK
  5
ED
330
EA
100
AcDbEntity
  8
0
100
AcDbBlockEnd
  0
BLOCK
  5
F0
330
EE
100
AcDbEntity
  8
0
100
AcDbBlockBegin
  2
Block_13
 70
     0
 10
0.0
 20
0.0
 30
0.0
  3
Block_13
  1

  0
SPLINE
  5
F2
330
EE
100
AcDbEntity
  8
レイヤー 1
100
AcDbSpline
210
0.0
220
0.0
230
1.0
 70
     9
 71
     3
 72
    17
 73
    13
 74
     0
 42
0.0000000001
 43
0.0000000001
 40
0.0
 40
0.0
 40
0.0
 40
0.0
 40
1.0
 40
1.0
 40
1.0
 40
2.0
 40
2.0
 40
2.0
 40
3.0
 40
3.0
 40
3.0
 40
4.0
 40
4.0
 40
4.0
 40
4.0
 10
92.68805471858147
 20
-149.283566585943
 30
0.0
 10
92.67100149592947
 20
-149.3131944071161
 30
0.0
 10
92.6203585922963
 20
-149.4062119852179
 30
0.0
 10
92.60967879629204
 20
-149.4251600103867
 30
0.0
 10
92.80002032185208
 20
-149.484415652733
 30
0.0
 10
92.82120765908636
 20
-149.490961334155
 30
0.0
 10
92.89321015472809
 20
-149.518522098037
 30
0.0
 10
92.94815942771782
 20
-149.4317056918087
 30
0.0
 10
92.97141382224326
 20
-149.3576361388758
 30
0.0
 10
92.98622773282984
 20
-149.283566585943
 30
0.0
 10
92.98622773282984
 20
-149.283566585943
 30
0.0
 10
92.68805471858147
 20
-149.283566585943
 30
0.0
 10
92.68805471858147
 20
-149.283566585943
 30
0.0
  0
SPLINE
  5
F3
330
EE
100
AcDbEntity
  8
レイヤー 1
100
AcDbSpline
210
0.0
220
0.0
230
1.0
 70
    11
 71
     3
 72
    20
 73
    16
 74
     0
 42
0.0000000001
 43
0.0000000001
 40
0.0
 40
0.0
 40
0.0
 40
0.0
 40
1.0
 40
1.0
 40
1.0
 40
2.0
 40
2.0
 40
2.0
 40
3.0
 40
3.0
 40
3.0
 40
4.0
 40
4.0
 40
4.0
 40
5.0
 40
5.0
 40
5.0
 40
5.0
 10
92.62449270687859
 20
-148.433144765409
 30
0.0
 10
92.62449270687859
 20
-148.433144765409
 30
0.0
 10
92.5927978284143
 20
-148.433144765409
 30
0.0
 10
92.5927978284143
 20
-148.433144765409
 30
0.0
 10
92.63930661746519
 20
-148.5325357701585
 30
0.0
 10
92.67100149592947
 20
-148.6128064949648
 30
0.0
 10
92.70493568645918
 20
-148.7397582635963
 30
0.0
 10
92.70493568645918
 20
-148.7397582635963
 30
0.0
 10
92.91215817989696
 20
-148.7397582635963
 30
0.0
 10
92.91215817989696
 20
-148.7397582635963
 30
0.0
 10
92.94402531313552
 20
-148.6467406854945
 30
0.0
 10
92.96727970766097
 20
-148.5621635913316
 30
0.0
 10
92.9905341021864
 20
-148.433144765409
 30
0.0
 10
92.9905341021864
 20
-148.433144765409
 30
0.0
 10
92.62449270687859
 20
-148.433144765409
 30
0.0
 10
92.62449270687859
 20
-148.433144765409
 30
0.0
  0
SPLINE
  5
F4
330
EE
100
AcDbEntity
  8
レイヤー 1
100
AcDbSpline
210
0.0
220
0.0
230
1.0
 70
     9
 71
     3
 72
   242
 73
   238
 74
     0
 42
0.0000000001
 43
0.0000000001
 40
0.0
 40
0.0
 40
0.0
 40
0.0
 40
1.0
 40
1.0
 40
1.0
 40
2.0
 40
2.0
 40
2.0
 40
3.0
 40
3.0
 40
3.0
 40
4.0
 40
4.0
 40
4.0
 40
5.0
 40
5.0
 40
5.0
 40
6.0
 40
6.0
 40
6.0
 40
7.0
 40
7.0
 40
7.0
 40
8.0
 40
8.0
 40
8.0
 40
9.0
 40
9.0
 40
9.0
 40
10.0
 40
10.0
 40
10.0
 40
11.0
 40
11.0
 40
11.0
 40
12.0
 40
12.0
 40
12.0
 40
13.0
 40
13.0
 40
13.0
 40
14.0
 40
14.0
 40
14.0
 40
15.0
 40
15.0
 40
15.0
 40
16.0
 40
16.0
 40
16.0
 40
17.0
 40
17.0
 40
17.0
 40
18.0
 40
18.0
 40
18.0
 40
19.0
 40
19.0
 40
19.0
 40
20.0
 40
20.0
 40
20.0
 40
21.0
 40
21.0
 40
21.0
 40
22.0
 40
22.0
 40
22.0
 40
23.0
 40
23.0
 40
23.0
 40
24.0
 40
24.0
 40
24.0
 40
25.0
 40
25.0
 40
25.0
 40
26.0
 40
26.0
 40
26.0
 40
27.0
 40
27.0
 40
27.0
 40
28.0
 40
28.0
 40
28.0
 40
29.0
 40
29.0
 40
29.0
 40
30.0
 40
30.0
 40
30.0
 40
31.0
 40
31.0
 40
31.0
 40
32.0
 40
32.0
 40
32.0
 40
33.0
 40
33.0
 40
33.0
 40
34.0
 40
34.0
 40
34.0
 40
35.0
 40
35.0
 40
35.0
 40
36.0
 40
36.0
 40
36.0
 40
37.0
 40
37.0
 40
37.0
 40
38.0
 40
38.0
 40
38.0
 40
39.0
 40
39.0
 40
39.0
 40
40.0
 40
40.0
 40
40.0
 40
41.0
 40
41.0
 40
41.0
 40
42.0
 40
42.0
 40
42.0
 40
43.0
 40
43.0
 40
43.0
 40
44.0
 40
44.0
 40
44.0
 40
45.0
 40
45.0
 40
45.0
 40
46.0
 40
46.0
 40
46.0
 40
47.0
 40
47.0
 40
47.0
 40
48.0
 40
48.0
 40
48.0
 40
49.0
 40
49.0
 40
49.0
 40
50.0
 40
50.0
 40
50.0
 40
51.0
 40
51.0
 40
51.0
 40
52.0
 40
52.0
 40
52.0
 40
53.0
 40
53.0
 40
53.0
 40
54.0
 40
54.0
 40
54.0
 40
55.0
 40
55.0
 40
55.0
 40
56.0
 40
56.0
 40
56.0
 40
57.0
 40
57.0
 40
57.0
 40
58.0
 40
58.0
 40
58.0
 40
59.0
 40
59.0
 40
59.0
 40
60.0
 40
60.0
 40
60.0
 40
61.0
 40
61.0
 40
61.0
 40
62.0
 40
62.0
 40
62.0
 40
63.0
 40
63.0
 40
63.0
 40
64.0
 40
64.0
 40
64.0
 40
65.0
 40
65.0
 40
65.0
 40
66.0
 40
66.0
 40
66.0
 40
67.0
 40
67.0
 40
67.0
 40
68.0
 40
68.0
 40
68.0
 40
69.0
 40
69.0
 40
69.0
 40
70.0
 40
70.0
 40
70.0
 40
71.0
 40
71.0
 40
71.0
 40
72.0
 40
72.0
 40
72.0
 40
73.0
 40
73.0
 40
73.0
 40
74.0
 40
74.0
 40
74.0
 40
75.0
 40
75.0
 40
75.0
 40
76.0
 40
76.0
 40
76.0
 40
77.0
 40
77.0
 40
77.0
 40
78.0
 40
78.0
 40
78.0
 40
79.0
 40
79.0
 40
79.0
 40
79.0
 10
93.25287812338817
 20
-148.8984049106921
 30
0.0
 10
93.25287812338817
 20
-148.8984049106921
 30
0.0
 10
92.99897458612525
 20
-148.8984049106921
 30
0.0
 10
92.99897458612525
 20
-148.8984049106921
 30
0.0
 10
92.99897458612525
 20
-148.8984049106921
 30
0.0
 10
92.7218166543369
 20
-148.8984049106921
 30
0.0
 10
92.7218166543369
 20
-148.8984049106921
 30
0.0
 10
92.7218166543369
 20
-148.8984049106921
 30
0.0
 10
92.84876842296837
 20
-148.9407795851606
 30
0.0
 10
92.84876842296837
 20
-148.9407795851606
 30
0.0
 10
92.85927596419837
 20
-148.9452582092915
 30
0.0
 10
92.8720228174938
 20
-148.9514593811649
 30
0.0
 10
92.8720228174938
 20
-148.9642062344603
 30
0.0
 10
92.8720228174938
 20
-148.9852213169203
 30
0.0
 10
92.8403279390295
 20
-148.9917669983423
 30
0.0
 10
92.81914060179522
 20
-148.9959011129246
 30
0.0
 10
92.80863306056522
 20
-149.0189832526758
 30
0.0
 10
92.77900523939207
 20
-149.0847845764441
 30
0.0
 10
92.75988495944892
 20
-149.1292263082038
 30
0.0
 10
92.75988495944892
 20
-149.1292263082038
 30
0.0
 10
93.03066946458956
 20
-149.1292263082038
 30
0.0
 10
93.03066946458956
 20
-149.1292263082038
 30
0.0
 10
93.12161998540016
 20
-149.1292263082038
 30
0.0
 10
93.31833493760791
 20
-149.124747684073
 30
0.0
 10
93.46010061682596
 20
-149.1164794549083
 30
0.0
 10
93.46010061682596
 20
-149.1164794549083
 30
0.0
 10
93.46010061682596
 20
-149.2942463819472
 30
0.0
 10
93.46010061682596
 20
-149.2942463819472
 30
0.0
 10
93.37759057995421
 20
-149.2897677578164
 30
0.0
 10
93.35640324271993
 20
-149.2897677578164
 30
0.0
 10
93.17656925838988
 20
-149.2856336432341
 30
0.0
 10
93.14487437992559
 20
-149.4399739209733
 30
0.0
 10
93.10043264816586
 20
-149.5205891553282
 30
0.0
 10
93.05599091640614
 20
-149.5901800841302
 30
0.0
 10
93.17656925838988
 20
-149.6494357264765
 30
0.0
 10
93.28250594456132
 20
-149.7173041075359
 30
0.0
 10
93.38603106389308
 20
-149.7996418896334
 30
0.0
 10
93.38603106389308
 20
-149.7996418896334
 30
0.0
 10
93.26769203397475
 20
-149.966729020668
 30
0.0
 10
93.26769203397475
 20
-149.966729020668
 30
0.0
 10
93.24443763944932
 20
-149.9477809954991
 30
0.0
 10
93.23169078615389
 20
-149.9395127663345
 30
0.0
 10
93.119552928109
 20
-149.8547634173974
 30
0.0
 10
93.07080482699271
 20
-149.8165228575111
 30
0.0
 10
93.01172143942068
 20
-149.7806938644645
 30
0.0
 10
92.9312784598401
 20
-149.7362521327048
 30
0.0
 10
92.71974959704577
 20
-149.9226317984568
 30
0.0
 10
92.51442190612486
 20
-149.945713938208
 30
0.0
 10
92.22468937581536
 20
-149.9753417593811
 30
0.0
 10
92.22468937581536
 20
-149.9753417593811
 30
0.0
 10
92.12099200170934
 20
-149.7955077750511
 30
0.0
 10
92.12099200170934
 20
-149.7955077750511
 30
0.0
 10
92.43828529590086
 20
-149.7913736604688
 30
0.0
 10
92.61398516564858
 20
-149.765879953878
 30
0.0
 10
92.76625838609664
 20
-149.6559814078985
 30
0.0
 10
92.64774710140404
 20
-149.6049939947168
 30
0.0
 10
92.5588636378846
 20
-149.5777777403833
 30
0.0
 10
92.523034644838
 20
-149.5650308870879
 30
0.0
 10
92.50391436489485
 20
-149.5925916509699
 30
0.0
 10
92.48910045430829
 20
-149.6115396761388
 30
0.0
 10
92.46153969042628
 20
-149.6453016118942
 30
0.0
 10
92.46153969042628
 20
-149.6453016118942
 30
0.0
 10
92.26482473821851
 20
-149.5629638297967
 30
0.0
 10
92.26482473821851
 20
-149.5629638297967
 30
0.0
 10
92.34733477509026
 20
-149.4823485954419
 30
0.0
 10
92.40865747472771
 20
-149.387263960049
 30
0.0
 10
92.46584605978284
 20
-149.2856336432341
 30
0.0
 10
92.2755045342228
 20
-149.2897677578164
 30
0.0
 10
92.25431719698852
 20
-149.2897677578164
 30
0.0
 10
92.17180716011677
 20
-149.2942463819472
 30
0.0
 10
92.17180716011677
 20
-149.2942463819472
 30
0.0
 10
92.17180716011677
 20
-149.1164794549083
 30
0.0
 10
92.17180716011677
 20
-149.1164794549083
 30
0.0
 10
92.3113335272694
 20
-149.1226806267818
 30
0.0
 10
92.52079533277258
 20
-149.1271592509126
 30
0.0
 10
92.54628903936342
 20
-149.1271592509126
 30
0.0
 10
92.56317000724115
 20
-149.0930528056087
 30
0.0
 10
92.61811928023089
 20
-148.9724744636249
 30
0.0
 10
92.63723956017402
 20
-148.8984049106921
 30
0.0
 10
92.61811928023089
 20
-148.8984049106921
 30
0.0
 10
92.44052460796627
 20
-148.904950592114
 30
0.0
 10
92.24587671304965
 20
-148.9176974454094
 30
0.0
 10
92.24587671304965
 20
-148.9176974454094
 30
0.0
 10
92.24587671304965
 20
-149.0510226406886
 30
0.0
 10
92.24587671304965
 20
-149.0510226406886
 30
0.0
 10
92.19712861193336
 20
-149.0761718377309
 30
0.0
 10
92.13787296958706
 20
-149.1078667161952
 30
0.0
 10
92.00472002908215
 20
-149.1736680399635
 30
0.0
 10
92.00472002908215
 20
-149.1736680399635
 30
0.0
 10
92.00472002908215
 20
-149.3193955789896
 30
0.0
 10
92.00472002908215
 20
-149.3193955789896
 30
0.0
 10
92.00472002908215
 20
-149.3193955789896
 30
0.0
 10
92.00472002908215
 20
-149.7872395458865
 30
0.0
 10
92.00472002908215
 20
-149.7872395458865
 30
0.0
 10
92.00472002908215
 20
-149.9140190597437
 30
0.0
 10
91.96871878126129
 20
-149.97327470209
 30
0.0
 10
91.68518742282524
 20
-149.9646619633769
 30
0.0
 10
91.68518742282524
 20
-149.9646619633769
 30
0.0
 10
91.58149004871921
 20
-149.7576117247134
 30
0.0
 10
91.58149004871921
 20
-149.7576117247134
 30
0.0
 10
91.64505206042207
 20
-149.7700140684603
 30
0.0
 10
91.69362790676409
 20
-149.7744926925911
 30
0.0
 10
91.73393552394152
 20
-149.7744926925911
 30
0.0
 10
91.81007213416554
 20
-149.7744926925911
 30
0.0
 10
91.82057967539554
 20
-149.7510660432914
 30
0.0
 10
91.82057967539554
 20
-149.6856092290717
 30
0.0
 10
91.82057967539554
 20
-149.6856092290717
 30
0.0
 10
91.82057967539554
 20
-149.256005822061
 30
0.0
 10
91.82057967539554
 20
-149.256005822061
 30
0.0
 10
91.72325572793724
 20
-149.2963134392384
 30
0.0
 10
91.70637476005952
 20
-149.3025146111119
 30
0.0
 10
91.65986597100864
 20
-149.3218071458293
 30
0.0
 10
91.65555960165209
 20
-149.3428222282893
 30
0.0
 10
91.65142548706979
 20
-149.3724500494624
 30
0.0
 10
91.63230520712664
 20
-149.3724500494624
 30
0.0
 10
91.62386472318779
 20
-149.3724500494624
 30
0.0
 10
91.61335718195777
 20
-149.3683159348801
 30
0.0
 10
91.60698375531007
 20
-149.3448892855804
 30
0.0
 10
91.60698375531007
 20
-149.3448892855804
 30
0.0
 10
91.55410153961147
 20
-149.152308447955
 30
0.0
 10
91.55410153961147
 20
-149.152308447955
 30
0.0
 10
91.70000133341181
 20
-149.1057996589041
 30
0.0
 10
91.76563040240582
 20
-149.0827175191529
 30
0.0
 10
91.82057967539554
 20
-149.0613579271444
 30
0.0
 10
91.82057967539554
 20
-149.0613579271444
 30
0.0
 10
91.82057967539554
 20
-148.6488077427857
 30
0.0
 10
91.82057967539554
 20
-148.6488077427857
 30
0.0
 10
91.82057967539554
 20
-148.6488077427857
 30
0.0
 10
91.76769745969698
 20
-148.6488077427857
 30
0.0
 10
91.76769745969698
 20
-148.6488077427857
 30
0.0
 10
91.76769745969698
 20
-148.6488077427857
 30
0.0
 10
91.68949379218179
 20
-148.6488077427857
 30
0.0
 10
91.68949379218179
 20
-148.6488077427857
 30
0.0
 10
91.62179766589664
 20
-148.6488077427857
 30
0.0
 10
91.61335718195777
 20
-148.6488077427857
 30
0.0
 10
91.57735593413692
 20
-148.6551811694334
 30
0.0
 10
91.57735593413692
 20
-148.6551811694334
 30
0.0
 10
91.57735593413692
 20
-148.4605332745168
 30
0.0
 10
91.57735593413692
 20
-148.4605332745168
 30
0.0
 10
91.6049166980189
 20
-148.4669067011645
 30
0.0
 10
91.61335718195777
 20
-148.4669067011645
 30
0.0
 10
91.68312036553407
 20
-148.4669067011645
 30
0.0
 10
91.68312036553407
 20
-148.4669067011645
 30
0.0
 10
91.81644556081325
 20
-148.4669067011645
 30
0.0
 10
91.81644556081325
 20
-148.4669067011645
 30
0.0
 10
91.81644556081325
 20
-148.3971435175882
 30
0.0
 10
91.81644556081325
 20
-148.3146334807164
 30
0.0
 10
91.81420624874784
 20
-148.3103271113599
 30
0.0
 10
91.80576576480898
 20
-148.1304931270299
 30
0.0
 10
91.80576576480898
 20
-148.111545101861
 30
0.0
 10
91.80369870751782
 20
-148.0650363128101
 30
0.0
 10
91.80369870751782
 20
-148.0650363128101
 30
0.0
 10
92.01953393966872
 20
-148.073476796749
 30
0.0
 10
92.01953393966872
 20
-148.073476796749
 30
0.0
 10
92.03004148089874
 20
-148.073476796749
 30
0.0
 10
92.05122881813302
 20
-148.0755438540401
 30
0.0
 10
92.05122881813302
 20
-148.0924248219178
 30
0.0
 10
92.05122881813302
 20
-148.111545101861
 30
0.0
 10
92.03641490754646
 20
-148.122052643091
 30
0.0
 10
92.01109345572985
 20
-148.1411729230341
 30
0.0
 10
92.01109345572985
 20
-148.1918158266673
 30
0.0
 10
92.00472002908215
 20
-148.4203979121136
 30
0.0
 10
92.00678708637331
 20
-148.4669067011645
 30
0.0
 10
92.13580591229591
 20
-148.4669067011645
 30
0.0
 10
92.14855276559132
 20
-148.4669067011645
 30
0.0
 10
92.24587671304965
 20
-148.4584662172256
 30
0.0
 10
92.24587671304965
 20
-148.4584662172256
 30
0.0
 10
92.24587671304965
 20
-148.6531141121423
 30
0.0
 10
92.24587671304965
 20
-148.6531141121423
 30
0.0
 10
92.20780840793763
 20
-148.6508748000769
 30
0.0
 10
92.14011228165247
 20
-148.6467406854945
 30
0.0
 10
92.00472002908215
 20
-148.6488077427857
 30
0.0
 10
92.00472002908215
 20
-148.6488077427857
 30
0.0
 10
92.00472002908215
 20
-148.9872883742115
 30
0.0
 10
92.00472002908215
 20
-148.9872883742115
 30
0.0
 10
92.05966930207189
 20
-148.9642062344603
 30
0.0
 10
92.1252983710659
 20
-148.9366454705783
 30
0.0
 10
92.17387421740793
 20
-148.9132188212786
 30
0.0
 10
92.17387421740793
 20
-148.9132188212786
 30
0.0
 10
92.17387421740793
 20
-148.735624149014
 30
0.0
 10
92.17387421740793
 20
-148.735624149014
 30
0.0
 10
92.28807913274396
 20
-148.7481987475351
 30
0.0
 10
92.40659041743654
 20
-148.7481987475351
 30
0.0
 10
92.523034644838
 20
-148.7481987475351
 30
0.0
 10
92.4996079955383
 20
-148.6531141121423
 30
0.0
 10
92.47221948643057
 20
-148.5706040752705
 30
0.0
 10
92.40865747472771
 20
-148.4372788799913
 30
0.0
 10
92.36421574296796
 20
-148.4393459372825
 30
0.0
 10
92.2818779608705
 20
-148.443652306639
 30
0.0
 10
92.24363740098423
 20
-148.4457193639302
 30
0.0
 10
92.24363740098423
 20
-148.4457193639302
 30
0.0
 10
92.24363740098423
 20
-148.2658853796002
 30
0.0
 10
92.24363740098423
 20
-148.2658853796002
 30
0.0
 10
92.36852211232454
 20
-148.2743258635391
 30
0.0
 10
92.54198267000687
 20
-148.2786322328956
 30
0.0
 10
92.62449270687859
 20
-148.2786322328956
 30
0.0
 10
92.62449270687859
 20
-148.2786322328956
 30
0.0
 10
92.70700274375034
 20
-148.2786322328956
 30
0.0
 10
92.70700274375034
 20
-148.2786322328956
 30
0.0
 10
92.70700274375034
 20
-148.1156792164433
 30
0.0
 10
92.70700274375034
 20
-148.1051716752133
 30
0.0
 10
92.70493568645918
 20
-148.0502224022235
 30
0.0
 10
92.70493568645918
 20
-148.0502224022235
 30
0.0
 10
92.92921140254895
 20
-148.0755438540401
 30
0.0
 10
92.92921140254895
 20
-148.0755438540401
 30
0.0
 10
92.93334551713126
 20
-148.0755438540401
 30
0.0
 10
92.95453285436554
 20
-148.0776109113313
 30
0.0
 10
92.95453285436554
 20
-148.094491879209
 30
0.0
 10
92.95453285436554
 20
-148.1093057897956
 30
0.0
 10
92.94402531313552
 20
-148.1179185285087
 30
0.0
 10
92.91646454925354
 20
-148.1327324390953
 30
0.0
 10
92.91009112260582
 20
-148.198189253315
 30
0.0
 10
92.90802406531467
 20
-148.2193765905493
 30
0.0
 10
92.90802406531467
 20
-148.2786322328956
 30
0.0
 10
92.90802406531467
 20
-148.2786322328956
 30
0.0
 10
93.00310870070756
 20
-148.2786322328956
 30
0.0
 10
93.00310870070756
 20
-148.2786322328956
 30
0.0
 10
93.08561873757929
 20
-148.2786322328956
 30
0.0
 10
93.25907929526163
 20
-148.2743258635391
 30
0.0
 10
93.38396400660192
 20
-148.2658853796002
 30
0.0
 10
93.38396400660192
 20
-148.2658853796002
 30
0.0
 10
93.38396400660192
 20
-148.4457193639302
 30
0.0
 10
93.38396400660192
 20
-148.4457193639302
 30
0.0
 10
93.35433618542877
 20
-148.443652306639
 30
0.0
 10
93.23582490073619
 20
-148.4393459372825
 30
0.0
 10
93.19568953833302
 20
-148.4372788799913
 30
0.0
 10
93.18087562774644
 20
-148.4880940383988
 30
0.0
 10
93.147113691991
 20
-148.6002318964437
 30
0.0
 10
93.08148462299699
 20
-148.7397582635963
 30
0.0
 10
93.12368704269131
 20
-148.7397582635963
 30
0.0
 10
93.40084497447966
 20
-148.7208102384274
 30
0.0
 10
93.46216767411709
 20
-148.718570926362
 30
0.0
 10
93.46216767411709
 20
-148.718570926362
 30
0.0
 10
93.46216767411709
 20
-148.9028835348229
 30
0.0
 10
93.46216767411709
 20
-148.9028835348229
 30
0.0
 10
93.43271210771822
 20
-148.9028835348229
 30
0.0
 10
93.41565888506622
 20
-148.8984049106921
 30
0.0
 10
93.25287812338817
 20
-148.8984049106921
 30
0.0
  0
HATCH
  5
F5
330
EE
100
AcDbEntity
  8
レイヤー 1
 62
    18
420
        0
440
 33554687
100
AcDbHatch
 10
0.0
 20
0.0
 30
0.0
210
0.0
220
0.0
230
1.0
  2
SOLID
 70
     1
 71
     1
 91
        3
 92
        1
 93
        1
 72
     4
 94
        3
 73
     0
 74
     0
 95
       17
 96
       13
 40
0.0
 40
0.0
 40
0.0
 40
0.0
 40
1.0
 40
1.0
 40
1.0
 40
2.0
 40
2.0
 40
2.0
 40
3.0
 40
3.0
 40
3.0
 40
4.0
 40
4.0
 40
4.0
 40
4.0
 10
92.68805471858147
 20
-149.283566585943
 10
92.67100149592947
 20
-149.3131944071161
 10
92.6203585922963
 20
-149.4062119852179
 10
92.60967879629204
 20
-149.4251600103867
 10
92.80002032185208
 20
-149.484415652733
 10
92.82120765908636
 20
-149.490961334155
 10
92.89321015472809
 20
-149.518522098037
 10
92.94815942771782
 20
-149.4317056918087
 10
92.97141382224326
 20
-149.3576361388758
 10
92.98622773282984
 20
-149.283566585943
 10
92.98622773282984
 20
-149.283566585943
 10
92.68805471858147
 20
-149.283566585943
 10
92.68805471858147
 20
-149.283566585943
 97
        0
 97
        1
330
F2
 92
        1
 93
        1
 72
     4
 94
        3
 73
     0
 74
     0
 95
       20
 96
       16
 40
0.0
 40
0.0
 40
0.0
 40
0.0
 40
1.0
 40
1.0
 40
1.0
 40
2.0
 40
2.0
 40
2.0
 40
3.0
 40
3.0
 40
3.0
 40
4.0
 40
4.0
 40
4.0
 40
5.0
 40
5.0
 40
5.0
 40
5.0
 10
92.62449270687859
 20
-148.433144765409
 10
92.62449270687859
 20
-148.433144765409
 10
92.5927978284143
 20
-148.433144765409
 10
92.5927978284143
 20
-148.433144765409
 10
92.63930661746519
 20
-148.5325357701585
 10
92.67100149592947
 20
-148.6128064949648
 10
92.70493568645918
 20
-148.7397582635963
 10
92.70493568645918
 20
-148.7397582635963
 10
92.91215817989696
 20
-148.7397582635963
 10
92.91215817989696
 20
-148.7397582635963
 10
92.94402531313552
 20
-148.6467406854945
 10
92.96727970766097
 20
-148.5621635913316
 10
92.9905341021864
 20
-148.433144765409
 10
92.9905341021864
 20
-148.433144765409
 10
92.62449270687859
 20
-148.433144765409
 10
92.62449270687859
 20
-148.433144765409
 97
        0
 97
        1
330
F3
 92
        1
 93
        1
 72
     4
 94
        3
 73
     0
 74
     0
 95
      242
 96
      238
 40
0.0
 40
0.0
 40
0.0
 40
0.0
 40
1.0
 40
1.0
 40
1.0
 40
2.0
 40
2.0
 40
2.0
 40
3.0
 40
3.0
 40
3.0
 40
4.0
 40
4.0
 40
4.0
 40
5.0
 40
5.0
 40
5.0
 40
6.0
 40
6.0
 40
6.0
 40
7.0
 40
7.0
 40
7.0
 40
8.0
 40
8.0
 40
8.0
 40
9.0
 40
9.0
 40
9.0
 40
10.0
 40
10.0
 40
10.0
 40
11.0
 40
11.0
 40
11.0
 40
12.0
 40
12.0
 40
12.0
 40
13.0
 40
13.0
 40
13.0
 40
14.0
 40
14.0
 40
14.0
 40
15.0
 40
15.0
 40
15.0
 40
16.0
 40
16.0
 40
16.0
 40
17.0
 40
17.0
 40
17.0
 40
18.0
 40
18.0
 40
18.0
 40
19.0
 40
19.0
 40
19.0
 40
20.0
 40
20.0
 40
20.0
 40
21.0
 40
21.0
 40
21.0
 40
22.0
 40
22.0
 40
22.0
 40
23.0
 40
23.0
 40
23.0
 40
24.0
 40
24.0
 40
24.0
 40
25.0
 40
25.0
 40
25.0
 40
26.0
 40
26.0
 40
26.0
 40
27.0
 40
27.0
 40
27.0
 40
28.0
 40
28.0
 40
28.0
 40
29.0
 40
29.0
 40
29.0
 40
30.0
 40
30.0
 40
30.0
 40
31.0
 40
31.0
 40
31.0
 40
32.0
 40
32.0
 40
32.0
 40
33.0
 40
33.0
 40
33.0
 40
34.0
 40
34.0
 40
34.0
 40
35.0
 40
35.0
 40
35.0
 40
36.0
 40
36.0
 40
36.0
 40
37.0
 40
37.0
 40
37.0
 40
38.0
 40
38.0
 40
38.0
 40
39.0
 40
39.0
 40
39.0
 40
40.0
 40
40.0
 40
40.0
 40
41.0
 40
41.0
 40
41.0
 40
42.0
 40
42.0
 40
42.0
 40
43.0
 40
43.0
 40
43.0
 40
44.0
 40
44.0
 40
44.0
 40
45.0
 40
45.0
 40
45.0
 40
46.0
 40
46.0
 40
46.0
 40
47.0
 40
47.0
 40
47.0
 40
48.0
 40
48.0
 40
48.0
 40
49.0
 40
49.0
 40
49.0
 40
50.0
 40
50.0
 40
50.0
 40
51.0
 40
51.0
 40
51.0
 40
52.0
 40
52.0
 40
52.0
 40
53.0
 40
53.0
 40
53.0
 40
54.0
 40
54.0
 40
54.0
 40
55.0
 40
55.0
 40
55.0
 40
56.0
 40
56.0
 40
56.0
 40
57.0
 40
57.0
 40
57.0
 40
58.0
 40
58.0
 40
58.0
 40
59.0
 40
59.0
 40
59.0
 40
60.0
 40
60.0
 40
60.0
 40
61.0
 40
61.0
 40
61.0
 40
62.0
 40
62.0
 40
62.0
 40
63.0
 40
63.0
 40
63.0
 40
64.0
 40
64.0
 40
64.0
 40
65.0
 40
65.0
 40
65.0
 40
66.0
 40
66.0
 40
66.0
 40
67.0
 40
67.0
 40
67.0
 40
68.0
 40
68.0
 40
68.0
 40
69.0
 40
69.0
 40
69.0
 40
70.0
 40
70.0
 40
70.0
 40
71.0
 40
71.0
 40
71.0
 40
72.0
 40
72.0
 40
72.0
 40
73.0
 40
73.0
 40
73.0
 40
74.0
 40
74.0
 40
74.0
 40
75.0
 40
75.0
 40
75.0
 40
76.0
 40
76.0
 40
76.0
 40
77.0
 40
77.0
 40
77.0
 40
78.0
 40
78.0
 40
78.0
 40
79.0
 40
79.0
 40
79.0
 40
79.0
 10
93.25287812338817
 20
-148.8984049106921
 10
93.25287812338817
 20
-148.8984049106921
 10
92.99897458612525
 20
-148.8984049106921
 10
92.99897458612525
 20
-148.8984049106921
 10
92.99897458612525
 20
-148.8984049106921
 10
92.7218166543369
 20
-148.8984049106921
 10
92.7218166543369
 20
-148.8984049106921
 10
92.7218166543369
 20
-148.8984049106921
 10
92.84876842296837
 20
-148.9407795851606
 10
92.84876842296837
 20
-148.9407795851606
 10
92.85927596419837
 20
-148.9452582092915
 10
92.8720228174938
 20
-148.9514593811649
 10
92.8720228174938
 20
-148.9642062344603
 10
92.8720228174938
 20
-148.9852213169203
 10
92.8403279390295
 20
-148.9917669983423
 10
92.81914060179522
 20
-148.9959011129246
 10
92.80863306056522
 20
-149.0189832526758
 10
92.77900523939207
 20
-149.0847845764441
 10
92.75988495944892
 20
-149.1292263082038
 10
92.75988495944892
 20
-149.1292263082038
 10
93.03066946458956
 20
-149.1292263082038
 10
93.03066946458956
 20
-149.1292263082038
 10
93.12161998540016
 20
-149.1292263082038
 10
93.31833493760791
 20
-149.124747684073
 10
93.46010061682596
 20
-149.1164794549083
 10
93.46010061682596
 20
-149.1164794549083
 10
93.46010061682596
 20
-149.2942463819472
 10
93.46010061682596
 20
-149.2942463819472
 10
93.37759057995421
 20
-149.2897677578164
 10
93.35640324271993
 20
-149.2897677578164
 10
93.17656925838988
 20
-149.2856336432341
 10
93.14487437992559
 20
-149.4399739209733
 10
93.10043264816586
 20
-149.5205891553282
 10
93.05599091640614
 20
-149.5901800841302
 10
93.17656925838988
 20
-149.6494357264765
 10
93.28250594456132
 20
-149.7173041075359
 10
93.38603106389308
 20
-149.7996418896334
 10
93.38603106389308
 20
-149.7996418896334
 10
93.26769203397475
 20
-149.966729020668
 10
93.26769203397475
 20
-149.966729020668
 10
93.24443763944932
 20
-149.9477809954991
 10
93.23169078615389
 20
-149.9395127663345
 10
93.119552928109
 20
-149.8547634173974
 10
93.07080482699271
 20
-149.8165228575111
 10
93.01172143942068
 20
-149.7806938644645
 10
92.9312784598401
 20
-149.7362521327048
 10
92.71974959704577
 20
-149.9226317984568
 10
92.51442190612486
 20
-149.945713938208
 10
92.22468937581536
 20
-149.9753417593811
 10
92.22468937581536
 20
-149.9753417593811
 10
92.12099200170934
 20
-149.7955077750511
 10
92.12099200170934
 20
-149.7955077750511
 10
92.43828529590086
 20
-149.7913736604688
 10
92.61398516564858
 20
-149.765879953878
 10
92.76625838609664
 20
-149.6559814078985
 10
92.64774710140404
 20
-149.6049939947168
 10
92.5588636378846
 20
-149.5777777403833
 10
92.523034644838
 20
-149.5650308870879
 10
92.50391436489485
 20
-149.5925916509699
 10
92.48910045430829
 20
-149.6115396761388
 10
92.46153969042628
 20
-149.6453016118942
 10
92.46153969042628
 20
-149.6453016118942
 10
92.26482473821851
 20
-149.5629638297967
 10
92.26482473821851
 20
-149.5629638297967
 10
92.34733477509026
 20
-149.4823485954419
 10
92.40865747472771
 20
-149.387263960049
 10
92.46584605978284
 20
-149.2856336432341
 10
92.2755045342228
 20
-149.2897677578164
 10
92.25431719698852
 20
-149.2897677578164
 10
92.17180716011677
 20
-149.2942463819472
 10
92.17180716011677
 20
-149.2942463819472
 10
92.17180716011677
 20
-149.1164794549083
 10
92.17180716011677
 20
-149.1164794549083
 10
92.3113335272694
 20
-149.1226806267818
 10
92.52079533277258
 20
-149.1271592509126
 10
92.54628903936342
 20
-149.1271592509126
 10
92.56317000724115
 20
-149.0930528056087
 10
92.61811928023089
 20
-148.9724744636249
 10
92.63723956017402
 20
-148.8984049106921
 10
92.61811928023089
 20
-148.8984049106921
 10
92.44052460796627
 20
-148.904950592114
 10
92.24587671304965
 20
-148.9176974454094
 10
92.24587671304965
 20
-148.9176974454094
 10
92.24587671304965
 20
-149.0510226406886
 10
92.24587671304965
 20
-149.0510226406886
 10
92.19712861193336
 20
-149.0761718377309
 10
92.13787296958706
 20
-149.1078667161952
 10
92.00472002908215
 20
-149.1736680399635
 10
92.00472002908215
 20
-149.1736680399635
 10
92.00472002908215
 20
-149.3193955789896
 10
92.00472002908215
 20
-149.3193955789896
 10
92.00472002908215
 20
-149.3193955789896
 10
92.00472002908215
 20
-149.7872395458865
 10
92.00472002908215
 20
-149.7872395458865
 10
92.00472002908215
 20
-149.9140190597437
 10
91.96871878126129
 20
-149.97327470209
 10
91.68518742282524
 20
-149.9646619633769
 10
91.68518742282524
 20
-149.9646619633769
 10
91.58149004871921
 20
-149.7576117247134
 10
91.58149004871921
 20
-149.7576117247134
 10
91.64505206042207
 20
-149.7700140684603
 10
91.69362790676409
 20
-149.7744926925911
 10
91.73393552394152
 20
-149.7744926925911
 10
91.81007213416554
 20
-149.7744926925911
 10
91.82057967539554
 20
-149.7510660432914
 10
91.82057967539554
 20
-149.6856092290717
 10
91.82057967539554
 20
-149.6856092290717
 10
91.82057967539554
 20
-149.256005822061
 10
91.82057967539554
 20
-149.256005822061
 10
91.72325572793724
 20
-149.2963134392384
 10
91.70637476005952
 20
-149.3025146111119
 10
91.65986597100864
 20
-149.3218071458293
 10
91.65555960165209
 20
-149.3428222282893
 10
91.65142548706979
 20
-149.3724500494624
 10
91.63230520712664
 20
-149.3724500494624
 10
91.62386472318779
 20
-149.3724500494624
 10
91.61335718195777
 20
-149.3683159348801
 10
91.60698375531007
 20
-149.3448892855804
 10
91.60698375531007
 20
-149.3448892855804
 10
91.55410153961147
 20
-149.152308447955
 10
91.55410153961147
 20
-149.152308447955
 10
91.70000133341181
 20
-149.1057996589041
 10
91.76563040240582
 20
-149.0827175191529
 10
91.82057967539554
 20
-149.0613579271444
 10
91.82057967539554
 20
-149.0613579271444
 10
91.82057967539554
 20
-148.6488077427857
 10
91.82057967539554
 20
-148.6488077427857
 10
91.82057967539554
 20
-148.6488077427857
 10
91.76769745969698
 20
-148.6488077427857
 10
91.76769745969698
 20
-148.6488077427857
 10
91.76769745969698
 20
-148.6488077427857
 10
91.68949379218179
 20
-148.6488077427857
 10
91.68949379218179
 20
-148.6488077427857
 10
91.62179766589664
 20
-148.6488077427857
 10
91.61335718195777
 20
-148.6488077427857
 10
91.57735593413692
 20
-148.6551811694334
 10
91.57735593413692
 20
-148.6551811694334
 10
91.57735593413692
 20
-148.4605332745168
 10
91.57735593413692
 20
-148.4605332745168
 10
91.6049166980189
 20
-148.4669067011645
 10
91.61335718195777
 20
-148.4669067011645
 10
91.68312036553407
 20
-148.4669067011645
 10
91.68312036553407
 20
-148.4669067011645
 10
91.81644556081325
 20
-148.4669067011645
 10
91.81644556081325
 20
-148.4669067011645
 10
91.81644556081325
 20
-148.3971435175882
 10
91.81644556081325
 20
-148.3146334807164
 10
91.81420624874784
 20
-148.3103271113599
 10
91.80576576480898
 20
-148.1304931270299
 10
91.80576576480898
 20
-148.111545101861
 10
91.80369870751782
 20
-148.0650363128101
 10
91.80369870751782
 20
-148.0650363128101
 10
92.01953393966872
 20
-148.073476796749
 10
92.01953393966872
 20
-148.073476796749
 10
92.03004148089874
 20
-148.073476796749
 10
92.05122881813302
 20
-148.0755438540401
 10
92.05122881813302
 20
-148.0924248219178
 10
92.05122881813302
 20
-148.111545101861
 10
92.03641490754646
 20
-148.122052643091
 10
92.01109345572985
 20
-148.1411729230341
 10
92.01109345572985
 20
-148.1918158266673
 10
92.00472002908215
 20
-148.4203979121136
 10
92.00678708637331
 20
-148.4669067011645
 10
92.13580591229591
 20
-148.4669067011645
 10
92.14855276559132
 20
-148.4669067011645
 10
92.24587671304965
 20
-148.4584662172256
 10
92.24587671304965
 20
-148.4584662172256
 10
92.24587671304965
 20
-148.6531141121423
 10
92.24587671304965
 20
-148.6531141121423
 10
92.20780840793763
 20
-148.6508748000769
 10
92.14011228165247
 20
-148.6467406854945
 10
92.00472002908215
 20
-148.6488077427857
 10
92.00472002908215
 20
-148.6488077427857
 10
92.00472002908215
 20
-148.9872883742115
 10
92.00472002908215
 20
-148.9872883742115
 10
92.05966930207189
 20
-148.9642062344603
 10
92.1252983710659
 20
-148.9366454705783
 10
92.17387421740793
 20
-148.9132188212786
 10
92.17387421740793
 20
-148.9132188212786
 10
92.17387421740793
 20
-148.735624149014
 10
92.17387421740793
 20
-148.735624149014
 10
92.28807913274396
 20
-148.7481987475351
 10
92.40659041743654
 20
-148.7481987475351
 10
92.523034644838
 20
-148.7481987475351
 10
92.4996079955383
 20
-148.6531141121423
 10
92.47221948643057
 20
-148.5706040752705
 10
92.40865747472771
 20
-148.4372788799913
 10
92.36421574296796
 20
-148.4393459372825
 10
92.2818779608705
 20
-148.443652306639
 10
92.24363740098423
 20
-148.4457193639302
 10
92.24363740098423
 20
-148.4457193639302
 10
92.24363740098423
 20
-148.2658853796002
 10
92.24363740098423
 20
-148.2658853796002
 10
92.36852211232454
 20
-148.2743258635391
 10
92.54198267000687
 20
-148.2786322328956
 10
92.62449270687859
 20
-148.2786322328956
 10
92.62449270687859
 20
-148.2786322328956
 10
92.70700274375034
 20
-148.2786322328956
 10
92.70700274375034
 20
-148.2786322328956
 10
92.70700274375034
 20
-148.1156792164433
 10
92.70700274375034
 20
-148.1051716752133
 10
92.70493568645918
 20
-148.0502224022235
 10
92.70493568645918
 20
-148.0502224022235
 10
92.92921140254895
 20
-148.0755438540401
 10
92.92921140254895
 20
-148.0755438540401
 10
92.93334551713126
 20
-148.0755438540401
 10
92.95453285436554
 20
-148.0776109113313
 10
92.95453285436554
 20
-148.094491879209
 10
92.95453285436554
 20
-148.1093057897956
 10
92.94402531313552
 20
-148.1179185285087
 10
92.91646454925354
 20
-148.1327324390953
 10
92.91009112260582
 20
-148.198189253315
 10
92.90802406531467
 20
-148.2193765905493
 10
92.90802406531467
 20
-148.2786322328956
 10
92.90802406531467
 20
-148.2786322328956
 10
93.00310870070756
 20
-148.2786322328956
 10
93.00310870070756
 20
-148.2786322328956
 10
93.08561873757929
 20
-148.2786322328956
 10
93.25907929526163
 20
-148.2743258635391
 10
93.38396400660192
 20
-148.2658853796002
 10
93.38396400660192
 20
-148.2658853796002
 10
93.38396400660192
 20
-148.4457193639302
 10
93.38396400660192
 20
-148.4457193639302
 10
93.35433618542877
 20
-148.443652306639
 10
93.23582490073619
 20
-148.4393459372825
 10
93.19568953833302
 20
-148.4372788799913
 10
93.18087562774644
 20
-148.4880940383988
 10
93.147113691991
 20
-148.6002318964437
 10
93.08148462299699
 20
-148.7397582635963
 10
93.12368704269131
 20
-148.7397582635963
 10
93.40084497447966
 20
-148.7208102384274
 10
93.46216767411709
 20
-148.718570926362
 10
93.46216767411709
 20
-148.718570926362
 10
93.46216767411709
 20
-148.9028835348229
 10
93.46216767411709
 20
-148.9028835348229
 10
93.43271210771822
 20
-148.9028835348229
 10
93.41565888506622
 20
-148.8984049106921
 10
93.25287812338817
 20
-148.8984049106921
 97
        0
 97
        1
330
F4
 75
     2
 76
     1
 98
        1
 10
0.0
 20
0.0
450
        0
451
        0
460
0.0
461
0.0
452
        0
462
0.0
453
        0
470

  0
SPLINE
  5
F6
330
EE
100
AcDbEntity
  8
レイヤー 1
100
AcDbSpline
210
0.0
220
0.0
230
1.0
 70
    11
 71
     3
 72
    17
 73
    13
 74
     0
 42
0.0000000001
 43
0.0000000001
 40
0.0
 40
0.0
 40
0.0
 40
0.0
 40
1.0
 40
1.0
 40
1.0
 40
2.0
 40
2.0
 40
2.0
 40
3.0
 40
3.0
 40
3.0
 40
4.0
 40
4.0
 40
4.0
 40
4.0
 10
95.10926782561504
 20
-149.6983560823671
 30
0.0
 10
95.10926782561504
 20
-149.6983560823671
 30
0.0
 10
94.40267874159031
 20
-149.6983560823671
 30
0.0
 10
94.40267874159031
 20
-149.6983560823671
 30
0.0
 10
94.40267874159031
 20
-149.6983560823671
 30
0.0
 10
94.40267874159031
 20
-149.8123887429288
 30
0.0
 10
94.40267874159031
 20
-149.8123887429288
 30
0.0
 10
94.40267874159031
 20
-149.8123887429288
 30
0.0
 10
95.10926782561504
 20
-149.8123887429288
 30
0.0
 10
95.10926782561504
 20
-149.8123887429288
 30
0.0
 10
95.10926782561504
 20
-149.8123887429288
 30
0.0
 10
95.10926782561504
 20
-149.6983560823671
 30
0.0
 10
95.10926782561504
 20
-149.6983560823671
 30
0.0
  0
SPLINE
  5
F7
330
EE
100
AcDbEntity
  8
レイヤー 1
100
AcDbSpline
210
0.0
220
0.0
230
1.0
 70
    11
 71
     3
 72
    17
 73
    13
 74
     0
 42
0.0000000001
 43
0.0000000001
 40
0.0
 40
0.0
 40
0.0
 40
0.0
 40
1.0
 40
1.0
 40
1.0
 40
2.0
 40
2.0
 40
2.0
 40
3.0
 40
3.0
 40
3.0
 40
4.0
 40
4.0
 40
4.0
 40
4.0
 10
95.10926782561504
 20
-149.4547878315599
 30
0.0
 10
95.10926782561504
 20
-149.4547878315599
 30
0.0
 10
94.40267874159031
 20
-149.4547878315599
 30
0.0
 10
94.40267874159031
 20
-149.4547878315599
 30
0.0
 10
94.40267874159031
 20
-149.4547878315599
 30
0.0
 10
94.40267874159031
 20
-149.5691650016702
 30
0.0
 10
94.40267874159031
 20
-149.5691650016702
 30
0.0
 10
94.40267874159031
 20
-149.5691650016702
 30
0.0
 10
95.10926782561504
 20
-149.5691650016702
 30
0.0
 10
95.10926782561504
 20
-149.5691650016702
 30
0.0
 10
95.10926782561504
 20
-149.5691650016702
 30
0.0
 10
95.10926782561504
 20
-149.4547878315599
 30
0.0
 10
95.10926782561504
 20
-149.4547878315599
 30
0.0
  0
SPLINE
  5
F8
330
EE
100
AcDbEntity
  8
レイヤー 1
100
AcDbSpline
210
0.0
220
0.0
230
1.0
 70
    11
 71
     3
 72
    17
 73
    13
 74
     0
 42
0.0000000001
 43
0.0000000001
 40
0.0
 40
0.0
 40
0.0
 40
0.0
 40
1.0
 40
1.0
 40
1.0
 40
2.0
 40
2.0
 40
2.0
 40
3.0
 40
3.0
 40
3.0
 40
4.0
 40
4.0
 40
4.0
 40
4.0
 10
95.10926782561504
 20
-149.2222438863055
 30
0.0
 10
95.10926782561504
 20
-149.2222438863055
 30
0.0
 10
94.40267874159031
 20
-149.2222438863055
 30
0.0
 10
94.40267874159031
 20
-149.2222438863055
 30
0.0
 10
94.40267874159031
 20
-149.2222438863055
 30
0.0
 10
94.40267874159031
 20
-149.3300753749938
 30
0.0
 10
94.40267874159031
 20
-149.3300753749938
 30
0.0
 10
94.40267874159031
 20
-149.3300753749938
 30
0.0
 10
95.10926782561504
 20
-149.3300753749938
 30
0.0
 10
95.10926782561504
 20
-149.3300753749938
 30
0.0
 10
95.10926782561504
 20
-149.3300753749938
 30
0.0
 10
95.10926782561504
 20
-149.2222438863055
 30
0.0
 10
95.10926782561504
 20
-149.2222438863055
 30
0.0
  0
SPLINE
  5
F9
330
EE
100
AcDbEntity
  8
レイヤー 1
100
AcDbSpline
210
0.0
220
0.0
230
1.0
 70
     9
 71
     3
 72
   203
 73
   199
 74
     0
 42
0.0000000001
 43
0.0000000001
 40
0.0
 40
0.0
 40
0.0
 40
0.0
 40
1.0
 40
1.0
 40
1.0
 40
2.0
 40
2.0
 40
2.0
 40
3.0
 40
3.0
 40
3.0
 40
4.0
 40
4.0
 40
4.0
 40
5.0
 40
5.0
 40
5.0
 40
6.0
 40
6.0
 40
6.0
 40
7.0
 40
7.0
 40
7.0
 40
8.0
 40
8.0
 40
8.0
 40
9.0
 40
9.0
 40
9.0
 40
10.0
 40
10.0
 40
10.0
 40
11.0
 40
11.0
 40
11.0
 40
12.0
 40
12.0
 40
12.0
 40
13.0
 40
13.0
 40
13.0
 40
14.0
 40
14.0
 40
14.0
 40
15.0
 40
15.0
 40
15.0
 40
16.0
 40
16.0
 40
16.0
 40
17.0
 40
17.0
 40
17.0
 40
18.0
 40
18.0
 40
18.0
 40
19.0
 40
19.0
 40
19.0
 40
20.0
 40
20.0
 40
20.0
 40
21.0
 40
21.0
 40
21.0
 40
22.0
 40
22.0
 40
22.0
 40
23.0
 40
23.0
 40
23.0
 40
24.0
 40
24.0
 40
24.0
 40
25.0
 40
25.0
 40
25.0
 40
26.0
 40
26.0
 40
26.0
 40
27.0
 40
27.0
 40
27.0
 40
28.0
 40
28.0
 40
28.0
 40
29.0
 40
29.0
 40
29.0
 40
30.0
 40
30.0
 40
30.0
 40
31.0
 40
31.0
 40
31.0
 40
32.0
 40
32.0
 40
32.0
 40
33.0
 40
33.0
 40
33.0
 40
34.0
 40
34.0
 40
34.0
 40
35.0
 40
35.0
 40
35.0
 40
36.0
 40
36.0
 40
36.0
 40
37.0
 40
37.0
 40
37.0
 40
38.0
 40
38.0
 40
38.0
 40
39.0
 40
39.0
 40
39.0
 40
40.0
 40
40.0
 40
40.0
 40
41.0
 40
41.0
 40
41.0
 40
42.0
 40
42.0
 40
42.0
 40
43.0
 40
43.0
 40
43.0
 40
44.0
 40
44.0
 40
44.0
 40
45.0
 40
45.0
 40
45.0
 40
46.0
 40
46.0
 40
46.0
 40
47.0
 40
47.0
 40
47.0
 40
48.0
 40
48.0
 40
48.0
 40
49.0
 40
49.0
 40
49.0
 40
50.0
 40
50.0
 40
50.0
 40
51.0
 40
51.0
 40
51.0
 40
52.0
 40
52.0
 40
52.0
 40
53.0
 40
53.0
 40
53.0
 40
54.0
 40
54.0
 40
54.0
 40
55.0
 40
55.0
 40
55.0
 40
56.0
 40
56.0
 40
56.0
 40
57.0
 40
57.0
 40
57.0
 40
58.0
 40
58.0
 40
58.0
 40
59.0
 40
59.0
 40
59.0
 40
60.0
 40
60.0
 40
60.0
 40
61.0
 40
61.0
 40
61.0
 40
62.0
 40
62.0
 40
62.0
 40
63.0
 40
63.0
 40
63.0
 40
64.0
 40
64.0
 40
64.0
 40
65.0
 40
65.0
 40
65.0
 40
66.0
 40
66.0
 40
66.0
 40
66.0
 10
94.94424775187159
 20
-148.9662732917515
 30
0.0
 10
94.94424775187159
 20
-148.9662732917515
 30
0.0
 10
94.38579777371257
 20
-148.9662732917515
 30
0.0
 10
94.38579777371257
 20
-148.9662732917515
 30
0.0
 10
94.37511797770831
 20
-149.0107150235112
 30
0.0
 10
94.36667749376944
 20
-149.0424099019755
 30
0.0
 10
94.35410289524829
 20
-149.0806504618618
 30
0.0
 10
94.37942434706487
 20
-149.0806504618618
 30
0.0
 10
94.39423825765144
 20
-149.0827175191529
 30
0.0
 10
94.40061168429915
 20
-149.0827175191529
 30
0.0
 10
94.40061168429915
 20
-149.0827175191529
 30
0.0
 10
94.58888615256807
 20
-149.0827175191529
 30
0.0
 10
94.58888615256807
 20
-149.0827175191529
 30
0.0
 10
94.58888615256807
 20
-149.0827175191529
 30
0.0
 10
94.96336803181472
 20
-149.0827175191529
 30
0.0
 10
94.96336803181472
 20
-149.0827175191529
 30
0.0
 10
95.01401093544789
 20
-149.0827175191529
 30
0.0
 10
95.29754229388395
 20
-149.0699706658575
 30
0.0
 10
95.32923717234826
 20
-149.0699706658575
 30
0.0
 10
95.3271701150571
 20
-149.0975314297395
 30
0.0
 10
95.32510305776595
 20
-149.1164794549083
 30
0.0
 10
95.32510305776595
 20
-149.1461072760815
 30
0.0
 10
95.32286374570054
 20
-149.1778021545458
 30
0.0
 10
95.32286374570054
 20
-149.3131944071161
 30
0.0
 10
95.32286374570054
 20
-149.3407551709981
 30
0.0
 10
95.32286374570054
 20
-149.3407551709981
 30
0.0
 10
95.32286374570054
 20
-149.5860459695479
 30
0.0
 10
95.32286374570054
 20
-149.5860459695479
 30
0.0
 10
95.32286374570054
 20
-149.6304877013076
 30
0.0
 10
95.3271701150571
 20
-149.8272026535154
 30
0.0
 10
95.33147648441365
 20
-149.9794758739635
 30
0.0
 10
95.33147648441365
 20
-149.9794758739635
 30
0.0
 10
95.10496145625848
 20
-149.9794758739635
 30
0.0
 10
95.10496145625848
 20
-149.9794758739635
 30
0.0
 10
95.10496145625848
 20
-149.9794758739635
 30
0.0
 10
95.1072007683239
 20
-149.945713938208
 30
0.0
 10
95.1072007683239
 20
-149.945713938208
 30
0.0
 10
95.1072007683239
 20
-149.945713938208
 30
0.0
 10
94.40474579888144
 20
-149.945713938208
 30
0.0
 10
94.40474579888144
 20
-149.945713938208
 30
0.0
 10
94.40474579888144
 20
-149.945713938208
 30
0.0
 10
94.40698511094685
 20
-149.9794758739635
 30
0.0
 10
94.40698511094685
 20
-149.9794758739635
 30
0.0
 10
94.40698511094685
 20
-149.9794758739635
 30
0.0
 10
94.1890828215048
 20
-149.9794758739635
 30
0.0
 10
94.1890828215048
 20
-149.9794758739635
 30
0.0
 10
94.19321693608711
 20
-149.924698855748
 30
0.0
 10
94.19321693608711
 20
-149.9119520024525
 30
0.0
 10
94.19959036273482
 20
-149.7975748323423
 30
0.0
 10
94.20165742002598
 20
-149.7700140684603
 30
0.0
 10
94.2038967320914
 20
-149.6370333827296
 30
0.0
 10
94.2038967320914
 20
-149.6177408480122
 30
0.0
 10
94.2038967320914
 20
-149.6177408480122
 30
0.0
 10
94.2038967320914
 20
-149.414824723931
 30
0.0
 10
94.2038967320914
 20
-149.414824723931
 30
0.0
 10
94.06419811016451
 20
-149.6642496370631
 30
0.0
 10
93.89504392183875
 20
-149.7955077750511
 30
0.0
 10
93.78927949044157
 20
-149.8609645892708
 30
0.0
 10
93.78927949044157
 20
-149.8609645892708
 30
0.0
 10
93.61564667798498
 20
-149.7214382221182
 30
0.0
 10
93.61564667798498
 20
-149.7214382221182
 30
0.0
 10
93.70453014150442
 20
-149.6707953184851
 30
0.0
 10
93.84836287801361
 20
-149.5839789122568
 30
0.0
 10
93.98599444264934
 20
-149.3893310173401
 30
0.0
 10
94.07694496345994
 20
-149.262551503483
 30
0.0
 10
94.14257403245395
 20
-149.1185465121995
 30
0.0
 10
94.17633596820939
 20
-148.9662732917515
 30
0.0
 10
93.94792613753732
 20
-148.9683403490426
 30
0.0
 10
93.76809215320729
 20
-148.9748860304646
 30
0.0
 10
93.67283526304012
 20
-148.9769530877557
 30
0.0
 10
93.67283526304012
 20
-148.9769530877557
 30
0.0
 10
93.67283526304012
 20
-148.7990139059426
 30
0.0
 10
93.67283526304012
 20
-148.7990139059426
 30
0.0
 10
93.86955021524789
 20
-148.8053873325903
 30
0.0
 10
94.15308157368396
 20
-148.8096937019468
 30
0.0
 10
94.30328773684085
 20
-148.8096937019468
 30
0.0
 10
94.30328773684085
 20
-148.8096937019468
 30
0.0
 10
94.51688365692634
 20
-148.8096937019468
 30
0.0
 10
94.51688365692634
 20
-148.8096937019468
 30
0.0
 10
94.51688365692634
 20
-148.8096937019468
 30
0.0
 10
94.51688365692634
 20
-148.7016899584843
 30
0.0
 10
94.51688365692634
 20
-148.7016899584843
 30
0.0
 10
94.51688365692634
 20
-148.7016899584843
 30
0.0
 10
94.37098386312602
 20
-148.7016899584843
 30
0.0
 10
94.37098386312602
 20
-148.7016899584843
 30
0.0
 10
94.20165742002598
 20
-148.7016899584843
 30
0.0
 10
94.03250323170022
 20
-148.7059963278408
 30
0.0
 10
93.8654161006656
 20
-148.7123697544886
 30
0.0
 10
93.8654161006656
 20
-148.7123697544886
 30
0.0
 10
93.8654161006656
 20
-148.5409762540974
 30
0.0
 10
93.8654161006656
 20
-148.5409762540974
 30
0.0
 10
94.01975637840479
 20
-148.5514837953274
 30
0.0
 10
94.20596378938254
 20
-148.5514837953274
 30
0.0
 10
94.37098386312602
 20
-148.5514837953274
 30
0.0
 10
94.37098386312602
 20
-148.5514837953274
 30
0.0
 10
94.51688365692634
 20
-148.5514837953274
 30
0.0
 10
94.51688365692634
 20
-148.5514837953274
 30
0.0
 10
94.51688365692634
 20
-148.5514837953274
 30
0.0
 10
94.51688365692634
 20
-148.433144765409
 30
0.0
 10
94.51688365692634
 20
-148.433144765409
 30
0.0
 10
94.51688365692634
 20
-148.433144765409
 30
0.0
 10
94.38579777371257
 20
-148.433144765409
 30
0.0
 10
94.38579777371257
 20
-148.433144765409
 30
0.0
 10
94.3392889846617
 20
-148.433144765409
 30
0.0
 10
94.13620060580624
 20
-148.4415852493479
 30
0.0
 10
94.09382593133766
 20
-148.4415852493479
 30
0.0
 10
93.89073755248217
 20
-148.4457193639302
 30
0.0
 10
93.81460094225815
 20
-148.4477864212214
 30
0.0
 10
93.73639727474298
 20
-148.4500257332868
 30
0.0
 10
93.73639727474298
 20
-148.4500257332868
 30
0.0
 10
93.73639727474298
 20
-148.2658853796002
 30
0.0
 10
93.73639727474298
 20
-148.2658853796002
 30
0.0
 10
93.85060219007902
 20
-148.2743258635391
 30
0.0
 10
93.89504392183875
 20
-148.2743258635391
 30
0.0
 10
94.27796628502425
 20
-148.2829386022522
 30
0.0
 10
94.21440427332141
 20
-148.187681712085
 30
0.0
 10
94.18684350943939
 20
-148.160120948203
 30
0.0
 10
94.1510145163928
 20
-148.1241197003821
 30
0.0
 10
94.1510145163928
 20
-148.1241197003821
 30
0.0
 10
94.32654213136627
 20
-148.0416096635104
 30
0.0
 10
94.32654213136627
 20
-148.0416096635104
 30
0.0
 10
94.36667749376944
 20
-148.0776109113313
 30
0.0
 10
94.41111922552916
 20
-148.1199855857998
 30
0.0
 10
94.48518877846204
 20
-148.2298841317793
 30
0.0
 10
94.48518877846204
 20
-148.2298841317793
 30
0.0
 10
94.37098386312602
 20
-148.2850056595433
 30
0.0
 10
94.37098386312602
 20
-148.2850056595433
 30
0.0
 10
94.37098386312602
 20
-148.2850056595433
 30
0.0
 10
94.38149140435603
 20
-148.2850056595433
 30
0.0
 10
94.38149140435603
 20
-148.2850056595433
 30
0.0
 10
94.38149140435603
 20
-148.2850056595433
 30
0.0
 10
94.90411238946842
 20
-148.2850056595433
 30
0.0
 10
94.90411238946842
 20
-148.2850056595433
 30
0.0
 10
94.90411238946842
 20
-148.2850056595433
 30
0.0
 10
94.80885549930126
 20
-148.2405639277836
 30
0.0
 10
94.80885549930126
 20
-148.2405639277836
 30
0.0
 10
94.83641626318327
 20
-148.2024956226716
 30
0.0
 10
94.89343259346414
 20
-148.122052643091
 30
0.0
 10
94.90824650405071
 20
-148.0479830901581
 30
0.0
 10
94.90824650405071
 20
-148.0479830901581
 30
0.0
 10
95.12201467891047
 20
-148.111545101861
 30
0.0
 10
95.12201467891047
 20
-148.111545101861
 30
0.0
 10
95.13045516284933
 20
-148.1136121591521
 30
0.0
 10
95.15164250008362
 20
-148.1241197003821
 30
0.0
 10
95.15164250008362
 20
-148.1453070376164
 30
0.0
 10
95.15164250008362
 20
-148.1833753427284
 30
0.0
 10
95.08601343108962
 20
-148.1833753427284
 30
0.0
 10
95.06689315114646
 20
-148.1833753427284
 30
0.0
 10
95.05638560991647
 20
-148.2024956226716
 30
0.0
 10
95.03313121539102
 20
-148.2426309850747
 30
0.0
 10
95.00350339421787
 20
-148.2829386022522
 30
0.0
 10
95.40330672528112
 20
-148.2765651756045
 30
0.0
 10
95.43293454645427
 20
-148.2743258635391
 30
0.0
 10
95.50907115667829
 20
-148.2681246916656
 30
0.0
 10
95.50907115667829
 20
-148.2681246916656
 30
0.0
 10
95.50907115667829
 20
-148.4500257332868
 30
0.0
 10
95.50907115667829
 20
-148.4500257332868
 30
0.0
 10
95.49012313150942
 20
-148.4500257332868
 30
0.0
 10
95.46462942491857
 20
-148.4477864212214
 30
0.0
 10
95.24466007818537
 20
-148.4393459372825
 30
0.0
 10
95.19384491977794
 20
-148.4372788799913
 30
0.0
 10
94.97387557304474
 20
-148.433144765409
 30
0.0
 10
94.929433841285
 20
-148.433144765409
 30
0.0
 10
94.929433841285
 20
-148.433144765409
 30
0.0
 10
94.71359860913411
 20
-148.433144765409
 30
0.0
 10
94.71359860913411
 20
-148.433144765409
 30
0.0
 10
94.71359860913411
 20
-148.433144765409
 30
0.0
 10
94.71359860913411
 20
-148.5514837953274
 30
0.0
 10
94.71359860913411
 20
-148.5514837953274
 30
0.0
 10
94.71359860913411
 20
-148.5514837953274
 30
0.0
 10
94.88705916681643
 20
-148.5514837953274
 30
0.0
 10
94.88705916681643
 20
-148.5514837953274
 30
0.0
 10
95.05001218326874
 20
-148.5514837953274
 30
0.0
 10
95.24035370882881
 20
-148.5514837953274
 30
0.0
 10
95.39693329863341
 20
-148.5409762540974
 30
0.0
 10
95.39693329863341
 20
-148.5409762540974
 30
0.0
 10
95.39693329863341
 20
-148.7123697544886
 30
0.0
 10
95.39693329863341
 20
-148.7123697544886
 30
0.0
 10
95.18747149313021
 20
-148.7039292705497
 30
0.0
 10
94.99075654092244
 20
-148.7016899584843
 30
0.0
 10
94.88705916681643
 20
-148.7016899584843
 30
0.0
 10
94.88705916681643
 20
-148.7016899584843
 30
0.0
 10
94.71359860913411
 20
-148.7016899584843
 30
0.0
 10
94.71359860913411
 20
-148.7016899584843
 30
0.0
 10
94.71359860913411
 20
-148.7016899584843
 30
0.0
 10
94.71359860913411
 20
-148.8096937019468
 30
0.0
 10
94.71359860913411
 20
-148.8096937019468
 30
0.0
 10
94.71359860913411
 20
-148.8096937019468
 30
0.0
 10
94.94424775187159
 20
-148.8096937019468
 30
0.0
 10
94.94424775187159
 20
-148.8096937019468
 30
0.0
 10
95.07757294715075
 20
-148.8096937019468
 30
0.0
 10
95.3652384201691
 20
-148.8053873325903
 30
0.0
 10
95.5747002256723
 20
-148.7990139059426
 30
0.0
 10
95.5747002256723
 20
-148.7990139059426
 30
0.0
 10
95.5747002256723
 20
-148.9769530877557
 30
0.0
 10
95.5747002256723
 20
-148.9769530877557
 30
0.0
 10
95.38211938804684
 20
-148.9704074063338
 30
0.0
 10
95.06913246321188
 20
-148.9662732917515
 30
0.0
 10
94.94424775187159
 20
-148.9662732917515
 30
0.0
  0
HATCH
  5
FA
330
EE
100
AcDbEntity
  8
レイヤー 1
 62
    18
420
        0
440
 33554687
100
AcDbHatch
 10
0.0
 20
0.0
 30
0.0
210
0.0
220
0.0
230
1.0
  2
SOLID
 70
     1
 71
     1
 91
        4
 92
        1
 93
        1
 72
     4
 94
        3
 73
     0
 74
     0
 95
       17
 96
       13
 40
0.0
 40
0.0
 40
0.0
 40
0.0
 40
1.0
 40
1.0
 40
1.0
 40
2.0
 40
2.0
 40
2.0
 40
3.0
 40
3.0
 40
3.0
 40
4.0
 40
4.0
 40
4.0
 40
4.0
 10
95.10926782561504
 20
-149.6983560823671
 10
95.10926782561504
 20
-149.6983560823671
 10
94.40267874159031
 20
-149.6983560823671
 10
94.40267874159031
 20
-149.6983560823671
 10
94.40267874159031
 20
-149.6983560823671
 10
94.40267874159031
 20
-149.8123887429288
 10
94.40267874159031
 20
-149.8123887429288
 10
94.40267874159031
 20
-149.8123887429288
 10
95.10926782561504
 20
-149.8123887429288
 10
95.10926782561504
 20
-149.8123887429288
 10
95.10926782561504
 20
-149.8123887429288
 10
95.10926782561504
 20
-149.6983560823671
 10
95.10926782561504
 20
-149.6983560823671
 97
        0
 97
        1
330
F6
 92
        1
 93
        1
 72
     4
 94
        3
 73
     0
 74
     0
 95
       17
 96
       13
 40
0.0
 40
0.0
 40
0.0
 40
0.0
 40
1.0
 40
1.0
 40
1.0
 40
2.0
 40
2.0
 40
2.0
 40
3.0
 40
3.0
 40
3.0
 40
4.0
 40
4.0
 40
4.0
 40
4.0
 10
95.10926782561504
 20
-149.4547878315599
 10
95.10926782561504
 20
-149.4547878315599
 10
94.40267874159031
 20
-149.4547878315599
 10
94.40267874159031
 20
-149.4547878315599
 10
94.40267874159031
 20
-149.4547878315599
 10
94.40267874159031
 20
-149.5691650016702
 10
94.40267874159031
 20
-149.5691650016702
 10
94.40267874159031
 20
-149.5691650016702
 10
95.10926782561504
 20
-149.5691650016702
 10
95.10926782561504
 20
-149.5691650016702
 10
95.10926782561504
 20
-149.5691650016702
 10
95.10926782561504
 20
-149.4547878315599
 10
95.10926782561504
 20
-149.4547878315599
 97
        0
 97
        1
330
F7
 92
        1
 93
        1
 72
     4
 94
        3
 73
     0
 74
     0
 95
       17
 96
       13
 40
0.0
 40
0.0
 40
0.0
 40
0.0
 40
1.0
 40
1.0
 40
1.0
 40
2.0
 40
2.0
 40
2.0
 40
3.0
 40
3.0
 40
3.0
 40
4.0
 40
4.0
 40
4.0
 40
4.0
 10
95.10926782561504
 20
-149.2222438863055
 10
95.10926782561504
 20
-149.2222438863055
 10
94.40267874159031
 20
-149.2222438863055
 10
94.40267874159031
 20
-149.2222438863055
 10
94.40267874159031
 20
-149.2222438863055
 10
94.40267874159031
 20
-149.3300753749938
 10
94.40267874159031
 20
-149.3300753749938
 10
94.40267874159031
 20
-149.3300753749938
 10
95.10926782561504
 20
-149.3300753749938
 10
95.10926782561504
 20
-149.3300753749938
 10
95.10926782561504
 20
-149.3300753749938
 10
95.10926782561504
 20
-149.2222438863055
 10
95.10926782561504
 20
-149.2222438863055
 97
        0
 97
        1
330
F8
 92
        1
 93
        1
 72
     4
 94
        3
 73
     0
 74
     0
 95
      203
 96
      199
 40
0.0
 40
0.0
 40
0.0
 40
0.0
 40
1.0
 40
1.0
 40
1.0
 40
2.0
 40
2.0
 40
2.0
 40
3.0
 40
3.0
 40
3.0
 40
4.0
 40
4.0
 40
4.0
 40
5.0
 40
5.0
 40
5.0
 40
6.0
 40
6.0
 40
6.0
 40
7.0
 40
7.0
 40
7.0
 40
8.0
 40
8.0
 40
8.0
 40
9.0
 40
9.0
 40
9.0
 40
10.0
 40
10.0
 40
10.0
 40
11.0
 40
11.0
 40
11.0
 40
12.0
 40
12.0
 40
12.0
 40
13.0
 40
13.0
 40
13.0
 40
14.0
 40
14.0
 40
14.0
 40
15.0
 40
15.0
 40
15.0
 40
16.0
 40
16.0
 40
16.0
 40
17.0
 40
17.0
 40
17.0
 40
18.0
 40
18.0
 40
18.0
 40
19.0
 40
19.0
 40
19.0
 40
20.0
 40
20.0
 40
20.0
 40
21.0
 40
21.0
 40
21.0
 40
22.0
 40
22.0
 40
22.0
 40
23.0
 40
23.0
 40
23.0
 40
24.0
 40
24.0
 40
24.0
 40
25.0
 40
25.0
 40
25.0
 40
26.0
 40
26.0
 40
26.0
 40
27.0
 40
27.0
 40
27.0
 40
28.0
 40
28.0
 40
28.0
 40
29.0
 40
29.0
 40
29.0
 40
30.0
 40
30.0
 40
30.0
 40
31.0
 40
31.0
 40
31.0
 40
32.0
 40
32.0
 40
32.0
 40
33.0
 40
33.0
 40
33.0
 40
34.0
 40
34.0
 40
34.0
 40
35.0
 40
35.0
 40
35.0
 40
36.0
 40
36.0
 40
36.0
 40
37.0
 40
37.0
 40
37.0
 40
38.0
 40
38.0
 40
38.0
 40
39.0
 40
39.0
 40
39.0
 40
40.0
 40
40.0
 40
40.0
 40
41.0
 40
41.0
 40
41.0
 40
42.0
 40
42.0
 40
42.0
 40
43.0
 40
43.0
 40
43.0
 40
44.0
 40
44.0
 40
44.0
 40
45.0
 40
45.0
 40
45.0
 40
46.0
 40
46.0
 40
46.0
 40
47.0
 40
47.0
 40
47.0
 40
48.0
 40
48.0
 40
48.0
 40
49.0
 40
49.0
 40
49.0
 40
50.0
 40
50.0
 40
50.0
 40
51.0
 40
51.0
 40
51.0
 40
52.0
 40
52.0
 40
52.0
 40
53.0
 40
53.0
 40
53.0
 40
54.0
 40
54.0
 40
54.0
 40
55.0
 40
55.0
 40
55.0
 40
56.0
 40
56.0
 40
56.0
 40
57.0
 40
57.0
 40
57.0
 40
58.0
 40
58.0
 40
58.0
 40
59.0
 40
59.0
 40
59.0
 40
60.0
 40
60.0
 40
60.0
 40
61.0
 40
61.0
 40
61.0
 40
62.0
 40
62.0
 40
62.0
 40
63.0
 40
63.0
 40
63.0
 40
64.0
 40
64.0
 40
64.0
 40
65.0
 40
65.0
 40
65.0
 40
66.0
 40
66.0
 40
66.0
 40
66.0
 10
94.94424775187159
 20
-148.9662732917515
 10
94.94424775187159
 20
-148.9662732917515
 10
94.38579777371257
 20
-148.9662732917515
 10
94.38579777371257
 20
-148.9662732917515
 10
94.37511797770831
 20
-149.0107150235112
 10
94.36667749376944
 20
-149.0424099019755
 10
94.35410289524829
 20
-149.0806504618618
 10
94.37942434706487
 20
-149.0806504618618
 10
94.39423825765144
 20
-149.0827175191529
 10
94.40061168429915
 20
-149.0827175191529
 10
94.40061168429915
 20
-149.0827175191529
 10
94.58888615256807
 20
-149.0827175191529
 10
94.58888615256807
 20
-149.0827175191529
 10
94.58888615256807
 20
-149.0827175191529
 10
94.96336803181472
 20
-149.0827175191529
 10
94.96336803181472
 20
-149.0827175191529
 10
95.01401093544789
 20
-149.0827175191529
 10
95.29754229388395
 20
-149.0699706658575
 10
95.32923717234826
 20
-149.0699706658575
 10
95.3271701150571
 20
-149.0975314297395
 10
95.32510305776595
 20
-149.1164794549083
 10
95.32510305776595
 20
-149.1461072760815
 10
95.32286374570054
 20
-149.1778021545458
 10
95.32286374570054
 20
-149.3131944071161
 10
95.32286374570054
 20
-149.3407551709981
 10
95.32286374570054
 20
-149.3407551709981
 10
95.32286374570054
 20
-149.5860459695479
 10
95.32286374570054
 20
-149.5860459695479
 10
95.32286374570054
 20
-149.6304877013076
 10
95.3271701150571
 20
-149.8272026535154
 10
95.33147648441365
 20
-149.9794758739635
 10
95.33147648441365
 20
-149.9794758739635
 10
95.10496145625848
 20
-149.9794758739635
 10
95.10496145625848
 20
-149.9794758739635
 10
95.10496145625848
 20
-149.9794758739635
 10
95.1072007683239
 20
-149.945713938208
 10
95.1072007683239
 20
-149.945713938208
 10
95.1072007683239
 20
-149.945713938208
 10
94.40474579888144
 20
-149.945713938208
 10
94.40474579888144
 20
-149.945713938208
 10
94.40474579888144
 20
-149.945713938208
 10
94.40698511094685
 20
-149.9794758739635
 10
94.40698511094685
 20
-149.9794758739635
 10
94.40698511094685
 20
-149.9794758739635
 10
94.1890828215048
 20
-149.9794758739635
 10
94.1890828215048
 20
-149.9794758739635
 10
94.19321693608711
 20
-149.924698855748
 10
94.19321693608711
 20
-149.9119520024525
 10
94.19959036273482
 20
-149.7975748323423
 10
94.20165742002598
 20
-149.7700140684603
 10
94.2038967320914
 20
-149.6370333827296
 10
94.2038967320914
 20
-149.6177408480122
 10
94.2038967320914
 20
-149.6177408480122
 10
94.2038967320914
 20
-149.414824723931
 10
94.2038967320914
 20
-149.414824723931
 10
94.06419811016451
 20
-149.6642496370631
 10
93.89504392183875
 20
-149.7955077750511
 10
93.78927949044157
 20
-149.8609645892708
 10
93.78927949044157
 20
-149.8609645892708
 10
93.61564667798498
 20
-149.7214382221182
 10
93.61564667798498
 20
-149.7214382221182
 10
93.70453014150442
 20
-149.6707953184851
 10
93.84836287801361
 20
-149.5839789122568
 10
93.98599444264934
 20
-149.3893310173401
 10
94.07694496345994
 20
-149.262551503483
 10
94.14257403245395
 20
-149.1185465121995
 10
94.17633596820939
 20
-148.9662732917515
 10
93.94792613753732
 20
-148.9683403490426
 10
93.76809215320729
 20
-148.9748860304646
 10
93.67283526304012
 20
-148.9769530877557
 10
93.67283526304012
 20
-148.9769530877557
 10
93.67283526304012
 20
-148.7990139059426
 10
93.67283526304012
 20
-148.7990139059426
 10
93.86955021524789
 20
-148.8053873325903
 10
94.15308157368396
 20
-148.8096937019468
 10
94.30328773684085
 20
-148.8096937019468
 10
94.30328773684085
 20
-148.8096937019468
 10
94.51688365692634
 20
-148.8096937019468
 10
94.51688365692634
 20
-148.8096937019468
 10
94.51688365692634
 20
-148.8096937019468
 10
94.51688365692634
 20
-148.7016899584843
 10
94.51688365692634
 20
-148.7016899584843
 10
94.51688365692634
 20
-148.7016899584843
 10
94.37098386312602
 20
-148.7016899584843
 10
94.37098386312602
 20
-148.7016899584843
 10
94.20165742002598
 20
-148.7016899584843
 10
94.03250323170022
 20
-148.7059963278408
 10
93.8654161006656
 20
-148.7123697544886
 10
93.8654161006656
 20
-148.7123697544886
 10
93.8654161006656
 20
-148.5409762540974
 10
93.8654161006656
 20
-148.5409762540974
 10
94.01975637840479
 20
-148.5514837953274
 10
94.20596378938254
 20
-148.5514837953274
 10
94.37098386312602
 20
-148.5514837953274
 10
94.37098386312602
 20
-148.5514837953274
 10
94.51688365692634
 20
-148.5514837953274
 10
94.51688365692634
 20
-148.5514837953274
 10
94.51688365692634
 20
-148.5514837953274
 10
94.51688365692634
 20
-148.433144765409
 10
94.51688365692634
 20
-148.433144765409
 10
94.51688365692634
 20
-148.433144765409
 10
94.38579777371257
 20
-148.433144765409
 10
94.38579777371257
 20
-148.433144765409
 10
94.3392889846617
 20
-148.433144765409
 10
94.13620060580624
 20
-148.4415852493479
 10
94.09382593133766
 20
-148.4415852493479
 10
93.89073755248217
 20
-148.4457193639302
 10
93.81460094225815
 20
-148.4477864212214
 10
93.73639727474298
 20
-148.4500257332868
 10
93.73639727474298
 20
-148.4500257332868
 10
93.73639727474298
 20
-148.2658853796002
 10
93.73639727474298
 20
-148.2658853796002
 10
93.85060219007902
 20
-148.2743258635391
 10
93.89504392183875
 20
-148.2743258635391
 10
94.27796628502425
 20
-148.2829386022522
 10
94.21440427332141
 20
-148.187681712085
 10
94.18684350943939
 20
-148.160120948203
 10
94.1510145163928
 20
-148.1241197003821
 10
94.1510145163928
 20
-148.1241197003821
 10
94.32654213136627
 20
-148.0416096635104
 10
94.32654213136627
 20
-148.0416096635104
 10
94.36667749376944
 20
-148.0776109113313
 10
94.41111922552916
 20
-148.1199855857998
 10
94.48518877846204
 20
-148.2298841317793
 10
94.48518877846204
 20
-148.2298841317793
 10
94.37098386312602
 20
-148.2850056595433
 10
94.37098386312602
 20
-148.2850056595433
 10
94.37098386312602
 20
-148.2850056595433
 10
94.38149140435603
 20
-148.2850056595433
 10
94.38149140435603
 20
-148.2850056595433
 10
94.38149140435603
 20
-148.2850056595433
 10
94.90411238946842
 20
-148.2850056595433
 10
94.90411238946842
 20
-148.2850056595433
 10
94.90411238946842
 20
-148.2850056595433
 10
94.80885549930126
 20
-148.2405639277836
 10
94.80885549930126
 20
-148.2405639277836
 10
94.83641626318327
 20
-148.2024956226716
 10
94.89343259346414
 20
-148.122052643091
 10
94.90824650405071
 20
-148.0479830901581
 10
94.90824650405071
 20
-148.0479830901581
 10
95.12201467891047
 20
-148.111545101861
 10
95.12201467891047
 20
-148.111545101861
 10
95.13045516284933
 20
-148.1136121591521
 10
95.15164250008362
 20
-148.1241197003821
 10
95.15164250008362
 20
-148.1453070376164
 10
95.15164250008362
 20
-148.1833753427284
 10
95.08601343108962
 20
-148.1833753427284
 10
95.06689315114646
 20
-148.1833753427284
 10
95.05638560991647
 20
-148.2024956226716
 10
95.03313121539102
 20
-148.2426309850747
 10
95.00350339421787
 20
-148.2829386022522
 10
95.40330672528112
 20
-148.2765651756045
 10
95.43293454645427
 20
-148.2743258635391
 10
95.50907115667829
 20
-148.2681246916656
 10
95.50907115667829
 20
-148.2681246916656
 10
95.50907115667829
 20
-148.4500257332868
 10
95.50907115667829
 20
-148.4500257332868
 10
95.49012313150942
 20
-148.4500257332868
 10
95.46462942491857
 20
-148.4477864212214
 10
95.24466007818537
 20
-148.4393459372825
 10
95.19384491977794
 20
-148.4372788799913
 10
94.97387557304474
 20
-148.433144765409
 10
94.929433841285
 20
-148.433144765409
 10
94.929433841285
 20
-148.433144765409
 10
94.71359860913411
 20
-148.433144765409
 10
94.71359860913411
 20
-148.433144765409
 10
94.71359860913411
 20
-148.433144765409
 10
94.71359860913411
 20
-148.5514837953274
 10
94.71359860913411
 20
-148.5514837953274
 10
94.71359860913411
 20
-148.5514837953274
 10
94.88705916681643
 20
-148.5514837953274
 10
94.88705916681643
 20
-148.5514837953274
 10
95.05001218326874
 20
-148.5514837953274
 10
95.24035370882881
 20
-148.5514837953274
 10
95.39693329863341
 20
-148.5409762540974
 10
95.39693329863341
 20
-148.5409762540974
 10
95.39693329863341
 20
-148.7123697544886
 10
95.39693329863341
 20
-148.7123697544886
 10
95.18747149313021
 20
-148.7039292705497
 10
94.99075654092244
 20
-148.7016899584843
 10
94.88705916681643
 20
-148.7016899584843
 10
94.88705916681643
 20
-148.7016899584843
 10
94.71359860913411
 20
-148.7016899584843
 10
94.71359860913411
 20
-148.7016899584843
 10
94.71359860913411
 20
-148.7016899584843
 10
94.71359860913411
 20
-148.8096937019468
 10
94.71359860913411
 20
-148.8096937019468
 10
94.71359860913411
 20
-148.8096937019468
 10
94.94424775187159
 20
-148.8096937019468
 10
94.94424775187159
 20
-148.8096937019468
 10
95.07757294715075
 20
-148.8096937019468
 10
95.3652384201691
 20
-148.8053873325903
 10
95.5747002256723
 20
-148.7990139059426
 10
95.5747002256723
 20
-148.7990139059426
 10
95.5747002256723
 20
-148.9769530877557
 10
95.5747002256723
 20
-148.9769530877557
 10
95.38211938804684
 20
-148.9704074063338
 10
95.06913246321188
 20
-148.9662732917515
 10
94.94424775187159
 20
-148.9662732917515
 97
        0
 97
        1
330
F9
 75
     2
 76
     1
 98
        1
 10
0.0
 20
0.0
450
        0
451
        0
460
0.0
461
0.0
452
        0
462
0.0
453
        0
470

  0
SPLINE
  5
FB
330
EE
100
AcDbEntity
  8
レイヤー 1
100
AcDbSpline
210
0.0
220
0.0
230
1.0
 70
     9
 71
     3
 72
    29
 73
    25
 74
     0
 42
0.0000000001
 43
0.0000000001
 40
0.0
 40
0.0
 40
0.0
 40
0.0
 40
1.0
 40
1.0
 40
1.0
 40
2.0
 40
2.0
 40
2.0
 40
3.0
 40
3.0
 40
3.0
 40
4.0
 40
4.0
 40
4.0
 40
5.0
 40
5.0
 40
5.0
 40
6.0
 40
6.0
 40
6.0
 40
7.0
 40
7.0
 40
7.0
 40
8.0
 40
8.0
 40
8.0
 40
8.0
 10
96.81975773404159
 20
-148.4140244854659
 30
0.0
 10
96.81975773404159
 20
-148.4140244854659
 30
0.0
 10
96.46646319202922
 20
-148.4140244854659
 30
0.0
 10
96.46646319202922
 20
-148.4140244854659
 30
0.0
 10
96.35432533398434
 20
-148.4140244854659
 30
0.0
 10
96.21479896683172
 20
-148.4203979121136
 30
0.0
 10
96.10679522336914
 20
-148.433144765409
 30
0.0
 10
96.10679522336914
 20
-148.433144765409
 30
0.0
 10
96.10679522336914
 20
-148.198189253315
 30
0.0
 10
96.10679522336914
 20
-148.198189253315
 30
0.0
 10
96.22530650806174
 20
-148.2130031639016
 30
0.0
 10
96.40927460697408
 20
-148.2173095332582
 30
0.0
 10
96.46646319202922
 20
-148.2173095332582
 30
0.0
 10
96.46646319202922
 20
-148.2173095332582
 30
0.0
 10
96.81975773404159
 20
-148.2173095332582
 30
0.0
 10
96.81975773404159
 20
-148.2173095332582
 30
0.0
 10
96.83870575921048
 20
-148.2173095332582
 30
0.0
 10
97.0419663928402
 20
-148.2173095332582
 30
0.0
 10
97.18355981728398
 20
-148.198189253315
 30
0.0
 10
97.18355981728398
 20
-148.198189253315
 30
0.0
 10
97.18355981728398
 20
-148.433144765409
 30
0.0
 10
97.18355981728398
 20
-148.433144765409
 30
0.0
 10
97.02715248225363
 20
-148.4140244854659
 30
0.0
 10
96.83663870191931
 20
-148.4140244854659
 30
0.0
 10
96.81975773404159
 20
-148.4140244854659
 30
0.0
  0
SPLINE
  5
FC
330
EE
100
AcDbEntity
  8
レイヤー 1
100
AcDbSpline
210
0.0
220
0.0
230
1.0
 70
     9
 71
     3
 72
    47
 73
    43
 74
     0
 42
0.0000000001
 43
0.0000000001
 40
0.0
 40
0.0
 40
0.0
 40
0.0
 40
1.0
 40
1.0
 40
1.0
 40
2.0
 40
2.0
 40
2.0
 40
3.0
 40
3.0
 40
3.0
 40
4.0
 40
4.0
 40
4.0
 40
5.0
 40
5.0
 40
5.0
 40
6.0
 40
6.0
 40
6.0
 40
7.0
 40
7.0
 40
7.0
 40
8.0
 40
8.0
 40
8.0
 40
9.0
 40
9.0
 40
9.0
 40
10.0
 40
10.0
 40
10.0
 40
11.0
 40
11.0
 40
11.0
 40
12.0
 40
12.0
 40
12.0
 40
13.0
 40
13.0
 40
13.0
 40
14.0
 40
14.0
 40
14.0
 40
14.0
 10
96.92121579608219
 20
-148.9428466424518
 30
0.0
 10
96.92121579608219
 20
-148.9428466424518
 30
0.0
 10
96.81975773404159
 20
-148.9428466424518
 30
0.0
 10
96.81975773404159
 20
-148.9428466424518
 30
0.0
 10
96.81975773404159
 20
-149.0296630486801
 30
0.0
 10
96.79857039680731
 20
-149.4189588385133
 30
0.0
 10
96.60185544459954
 20
-149.6391004400208
 30
0.0
 10
96.4495822241515
 20
-149.8082546283465
 30
0.0
 10
96.24218747593946
 20
-149.8781900666971
 30
0.0
 10
96.15761038177659
 20
-149.9054063210306
 30
0.0
 10
96.15761038177659
 20
-149.9054063210306
 30
0.0
 10
95.96296248685996
 20
-149.738319189996
 30
0.0
 10
95.96296248685996
 20
-149.738319189996
 30
0.0
 10
96.06028643431827
 20
-149.7255723367005
 30
0.0
 10
96.23581404929176
 20
-149.7024901969494
 30
0.0
 10
96.42408851756066
 20
-149.5140434739062
 30
0.0
 10
96.49815807049352
 20
-149.442385487813
 30
0.0
 10
96.60185544459954
 20
-149.3025146111119
 30
0.0
 10
96.60185544459954
 20
-148.9428466424518
 30
0.0
 10
96.60185544459954
 20
-148.9428466424518
 30
0.0
 10
96.37120630186206
 20
-148.9428466424518
 30
0.0
 10
96.37120630186206
 20
-148.9428466424518
 30
0.0
 10
96.18517114565857
 20
-148.9428466424518
 30
0.0
 10
95.99896373468082
 20
-148.9473252665826
 30
0.0
 10
95.81275632370306
 20
-148.9621391771692
 30
0.0
 10
95.81275632370306
 20
-148.9621391771692
 30
0.0
 10
95.81275632370306
 20
-148.7419975756617
 30
0.0
 10
95.81275632370306
 20
-148.7419975756617
 30
0.0
 10
96.00103079197197
 20
-148.7568114862483
 30
0.0
 10
96.28662920769919
 20
-148.7609456008306
 30
0.0
 10
96.37120630186206
 20
-148.7609456008306
 30
0.0
 10
96.37120630186206
 20
-148.7609456008306
 30
0.0
 10
96.92121579608219
 20
-148.7609456008306
 30
0.0
 10
96.92121579608219
 20
-148.7609456008306
 30
0.0
 10
96.94033607602534
 20
-148.7609456008306
 30
0.0
 10
97.25762937021684
 20
-148.7609456008306
 30
0.0
 10
97.48621145566318
 20
-148.7419975756617
 30
0.0
 10
97.48621145566318
 20
-148.7419975756617
 30
0.0
 10
97.48621145566318
 20
-148.9621391771692
 30
0.0
 10
97.48621145566318
 20
-148.9621391771692
 30
0.0
 10
97.29793698739428
 20
-148.9473252665826
 30
0.0
 10
97.10949026435111
 20
-148.9428466424518
 30
0.0
 10
96.92121579608219
 20
-148.9428466424518
 30
0.0
  0
HATCH
  5
FD
330
EE
100
AcDbEntity
  8
レイヤー 1
 62
    18
420
        0
440
 33554687
100
AcDbHatch
 10
0.0
 20
0.0
 30
0.0
210
0.0
220
0.0
230
1.0
  2
SOLID
 70
     1
 71
     1
 91
        2
 92
        1
 93
        1
 72
     4
 94
        3
 73
     0
 74
     0
 95
       29
 96
       25
 40
0.0
 40
0.0
 40
0.0
 40
0.0
 40
1.0
 40
1.0
 40
1.0
 40
2.0
 40
2.0
 40
2.0
 40
3.0
 40
3.0
 40
3.0
 40
4.0
 40
4.0
 40
4.0
 40
5.0
 40
5.0
 40
5.0
 40
6.0
 40
6.0
 40
6.0
 40
7.0
 40
7.0
 40
7.0
 40
8.0
 40
8.0
 40
8.0
 40
8.0
 10
96.81975773404159
 20
-148.4140244854659
 10
96.81975773404159
 20
-148.4140244854659
 10
96.46646319202922
 20
-148.4140244854659
 10
96.46646319202922
 20
-148.4140244854659
 10
96.35432533398434
 20
-148.4140244854659
 10
96.21479896683172
 20
-148.4203979121136
 10
96.10679522336914
 20
-148.433144765409
 10
96.10679522336914
 20
-148.433144765409
 10
96.10679522336914
 20
-148.198189253315
 10
96.10679522336914
 20
-148.198189253315
 10
96.22530650806174
 20
-148.2130031639016
 10
96.40927460697408
 20
-148.2173095332582
 10
96.46646319202922
 20
-148.2173095332582
 10
96.46646319202922
 20
-148.2173095332582
 10
96.81975773404159
 20
-148.2173095332582
 10
96.81975773404159
 20
-148.2173095332582
 10
96.83870575921048
 20
-148.2173095332582
 10
97.0419663928402
 20
-148.2173095332582
 10
97.18355981728398
 20
-148.198189253315
 10
97.18355981728398
 20
-148.198189253315
 10
97.18355981728398
 20
-148.433144765409
 10
97.18355981728398
 20
-148.433144765409
 10
97.02715248225363
 20
-148.4140244854659
 10
96.83663870191931
 20
-148.4140244854659
 10
96.81975773404159
 20
-148.4140244854659
 97
        0
 97
        1
330
FB
 92
        1
 93
        1
 72
     4
 94
        3
 73
     0
 74
     0
 95
       47
 96
       43
 40
0.0
 40
0.0
 40
0.0
 40
0.0
 40
1.0
 40
1.0
 40
1.0
 40
2.0
 40
2.0
 40
2.0
 40
3.0
 40
3.0
 40
3.0
 40
4.0
 40
4.0
 40
4.0
 40
5.0
 40
5.0
 40
5.0
 40
6.0
 40
6.0
 40
6.0
 40
7.0
 40
7.0
 40
7.0
 40
8.0
 40
8.0
 40
8.0
 40
9.0
 40
9.0
 40
9.0
 40
10.0
 40
10.0
 40
10.0
 40
11.0
 40
11.0
 40
11.0
 40
12.0
 40
12.0
 40
12.0
 40
13.0
 40
13.0
 40
13.0
 40
14.0
 40
14.0
 40
14.0
 40
14.0
 10
96.92121579608219
 20
-148.9428466424518
 10
96.92121579608219
 20
-148.9428466424518
 10
96.81975773404159
 20
-148.9428466424518
 10
96.81975773404159
 20
-148.9428466424518
 10
96.81975773404159
 20
-149.0296630486801
 10
96.79857039680731
 20
-149.4189588385133
 10
96.60185544459954
 20
-149.6391004400208
 10
96.4495822241515
 20
-149.8082546283465
 10
96.24218747593946
 20
-149.8781900666971
 10
96.15761038177659
 20
-149.9054063210306
 10
96.15761038177659
 20
-149.9054063210306
 10
95.96296248685996
 20
-149.738319189996
 10
95.96296248685996
 20
-149.738319189996
 10
96.06028643431827
 20
-149.7255723367005
 10
96.23581404929176
 20
-149.7024901969494
 10
96.42408851756066
 20
-149.5140434739062
 10
96.49815807049352
 20
-149.442385487813
 10
96.60185544459954
 20
-149.3025146111119
 10
96.60185544459954
 20
-148.9428466424518
 10
96.60185544459954
 20
-148.9428466424518
 10
96.37120630186206
 20
-148.9428466424518
 10
96.37120630186206
 20
-148.9428466424518
 10
96.18517114565857
 20
-148.9428466424518
 10
95.99896373468082
 20
-148.9473252665826
 10
95.81275632370306
 20
-148.9621391771692
 10
95.81275632370306
 20
-148.9621391771692
 10
95.81275632370306
 20
-148.7419975756617
 10
95.81275632370306
 20
-148.7419975756617
 10
96.00103079197197
 20
-148.7568114862483
 10
96.28662920769919
 20
-148.7609456008306
 10
96.37120630186206
 20
-148.7609456008306
 10
96.37120630186206
 20
-148.7609456008306
 10
96.92121579608219
 20
-148.7609456008306
 10
96.92121579608219
 20
-148.7609456008306
 10
96.94033607602534
 20
-148.7609456008306
 10
97.25762937021684
 20
-148.7609456008306
 10
97.48621145566318
 20
-148.7419975756617
 10
97.48621145566318
 20
-148.7419975756617
 10
97.48621145566318
 20
-148.9621391771692
 10
97.48621145566318
 20
-148.9621391771692
 10
97.29793698739428
 20
-148.9473252665826
 10
97.10949026435111
 20
-148.9428466424518
 10
96.92121579608219
 20
-148.9428466424518
 97
        0
 97
        1
330
FC
 75
     2
 76
     1
 98
        1
 10
0.0
 20
0.0
450
        0
451
        0
460
0.0
461
0.0
452
        0
462
0.0
453
        0
470

  0
SPLINE
  5
FE
330
EE
100
AcDbEntity
  8
レイヤー 1
100
AcDbSpline
210
0.0
220
0.0
230
1.0
 70
     9
 71
     3
 72
    29
 73
    25
 74
     0
 42
0.0000000001
 43
0.0000000001
 40
0.0
 40
0.0
 40
0.0
 40
0.0
 40
1.0
 40
1.0
 40
1.0
 40
2.0
 40
2.0
 40
2.0
 40
3.0
 40
3.0
 40
3.0
 40
4.0
 40
4.0
 40
4.0
 40
5.0
 40
5.0
 40
5.0
 40
6.0
 40
6.0
 40
6.0
 40
7.0
 40
7.0
 40
7.0
 40
8.0
 40
8.0
 40
8.0
 40
8.0
 10
98.76709795707906
 20
-149.1057996589041
 30
0.0
 10
98.76709795707906
 20
-149.1057996589041
 30
0.0
 10
98.28271753185294
 20
-149.1057996589041
 30
0.0
 10
98.28271753185294
 20
-149.1057996589041
 30
0.0
 10
98.25515676797094
 20
-149.1057996589041
 30
0.0
 10
97.93786347377944
 20
-149.1057996589041
 30
0.0
 10
97.72633461098509
 20
-149.1312933654949
 30
0.0
 10
97.72633461098509
 20
-149.1312933654949
 30
0.0
 10
97.72633461098509
 20
-148.9008164775317
 30
0.0
 10
97.72633461098509
 20
-148.9008164775317
 30
0.0
 10
97.88498125808084
 20
-148.9238986172829
 30
0.0
 10
98.07532278364091
 20
-148.925965674574
 30
0.0
 10
98.28271753185294
 20
-148.925965674574
 30
0.0
 10
98.28271753185294
 20
-148.925965674574
 30
0.0
 10
98.76709795707906
 20
-148.925965674574
 30
0.0
 10
98.76709795707906
 20
-148.925965674574
 30
0.0
 10
98.95330536805682
 20
-148.925965674574
 30
0.0
 10
99.13951277903457
 20
-148.9238986172829
 30
0.0
 10
99.32348087794691
 20
-148.9008164775317
 30
0.0
 10
99.32348087794691
 20
-148.9008164775317
 30
0.0
 10
99.32348087794691
 20
-149.1312933654949
 30
0.0
 10
99.32348087794691
 20
-149.1312933654949
 30
0.0
 10
99.13951277903457
 20
-149.1078667161952
 30
0.0
 10
98.89198266841937
 20
-149.1057996589041
 30
0.0
 10
98.76709795707906
 20
-149.1057996589041
 30
0.0
  0
HATCH
  5
FF
330
EE
100
AcDbEntity
  8
レイヤー 1
 62
    18
420
        0
440
 33554687
100
AcDbHatch
 10
0.0
 20
0.0
 30
0.0
210
0.0
220
0.0
230
1.0
  2
SOLID
 70
     1
 71
     1
 91
        1
 92
        1
 93
        1
 72
     4
 94
        3
 73
     0
 74
     0
 95
       29
 96
       25
 40
0.0
 40
0.0
 40
0.0
 40
0.0
 40
1.0
 40
1.0
 40
1.0
 40
2.0
 40
2.0
 40
2.0
 40
3.0
 40
3.0
 40
3.0
 40
4.0
 40
4.0
 40
4.0
 40
5.0
 40
5.0
 40
5.0
 40
6.0
 40
6.0
 40
6.0
 40
7.0
 40
7.0
 40
7.0
 40
8.0
 40
8.0
 40
8.0
 40
8.0
 10
98.76709795707906
 20
-149.1057996589041
 10
98.76709795707906
 20
-149.1057996589041
 10
98.28271753185294
 20
-149.1057996589041
 10
98.28271753185294
 20
-149.1057996589041
 10
98.25515676797094
 20
-149.1057996589041
 10
97.93786347377944
 20
-149.1057996589041
 10
97.72633461098509
 20
-149.1312933654949
 10
97.72633461098509
 20
-149.1312933654949
 10
97.72633461098509
 20
-148.9008164775317
 10
97.72633461098509
 20
-148.9008164775317
 10
97.88498125808084
 20
-148.9238986172829
 10
98.07532278364091
 20
-148.925965674574
 10
98.28271753185294
 20
-148.925965674574
 10
98.28271753185294
 20
-148.925965674574
 10
98.76709795707906
 20
-148.925965674574
 10
98.76709795707906
 20
-148.925965674574
 10
98.95330536805682
 20
-148.925965674574
 10
99.13951277903457
 20
-148.9238986172829
 10
99.32348087794691
 20
-148.9008164775317
 10
99.32348087794691
 20
-148.9008164775317
 10
99.32348087794691
 20
-149.1312933654949
 10
99.32348087794691
 20
-149.1312933654949
 10
99.13951277903457
 20
-149.1078667161952
 10
98.89198266841937
 20
-149.1057996589041
 10
98.76709795707906
 20
-149.1057996589041
 97
        0
 97
        1
330
FE
 75
     2
 76
     1
 98
        1
 10
0.0
 20
0.0
450
        0
451
        0
460
0.0
461
0.0
452
        0
462
0.0
453
        0
470

  0
SPLINE
  5
100
330
EE
100
AcDbEntity
  8
レイヤー 1
100
AcDbSpline
210
0.0
220
0.0
230
1.0
 70
     9
 71
     3
 72
    47
 73
    43
 74
     0
 42
0.0000000001
 43
0.0000000001
 40
0.0
 40
0.0
 40
0.0
 40
0.0
 40
1.0
 40
1.0
 40
1.0
 40
2.0
 40
2.0
 40
2.0
 40
3.0
 40
3.0
 40
3.0
 40
4.0
 40
4.0
 40
4.0
 40
5.0
 40
5.0
 40
5.0
 40
6.0
 40
6.0
 40
6.0
 40
7.0
 40
7.0
 40
7.0
 40
8.0
 40
8.0
 40
8.0
 40
9.0
 40
9.0
 40
9.0
 40
10.0
 40
10.0
 40
10.0
 40
11.0
 40
11.0
 40
11.0
 40
12.0
 40
12.0
 40
12.0
 40
13.0
 40
13.0
 40
13.0
 40
14.0
 40
14.0
 40
14.0
 40
14.0
 10
100.9872897425483
 20
-148.5113484329242
 30
0.0
 10
100.9173543041977
 20
-148.7905734220037
 30
0.0
 10
100.8412176939737
 20
-149.0954643724483
 30
0.0
 10
100.5282307691388
 20
-149.4275715772264
 30
0.0
 10
100.2912081997536
 20
-149.6769964903585
 30
0.0
 10
100.0459174012038
 20
-149.7765597498822
 30
0.0
 10
99.94015296980663
 20
-149.8189344243508
 30
0.0
 10
99.94015296980663
 20
-149.8189344243508
 30
0.0
 10
99.74550507489002
 20
-149.6370333827296
 30
0.0
 10
99.74550507489002
 20
-149.6370333827296
 30
0.0
 10
99.93154023109351
 20
-149.5901800841302
 30
0.0
 10
100.293447511819
 20
-149.4971625060285
 30
0.0
 10
100.5895534687762
 20
-149.0021022847981
 30
0.0
 10
100.7502671731631
 20
-148.735624149014
 30
0.0
 10
100.7630140264585
 20
-148.5621635913316
 30
0.0
 10
100.7714545103974
 20
-148.4712130705211
 30
0.0
 10
100.7714545103974
 20
-148.4712130705211
 30
0.0
 10
100.265886747937
 20
-148.4712130705211
 30
0.0
 10
100.265886747937
 20
-148.4712130705211
 30
0.0
 10
100.1473754632444
 20
-148.4712130705211
 30
0.0
 10
99.72638479494689
 20
-148.4901610956899
 30
0.0
 10
99.57411157449884
 20
-148.5006686369199
 30
0.0
 10
99.57411157449884
 20
-148.5006686369199
 30
0.0
 10
99.57411157449884
 20
-148.291379086191
 30
0.0
 10
99.57411157449884
 20
-148.291379086191
 30
0.0
 10
99.71587725371687
 20
-148.3039536847122
 30
0.0
 10
99.99303518550522
 20
-148.3082600540687
 30
0.0
 10
100.1093071581324
 20
-148.3082600540687
 30
0.0
 10
100.1093071581324
 20
-148.3082600540687
 30
0.0
 10
100.4646687574359
 20
-148.3082600540687
 30
0.0
 10
100.4646687574359
 20
-148.3082600540687
 30
0.0
 10
100.4922295213179
 20
-148.3082600540687
 30
0.0
 10
100.6529432257048
 20
-148.3061929967776
 30
0.0
 10
100.7630140264585
 20
-148.291379086191
 30
0.0
 10
100.8202026115137
 20
-148.2850056595433
 30
0.0
 10
100.8370835793914
 20
-148.2658853796002
 30
0.0
 10
100.8603379739168
 20
-148.2426309850747
 30
0.0
 10
100.8603379739168
 20
-148.2426309850747
 30
0.0
 10
101.0486124421857
 20
-148.3928371482316
 30
0.0
 10
101.0486124421857
 20
-148.3928371482316
 30
0.0
 10
101.0337985315992
 20
-148.4224649694048
 30
0.0
 10
101.0232909903691
 20
-148.4415852493479
 30
0.0
 10
100.9872897425483
 20
-148.5113484329242
 30
0.0
  0
HATCH
  5
101
330
EE
100
AcDbEntity
  8
レイヤー 1
 62
    18
420
        0
440
 33554687
100
AcDbHatch
 10
0.0
 20
0.0
 30
0.0
210
0.0
220
0.0
230
1.0
  2
SOLID
 70
     1
 71
     1
 91
        1
 92
        1
 93
        1
 72
     4
 94
        3
 73
     0
 74
     0
 95
       47
 96
       43
 40
0.0
 40
0.0
 40
0.0
 40
0.0
 40
1.0
 40
1.0
 40
1.0
 40
2.0
 40
2.0
 40
2.0
 40
3.0
 40
3.0
 40
3.0
 40
4.0
 40
4.0
 40
4.0
 40
5.0
 40
5.0
 40
5.0
 40
6.0
 40
6.0
 40
6.0
 40
7.0
 40
7.0
 40
7.0
 40
8.0
 40
8.0
 40
8.0
 40
9.0
 40
9.0
 40
9.0
 40
10.0
 40
10.0
 40
10.0
 40
11.0
 40
11.0
 40
11.0
 40
12.0
 40
12.0
 40
12.0
 40
13.0
 40
13.0
 40
13.0
 40
14.0
 40
14.0
 40
14.0
 40
14.0
 10
100.9872897425483
 20
-148.5113484329242
 10
100.9173543041977
 20
-148.7905734220037
 10
100.8412176939737
 20
-149.0954643724483
 10
100.5282307691388
 20
-149.4275715772264
 10
100.2912081997536
 20
-149.6769964903585
 10
100.0459174012038
 20
-149.7765597498822
 10
99.94015296980663
 20
-149.8189344243508
 10
99.94015296980663
 20
-149.8189344243508
 10
99.74550507489002
 20
-149.6370333827296
 10
99.74550507489002
 20
-149.6370333827296
 10
99.93154023109351
 20
-149.5901800841302
 10
100.293447511819
 20
-149.4971625060285
 10
100.5895534687762
 20
-149.0021022847981
 10
100.7502671731631
 20
-148.735624149014
 10
100.7630140264585
 20
-148.5621635913316
 10
100.7714545103974
 20
-148.4712130705211
 10
100.7714545103974
 20
-148.4712130705211
 10
100.265886747937
 20
-148.4712130705211
 10
100.265886747937
 20
-148.4712130705211
 10
100.1473754632444
 20
-148.4712130705211
 10
99.72638479494689
 20
-148.4901610956899
 10
99.57411157449884
 20
-148.5006686369199
 10
99.57411157449884
 20
-148.5006686369199
 10
99.57411157449884
 20
-148.291379086191
 10
99.57411157449884
 20
-148.291379086191
 10
99.71587725371687
 20
-148.3039536847122
 10
99.99303518550522
 20
-148.3082600540687
 10
100.1093071581324
 20
-148.3082600540687
 10
100.1093071581324
 20
-148.3082600540687
 10
100.4646687574359
 20
-148.3082600540687
 10
100.4646687574359
 20
-148.3082600540687
 10
100.4922295213179
 20
-148.3082600540687
 10
100.6529432257048
 20
-148.3061929967776
 10
100.7630140264585
 20
-148.291379086191
 10
100.8202026115137
 20
-148.2850056595433
 10
100.8370835793914
 20
-148.2658853796002
 10
100.8603379739168
 20
-148.2426309850747
 10
100.8603379739168
 20
-148.2426309850747
 10
101.0486124421857
 20
-148.3928371482316
 10
101.0486124421857
 20
-148.3928371482316
 10
101.0337985315992
 20
-148.4224649694048
 10
101.0232909903691
 20
-148.4415852493479
 10
100.9872897425483
 20
-148.5113484329242
 97
        0
 97
        1
330
100
 75
     2
 76
     1
 98
        1
 10
0.0
 20
0.0
450
        0
451
        0
460
0.0
461
0.0
452
        0
462
0.0
453
        0
470

  0
SPLINE
  5
102
330
EE
100
AcDbEntity
  8
レイヤー 1
100
AcDbSpline
210
0.0
220
0.0
230
1.0
 70
    11
 71
     3
 72
    17
 73
    13
 74
     0
 42
0.0000000001
 43
0.0000000001
 40
0.0
 40
0.0
 40
0.0
 40
0.0
 40
1.0
 40
1.0
 40
1.0
 40
2.0
 40
2.0
 40
2.0
 40
3.0
 40
3.0
 40
3.0
 40
4.0
 40
4.0
 40
4.0
 40
4.0
 10
101.3776190610271
 20
-148.2934461434822
 30
0.0
 10
101.3776190610271
 20
-148.3527017858285
 30
0.0
 10
101.424127850078
 20
-148.3992105748793
 30
0.0
 10
101.4833834924243
 20
-148.3992105748793
 30
0.0
 10
101.5426391347706
 20
-148.3992105748793
 30
0.0
 10
101.5912149811126
 20
-148.3527017858285
 30
0.0
 10
101.5912149811126
 20
-148.2934461434822
 30
0.0
 10
101.5912149811126
 20
-148.2341905011359
 30
0.0
 10
101.5426391347706
 20
-148.1856146547938
 30
0.0
 10
101.4833834924243
 20
-148.1856146547938
 30
0.0
 10
101.424127850078
 20
-148.1856146547938
 30
0.0
 10
101.3776190610271
 20
-148.2341905011359
 30
0.0
 10
101.3776190610271
 20
-148.2934461434822
 30
0.0
  0
SPLINE
  5
103
330
EE
100
AcDbEntity
  8
レイヤー 1
100
AcDbSpline
210
0.0
220
0.0
230
1.0
 70
     9
 71
     3
 72
    17
 73
    13
 74
     0
 42
0.0000000001
 43
0.0000000001
 40
0.0
 40
0.0
 40
0.0
 40
0.0
 40
1.0
 40
1.0
 40
1.0
 40
2.0
 40
2.0
 40
2.0
 40
3.0
 40
3.0
 40
3.0
 40
4.0
 40
4.0
 40
4.0
 40
4.0
 10
101.6926730431532
 20
-148.2934461434822
 30
0.0
 10
101.6926730431532
 20
-148.4076510588182
 30
0.0
 10
101.5996554650514
 20
-148.5029079489853
 30
0.0
 10
101.4833834924243
 20
-148.5029079489853
 30
0.0
 10
101.369006322314
 20
-148.5029079489853
 30
0.0
 10
101.2739216869211
 20
-148.4076510588182
 30
0.0
 10
101.2739216869211
 20
-148.2934461434822
 30
0.0
 10
101.2739216869211
 20
-148.1770019160807
 30
0.0
 10
101.369006322314
 20
-148.083984337979
 30
0.0
 10
101.4833834924243
 20
-148.083984337979
 30
0.0
 10
101.5975884077603
 20
-148.083984337979
 30
0.0
 10
101.6926730431532
 20
-148.1770019160807
 30
0.0
 10
101.6926730431532
 20
-148.2934461434822
 30
0.0
  0
HATCH
  5
104
330
EE
100
AcDbEntity
  8
レイヤー 1
 62
    18
420
        0
440
 33554687
100
AcDbHatch
 10
0.0
 20
0.0
 30
0.0
210
0.0
220
0.0
230
1.0
  2
SOLID
 70
     1
 71
     1
 91
        2
 92
        1
 93
        1
 72
     4
 94
        3
 73
     0
 74
     0
 95
       17
 96
       13
 40
0.0
 40
0.0
 40
0.0
 40
0.0
 40
1.0
 40
1.0
 40
1.0
 40
2.0
 40
2.0
 40
2.0
 40
3.0
 40
3.0
 40
3.0
 40
4.0
 40
4.0
 40
4.0
 40
4.0
 10
101.3776190610271
 20
-148.2934461434822
 10
101.3776190610271
 20
-148.3527017858285
 10
101.424127850078
 20
-148.3992105748793
 10
101.4833834924243
 20
-148.3992105748793
 10
101.5426391347706
 20
-148.3992105748793
 10
101.5912149811126
 20
-148.3527017858285
 10
101.5912149811126
 20
-148.2934461434822
 10
101.5912149811126
 20
-148.2341905011359
 10
101.5426391347706
 20
-148.1856146547938
 10
101.4833834924243
 20
-148.1856146547938
 10
101.424127850078
 20
-148.1856146547938
 10
101.3776190610271
 20
-148.2341905011359
 10
101.3776190610271
 20
-148.2934461434822
 97
        0
 97
        1
330
102
 92
        1
 93
        1
 72
     4
 94
        3
 73
     0
 74
     0
 95
       17
 96
       13
 40
0.0
 40
0.0
 40
0.0
 40
0.0
 40
1.0
 40
1.0
 40
1.0
 40
2.0
 40
2.0
 40
2.0
 40
3.0
 40
3.0
 40
3.0
 40
4.0
 40
4.0
 40
4.0
 40
4.0
 10
101.6926730431532
 20
-148.2934461434822
 10
101.6926730431532
 20
-148.4076510588182
 10
101.5996554650514
 20
-148.5029079489853
 10
101.4833834924243
 20
-148.5029079489853
 10
101.369006322314
 20
-148.5029079489853
 10
101.2739216869211
 20
-148.4076510588182
 10
101.2739216869211
 20
-148.2934461434822
 10
101.2739216869211
 20
-148.1770019160807
 10
101.369006322314
 20
-148.083984337979
 10
101.4833834924243
 20
-148.083984337979
 10
101.5975884077603
 20
-148.083984337979
 10
101.6926730431532
 20
-148.1770019160807
 10
101.6926730431532
 20
-148.2934461434822
 97
        0
 97
        1
330
103
 75
     2
 76
     1
 98
        1
 10
0.0
 20
0.0
450
        0
451
        0
460
0.0
461
0.0
452
        0
462
0.0
453
        0
470

  0
ENDBLK
  5
F1
330
EE
100
AcDbEntity
  8
0
100
AcDbBlockEnd
  0
ENDSEC
  0
SECTION
  2
ENTITIES
  0
INSERT
  5
7A
330
70
100
AcDbEntity
  8
レイヤー 1
100
AcDbBlockReference
  2
Block_0
 10
0.0
 20
0.0
 30
0.0
  0
LINE
  5
E1
330
70
100
AcDbEntity
  8
レイヤー 1
  6
AI-Linetype-0
 62
   154
420
    23468
370
    25
100
AcDbLine
 10
91.97869223866204
 20
-152.1699833469481
 30
0.0
 11
101.9130495457111
 21
-152.1699833469481
 31
0.0
  0
INSERT
  5
E4
330
70
100
AcDbEntity
  8
レイヤー 1
100
AcDbBlockReference
  2
Block_11
 10
0.0
 20
0.0
 30
0.0
  0
INSERT
  5
EB
330
70
100
AcDbEntity
  8
レイヤー 1
100
AcDbBlockReference
  2
Block_12
 10
0.0
 20
0.0
 30
0.0
  0
LWPOLYLINE
  5
105
330
70
100
AcDbEntity
  8
レイヤー 1
100
AcDbPolyline
 90
        4
 70
     1
 43
0.0
 10
119.5552951345064
 20
-152.2765506201705
 10
115.5552951355067
 20
-152.2765506201705
 10
115.5552951355067
 20
-151.7765506202953
 10
119.5552951345064
 20
-151.7765506202953
  0
HATCH
  5
106
330
70
100
AcDbEntity
  8
レイヤー 1
 62
   250
420
  2299925
440
 33554687
100
AcDbHatch
 10
0.0
 20
0.0
 30
0.0
210
0.0
220
0.0
230
1.0
  2
SOLID
 70
     1
 71
     1
 91
        1
 92
        1
 93
        4
 72
     1
 10
119.5552951345064
 20
-152.2765506201705
 11
115.5552951355067
 21
-152.2765506201705
 72
     1
 10
115.5552951355067
 20
-152.2765506201705
 11
115.5552951355067
 21
-151.7765506202953
 72
     1
 10
115.5552951355067
 20
-151.7765506202953
 11
119.5552951345064
 21
-151.7765506202953
 72
     1
 10
119.5552951345064
 20
-151.7765506202953
 11
119.5552951345064
 21
-152.2765506201705
 97
        1
330
105
 75
     2
 76
     1
 98
        1
 10
0.0
 20
0.0
450
        0
451
        0
460
0.0
461
0.0
452
        0
462
0.0
453
        0
470

  0
LWPOLYLINE
  5
107
330
70
100
AcDbEntity
  8
レイヤー 1
100
AcDbPolyline
 90
        4
 70
     1
 43
0.0
 10
119.554464314725
 20
-151.8025807792971
 10
119.5544643145453
 20
-155.8025807782969
 10
119.0544643146701
 20
-155.8025807782751
 10
119.0544643148498
 20
-151.8025807792747
  0
HATCH
  5
108
330
70
100
AcDbEntity
  8
レイヤー 1
 62
   250
420
  2299925
440
 33554687
100
AcDbHatch
 10
0.0
 20
0.0
 30
0.0
210
0.0
220
0.0
230
1.0
  2
SOLID
 70
     1
 71
     1
 91
        1
 92
        1
 93
        4
 72
     1
 10
119.554464314725
 20
-151.8025807792971
 11
119.5544643145453
 21
-155.8025807782969
 72
     1
 10
119.5544643145453
 20
-155.8025807782969
 11
119.0544643146701
 21
-155.8025807782751
 72
     1
 10
119.0544643146701
 20
-155.8025807782751
 11
119.0544643148498
 21
-151.8025807792747
 72
     1
 10
119.0544643148498
 20
-151.8025807792747
 11
119.554464314725
 21
-151.8025807792971
 97
        1
330
107
 75
     2
 76
     1
 98
        1
 10
0.0
 20
0.0
450
        0
451
        0
460
0.0
461
0.0
452
        0
462
0.0
453
        0
470

  0
LWPOLYLINE
  5
109
330
70
100
AcDbEntity
  8
レイヤー 1
100
AcDbPolyline
 90
        4
 70
     1
 43
0.0
 10
127.552612437773
 20
-155.5164695643814
 10
119.0526124398977
 20
-155.816469564306
 10
119.0526124398977
 20
-155.3164695644314
 10
127.552612437773
 20
-155.3164695644314
  0
HATCH
  5
10A
330
70
100
AcDbEntity
  8
レイヤー 1
 62
   250
420
  2299925
440
 33554687
100
AcDbHatch
 10
0.0
 20
0.0
 30
0.0
210
0.0
220
0.0
230
1.0
  2
SOLID
 70
     1
 71
     1
 91
        1
 92
        1
 93
        4
 72
     1
 10
127.552612437773
 20
-155.5164695643814
 11
119.0526124398977
 21
-155.816469564306
 72
     1
 10
119.0526124398977
 20
-155.816469564306
 11
119.0526124398977
 21
-155.3164695644314
 72
     1
 10
119.0526124398977
 20
-155.3164695644314
 11
127.552612437773
 21
-155.3164695644314
 72
     1
 10
127.552612437773
 20
-155.3164695644314
 11
127.552612437773
 21
-155.5164695643814
 97
        1
330
109
 75
     2
 76
     1
 98
        1
 10
0.0
 20
0.0
450
        0
451
        0
460
0.0
461
0.0
452
        0
462
0.0
453
        0
470

  0
LINE
  5
10B
330
70
100
AcDbEntity
  8
レイヤー 1
 62
   250
420
  2299925
370
     9
100
AcDbLine
 10
119.5462914075207
 20
-151.8611194584751
 30
0.0
 11
125.7456783817834
 21
-148.1361519636586
 31
0.0
  0
LINE
  5
10C
330
70
100
AcDbEntity
  8
レイヤー 1
 62
   250
420
  2299925
370
     9
100
AcDbLine
 10
115.6009274245175
 20
-151.8111248355369
 30
0.0
 11
121.7171611413583
 21
-148.1361140049555
 31
0.0
  0
LWPOLYLINE
  5
10D
330
70
100
AcDbEntity
  8
レイヤー 1
 62
   250
420
  2299925
370
     9
100
AcDbPolyline
 90
        3
 70
     0
 43
0.0
 10
119.5962914075086
 20
-155.3098143342292
 10
128.9300059283601
 20
-149.7015528495998
 10
132.3731397267034
 20
-147.6327093442053
  0
LINE
  5
10E
330
70
100
AcDbEntity
  8
レイヤー 1
 62
   250
420
  2299925
370
     9
100
AcDbLine
 10
127.491244116004
 20
-155.3598143342165
 30
0.0
 11
135.4365756353726
 21
-150.5857775192769
 31
0.0
  0
LINE
  5
10F
330
70
100
AcDbEntity
  8
レイヤー 1
 62
   250
420
  2299925
370
     9
100
AcDbLine
 10
127.5412441184336
 20
-155.4598143390758
 30
0.0
 11
135.4777522815173
 21
-150.6910791314548
 31
0.0
  0
SPLINE
  5
110
330
70
100
AcDbEntity
  8
レイヤー 1
 62
   250
420
  2299925
370
     9
100
AcDbSpline
210
0.0
220
0.0
230
1.0
 70
     9
 71
     3
 72
    17
 73
    13
 74
     0
 42
0.0000000001
 43
0.0000000001
 40
0.0
 40
0.0
 40
0.0
 40
0.0
 40
1.0
 40
1.0
 40
1.0
 40
2.0
 40
2.0
 40
2.0
 40
3.0
 40
3.0
 40
3.0
 40
4.0
 40
4.0
 40
4.0
 40
4.0
 10
123.915847870311
 20
-154.0059791381435
 30
0.0
 10
124.0039711169473
 20
-154.2249180035315
 30
0.0
 10
123.7691651230293
 20
-154.5255025754645
 30
0.0
 10
123.3914092435408
 20
-154.6775499265694
 30
0.0
 10
123.013678788231
 20
-154.8295870444016
 30
0.0
 10
122.6367650260276
 20
-154.7752206614821
 30
0.0
 10
122.5486417793918
 20
-154.5562817960934
 30
0.0
 10
122.4605317051401
 20
-154.3373756569938
 30
0.0
 10
122.6944065532607
 20
-154.0363672806831
 30
0.0
 10
123.0721370085705
 20
-153.884330162851
 30
0.0
 10
123.4498928880596
 20
-153.7322828117467
 30
0.0
 10
123.8277377960586
 20
-153.7870729990433
 30
0.0
 10
123.915847870311
 20
-154.0059791381435
 30
0.0
  0
SPLINE
  5
111
330
70
100
AcDbEntity
  8
レイヤー 1
 62
   250
420
  2299925
370
     9
100
AcDbSpline
210
0.0
220
0.0
230
1.0
 70
     8
 71
     3
 72
    11
 73
     7
 74
     0
 42
0.0000000001
 43
0.0000000001
 40
0.0
 40
0.0
 40
0.0
 40
0.0
 40
1.0
 40
1.0
 40
1.0
 40
2.0
 40
2.0
 40
2.0
 40
2.0
 10
122.7551658668897
 20
-154.7262331451917
 30
0.0
 10
122.7551658668897
 20
-154.7262331451917
 30
0.0
 10
122.5430537553853
 20
-154.2582983972638
 30
0.0
 10
123.3319884659684
 20
-153.9873354401064
 30
0.0
 10
123.3319884659684
 20
-153.9873354401064
 30
0.0
 10
123.8115703712621
 20
-153.8632100358733
 30
0.0
 10
123.8766461908324
 20
-154.2518284479394
 30
0.0
  0
SPLINE
  5
112
330
70
100
AcDbEntity
  8
レイヤー 1
 62
   250
420
  2299925
370
     9
100
AcDbSpline
210
0.0
220
0.0
230
1.0
 70
     9
 71
     3
 72
    17
 73
    13
 74
     0
 42
0.0000000001
 43
0.0000000001
 40
0.0
 40
0.0
 40
0.0
 40
0.0
 40
1.0
 40
1.0
 40
1.0
 40
2.0
 40
2.0
 40
2.0
 40
3.0
 40
3.0
 40
3.0
 40
4.0
 40
4.0
 40
4.0
 40
4.0
 10
127.9433940359327
 20
-154.0355633752001
 30
0.0
 10
128.031517282569
 20
-154.2545022405881
 30
0.0
 10
127.796711288651
 20
-154.555086812521
 30
0.0
 10
127.4189554091625
 20
-154.7071341636259
 30
0.0
 10
127.0412249538527
 20
-154.8591712814581
 30
0.0
 10
126.6643111916493
 20
-154.8048048985386
 30
0.0
 10
126.5761879450136
 20
-154.5858660331499
 30
0.0
 10
126.4880778707619
 20
-154.3669598940497
 30
0.0
 10
126.7219527188824
 20
-154.0659515177396
 30
0.0
 10
127.0996831741922
 20
-153.9139143999075
 30
0.0
 10
127.4774390536814
 20
-153.7618670488032
 30
0.0
 10
127.8552839616803
 20
-153.8166572360998
 30
0.0
 10
127.9433940359327
 20
-154.0355633752001
 30
0.0
  0
SPLINE
  5
113
330
70
100
AcDbEntity
  8
レイヤー 1
 62
   250
420
  2299925
370
     9
100
AcDbSpline
210
0.0
220
0.0
230
1.0
 70
     8
 71
     3
 72
    11
 73
     7
 74
     0
 42
0.0000000001
 43
0.0000000001
 40
0.0
 40
0.0
 40
0.0
 40
0.0
 40
1.0
 40
1.0
 40
1.0
 40
2.0
 40
2.0
 40
2.0
 40
2.0
 10
126.7827120325115
 20
-154.7558173822482
 30
0.0
 10
126.7827120325115
 20
-154.7558173822482
 30
0.0
 10
126.5705999210071
 20
-154.2878826343203
 30
0.0
 10
127.3595346315901
 20
-154.0169196771629
 30
0.0
 10
127.3595346315901
 20
-154.0169196771629
 30
0.0
 10
127.8391165368838
 20
-153.8927942729299
 30
0.0
 10
127.9041923564542
 20
-154.2814126849959
 30
0.0
  0
SPLINE
  5
114
330
70
100
AcDbEntity
  8
レイヤー 1
 62
   250
420
  2299925
370
     9
100
AcDbSpline
210
0.0
220
0.0
230
1.0
 70
     9
 71
     3
 72
    17
 73
    13
 74
     0
 42
0.0000000001
 43
0.0000000001
 40
0.0
 40
0.0
 40
0.0
 40
0.0
 40
1.0
 40
1.0
 40
1.0
 40
2.0
 40
2.0
 40
2.0
 40
3.0
 40
3.0
 40
3.0
 40
4.0
 40
4.0
 40
4.0
 40
4.0
 10
127.3187421861369
 20
-153.2018901807632
 30
0.0
 10
127.4069181223072
 20
-153.4209599513019
 30
0.0
 10
127.1716314924469
 20
-153.7221562901057
 30
0.0
 10
126.7945264876433
 20
-153.8739416630994
 30
0.0
 10
126.4167669571009
 20
-154.0259904837599
 30
0.0
 10
126.039708298678
 20
-153.9712641116745
 30
0.0
 10
125.9515323625077
 20
-153.7521943411352
 30
0.0
 10
125.8633564263373
 20
-153.5331245705966
 30
0.0
 10
126.0975605840499
 20
-153.2329343514818
 30
0.0
 10
126.4753201145916
 20
-153.0808855308213
 30
0.0
 10
126.8524251193958
 20
-152.9291001578276
 30
0.0
 10
127.2305662499672
 20
-152.982820410224
 30
0.0
 10
127.3187421861369
 20
-153.2018901807632
 30
0.0
  0
SPLINE
  5
115
330
70
100
AcDbEntity
  8
レイヤー 1
 62
   250
420
  2299925
370
     9
100
AcDbSpline
210
0.0
220
0.0
230
1.0
 70
     8
 71
     3
 72
    11
 73
     7
 74
     0
 42
0.0000000001
 43
0.0000000001
 40
0.0
 40
0.0
 40
0.0
 40
0.0
 40
1.0
 40
1.0
 40
1.0
 40
2.0
 40
2.0
 40
2.0
 40
2.0
 10
126.1581881738416
 20
-153.9224729531109
 30
0.0
 10
126.1581881738416
 20
-153.9224729531109
 30
0.0
 10
125.9466552544518
 20
-153.4540769102622
 30
0.0
 10
126.7356325723726
 20
-153.1833249727428
 30
0.0
 10
126.7356325723726
 20
-153.1833249727428
 30
0.0
 10
127.2158226953903
 20
-153.058726590734
 30
0.0
 10
127.2797211873176
 20
-153.4481991610112
 30
0.0
  0
SPLINE
  5
116
330
70
100
AcDbEntity
  8
レイヤー 1
 62
   250
420
  2299925
370
     9
100
AcDbSpline
210
0.0
220
0.0
230
1.0
 70
     9
 71
     3
 72
    17
 73
    13
 74
     0
 42
0.0000000001
 43
0.0000000001
 40
0.0
 40
0.0
 40
0.0
 40
0.0
 40
1.0
 40
1.0
 40
1.0
 40
2.0
 40
2.0
 40
2.0
 40
3.0
 40
3.0
 40
3.0
 40
4.0
 40
4.0
 40
4.0
 40
4.0
 10
126.593586858041
 20
-152.3970312323165
 30
0.0
 10
126.6817101046774
 20
-152.6159700977046
 30
0.0
 10
126.4469041107594
 20
-152.9165546696375
 30
0.0
 10
126.0691482312708
 20
-153.0686020207424
 30
0.0
 10
125.6914177759611
 20
-153.2206391385746
 30
0.0
 10
125.3145040137576
 20
-153.1662727556551
 30
0.0
 10
125.2263807671219
 20
-152.9473338902664
 30
0.0
 10
125.1382706928702
 20
-152.7284277511668
 30
0.0
 10
125.3721455409908
 20
-152.4274193748561
 30
0.0
 10
125.7498759963005
 20
-152.275382257024
 30
0.0
 10
126.1276318757897
 20
-152.1233349059197
 30
0.0
 10
126.5054767837887
 20
-152.1781250932163
 30
0.0
 10
126.593586858041
 20
-152.3970312323165
 30
0.0
  0
SPLINE
  5
117
330
70
100
AcDbEntity
  8
レイヤー 1
 62
   250
420
  2299925
370
     9
100
AcDbSpline
210
0.0
220
0.0
230
1.0
 70
     8
 71
     3
 72
    11
 73
     7
 74
     0
 42
0.0000000001
 43
0.0000000001
 40
0.0
 40
0.0
 40
0.0
 40
0.0
 40
1.0
 40
1.0
 40
1.0
 40
2.0
 40
2.0
 40
2.0
 40
2.0
 10
125.4329048546198
 20
-153.1172852393647
 30
0.0
 10
125.4329048546198
 20
-153.1172852393647
 30
0.0
 10
125.2207927431154
 20
-152.6493504914368
 30
0.0
 10
126.0097274536984
 20
-152.3783875342794
 30
0.0
 10
126.0097274536984
 20
-152.3783875342794
 30
0.0
 10
126.4893093589922
 20
-152.2542621300464
 30
0.0
 10
126.5543851785625
 20
-152.6428805421124
 30
0.0
  0
SPLINE
  5
118
330
70
100
AcDbEntity
  8
レイヤー 1
 62
   250
420
  2299925
370
     9
100
AcDbSpline
210
0.0
220
0.0
230
1.0
 70
     9
 71
     3
 72
    17
 73
    13
 74
     0
 42
0.0000000001
 43
0.0000000001
 40
0.0
 40
0.0
 40
0.0
 40
0.0
 40
1.0
 40
1.0
 40
1.0
 40
2.0
 40
2.0
 40
2.0
 40
3.0
 40
3.0
 40
3.0
 40
4.0
 40
4.0
 40
4.0
 40
4.0
 10
130.6211330236628
 20
-152.4266154693731
 30
0.0
 10
130.7092562702991
 20
-152.6455543347611
 30
0.0
 10
130.4744502763811
 20
-152.946138906694
 30
0.0
 10
130.0966943968926
 20
-153.098186257799
 30
0.0
 10
129.7189639415828
 20
-153.2502233756305
 30
0.0
 10
129.3420501793793
 20
-153.1958569927116
 30
0.0
 10
129.2539269327436
 20
-152.9769181273229
 30
0.0
 10
129.1658168584919
 20
-152.7580119882234
 30
0.0
 10
129.3996917066125
 20
-152.4570036119127
 30
0.0
 10
129.7774221619222
 20
-152.3049664940805
 30
0.0
 10
130.1551780414114
 20
-152.1529191429762
 30
0.0
 10
130.5330229494104
 20
-152.2077093302729
 30
0.0
 10
130.6211330236628
 20
-152.4266154693731
 30
0.0
  0
SPLINE
  5
119
330
70
100
AcDbEntity
  8
レイヤー 1
 62
   250
420
  2299925
370
     9
100
AcDbSpline
210
0.0
220
0.0
230
1.0
 70
     8
 71
     3
 72
    11
 73
     7
 74
     0
 42
0.0000000001
 43
0.0000000001
 40
0.0
 40
0.0
 40
0.0
 40
0.0
 40
1.0
 40
1.0
 40
1.0
 40
2.0
 40
2.0
 40
2.0
 40
2.0
 10
129.4604510202415
 20
-153.1468694764205
 30
0.0
 10
129.4604510202415
 20
-153.1468694764205
 30
0.0
 10
129.2483389087371
 20
-152.6789347284934
 30
0.0
 10
130.0372736193202
 20
-152.407971771336
 30
0.0
 10
130.0372736193202
 20
-152.407971771336
 30
0.0
 10
130.5168555246139
 20
-152.2838463671029
 30
0.0
 10
130.5819313441842
 20
-152.6724647791689
 30
0.0
  0
SPLINE
  5
11A
330
70
100
AcDbEntity
  8
レイヤー 1
 62
   250
420
  2299925
370
     9
100
AcDbSpline
210
0.0
220
0.0
230
1.0
 70
     9
 71
     3
 72
    17
 73
    13
 74
     0
 42
0.0000000001
 43
0.0000000001
 40
0.0
 40
0.0
 40
0.0
 40
0.0
 40
1.0
 40
1.0
 40
1.0
 40
2.0
 40
2.0
 40
2.0
 40
3.0
 40
3.0
 40
3.0
 40
4.0
 40
4.0
 40
4.0
 40
4.0
 10
129.996481173867
 20
-151.5929422749362
 30
0.0
 10
130.0846571100373
 20
-151.8120120454749
 30
0.0
 10
129.8493704801769
 20
-152.1132083842787
 30
0.0
 10
129.4722654753734
 20
-152.2649937572724
 30
0.0
 10
129.094505944831
 20
-152.4170425779329
 30
0.0
 10
128.7174472864081
 20
-152.3623162058475
 30
0.0
 10
128.6292713502378
 20
-152.1432464353082
 30
0.0
 10
128.5410954140674
 20
-151.9241766647696
 30
0.0
 10
128.7752995717799
 20
-151.6239864456548
 30
0.0
 10
129.1530591023217
 20
-151.4719376249943
 30
0.0
 10
129.5301641071259
 20
-151.3201522520006
 30
0.0
 10
129.9083052376972
 20
-151.3738725043969
 30
0.0
 10
129.996481173867
 20
-151.5929422749362
 30
0.0
  0
SPLINE
  5
11B
330
70
100
AcDbEntity
  8
レイヤー 1
 62
   250
420
  2299925
370
     9
100
AcDbSpline
210
0.0
220
0.0
230
1.0
 70
     8
 71
     3
 72
    11
 73
     7
 74
     0
 42
0.0000000001
 43
0.0000000001
 40
0.0
 40
0.0
 40
0.0
 40
0.0
 40
1.0
 40
1.0
 40
1.0
 40
2.0
 40
2.0
 40
2.0
 40
2.0
 10
128.8359271615717
 20
-152.3135250472839
 30
0.0
 10
128.8359271615717
 20
-152.3135250472839
 30
0.0
 10
128.6243942421818
 20
-151.8451290044352
 30
0.0
 10
129.4133715601026
 20
-151.5743770669159
 30
0.0
 10
129.4133715601026
 20
-151.5743770669159
 30
0.0
 10
129.8935616831204
 20
-151.449778684907
 30
0.0
 10
129.9574601750477
 20
-151.8392512551842
 30
0.0
  0
SPLINE
  5
11C
330
70
100
AcDbEntity
  8
レイヤー 1
 62
   250
420
  2299925
370
     9
100
AcDbSpline
210
0.0
220
0.0
230
1.0
 70
     9
 71
     3
 72
    17
 73
    13
 74
     0
 42
0.0000000001
 43
0.0000000001
 40
0.0
 40
0.0
 40
0.0
 40
0.0
 40
1.0
 40
1.0
 40
1.0
 40
2.0
 40
2.0
 40
2.0
 40
3.0
 40
3.0
 40
3.0
 40
4.0
 40
4.0
 40
4.0
 40
4.0
 10
129.2713258457711
 20
-150.7880833264895
 30
0.0
 10
129.3594490924075
 20
-151.0070221918776
 30
0.0
 10
129.1246430984894
 20
-151.3076067638105
 30
0.0
 10
128.7468872190009
 20
-151.4596541149154
 30
0.0
 10
128.3691567636912
 20
-151.6116912327476
 30
0.0
 10
127.9922430014877
 20
-151.5573248498281
 30
0.0
 10
127.904119754852
 20
-151.3383859844394
 30
0.0
 10
127.8160096806003
 20
-151.1194798453398
 30
0.0
 10
128.0498845287209
 20
-150.8184714690291
 30
0.0
 10
128.4276149840306
 20
-150.666434351197
 30
0.0
 10
128.8053708635198
 20
-150.5143870000927
 30
0.0
 10
129.1832157715187
 20
-150.5691771873893
 30
0.0
 10
129.2713258457711
 20
-150.7880833264895
 30
0.0
  0
SPLINE
  5
11D
330
70
100
AcDbEntity
  8
レイヤー 1
 62
   250
420
  2299925
370
     9
100
AcDbSpline
210
0.0
220
0.0
230
1.0
 70
     8
 71
     3
 72
    11
 73
     7
 74
     0
 42
0.0000000001
 43
0.0000000001
 40
0.0
 40
0.0
 40
0.0
 40
0.0
 40
1.0
 40
1.0
 40
1.0
 40
2.0
 40
2.0
 40
2.0
 40
2.0
 10
128.1106438423499
 20
-151.5083373335377
 30
0.0
 10
128.1106438423499
 20
-151.5083373335377
 30
0.0
 10
127.8985317308455
 20
-151.0404025856098
 30
0.0
 10
128.6874664414285
 20
-150.7694396284524
 30
0.0
 10
128.6874664414285
 20
-150.7694396284524
 30
0.0
 10
129.1670483467223
 20
-150.6453142242194
 30
0.0
 10
129.2321241662926
 20
-151.0339326362854
 30
0.0
  0
SPLINE
  5
11E
330
70
100
AcDbEntity
  8
レイヤー 1
 62
   250
420
  2299925
370
     9
100
AcDbSpline
210
0.0
220
0.0
230
1.0
 70
     9
 71
     3
 72
    17
 73
    13
 74
     0
 42
0.0000000001
 43
0.0000000001
 40
0.0
 40
0.0
 40
0.0
 40
0.0
 40
1.0
 40
1.0
 40
1.0
 40
2.0
 40
2.0
 40
2.0
 40
3.0
 40
3.0
 40
3.0
 40
4.0
 40
4.0
 40
4.0
 40
4.0
 10
133.2988720113928
 20
-150.8176675635461
 30
0.0
 10
133.3869952580292
 20
-151.0366064289341
 30
0.0
 10
133.1521892641112
 20
-151.337191000867
 30
0.0
 10
132.7744333846226
 20
-151.489238351972
 30
0.0
 10
132.3967029293129
 20
-151.6412754698035
 30
0.0
 10
132.0197891671094
 20
-151.5869090868846
 30
0.0
 10
131.9316659204737
 20
-151.3679702214959
 30
0.0
 10
131.843555846222
 20
-151.1490640823964
 30
0.0
 10
132.0774306943426
 20
-150.8480557060857
 30
0.0
 10
132.4551611496523
 20
-150.6960185882535
 30
0.0
 10
132.8329170291415
 20
-150.5439712371492
 30
0.0
 10
133.2107619371405
 20
-150.5987614244459
 30
0.0
 10
133.2988720113928
 20
-150.8176675635461
 30
0.0
  0
SPLINE
  5
11F
330
70
100
AcDbEntity
  8
レイヤー 1
 62
   250
420
  2299925
370
     9
100
AcDbSpline
210
0.0
220
0.0
230
1.0
 70
     8
 71
     3
 72
    11
 73
     7
 74
     0
 42
0.0000000001
 43
0.0000000001
 40
0.0
 40
0.0
 40
0.0
 40
0.0
 40
1.0
 40
1.0
 40
1.0
 40
2.0
 40
2.0
 40
2.0
 40
2.0
 10
132.1381900079716
 20
-151.5379215705942
 30
0.0
 10
132.1381900079716
 20
-151.5379215705942
 30
0.0
 10
131.9260778964672
 20
-151.0699868226664
 30
0.0
 10
132.7150126070502
 20
-150.799023865509
 30
0.0
 10
132.7150126070502
 20
-150.799023865509
 30
0.0
 10
133.194594512344
 20
-150.6748984612759
 30
0.0
 10
133.2596703319143
 20
-151.0635168733419
 30
0.0
  0
SPLINE
  5
120
330
70
100
AcDbEntity
  8
レイヤー 1
 62
   250
420
  2299925
370
     9
100
AcDbSpline
210
0.0
220
0.0
230
1.0
 70
     9
 71
     3
 72
    17
 73
    13
 74
     0
 42
0.0000000001
 43
0.0000000001
 40
0.0
 40
0.0
 40
0.0
 40
0.0
 40
1.0
 40
1.0
 40
1.0
 40
2.0
 40
2.0
 40
2.0
 40
3.0
 40
3.0
 40
3.0
 40
4.0
 40
4.0
 40
4.0
 40
4.0
 10
132.674220161597
 20
-149.9839943691092
 30
0.0
 10
132.7623960977674
 20
-150.2030641396479
 30
0.0
 10
132.527109467907
 20
-150.5042604784517
 30
0.0
 10
132.1500044631034
 20
-150.6560458514454
 30
0.0
 10
131.772244932561
 20
-150.8080946721059
 30
0.0
 10
131.3951862741382
 20
-150.7533683000205
 30
0.0
 10
131.3070103379678
 20
-150.5342985294813
 30
0.0
 10
131.2188344017975
 20
-150.3152287589426
 30
0.0
 10
131.45303855951
 20
-150.0150385398278
 30
0.0
 10
131.8307980900518
 20
-149.8629897191673
 30
0.0
 10
132.2079030948559
 20
-149.7112043461736
 30
0.0
 10
132.5860442254273
 20
-149.76492459857
 30
0.0
 10
132.674220161597
 20
-149.9839943691092
 30
0.0
  0
SPLINE
  5
121
330
70
100
AcDbEntity
  8
レイヤー 1
 62
   250
420
  2299925
370
     9
100
AcDbSpline
210
0.0
220
0.0
230
1.0
 70
     8
 71
     3
 72
    11
 73
     7
 74
     0
 42
0.0000000001
 43
0.0000000001
 40
0.0
 40
0.0
 40
0.0
 40
0.0
 40
1.0
 40
1.0
 40
1.0
 40
2.0
 40
2.0
 40
2.0
 40
2.0
 10
131.5136661493017
 20
-150.704577141457
 30
0.0
 10
131.5136661493017
 20
-150.704577141457
 30
0.0
 10
131.3021332299119
 20
-150.2361810986082
 30
0.0
 10
132.0911105478327
 20
-149.9654291610888
 30
0.0
 10
132.0911105478327
 20
-149.9654291610888
 30
0.0
 10
132.5713006708505
 20
-149.84083077908
 30
0.0
 10
132.6351991627778
 20
-150.2303033493572
 30
0.0
  0
SPLINE
  5
122
330
70
100
AcDbEntity
  8
レイヤー 1
 62
   250
420
  2299925
370
     9
100
AcDbSpline
210
0.0
220
0.0
230
1.0
 70
     9
 71
     3
 72
    17
 73
    13
 74
     0
 42
0.0000000001
 43
0.0000000001
 40
0.0
 40
0.0
 40
0.0
 40
0.0
 40
1.0
 40
1.0
 40
1.0
 40
2.0
 40
2.0
 40
2.0
 40
3.0
 40
3.0
 40
3.0
 40
4.0
 40
4.0
 40
4.0
 40
4.0
 10
131.9490648335012
 20
-149.1791354206625
 30
0.0
 10
132.0371880801376
 20
-149.3980742860506
 30
0.0
 10
131.8023820862195
 20
-149.6986588579835
 30
0.0
 10
131.424626206731
 20
-149.8507062090884
 30
0.0
 10
131.0468957514213
 20
-150.0027433269206
 30
0.0
 10
130.6699819892178
 20
-149.9483769440004
 30
0.0
 10
130.5818587425821
 20
-149.7294380786124
 30
0.0
 10
130.4937486683303
 20
-149.5105319395128
 30
0.0
 10
130.7276235164509
 20
-149.2095235632021
 30
0.0
 10
131.1053539717607
 20
-149.05748644537
 30
0.0
 10
131.4831098512499
 20
-148.9054390942657
 30
0.0
 10
131.8609547592489
 20
-148.9602292815623
 30
0.0
 10
131.9490648335012
 20
-149.1791354206625
 30
0.0
  0
SPLINE
  5
123
330
70
100
AcDbEntity
  8
レイヤー 1
 62
   250
420
  2299925
370
     9
100
AcDbSpline
210
0.0
220
0.0
230
1.0
 70
     8
 71
     3
 72
    11
 73
     7
 74
     0
 42
0.0000000001
 43
0.0000000001
 40
0.0
 40
0.0
 40
0.0
 40
0.0
 40
1.0
 40
1.0
 40
1.0
 40
2.0
 40
2.0
 40
2.0
 40
2.0
 10
130.7883828300799
 20
-149.8993894277107
 30
0.0
 10
130.7883828300799
 20
-149.8993894277107
 30
0.0
 10
130.5762707185756
 20
-149.4314546797828
 30
0.0
 10
131.3652054291586
 20
-149.1604917226254
 30
0.0
 10
131.3652054291586
 20
-149.1604917226254
 30
0.0
 10
131.8447873344523
 20
-149.0363663183924
 30
0.0
 10
131.9098631540226
 20
-149.4249847304584
 30
0.0
  0
ENDSEC
  0
SECTION
  2
OBJECTS
  0
DICTIONARY
  5
C
330
0
100
AcDbDictionary
281
     1
  3
ACAD_COLOR
350
63
  3
ACAD_DETAILVIEWSTYLE
350
6A
  3
ACAD_GROUP
350
D
  3
ACAD_LAYOUT
350
62
  3
ACAD_MATERIAL
350
10
  3
ACAD_MLEADERSTYLE
350
66
  3
ACAD_MLINESTYLE
350
5F
  3
ACAD_PLOTSETTINGS
350
61
  3
ACAD_PLOTSTYLENAME
350
E
  3
ACAD_SCALELIST
350
42
  3
ACAD_SECTIONVIEWSTYLE
350
68
  3
ACAD_TABLESTYLE
350
64
  3
ACAD_VISUALSTYLE
350
29
  3
ACDB_RECOMPOSE_DATA
350
12C
  3
AcDbVariableDictionary
350
124
  0
DICTIONARY
  5
63
102
{ACAD_REACTORS
330
C
102
}
330
C
100
AcDbDictionary
281
     1
  0
DICTIONARY
  5
6A
102
{ACAD_REACTORS
330
C
102
}
330
C
100
AcDbDictionary
281
     1
  3
Imperial24
350
6B
  0
DICTIONARY
  5
D
102
{ACAD_REACTORS
330
C
102
}
330
C
100
AcDbDictionary
281
     1
  0
DICTIONARY
  5
62
102
{ACAD_REACTORS
330
C
102
}
330
C
100
AcDbDictionary
281
     1
  3
Layout1
350
6F
  3
Layout2
350
77
  3
Model
350
73
  0
DICTIONARY
  5
10
102
{ACAD_REACTORS
330
C
102
}
330
C
100
AcDbDictionary
281
     1
  3
ByBlock
350
19
  3
ByLayer
350
11
  3
Global
350
21
  0
DICTIONARY
  5
66
102
{ACAD_REACTORS
330
C
102
}
330
C
100
AcDbDictionary
281
     1
  3
Standard
350
67
  0
DICTIONARY
  5
5F
102
{ACAD_REACTORS
330
C
102
}
330
C
100
AcDbDictionary
281
     1
  3
Standard
350
60
  0
DICTIONARY
  5
61
102
{ACAD_REACTORS
330
C
102
}
330
C
100
AcDbDictionary
281
     1
  0
ACDBDICTIONARYWDFLT
  5
E
102
{ACAD_REACTORS
330
C
102
}
330
C
100
AcDbDictionary
281
     1
  3
Normal
350
F
100
AcDbDictionaryWithDefault
340
F
  0
DICTIONARY
  5
42
102
{ACAD_REACTORS
330
C
102
}
330
C
100
AcDbDictionary
281
     1
  3
A0
350
43
  3
A1
350
44
  3
A2
350
45
  3
A3
350
46
  3
A4
350
47
  3
A5
350
48
  3
A6
350
49
  3
A7
350
4A
  3
A8
350
4B
  3
A9
350
4C
  3
B0
350
4D
  3
B1
350
4E
  3
B2
350
4F
  3
B3
350
50
  3
B4
350
51
  3
B5
350
52
  3
B6
350
53
  0
DICTIONARY
  5
68
102
{ACAD_REACTORS
330
C
102
}
330
C
100
AcDbDictionary
281
     1
  3
Imperial24
350
69
  0
DICTIONARY
  5
64
102
{ACAD_REACTORS
330
C
102
}
330
C
100
AcDbDictionary
281
     1
  3
Standard
350
65
  0
DICTIONARY
  5
29
102
{ACAD_REACTORS
330
C
102
}
330
C
100
AcDbDictionary
281
     1
  3
2dWireframe
350
2F
  3
Basic
350
2E
  3
Brighten
350
35
  3
ColorChange
350
39
  3
Conceptual
350
32
  3
Dim
350
34
  3
EdgeColorOff
350
41
  3
Facepattern
350
38
  3
Flat
350
2A
  3
FlatWithEdges
350
2B
  3
Gouraud
350
2C
  3
GouraudWithEdges
350
2D
  3
Hidden
350
31
  3
JitterOff
350
3F
  3
Linepattern
350
37
  3
OverhangOff
350
40
  3
Realistic
350
33
  3
Shaded
350
3E
  3
Shaded with edges
350
3D
  3
Shades of Gray
350
3A
  3
Sketchy
350
3B
  3
Thicken
350
36
  3
Wireframe
350
30
  3
X-Ray
350
3C
  0
XRECORD
  5
12C
102
{ACAD_REACTORS
330
C
102
}
330
C
100
AcDbXrecord
280
     1
 90
        1
330
65
  0
DICTIONARY
  5
124
102
{ACAD_REACTORS
330
C
102
}
330
C
100
AcDbDictionary
281
     1
  3
CANNOSCALE
350
129
  3
CMLEADERSTYLE
350
126
  3
CTABLESTYLE
350
125
  3
CVIEWDETAILSTYLE
350
127
  3
CVIEWSECTIONSTYLE
350
128
  0
ACDBDETAILVIEWSTYLE
  5
6B
102
{ACAD_XDICTIONARY
360
161
102
}
102
{ACAD_REACTORS
330
6A
102
}
330
6A
100
AcDbModelDocViewStyle
 70
     0
  3
Imperial24
290
     0
100
AcDbDetailViewStyle
 70
     0
 71
     0
 90
        3
 71
     1
340
55
 62
   256
 40
0.24
340
0
 62
   256
 40
0.24
300

 40
0.36
280
     3
 71
     2
340
5D
 90
       25
 62
   256
 71
     3
340
55
 62
   256
 40
0.24
 90
        1
 40
0.75
 90
        1
300
%<\AcVar ViewType \f "%tc1">% %<\AcVar ViewDetailId>%\PSCALE %<\AcVar ViewScale \f "%sn">%
 71
     4
340
5D
 90
       25
 62
   256
340
5D
 90
       25
 62
   256
280
     0
  0
LAYOUT
  5
6F
102
{ACAD_REACTORS
330
62
102
}
330
62
100
AcDbPlotSettings
  1

  2

  4

  6

 40
0.0
 41
0.0
 42
0.0
 43
0.0
 44
0.0
 45
0.0
 46
0.0
 47
0.0
 48
0.0
 49
0.0
140
0.0
141
0.0
142
1.0
143
1.0
 70
   688
 72
     0
 73
     0
 74
     5
  7

 75
    16
147
1.0
 76
     0
 77
     2
 78
   300
148
0.0
149
0.0
100
AcDbLayout
  1
Layout1
 70
     1
 71
     1
 10
0.0
 20
0.0
 11
12.0
 21
9.0
 12
0.0
 22
0.0
 32
0.0
 14
0.0
 24
0.0
 34
0.0
 15
0.0
 25
0.0
 35
0.0
146
0.0
 13
0.0
 23
0.0
 33
0.0
 16
1.0
 26
0.0
 36
0.0
 17
0.0
 27
1.0
 37
0.0
 76
     0
330
6C
  0
LAYOUT
  5
77
102
{ACAD_REACTORS
330
62
102
}
330
62
100
AcDbPlotSettings
  1

  2

  4

  6

 40
0.0
 41
0.0
 42
0.0
 43
0.0
 44
0.0
 45
0.0
 46
0.0
 47
0.0
 48
0.0
 49
0.0
140
0.0
141
0.0
142
1.0
143
1.0
 70
   688
 72
     0
 73
     0
 74
     5
  7

 75
    16
147
1.0
 76
     0
 77
     2
 78
   300
148
0.0
149
0.0
100
AcDbLayout
  1
Layout2
 70
     1
 71
     2
 10
0.0
 20
0.0
 11
12.0
 21
9.0
 12
0.0
 22
0.0
 32
0.0
 14
0.0
 24
0.0
 34
0.0
 15
0.0
 25
0.0
 35
0.0
146
0.0
 13
0.0
 23
0.0
 33
0.0
 16
1.0
 26
0.0
 36
0.0
 17
0.0
 27
1.0
 37
0.0
 76
     0
330
74
  0
LAYOUT
  5
73
102
{ACAD_REACTORS
330
62
102
}
330
62
100
AcDbPlotSettings
  1

  2

  4

  6

 40
0.0
 41
0.0
 42
0.0
 43
0.0
 44
0.0
 45
0.0
 46
0.0
 47
0.0
 48
0.0
 49
0.0
140
0.0
141
0.0
142
1.0
143
1.0
 70
  1712
 72
     0
 73
     0
 74
     0
  7

 75
     0
147
1.0
 76
     0
 77
     2
 78
   300
148
0.0
149
0.0
100
AcDbLayout
  1
Model
 70
     1
 71
     0
 10
0.0
 20
0.0
 11
12.0
 21
9.0
 12
0.0
 22
0.0
 32
0.0
 14
0.0
 24
0.0
 34
0.0
 15
0.0
 25
0.0
 35
0.0
146
0.0
 13
0.0
 23
0.0
 33
0.0
 16
1.0
 26
0.0
 36
0.0
 17
0.0
 27
1.0
 37
0.0
 76
     0
330
70
  0
MATERIAL
  5
19
102
{ACAD_XDICTIONARY
360
1A
102
}
102
{ACAD_REACTORS
330
10
102
}
330
10
100
AcDbMaterial
  1
ByBlock
 72
     0
 43
0.0208333333333333
 43
0.0
 43
0.0
 43
0.0
 43
0.0
 43
0.0208333333333333
 43
0.0
 43
0.0
 43
0.0
 43
0.0
 43
1.0
 43
0.0
 43
0.0
 43
0.0
 43
0.0
 43
1.0
 77
     0
 47
0.0208333333333333
 47
0.0
 47
0.0
 47
0.0
 47
0.0
 47
0.0208333333333333
 47
0.0
 47
0.0
 47
0.0
 47
0.0
 47
1.0
 47
0.0
 47
0.0
 47
0.0
 47
0.0
 47
1.0
171
     0
 49
0.0208333333333333
 49
0.0
 49
0.0
 49
0.0
 49
0.0
 49
0.0208333333333333
 49
0.0
 49
0.0
 49
0.0
 49
0.0
 49
1.0
 49
0.0
 49
0.0
 49
0.0
 49
0.0
 49
1.0
175
     0
142
0.0208333333333333
142
0.0
142
0.0
142
0.0
142
0.0
142
0.0208333333333333
142
0.0
142
0.0
142
0.0
142
0.0
142
1.0
142
0.0
142
0.0
142
0.0
142
0.0
142
1.0
179
     0
144
0.0208333333333333
144
0.0
144
0.0
144
0.0
144
0.0
144
0.0208333333333333
144
0.0
144
0.0
144
0.0
144
0.0
144
1.0
144
0.0
144
0.0
144
0.0
144
0.0
144
1.0
147
0.0208333333333333
147
0.0
147
0.0
147
0.0
147
0.0
147
0.0208333333333333
147
0.0
147
0.0
147
0.0
147
0.0
147
1.0
147
0.0
147
0.0
147
0.0
147
0.0
147
1.0
  0
MATERIAL
  5
11
102
{ACAD_XDICTIONARY
360
12
102
}
102
{ACAD_REACTORS
330
10
102
}
330
10
100
AcDbMaterial
  1
ByLayer
 72
     0
 43
0.0208333333333333
 43
0.0
 43
0.0
 43
0.0
 43
0.0
 43
0.0208333333333333
 43
0.0
 43
0.0
 43
0.0
 43
0.0
 43
1.0
 43
0.0
 43
0.0
 43
0.0
 43
0.0
 43
1.0
 77
     0
 47
0.0208333333333333
 47
0.0
 47
0.0
 47
0.0
 47
0.0
 47
0.0208333333333333
 47
0.0
 47
0.0
 47
0.0
 47
0.0
 47
1.0
 47
0.0
 47
0.0
 47
0.0
 47
0.0
 47
1.0
171
     0
 49
0.0208333333333333
 49
0.0
 49
0.0
 49
0.0
 49
0.0
 49
0.0208333333333333
 49
0.0
 49
0.0
 49
0.0
 49
0.0
 49
1.0
 49
0.0
 49
0.0
 49
0.0
 49
0.0
 49
1.0
175
     0
142
0.0208333333333333
142
0.0
142
0.0
142
0.0
142
0.0
142
0.0208333333333333
142
0.0
142
0.0
142
0.0
142
0.0
142
1.0
142
0.0
142
0.0
142
0.0
142
0.0
142
1.0
179
     0
144
0.0208333333333333
144
0.0
144
0.0
144
0.0
144
0.0
144
0.0208333333333333
144
0.0
144
0.0
144
0.0
144
0.0
144
1.0
144
0.0
144
0.0
144
0.0
144
0.0
144
1.0
147
0.0208333333333333
147
0.0
147
0.0
147
0.0
147
0.0
147
0.0208333333333333
147
0.0
147
0.0
147
0.0
147
0.0
147
1.0
147
0.0
147
0.0
147
0.0
147
0.0
147
1.0
  0
MATERIAL
  5
21
102
{ACAD_XDICTIONARY
360
22
102
}
102
{ACAD_REACTORS
330
10
102
}
330
10
100
AcDbMaterial
  1
Global
 72
     0
 43
0.0208333333333333
 43
0.0
 43
0.0
 43
0.0
 43
0.0
 43
0.0208333333333333
 43
0.0
 43
0.0
 43
0.0
 43
0.0
 43
1.0
 43
0.0
 43
0.0
 43
0.0
 43
0.0
 43
1.0
 77
     0
 47
0.0208333333333333
 47
0.0
 47
0.0
 47
0.0
 47
0.0
 47
0.0208333333333333
 47
0.0
 47
0.0
 47
0.0
 47
0.0
 47
1.0
 47
0.0
 47
0.0
 47
0.0
 47
0.0
 47
1.0
171
     0
 49
0.0208333333333333
 49
0.0
 49
0.0
 49
0.0
 49
0.0
 49
0.0208333333333333
 49
0.0
 49
0.0
 49
0.0
 49
0.0
 49
1.0
 49
0.0
 49
0.0
 49
0.0
 49
0.0
 49
1.0
175
     0
142
0.0208333333333333
142
0.0
142
0.0
142
0.0
142
0.0
142
0.0208333333333333
142
0.0
142
0.0
142
0.0
142
0.0
142
1.0
142
0.0
142
0.0
142
0.0
142
0.0
142
1.0
179
     0
144
0.0208333333333333
144
0.0
144
0.0
144
0.0
144
0.0
144
0.0208333333333333
144
0.0
144
0.0
144
0.0
144
0.0
144
1.0
144
0.0
144
0.0
144
0.0
144
0.0
144
1.0
147
0.0208333333333333
147
0.0
147
0.0
147
0.0
147
0.0
147
0.0208333333333333
147
0.0
147
0.0
147
0.0
147
0.0
147
1.0
147
0.0
147
0.0
147
0.0
147
0.0
147
1.0
  0
MLEADERSTYLE
  5
67
102
{ACAD_XDICTIONARY
360
15D
102
}
102
{ACAD_REACTORS
330
66
102
}
330
66
100
AcDbMLeaderStyle
179
     2
170
     2
171
     1
172
     0
 90
        2
 40
0.0
 41
0.0
173
     1
 91
-1056964608
340
5B
 92
       -2
290
     1
 42
0.09
291
     1
 43
0.36
  3
Standard
 44
0.18
300

342
55
174
     1
178
     6
175
     1
176
     0
 93
-1056964608
 45
0.18
292
     0
297
     0
 46
0.18
 94
-1056964608
 47
1.0
 49
1.0
140
1.0
293
     1
141
0.0
294
     1
177
     0
142
1.0
295
     0
296
     0
143
0.125
271
     0
272
     9
273
     9
  0
MLINESTYLE
  5
60
102
{ACAD_REACTORS
330
5F
102
}
330
5F
100
AcDbMlineStyle
  2
STANDARD
 70
     0
  3

 62
   256
 51
90.0
 52
90.0
 71
     2
 49
0.5
 62
   256
  6
BYLAYER
 49
-0.5
 62
   256
  6
BYLAYER
  0
ACDBPLACEHOLDER
  5
F
102
{ACAD_REACTORS
330
E
102
}
330
E
  0
SCALE
  5
43
102
{ACAD_REACTORS
330
42
102
}
330
42
100
AcDbScale
 70
     0
300
1:1
140
1.0
141
1.0
290
     1
  0
SCALE
  5
44
102
{ACAD_REACTORS
330
42
102
}
330
42
100
AcDbScale
 70
     0
300
1/128" = 1'-0"
140
0.0078125
141
12.0
290
     0
  0
SCALE
  5
45
102
{ACAD_REACTORS
330
42
102
}
330
42
100
AcDbScale
 70
     0
300
1/64" = 1'-0"
140
0.015625
141
12.0
290
     0
  0
SCALE
  5
46
102
{ACAD_REACTORS
330
42
102
}
330
42
100
AcDbScale
 70
     0
300
1/32" = 1'-0"
140
0.03125
141
12.0
290
     0
  0
SCALE
  5
47
102
{ACAD_REACTORS
330
42
102
}
330
42
100
AcDbScale
 70
     0
300
1/16" = 1'-0"
140
0.0625
141
12.0
290
     0
  0
SCALE
  5
48
102
{ACAD_REACTORS
330
42
102
}
330
42
100
AcDbScale
 70
     0
300
3/32" = 1'-0"
140
0.09375
141
12.0
290
     0
  0
SCALE
  5
49
102
{ACAD_REACTORS
330
42
102
}
330
42
100
AcDbScale
 70
     0
300
1/8" = 1'-0"
140
0.125
141
12.0
290
     0
  0
SCALE
  5
4A
102
{ACAD_REACTORS
330
42
102
}
330
42
100
AcDbScale
 70
     0
300
3/16" = 1'-0"
140
0.1875
141
12.0
290
     0
  0
SCALE
  5
4B
102
{ACAD_REACTORS
330
42
102
}
330
42
100
AcDbScale
 70
     0
300
1/4" = 1'-0"
140
0.25
141
12.0
290
     0
  0
SCALE
  5
4C
102
{ACAD_REACTORS
330
42
102
}
330
42
100
AcDbScale
 70
     0
300
3/8" = 1'-0"
140
0.375
141
12.0
290
     0
  0
SCALE
  5
4D
102
{ACAD_REACTORS
330
42
102
}
330
42
100
AcDbScale
 70
     0
300
1/2" = 1'-0"
140
0.5
141
12.0
290
     0
  0
SCALE
  5
4E
102
{ACAD_REACTORS
330
42
102
}
330
42
100
AcDbScale
 70
     0
300
3/4" = 1'-0"
140
0.75
141
12.0
290
     0
  0
SCALE
  5
4F
102
{ACAD_REACTORS
330
42
102
}
330
42
100
AcDbScale
 70
     0
300
1" = 1'-0"
140
1.0
141
12.0
290
     0
  0
SCALE
  5
50
102
{ACAD_REACTORS
330
42
102
}
330
42
100
AcDbScale
 70
     0
300
1-1/2" = 1'-0"
140
1.5
141
12.0
290
     0
  0
SCALE
  5
51
102
{ACAD_REACTORS
330
42
102
}
330
42
100
AcDbScale
 70
     0
300
3" = 1'-0"
140
3.0
141
12.0
290
     0
  0
SCALE
  5
52
102
{ACAD_REACTORS
330
42
102
}
330
42
100
AcDbScale
 70
     0
300
6" = 1'-0"
140
6.0
141
12.0
290
     0
  0
SCALE
  5
53
102
{ACAD_REACTORS
330
42
102
}
330
42
100
AcDbScale
 70
     0
300
1'-0" = 1'-0"
140
12.0
141
12.0
290
     0
  0
ACDBSECTIONVIEWSTYLE
  5
69
102
{ACAD_XDICTIONARY
360
15F
102
}
102
{ACAD_REACTORS
330
68
102
}
330
68
100
AcDbModelDocViewStyle
 70
     0
  3
Imperial24
290
     0
100
AcDbSectionViewStyle
 70
     0
 71
     0
 90
       78
 71
     1
340
55
 62
   256
 40
0.24
340
0
340
0
 62
   256
 40
0.24
300
I, O, Q, S, X, Z
 40
0.48
 90
        3
 40
0.18
 90
        1
 71
     2
340
5D
 90
       25
 62
   256
340
5D
 90
       50
 62
   256
 40
0.24
 40
0.0
 40
0.24
 71
     3
340
55
 62
   256
 40
0.24
 90
        1
 40
0.75
 90
        1
300
%<\AcVar ViewType \f "%tc1">% %<\AcVar ViewSectionStartId>%-%<\AcVar ViewSectionEndId>%\PSCALE %<\AcVar ViewScale \f "%sn">%
 71
     4
 62
   256
 62
   257
300
ANSI31
 40
1.0
 90
        0
290
     0
290
     0
 90
        6
 40
0.0
 40
1.570796326794896
 40
0.2617993877991494
 40
1.308996938995747
 40
-0.2617993877991494
 40
1.832595714594046
  0
TABLESTYLE
  5
65
102
{ACAD_XDICTIONARY
360
12A
102
}
102
{ACAD_REACTORS
330
64
102
}
330
64
100
AcDbTableStyle
280
     0
  3
Standard
 70
     0
 71
     0
 40
0.06
 41
0.06
280
     0
281
     0
  7
Standard
140
0.18
170
     2
 62
     0
 63
     7
283
     0
 90
      512
 91
        0
  1

274
    -2
284
     1
 64
     0
275
    -2
285
     1
 65
     0
276
    -2
286
     1
 66
     0
277
    -2
287
     1
 67
     0
278
    -2
288
     1
 68
     0
279
    -2
289
     1
 69
     0
  7
Standard
140
0.25
170
     5
 62
     0
 63
     7
283
     0
 90
      512
 91
        0
  1

274
    -2
284
     1
 64
     0
275
    -2
285
     1
 65
     0
276
    -2
286
     1
 66
     0
277
    -2
287
     1
 67
     0
278
    -2
288
     1
 68
     0
279
    -2
289
     1
 69
     0
  7
Standard
140
0.18
170
     5
 62
     0
 63
     7
283
     0
 90
      512
 91
        0
  1

274
    -2
284
     1
 64
     0
275
    -2
285
     1
 65
     0
276
    -2
286
     1
 66
     0
277
    -2
287
     1
 67
     0
278
    -2
288
     1
 68
     0
279
    -2
289
     1
 69
     0
  0
VISUALSTYLE
  5
2F
102
{ACAD_XDICTIONARY
360
137
102
}
102
{ACAD_REACTORS
330
29
102
}
330
29
100
AcDbVisualStyle
  2
2dWireframe
 70
     4
177
     2
291
     0
 71
     0
176
     1
 72
     2
176
     1
 73
     0
176
     1
 90
        0
176
     1
 40
0.6
176
     1
 41
30.0
176
     1
 63
     7
421
 16777215
176
     1
 74
     1
176
     1
 91
        4
176
     1
 64
     7
176
     1
 65
   257
176
     1
 75
     1
176
     1
175
     1
176
     1
 42
1.0
176
     1
 92
        0
176
     1
 66
   257
176
     1
 43
1.0
176
     1
 76
     1
176
     1
 77
     6
176
     1
 78
     2
176
     1
 67
     7
176
     1
 79
     5
176
     1
170
     0
176
     1
171
     0
176
     1
290
     0
176
     1
 93
        1
176
     1
 44
0.0
176
     1
173
     0
176
     1
1001
ACAD
1000
AcDbSavedByObjectVersion
1070
     0
  0
VISUALSTYLE
  5
2E
102
{ACAD_XDICTIONARY
360
135
102
}
102
{ACAD_REACTORS
330
29
102
}
330
29
100
AcDbVisualStyle
  2
Basic
 70
     7
177
     2
291
     1
 71
     1
176
     1
 72
     0
176
     1
 73
     1
176
     1
 90
        0
176
     1
 40
0.6
176
     1
 41
30.0
176
     1
 63
     7
421
 16777215
176
     1
 74
     0
176
     1
 91
        4
176
     1
 64
     7
176
     1
 65
   257
176
     1
 75
     1
176
     1
175
     1
176
     1
 42
1.0
176
     1
 92
        8
176
     1
 66
     7
176
     1
 43
1.0
176
     1
 76
     1
176
     1
 77
     6
176
     1
 78
     2
176
     1
 67
     7
176
     1
 79
     5
176
     1
170
     0
176
     1
171
     0
176
     1
290
     0
176
     1
 93
        1
176
     1
 44
0.0
176
     1
173
     0
176
     1
1001
ACAD
1000
AcDbSavedByObjectVersion
1070
     0
  0
VISUALSTYLE
  5
35
102
{ACAD_XDICTIONARY
360
143
102
}
102
{ACAD_REACTORS
330
29
102
}
330
29
100
AcDbVisualStyle
  2
Brighten
 70
    12
177
     2
291
     1
 71
     2
176
     1
 72
     2
176
     1
 73
     0
176
     1
 90
        0
176
     1
 40
0.6
176
     1
 41
30.0
176
     1
 63
     7
421
 16777215
176
     1
 74
     1
176
     1
 91
        4
176
     1
 64
     7
176
     1
 65
   257
176
     1
 75
     1
176
     1
175
     1
176
     1
 42
1.0
176
     1
 92
        8
176
     1
 66
     7
176
     1
 43
1.0
176
     1
 76
     1
176
     1
 77
     6
176
     1
 78
     2
176
     1
 67
     7
176
     1
 79
     5
176
     1
170
     0
176
     1
171
     0
176
     1
290
     0
176
     1
 93
        1
176
     1
 44
50.0
176
     1
173
     0
176
     1
1001
ACAD
1000
AcDbSavedByObjectVersion
1070
     0
  0
VISUALSTYLE
  5
39
102
{ACAD_XDICTIONARY
360
14B
102
}
102
{ACAD_REACTORS
330
29
102
}
330
29
100
AcDbVisualStyle
  2
ColorChange
 70
    16
177
     2
291
     1
 71
     2
176
     1
 72
     2
176
     1
 73
     3
176
     1
 90
        0
176
     1
 40
0.6
176
     1
 41
30.0
176
     1
 63
     8
421
  8421504
176
     1
 74
     1
176
     1
 91
        4
176
     1
 64
     7
176
     1
 65
   257
176
     1
 75
     1
176
     1
175
     1
176
     1
 42
1.0
176
     1
 92
        8
176
     1
 66
     8
424
  8421504
176
     1
 43
1.0
176
     1
 76
     1
176
     1
 77
     6
176
     1
 78
     2
176
     1
 67
     7
176
     1
 79
     5
176
     1
170
     0
176
     1
171
     0
176
     1
290
     0
176
     1
 93
        1
176
     1
 44
0.0
176
     1
173
     0
176
     1
1001
ACAD
1000
AcDbSavedByObjectVersion
1070
     0
  0
VISUALSTYLE
  5
32
102
{ACAD_XDICTIONARY
360
13D
102
}
102
{ACAD_REACTORS
330
29
102
}
330
29
100
AcDbVisualStyle
  2
Conceptual
 70
     9
177
     2
291
     0
 71
     3
176
     1
 72
     2
176
     1
 73
     0
176
     1
 90
        0
176
     1
 40
0.6
176
     1
 41
30.0
176
     1
 63
     7
421
 16777215
176
     1
 74
     2
176
     1
 91
        2
176
     1
 64
     7
176
     1
 65
   257
176
     1
 75
     1
176
     1
175
     1
176
     1
 42
179.0
176
     1
 92
        8
176
     1
 66
     7
176
     1
 43
1.0
176
     1
 76
     1
176
     1
 77
     6
176
     1
 78
     2
176
     1
 67
     7
176
     1
 79
     3
176
     1
170
     0
176
     1
171
     0
176
     1
290
     0
176
     1
 93
        1
176
     1
 44
0.0
176
     1
173
     0
176
     1
1001
ACAD
1000
AcDbSavedByObjectVersion
1070
     0
  0
VISUALSTYLE
  5
34
102
{ACAD_XDICTIONARY
360
141
102
}
102
{ACAD_REACTORS
330
29
102
}
330
29
100
AcDbVisualStyle
  2
Dim
 70
    11
177
     2
291
     1
 71
     2
176
     1
 72
     2
176
     1
 73
     0
176
     1
 90
        0
176
     1
 40
0.6
176
     1
 41
30.0
176
     1
 63
     7
421
 16777215
176
     1
 74
     1
176
     1
 91
        4
176
     1
 64
     7
176
     1
 65
   257
176
     1
 75
     1
176
     1
175
     1
176
     1
 42
1.0
176
     1
 92
        8
176
     1
 66
     7
176
     1
 43
1.0
176
     1
 76
     1
176
     1
 77
     6
176
     1
 78
     2
176
     1
 67
     7
176
     1
 79
     5
176
     1
170
     0
176
     1
171
     0
176
     1
290
     0
176
     1
 93
        1
176
     1
 44
-50.0
176
     1
173
     0
176
     1
1001
ACAD
1000
AcDbSavedByObjectVersion
1070
     0
  0
VISUALSTYLE
  5
41
102
{ACAD_XDICTIONARY
360
15B
102
}
102
{ACAD_REACTORS
330
29
102
}
330
29
100
AcDbVisualStyle
  2
EdgeColorOff
 70
    22
177
     2
291
     1
 71
     2
176
     0
 72
     2
176
     0
 73
     0
176
     0
 90
        0
176
     0
 40
0.6
176
     0
 41
30.0
176
     0
 63
     7
421
 16777215
176
     0
 74
     1
176
     0
 91
        4
176
     0
 64
     7
176
     0
 65
   257
176
     0
 75
     1
176
     0
175
     1
176
     0
 42
1.0
176
     0
 92
        8
176
     2
 66
     7
176
     0
 43
1.0
176
     0
 76
     1
176
     0
 77
     6
176
     0
 78
     2
176
     0
 67
     7
176
     0
 79
     5
176
     0
170
     0
176
     0
171
     0
176
     0
290
     0
176
     0
 93
        1
176
     0
 44
0.0
176
     0
173
     0
176
     0
1001
ACAD
1000
AcDbSavedByObjectVersion
1070
     0
  0
VISUALSTYLE
  5
38
102
{ACAD_XDICTIONARY
360
149
102
}
102
{ACAD_REACTORS
330
29
102
}
330
29
100
AcDbVisualStyle
  2
Facepattern
 70
    15
177
     2
291
     1
 71
     2
176
     1
 72
     2
176
     1
 73
     0
176
     1
 90
        0
176
     1
 40
0.6
176
     1
 41
30.0
176
     1
 63
     7
421
 16777215
176
     1
 74
     1
176
     1
 91
        4
176
     1
 64
     7
176
     1
 65
   257
176
     1
 75
     1
176
     1
175
     1
176
     1
 42
1.0
176
     1
 92
        8
176
     1
 66
     7
176
     1
 43
1.0
176
     1
 76
     1
176
     1
 77
     6
176
     1
 78
     2
176
     1
 67
     7
176
     1
 79
     5
176
     1
170
     0
176
     1
171
     0
176
     1
290
     0
176
     1
 93
        1
176
     1
 44
0.0
176
     1
173
     0
176
     1
1001
ACAD
1000
AcDbSavedByObjectVersion
1070
     0
  0
VISUALSTYLE
  5
2A
102
{ACAD_XDICTIONARY
360
12D
102
}
102
{ACAD_REACTORS
330
29
102
}
330
29
100
AcDbVisualStyle
  2
Flat
 70
     0
177
     2
291
     1
 71
     2
176
     1
 72
     1
176
     1
 73
     1
176
     1
 90
        2
176
     1
 40
0.6
176
     1
 41
30.0
176
     1
 63
     7
421
 16777215
176
     1
 74
     0
176
     1
 91
        0
176
     1
 64
     7
176
     1
 65
   257
176
     1
 75
     1
176
     1
175
     1
176
     1
 42
1.0
176
     1
 92
        8
176
     1
 66
     7
176
     1
 43
1.0
176
     1
 76
     1
176
     1
 77
     6
176
     1
 78
     2
176
     1
 67
     7
176
     1
 79
     5
176
     1
170
     0
176
     1
171
     0
176
     1
290
     0
176
     1
 93
       13
176
     1
 44
0.0
176
     1
173
     0
176
     1
1001
ACAD
1000
AcDbSavedByObjectVersion
1070
     0
  0
VISUALSTYLE
  5
2B
102
{ACAD_XDICTIONARY
360
12F
102
}
102
{ACAD_REACTORS
330
29
102
}
330
29
100
AcDbVisualStyle
  2
FlatWithEdges
 70
     1
177
     2
291
     1
 71
     2
176
     1
 72
     1
176
     1
 73
     1
176
     1
 90
        2
176
     1
 40
0.6
176
     1
 41
30.0
176
     1
 63
     7
421
 16777215
176
     1
 74
     1
176
     1
 91
        0
176
     1
 64
     7
176
     1
 65
   257
176
     1
 75
     1
176
     1
175
     1
176
     1
 42
1.0
176
     1
 92
        0
176
     1
 66
   257
176
     1
 43
1.0
176
     1
 76
     1
176
     1
 77
     6
176
     1
 78
     2
176
     1
 67
     7
176
     1
 79
     5
176
     1
170
     0
176
     1
171
     0
176
     1
290
     0
176
     1
 93
       13
176
     1
 44
0.0
176
     1
173
     0
176
     1
1001
ACAD
1000
AcDbSavedByObjectVersion
1070
     0
  0
VISUALSTYLE
  5
2C
102
{ACAD_XDICTIONARY
360
131
102
}
102
{ACAD_REACTORS
330
29
102
}
330
29
100
AcDbVisualStyle
  2
Gouraud
 70
     2
177
     2
291
     1
 71
     2
176
     1
 72
     2
176
     1
 73
     1
176
     1
 90
        2
176
     1
 40
0.6
176
     1
 41
30.0
176
     1
 63
     7
421
 16777215
176
     1
 74
     0
176
     1
 91
        0
176
     1
 64
     7
176
     1
 65
   257
176
     1
 75
     1
176
     1
175
     1
176
     1
 42
1.0
176
     1
 92
        0
176
     1
 66
     7
176
     1
 43
1.0
176
     1
 76
     1
176
     1
 77
     6
176
     1
 78
     2
176
     1
 67
     7
176
     1
 79
     5
176
     1
170
     0
176
     1
171
     0
176
     1
290
     0
176
     1
 93
       13
176
     1
 44
0.0
176
     1
173
     0
176
     1
1001
ACAD
1000
AcDbSavedByObjectVersion
1070
     0
  0
VISUALSTYLE
  5
2D
102
{ACAD_XDICTIONARY
360
133
102
}
102
{ACAD_REACTORS
330
29
102
}
330
29
100
AcDbVisualStyle
  2
GouraudWithEdges
 70
     3
177
     2
291
     1
 71
     2
176
     1
 72
     2
176
     1
 73
     1
176
     1
 90
        2
176
     1
 40
0.6
176
     1
 41
30.0
176
     1
 63
     7
421
 16777215
176
     1
 74
     1
176
     1
 91
        0
176
     1
 64
     7
176
     1
 65
   257
176
     1
 75
     1
176
     1
175
     1
176
     1
 42
1.0
176
     1
 92
        0
176
     1
 66
   257
176
     1
 43
1.0
176
     1
 76
     1
176
     1
 77
     6
176
     1
 78
     2
176
     1
 67
     7
176
     1
 79
     5
176
     1
170
     0
176
     1
171
     0
176
     1
290
     0
176
     1
 93
       13
176
     1
 44
0.0
176
     1
173
     0
176
     1
1001
ACAD
1000
AcDbSavedByObjectVersion
1070
     0
  0
VISUALSTYLE
  5
31
102
{ACAD_XDICTIONARY
360
13B
102
}
102
{ACAD_REACTORS
330
29
102
}
330
29
100
AcDbVisualStyle
  2
Hidden
 70
     6
177
     2
291
     0
 71
     1
176
     1
 72
     2
176
     1
 73
     2
176
     1
 90
        0
176
     1
 40
0.6
176
     1
 41
30.0
176
     1
 63
     7
421
 16777215
176
     1
 74
     2
176
     1
 91
        2
176
     1
 64
     7
176
     1
 65
   257
176
     1
 75
     2
176
     1
175
     1
176
     1
 42
40.0
176
     1
 92
        0
176
     1
 66
   257
176
     1
 43
1.0
176
     1
 76
     1
176
     1
 77
     6
176
     1
 78
     2
176
     1
 67
     7
176
     1
 79
     3
176
     1
170
     0
176
     1
171
     0
176
     1
290
     0
176
     1
 93
        1
176
     1
 44
0.0
176
     1
173
     0
176
     1
1001
ACAD
1000
AcDbSavedByObjectVersion
1070
     0
  0
VISUALSTYLE
  5
3F
102
{ACAD_XDICTIONARY
360
157
102
}
102
{ACAD_REACTORS
330
29
102
}
330
29
100
AcDbVisualStyle
  2
JitterOff
 70
    20
177
     2
291
     1
 71
     2
176
     0
 72
     2
176
     0
 73
     0
176
     0
 90
        0
176
     0
 40
0.6
176
     0
 41
30.0
176
     0
 63
     7
421
 16777215
176
     0
 74
     1
176
     0
 91
        4
176
     0
 64
     7
176
     0
 65
   257
176
     0
 75
     1
176
     0
175
     1
176
     0
 42
1.0
176
     0
 92
       10
176
     2
 66
     7
176
     0
 43
1.0
176
     0
 76
     1
176
     0
 77
     6
176
     0
 78
     2
176
     0
 67
     7
176
     0
 79
     5
176
     0
170
     0
176
     0
171
     0
176
     0
290
     0
176
     0
 93
        1
176
     0
 44
0.0
176
     0
173
     0
176
     0
1001
ACAD
1000
AcDbSavedByObjectVersion
1070
     0
  0
VISUALSTYLE
  5
37
102
{ACAD_XDICTIONARY
360
147
102
}
102
{ACAD_REACTORS
330
29
102
}
330
29
100
AcDbVisualStyle
  2
Linepattern
 70
    14
177
     2
291
     1
 71
     2
176
     1
 72
     2
176
     1
 73
     0
176
     1
 90
        0
176
     1
 40
0.6
176
     1
 41
30.0
176
     1
 63
     7
421
 16777215
176
     1
 74
     1
176
     1
 91
        4
176
     1
 64
     7
176
     1
 65
   257
176
     1
 75
     7
176
     1
175
     7
176
     1
 42
1.0
176
     1
 92
        8
176
     1
 66
     7
176
     1
 43
1.0
176
     1
 76
     1
176
     1
 77
     6
176
     1
 78
     2
176
     1
 67
     7
176
     1
 79
     5
176
     1
170
     0
176
     1
171
     0
176
     1
290
     0
176
     1
 93
        1
176
     1
 44
0.0
176
     1
173
     0
176
     1
1001
ACAD
1000
AcDbSavedByObjectVersion
1070
     0
  0
VISUALSTYLE
  5
40
102
{ACAD_XDICTIONARY
360
159
102
}
102
{ACAD_REACTORS
330
29
102
}
330
29
100
AcDbVisualStyle
  2
OverhangOff
 70
    21
177
     2
291
     1
 71
     2
176
     0
 72
     2
176
     0
 73
     0
176
     0
 90
        0
176
     0
 40
0.6
176
     0
 41
30.0
176
     0
 63
     7
421
 16777215
176
     0
 74
     1
176
     0
 91
        4
176
     0
 64
     7
176
     0
 65
   257
176
     0
 75
     1
176
     0
175
     1
176
     0
 42
1.0
176
     0
 92
        9
176
     2
 66
     7
176
     0
 43
1.0
176
     0
 76
     1
176
     0
 77
     6
176
     0
 78
     2
176
     0
 67
     7
176
     0
 79
     5
176
     0
170
     0
176
     0
171
     0
176
     0
290
     0
176
     0
 93
        1
176
     0
 44
0.0
176
     0
173
     0
176
     0
1001
ACAD
1000
AcDbSavedByObjectVersion
1070
     0
  0
VISUALSTYLE
  5
33
102
{ACAD_XDICTIONARY
360
13F
102
}
102
{ACAD_REACTORS
330
29
102
}
330
29
100
AcDbVisualStyle
  2
Realistic
 70
     8
177
     2
291
     0
 71
     2
176
     1
 72
     3
176
     1
 73
     0
176
     1
 90
        2
176
     1
 40
0.6
176
     1
 41
30.0
176
     1
 63
     7
421
 16777215
176
     1
 74
     0
176
     1
 91
        0
176
     1
 64
     7
176
     1
 65
   257
176
     1
 75
     1
176
     1
175
     1
176
     1
 42
1.0
176
     1
 92
        8
176
     1
 66
   257
176
     1
 43
1.0
176
     1
 76
     1
176
     1
 77
     6
176
     1
 78
     2
176
     1
 67
     7
176
     1
 79
     3
176
     1
170
     0
176
     1
171
     0
176
     1
290
     0
176
     1
 93
       13
176
     1
 44
0.0
176
     1
173
     0
176
     1
1001
ACAD
1000
AcDbSavedByObjectVersion
1070
     0
  0
VISUALSTYLE
  5
3E
102
{ACAD_XDICTIONARY
360
155
102
}
102
{ACAD_REACTORS
330
29
102
}
330
29
100
AcDbVisualStyle
  2
Shaded
 70
    27
177
     2
291
     0
 71
     2
176
     1
 72
     2
176
     1
 73
     1
176
     1
 90
        2
176
     1
 40
0.6
176
     1
 41
30.0
176
     1
 63
     7
421
 16777215
176
     1
 74
     0
176
     1
 91
        4
176
     1
 64
     7
176
     1
 65
   257
176
     1
 75
     1
176
     1
175
     1
176
     1
 42
1.0
176
     1
 92
        8
176
     1
 66
   257
176
     1
 43
1.0
176
     1
 76
     1
176
     1
 77
     6
176
     1
 78
     2
176
     1
 67
     8
425
  7895160
176
     1
 79
     3
176
     1
170
     0
176
     1
171
     0
176
     1
290
     0
176
     1
 93
        5
176
     1
 44
0.0
176
     1
173
     0
176
     1
1001
ACAD
1000
AcDbSavedByObjectVersion
1070
     0
  0
VISUALSTYLE
  5
3D
102
{ACAD_XDICTIONARY
360
153
102
}
102
{ACAD_REACTORS
330
29
102
}
330
29
100
AcDbVisualStyle
  2
Shaded with edges
 70
    26
177
     2
291
     0
 71
     2
176
     1
 72
     2
176
     1
 73
     1
176
     1
 90
        2
176
     1
 40
0.6
176
     1
 41
30.0
176
     1
 63
     7
421
 16777215
176
     1
 74
     1
176
     1
 91
        2
176
     1
 64
     7
176
     1
 65
   257
176
     1
 75
     2
176
     1
175
     1
176
     1
 42
1.0
176
     1
 92
        8
176
     1
 66
   257
176
     1
 43
1.0
176
     1
 76
     1
176
     1
 77
     6
176
     1
 78
     2
176
     1
 67
     7
176
     1
 79
     3
176
     1
170
     0
176
     1
171
     0
176
     1
290
     0
176
     1
 93
        5
176
     1
 44
0.0
176
     1
173
     0
176
     1
1001
ACAD
1000
AcDbSavedByObjectVersion
1070
     0
  0
VISUALSTYLE
  5
3A
102
{ACAD_XDICTIONARY
360
14D
102
}
102
{ACAD_REACTORS
330
29
102
}
330
29
100
AcDbVisualStyle
  2
Shades of Gray
 70
    23
177
     2
291
     0
 71
     2
176
     1
 72
     2
176
     1
 73
     3
176
     1
 90
        0
176
     1
 40
0.6
176
     1
 41
30.0
176
     1
 63
     7
421
 16777215
176
     1
 74
     2
176
     1
 91
        2
176
     1
 64
     7
176
     1
 65
     7
176
     1
 75
     1
176
     1
175
     1
176
     1
 42
40.0
176
     1
 92
        8
176
     1
 66
     7
176
     1
 43
1.0
176
     1
 76
     1
176
     1
 77
     6
176
     1
 78
     2
176
     1
 67
     7
176
     1
 79
     3
176
     1
170
     0
176
     1
171
     0
176
     1
290
     0
176
     1
 93
        1
176
     1
 44
0.0
176
     1
173
     0
176
     1
1001
ACAD
1000
AcDbSavedByObjectVersion
1070
     0
  0
VISUALSTYLE
  5
3B
102
{ACAD_XDICTIONARY
360
14F
102
}
102
{ACAD_REACTORS
330
29
102
}
330
29
100
AcDbVisualStyle
  2
Sketchy
 70
    24
177
     2
291
     0
 71
     1
176
     1
 72
     2
176
     1
 73
     2
176
     1
 90
        0
176
     1
 40
0.6
176
     1
 41
30.0
176
     1
 63
     7
421
 16777215
176
     1
 74
     2
176
     1
 91
        2
176
     1
 64
     7
176
     1
 65
     7
176
     1
 75
     1
176
     1
175
     1
176
     1
 42
40.0
176
     1
 92
       11
176
     1
 66
     7
176
     1
 43
1.0
176
     1
 76
     1
176
     1
 77
     6
176
     1
 78
     2
176
     1
 67
     7
176
     1
 79
     6
176
     1
170
     0
176
     1
171
     0
176
     1
290
     0
176
     1
 93
        1
176
     1
 44
0.0
176
     1
173
     0
176
     1
1001
ACAD
1000
AcDbSavedByObjectVersion
1070
     0
  0
VISUALSTYLE
  5
36
102
{ACAD_XDICTIONARY
360
145
102
}
102
{ACAD_REACTORS
330
29
102
}
330
29
100
AcDbVisualStyle
  2
Thicken
 70
    13
177
     2
291
     1
 71
     2
176
     1
 72
     2
176
     1
 73
     0
176
     1
 90
        0
176
     1
 40
0.6
176
     1
 41
30.0
176
     1
 63
     7
421
 16777215
176
     1
 74
     1
176
     1
 91
        4
176
     1
 64
     7
176
     1
 65
   257
176
     1
 75
     1
176
     1
175
     1
176
     1
 42
1.0
176
     1
 92
       12
176
     1
 66
     7
176
     1
 43
1.0
176
     1
 76
     1
176
     1
 77
     6
176
     1
 78
     2
176
     1
 67
     7
176
     1
 79
     5
176
     1
170
     0
176
     1
171
     0
176
     1
290
     0
176
     1
 93
        1
176
     1
 44
0.0
176
     1
173
     0
176
     1
1001
ACAD
1000
AcDbSavedByObjectVersion
1070
     0
  0
VISUALSTYLE
  5
30
102
{ACAD_XDICTIONARY
360
139
102
}
102
{ACAD_REACTORS
330
29
102
}
330
29
100
AcDbVisualStyle
  2
Wireframe
 70
     5
177
     2
291
     0
 71
     0
176
     1
 72
     2
176
     1
 73
     0
176
     1
 90
        0
176
     1
 40
0.6
176
     1
 41
30.0
176
     1
 63
     7
421
 16777215
176
     1
 74
     1
176
     1
 91
        4
176
     1
 64
     7
176
     1
 65
   257
176
     1
 75
     1
176
     1
175
     1
176
     1
 42
1.0
176
     1
 92
        0
176
     1
 66
   257
176
     1
 43
1.0
176
     1
 76
     1
176
     1
 77
     6
176
     1
 78
     2
176
     1
 67
     7
176
     1
 79
     3
176
     1
170
     0
176
     1
171
     0
176
     1
290
     0
176
     1
 93
        1
176
     1
 44
0.0
176
     1
173
     0
176
     1
1001
ACAD
1000
AcDbSavedByObjectVersion
1070
     0
  0
VISUALSTYLE
  5
3C
102
{ACAD_XDICTIONARY
360
151
102
}
102
{ACAD_REACTORS
330
29
102
}
330
29
100
AcDbVisualStyle
  2
X-Ray
 70
    25
177
     2
291
     0
 71
     2
176
     1
 72
     2
176
     1
 73
     1
176
     1
 90
        1
176
     1
 40
0.5
176
     1
 41
30.0
176
     1
 63
     7
421
 16777215
176
     1
 74
     1
176
     1
 91
        0
176
     1
 64
     7
176
     1
 65
   257
176
     1
 75
     1
176
     1
175
     1
176
     1
 42
1.0
176
     1
 92
        8
176
     1
 66
     7
176
     1
 43
1.0
176
     1
 76
     1
176
     1
 77
     6
176
     1
 78
     2
176
     1
 67
     7
176
     1
 79
     3
176
     1
170
     0
176
     1
171
     0
176
     1
290
     0
176
     1
 93
       13
176
     1
 44
0.0
176
     1
173
     0
176
     1
1001
ACAD
1000
AcDbSavedByObjectVersion
1070
     0
  0
DICTIONARYVAR
  5
129
102
{ACAD_REACTORS
330
124
102
}
330
124
100
DictionaryVariables
280
     0
  1
1:1
  0
DICTIONARYVAR
  5
126
102
{ACAD_REACTORS
330
124
102
}
330
124
100
DictionaryVariables
280
     0
  1
STANDARD
  0
DICTIONARYVAR
  5
125
102
{ACAD_REACTORS
330
124
102
}
330
124
100
DictionaryVariables
280
     0
  1
STANDARD
  0
DICTIONARYVAR
  5
127
102
{ACAD_REACTORS
330
124
102
}
330
124
100
DictionaryVariables
280
     0
  1
Imperial24
  0
DICTIONARYVAR
  5
128
102
{ACAD_REACTORS
330
124
102
}
330
124
100
DictionaryVariables
280
     0
  1
Imperial24
  0
DICTIONARY
  5
161
330
6B
100
AcDbDictionary
280
     1
281
     1
  3
ACAD_XREC_ROUNDTRIP
360
162
  0
DICTIONARY
  5
1A
330
19
100
AcDbDictionary
280
     1
281
     1
  3
BUMPTILE
360
1C
  3
DIFFUSETILE
360
1B
  3
OPACITYTILE
360
1F
  3
REFLECTIONTILE
360
1E
  3
REFRACTIONTILE
360
20
  3
SPECULARTILE
360
1D
  0
DICTIONARY
  5
12
330
11
100
AcDbDictionary
280
     1
281
     1
  3
BUMPTILE
360
14
  3
DIFFUSETILE
360
13
  3
OPACITYTILE
360
17
  3
REFLECTIONTILE
360
16
  3
REFRACTIONTILE
360
18
  3
SPECULARTILE
360
15
  0
DICTIONARY
  5
22
330
21
100
AcDbDictionary
280
     1
281
     1
  3
BUMPTILE
360
24
  3
DIFFUSETILE
360
23
  3
OPACITYTILE
360
27
  3
REFLECTIONTILE
360
26
  3
REFRACTIONTILE
360
28
  3
SPECULARTILE
360
25
  0
DICTIONARY
  5
15D
330
67
100
AcDbDictionary
280
     1
281
     1
  3
ACAD_XREC_ROUNDTRIP
360
15E
  0
DICTIONARY
  5
15F
330
69
100
AcDbDictionary
280
     1
281
     1
  3
ACAD_XREC_ROUNDTRIP
360
160
  0
DICTIONARY
  5
12A
330
65
100
AcDbDictionary
280
     1
281
     1
  3
ACAD_ROUNDTRIP_2008_TABLESTYLE_CELLSTYLEMAP
360
12B
  0
DICTIONARY
  5
137
330
2F
100
AcDbDictionary
280
     1
281
     1
  3
ACAD_XREC_ROUNDTRIP
360
138
  0
DICTIONARY
  5
135
330
2E
100
AcDbDictionary
280
     1
281
     1
  3
ACAD_XREC_ROUNDTRIP
360
136
  0
DICTIONARY
  5
143
330
35
100
AcDbDictionary
280
     1
281
     1
  3
ACAD_XREC_ROUNDTRIP
360
144
  0
DICTIONARY
  5
14B
330
39
100
AcDbDictionary
280
     1
281
     1
  3
ACAD_XREC_ROUNDTRIP
360
14C
  0
DICTIONARY
  5
13D
330
32
100
AcDbDictionary
280
     1
281
     1
  3
ACAD_XREC_ROUNDTRIP
360
13E
  0
DICTIONARY
  5
141
330
34
100
AcDbDictionary
280
     1
281
     1
  3
ACAD_XREC_ROUNDTRIP
360
142
  0
DICTIONARY
  5
15B
330
41
100
AcDbDictionary
280
     1
281
     1
  3
ACAD_XREC_ROUNDTRIP
360
15C
  0
DICTIONARY
  5
149
330
38
100
AcDbDictionary
280
     1
281
     1
  3
ACAD_XREC_ROUNDTRIP
360
14A
  0
DICTIONARY
  5
12D
330
2A
100
AcDbDictionary
280
     1
281
     1
  3
ACAD_XREC_ROUNDTRIP
360
12E
  0
DICTIONARY
  5
12F
330
2B
100
AcDbDictionary
280
     1
281
     1
  3
ACAD_XREC_ROUNDTRIP
360
130
  0
DICTIONARY
  5
131
330
2C
100
AcDbDictionary
280
     1
281
     1
  3
ACAD_XREC_ROUNDTRIP
360
132
  0
DICTIONARY
  5
133
330
2D
100
AcDbDictionary
280
     1
281
     1
  3
ACAD_XREC_ROUNDTRIP
360
134
  0
DICTIONARY
  5
13B
330
31
100
AcDbDictionary
280
     1
281
     1
  3
ACAD_XREC_ROUNDTRIP
360
13C
  0
DICTIONARY
  5
157
330
3F
100
AcDbDictionary
280
     1
281
     1
  3
ACAD_XREC_ROUNDTRIP
360
158
  0
DICTIONARY
  5
147
330
37
100
AcDbDictionary
280
     1
281
     1
  3
ACAD_XREC_ROUNDTRIP
360
148
  0
DICTIONARY
  5
159
330
40
100
AcDbDictionary
280
     1
281
     1
  3
ACAD_XREC_ROUNDTRIP
360
15A
  0
DICTIONARY
  5
13F
330
33
100
AcDbDictionary
280
     1
281
     1
  3
ACAD_XREC_ROUNDTRIP
360
140
  0
DICTIONARY
  5
155
330
3E
100
AcDbDictionary
280
     1
281
     1
  3
ACAD_XREC_ROUNDTRIP
360
156
  0
DICTIONARY
  5
153
330
3D
100
AcDbDictionary
280
     1
281
     1
  3
ACAD_XREC_ROUNDTRIP
360
154
  0
DICTIONARY
  5
14D
330
3A
100
AcDbDictionary
280
     1
281
     1
  3
ACAD_XREC_ROUNDTRIP
360
14E
  0
DICTIONARY
  5
14F
330
3B
100
AcDbDictionary
280
     1
281
     1
  3
ACAD_XREC_ROUNDTRIP
360
150
  0
DICTIONARY
  5
145
330
36
100
AcDbDictionary
280
     1
281
     1
  3
ACAD_XREC_ROUNDTRIP
360
146
  0
DICTIONARY
  5
139
330
30
100
AcDbDictionary
280
     1
281
     1
  3
ACAD_XREC_ROUNDTRIP
360
13A
  0
DICTIONARY
  5
151
330
3C
100
AcDbDictionary
280
     1
281
     1
  3
ACAD_XREC_ROUNDTRIP
360
152
  0
XRECORD
  5
162
102
{ACAD_REACTORS
330
161
102
}
330
161
100
AcDbXrecord
280
     1
102
DISPLAYNAME
  1
Imperial24
102
FLAGS
 90
        0
  0
XRECORD
  5
1C
102
{ACAD_REACTORS
330
1A
102
}
330
1A
100
AcDbXrecord
280
     1
270
     1
271
     1
  0
XRECORD
  5
1B
102
{ACAD_REACTORS
330
1A
102
}
330
1A
100
AcDbXrecord
280
     1
270
     1
271
     1
  0
XRECORD
  5
1F
102
{ACAD_REACTORS
330
1A
102
}
330
1A
100
AcDbXrecord
280
     1
270
     1
271
     1
  0
XRECORD
  5
1E
102
{ACAD_REACTORS
330
1A
102
}
330
1A
100
AcDbXrecord
280
     1
270
     1
271
     1
  0
XRECORD
  5
20
102
{ACAD_REACTORS
330
1A
102
}
330
1A
100
AcDbXrecord
280
     1
270
     1
271
     1
  0
XRECORD
  5
1D
102
{ACAD_REACTORS
330
1A
102
}
330
1A
100
AcDbXrecord
280
     1
270
     1
271
     1
  0
XRECORD
  5
14
102
{ACAD_REACTORS
330
12
102
}
330
12
100
AcDbXrecord
280
     1
270
     1
271
     1
  0
XRECORD
  5
13
102
{ACAD_REACTORS
330
12
102
}
330
12
100
AcDbXrecord
280
     1
270
     1
271
     1
  0
XRECORD
  5
17
102
{ACAD_REACTORS
330
12
102
}
330
12
100
AcDbXrecord
280
     1
270
     1
271
     1
  0
XRECORD
  5
16
102
{ACAD_REACTORS
330
12
102
}
330
12
100
AcDbXrecord
280
     1
270
     1
271
     1
  0
XRECORD
  5
18
102
{ACAD_REACTORS
330
12
102
}
330
12
100
AcDbXrecord
280
     1
270
     1
271
     1
  0
XRECORD
  5
15
102
{ACAD_REACTORS
330
12
102
}
330
12
100
AcDbXrecord
280
     1
270
     1
271
     1
  0
XRECORD
  5
24
102
{ACAD_REACTORS
330
22
102
}
330
22
100
AcDbXrecord
280
     1
270
     1
271
     1
  0
XRECORD
  5
23
102
{ACAD_REACTORS
330
22
102
}
330
22
100
AcDbXrecord
280
     1
270
     1
271
     1
  0
XRECORD
  5
27
102
{ACAD_REACTORS
330
22
102
}
330
22
100
AcDbXrecord
280
     1
270
     1
271
     1
  0
XRECORD
  5
26
102
{ACAD_REACTORS
330
22
102
}
330
22
100
AcDbXrecord
280
     1
270
     1
271
     1
  0
XRECORD
  5
28
102
{ACAD_REACTORS
330
22
102
}
330
22
100
AcDbXrecord
280
     1
270
     1
271
     1
  0
XRECORD
  5
25
102
{ACAD_REACTORS
330
22
102
}
330
22
100
AcDbXrecord
280
     1
270
     1
271
     1
  0
XRECORD
  5
15E
102
{ACAD_REACTORS
330
15D
102
}
330
15D
100
AcDbXrecord
280
     1
102
ACAD_ROUNDTRIP_2012_MLEADER_STYLE
298
     1
  0
XRECORD
  5
160
102
{ACAD_REACTORS
330
15F
102
}
330
15F
100
AcDbXrecord
280
     1
102
DISPLAYNAME
  1
Imperial24
102
FLAGS
 90
        0
  0
CELLSTYLEMAP
  5
12B
102
{ACAD_REACTORS
330
12A
102
}
330
12A
100
AcDbCellStyleMap
 90
        3
300
CELLSTYLE
  1
TABLEFORMAT_BEGIN
 90
        5
170
     1
 91
        0
 92
    32768
 62
   257
 93
        1
300
CONTENTFORMAT
  1
CONTENTFORMAT_BEGIN
 90
        0
 91
        0
 92
      512
 93
        0
300

 40
0.0
140
1.0
 94
        5
 62
     0
340
55
144
0.25
309
CONTENTFORMAT_END
171
     0
 94
        0
309
TABLEFORMAT_END
  1
CELLSTYLE_BEGIN
 90
        1
 91
        1
300
_TITLE
309
CELLSTYLE_END
300
CELLSTYLE
  1
TABLEFORMAT_BEGIN
 90
        5
170
     1
 91
        0
 92
        0
 62
   257
 93
        1
300
CONTENTFORMAT
  1
CONTENTFORMAT_BEGIN
 90
        0
 91
        0
 92
      512
 93
        0
300

 40
0.0
140
1.0
 94
        5
 62
     0
340
55
144
0.18
309
CONTENTFORMAT_END
171
     0
 94
        0
309
TABLEFORMAT_END
  1
CELLSTYLE_BEGIN
 90
        2
 91
        1
300
_HEADER
309
CELLSTYLE_END
300
CELLSTYLE
  1
TABLEFORMAT_BEGIN
 90
        5
170
     1
 91
        0
 92
        0
 62
   257
 93
        1
300
CONTENTFORMAT
  1
CONTENTFORMAT_BEGIN
 90
        0
 91
        0
 92
      512
 93
        0
300

 40
0.0
140
1.0
 94
        2
 62
     0
340
55
144
0.18
309
CONTENTFORMAT_END
171
     0
 94
        0
309
TABLEFORMAT_END
  1
CELLSTYLE_BEGIN
 90
        3
 91
        2
300
_DATA
309
CELLSTYLE_END
  0
XRECORD
  5
138
102
{ACAD_REACTORS
330
137
102
}
330
137
100
AcDbXrecord
280
     1
102
RTVSPost2010Prop28
280
     1
102
RTVSPost2010PropOp28
 70
     1
102
RTVSPost2010Prop29
280
     1
102
RTVSPost2010PropOp29
 70
     1
102
RTVSPost2010Prop30
280
     0
102
RTVSPost2010PropOp30
 70
     1
102
RTVSPost2010Prop31
280
     0
102
RTVSPost2010PropOp31
 70
     1
102
RTVSPost2010Prop32
280
     0
102
RTVSPost2010PropOp32
 70
     1
102
RTVSPost2010Prop33
280
     0
102
RTVSPost2010PropOp33
 70
     1
102
RTVSPost2010Prop34
280
     0
102
RTVSPost2010PropOp34
 70
     1
102
RTVSPost2010Prop35
280
     0
102
RTVSPost2010PropOp35
 70
     1
102
RTVSPost2010Prop36
280
     0
102
RTVSPost2010PropOp36
 70
     1
102
RTVSPost2010Prop37
 90
       50
102
RTVSPost2010PropOp37
 70
     1
102
RTVSPost2010Prop38
140
0.0
102
RTVSPost2010PropOp38
 70
     1
102
RTVSPost2010Prop39
140
1.0
102
RTVSPost2010PropOp39
 70
     1
102
RTVSPost2010Prop40
 90
        0
102
RTVSPost2010PropOp40
 70
     1
102
RTVSPost2010Prop41ColorIndex
 90
       18
102
RTVSPost2010Prop41ColorRGB
 90
        0
102
RTVSPost2010PropOp41
 70
     1
102
RTVSPost2010Prop42
 90
       50
102
RTVSPost2010PropOp42
 70
     1
102
RTVSPost2010Prop43
 90
        3
102
RTVSPost2010PropOp43
 70
     1
102
RTVSPost2010Prop44ColorIndex
 90
        5
102
RTVSPost2010Prop44ColorRGB
 90
      255
102
RTVSPost2010PropOp44
 70
     1
102
RTVSPost2010Prop45
280
     0
102
RTVSPost2010PropOp45
 70
     1
102
RTVSPost2010Prop46
 90
       50
102
RTVSPost2010PropOp46
 70
     1
102
RTVSPost2010Prop47
 90
       50
102
RTVSPost2010PropOp47
 70
     1
102
RTVSPost2010Prop48
 90
       50
102
RTVSPost2010PropOp48
 70
     1
102
RTVSPost2010Prop49
280
     0
102
RTVSPost2010PropOp49
 70
     1
102
RTVSPost2010Prop50
 90
       50
102
RTVSPost2010PropOp50
 70
     1
102
RTVSPost2010Prop51ColorIndex
 90
      256
102
RTVSPost2010Prop51ColorRGB
 90
-16777216
102
RTVSPost2010PropOp51
 70
     0
102
RTVSPost2010Prop52
140
1.0
102
RTVSPost2010PropOp52
 70
     0
102
RTVSPost2010Prop53
 90
        2
102
RTVSPost2010PropOp53
 70
     1
102
RTVSPost2010Prop54
  1
strokes_ogs.tif
102
RTVSPost2010PropOp54
 70
     1
102
RTVSPost2010Prop55
280
     0
102
RTVSPost2010PropOp55
 70
     1
102
RTVSPost2010Prop56
140
1.0
102
RTVSPost2010PropOp56
 70
     1
102
RTVSPost2010Prop57
140
1.0
102
RTVSPost2010PropOp57
 70
     1
  0
XRECORD
  5
136
102
{ACAD_REACTORS
330
135
102
}
330
135
100
AcDbXrecord
280
     1
102
RTVSPost2010Prop28
280
     0
102
RTVSPost2010PropOp28
 70
     1
102
RTVSPost2010Prop29
280
     1
102
RTVSPost2010PropOp29
 70
     1
102
RTVSPost2010Prop30
280
     1
102
RTVSPost2010PropOp30
 70
     1
102
RTVSPost2010Prop31
280
     0
102
RTVSPost2010PropOp31
 70
     1
102
RTVSPost2010Prop32
280
     0
102
RTVSPost2010PropOp32
 70
     1
102
RTVSPost2010Prop33
280
     0
102
RTVSPost2010PropOp33
 70
     1
102
RTVSPost2010Prop34
280
     0
102
RTVSPost2010PropOp34
 70
     1
102
RTVSPost2010Prop35
280
     0
102
RTVSPost2010PropOp35
 70
     1
102
RTVSPost2010Prop36
280
     0
102
RTVSPost2010PropOp36
 70
     1
102
RTVSPost2010Prop37
 90
       50
102
RTVSPost2010PropOp37
 70
     1
102
RTVSPost2010Prop38
140
0.0
102
RTVSPost2010PropOp38
 70
     1
102
RTVSPost2010Prop39
140
1.0
102
RTVSPost2010PropOp39
 70
     1
102
RTVSPost2010Prop40
 90
        0
102
RTVSPost2010PropOp40
 70
     1
102
RTVSPost2010Prop41ColorIndex
 90
       18
102
RTVSPost2010Prop41ColorRGB
 90
        0
102
RTVSPost2010PropOp41
 70
     1
102
RTVSPost2010Prop42
 90
       50
102
RTVSPost2010PropOp42
 70
     1
102
RTVSPost2010Prop43
 90
        3
102
RTVSPost2010PropOp43
 70
     1
102
RTVSPost2010Prop44ColorIndex
 90
        5
102
RTVSPost2010Prop44ColorRGB
 90
      255
102
RTVSPost2010PropOp44
 70
     1
102
RTVSPost2010Prop45
280
     0
102
RTVSPost2010PropOp45
 70
     1
102
RTVSPost2010Prop46
 90
       50
102
RTVSPost2010PropOp46
 70
     1
102
RTVSPost2010Prop47
 90
       50
102
RTVSPost2010PropOp47
 70
     1
102
RTVSPost2010Prop48
 90
       50
102
RTVSPost2010PropOp48
 70
     1
102
RTVSPost2010Prop49
280
     0
102
RTVSPost2010PropOp49
 70
     1
102
RTVSPost2010Prop50
 90
       50
102
RTVSPost2010PropOp50
 70
     1
102
RTVSPost2010Prop51ColorIndex
 90
      256
102
RTVSPost2010Prop51ColorRGB
 90
-16777216
102
RTVSPost2010PropOp51
 70
     0
102
RTVSPost2010Prop52
140
1.0
102
RTVSPost2010PropOp52
 70
     0
102
RTVSPost2010Prop53
 90
        2
102
RTVSPost2010PropOp53
 70
     1
102
RTVSPost2010Prop54
  1
strokes_ogs.tif
102
RTVSPost2010PropOp54
 70
     1
102
RTVSPost2010Prop55
280
     0
102
RTVSPost2010PropOp55
 70
     1
102
RTVSPost2010Prop56
140
1.0
102
RTVSPost2010PropOp56
 70
     1
102
RTVSPost2010Prop57
140
1.0
102
RTVSPost2010PropOp57
 70
     1
  0
XRECORD
  5
144
102
{ACAD_REACTORS
330
143
102
}
330
143
100
AcDbXrecord
280
     1
102
RTVSPost2010Prop28
280
     0
102
RTVSPost2010PropOp28
 70
     1
102
RTVSPost2010Prop29
280
     1
102
RTVSPost2010PropOp29
 70
     1
102
RTVSPost2010Prop30
280
     1
102
RTVSPost2010PropOp30
 70
     1
102
RTVSPost2010Prop31
280
     0
102
RTVSPost2010PropOp31
 70
     1
102
RTVSPost2010Prop32
280
     0
102
RTVSPost2010PropOp32
 70
     1
102
RTVSPost2010Prop33
280
     0
102
RTVSPost2010PropOp33
 70
     1
102
RTVSPost2010Prop34
280
     0
102
RTVSPost2010PropOp34
 70
     1
102
RTVSPost2010Prop35
280
     0
102
RTVSPost2010PropOp35
 70
     1
102
RTVSPost2010Prop36
280
     0
102
RTVSPost2010PropOp36
 70
     1
102
RTVSPost2010Prop37
 90
       50
102
RTVSPost2010PropOp37
 70
     1
102
RTVSPost2010Prop38
140
0.0
102
RTVSPost2010PropOp38
 70
     1
102
RTVSPost2010Prop39
140
1.0
102
RTVSPost2010PropOp39
 70
     1
102
RTVSPost2010Prop40
 90
        0
102
RTVSPost2010PropOp40
 70
     1
102
RTVSPost2010Prop41ColorIndex
 90
       18
102
RTVSPost2010Prop41ColorRGB
 90
        0
102
RTVSPost2010PropOp41
 70
     1
102
RTVSPost2010Prop42
 90
       50
102
RTVSPost2010PropOp42
 70
     1
102
RTVSPost2010Prop43
 90
        3
102
RTVSPost2010PropOp43
 70
     1
102
RTVSPost2010Prop44ColorIndex
 90
        5
102
RTVSPost2010Prop44ColorRGB
 90
      255
102
RTVSPost2010PropOp44
 70
     1
102
RTVSPost2010Prop45
280
     0
102
RTVSPost2010PropOp45
 70
     1
102
RTVSPost2010Prop46
 90
       50
102
RTVSPost2010PropOp46
 70
     1
102
RTVSPost2010Prop47
 90
       50
102
RTVSPost2010PropOp47
 70
     1
102
RTVSPost2010Prop48
 90
       50
102
RTVSPost2010PropOp48
 70
     1
102
RTVSPost2010Prop49
280
     0
102
RTVSPost2010PropOp49
 70
     1
102
RTVSPost2010Prop50
 90
       50
102
RTVSPost2010PropOp50
 70
     1
102
RTVSPost2010Prop51ColorIndex
 90
      256
102
RTVSPost2010Prop51ColorRGB
 90
-16777216
102
RTVSPost2010PropOp51
 70
     0
102
RTVSPost2010Prop52
140
1.0
102
RTVSPost2010PropOp52
 70
     0
102
RTVSPost2010Prop53
 90
        2
102
RTVSPost2010PropOp53
 70
     1
102
RTVSPost2010Prop54
  1
strokes_ogs.tif
102
RTVSPost2010PropOp54
 70
     1
102
RTVSPost2010Prop55
280
     0
102
RTVSPost2010PropOp55
 70
     1
102
RTVSPost2010Prop56
140
1.0
102
RTVSPost2010PropOp56
 70
     1
102
RTVSPost2010Prop57
140
1.0
102
RTVSPost2010PropOp57
 70
     1
  0
XRECORD
  5
14C
102
{ACAD_REACTORS
330
14B
102
}
330
14B
100
AcDbXrecord
280
     1
102
RTVSPost2010Prop28
280
     0
102
RTVSPost2010PropOp28
 70
     1
102
RTVSPost2010Prop29
280
     1
102
RTVSPost2010PropOp29
 70
     1
102
RTVSPost2010Prop30
280
     1
102
RTVSPost2010PropOp30
 70
     1
102
RTVSPost2010Prop31
280
     0
102
RTVSPost2010PropOp31
 70
     1
102
RTVSPost2010Prop32
280
     0
102
RTVSPost2010PropOp32
 70
     1
102
RTVSPost2010Prop33
280
     0
102
RTVSPost2010PropOp33
 70
     1
102
RTVSPost2010Prop34
280
     0
102
RTVSPost2010PropOp34
 70
     1
102
RTVSPost2010Prop35
280
     0
102
RTVSPost2010PropOp35
 70
     1
102
RTVSPost2010Prop36
280
     0
102
RTVSPost2010PropOp36
 70
     1
102
RTVSPost2010Prop37
 90
       50
102
RTVSPost2010PropOp37
 70
     1
102
RTVSPost2010Prop38
140
0.0
102
RTVSPost2010PropOp38
 70
     1
102
RTVSPost2010Prop39
140
1.0
102
RTVSPost2010PropOp39
 70
     1
102
RTVSPost2010Prop40
 90
        0
102
RTVSPost2010PropOp40
 70
     1
102
RTVSPost2010Prop41ColorIndex
 90
       18
102
RTVSPost2010Prop41ColorRGB
 90
        0
102
RTVSPost2010PropOp41
 70
     1
102
RTVSPost2010Prop42
 90
       50
102
RTVSPost2010PropOp42
 70
     1
102
RTVSPost2010Prop43
 90
        3
102
RTVSPost2010PropOp43
 70
     1
102
RTVSPost2010Prop44ColorIndex
 90
        5
102
RTVSPost2010Prop44ColorRGB
 90
      255
102
RTVSPost2010PropOp44
 70
     1
102
RTVSPost2010Prop45
280
     0
102
RTVSPost2010PropOp45
 70
     1
102
RTVSPost2010Prop46
 90
       50
102
RTVSPost2010PropOp46
 70
     1
102
RTVSPost2010Prop47
 90
       50
102
RTVSPost2010PropOp47
 70
     1
102
RTVSPost2010Prop48
 90
       50
102
RTVSPost2010PropOp48
 70
     1
102
RTVSPost2010Prop49
280
     0
102
RTVSPost2010PropOp49
 70
     1
102
RTVSPost2010Prop50
 90
       50
102
RTVSPost2010PropOp50
 70
     1
102
RTVSPost2010Prop51ColorIndex
 90
      256
102
RTVSPost2010Prop51ColorRGB
 90
-16777216
102
RTVSPost2010PropOp51
 70
     0
102
RTVSPost2010Prop52
140
1.0
102
RTVSPost2010PropOp52
 70
     0
102
RTVSPost2010Prop53
 90
        2
102
RTVSPost2010PropOp53
 70
     1
102
RTVSPost2010Prop54
  1
strokes_ogs.tif
102
RTVSPost2010PropOp54
 70
     1
102
RTVSPost2010Prop55
280
     0
102
RTVSPost2010PropOp55
 70
     1
102
RTVSPost2010Prop56
140
1.0
102
RTVSPost2010PropOp56
 70
     1
102
RTVSPost2010Prop57
140
1.0
102
RTVSPost2010PropOp57
 70
     1
  0
XRECORD
  5
13E
102
{ACAD_REACTORS
330
13D
102
}
330
13D
100
AcDbXrecord
280
     1
102
RTVSPost2010Prop28
280
     0
102
RTVSPost2010PropOp28
 70
     1
102
RTVSPost2010Prop29
280
     1
102
RTVSPost2010PropOp29
 70
     1
102
RTVSPost2010Prop30
280
     1
102
RTVSPost2010PropOp30
 70
     1
102
RTVSPost2010Prop31
280
     0
102
RTVSPost2010PropOp31
 70
     1
102
RTVSPost2010Prop32
280
     0
102
RTVSPost2010PropOp32
 70
     1
102
RTVSPost2010Prop33
280
     0
102
RTVSPost2010PropOp33
 70
     1
102
RTVSPost2010Prop34
280
     0
102
RTVSPost2010PropOp34
 70
     1
102
RTVSPost2010Prop35
280
     0
102
RTVSPost2010PropOp35
 70
     1
102
RTVSPost2010Prop36
280
     0
102
RTVSPost2010PropOp36
 70
     1
102
RTVSPost2010Prop37
 90
       50
102
RTVSPost2010PropOp37
 70
     1
102
RTVSPost2010Prop38
140
0.0
102
RTVSPost2010PropOp38
 70
     1
102
RTVSPost2010Prop39
140
1.0
102
RTVSPost2010PropOp39
 70
     1
102
RTVSPost2010Prop40
 90
        0
102
RTVSPost2010PropOp40
 70
     1
102
RTVSPost2010Prop41ColorIndex
 90
       18
102
RTVSPost2010Prop41ColorRGB
 90
        0
102
RTVSPost2010PropOp41
 70
     1
102
RTVSPost2010Prop42
 90
       50
102
RTVSPost2010PropOp42
 70
     1
102
RTVSPost2010Prop43
 90
        3
102
RTVSPost2010PropOp43
 70
     1
102
RTVSPost2010Prop44ColorIndex
 90
        5
102
RTVSPost2010Prop44ColorRGB
 90
      255
102
RTVSPost2010PropOp44
 70
     1
102
RTVSPost2010Prop45
280
     0
102
RTVSPost2010PropOp45
 70
     1
102
RTVSPost2010Prop46
 90
       50
102
RTVSPost2010PropOp46
 70
     1
102
RTVSPost2010Prop47
 90
       50
102
RTVSPost2010PropOp47
 70
     1
102
RTVSPost2010Prop48
 90
       50
102
RTVSPost2010PropOp48
 70
     1
102
RTVSPost2010Prop49
280
     0
102
RTVSPost2010PropOp49
 70
     1
102
RTVSPost2010Prop50
 90
       50
102
RTVSPost2010PropOp50
 70
     1
102
RTVSPost2010Prop51ColorIndex
 90
      256
102
RTVSPost2010Prop51ColorRGB
 90
-16777216
102
RTVSPost2010PropOp51
 70
     0
102
RTVSPost2010Prop52
140
1.0
102
RTVSPost2010PropOp52
 70
     0
102
RTVSPost2010Prop53
 90
        2
102
RTVSPost2010PropOp53
 70
     1
102
RTVSPost2010Prop54
  1
strokes_ogs.tif
102
RTVSPost2010PropOp54
 70
     1
102
RTVSPost2010Prop55
280
     0
102
RTVSPost2010PropOp55
 70
     1
102
RTVSPost2010Prop56
140
1.0
102
RTVSPost2010PropOp56
 70
     1
102
RTVSPost2010Prop57
140
1.0
102
RTVSPost2010PropOp57
 70
     1
  0
XRECORD
  5
142
102
{ACAD_REACTORS
330
141
102
}
330
141
100
AcDbXrecord
280
     1
102
RTVSPost2010Prop28
280
     0
102
RTVSPost2010PropOp28
 70
     1
102
RTVSPost2010Prop29
280
     1
102
RTVSPost2010PropOp29
 70
     1
102
RTVSPost2010Prop30
280
     1
102
RTVSPost2010PropOp30
 70
     1
102
RTVSPost2010Prop31
280
     0
102
RTVSPost2010PropOp31
 70
     1
102
RTVSPost2010Prop32
280
     0
102
RTVSPost2010PropOp32
 70
     1
102
RTVSPost2010Prop33
280
     0
102
RTVSPost2010PropOp33
 70
     1
102
RTVSPost2010Prop34
280
     0
102
RTVSPost2010PropOp34
 70
     1
102
RTVSPost2010Prop35
280
     0
102
RTVSPost2010PropOp35
 70
     1
102
RTVSPost2010Prop36
280
     0
102
RTVSPost2010PropOp36
 70
     1
102
RTVSPost2010Prop37
 90
       50
102
RTVSPost2010PropOp37
 70
     1
102
RTVSPost2010Prop38
140
0.0
102
RTVSPost2010PropOp38
 70
     1
102
RTVSPost2010Prop39
140
1.0
102
RTVSPost2010PropOp39
 70
     1
102
RTVSPost2010Prop40
 90
        0
102
RTVSPost2010PropOp40
 70
     1
102
RTVSPost2010Prop41ColorIndex
 90
       18
102
RTVSPost2010Prop41ColorRGB
 90
        0
102
RTVSPost2010PropOp41
 70
     1
102
RTVSPost2010Prop42
 90
       50
102
RTVSPost2010PropOp42
 70
     1
102
RTVSPost2010Prop43
 90
        3
102
RTVSPost2010PropOp43
 70
     1
102
RTVSPost2010Prop44ColorIndex
 90
        5
102
RTVSPost2010Prop44ColorRGB
 90
      255
102
RTVSPost2010PropOp44
 70
     1
102
RTVSPost2010Prop45
280
     0
102
RTVSPost2010PropOp45
 70
     1
102
RTVSPost2010Prop46
 90
       50
102
RTVSPost2010PropOp46
 70
     1
102
RTVSPost2010Prop47
 90
       50
102
RTVSPost2010PropOp47
 70
     1
102
RTVSPost2010Prop48
 90
       50
102
RTVSPost2010PropOp48
 70
     1
102
RTVSPost2010Prop49
280
     0
102
RTVSPost2010PropOp49
 70
     1
102
RTVSPost2010Prop50
 90
       50
102
RTVSPost2010PropOp50
 70
     1
102
RTVSPost2010Prop51ColorIndex
 90
      256
102
RTVSPost2010Prop51ColorRGB
 90
-16777216
102
RTVSPost2010PropOp51
 70
     0
102
RTVSPost2010Prop52
140
1.0
102
RTVSPost2010PropOp52
 70
     0
102
RTVSPost2010Prop53
 90
        2
102
RTVSPost2010PropOp53
 70
     1
102
RTVSPost2010Prop54
  1
strokes_ogs.tif
102
RTVSPost2010PropOp54
 70
     1
102
RTVSPost2010Prop55
280
     0
102
RTVSPost2010PropOp55
 70
     1
102
RTVSPost2010Prop56
140
1.0
102
RTVSPost2010PropOp56
 70
     1
102
RTVSPost2010Prop57
140
1.0
102
RTVSPost2010PropOp57
 70
     1
  0
XRECORD
  5
15C
102
{ACAD_REACTORS
330
15B
102
}
330
15B
100
AcDbXrecord
280
     1
102
RTVSPost2010Prop28
280
     0
102
RTVSPost2010PropOp28
 70
     0
102
RTVSPost2010Prop29
280
     1
102
RTVSPost2010PropOp29
 70
     0
102
RTVSPost2010Prop30
280
     1
102
RTVSPost2010PropOp30
 70
     0
102
RTVSPost2010Prop31
280
     0
102
RTVSPost2010PropOp31
 70
     0
102
RTVSPost2010Prop32
280
     0
102
RTVSPost2010PropOp32
 70
     0
102
RTVSPost2010Prop33
280
     0
102
RTVSPost2010PropOp33
 70
     0
102
RTVSPost2010Prop34
280
     0
102
RTVSPost2010PropOp34
 70
     0
102
RTVSPost2010Prop35
280
     0
102
RTVSPost2010PropOp35
 70
     0
102
RTVSPost2010Prop36
280
     0
102
RTVSPost2010PropOp36
 70
     0
102
RTVSPost2010Prop37
 90
       50
102
RTVSPost2010PropOp37
 70
     0
102
RTVSPost2010Prop38
140
0.0
102
RTVSPost2010PropOp38
 70
     0
102
RTVSPost2010Prop39
140
1.0
102
RTVSPost2010PropOp39
 70
     0
102
RTVSPost2010Prop40
 90
        0
102
RTVSPost2010PropOp40
 70
     0
102
RTVSPost2010Prop41ColorIndex
 90
       18
102
RTVSPost2010Prop41ColorRGB
 90
        0
102
RTVSPost2010PropOp41
 70
     0
102
RTVSPost2010Prop42
 90
       50
102
RTVSPost2010PropOp42
 70
     0
102
RTVSPost2010Prop43
 90
        3
102
RTVSPost2010PropOp43
 70
     0
102
RTVSPost2010Prop44ColorIndex
 90
        5
102
RTVSPost2010Prop44ColorRGB
 90
      255
102
RTVSPost2010PropOp44
 70
     0
102
RTVSPost2010Prop45
280
     0
102
RTVSPost2010PropOp45
 70
     0
102
RTVSPost2010Prop46
 90
       50
102
RTVSPost2010PropOp46
 70
     0
102
RTVSPost2010Prop47
 90
       50
102
RTVSPost2010PropOp47
 70
     0
102
RTVSPost2010Prop48
 90
       50
102
RTVSPost2010PropOp48
 70
     0
102
RTVSPost2010Prop49
280
     0
102
RTVSPost2010PropOp49
 70
     0
102
RTVSPost2010Prop50
 90
       50
102
RTVSPost2010PropOp50
 70
     0
102
RTVSPost2010Prop51ColorIndex
 90
      256
102
RTVSPost2010Prop51ColorRGB
 90
-16777216
102
RTVSPost2010PropOp51
 70
     0
102
RTVSPost2010Prop52
140
1.0
102
RTVSPost2010PropOp52
 70
     0
102
RTVSPost2010Prop53
 90
        2
102
RTVSPost2010PropOp53
 70
     0
102
RTVSPost2010Prop54
  1
strokes_ogs.tif
102
RTVSPost2010PropOp54
 70
     0
102
RTVSPost2010Prop55
280
     0
102
RTVSPost2010PropOp55
 70
     0
102
RTVSPost2010Prop56
140
1.0
102
RTVSPost2010PropOp56
 70
     0
102
RTVSPost2010Prop57
140
1.0
102
RTVSPost2010PropOp57
 70
     0
  0
XRECORD
  5
14A
102
{ACAD_REACTORS
330
149
102
}
330
149
100
AcDbXrecord
280
     1
102
RTVSPost2010Prop28
280
     0
102
RTVSPost2010PropOp28
 70
     1
102
RTVSPost2010Prop29
280
     1
102
RTVSPost2010PropOp29
 70
     1
102
RTVSPost2010Prop30
280
     1
102
RTVSPost2010PropOp30
 70
     1
102
RTVSPost2010Prop31
280
     0
102
RTVSPost2010PropOp31
 70
     1
102
RTVSPost2010Prop32
280
     0
102
RTVSPost2010PropOp32
 70
     1
102
RTVSPost2010Prop33
280
     0
102
RTVSPost2010PropOp33
 70
     1
102
RTVSPost2010Prop34
280
     0
102
RTVSPost2010PropOp34
 70
     1
102
RTVSPost2010Prop35
280
     0
102
RTVSPost2010PropOp35
 70
     1
102
RTVSPost2010Prop36
280
     0
102
RTVSPost2010PropOp36
 70
     1
102
RTVSPost2010Prop37
 90
       50
102
RTVSPost2010PropOp37
 70
     1
102
RTVSPost2010Prop38
140
0.0
102
RTVSPost2010PropOp38
 70
     1
102
RTVSPost2010Prop39
140
1.0
102
RTVSPost2010PropOp39
 70
     1
102
RTVSPost2010Prop40
 90
        0
102
RTVSPost2010PropOp40
 70
     1
102
RTVSPost2010Prop41ColorIndex
 90
       18
102
RTVSPost2010Prop41ColorRGB
 90
        0
102
RTVSPost2010PropOp41
 70
     1
102
RTVSPost2010Prop42
 90
       50
102
RTVSPost2010PropOp42
 70
     1
102
RTVSPost2010Prop43
 90
        3
102
RTVSPost2010PropOp43
 70
     1
102
RTVSPost2010Prop44ColorIndex
 90
        5
102
RTVSPost2010Prop44ColorRGB
 90
      255
102
RTVSPost2010PropOp44
 70
     1
102
RTVSPost2010Prop45
280
     0
102
RTVSPost2010PropOp45
 70
     1
102
RTVSPost2010Prop46
 90
       50
102
RTVSPost2010PropOp46
 70
     1
102
RTVSPost2010Prop47
 90
       50
102
RTVSPost2010PropOp47
 70
     1
102
RTVSPost2010Prop48
 90
       50
102
RTVSPost2010PropOp48
 70
     1
102
RTVSPost2010Prop49
280
     0
102
RTVSPost2010PropOp49
 70
     1
102
RTVSPost2010Prop50
 90
       50
102
RTVSPost2010PropOp50
 70
     1
102
RTVSPost2010Prop51ColorIndex
 90
      256
102
RTVSPost2010Prop51ColorRGB
 90
-16777216
102
RTVSPost2010PropOp51
 70
     0
102
RTVSPost2010Prop52
140
1.0
102
RTVSPost2010PropOp52
 70
     0
102
RTVSPost2010Prop53
 90
        2
102
RTVSPost2010PropOp53
 70
     1
102
RTVSPost2010Prop54
  1
strokes_ogs.tif
102
RTVSPost2010PropOp54
 70
     1
102
RTVSPost2010Prop55
280
     0
102
RTVSPost2010PropOp55
 70
     1
102
RTVSPost2010Prop56
140
1.0
102
RTVSPost2010PropOp56
 70
     1
102
RTVSPost2010Prop57
140
1.0
102
RTVSPost2010PropOp57
 70
     1
  0
XRECORD
  5
12E
102
{ACAD_REACTORS
330
12D
102
}
330
12D
100
AcDbXrecord
280
     1
102
RTVSPost2010Prop28
280
     0
102
RTVSPost2010PropOp28
 70
     1
102
RTVSPost2010Prop29
280
     1
102
RTVSPost2010PropOp29
 70
     1
102
RTVSPost2010Prop30
280
     1
102
RTVSPost2010PropOp30
 70
     1
102
RTVSPost2010Prop31
280
     0
102
RTVSPost2010PropOp31
 70
     1
102
RTVSPost2010Prop32
280
     0
102
RTVSPost2010PropOp32
 70
     1
102
RTVSPost2010Prop33
280
     0
102
RTVSPost2010PropOp33
 70
     1
102
RTVSPost2010Prop34
280
     0
102
RTVSPost2010PropOp34
 70
     1
102
RTVSPost2010Prop35
280
     0
102
RTVSPost2010PropOp35
 70
     1
102
RTVSPost2010Prop36
280
     0
102
RTVSPost2010PropOp36
 70
     1
102
RTVSPost2010Prop37
 90
       50
102
RTVSPost2010PropOp37
 70
     1
102
RTVSPost2010Prop38
140
0.0
102
RTVSPost2010PropOp38
 70
     1
102
RTVSPost2010Prop39
140
1.0
102
RTVSPost2010PropOp39
 70
     1
102
RTVSPost2010Prop40
 90
        0
102
RTVSPost2010PropOp40
 70
     1
102
RTVSPost2010Prop41ColorIndex
 90
       18
102
RTVSPost2010Prop41ColorRGB
 90
        0
102
RTVSPost2010PropOp41
 70
     1
102
RTVSPost2010Prop42
 90
       50
102
RTVSPost2010PropOp42
 70
     1
102
RTVSPost2010Prop43
 90
        3
102
RTVSPost2010PropOp43
 70
     1
102
RTVSPost2010Prop44ColorIndex
 90
        5
102
RTVSPost2010Prop44ColorRGB
 90
      255
102
RTVSPost2010PropOp44
 70
     1
102
RTVSPost2010Prop45
280
     0
102
RTVSPost2010PropOp45
 70
     1
102
RTVSPost2010Prop46
 90
       50
102
RTVSPost2010PropOp46
 70
     1
102
RTVSPost2010Prop47
 90
       50
102
RTVSPost2010PropOp47
 70
     1
102
RTVSPost2010Prop48
 90
       50
102
RTVSPost2010PropOp48
 70
     1
102
RTVSPost2010Prop49
280
     0
102
RTVSPost2010PropOp49
 70
     1
102
RTVSPost2010Prop50
 90
       50
102
RTVSPost2010PropOp50
 70
     1
102
RTVSPost2010Prop51ColorIndex
 90
      256
102
RTVSPost2010Prop51ColorRGB
 90
-16777216
102
RTVSPost2010PropOp51
 70
     0
102
RTVSPost2010Prop52
140
1.0
102
RTVSPost2010PropOp52
 70
     0
102
RTVSPost2010Prop53
 90
        2
102
RTVSPost2010PropOp53
 70
     1
102
RTVSPost2010Prop54
  1
strokes_ogs.tif
102
RTVSPost2010PropOp54
 70
     1
102
RTVSPost2010Prop55
280
     0
102
RTVSPost2010PropOp55
 70
     1
102
RTVSPost2010Prop56
140
1.0
102
RTVSPost2010PropOp56
 70
     1
102
RTVSPost2010Prop57
140
1.0
102
RTVSPost2010PropOp57
 70
     1
  0
XRECORD
  5
130
102
{ACAD_REACTORS
330
12F
102
}
330
12F
100
AcDbXrecord
280
     1
102
RTVSPost2010Prop28
280
     0
102
RTVSPost2010PropOp28
 70
     1
102
RTVSPost2010Prop29
280
     1
102
RTVSPost2010PropOp29
 70
     1
102
RTVSPost2010Prop30
280
     1
102
RTVSPost2010PropOp30
 70
     1
102
RTVSPost2010Prop31
280
     0
102
RTVSPost2010PropOp31
 70
     1
102
RTVSPost2010Prop32
280
     0
102
RTVSPost2010PropOp32
 70
     1
102
RTVSPost2010Prop33
280
     0
102
RTVSPost2010PropOp33
 70
     1
102
RTVSPost2010Prop34
280
     0
102
RTVSPost2010PropOp34
 70
     1
102
RTVSPost2010Prop35
280
     0
102
RTVSPost2010PropOp35
 70
     1
102
RTVSPost2010Prop36
280
     0
102
RTVSPost2010PropOp36
 70
     1
102
RTVSPost2010Prop37
 90
       50
102
RTVSPost2010PropOp37
 70
     1
102
RTVSPost2010Prop38
140
0.0
102
RTVSPost2010PropOp38
 70
     1
102
RTVSPost2010Prop39
140
1.0
102
RTVSPost2010PropOp39
 70
     1
102
RTVSPost2010Prop40
 90
        0
102
RTVSPost2010PropOp40
 70
     1
102
RTVSPost2010Prop41ColorIndex
 90
       18
102
RTVSPost2010Prop41ColorRGB
 90
        0
102
RTVSPost2010PropOp41
 70
     1
102
RTVSPost2010Prop42
 90
       50
102
RTVSPost2010PropOp42
 70
     1
102
RTVSPost2010Prop43
 90
        3
102
RTVSPost2010PropOp43
 70
     1
102
RTVSPost2010Prop44ColorIndex
 90
        5
102
RTVSPost2010Prop44ColorRGB
 90
      255
102
RTVSPost2010PropOp44
 70
     1
102
RTVSPost2010Prop45
280
     0
102
RTVSPost2010PropOp45
 70
     1
102
RTVSPost2010Prop46
 90
       50
102
RTVSPost2010PropOp46
 70
     1
102
RTVSPost2010Prop47
 90
       50
102
RTVSPost2010PropOp47
 70
     1
102
RTVSPost2010Prop48
 90
       50
102
RTVSPost2010PropOp48
 70
     1
102
RTVSPost2010Prop49
280
     0
102
RTVSPost2010PropOp49
 70
     1
102
RTVSPost2010Prop50
 90
       50
102
RTVSPost2010PropOp50
 70
     1
102
RTVSPost2010Prop51ColorIndex
 90
      256
102
RTVSPost2010Prop51ColorRGB
 90
-16777216
102
RTVSPost2010PropOp51
 70
     0
102
RTVSPost2010Prop52
140
1.0
102
RTVSPost2010PropOp52
 70
     0
102
RTVSPost2010Prop53
 90
        2
102
RTVSPost2010PropOp53
 70
     1
102
RTVSPost2010Prop54
  1
strokes_ogs.tif
102
RTVSPost2010PropOp54
 70
     1
102
RTVSPost2010Prop55
280
     0
102
RTVSPost2010PropOp55
 70
     1
102
RTVSPost2010Prop56
140
1.0
102
RTVSPost2010PropOp56
 70
     1
102
RTVSPost2010Prop57
140
1.0
102
RTVSPost2010PropOp57
 70
     1
  0
XRECORD
  5
132
102
{ACAD_REACTORS
330
131
102
}
330
131
100
AcDbXrecord
280
     1
102
RTVSPost2010Prop28
280
     0
102
RTVSPost2010PropOp28
 70
     1
102
RTVSPost2010Prop29
280
     1
102
RTVSPost2010PropOp29
 70
     1
102
RTVSPost2010Prop30
280
     1
102
RTVSPost2010PropOp30
 70
     1
102
RTVSPost2010Prop31
280
     0
102
RTVSPost2010PropOp31
 70
     1
102
RTVSPost2010Prop32
280
     0
102
RTVSPost2010PropOp32
 70
     1
102
RTVSPost2010Prop33
280
     0
102
RTVSPost2010PropOp33
 70
     1
102
RTVSPost2010Prop34
280
     0
102
RTVSPost2010PropOp34
 70
     1
102
RTVSPost2010Prop35
280
     0
102
RTVSPost2010PropOp35
 70
     1
102
RTVSPost2010Prop36
280
     0
102
RTVSPost2010PropOp36
 70
     1
102
RTVSPost2010Prop37
 90
       50
102
RTVSPost2010PropOp37
 70
     1
102
RTVSPost2010Prop38
140
0.0
102
RTVSPost2010PropOp38
 70
     1
102
RTVSPost2010Prop39
140
1.0
102
RTVSPost2010PropOp39
 70
     1
102
RTVSPost2010Prop40
 90
        0
102
RTVSPost2010PropOp40
 70
     1
102
RTVSPost2010Prop41ColorIndex
 90
       18
102
RTVSPost2010Prop41ColorRGB
 90
        0
102
RTVSPost2010PropOp41
 70
     1
102
RTVSPost2010Prop42
 90
       50
102
RTVSPost2010PropOp42
 70
     1
102
RTVSPost2010Prop43
 90
        3
102
RTVSPost2010PropOp43
 70
     1
102
RTVSPost2010Prop44ColorIndex
 90
        5
102
RTVSPost2010Prop44ColorRGB
 90
      255
102
RTVSPost2010PropOp44
 70
     1
102
RTVSPost2010Prop45
280
     0
102
RTVSPost2010PropOp45
 70
     1
102
RTVSPost2010Prop46
 90
       50
102
RTVSPost2010PropOp46
 70
     1
102
RTVSPost2010Prop47
 90
       50
102
RTVSPost2010PropOp47
 70
     1
102
RTVSPost2010Prop48
 90
       50
102
RTVSPost2010PropOp48
 70
     1
102
RTVSPost2010Prop49
280
     0
102
RTVSPost2010PropOp49
 70
     1
102
RTVSPost2010Prop50
 90
       50
102
RTVSPost2010PropOp50
 70
     1
102
RTVSPost2010Prop51ColorIndex
 90
      256
102
RTVSPost2010Prop51ColorRGB
 90
-16777216
102
RTVSPost2010PropOp51
 70
     0
102
RTVSPost2010Prop52
140
1.0
102
RTVSPost2010PropOp52
 70
     0
102
RTVSPost2010Prop53
 90
        2
102
RTVSPost2010PropOp53
 70
     1
102
RTVSPost2010Prop54
  1
strokes_ogs.tif
102
RTVSPost2010PropOp54
 70
     1
102
RTVSPost2010Prop55
280
     0
102
RTVSPost2010PropOp55
 70
     1
102
RTVSPost2010Prop56
140
1.0
102
RTVSPost2010PropOp56
 70
     1
102
RTVSPost2010Prop57
140
1.0
102
RTVSPost2010PropOp57
 70
     1
  0
XRECORD
  5
134
102
{ACAD_REACTORS
330
133
102
}
330
133
100
AcDbXrecord
280
     1
102
RTVSPost2010Prop28
280
     0
102
RTVSPost2010PropOp28
 70
     1
102
RTVSPost2010Prop29
280
     1
102
RTVSPost2010PropOp29
 70
     1
102
RTVSPost2010Prop30
280
     1
102
RTVSPost2010PropOp30
 70
     1
102
RTVSPost2010Prop31
280
     0
102
RTVSPost2010PropOp31
 70
     1
102
RTVSPost2010Prop32
280
     0
102
RTVSPost2010PropOp32
 70
     1
102
RTVSPost2010Prop33
280
     0
102
RTVSPost2010PropOp33
 70
     1
102
RTVSPost2010Prop34
280
     0
102
RTVSPost2010PropOp34
 70
     1
102
RTVSPost2010Prop35
280
     0
102
RTVSPost2010PropOp35
 70
     1
102
RTVSPost2010Prop36
280
     0
102
RTVSPost2010PropOp36
 70
     1
102
RTVSPost2010Prop37
 90
       50
102
RTVSPost2010PropOp37
 70
     1
102
RTVSPost2010Prop38
140
0.0
102
RTVSPost2010PropOp38
 70
     1
102
RTVSPost2010Prop39
140
1.0
102
RTVSPost2010PropOp39
 70
     1
102
RTVSPost2010Prop40
 90
        0
102
RTVSPost2010PropOp40
 70
     1
102
RTVSPost2010Prop41ColorIndex
 90
       18
102
RTVSPost2010Prop41ColorRGB
 90
        0
102
RTVSPost2010PropOp41
 70
     1
102
RTVSPost2010Prop42
 90
       50
102
RTVSPost2010PropOp42
 70
     1
102
RTVSPost2010Prop43
 90
        3
102
RTVSPost2010PropOp43
 70
     1
102
RTVSPost2010Prop44ColorIndex
 90
        5
102
RTVSPost2010Prop44ColorRGB
 90
      255
102
RTVSPost2010PropOp44
 70
     1
102
RTVSPost2010Prop45
280
     0
102
RTVSPost2010PropOp45
 70
     1
102
RTVSPost2010Prop46
 90
       50
102
RTVSPost2010PropOp46
 70
     1
102
RTVSPost2010Prop47
 90
       50
102
RTVSPost2010PropOp47
 70
     1
102
RTVSPost2010Prop48
 90
       50
102
RTVSPost2010PropOp48
 70
     1
102
RTVSPost2010Prop49
280
     0
102
RTVSPost2010PropOp49
 70
     1
102
RTVSPost2010Prop50
 90
       50
102
RTVSPost2010PropOp50
 70
     1
102
RTVSPost2010Prop51ColorIndex
 90
      256
102
RTVSPost2010Prop51ColorRGB
 90
-16777216
102
RTVSPost2010PropOp51
 70
     0
102
RTVSPost2010Prop52
140
1.0
102
RTVSPost2010PropOp52
 70
     0
102
RTVSPost2010Prop53
 90
        2
102
RTVSPost2010PropOp53
 70
     1
102
RTVSPost2010Prop54
  1
strokes_ogs.tif
102
RTVSPost2010PropOp54
 70
     1
102
RTVSPost2010Prop55
280
     0
102
RTVSPost2010PropOp55
 70
     1
102
RTVSPost2010Prop56
140
1.0
102
RTVSPost2010PropOp56
 70
     1
102
RTVSPost2010Prop57
140
1.0
102
RTVSPost2010PropOp57
 70
     1
  0
XRECORD
  5
13C
102
{ACAD_REACTORS
330
13B
102
}
330
13B
100
AcDbXrecord
280
     1
102
RTVSPost2010Prop28
280
     0
102
RTVSPost2010PropOp28
 70
     1
102
RTVSPost2010Prop29
280
     1
102
RTVSPost2010PropOp29
 70
     1
102
RTVSPost2010Prop30
280
     1
102
RTVSPost2010PropOp30
 70
     1
102
RTVSPost2010Prop31
280
     0
102
RTVSPost2010PropOp31
 70
     1
102
RTVSPost2010Prop32
280
     0
102
RTVSPost2010PropOp32
 70
     1
102
RTVSPost2010Prop33
280
     0
102
RTVSPost2010PropOp33
 70
     1
102
RTVSPost2010Prop34
280
     0
102
RTVSPost2010PropOp34
 70
     1
102
RTVSPost2010Prop35
280
     0
102
RTVSPost2010PropOp35
 70
     1
102
RTVSPost2010Prop36
280
     0
102
RTVSPost2010PropOp36
 70
     1
102
RTVSPost2010Prop37
 90
       50
102
RTVSPost2010PropOp37
 70
     1
102
RTVSPost2010Prop38
140
0.0
102
RTVSPost2010PropOp38
 70
     1
102
RTVSPost2010Prop39
140
1.0
102
RTVSPost2010PropOp39
 70
     1
102
RTVSPost2010Prop40
 90
        0
102
RTVSPost2010PropOp40
 70
     1
102
RTVSPost2010Prop41ColorIndex
 90
       18
102
RTVSPost2010Prop41ColorRGB
 90
        0
102
RTVSPost2010PropOp41
 70
     1
102
RTVSPost2010Prop42
 90
       50
102
RTVSPost2010PropOp42
 70
     1
102
RTVSPost2010Prop43
 90
        3
102
RTVSPost2010PropOp43
 70
     1
102
RTVSPost2010Prop44ColorIndex
 90
        5
102
RTVSPost2010Prop44ColorRGB
 90
      255
102
RTVSPost2010PropOp44
 70
     1
102
RTVSPost2010Prop45
280
     0
102
RTVSPost2010PropOp45
 70
     1
102
RTVSPost2010Prop46
 90
       50
102
RTVSPost2010PropOp46
 70
     1
102
RTVSPost2010Prop47
 90
       50
102
RTVSPost2010PropOp47
 70
     1
102
RTVSPost2010Prop48
 90
       50
102
RTVSPost2010PropOp48
 70
     1
102
RTVSPost2010Prop49
280
     0
102
RTVSPost2010PropOp49
 70
     1
102
RTVSPost2010Prop50
 90
       50
102
RTVSPost2010PropOp50
 70
     1
102
RTVSPost2010Prop51ColorIndex
 90
      256
102
RTVSPost2010Prop51ColorRGB
 90
-16777216
102
RTVSPost2010PropOp51
 70
     0
102
RTVSPost2010Prop52
140
1.0
102
RTVSPost2010PropOp52
 70
     0
102
RTVSPost2010Prop53
 90
        2
102
RTVSPost2010PropOp53
 70
     1
102
RTVSPost2010Prop54
  1
strokes_ogs.tif
102
RTVSPost2010PropOp54
 70
     1
102
RTVSPost2010Prop55
280
     0
102
RTVSPost2010PropOp55
 70
     1
102
RTVSPost2010Prop56
140
1.0
102
RTVSPost2010PropOp56
 70
     1
102
RTVSPost2010Prop57
140
1.0
102
RTVSPost2010PropOp57
 70
     1
  0
XRECORD
  5
158
102
{ACAD_REACTORS
330
157
102
}
330
157
100
AcDbXrecord
280
     1
102
RTVSPost2010Prop28
280
     0
102
RTVSPost2010PropOp28
 70
     0
102
RTVSPost2010Prop29
280
     1
102
RTVSPost2010PropOp29
 70
     0
102
RTVSPost2010Prop30
280
     1
102
RTVSPost2010PropOp30
 70
     0
102
RTVSPost2010Prop31
280
     0
102
RTVSPost2010PropOp31
 70
     0
102
RTVSPost2010Prop32
280
     0
102
RTVSPost2010PropOp32
 70
     0
102
RTVSPost2010Prop33
280
     0
102
RTVSPost2010PropOp33
 70
     0
102
RTVSPost2010Prop34
280
     0
102
RTVSPost2010PropOp34
 70
     0
102
RTVSPost2010Prop35
280
     0
102
RTVSPost2010PropOp35
 70
     0
102
RTVSPost2010Prop36
280
     0
102
RTVSPost2010PropOp36
 70
     0
102
RTVSPost2010Prop37
 90
       50
102
RTVSPost2010PropOp37
 70
     0
102
RTVSPost2010Prop38
140
0.0
102
RTVSPost2010PropOp38
 70
     0
102
RTVSPost2010Prop39
140
1.0
102
RTVSPost2010PropOp39
 70
     0
102
RTVSPost2010Prop40
 90
        0
102
RTVSPost2010PropOp40
 70
     0
102
RTVSPost2010Prop41ColorIndex
 90
       18
102
RTVSPost2010Prop41ColorRGB
 90
        0
102
RTVSPost2010PropOp41
 70
     0
102
RTVSPost2010Prop42
 90
       50
102
RTVSPost2010PropOp42
 70
     0
102
RTVSPost2010Prop43
 90
        3
102
RTVSPost2010PropOp43
 70
     0
102
RTVSPost2010Prop44ColorIndex
 90
        5
102
RTVSPost2010Prop44ColorRGB
 90
      255
102
RTVSPost2010PropOp44
 70
     0
102
RTVSPost2010Prop45
280
     0
102
RTVSPost2010PropOp45
 70
     0
102
RTVSPost2010Prop46
 90
       50
102
RTVSPost2010PropOp46
 70
     0
102
RTVSPost2010Prop47
 90
       50
102
RTVSPost2010PropOp47
 70
     0
102
RTVSPost2010Prop48
 90
       50
102
RTVSPost2010PropOp48
 70
     0
102
RTVSPost2010Prop49
280
     0
102
RTVSPost2010PropOp49
 70
     0
102
RTVSPost2010Prop50
 90
       50
102
RTVSPost2010PropOp50
 70
     0
102
RTVSPost2010Prop51ColorIndex
 90
      256
102
RTVSPost2010Prop51ColorRGB
 90
-16777216
102
RTVSPost2010PropOp51
 70
     0
102
RTVSPost2010Prop52
140
1.0
102
RTVSPost2010PropOp52
 70
     0
102
RTVSPost2010Prop53
 90
        2
102
RTVSPost2010PropOp53
 70
     0
102
RTVSPost2010Prop54
  1
strokes_ogs.tif
102
RTVSPost2010PropOp54
 70
     0
102
RTVSPost2010Prop55
280
     0
102
RTVSPost2010PropOp55
 70
     0
102
RTVSPost2010Prop56
140
1.0
102
RTVSPost2010PropOp56
 70
     0
102
RTVSPost2010Prop57
140
1.0
102
RTVSPost2010PropOp57
 70
     0
  0
XRECORD
  5
148
102
{ACAD_REACTORS
330
147
102
}
330
147
100
AcDbXrecord
280
     1
102
RTVSPost2010Prop28
280
     0
102
RTVSPost2010PropOp28
 70
     1
102
RTVSPost2010Prop29
280
     1
102
RTVSPost2010PropOp29
 70
     1
102
RTVSPost2010Prop30
280
     1
102
RTVSPost2010PropOp30
 70
     1
102
RTVSPost2010Prop31
280
     0
102
RTVSPost2010PropOp31
 70
     1
102
RTVSPost2010Prop32
280
     0
102
RTVSPost2010PropOp32
 70
     1
102
RTVSPost2010Prop33
280
     0
102
RTVSPost2010PropOp33
 70
     1
102
RTVSPost2010Prop34
280
     0
102
RTVSPost2010PropOp34
 70
     1
102
RTVSPost2010Prop35
280
     0
102
RTVSPost2010PropOp35
 70
     1
102
RTVSPost2010Prop36
280
     0
102
RTVSPost2010PropOp36
 70
     1
102
RTVSPost2010Prop37
 90
       50
102
RTVSPost2010PropOp37
 70
     1
102
RTVSPost2010Prop38
140
0.0
102
RTVSPost2010PropOp38
 70
     1
102
RTVSPost2010Prop39
140
1.0
102
RTVSPost2010PropOp39
 70
     1
102
RTVSPost2010Prop40
 90
        0
102
RTVSPost2010PropOp40
 70
     1
102
RTVSPost2010Prop41ColorIndex
 90
       18
102
RTVSPost2010Prop41ColorRGB
 90
        0
102
RTVSPost2010PropOp41
 70
     1
102
RTVSPost2010Prop42
 90
       50
102
RTVSPost2010PropOp42
 70
     1
102
RTVSPost2010Prop43
 90
        3
102
RTVSPost2010PropOp43
 70
     1
102
RTVSPost2010Prop44ColorIndex
 90
        5
102
RTVSPost2010Prop44ColorRGB
 90
      255
102
RTVSPost2010PropOp44
 70
     1
102
RTVSPost2010Prop45
280
     0
102
RTVSPost2010PropOp45
 70
     1
102
RTVSPost2010Prop46
 90
       50
102
RTVSPost2010PropOp46
 70
     1
102
RTVSPost2010Prop47
 90
       50
102
RTVSPost2010PropOp47
 70
     1
102
RTVSPost2010Prop48
 90
       50
102
RTVSPost2010PropOp48
 70
     1
102
RTVSPost2010Prop49
280
     0
102
RTVSPost2010PropOp49
 70
     1
102
RTVSPost2010Prop50
 90
       50
102
RTVSPost2010PropOp50
 70
     1
102
RTVSPost2010Prop51ColorIndex
 90
      256
102
RTVSPost2010Prop51ColorRGB
 90
-16777216
102
RTVSPost2010PropOp51
 70
     0
102
RTVSPost2010Prop52
140
1.0
102
RTVSPost2010PropOp52
 70
     0
102
RTVSPost2010Prop53
 90
        2
102
RTVSPost2010PropOp53
 70
     1
102
RTVSPost2010Prop54
  1
strokes_ogs.tif
102
RTVSPost2010PropOp54
 70
     1
102
RTVSPost2010Prop55
280
     0
102
RTVSPost2010PropOp55
 70
     1
102
RTVSPost2010Prop56
140
1.0
102
RTVSPost2010PropOp56
 70
     1
102
RTVSPost2010Prop57
140
1.0
102
RTVSPost2010PropOp57
 70
     1
  0
XRECORD
  5
15A
102
{ACAD_REACTORS
330
159
102
}
330
159
100
AcDbXrecord
280
     1
102
RTVSPost2010Prop28
280
     0
102
RTVSPost2010PropOp28
 70
     0
102
RTVSPost2010Prop29
280
     1
102
RTVSPost2010PropOp29
 70
     0
102
RTVSPost2010Prop30
280
     1
102
RTVSPost2010PropOp30
 70
     0
102
RTVSPost2010Prop31
280
     0
102
RTVSPost2010PropOp31
 70
     0
102
RTVSPost2010Prop32
280
     0
102
RTVSPost2010PropOp32
 70
     0
102
RTVSPost2010Prop33
280
     0
102
RTVSPost2010PropOp33
 70
     0
102
RTVSPost2010Prop34
280
     0
102
RTVSPost2010PropOp34
 70
     0
102
RTVSPost2010Prop35
280
     0
102
RTVSPost2010PropOp35
 70
     0
102
RTVSPost2010Prop36
280
     0
102
RTVSPost2010PropOp36
 70
     0
102
RTVSPost2010Prop37
 90
       50
102
RTVSPost2010PropOp37
 70
     0
102
RTVSPost2010Prop38
140
0.0
102
RTVSPost2010PropOp38
 70
     0
102
RTVSPost2010Prop39
140
1.0
102
RTVSPost2010PropOp39
 70
     0
102
RTVSPost2010Prop40
 90
        0
102
RTVSPost2010PropOp40
 70
     0
102
RTVSPost2010Prop41ColorIndex
 90
       18
102
RTVSPost2010Prop41ColorRGB
 90
        0
102
RTVSPost2010PropOp41
 70
     0
102
RTVSPost2010Prop42
 90
       50
102
RTVSPost2010PropOp42
 70
     0
102
RTVSPost2010Prop43
 90
        3
102
RTVSPost2010PropOp43
 70
     0
102
RTVSPost2010Prop44ColorIndex
 90
        5
102
RTVSPost2010Prop44ColorRGB
 90
      255
102
RTVSPost2010PropOp44
 70
     0
102
RTVSPost2010Prop45
280
     0
102
RTVSPost2010PropOp45
 70
     0
102
RTVSPost2010Prop46
 90
       50
102
RTVSPost2010PropOp46
 70
     0
102
RTVSPost2010Prop47
 90
       50
102
RTVSPost2010PropOp47
 70
     0
102
RTVSPost2010Prop48
 90
       50
102
RTVSPost2010PropOp48
 70
     0
102
RTVSPost2010Prop49
280
     0
102
RTVSPost2010PropOp49
 70
     0
102
RTVSPost2010Prop50
 90
       50
102
RTVSPost2010PropOp50
 70
     0
102
RTVSPost2010Prop51ColorIndex
 90
      256
102
RTVSPost2010Prop51ColorRGB
 90
-16777216
102
RTVSPost2010PropOp51
 70
     0
102
RTVSPost2010Prop52
140
1.0
102
RTVSPost2010PropOp52
 70
     0
102
RTVSPost2010Prop53
 90
        2
102
RTVSPost2010PropOp53
 70
     0
102
RTVSPost2010Prop54
  1
strokes_ogs.tif
102
RTVSPost2010PropOp54
 70
     0
102
RTVSPost2010Prop55
280
     0
102
RTVSPost2010PropOp55
 70
     0
102
RTVSPost2010Prop56
140
1.0
102
RTVSPost2010PropOp56
 70
     0
102
RTVSPost2010Prop57
140
1.0
102
RTVSPost2010PropOp57
 70
     0
  0
XRECORD
  5
140
102
{ACAD_REACTORS
330
13F
102
}
330
13F
100
AcDbXrecord
280
     1
102
RTVSPost2010Prop28
280
     0
102
RTVSPost2010PropOp28
 70
     1
102
RTVSPost2010Prop29
280
     1
102
RTVSPost2010PropOp29
 70
     1
102
RTVSPost2010Prop30
280
     1
102
RTVSPost2010PropOp30
 70
     1
102
RTVSPost2010Prop31
280
     0
102
RTVSPost2010PropOp31
 70
     1
102
RTVSPost2010Prop32
280
     0
102
RTVSPost2010PropOp32
 70
     1
102
RTVSPost2010Prop33
280
     0
102
RTVSPost2010PropOp33
 70
     1
102
RTVSPost2010Prop34
280
     0
102
RTVSPost2010PropOp34
 70
     1
102
RTVSPost2010Prop35
280
     0
102
RTVSPost2010PropOp35
 70
     1
102
RTVSPost2010Prop36
280
     0
102
RTVSPost2010PropOp36
 70
     1
102
RTVSPost2010Prop37
 90
       50
102
RTVSPost2010PropOp37
 70
     1
102
RTVSPost2010Prop38
140
0.0
102
RTVSPost2010PropOp38
 70
     1
102
RTVSPost2010Prop39
140
1.0
102
RTVSPost2010PropOp39
 70
     1
102
RTVSPost2010Prop40
 90
        0
102
RTVSPost2010PropOp40
 70
     1
102
RTVSPost2010Prop41ColorIndex
 90
       18
102
RTVSPost2010Prop41ColorRGB
 90
        0
102
RTVSPost2010PropOp41
 70
     1
102
RTVSPost2010Prop42
 90
       50
102
RTVSPost2010PropOp42
 70
     1
102
RTVSPost2010Prop43
 90
        3
102
RTVSPost2010PropOp43
 70
     1
102
RTVSPost2010Prop44ColorIndex
 90
        5
102
RTVSPost2010Prop44ColorRGB
 90
      255
102
RTVSPost2010PropOp44
 70
     1
102
RTVSPost2010Prop45
280
     0
102
RTVSPost2010PropOp45
 70
     1
102
RTVSPost2010Prop46
 90
       50
102
RTVSPost2010PropOp46
 70
     1
102
RTVSPost2010Prop47
 90
       50
102
RTVSPost2010PropOp47
 70
     1
102
RTVSPost2010Prop48
 90
       50
102
RTVSPost2010PropOp48
 70
     1
102
RTVSPost2010Prop49
280
     0
102
RTVSPost2010PropOp49
 70
     1
102
RTVSPost2010Prop50
 90
       50
102
RTVSPost2010PropOp50
 70
     1
102
RTVSPost2010Prop51ColorIndex
 90
      256
102
RTVSPost2010Prop51ColorRGB
 90
-16777216
102
RTVSPost2010PropOp51
 70
     0
102
RTVSPost2010Prop52
140
1.0
102
RTVSPost2010PropOp52
 70
     0
102
RTVSPost2010Prop53
 90
        2
102
RTVSPost2010PropOp53
 70
     1
102
RTVSPost2010Prop54
  1
strokes_ogs.tif
102
RTVSPost2010PropOp54
 70
     1
102
RTVSPost2010Prop55
280
     0
102
RTVSPost2010PropOp55
 70
     1
102
RTVSPost2010Prop56
140
1.0
102
RTVSPost2010PropOp56
 70
     1
102
RTVSPost2010Prop57
140
1.0
102
RTVSPost2010PropOp57
 70
     1
  0
XRECORD
  5
156
102
{ACAD_REACTORS
330
155
102
}
330
155
100
AcDbXrecord
280
     1
102
RTVSPost2010Prop28
280
     0
102
RTVSPost2010PropOp28
 70
     1
102
RTVSPost2010Prop29
280
     1
102
RTVSPost2010PropOp29
 70
     1
102
RTVSPost2010Prop30
280
     1
102
RTVSPost2010PropOp30
 70
     1
102
RTVSPost2010Prop31
280
     0
102
RTVSPost2010PropOp31
 70
     1
102
RTVSPost2010Prop32
280
     0
102
RTVSPost2010PropOp32
 70
     1
102
RTVSPost2010Prop33
280
     0
102
RTVSPost2010PropOp33
 70
     1
102
RTVSPost2010Prop34
280
     0
102
RTVSPost2010PropOp34
 70
     1
102
RTVSPost2010Prop35
280
     0
102
RTVSPost2010PropOp35
 70
     1
102
RTVSPost2010Prop36
280
     0
102
RTVSPost2010PropOp36
 70
     1
102
RTVSPost2010Prop37
 90
       50
102
RTVSPost2010PropOp37
 70
     1
102
RTVSPost2010Prop38
140
0.0
102
RTVSPost2010PropOp38
 70
     1
102
RTVSPost2010Prop39
140
1.0
102
RTVSPost2010PropOp39
 70
     1
102
RTVSPost2010Prop40
 90
        0
102
RTVSPost2010PropOp40
 70
     1
102
RTVSPost2010Prop41ColorIndex
 90
       18
102
RTVSPost2010Prop41ColorRGB
 90
        0
102
RTVSPost2010PropOp41
 70
     1
102
RTVSPost2010Prop42
 90
       50
102
RTVSPost2010PropOp42
 70
     1
102
RTVSPost2010Prop43
 90
        3
102
RTVSPost2010PropOp43
 70
     1
102
RTVSPost2010Prop44ColorIndex
 90
        5
102
RTVSPost2010Prop44ColorRGB
 90
      255
102
RTVSPost2010PropOp44
 70
     1
102
RTVSPost2010Prop45
280
     0
102
RTVSPost2010PropOp45
 70
     1
102
RTVSPost2010Prop46
 90
       50
102
RTVSPost2010PropOp46
 70
     1
102
RTVSPost2010Prop47
 90
       50
102
RTVSPost2010PropOp47
 70
     1
102
RTVSPost2010Prop48
 90
       50
102
RTVSPost2010PropOp48
 70
     1
102
RTVSPost2010Prop49
280
     0
102
RTVSPost2010PropOp49
 70
     1
102
RTVSPost2010Prop50
 90
       50
102
RTVSPost2010PropOp50
 70
     1
102
RTVSPost2010Prop51ColorIndex
 90
      256
102
RTVSPost2010Prop51ColorRGB
 90
-16777216
102
RTVSPost2010PropOp51
 70
     0
102
RTVSPost2010Prop52
140
1.0
102
RTVSPost2010PropOp52
 70
     0
102
RTVSPost2010Prop53
 90
        2
102
RTVSPost2010PropOp53
 70
     1
102
RTVSPost2010Prop54
  1
strokes_ogs.tif
102
RTVSPost2010PropOp54
 70
     1
102
RTVSPost2010Prop55
280
     0
102
RTVSPost2010PropOp55
 70
     1
102
RTVSPost2010Prop56
140
1.0
102
RTVSPost2010PropOp56
 70
     1
102
RTVSPost2010Prop57
140
1.0
102
RTVSPost2010PropOp57
 70
     1
  0
XRECORD
  5
154
102
{ACAD_REACTORS
330
153
102
}
330
153
100
AcDbXrecord
280
     1
102
RTVSPost2010Prop28
280
     0
102
RTVSPost2010PropOp28
 70
     1
102
RTVSPost2010Prop29
280
     1
102
RTVSPost2010PropOp29
 70
     1
102
RTVSPost2010Prop30
280
     1
102
RTVSPost2010PropOp30
 70
     1
102
RTVSPost2010Prop31
280
     0
102
RTVSPost2010PropOp31
 70
     1
102
RTVSPost2010Prop32
280
     0
102
RTVSPost2010PropOp32
 70
     1
102
RTVSPost2010Prop33
280
     0
102
RTVSPost2010PropOp33
 70
     1
102
RTVSPost2010Prop34
280
     0
102
RTVSPost2010PropOp34
 70
     1
102
RTVSPost2010Prop35
280
     0
102
RTVSPost2010PropOp35
 70
     1
102
RTVSPost2010Prop36
280
     0
102
RTVSPost2010PropOp36
 70
     1
102
RTVSPost2010Prop37
 90
       50
102
RTVSPost2010PropOp37
 70
     1
102
RTVSPost2010Prop38
140
0.0
102
RTVSPost2010PropOp38
 70
     1
102
RTVSPost2010Prop39
140
1.0
102
RTVSPost2010PropOp39
 70
     1
102
RTVSPost2010Prop40
 90
        0
102
RTVSPost2010PropOp40
 70
     1
102
RTVSPost2010Prop41ColorIndex
 90
       18
102
RTVSPost2010Prop41ColorRGB
 90
        0
102
RTVSPost2010PropOp41
 70
     1
102
RTVSPost2010Prop42
 90
       50
102
RTVSPost2010PropOp42
 70
     1
102
RTVSPost2010Prop43
 90
        3
102
RTVSPost2010PropOp43
 70
     1
102
RTVSPost2010Prop44ColorIndex
 90
        5
102
RTVSPost2010Prop44ColorRGB
 90
      255
102
RTVSPost2010PropOp44
 70
     1
102
RTVSPost2010Prop45
280
     0
102
RTVSPost2010PropOp45
 70
     1
102
RTVSPost2010Prop46
 90
       50
102
RTVSPost2010PropOp46
 70
     1
102
RTVSPost2010Prop47
 90
       50
102
RTVSPost2010PropOp47
 70
     1
102
RTVSPost2010Prop48
 90
       50
102
RTVSPost2010PropOp48
 70
     1
102
RTVSPost2010Prop49
280
     0
102
RTVSPost2010PropOp49
 70
     1
102
RTVSPost2010Prop50
 90
       50
102
RTVSPost2010PropOp50
 70
     1
102
RTVSPost2010Prop51ColorIndex
 90
      256
102
RTVSPost2010Prop51ColorRGB
 90
-16777216
102
RTVSPost2010PropOp51
 70
     0
102
RTVSPost2010Prop52
140
1.0
102
RTVSPost2010PropOp52
 70
     0
102
RTVSPost2010Prop53
 90
        2
102
RTVSPost2010PropOp53
 70
     1
102
RTVSPost2010Prop54
  1
strokes_ogs.tif
102
RTVSPost2010PropOp54
 70
     1
102
RTVSPost2010Prop55
280
     0
102
RTVSPost2010PropOp55
 70
     1
102
RTVSPost2010Prop56
140
1.0
102
RTVSPost2010PropOp56
 70
     1
102
RTVSPost2010Prop57
140
1.0
102
RTVSPost2010PropOp57
 70
     1
  0
XRECORD
  5
14E
102
{ACAD_REACTORS
330
14D
102
}
330
14D
100
AcDbXrecord
280
     1
102
RTVSPost2010Prop28
280
     0
102
RTVSPost2010PropOp28
 70
     1
102
RTVSPost2010Prop29
280
     1
102
RTVSPost2010PropOp29
 70
     1
102
RTVSPost2010Prop30
280
     1
102
RTVSPost2010PropOp30
 70
     1
102
RTVSPost2010Prop31
280
     0
102
RTVSPost2010PropOp31
 70
     1
102
RTVSPost2010Prop32
280
     0
102
RTVSPost2010PropOp32
 70
     1
102
RTVSPost2010Prop33
280
     0
102
RTVSPost2010PropOp33
 70
     1
102
RTVSPost2010Prop34
280
     0
102
RTVSPost2010PropOp34
 70
     1
102
RTVSPost2010Prop35
280
     0
102
RTVSPost2010PropOp35
 70
     1
102
RTVSPost2010Prop36
280
     0
102
RTVSPost2010PropOp36
 70
     1
102
RTVSPost2010Prop37
 90
       50
102
RTVSPost2010PropOp37
 70
     1
102
RTVSPost2010Prop38
140
0.0
102
RTVSPost2010PropOp38
 70
     1
102
RTVSPost2010Prop39
140
1.0
102
RTVSPost2010PropOp39
 70
     1
102
RTVSPost2010Prop40
 90
        0
102
RTVSPost2010PropOp40
 70
     1
102
RTVSPost2010Prop41ColorIndex
 90
       18
102
RTVSPost2010Prop41ColorRGB
 90
        0
102
RTVSPost2010PropOp41
 70
     1
102
RTVSPost2010Prop42
 90
       50
102
RTVSPost2010PropOp42
 70
     1
102
RTVSPost2010Prop43
 90
        3
102
RTVSPost2010PropOp43
 70
     1
102
RTVSPost2010Prop44ColorIndex
 90
        5
102
RTVSPost2010Prop44ColorRGB
 90
      255
102
RTVSPost2010PropOp44
 70
     1
102
RTVSPost2010Prop45
280
     0
102
RTVSPost2010PropOp45
 70
     1
102
RTVSPost2010Prop46
 90
       50
102
RTVSPost2010PropOp46
 70
     1
102
RTVSPost2010Prop47
 90
       50
102
RTVSPost2010PropOp47
 70
     1
102
RTVSPost2010Prop48
 90
       50
102
RTVSPost2010PropOp48
 70
     1
102
RTVSPost2010Prop49
280
     0
102
RTVSPost2010PropOp49
 70
     1
102
RTVSPost2010Prop50
 90
       50
102
RTVSPost2010PropOp50
 70
     1
102
RTVSPost2010Prop51ColorIndex
 90
      256
102
RTVSPost2010Prop51ColorRGB
 90
-16777216
102
RTVSPost2010PropOp51
 70
     0
102
RTVSPost2010Prop52
140
1.0
102
RTVSPost2010PropOp52
 70
     0
102
RTVSPost2010Prop53
 90
        2
102
RTVSPost2010PropOp53
 70
     1
102
RTVSPost2010Prop54
  1
strokes_ogs.tif
102
RTVSPost2010PropOp54
 70
     1
102
RTVSPost2010Prop55
280
     0
102
RTVSPost2010PropOp55
 70
     1
102
RTVSPost2010Prop56
140
1.0
102
RTVSPost2010PropOp56
 70
     1
102
RTVSPost2010Prop57
140
1.0
102
RTVSPost2010PropOp57
 70
     1
  0
XRECORD
  5
150
102
{ACAD_REACTORS
330
14F
102
}
330
14F
100
AcDbXrecord
280
     1
102
RTVSPost2010Prop28
280
     0
102
RTVSPost2010PropOp28
 70
     1
102
RTVSPost2010Prop29
280
     1
102
RTVSPost2010PropOp29
 70
     1
102
RTVSPost2010Prop30
280
     1
102
RTVSPost2010PropOp30
 70
     1
102
RTVSPost2010Prop31
280
     0
102
RTVSPost2010PropOp31
 70
     1
102
RTVSPost2010Prop32
280
     0
102
RTVSPost2010PropOp32
 70
     1
102
RTVSPost2010Prop33
280
     0
102
RTVSPost2010PropOp33
 70
     1
102
RTVSPost2010Prop34
280
     0
102
RTVSPost2010PropOp34
 70
     1
102
RTVSPost2010Prop35
280
     0
102
RTVSPost2010PropOp35
 70
     1
102
RTVSPost2010Prop36
280
     0
102
RTVSPost2010PropOp36
 70
     1
102
RTVSPost2010Prop37
 90
       50
102
RTVSPost2010PropOp37
 70
     1
102
RTVSPost2010Prop38
140
0.0
102
RTVSPost2010PropOp38
 70
     1
102
RTVSPost2010Prop39
140
1.0
102
RTVSPost2010PropOp39
 70
     1
102
RTVSPost2010Prop40
 90
        0
102
RTVSPost2010PropOp40
 70
     1
102
RTVSPost2010Prop41ColorIndex
 90
       18
102
RTVSPost2010Prop41ColorRGB
 90
        0
102
RTVSPost2010PropOp41
 70
     1
102
RTVSPost2010Prop42
 90
       50
102
RTVSPost2010PropOp42
 70
     1
102
RTVSPost2010Prop43
 90
        3
102
RTVSPost2010PropOp43
 70
     1
102
RTVSPost2010Prop44ColorIndex
 90
        5
102
RTVSPost2010Prop44ColorRGB
 90
      255
102
RTVSPost2010PropOp44
 70
     1
102
RTVSPost2010Prop45
280
     0
102
RTVSPost2010PropOp45
 70
     1
102
RTVSPost2010Prop46
 90
       50
102
RTVSPost2010PropOp46
 70
     1
102
RTVSPost2010Prop47
 90
       50
102
RTVSPost2010PropOp47
 70
     1
102
RTVSPost2010Prop48
 90
       50
102
RTVSPost2010PropOp48
 70
     1
102
RTVSPost2010Prop49
280
     0
102
RTVSPost2010PropOp49
 70
     1
102
RTVSPost2010Prop50
 90
       50
102
RTVSPost2010PropOp50
 70
     1
102
RTVSPost2010Prop51ColorIndex
 90
      256
102
RTVSPost2010Prop51ColorRGB
 90
-16777216
102
RTVSPost2010PropOp51
 70
     0
102
RTVSPost2010Prop52
140
1.0
102
RTVSPost2010PropOp52
 70
     0
102
RTVSPost2010Prop53
 90
        2
102
RTVSPost2010PropOp53
 70
     1
102
RTVSPost2010Prop54
  1
strokes_ogs.tif
102
RTVSPost2010PropOp54
 70
     1
102
RTVSPost2010Prop55
280
     0
102
RTVSPost2010PropOp55
 70
     1
102
RTVSPost2010Prop56
140
1.0
102
RTVSPost2010PropOp56
 70
     1
102
RTVSPost2010Prop57
140
1.0
102
RTVSPost2010PropOp57
 70
     1
  0
XRECORD
  5
146
102
{ACAD_REACTORS
330
145
102
}
330
145
100
AcDbXrecord
280
     1
102
RTVSPost2010Prop28
280
     0
102
RTVSPost2010PropOp28
 70
     1
102
RTVSPost2010Prop29
280
     1
102
RTVSPost2010PropOp29
 70
     1
102
RTVSPost2010Prop30
280
     1
102
RTVSPost2010PropOp30
 70
     1
102
RTVSPost2010Prop31
280
     0
102
RTVSPost2010PropOp31
 70
     1
102
RTVSPost2010Prop32
280
     0
102
RTVSPost2010PropOp32
 70
     1
102
RTVSPost2010Prop33
280
     0
102
RTVSPost2010PropOp33
 70
     1
102
RTVSPost2010Prop34
280
     0
102
RTVSPost2010PropOp34
 70
     1
102
RTVSPost2010Prop35
280
     0
102
RTVSPost2010PropOp35
 70
     1
102
RTVSPost2010Prop36
280
     0
102
RTVSPost2010PropOp36
 70
     1
102
RTVSPost2010Prop37
 90
       50
102
RTVSPost2010PropOp37
 70
     1
102
RTVSPost2010Prop38
140
0.0
102
RTVSPost2010PropOp38
 70
     1
102
RTVSPost2010Prop39
140
1.0
102
RTVSPost2010PropOp39
 70
     1
102
RTVSPost2010Prop40
 90
        0
102
RTVSPost2010PropOp40
 70
     1
102
RTVSPost2010Prop41ColorIndex
 90
       18
102
RTVSPost2010Prop41ColorRGB
 90
        0
102
RTVSPost2010PropOp41
 70
     1
102
RTVSPost2010Prop42
 90
       50
102
RTVSPost2010PropOp42
 70
     1
102
RTVSPost2010Prop43
 90
        3
102
RTVSPost2010PropOp43
 70
     1
102
RTVSPost2010Prop44ColorIndex
 90
        5
102
RTVSPost2010Prop44ColorRGB
 90
      255
102
RTVSPost2010PropOp44
 70
     1
102
RTVSPost2010Prop45
280
     0
102
RTVSPost2010PropOp45
 70
     1
102
RTVSPost2010Prop46
 90
       50
102
RTVSPost2010PropOp46
 70
     1
102
RTVSPost2010Prop47
 90
       50
102
RTVSPost2010PropOp47
 70
     1
102
RTVSPost2010Prop48
 90
       50
102
RTVSPost2010PropOp48
 70
     1
102
RTVSPost2010Prop49
280
     0
102
RTVSPost2010PropOp49
 70
     1
102
RTVSPost2010Prop50
 90
       50
102
RTVSPost2010PropOp50
 70
     1
102
RTVSPost2010Prop51ColorIndex
 90
      256
102
RTVSPost2010Prop51ColorRGB
 90
-16777216
102
RTVSPost2010PropOp51
 70
     0
102
RTVSPost2010Prop52
140
1.0
102
RTVSPost2010PropOp52
 70
     0
102
RTVSPost2010Prop53
 90
        2
102
RTVSPost2010PropOp53
 70
     1
102
RTVSPost2010Prop54
  1
strokes_ogs.tif
102
RTVSPost2010PropOp54
 70
     1
102
RTVSPost2010Prop55
280
     0
102
RTVSPost2010PropOp55
 70
     1
102
RTVSPost2010Prop56
140
1.0
102
RTVSPost2010PropOp56
 70
     1
102
RTVSPost2010Prop57
140
1.0
102
RTVSPost2010PropOp57
 70
     1
  0
XRECORD
  5
13A
102
{ACAD_REACTORS
330
139
102
}
330
139
100
AcDbXrecord
280
     1
102
RTVSPost2010Prop28
280
     0
102
RTVSPost2010PropOp28
 70
     1
102
RTVSPost2010Prop29
280
     1
102
RTVSPost2010PropOp29
 70
     1
102
RTVSPost2010Prop30
280
     1
102
RTVSPost2010PropOp30
 70
     1
102
RTVSPost2010Prop31
280
     0
102
RTVSPost2010PropOp31
 70
     1
102
RTVSPost2010Prop32
280
     0
102
RTVSPost2010PropOp32
 70
     1
102
RTVSPost2010Prop33
280
     0
102
RTVSPost2010PropOp33
 70
     1
102
RTVSPost2010Prop34
280
     0
102
RTVSPost2010PropOp34
 70
     1
102
RTVSPost2010Prop35
280
     0
102
RTVSPost2010PropOp35
 70
     1
102
RTVSPost2010Prop36
280
     0
102
RTVSPost2010PropOp36
 70
     1
102
RTVSPost2010Prop37
 90
       50
102
RTVSPost2010PropOp37
 70
     1
102
RTVSPost2010Prop38
140
0.0
102
RTVSPost2010PropOp38
 70
     1
102
RTVSPost2010Prop39
140
1.0
102
RTVSPost2010PropOp39
 70
     1
102
RTVSPost2010Prop40
 90
        0
102
RTVSPost2010PropOp40
 70
     1
102
RTVSPost2010Prop41ColorIndex
 90
       18
102
RTVSPost2010Prop41ColorRGB
 90
        0
102
RTVSPost2010PropOp41
 70
     1
102
RTVSPost2010Prop42
 90
       50
102
RTVSPost2010PropOp42
 70
     1
102
RTVSPost2010Prop43
 90
        3
102
RTVSPost2010PropOp43
 70
     1
102
RTVSPost2010Prop44ColorIndex
 90
        5
102
RTVSPost2010Prop44ColorRGB
 90
      255
102
RTVSPost2010PropOp44
 70
     1
102
RTVSPost2010Prop45
280
     0
102
RTVSPost2010PropOp45
 70
     1
102
RTVSPost2010Prop46
 90
       50
102
RTVSPost2010PropOp46
 70
     1
102
RTVSPost2010Prop47
 90
       50
102
RTVSPost2010PropOp47
 70
     1
102
RTVSPost2010Prop48
 90
       50
102
RTVSPost2010PropOp48
 70
     1
102
RTVSPost2010Prop49
280
     0
102
RTVSPost2010PropOp49
 70
     1
102
RTVSPost2010Prop50
 90
       50
102
RTVSPost2010PropOp50
 70
     1
102
RTVSPost2010Prop51ColorIndex
 90
      256
102
RTVSPost2010Prop51ColorRGB
 90
-16777216
102
RTVSPost2010PropOp51
 70
     0
102
RTVSPost2010Prop52
140
1.0
102
RTVSPost2010PropOp52
 70
     0
102
RTVSPost2010Prop53
 90
        2
102
RTVSPost2010PropOp53
 70
     1
102
RTVSPost2010Prop54
  1
strokes_ogs.tif
102
RTVSPost2010PropOp54
 70
     1
102
RTVSPost2010Prop55
280
     0
102
RTVSPost2010PropOp55
 70
     1
102
RTVSPost2010Prop56
140
1.0
102
RTVSPost2010PropOp56
 70
     1
102
RTVSPost2010Prop57
140
1.0
102
RTVSPost2010PropOp57
 70
     1
  0
XRECORD
  5
152
102
{ACAD_REACTORS
330
151
102
}
330
151
100
AcDbXrecord
280
     1
102
RTVSPost2010Prop28
280
     0
102
RTVSPost2010PropOp28
 70
     1
102
RTVSPost2010Prop29
280
     1
102
RTVSPost2010PropOp29
 70
     1
102
RTVSPost2010Prop30
280
     1
102
RTVSPost2010PropOp30
 70
     1
102
RTVSPost2010Prop31
280
     0
102
RTVSPost2010PropOp31
 70
     1
102
RTVSPost2010Prop32
280
     0
102
RTVSPost2010PropOp32
 70
     1
102
RTVSPost2010Prop33
280
     0
102
RTVSPost2010PropOp33
 70
     1
102
RTVSPost2010Prop34
280
     0
102
RTVSPost2010PropOp34
 70
     1
102
RTVSPost2010Prop35
280
     0
102
RTVSPost2010PropOp35
 70
     1
102
RTVSPost2010Prop36
280
     0
102
RTVSPost2010PropOp36
 70
     1
102
RTVSPost2010Prop37
 90
       50
102
RTVSPost2010PropOp37
 70
     1
102
RTVSPost2010Prop38
140
0.0
102
RTVSPost2010PropOp38
 70
     1
102
RTVSPost2010Prop39
140
1.0
102
RTVSPost2010PropOp39
 70
     1
102
RTVSPost2010Prop40
 90
        0
102
RTVSPost2010PropOp40
 70
     1
102
RTVSPost2010Prop41ColorIndex
 90
       18
102
RTVSPost2010Prop41ColorRGB
 90
        0
102
RTVSPost2010PropOp41
 70
     1
102
RTVSPost2010Prop42
 90
       50
102
RTVSPost2010PropOp42
 70
     1
102
RTVSPost2010Prop43
 90
        3
102
RTVSPost2010PropOp43
 70
     1
102
RTVSPost2010Prop44ColorIndex
 90
        5
102
RTVSPost2010Prop44ColorRGB
 90
      255
102
RTVSPost2010PropOp44
 70
     1
102
RTVSPost2010Prop45
280
     0
102
RTVSPost2010PropOp45
 70
     1
102
RTVSPost2010Prop46
 90
       50
102
RTVSPost2010PropOp46
 70
     1
102
RTVSPost2010Prop47
 90
       50
102
RTVSPost2010PropOp47
 70
     1
102
RTVSPost2010Prop48
 90
       50
102
RTVSPost2010PropOp48
 70
     1
102
RTVSPost2010Prop49
280
     0
102
RTVSPost2010PropOp49
 70
     1
102
RTVSPost2010Prop50
 90
       50
102
RTVSPost2010PropOp50
 70
     1
102
RTVSPost2010Prop51ColorIndex
 90
      256
102
RTVSPost2010Prop51ColorRGB
 90
-16777216
102
RTVSPost2010PropOp51
 70
     0
102
RTVSPost2010Prop52
140
1.0
102
RTVSPost2010PropOp52
 70
     0
102
RTVSPost2010Prop53
 90
        2
102
RTVSPost2010PropOp53
 70
     1
102
RTVSPost2010Prop54
  1
strokes_ogs.tif
102
RTVSPost2010PropOp54
 70
     1
102
RTVSPost2010Prop55
280
     0
102
RTVSPost2010PropOp55
 70
     1
102
RTVSPost2010Prop56
140
1.0
102
RTVSPost2010PropOp56
 70
     1
102
RTVSPost2010Prop57
140
1.0
102
RTVSPost2010PropOp57
 70
     1
  0
ENDSEC
  0
EOF
