  0
SECTION
  2
HEADER
  9
$ACADVER
  1
AC1024
  9
$ACADMAINTVER
 70
   226
  9
$DWGCODEPAGE
  3
ANSI_932
  9
$INSBASE
 10
0.0
 20
0.0
 30
0.0
  9
$EXTMIN
 10
1.000000000000000E+20
 20
1.000000000000000E+20
 30
1.000000000000000E+20
  9
$EXTMAX
 10
-1.000000000000000E+20
 20
-1.000000000000000E+20
 30
-1.000000000000000E+20
  9
$LIMMIN
 10
0.0
 20
0.0
  9
$LIMMAX
 10
12.0
 20
9.0
  9
$ORTHOMODE
 70
     0
  9
$REGENMODE
 70
     1
  9
$FILLMODE
 70
     1
  9
$QTEXTMODE
 70
     0
  9
$MIRRTEXT
 70
     0
  9
$LTSCALE
 40
1.0
  9
$ATTMODE
 70
     1
  9
$TEXTSIZE
 40
0.2
  9
$TRACEWID
 40
0.05
  9
$TEXTSTYLE
  7
Standard
  9
$CLAYER
  8
0
  9
$CELTYPE
  6
ByLayer
  9
$CECOLOR
 62
   256
  9
$CELTSCALE
 40
1.0
  9
$DISPSILH
 70
     0
  9
$DIMSCALE
 40
1.0
  9
$DIMASZ
 40
0.18
  9
$DIMEXO
 40
0.0625
  9
$DIMDLI
 40
0.38
  9
$DIMRND
 40
0.0
  9
$DIMDLE
 40
0.0
  9
$DIMEXE
 40
0.18
  9
$DIMTP
 40
0.0
  9
$DIMTM
 40
0.0
  9
$DIMTXT
 40
0.18
  9
$DIMCEN
 40
0.09
  9
$DIMTSZ
 40
0.0
  9
$DIMTOL
 70
     0
  9
$DIMLIM
 70
     0
  9
$DIMTIH
 70
     1
  9
$DIMTOH
 70
     1
  9
$DIMSE1
 70
     0
  9
$DIMSE2
 70
     0
  9
$DIMTAD
 70
     0
  9
$DIMZIN
 70
     0
  9
$DIMBLK
  1

  9
$DIMASO
 70
     1
  9
$DIMSHO
 70
     1
  9
$DIMPOST
  1

  9
$DIMAPOST
  1

  9
$DIMALT
 70
     0
  9
$DIMALTD
 70
     2
  9
$DIMALTF
 40
25.4
  9
$DIMLFAC
 40
1.0
  9
$DIMTOFL
 70
     0
  9
$DIMTVP
 40
0.0
  9
$DIMTIX
 70
     0
  9
$DIMSOXD
 70
     0
  9
$DIMSAH
 70
     0
  9
$DIMBLK1
  1

  9
$DIMBLK2
  1

  9
$DIMSTYLE
  2
Standard
  9
$DIMCLRD
 70
     0
  9
$DIMCLRE
 70
     0
  9
$DIMCLRT
 70
     0
  9
$DIMTFAC
 40
1.0
  9
$DIMGAP
 40
0.09
  9
$DIMJUST
 70
     0
  9
$DIMSD1
 70
     0
  9
$DIMSD2
 70
     0
  9
$DIMTOLJ
 70
     1
  9
$DIMTZIN
 70
     0
  9
$DIMALTZ
 70
     0
  9
$DIMALTTZ
 70
     0
  9
$DIMUPT
 70
     0
  9
$DIMDEC
 70
     4
  9
$DIMTDEC
 70
     4
  9
$DIMALTU
 70
     2
  9
$DIMALTTD
 70
     2
  9
$DIMTXSTY
  7
Standard
  9
$DIMAUNIT
 70
     0
  9
$DIMADEC
 70
     0
  9
$DIMALTRND
 40
0.0
  9
$DIMAZIN
 70
     0
  9
$DIMDSEP
 70
    46
  9
$DIMATFIT
 70
     3
  9
$DIMFRAC
 70
     0
  9
$DIMLDRBLK
  1

  9
$DIMLUNIT
 70
     2
  9
$DIMLWD
 70
    -2
  9
$DIMLWE
 70
    -2
  9
$DIMTMOVE
 70
     0
  9
$DIMFXL
 40
1.0
  9
$DIMFXLON
 70
     0
  9
$DIMJOGANG
 40
0.7853981633974483
  9
$DIMTFILL
 70
     0
  9
$DIMTFILLCLR
 70
     0
  9
$DIMARCSYM
 70
     0
  9
$DIMLTYPE
  6

  9
$DIMLTEX1
  6

  9
$DIMLTEX2
  6

  9
$DIMTXTDIRECTION
 70
     0
  9
$LUNITS
 70
     2
  9
$LUPREC
 70
     4
  9
$SKETCHINC
 40
0.1
  9
$FILLETRAD
 40
0.0
  9
$AUNITS
 70
     0
  9
$AUPREC
 70
     0
  9
$MENU
  1
.
  9
$ELEVATION
 40
0.0
  9
$PELEVATION
 40
0.0
  9
$THICKNESS
 40
0.0
  9
$LIMCHECK
 70
     0
  9
$CHAMFERA
 40
0.0
  9
$CHAMFERB
 40
0.0
  9
$CHAMFERC
 40
0.0
  9
$CHAMFERD
 40
0.0
  9
$SKPOLY
 70
     0
  9
$TDCREATE
 40
2459569.490277778
  9
$TDUCREATE
 40
2459569.115277778
  9
$TDUPDATE
 40
2459569.490277778
  9
$TDUUPDATE
 40
2459569.115277778
  9
$TDINDWG
 40
0.0000115741
  9
$TDUSRTIMER
 40
0.0000115741
  9
$USRTIMER
 70
     1
  9
$ANGBASE
 50
0.0
  9
$ANGDIR
 70
     0
  9
$PDMODE
 70
     0
  9
$PDSIZE
 40
0.0
  9
$PLINEWID
 40
0.0
  9
$SPLFRAME
 70
     0
  9
$SPLINETYPE
 70
     6
  9
$SPLINESEGS
 70
     8
  9
$HANDSEED
  5
144
  9
$SURFTAB1
 70
     6
  9
$SURFTAB2
 70
     6
  9
$SURFTYPE
 70
     6
  9
$SURFU
 70
     6
  9
$SURFV
 70
     6
  9
$UCSBASE
  2

  9
$UCSNAME
  2

  9
$UCSORG
 10
0.0
 20
0.0
 30
0.0
  9
$UCSXDIR
 10
1.0
 20
0.0
 30
0.0
  9
$UCSYDIR
 10
0.0
 20
1.0
 30
0.0
  9
$UCSORTHOREF
  2

  9
$UCSORTHOVIEW
 70
     0
  9
$UCSORGTOP
 10
0.0
 20
0.0
 30
0.0
  9
$UCSORGBOTTOM
 10
0.0
 20
0.0
 30
0.0
  9
$UCSORGLEFT
 10
0.0
 20
0.0
 30
0.0
  9
$UCSORGRIGHT
 10
0.0
 20
0.0
 30
0.0
  9
$UCSORGFRONT
 10
0.0
 20
0.0
 30
0.0
  9
$UCSORGBACK
 10
0.0
 20
0.0
 30
0.0
  9
$PUCSBASE
  2

  9
$PUCSNAME
  2

  9
$PUCSORG
 10
0.0
 20
0.0
 30
0.0
  9
$PUCSXDIR
 10
1.0
 20
0.0
 30
0.0
  9
$PUCSYDIR
 10
0.0
 20
1.0
 30
0.0
  9
$PUCSORTHOREF
  2

  9
$PUCSORTHOVIEW
 70
     0
  9
$PUCSORGTOP
 10
0.0
 20
0.0
 30
0.0
  9
$PUCSORGBOTTOM
 10
0.0
 20
0.0
 30
0.0
  9
$PUCSORGLEFT
 10
0.0
 20
0.0
 30
0.0
  9
$PUCSORGRIGHT
 10
0.0
 20
0.0
 30
0.0
  9
$PUCSORGFRONT
 10
0.0
 20
0.0
 30
0.0
  9
$PUCSORGBACK
 10
0.0
 20
0.0
 30
0.0
  9
$USERI1
 70
     0
  9
$USERI2
 70
     0
  9
$USERI3
 70
     0
  9
$USERI4
 70
     0
  9
$USERI5
 70
     0
  9
$USERR1
 40
0.0
  9
$USERR2
 40
0.0
  9
$USERR3
 40
0.0
  9
$USERR4
 40
0.0
  9
$USERR5
 40
0.0
  9
$WORLDVIEW
 70
     1
  9
$SHADEDGE
 70
     3
  9
$SHADEDIF
 70
    70
  9
$TILEMODE
 70
     1
  9
$MAXACTVP
 70
    64
  9
$PINSBASE
 10
0.0
 20
0.0
 30
0.0
  9
$PLIMCHECK
 70
     0
  9
$PEXTMIN
 10
1.000000000000000E+20
 20
1.000000000000000E+20
 30
1.000000000000000E+20
  9
$PEXTMAX
 10
-1.000000000000000E+20
 20
-1.000000000000000E+20
 30
-1.000000000000000E+20
  9
$PLIMMIN
 10
0.0
 20
0.0
  9
$PLIMMAX
 10
12.0
 20
9.0
  9
$UNITMODE
 70
     0
  9
$VISRETAIN
 70
     1
  9
$PLINEGEN
 70
     0
  9
$PSLTSCALE
 70
     1
  9
$TREEDEPTH
 70
  3020
  9
$CMLSTYLE
  2
Standard
  9
$CMLJUST
 70
     0
  9
$CMLSCALE
 40
1.0
  9
$PROXYGRAPHICS
 70
     1
  9
$MEASUREMENT
 70
     0
  9
$CELWEIGHT
370
    -1
  9
$ENDCAPS
280
     0
  9
$JOINSTYLE
280
     0
  9
$LWDISPLAY
290
     1
  9
$INSUNITS
 70
     4
  9
$HYPERLINKBASE
  1

  9
$STYLESHEET
  1

  9
$XEDIT
290
     1
  9
$CEPSNTYPE
380
     0
  9
$PSTYLEMODE
290
     1
  9
$FINGERPRINTGUID
  2
{6F2AE98A-4DB1-3543-BEF8-413664E88968}
  9
$VERSIONGUID
  2
{824D14EF-A306-164E-B0D8-704DD4AAB273}
  9
$EXTNAMES
290
     1
  9
$PSVPSCALE
 40
0.0
  9
$OLESTARTUP
290
     0
  9
$SORTENTS
280
   127
  9
$INDEXCTL
280
     0
  9
$HIDETEXT
280
     1
  9
$XCLIPFRAME
280
     2
  9
$HALOGAP
280
     0
  9
$OBSCOLOR
 70
   257
  9
$OBSLTYPE
280
     0
  9
$INTERSECTIONDISPLAY
280
     0
  9
$INTERSECTIONCOLOR
 70
   257
  9
$DIMASSOC
280
     2
  9
$PROJECTNAME
  1

  9
$CAMERADISPLAY
290
     0
  9
$LENSLENGTH
 40
50.0
  9
$CAMERAHEIGHT
 40
0.0
  9
$STEPSPERSEC
 40
2.0
  9
$STEPSIZE
 40
6.0
  9
$3DDWFPREC
 40
2.0
  9
$PSOLWIDTH
 40
0.25
  9
$PSOLHEIGHT
 40
4.0
  9
$LOFTANG1
 40
1.570796326794896
  9
$LOFTANG2
 40
1.570796326794896
  9
$LOFTMAG1
 40
0.0
  9
$LOFTMAG2
 40
0.0
  9
$LOFTPARAM
 70
     7
  9
$LOFTNORMALS
280
     1
  9
$LATITUDE
 40
37.795
  9
$LONGITUDE
 40
-122.394
  9
$NORTHDIRECTION
 40
0.0
  9
$TIMEZONE
 70
 -8000
  9
$LIGHTGLYPHDISPLAY
280
     1
  9
$TILEMODELIGHTSYNCH
280
     1
  9
$CMATERIAL
347
11
  9
$SOLIDHIST
280
     0
  9
$SHOWHIST
280
     1
  9
$DWFFRAME
280
     2
  9
$DGNFRAME
280
     0
  9
$REALWORLDSCALE
290
     1
  9
$INTERFERECOLOR
 62
     1
  9
$INTERFEREOBJVS
345
33
  9
$INTERFEREVPVS
346
30
  9
$CSHADOW
280
     0
  9
$SHADOWPLANELOCATION
 40
0.0
  0
ENDSEC
  0
SECTION
  2
CLASSES
  0
CLASS
  1
ACDBDICTIONARYWDFLT
  2
AcDbDictionaryWithDefault
  3
ObjectDBX Classes
 90
        0
 91
        1
280
     0
281
     0
  0
CLASS
  1
MATERIAL
  2
AcDbMaterial
  3
ObjectDBX Classes
 90
     1153
 91
        3
280
     0
281
     0
  0
CLASS
  1
VISUALSTYLE
  2
AcDbVisualStyle
  3
ObjectDBX Classes
 90
     4095
 91
       24
280
     0
281
     0
  0
CLASS
  1
SCALE
  2
AcDbScale
  3
ObjectDBX Classes
 90
     1153
 91
       17
280
     0
281
     0
  0
CLASS
  1
TABLESTYLE
  2
AcDbTableStyle
  3
ObjectDBX Classes
 90
     4095
 91
        1
280
     0
281
     0
  0
CLASS
  1
MLEADERSTYLE
  2
AcDbMLeaderStyle
  3
ACDB_MLEADERSTYLE_CLASS
 90
     4095
 91
        1
280
     0
281
     0
  0
CLASS
  1
ACDBSECTIONVIEWSTYLE
  2
AcDbSectionViewStyle
  3
ObjectDBX Classes
 90
     1025
 91
        1
280
     0
281
     0
  0
CLASS
  1
ACDBDETAILVIEWSTYLE
  2
AcDbDetailViewStyle
  3
ObjectDBX Classes
 90
     1025
 91
        1
280
     0
281
     0
  0
CLASS
  1
DICTIONARYVAR
  2
AcDbDictionaryVar
  3
ObjectDBX Classes
 90
        0
 91
        5
280
     0
281
     0
  0
CLASS
  1
CELLSTYLEMAP
  2
AcDbCellStyleMap
  3
ObjectDBX Classes
 90
     1152
 91
        1
280
     0
281
     0
  0
ENDSEC
  0
SECTION
  2
TABLES
  0
TABLE
  2
VPORT
  5
8
330
0
100
AcDbSymbolTable
 70
     1
  0
VPORT
  5
57
330
8
100
AcDbSymbolTableRecord
100
AcDbViewportTableRecord
  2
*Active
 70
     0
 10
0.0
 20
0.0
 11
1.0
 21
1.0
 12
0.0
 22
0.0
 13
0.0
 23
0.0
 14
1.0
 24
1.0
 15
0.0
 25
0.0
 16
0.0
 26
0.0
 36
1.0
 17
104.9999999737534
 27
-148.4999999628701
 37
0.0
 40
302.939999924255
 41
0.7070707070707534
 42
50.0
 43
0.0
 44
0.0
 50
0.0
 51
0.0
 71
     0
 72
   100
 73
     1
 74
     0
 75
     1
 76
     0
 77
     0
 78
     0
281
     0
 65
     1
110
0.0
120
0.0
130
0.0
111
1.0
121
0.0
131
0.0
112
0.0
122
1.0
132
0.0
 79
     0
146
0.0
 60
     3
 61
     5
292
     1
282
     1
141
0.0
142
0.0
 63
   250
421
  3355443
  0
ENDTAB
  0
TABLE
  2
LTYPE
  5
5
330
0
100
AcDbSymbolTable
 70
     2
  0
LTYPE
  5
5B
330
5
100
AcDbSymbolTableRecord
100
AcDbLinetypeTableRecord
  2
ByBlock
 70
     0
  3

 72
    65
 73
     0
 40
0.0
  0
LTYPE
  5
5C
330
5
100
AcDbSymbolTableRecord
100
AcDbLinetypeTableRecord
  2
ByLayer
 70
     0
  3

 72
    65
 73
     0
 40
0.0
  0
LTYPE
  5
5D
330
5
100
AcDbSymbolTableRecord
100
AcDbLinetypeTableRecord
  2
Continuous
 70
     0
  3
Solid line
 72
    65
 73
     0
 40
0.0
  0
LTYPE
  5
E2
330
5
100
AcDbSymbolTableRecord
100
AcDbLinetypeTableRecord
  2
AI-Linetype-0
 70
     0
  3
Adobe Illustrator Linetype No. 0
 72
    65
 73
     2
 40
1.411111110758333
 49
0.7055555553791667
 74
     0
 49
-0.7055555553791667
 74
     0
  0
ENDTAB
  0
TABLE
  2
LAYER
  5
2
330
0
100
AcDbSymbolTable
 70
     2
  0
LAYER
  5
54
330
2
100
AcDbSymbolTableRecord
100
AcDbLayerTableRecord
  2
0
 70
     0
 62
     7
  6
Continuous
370
    -3
390
F
347
21
  0
LAYER
  5
78
330
2
100
AcDbSymbolTableRecord
100
AcDbLayerTableRecord
  2
レイヤー 1
 70
     0
 62
     7
  6
Continuous
370
     0
390
F
347
21
  0
ENDTAB
  0
TABLE
  2
STYLE
  5
3
330
0
100
AcDbSymbolTable
 70
     2
  0
STYLE
  5
55
330
3
100
AcDbSymbolTableRecord
100
AcDbTextStyleTableRecord
  2
Standard
 70
     0
 40
0.0
 41
1.0
 50
0.0
 71
     0
 42
0.2
  3
txt
  4

  0
STYLE
  5
5A
330
3
100
AcDbSymbolTableRecord
100
AcDbTextStyleTableRecord
  2
Annotative
 70
     0
 40
0.0
 41
1.0
 50
0.0
 71
     0
 42
0.2
  3
txt
  4

1001
AcadAnnotative
1000
AnnotativeData
1002
{
1070
     1
1070
     1
1002
}
  0
ENDTAB
  0
TABLE
  2
VIEW
  5
6
330
0
100
AcDbSymbolTable
 70
     0
  0
ENDTAB
  0
TABLE
  2
UCS
  5
7
330
0
100
AcDbSymbolTable
 70
     0
  0
ENDTAB
  0
TABLE
  2
APPID
  5
9
330
0
100
AcDbSymbolTable
 70
     2
  0
APPID
  5
56
330
9
100
AcDbSymbolTableRecord
100
AcDbRegAppTableRecord
  2
ACAD
 70
     0
  0
APPID
  5
5E
330
9
100
AcDbSymbolTableRecord
100
AcDbRegAppTableRecord
  2
AcadAnnotative
 70
     0
  0
ENDTAB
  0
TABLE
  2
DIMSTYLE
  5
A
330
0
100
AcDbSymbolTable
 70
     2
100
AcDbDimStyleTable
 71
     0
  0
DIMSTYLE
105
58
330
A
100
AcDbSymbolTableRecord
100
AcDbDimStyleTableRecord
  2
Standard
 70
     0
340
55
  0
DIMSTYLE
105
59
330
A
100
AcDbSymbolTableRecord
100
AcDbDimStyleTableRecord
  2
Annotative
 70
     0
340
55
1001
AcadAnnotative
1000
AnnotativeData
1002
{
1070
     1
1070
     1
1002
}
  0
ENDTAB
  0
TABLE
  2
BLOCK_RECORD
  5
1
330
0
100
AcDbSymbolTable
 70
    15
  0
BLOCK_RECORD
  5
70
330
1
100
AcDbSymbolTableRecord
100
AcDbBlockTableRecord
  2
*Model_Space
340
73
 70
     0
280
     1
281
     0
  0
BLOCK_RECORD
  5
6C
330
1
100
AcDbSymbolTableRecord
100
AcDbBlockTableRecord
  2
*Paper_Space
340
6F
 70
     0
280
     1
281
     0
  0
BLOCK_RECORD
  5
74
330
1
100
AcDbSymbolTableRecord
100
AcDbBlockTableRecord
  2
*Paper_Space0
340
77
 70
     0
280
     1
281
     0
  0
BLOCK_RECORD
  5
79
330
1
100
AcDbSymbolTableRecord
100
AcDbBlockTableRecord
  2
Block_0
340
0
102
{BLKREFS
331
7A
102
}
 70
     0
280
     1
281
     0
  0
BLOCK_RECORD
  5
7D
330
1
100
AcDbSymbolTableRecord
100
AcDbBlockTableRecord
  2
Block_1
340
0
102
{BLKREFS
331
7E
102
}
 70
     0
280
     1
281
     0
  0
BLOCK_RECORD
  5
94
330
1
100
AcDbSymbolTableRecord
100
AcDbBlockTableRecord
  2
Block_2
340
0
102
{BLKREFS
331
95
102
}
 70
     0
280
     1
281
     0
  0
BLOCK_RECORD
  5
9D
330
1
100
AcDbSymbolTableRecord
100
AcDbBlockTableRecord
  2
Block_3
340
0
102
{BLKREFS
331
9E
102
}
 70
     0
280
     1
281
     0
  0
BLOCK_RECORD
  5
A1
330
1
100
AcDbSymbolTableRecord
100
AcDbBlockTableRecord
  2
Block_4
340
0
102
{BLKREFS
331
A2
102
}
 70
     0
280
     1
281
     0
  0
BLOCK_RECORD
  5
AB
330
1
100
AcDbSymbolTableRecord
100
AcDbBlockTableRecord
  2
Block_5
340
0
102
{BLKREFS
331
AC
102
}
 70
     0
280
     1
281
     0
  0
BLOCK_RECORD
  5
AF
330
1
100
AcDbSymbolTableRecord
100
AcDbBlockTableRecord
  2
Block_6
340
0
102
{BLKREFS
331
B0
102
}
 70
     0
280
     1
281
     0
  0
BLOCK_RECORD
  5
BE
330
1
100
AcDbSymbolTableRecord
100
AcDbBlockTableRecord
  2
Block_7
340
0
102
{BLKREFS
331
BF
102
}
 70
     0
280
     1
281
     0
  0
BLOCK_RECORD
  5
C2
330
1
100
AcDbSymbolTableRecord
100
AcDbBlockTableRecord
  2
Block_8
340
0
102
{BLKREFS
331
C3
102
}
 70
     0
280
     1
281
     0
  0
BLOCK_RECORD
  5
D2
330
1
100
AcDbSymbolTableRecord
100
AcDbBlockTableRecord
  2
Block_9
340
0
102
{BLKREFS
331
D3
102
}
 70
     0
280
     1
281
     0
  0
BLOCK_RECORD
  5
D6
330
1
100
AcDbSymbolTableRecord
100
AcDbBlockTableRecord
  2
Block_10
340
0
102
{BLKREFS
331
D7
102
}
 70
     0
280
     1
281
     0
  0
BLOCK_RECORD
  5
E3
330
1
100
AcDbSymbolTableRecord
100
AcDbBlockTableRecord
  2
Block_11
340
0
102
{BLKREFS
331
E4
102
}
 70
     0
280
     1
281
     0
  0
BLOCK_RECORD
  5
EA
330
1
100
AcDbSymbolTableRecord
100
AcDbBlockTableRecord
  2
Block_12
340
0
102
{BLKREFS
331
EB
102
}
 70
     0
280
     1
281
     0
  0
BLOCK_RECORD
  5
EE
330
1
100
AcDbSymbolTableRecord
100
AcDbBlockTableRecord
  2
Block_13
340
0
102
{BLKREFS
331
EF
102
}
 70
     0
280
     1
281
     0
  0
ENDTAB
  0
ENDSEC
  0
SECTION
  2
BLOCKS
  0
BLOCK
  5
71
330
70
100
AcDbEntity
  8
0
100
AcDbBlockBegin
  2
*Model_Space
 70
     0
 10
0.0
 20
0.0
 30
0.0
  3
*Model_Space
  1

  0
ENDBLK
  5
72
330
70
100
AcDbEntity
  8
0
100
AcDbBlockEnd
  0
BLOCK
  5
6D
330
6C
100
AcDbEntity
 67
     1
  8
0
100
AcDbBlockBegin
  2
*Paper_Space
 70
     0
 10
0.0
 20
0.0
 30
0.0
  3
*Paper_Space
  1

  0
ENDBLK
  5
6E
330
6C
100
AcDbEntity
 67
     1
  8
0
100
AcDbBlockEnd
  0
BLOCK
  5
75
330
74
100
AcDbEntity
 67
     1
  8
0
100
AcDbBlockBegin
  2
*Paper_Space0
 70
     0
 10
0.0
 20
0.0
 30
0.0
  3
*Paper_Space0
  1

  0
ENDBLK
  5
76
330
74
100
AcDbEntity
 67
     1
  8
0
100
AcDbBlockEnd
  0
BLOCK
  5
7B
330
79
100
AcDbEntity
  8
0
100
AcDbBlockBegin
  2
Block_0
 70
     0
 10
0.0
 20
0.0
 30
0.0
  3
Block_0
  1

  0
INSERT
  5
7E
330
79
100
AcDbEntity
  8
レイヤー 1
100
AcDbBlockReference
  2
Block_1
 10
0.0
 20
0.0
 30
0.0
  0
ENDBLK
  5
7C
330
79
100
AcDbEntity
  8
0
100
AcDbBlockEnd
  0
BLOCK
  5
7F
330
7D
100
AcDbEntity
  8
0
100
AcDbBlockBegin
  2
Block_1
 70
     0
 10
0.0
 20
0.0
 30
0.0
  3
Block_1
  1

  0
LINE
  5
81
330
7D
100
AcDbEntity
  8
レイヤー 1
 62
   250
420
  2299925
370
    25
100
AcDbLine
 10
92.72754714250927
 20
-143.2572011094385
 30
0.0
 11
97.72755464125941
 21
-143.2572011094385
 31
0.0
  0
LINE
  5
82
330
7D
100
AcDbEntity
  8
レイヤー 1
 62
   250
420
  2299925
370
    25
100
AcDbLine
 10
96.72755832215928
 20
-144.2569733194
 30
0.0
 11
96.72755832215928
 21
-153.7570301073686
 31
0.0
  0
LINE
  5
83
330
7D
100
AcDbEntity
  8
レイヤー 1
 62
   250
420
  2299925
370
    25
100
AcDbLine
 10
92.72754714250927
 20
-144.2569733061544
 30
0.0
 11
96.72755825262061
 21
-144.2569733061544
 31
0.0
  0
LINE
  5
84
330
7D
100
AcDbEntity
  8
レイヤー 1
 62
   250
420
  2299925
370
    25
100
AcDbLine
 10
92.72754714250927
 20
-143.2572011094385
 30
0.0
 11
92.72754714250927
 21
-144.2569733061544
 31
0.0
  0
LINE
  5
85
330
7D
100
AcDbEntity
  8
レイヤー 1
 62
   250
420
  2299925
370
    25
100
AcDbLine
 10
97.72755470591349
 20
-143.2572011226841
 30
0.0
 11
97.72755470591349
 21
-152.7573512465102
 31
0.0
  0
LINE
  5
86
330
7D
100
AcDbEntity
  8
レイヤー 1
 62
   250
420
  2299925
370
    25
100
AcDbLine
 10
113.7275303914526
 20
-152.7573512465102
 30
0.0
 11
113.7275303914526
 21
-153.1573306807503
 31
0.0
  0
LINE
  5
87
330
7D
100
AcDbEntity
  8
レイヤー 1
 62
   250
420
  2299925
370
    25
100
AcDbLine
 10
97.72755471079809
 20
-152.7573512465102
 30
0.0
 11
113.7275303914526
 21
-152.7573512465102
 31
0.0
  0
LINE
  5
88
330
7D
100
AcDbEntity
  8
レイヤー 1
 62
   250
420
  2299925
370
    25
100
AcDbLine
 10
113.7275303914526
 20
-153.1573306807503
 30
0.0
 11
96.72755832215928
 21
-153.7570301073686
 31
0.0
  0
SPLINE
  5
89
330
7D
100
AcDbEntity
  8
レイヤー 1
 62
   250
420
  2299925
370
     9
100
AcDbSpline
210
0.0
220
0.0
230
1.0
 70
    11
 71
     3
 72
    17
 73
    13
 74
     0
 42
0.0000000001
 43
0.0000000001
 40
0.0
 40
0.0
 40
0.0
 40
0.0
 40
1.0
 40
1.0
 40
1.0
 40
2.0
 40
2.0
 40
2.0
 40
3.0
 40
3.0
 40
3.0
 40
4.0
 40
4.0
 40
4.0
 40
4.0
 10
117.8279027613286
 20
-143.2572011094385
 30
0.0
 10
117.8279027613286
 20
-143.201920833071
 30
0.0
 10
117.7830999835619
 20
-143.1571180564363
 30
0.0
 10
117.7272894560769
 20
-143.1571180564363
 30
0.0
 10
117.6721855685945
 20
-143.1571180564363
 30
0.0
 10
117.6273827919591
 20
-143.201920833071
 30
0.0
 10
117.6273827919591
 20
-143.2572011094385
 30
0.0
 10
117.6273827919591
 20
-143.312481385806
 30
0.0
 10
117.6721855685945
 20
-143.3572841624407
 30
0.0
 10
117.7272894560769
 20
-143.3572841624407
 30
0.0
 10
117.7830999835619
 20
-143.3572841624407
 30
0.0
 10
117.8279027613286
 20
-143.312481385806
 30
0.0
 10
117.8279027613286
 20
-143.2572011094385
 30
0.0
  0
SPLINE
  5
8A
330
7D
100
AcDbEntity
  8
レイヤー 1
 62
   250
420
  2299925
370
     9
100
AcDbSpline
210
0.0
220
0.0
230
1.0
 70
     9
 71
     3
 72
    17
 73
    13
 74
     0
 42
0.0000000001
 43
0.0000000001
 40
0.0
 40
0.0
 40
0.0
 40
0.0
 40
1.0
 40
1.0
 40
1.0
 40
2.0
 40
2.0
 40
2.0
 40
3.0
 40
3.0
 40
3.0
 40
4.0
 40
4.0
 40
4.0
 40
4.0
 10
117.8279027613286
 20
-152.7573512465102
 30
0.0
 10
117.8279027613286
 20
-152.7018945812583
 30
0.0
 10
117.7830999835619
 20
-152.6570918046236
 30
0.0
 10
117.7272894560769
 20
-152.6570918046236
 30
0.0
 10
117.6721855685945
 20
-152.6570918046236
 30
0.0
 10
117.6273827919591
 20
-152.7018945812583
 30
0.0
 10
117.6273827919591
 20
-152.7573512465102
 30
0.0
 10
117.6273827919591
 20
-152.8124551339932
 30
0.0
 10
117.6721855685945
 20
-152.857257910628
 30
0.0
 10
117.7272894560769
 20
-152.857257910628
 30
0.0
 10
117.7830999835619
 20
-152.857257910628
 30
0.0
 10
117.8279027613286
 20
-152.8124551339932
 30
0.0
 10
117.8279027613286
 20
-152.7573512465102
 30
0.0
  0
SPLINE
  5
8B
330
7D
100
AcDbEntity
  8
レイヤー 1
 62
   250
420
  2299925
370
     9
100
AcDbSpline
210
0.0
220
0.0
230
1.0
 70
     9
 71
     3
 72
    17
 73
    13
 74
     0
 42
0.0000000001
 43
0.0000000001
 40
0.0
 40
0.0
 40
0.0
 40
0.0
 40
1.0
 40
1.0
 40
1.0
 40
2.0
 40
2.0
 40
2.0
 40
3.0
 40
3.0
 40
3.0
 40
4.0
 40
4.0
 40
4.0
 40
4.0
 10
117.8279027613286
 20
-153.1573306807503
 30
0.0
 10
117.8279027613286
 20
-153.1018740154985
 30
0.0
 10
117.7830999835619
 20
-153.0570712388637
 30
0.0
 10
117.7272894560769
 20
-153.0570712388637
 30
0.0
 10
117.6721855685945
 20
-153.0570712388637
 30
0.0
 10
117.6273827919591
 20
-153.1018740154985
 30
0.0
 10
117.6273827919591
 20
-153.1573306807503
 30
0.0
 10
117.6273827919591
 20
-153.2124345682334
 30
0.0
 10
117.6721855685945
 20
-153.2572373448681
 30
0.0
 10
117.7272894560769
 20
-153.2572373448681
 30
0.0
 10
117.7830999835619
 20
-153.2572373448681
 30
0.0
 10
117.8279027613286
 20
-153.2124345682334
 30
0.0
 10
117.8279027613286
 20
-153.1573306807503
 30
0.0
  0
CIRCLE
  5
8C
330
7D
100
AcDbEntity
  8
レイヤー 1
 62
   250
420
  2299925
370
     9
100
AcDbCircle
 10
113.7275303914526
 20
-157.8569655608526
 30
0.0
 40
0.0999066641178353
  0
SPLINE
  5
8D
330
7D
100
AcDbEntity
  8
レイヤー 1
 62
   250
420
  2299925
370
     9
100
AcDbSpline
210
0.0
220
0.0
230
1.0
 70
     9
 71
     3
 72
    17
 73
    13
 74
     0
 42
0.0000000001
 43
0.0000000001
 40
0.0
 40
0.0
 40
0.0
 40
0.0
 40
1.0
 40
1.0
 40
1.0
 40
2.0
 40
2.0
 40
2.0
 40
3.0
 40
3.0
 40
3.0
 40
4.0
 40
4.0
 40
4.0
 40
4.0
 10
92.82763019803979
 20
-157.8569655608526
 30
0.0
 10
92.82763019803979
 20
-157.8018204049221
 30
0.0
 10
92.78282742027307
 20
-157.7570588967348
 30
0.0
 10
92.72754714250927
 20
-157.7570588967348
 30
0.0
 10
92.67226686474549
 20
-157.7570588967348
 30
0.0
 10
92.62764047586763
 20
-157.8018204049221
 30
0.0
 10
92.62764047586763
 20
-157.8569655608526
 30
0.0
 10
92.62764047586763
 20
-157.9120694483357
 30
0.0
 10
92.67226686474549
 20
-157.9568722249705
 30
0.0
 10
92.72754714250927
 20
-157.9568722249705
 30
0.0
 10
92.78282742027307
 20
-157.9568722249705
 30
0.0
 10
92.82763019803979
 20
-157.9120694483357
 30
0.0
 10
92.82763019803979
 20
-157.8569655608526
 30
0.0
  0
SPLINE
  5
8E
330
7D
100
AcDbEntity
  8
レイヤー 1
 62
   250
420
  2299925
370
     9
100
AcDbSpline
210
0.0
220
0.0
230
1.0
 70
    11
 71
     3
 72
    17
 73
    13
 74
     0
 42
0.0000000001
 43
0.0000000001
 40
0.0
 40
0.0
 40
0.0
 40
0.0
 40
1.0
 40
1.0
 40
1.0
 40
2.0
 40
2.0
 40
2.0
 40
3.0
 40
3.0
 40
3.0
 40
4.0
 40
4.0
 40
4.0
 40
4.0
 10
90.77777964299677
 20
-143.2572011094385
 30
0.0
 10
90.77777964299677
 20
-143.201920833071
 30
0.0
 10
90.73301214300789
 20
-143.1571180564363
 30
0.0
 10
90.67787297635515
 20
-143.1571180564363
 30
0.0
 10
90.62259269859071
 20
-143.1571180564363
 30
0.0
 10
90.57782519860181
 20
-143.201920833071
 30
0.0
 10
90.57782519860181
 20
-143.2572011094385
 30
0.0
 10
90.57782519860181
 20
-143.312481385806
 30
0.0
 10
90.62259269859071
 20
-143.3572841624407
 30
0.0
 10
90.67787297635515
 20
-143.3572841624407
 30
0.0
 10
90.73301214300789
 20
-143.3572841624407
 30
0.0
 10
90.77777964299677
 20
-143.312481385806
 30
0.0
 10
90.77777964299677
 20
-143.2572011094385
 30
0.0
  0
SPLINE
  5
8F
330
7D
100
AcDbEntity
  8
レイヤー 1
 62
   250
420
  2299925
370
     9
100
AcDbSpline
210
0.0
220
0.0
230
1.0
 70
     9
 71
     3
 72
    17
 73
    13
 74
     0
 42
0.0000000001
 43
0.0000000001
 40
0.0
 40
0.0
 40
0.0
 40
0.0
 40
1.0
 40
1.0
 40
1.0
 40
2.0
 40
2.0
 40
2.0
 40
3.0
 40
3.0
 40
3.0
 40
4.0
 40
4.0
 40
4.0
 40
4.0
 10
90.77777964299677
 20
-144.2569733061544
 30
0.0
 10
90.77777964299677
 20
-144.2018341408944
 30
0.0
 10
90.73301214300789
 20
-144.1570666420369
 30
0.0
 10
90.67787297635515
 20
-144.1570666420369
 30
0.0
 10
90.62259269859071
 20
-144.1570666420369
 30
0.0
 10
90.57782519860181
 20
-144.2018341408944
 30
0.0
 10
90.57782519860181
 20
-144.2569733061544
 30
0.0
 10
90.57782519860181
 20
-144.3124299714063
 30
0.0
 10
90.62259269859071
 20
-144.357232748041
 30
0.0
 10
90.67787297635515
 20
-144.357232748041
 30
0.0
 10
90.73301214300789
 20
-144.357232748041
 30
0.0
 10
90.77777964299677
 20
-144.3124299714063
 30
0.0
 10
90.77777964299677
 20
-144.2569733061544
 30
0.0
  0
SPLINE
  5
90
330
7D
100
AcDbEntity
  8
レイヤー 1
 62
   250
420
  2299925
370
     9
100
AcDbSpline
210
0.0
220
0.0
230
1.0
 70
     9
 71
     3
 72
    17
 73
    13
 74
     0
 42
0.0000000001
 43
0.0000000001
 40
0.0
 40
0.0
 40
0.0
 40
0.0
 40
1.0
 40
1.0
 40
1.0
 40
2.0
 40
2.0
 40
2.0
 40
3.0
 40
3.0
 40
3.0
 40
4.0
 40
4.0
 40
4.0
 40
4.0
 10
96.82760609991197
 20
-157.8569655608526
 30
0.0
 10
96.82760609991197
 20
-157.8018204049221
 30
0.0
 10
96.78283859992308
 20
-157.7570588967348
 30
0.0
 10
96.72755832215928
 20
-157.7570588967348
 30
0.0
 10
96.6724191555059
 20
-157.7570588967348
 30
0.0
 10
96.62765165551766
 20
-157.8018204049221
 30
0.0
 10
96.62765165551766
 20
-157.8569655608526
 30
0.0
 10
96.62765165551766
 20
-157.9120694483357
 30
0.0
 10
96.6724191555059
 20
-157.9568722249705
 30
0.0
 10
96.72755832215928
 20
-157.9568722249705
 30
0.0
 10
96.78283859992308
 20
-157.9568722249705
 30
0.0
 10
96.82760609991197
 20
-157.9120694483357
 30
0.0
 10
96.82760609991197
 20
-157.8569655608526
 30
0.0
  0
LINE
  5
91
330
7D
100
AcDbEntity
  8
レイヤー 1
 62
   250
420
  2299925
370
     9
100
AcDbLine
 10
92.72772353139815
 20
-157.8569655608526
 30
0.0
 11
96.72755825262061
 21
-157.8569655608526
 31
0.0
  0
LINE
  5
92
330
7D
100
AcDbEntity
  8
レイヤー 1
 62
   250
420
  2299925
370
     9
100
AcDbLine
 10
92.72754714250927
 20
-146.8971268631555
 30
0.0
 11
92.72754714250927
 21
-158.8574080353292
 31
0.0
  0
LINE
  5
93
330
7D
100
AcDbEntity
  8
レイヤー 1
 62
   250
420
  2299925
370
     9
100
AcDbLine
 10
96.72755832215928
 20
-156.3969242092125
 30
0.0
 11
96.72755832215928
 21
-158.8574080353292
 31
0.0
  0
INSERT
  5
95
330
7D
100
AcDbEntity
  8
レイヤー 1
100
AcDbBlockReference
  2
Block_2
 10
0.0
 20
0.0
 30
0.0
  0
LINE
  5
9B
330
7D
100
AcDbEntity
  8
レイヤー 1
 62
   250
420
  2299925
370
     9
100
AcDbLine
 10
96.72755832215928
 20
-157.8569655608526
 30
0.0
 11
113.7275303914526
 21
-157.8569655608526
 31
0.0
  0
LINE
  5
9C
330
7D
100
AcDbEntity
  8
レイヤー 1
 62
   250
420
  2299925
370
     9
100
AcDbLine
 10
113.7275303914526
 20
-155.6968720048501
 30
0.0
 11
113.7275303914526
 21
-158.8574080353292
 31
0.0
  0
INSERT
  5
9E
330
7D
100
AcDbEntity
  8
レイヤー 1
100
AcDbBlockReference
  2
Block_3
 10
0.0
 20
0.0
 30
0.0
  0
LINE
  5
A9
330
7D
100
AcDbEntity
  8
レイヤー 1
 62
   250
420
  2299925
370
     9
100
AcDbLine
 10
117.7272894560769
 20
-152.7573512465102
 30
0.0
 11
117.7272894560769
 21
-143.2572011226841
 31
0.0
  0
LINE
  5
AA
330
7D
100
AcDbEntity
  8
レイヤー 1
 62
   250
420
  2299925
370
     9
100
AcDbLine
 10
100.3676252656936
 20
-143.2572011094385
 30
0.0
 11
118.7277319305535
 21
-143.2572011094385
 31
0.0
  0
INSERT
  5
AC
330
7D
100
AcDbEntity
  8
レイヤー 1
100
AcDbBlockReference
  2
Block_5
 10
0.0
 20
0.0
 30
0.0
  0
LINE
  5
BA
330
7D
100
AcDbEntity
  8
レイヤー 1
 62
   250
420
  2299925
370
     9
100
AcDbLine
 10
117.7272894560769
 20
-153.1573306807503
 30
0.0
 11
117.7272894560769
 21
-154.1571028774662
 31
0.0
  0
LINE
  5
BB
330
7D
100
AcDbEntity
  8
レイヤー 1
 62
   250
420
  2299925
370
     9
100
AcDbLine
 10
117.7272894560769
 20
-152.7573512465102
 30
0.0
 11
117.7272894560769
 21
-153.1573306807503
 31
0.0
  0
LINE
  5
BC
330
7D
100
AcDbEntity
  8
レイヤー 1
 62
   250
420
  2299925
370
     9
100
AcDbLine
 10
116.2672481044368
 20
-152.7573512465102
 30
0.0
 11
118.7277319305535
 21
-152.7573512465102
 31
0.0
  0
LINE
  5
BD
330
7D
100
AcDbEntity
  8
レイヤー 1
 62
   250
420
  2299925
370
     9
100
AcDbLine
 10
116.2672481044368
 20
-153.1573306807503
 30
0.0
 11
118.7277319305535
 21
-153.1573306807503
 31
0.0
  0
INSERT
  5
BF
330
7D
100
AcDbEntity
  8
レイヤー 1
100
AcDbBlockReference
  2
Block_7
 10
0.0
 20
0.0
 30
0.0
  0
LINE
  5
CE
330
7D
100
AcDbEntity
  8
レイヤー 1
 62
   250
420
  2299925
370
     9
100
AcDbLine
 10
90.67787297635515
 20
-143.2572011094385
 30
0.0
 11
90.67787297635515
 21
-142.2572525238382
 31
0.0
  0
LINE
  5
CF
330
7D
100
AcDbEntity
  8
レイヤー 1
 62
   250
420
  2299925
370
     9
100
AcDbLine
 10
90.67787297635515
 20
-143.2572011094385
 30
0.0
 11
90.67787297635515
 21
-145.2570630028619
 31
0.0
  0
LINE
  5
D0
330
7D
100
AcDbEntity
  8
レイヤー 1
 62
   250
420
  2299925
370
     9
100
AcDbLine
 10
92.1377379759903
 20
-143.2572011094385
 30
0.0
 11
89.67778325438267
 21
-143.2572011094385
 31
0.0
  0
LINE
  5
D1
330
7D
100
AcDbEntity
  8
レイヤー 1
 62
   250
420
  2299925
370
     9
100
AcDbLine
 10
92.1377379759903
 20
-144.2569733061544
 30
0.0
 11
89.67778325438267
 21
-144.2569733061544
 31
0.0
  0
INSERT
  5
D3
330
7D
100
AcDbEntity
  8
レイヤー 1
100
AcDbBlockReference
  2
Block_9
 10
0.0
 20
0.0
 30
0.0
  0
ENDBLK
  5
80
330
7D
100
AcDbEntity
  8
0
100
AcDbBlockEnd
  0
BLOCK
  5
96
330
94
100
AcDbEntity
  8
0
100
AcDbBlockBegin
  2
Block_2
 70
     0
 10
0.0
 20
0.0
 30
0.0
  3
Block_2
  1

  0
SPLINE
  5
98
330
94
100
AcDbEntity
  8
レイヤー 1
100
AcDbSpline
210
0.0
220
0.0
230
1.0
 70
    11
 71
     3
 72
    14
 73
    10
 74
     0
 42
0.0000000001
 43
0.0000000001
 40
0.0
 40
0.0
 40
0.0
 40
0.0
 40
1.0
 40
1.0
 40
1.0
 40
2.0
 40
2.0
 40
2.0
 40
3.0
 40
3.0
 40
3.0
 40
3.0
 10
94.80558265859029
 20
-156.0094265017963
 30
0.0
 10
94.80558265859029
 20
-156.0094265017963
 30
0.0
 10
94.41594235920851
 20
-156.6653726821878
 30
0.0
 10
94.41594235920851
 20
-156.6653726821878
 30
0.0
 10
94.41594235920851
 20
-156.6653726821878
 30
0.0
 10
94.80558265859029
 20
-156.6653726821878
 30
0.0
 10
94.80558265859029
 20
-156.6653726821878
 30
0.0
 10
94.80558265859029
 20
-156.6653726821878
 30
0.0
 10
94.80558265859029
 20
-156.0094265017963
 30
0.0
 10
94.80558265859029
 20
-156.0094265017963
 30
0.0
  0
SPLINE
  5
99
330
94
100
AcDbEntity
  8
レイヤー 1
100
AcDbSpline
210
0.0
220
0.0
230
1.0
 70
    11
 71
     3
 72
    38
 73
    34
 74
     0
 42
0.0000000001
 43
0.0000000001
 40
0.0
 40
0.0
 40
0.0
 40
0.0
 40
1.0
 40
1.0
 40
1.0
 40
2.0
 40
2.0
 40
2.0
 40
3.0
 40
3.0
 40
3.0
 40
4.0
 40
4.0
 40
4.0
 40
5.0
 40
5.0
 40
5.0
 40
6.0
 40
6.0
 40
6.0
 40
7.0
 40
7.0
 40
7.0
 40
8.0
 40
8.0
 40
8.0
 40
9.0
 40
9.0
 40
9.0
 40
10.0
 40
10.0
 40
10.0
 40
11.0
 40
11.0
 40
11.0
 40
11.0
 10
94.99127330524524
 20
-156.8641546916867
 30
0.0
 10
94.99127330524524
 20
-156.8641546916867
 30
0.0
 10
94.99127330524524
 20
-157.2110758070514
 30
0.0
 10
94.99127330524524
 20
-157.2110758070514
 30
0.0
 10
94.99127330524524
 20
-157.2110758070514
 30
0.0
 10
94.80558265859029
 20
-157.2110758070514
 30
0.0
 10
94.80558265859029
 20
-157.2110758070514
 30
0.0
 10
94.80558265859029
 20
-157.2110758070514
 30
0.0
 10
94.80558265859029
 20
-156.8641546916867
 30
0.0
 10
94.80558265859029
 20
-156.8641546916867
 30
0.0
 10
94.80558265859029
 20
-156.8641546916867
 30
0.0
 10
94.24644366133422
 20
-156.8641546916867
 30
0.0
 10
94.24644366133422
 20
-156.8641546916867
 30
0.0
 10
94.24644366133422
 20
-156.8641546916867
 30
0.0
 10
94.24644366133422
 20
-156.639878975597
 30
0.0
 10
94.24644366133422
 20
-156.639878975597
 30
0.0
 10
94.24644366133422
 20
-156.639878975597
 30
0.0
 10
94.82539195763045
 20
-155.6666395010139
 30
0.0
 10
94.82539195763045
 20
-155.6666395010139
 30
0.0
 10
94.82539195763045
 20
-155.6666395010139
 30
0.0
 10
94.99127330524524
 20
-155.6666395010139
 30
0.0
 10
94.99127330524524
 20
-155.6666395010139
 30
0.0
 10
94.99127330524524
 20
-155.6666395010139
 30
0.0
 10
94.99127330524524
 20
-156.6653726821878
 30
0.0
 10
94.99127330524524
 20
-156.6653726821878
 30
0.0
 10
94.99127330524524
 20
-156.6653726821878
 30
0.0
 10
95.1678344488643
 20
-156.6653726821878
 30
0.0
 10
95.1678344488643
 20
-156.6653726821878
 30
0.0
 10
95.1678344488643
 20
-156.6653726821878
 30
0.0
 10
95.1678344488643
 20
-156.8641546916867
 30
0.0
 10
95.1678344488643
 20
-156.8641546916867
 30
0.0
 10
95.1678344488643
 20
-156.8641546916867
 30
0.0
 10
94.99127330524524
 20
-156.8641546916867
 30
0.0
 10
94.99127330524524
 20
-156.8641546916867
 30
0.0
  0
HATCH
  5
9A
330
94
100
AcDbEntity
  8
レイヤー 1
 62
   250
420
  2299925
440
 33554687
100
AcDbHatch
 10
0.0
 20
0.0
 30
0.0
210
0.0
220
0.0
230
1.0
  2
SOLID
 70
     1
 71
     1
 91
        2
 92
        1
 93
        1
 72
     4
 94
        3
 73
     0
 74
     0
 95
       14
 96
       10
 40
0.0
 40
0.0
 40
0.0
 40
0.0
 40
1.0
 40
1.0
 40
1.0
 40
2.0
 40
2.0
 40
2.0
 40
3.0
 40
3.0
 40
3.0
 40
3.0
 10
94.80558265859029
 20
-156.0094265017963
 10
94.80558265859029
 20
-156.0094265017963
 10
94.41594235920851
 20
-156.6653726821878
 10
94.41594235920851
 20
-156.6653726821878
 10
94.41594235920851
 20
-156.6653726821878
 10
94.80558265859029
 20
-156.6653726821878
 10
94.80558265859029
 20
-156.6653726821878
 10
94.80558265859029
 20
-156.6653726821878
 10
94.80558265859029
 20
-156.0094265017963
 10
94.80558265859029
 20
-156.0094265017963
 97
        0
 97
        1
330
98
 92
        1
 93
        1
 72
     4
 94
        3
 73
     0
 74
     0
 95
       38
 96
       34
 40
0.0
 40
0.0
 40
0.0
 40
0.0
 40
1.0
 40
1.0
 40
1.0
 40
2.0
 40
2.0
 40
2.0
 40
3.0
 40
3.0
 40
3.0
 40
4.0
 40
4.0
 40
4.0
 40
5.0
 40
5.0
 40
5.0
 40
6.0
 40
6.0
 40
6.0
 40
7.0
 40
7.0
 40
7.0
 40
8.0
 40
8.0
 40
8.0
 40
9.0
 40
9.0
 40
9.0
 40
10.0
 40
10.0
 40
10.0
 40
11.0
 40
11.0
 40
11.0
 40
11.0
 10
94.99127330524524
 20
-156.8641546916867
 10
94.99127330524524
 20
-156.8641546916867
 10
94.99127330524524
 20
-157.2110758070514
 10
94.99127330524524
 20
-157.2110758070514
 10
94.99127330524524
 20
-157.2110758070514
 10
94.80558265859029
 20
-157.2110758070514
 10
94.80558265859029
 20
-157.2110758070514
 10
94.80558265859029
 20
-157.2110758070514
 10
94.80558265859029
 20
-156.8641546916867
 10
94.80558265859029
 20
-156.8641546916867
 10
94.80558265859029
 20
-156.8641546916867
 10
94.24644366133422
 20
-156.8641546916867
 10
94.24644366133422
 20
-156.8641546916867
 10
94.24644366133422
 20
-156.8641546916867
 10
94.24644366133422
 20
-156.639878975597
 10
94.24644366133422
 20
-156.639878975597
 10
94.24644366133422
 20
-156.639878975597
 10
94.82539195763045
 20
-155.6666395010139
 10
94.82539195763045
 20
-155.6666395010139
 10
94.82539195763045
 20
-155.6666395010139
 10
94.99127330524524
 20
-155.6666395010139
 10
94.99127330524524
 20
-155.6666395010139
 10
94.99127330524524
 20
-155.6666395010139
 10
94.99127330524524
 20
-156.6653726821878
 10
94.99127330524524
 20
-156.6653726821878
 10
94.99127330524524
 20
-156.6653726821878
 10
95.1678344488643
 20
-156.6653726821878
 10
95.1678344488643
 20
-156.6653726821878
 10
95.1678344488643
 20
-156.6653726821878
 10
95.1678344488643
 20
-156.8641546916867
 10
95.1678344488643
 20
-156.8641546916867
 10
95.1678344488643
 20
-156.8641546916867
 10
94.99127330524524
 20
-156.8641546916867
 10
94.99127330524524
 20
-156.8641546916867
 97
        0
 97
        1
330
99
 75
     2
 76
     1
 98
        1
 10
0.0
 20
0.0
450
        0
451
        0
460
0.0
461
0.0
452
        0
462
0.0
453
        0
470

  0
ENDBLK
  5
97
330
94
100
AcDbEntity
  8
0
100
AcDbBlockEnd
  0
BLOCK
  5
9F
330
9D
100
AcDbEntity
  8
0
100
AcDbBlockBegin
  2
Block_3
 70
     0
 10
0.0
 20
0.0
 30
0.0
  3
Block_3
  1

  0
INSERT
  5
A2
330
9D
100
AcDbEntity
  8
レイヤー 1
100
AcDbBlockReference
  2
Block_4
 10
0.0
 20
0.0
 30
0.0
  0
ENDBLK
  5
A0
330
9D
100
AcDbEntity
  8
0
100
AcDbBlockEnd
  0
BLOCK
  5
A3
330
A1
100
AcDbEntity
  8
0
100
AcDbBlockBegin
  2
Block_4
 70
     0
 10
0.0
 20
0.0
 30
0.0
  3
Block_4
  1

  0
SPLINE
  5
A5
330
A1
100
AcDbEntity
  8
レイヤー 1
100
AcDbSpline
210
0.0
220
0.0
230
1.0
 70
    11
 71
     3
 72
    26
 73
    22
 74
     0
 42
0.0000000001
 43
0.0000000001
 40
0.0
 40
0.0
 40
0.0
 40
0.0
 40
1.0
 40
1.0
 40
1.0
 40
2.0
 40
2.0
 40
2.0
 40
3.0
 40
3.0
 40
3.0
 40
4.0
 40
4.0
 40
4.0
 40
5.0
 40
5.0
 40
5.0
 40
6.0
 40
6.0
 40
6.0
 40
7.0
 40
7.0
 40
7.0
 40
7.0
 10
104.6857720007382
 20
-157.2114203165999
 30
0.0
 10
104.6857720007382
 20
-157.2114203165999
 30
0.0
 10
104.6857720007382
 20
-156.1072672135773
 30
0.0
 10
104.6857720007382
 20
-156.1072672135773
 30
0.0
 10
104.6857720007382
 20
-156.1072672135773
 30
0.0
 10
104.4043076995933
 20
-156.1072672135773
 30
0.0
 10
104.4043076995933
 20
-156.1072672135773
 30
0.0
 10
104.4043076995933
 20
-156.1072672135773
 30
0.0
 10
104.4043076995933
 20
-155.9591281077116
 30
0.0
 10
104.4043076995933
 20
-155.9591281077116
 30
0.0
 10
104.6874945484809
 20
-155.944314197125
 30
0.0
 10
104.7271131465613
 20
-155.7813611806727
 30
0.0
 10
104.7522623436036
 20
-155.6669840105624
 30
0.0
 10
104.7522623436036
 20
-155.6669840105624
 30
0.0
 10
104.8769748001696
 20
-155.6669840105624
 30
0.0
 10
104.8769748001696
 20
-155.6669840105624
 30
0.0
 10
104.8769748001696
 20
-155.6669840105624
 30
0.0
 10
104.8769748001696
 20
-157.2114203165999
 30
0.0
 10
104.8769748001696
 20
-157.2114203165999
 30
0.0
 10
104.8769748001696
 20
-157.2114203165999
 30
0.0
 10
104.6857720007382
 20
-157.2114203165999
 30
0.0
 10
104.6857720007382
 20
-157.2114203165999
 30
0.0
  0
HATCH
  5
A6
330
A1
100
AcDbEntity
  8
レイヤー 1
 62
   250
420
  2299925
440
 33554687
100
AcDbHatch
 10
0.0
 20
0.0
 30
0.0
210
0.0
220
0.0
230
1.0
  2
SOLID
 70
     1
 71
     1
 91
        1
 92
        1
 93
        1
 72
     4
 94
        3
 73
     0
 74
     0
 95
       26
 96
       22
 40
0.0
 40
0.0
 40
0.0
 40
0.0
 40
1.0
 40
1.0
 40
1.0
 40
2.0
 40
2.0
 40
2.0
 40
3.0
 40
3.0
 40
3.0
 40
4.0
 40
4.0
 40
4.0
 40
5.0
 40
5.0
 40
5.0
 40
6.0
 40
6.0
 40
6.0
 40
7.0
 40
7.0
 40
7.0
 40
7.0
 10
104.6857720007382
 20
-157.2114203165999
 10
104.6857720007382
 20
-157.2114203165999
 10
104.6857720007382
 20
-156.1072672135773
 10
104.6857720007382
 20
-156.1072672135773
 10
104.6857720007382
 20
-156.1072672135773
 10
104.4043076995933
 20
-156.1072672135773
 10
104.4043076995933
 20
-156.1072672135773
 10
104.4043076995933
 20
-156.1072672135773
 10
104.4043076995933
 20
-155.9591281077116
 10
104.4043076995933
 20
-155.9591281077116
 10
104.6874945484809
 20
-155.944314197125
 10
104.7271131465613
 20
-155.7813611806727
 10
104.7522623436036
 20
-155.6669840105624
 10
104.7522623436036
 20
-155.6669840105624
 10
104.8769748001696
 20
-155.6669840105624
 10
104.8769748001696
 20
-155.6669840105624
 10
104.8769748001696
 20
-155.6669840105624
 10
104.8769748001696
 20
-157.2114203165999
 10
104.8769748001696
 20
-157.2114203165999
 10
104.8769748001696
 20
-157.2114203165999
 10
104.6857720007382
 20
-157.2114203165999
 10
104.6857720007382
 20
-157.2114203165999
 97
        0
 97
        1
330
A5
 75
     2
 76
     1
 98
        1
 10
0.0
 20
0.0
450
        0
451
        0
460
0.0
461
0.0
452
        0
462
0.0
453
        0
470

  0
SPLINE
  5
A7
330
A1
100
AcDbEntity
  8
レイヤー 1
100
AcDbSpline
210
0.0
220
0.0
230
1.0
 70
     9
 71
     3
 72
    26
 73
    22
 74
     0
 42
0.0000000001
 43
0.0000000001
 40
0.0
 40
0.0
 40
0.0
 40
0.0
 40
1.0
 40
1.0
 40
1.0
 40
2.0
 40
2.0
 40
2.0
 40
3.0
 40
3.0
 40
3.0
 40
4.0
 40
4.0
 40
4.0
 40
5.0
 40
5.0
 40
5.0
 40
6.0
 40
6.0
 40
6.0
 40
7.0
 40
7.0
 40
7.0
 40
7.0
 10
105.6531548129964
 20
-157.2114203165999
 30
0.0
 10
105.6531548129964
 20
-157.2114203165999
 30
0.0
 10
105.4512722175608
 20
-157.2114203165999
 30
0.0
 10
105.4512722175608
 20
-157.2114203165999
 30
0.0
 10
105.4729763191178
 20
-156.902395251573
 30
0.0
 10
105.6369628642157
 20
-156.3842528905914
 30
0.0
 10
105.9831949604834
 20
-155.8785128733567
 30
0.0
 10
105.9831949604834
 20
-155.8785128733567
 30
0.0
 10
105.2690266663911
 20
-155.8785128733567
 30
0.0
 10
105.2690266663911
 20
-155.8785128733567
 30
0.0
 10
105.2690266663911
 20
-155.8785128733567
 30
0.0
 10
105.2690266663911
 20
-155.6669840105624
 30
0.0
 10
105.2690266663911
 20
-155.6669840105624
 30
0.0
 10
105.2690266663911
 20
-155.6669840105624
 30
0.0
 10
106.185077555919
 20
-155.6669840105624
 30
0.0
 10
106.185077555919
 20
-155.6669840105624
 30
0.0
 10
106.185077555919
 20
-155.6669840105624
 30
0.0
 10
106.185077555919
 20
-155.8785128733567
 30
0.0
 10
106.185077555919
 20
-155.8785128733567
 30
0.0
 10
105.909469917099
 20
-156.1685899132148
 30
0.0
 10
105.6820936150725
 20
-156.7608018271292
 30
0.0
 10
105.6531548129964
 20
-157.2114203165999
 30
0.0
  0
HATCH
  5
A8
330
A1
100
AcDbEntity
  8
レイヤー 1
 62
   250
420
  2299925
440
 33554687
100
AcDbHatch
 10
0.0
 20
0.0
 30
0.0
210
0.0
220
0.0
230
1.0
  2
SOLID
 70
     1
 71
     1
 91
        1
 92
        1
 93
        1
 72
     4
 94
        3
 73
     0
 74
     0
 95
       26
 96
       22
 40
0.0
 40
0.0
 40
0.0
 40
0.0
 40
1.0
 40
1.0
 40
1.0
 40
2.0
 40
2.0
 40
2.0
 40
3.0
 40
3.0
 40
3.0
 40
4.0
 40
4.0
 40
4.0
 40
5.0
 40
5.0
 40
5.0
 40
6.0
 40
6.0
 40
6.0
 40
7.0
 40
7.0
 40
7.0
 40
7.0
 10
105.6531548129964
 20
-157.2114203165999
 10
105.6531548129964
 20
-157.2114203165999
 10
105.4512722175608
 20
-157.2114203165999
 10
105.4512722175608
 20
-157.2114203165999
 10
105.4729763191178
 20
-156.902395251573
 10
105.6369628642157
 20
-156.3842528905914
 10
105.9831949604834
 20
-155.8785128733567
 10
105.9831949604834
 20
-155.8785128733567
 10
105.2690266663911
 20
-155.8785128733567
 10
105.2690266663911
 20
-155.8785128733567
 10
105.2690266663911
 20
-155.8785128733567
 10
105.2690266663911
 20
-155.6669840105624
 10
105.2690266663911
 20
-155.6669840105624
 10
105.2690266663911
 20
-155.6669840105624
 10
106.185077555919
 20
-155.6669840105624
 10
106.185077555919
 20
-155.6669840105624
 10
106.185077555919
 20
-155.6669840105624
 10
106.185077555919
 20
-155.8785128733567
 10
106.185077555919
 20
-155.8785128733567
 10
105.909469917099
 20
-156.1685899132148
 10
105.6820936150725
 20
-156.7608018271292
 10
105.6531548129964
 20
-157.2114203165999
 97
        0
 97
        1
330
A7
 75
     2
 76
     1
 98
        1
 10
0.0
 20
0.0
450
        0
451
        0
460
0.0
461
0.0
452
        0
462
0.0
453
        0
470

  0
ENDBLK
  5
A4
330
A1
100
AcDbEntity
  8
0
100
AcDbBlockEnd
  0
BLOCK
  5
AD
330
AB
100
AcDbEntity
  8
0
100
AcDbBlockBegin
  2
Block_5
 70
     0
 10
0.0
 20
0.0
 30
0.0
  3
Block_5
  1

  0
INSERT
  5
B0
330
AB
100
AcDbEntity
  8
レイヤー 1
100
AcDbBlockReference
  2
Block_6
 10
0.0
 20
0.0
 30
0.0
  0
ENDBLK
  5
AE
330
AB
100
AcDbEntity
  8
0
100
AcDbBlockEnd
  0
BLOCK
  5
B1
330
AF
100
AcDbEntity
  8
0
100
AcDbBlockBegin
  2
Block_6
 70
     0
 10
0.0
 20
0.0
 30
0.0
  3
Block_6
  1

  0
SPLINE
  5
B3
330
AF
100
AcDbEntity
  8
レイヤー 1
100
AcDbSpline
210
0.0
220
0.0
230
1.0
 70
     9
 71
     3
 72
    17
 73
    13
 74
     0
 42
0.0000000001
 43
0.0000000001
 40
0.0
 40
0.0
 40
0.0
 40
0.0
 40
1.0
 40
1.0
 40
1.0
 40
2.0
 40
2.0
 40
2.0
 40
3.0
 40
3.0
 40
3.0
 40
4.0
 40
4.0
 40
4.0
 40
4.0
 10
115.6811387514616
 20
-148.7430311043073
 30
0.0
 10
115.6811387514616
 20
-148.8439724020251
 30
0.0
 10
115.7383273365168
 20
-148.9938340556335
 30
0.0
 10
116.023925752244
 20
-148.9938340556335
 30
0.0
 10
116.2502685256249
 20
-148.9938340556335
 30
0.0
 10
116.3453531610178
 20
-148.8746337518438
 30
0.0
 10
116.3453531610178
 20
-148.7592230530879
 30
0.0
 10
116.3453531610178
 20
-148.5356363560953
 30
0.0
 10
116.1358913555146
 20
-148.5032524585339
 30
0.0
 10
116.0194471281132
 20
-148.5032524585339
 30
0.0
 10
115.844091767914
 20
-148.5032524585339
 30
0.0
 10
115.6811387514616
 20
-148.5842122024373
 30
0.0
 10
115.6811387514616
 20
-148.7430311043073
 30
0.0
  0
SPLINE
  5
B4
330
AF
100
AcDbEntity
  8
レイヤー 1
100
AcDbSpline
210
0.0
220
0.0
230
1.0
 70
     9
 71
     3
 72
    32
 73
    28
 74
     0
 42
0.0000000001
 43
0.0000000001
 40
0.0
 40
0.0
 40
0.0
 40
0.0
 40
1.0
 40
1.0
 40
1.0
 40
2.0
 40
2.0
 40
2.0
 40
3.0
 40
3.0
 40
3.0
 40
4.0
 40
4.0
 40
4.0
 40
5.0
 40
5.0
 40
5.0
 40
6.0
 40
6.0
 40
6.0
 40
7.0
 40
7.0
 40
7.0
 40
8.0
 40
8.0
 40
8.0
 40
9.0
 40
9.0
 40
9.0
 40
9.0
 10
117.1322129698489
 20
-148.7774820591598
 30
0.0
 10
117.1322129698489
 20
-148.925276655477
 30
0.0
 10
117.0626220410468
 20
-149.1343939514317
 30
0.0
 10
116.7305148362687
 20
-149.166777848993
 30
0.0
 10
116.7305148362687
 20
-149.166777848993
 30
0.0
 10
116.7305148362687
 20
-148.9845322978233
 30
0.0
 10
116.7305148362687
 20
-148.9845322978233
 30
0.0
 10
116.789770478615
 20
-148.9755750495616
 30
0.0
 10
116.9375650749323
 20
-148.9487033047767
 30
0.0
 10
116.9375650749323
 20
-148.7754150018686
 30
0.0
 10
116.9375650749323
 20
-148.5266791078336
 30
0.0
 10
116.6078694369938
 20
-148.4942952102722
 30
0.0
 10
116.402541746073
 20
-148.4832709047194
 30
0.0
 10
116.4828124708793
 20
-148.5607855531376
 30
0.0
 10
116.5400010559344
 20
-148.6186631572897
 30
0.0
 10
116.5400010559344
 20
-148.773692454126
 30
0.0
 10
116.5400010559344
 20
-148.9269992032196
 30
0.0
 10
116.4342366245373
 20
-149.1850368550648
 30
0.0
 10
116.0280598668263
 20
-149.1850368550648
 30
0.0
 10
115.7086995153436
 20
-149.1850368550648
 30
0.0
 10
115.4885579138362
 20
-149.015193647642
 30
0.0
 10
115.4885579138362
 20
-148.7447536520499
 30
0.0
 10
115.4885579138362
 20
-148.3065375063261
 30
0.0
 10
116.0428737774129
 20
-148.2975802580645
 30
0.0
 10
116.2564696974984
 20
-148.2975802580645
 30
0.0
 10
116.4869465854616
 20
-148.2975802580645
 30
0.0
 10
117.1322129698489
 20
-148.3137722068452
 30
0.0
 10
117.1322129698489
 20
-148.7774820591598
 30
0.0
  0
HATCH
  5
B5
330
AF
100
AcDbEntity
  8
レイヤー 1
 62
   250
420
  2299925
440
 33554687
100
AcDbHatch
 10
0.0
 20
0.0
 30
0.0
210
0.0
220
0.0
230
1.0
  2
SOLID
 70
     1
 71
     1
 91
        2
 92
        1
 93
        1
 72
     4
 94
        3
 73
     0
 74
     0
 95
       17
 96
       13
 40
0.0
 40
0.0
 40
0.0
 40
0.0
 40
1.0
 40
1.0
 40
1.0
 40
2.0
 40
2.0
 40
2.0
 40
3.0
 40
3.0
 40
3.0
 40
4.0
 40
4.0
 40
4.0
 40
4.0
 10
115.6811387514616
 20
-148.7430311043073
 10
115.6811387514616
 20
-148.8439724020251
 10
115.7383273365168
 20
-148.9938340556335
 10
116.023925752244
 20
-148.9938340556335
 10
116.2502685256249
 20
-148.9938340556335
 10
116.3453531610178
 20
-148.8746337518438
 10
116.3453531610178
 20
-148.7592230530879
 10
116.3453531610178
 20
-148.5356363560953
 10
116.1358913555146
 20
-148.5032524585339
 10
116.0194471281132
 20
-148.5032524585339
 10
115.844091767914
 20
-148.5032524585339
 10
115.6811387514616
 20
-148.5842122024373
 10
115.6811387514616
 20
-148.7430311043073
 97
        0
 97
        1
330
B3
 92
        1
 93
        1
 72
     4
 94
        3
 73
     0
 74
     0
 95
       32
 96
       28
 40
0.0
 40
0.0
 40
0.0
 40
0.0
 40
1.0
 40
1.0
 40
1.0
 40
2.0
 40
2.0
 40
2.0
 40
3.0
 40
3.0
 40
3.0
 40
4.0
 40
4.0
 40
4.0
 40
5.0
 40
5.0
 40
5.0
 40
6.0
 40
6.0
 40
6.0
 40
7.0
 40
7.0
 40
7.0
 40
8.0
 40
8.0
 40
8.0
 40
9.0
 40
9.0
 40
9.0
 40
9.0
 10
117.1322129698489
 20
-148.7774820591598
 10
117.1322129698489
 20
-148.925276655477
 10
117.0626220410468
 20
-149.1343939514317
 10
116.7305148362687
 20
-149.166777848993
 10
116.7305148362687
 20
-149.166777848993
 10
116.7305148362687
 20
-148.9845322978233
 10
116.7305148362687
 20
-148.9845322978233
 10
116.789770478615
 20
-148.9755750495616
 10
116.9375650749323
 20
-148.9487033047767
 10
116.9375650749323
 20
-148.7754150018686
 10
116.9375650749323
 20
-148.5266791078336
 10
116.6078694369938
 20
-148.4942952102722
 10
116.402541746073
 20
-148.4832709047194
 10
116.4828124708793
 20
-148.5607855531376
 10
116.5400010559344
 20
-148.6186631572897
 10
116.5400010559344
 20
-148.773692454126
 10
116.5400010559344
 20
-148.9269992032196
 10
116.4342366245373
 20
-149.1850368550648
 10
116.0280598668263
 20
-149.1850368550648
 10
115.7086995153436
 20
-149.1850368550648
 10
115.4885579138362
 20
-149.015193647642
 10
115.4885579138362
 20
-148.7447536520499
 10
115.4885579138362
 20
-148.3065375063261
 10
116.0428737774129
 20
-148.2975802580645
 10
116.2564696974984
 20
-148.2975802580645
 10
116.4869465854616
 20
-148.2975802580645
 10
117.1322129698489
 20
-148.3137722068452
 10
117.1322129698489
 20
-148.7774820591598
 97
        0
 97
        1
330
B4
 75
     2
 76
     1
 98
        1
 10
0.0
 20
0.0
450
        0
451
        0
460
0.0
461
0.0
452
        0
462
0.0
453
        0
470

  0
SPLINE
  5
B6
330
AF
100
AcDbEntity
  8
レイヤー 1
100
AcDbSpline
210
0.0
220
0.0
230
1.0
 70
    11
 71
     3
 72
    17
 73
    13
 74
     0
 42
0.0000000001
 43
0.0000000001
 40
0.0
 40
0.0
 40
0.0
 40
0.0
 40
1.0
 40
1.0
 40
1.0
 40
2.0
 40
2.0
 40
2.0
 40
3.0
 40
3.0
 40
3.0
 40
4.0
 40
4.0
 40
4.0
 40
4.0
 10
117.0815700662157
 20
-148.1146456877977
 30
0.0
 10
117.0815700662157
 20
-148.1146456877977
 30
0.0
 10
116.8297335862439
 20
-148.1146456877977
 30
0.0
 10
116.8297335862439
 20
-148.1146456877977
 30
0.0
 10
116.8297335862439
 20
-148.1146456877977
 30
0.0
 10
116.8297335862439
 20
-147.9000162390667
 30
0.0
 10
116.8297335862439
 20
-147.9000162390667
 30
0.0
 10
116.8297335862439
 20
-147.9000162390667
 30
0.0
 10
117.0815700662157
 20
-147.9000162390667
 30
0.0
 10
117.0815700662157
 20
-147.9000162390667
 30
0.0
 10
117.0815700662157
 20
-147.9000162390667
 30
0.0
 10
117.0815700662157
 20
-148.1146456877977
 30
0.0
 10
117.0815700662157
 20
-148.1146456877977
 30
0.0
  0
HATCH
  5
B7
330
AF
100
AcDbEntity
  8
レイヤー 1
 62
   250
420
  2299925
440
 33554687
100
AcDbHatch
 10
0.0
 20
0.0
 30
0.0
210
0.0
220
0.0
230
1.0
  2
SOLID
 70
     1
 71
     1
 91
        1
 92
        1
 93
        1
 72
     4
 94
        3
 73
     0
 74
     0
 95
       17
 96
       13
 40
0.0
 40
0.0
 40
0.0
 40
0.0
 40
1.0
 40
1.0
 40
1.0
 40
2.0
 40
2.0
 40
2.0
 40
3.0
 40
3.0
 40
3.0
 40
4.0
 40
4.0
 40
4.0
 40
4.0
 10
117.0815700662157
 20
-148.1146456877977
 10
117.0815700662157
 20
-148.1146456877977
 10
116.8297335862439
 20
-148.1146456877977
 10
116.8297335862439
 20
-148.1146456877977
 10
116.8297335862439
 20
-148.1146456877977
 10
116.8297335862439
 20
-147.9000162390667
 10
116.8297335862439
 20
-147.9000162390667
 10
116.8297335862439
 20
-147.9000162390667
 10
117.0815700662157
 20
-147.9000162390667
 10
117.0815700662157
 20
-147.9000162390667
 10
117.0815700662157
 20
-147.9000162390667
 10
117.0815700662157
 20
-148.1146456877977
 10
117.0815700662157
 20
-148.1146456877977
 97
        0
 97
        1
330
B6
 75
     2
 76
     1
 98
        1
 10
0.0
 20
0.0
450
        0
451
        0
460
0.0
461
0.0
452
        0
462
0.0
453
        0
470

  0
SPLINE
  5
B8
330
AF
100
AcDbEntity
  8
レイヤー 1
100
AcDbSpline
210
0.0
220
0.0
230
1.0
 70
     9
 71
     3
 72
    53
 73
    49
 74
     0
 42
0.0000000001
 43
0.0000000001
 40
0.0
 40
0.0
 40
0.0
 40
0.0
 40
1.0
 40
1.0
 40
1.0
 40
2.0
 40
2.0
 40
2.0
 40
3.0
 40
3.0
 40
3.0
 40
4.0
 40
4.0
 40
4.0
 40
5.0
 40
5.0
 40
5.0
 40
6.0
 40
6.0
 40
6.0
 40
7.0
 40
7.0
 40
7.0
 40
8.0
 40
8.0
 40
8.0
 40
9.0
 40
9.0
 40
9.0
 40
10.0
 40
10.0
 40
10.0
 40
11.0
 40
11.0
 40
11.0
 40
12.0
 40
12.0
 40
12.0
 40
13.0
 40
13.0
 40
13.0
 40
14.0
 40
14.0
 40
14.0
 40
15.0
 40
15.0
 40
15.0
 40
16.0
 40
16.0
 40
16.0
 40
16.0
 10
117.1322129698489
 20
-147.2888562999833
 30
0.0
 10
117.1322129698489
 20
-147.3556911523972
 30
0.0
 10
117.1153320019711
 20
-147.4421630490769
 30
0.0
 10
117.0519422450426
 20
-147.5286349457567
 30
0.0
 10
116.9420436990631
 20
-147.6764295420739
 30
0.0
 10
116.8107855610751
 20
-147.6946885481458
 30
0.0
 10
116.7029540723867
 20
-147.7108804969264
 30
0.0
 10
116.7029540723867
 20
-147.7108804969264
 30
0.0
 10
116.7029540723867
 20
-147.5214002452377
 30
0.0
 10
116.7029540723867
 20
-147.5214002452377
 30
0.0
 10
116.9017360818857
 20
-147.4745469466383
 30
0.0
 10
116.9313639030588
 20
-147.3663709484014
 30
0.0
 10
116.9313639030588
 20
-147.2871337522407
 30
0.0
 10
116.9313639030588
 20
-147.167933448451
 30
0.0
 10
116.8318006435351
 20
-147.0380533486572
 30
0.0
 10
116.5992566982807
 20
-147.0380533486572
 30
0.0
 10
116.3432861037267
 20
-147.0380533486572
 30
0.0
 10
116.2733506653761
 20
-147.1913600977508
 30
0.0
 10
116.2733506653761
 20
-147.2943684527597
 30
0.0
 10
116.2733506653761
 20
-147.3212401975447
 30
0.0
 10
116.2733506653761
 20
-147.4421630490769
 30
0.0
 10
116.402541746073
 20
-147.5179551497524
 30
0.0
 10
116.402541746073
 20
-147.5179551497524
 30
0.0
 10
116.3835937209041
 20
-147.6674722938123
 30
0.0
 10
116.3835937209041
 20
-147.6674722938123
 30
0.0
 10
116.3835937209041
 20
-147.6674722938123
 30
0.0
 10
115.5371337601782
 20
-147.5648084483518
 30
0.0
 10
115.5371337601782
 20
-147.5648084483518
 30
0.0
 10
115.5371337601782
 20
-147.5648084483518
 30
0.0
 10
115.5371337601782
 20
-146.9012830578927
 30
0.0
 10
115.5371337601782
 20
-146.9012830578927
 30
0.0
 10
115.5371337601782
 20
-146.9012830578927
 30
0.0
 10
115.7317816550948
 20
-146.9012830578927
 30
0.0
 10
115.7317816550948
 20
-146.9012830578927
 30
0.0
 10
115.7317816550948
 20
-146.9012830578927
 30
0.0
 10
115.7317816550948
 20
-147.4259711002963
 30
0.0
 10
115.7317816550948
 20
-147.4259711002963
 30
0.0
 10
115.7317816550948
 20
-147.4259711002963
 30
0.0
 10
116.1548393806835
 20
-147.4817816471573
 30
0.0
 10
116.1548393806835
 20
-147.4817816471573
 30
0.0
 10
116.1210774449281
 20
-147.4294161957815
 30
0.0
 10
116.0807698277506
 20
-147.3591362478824
 30
0.0
 10
116.0807698277506
 20
-147.2581949501646
 30
0.0
 10
116.0807698277506
 20
-147.0418429536909
 30
0.0
 10
116.2671494935026
 20
-146.8399603582553
 30
0.0
 10
116.5803086731118
 20
-146.8399603582553
 30
0.0
 10
116.8976019673034
 20
-146.8399603582553
 30
0.0
 10
117.1322129698489
 20
-147.0308186481381
 30
0.0
 10
117.1322129698489
 20
-147.2888562999833
 30
0.0
  0
HATCH
  5
B9
330
AF
100
AcDbEntity
  8
レイヤー 1
 62
   250
420
  2299925
440
 33554687
100
AcDbHatch
 10
0.0
 20
0.0
 30
0.0
210
0.0
220
0.0
230
1.0
  2
SOLID
 70
     1
 71
     1
 91
        1
 92
        1
 93
        1
 72
     4
 94
        3
 73
     0
 74
     0
 95
       53
 96
       49
 40
0.0
 40
0.0
 40
0.0
 40
0.0
 40
1.0
 40
1.0
 40
1.0
 40
2.0
 40
2.0
 40
2.0
 40
3.0
 40
3.0
 40
3.0
 40
4.0
 40
4.0
 40
4.0
 40
5.0
 40
5.0
 40
5.0
 40
6.0
 40
6.0
 40
6.0
 40
7.0
 40
7.0
 40
7.0
 40
8.0
 40
8.0
 40
8.0
 40
9.0
 40
9.0
 40
9.0
 40
10.0
 40
10.0
 40
10.0
 40
11.0
 40
11.0
 40
11.0
 40
12.0
 40
12.0
 40
12.0
 40
13.0
 40
13.0
 40
13.0
 40
14.0
 40
14.0
 40
14.0
 40
15.0
 40
15.0
 40
15.0
 40
16.0
 40
16.0
 40
16.0
 40
16.0
 10
117.1322129698489
 20
-147.2888562999833
 10
117.1322129698489
 20
-147.3556911523972
 10
117.1153320019711
 20
-147.4421630490769
 10
117.0519422450426
 20
-147.5286349457567
 10
116.9420436990631
 20
-147.6764295420739
 10
116.8107855610751
 20
-147.6946885481458
 10
116.7029540723867
 20
-147.7108804969264
 10
116.7029540723867
 20
-147.7108804969264
 10
116.7029540723867
 20
-147.5214002452377
 10
116.7029540723867
 20
-147.5214002452377
 10
116.9017360818857
 20
-147.4745469466383
 10
116.9313639030588
 20
-147.3663709484014
 10
116.9313639030588
 20
-147.2871337522407
 10
116.9313639030588
 20
-147.167933448451
 10
116.8318006435351
 20
-147.0380533486572
 10
116.5992566982807
 20
-147.0380533486572
 10
116.3432861037267
 20
-147.0380533486572
 10
116.2733506653761
 20
-147.1913600977508
 10
116.2733506653761
 20
-147.2943684527597
 10
116.2733506653761
 20
-147.3212401975447
 10
116.2733506653761
 20
-147.4421630490769
 10
116.402541746073
 20
-147.5179551497524
 10
116.402541746073
 20
-147.5179551497524
 10
116.3835937209041
 20
-147.6674722938123
 10
116.3835937209041
 20
-147.6674722938123
 10
116.3835937209041
 20
-147.6674722938123
 10
115.5371337601782
 20
-147.5648084483518
 10
115.5371337601782
 20
-147.5648084483518
 10
115.5371337601782
 20
-147.5648084483518
 10
115.5371337601782
 20
-146.9012830578927
 10
115.5371337601782
 20
-146.9012830578927
 10
115.5371337601782
 20
-146.9012830578927
 10
115.7317816550948
 20
-146.9012830578927
 10
115.7317816550948
 20
-146.9012830578927
 10
115.7317816550948
 20
-146.9012830578927
 10
115.7317816550948
 20
-147.4259711002963
 10
115.7317816550948
 20
-147.4259711002963
 10
115.7317816550948
 20
-147.4259711002963
 10
116.1548393806835
 20
-147.4817816471573
 10
116.1548393806835
 20
-147.4817816471573
 10
116.1210774449281
 20
-147.4294161957815
 10
116.0807698277506
 20
-147.3591362478824
 10
116.0807698277506
 20
-147.2581949501646
 10
116.0807698277506
 20
-147.0418429536909
 10
116.2671494935026
 20
-146.8399603582553
 10
116.5803086731118
 20
-146.8399603582553
 10
116.8976019673034
 20
-146.8399603582553
 10
117.1322129698489
 20
-147.0308186481381
 10
117.1322129698489
 20
-147.2888562999833
 97
        0
 97
        1
330
B8
 75
     2
 76
     1
 98
        1
 10
0.0
 20
0.0
450
        0
451
        0
460
0.0
461
0.0
452
        0
462
0.0
453
        0
470

  0
ENDBLK
  5
B2
330
AF
100
AcDbEntity
  8
0
100
AcDbBlockEnd
  0
BLOCK
  5
C0
330
BE
100
AcDbEntity
  8
0
100
AcDbBlockBegin
  2
Block_7
 70
     0
 10
0.0
 20
0.0
 30
0.0
  3
Block_7
  1

  0
INSERT
  5
C3
330
BE
100
AcDbEntity
  8
レイヤー 1
100
AcDbBlockReference
  2
Block_8
 10
0.0
 20
0.0
 30
0.0
  0
ENDBLK
  5
C1
330
BE
100
AcDbEntity
  8
0
100
AcDbBlockEnd
  0
BLOCK
  5
C4
330
C2
100
AcDbEntity
  8
0
100
AcDbBlockBegin
  2
Block_8
 70
     0
 10
0.0
 20
0.0
 30
0.0
  3
Block_8
  1

  0
SPLINE
  5
C6
330
C2
100
AcDbEntity
  8
レイヤー 1
100
AcDbSpline
210
0.0
220
0.0
230
1.0
 70
     9
 71
     3
 72
    17
 73
    13
 74
     0
 42
0.0000000001
 43
0.0000000001
 40
0.0
 40
0.0
 40
0.0
 40
0.0
 40
1.0
 40
1.0
 40
1.0
 40
2.0
 40
2.0
 40
2.0
 40
3.0
 40
3.0
 40
3.0
 40
4.0
 40
4.0
 40
4.0
 40
4.0
 10
119.9144720837366
 20
-153.8328151742154
 30
0.0
 10
119.9144720837366
 20
-154.0453775656553
 30
0.0
 10
120.1980034421727
 20
-154.0853406732842
 30
0.0
 10
120.5428575002462
 20
-154.0853406732842
 30
0.0
 10
120.8622178517289
 20
-154.0853406732842
 30
0.0
 10
121.1708984072072
 20
-154.0546793234655
 30
0.0
 10
121.1708984072072
 20
-153.8328151742154
 30
0.0
 10
121.1708984072072
 20
-153.6216308209696
 30
0.0
 10
120.8897786156109
 20
-153.5802896751466
 30
0.0
 10
120.5428575002462
 20
-153.5802896751466
 30
0.0
 10
120.223152639215
 20
-153.5802896751466
 30
0.0
 10
119.9144720837366
 20
-153.6126735727079
 30
0.0
 10
119.9144720837366
 20
-153.8328151742154
 30
0.0
  0
SPLINE
  5
C7
330
C2
100
AcDbEntity
  8
レイヤー 1
100
AcDbSpline
210
0.0
220
0.0
230
1.0
 70
     9
 71
     3
 72
    29
 73
    25
 74
     0
 42
0.0000000001
 43
0.0000000001
 40
0.0
 40
0.0
 40
0.0
 40
0.0
 40
1.0
 40
1.0
 40
1.0
 40
2.0
 40
2.0
 40
2.0
 40
3.0
 40
3.0
 40
3.0
 40
4.0
 40
4.0
 40
4.0
 40
5.0
 40
5.0
 40
5.0
 40
6.0
 40
6.0
 40
6.0
 40
7.0
 40
7.0
 40
7.0
 40
8.0
 40
8.0
 40
8.0
 40
8.0
 10
121.1371364714518
 20
-153.4938177784668
 30
0.0
 10
121.346598276955
 20
-153.585801827923
 30
0.0
 10
121.3655463021239
 20
-153.7335964242402
 30
0.0
 10
121.3655463021239
 20
-153.8328151742154
 30
0.0
 10
121.3655463021239
 20
-153.9699299745283
 30
0.0
 10
121.319037513073
 20
-154.0905083165121
 30
0.0
 10
121.1371364714518
 20
-154.171812569964
 30
0.0
 10
120.9424885765352
 20
-154.2600070143864
 30
0.0
 10
120.70546600715
 20
-154.2761989631671
 30
0.0
 10
120.5428575002462
 20
-154.2761989631671
 30
0.0
 10
120.3988525089628
 20
-154.2761989631671
 30
0.0
 10
120.147016028991
 20
-154.2620740716775
 30
0.0
 10
119.9482340194921
 20
-154.171812569964
 30
0.0
 10
119.7453178954109
 20
-154.0798285205078
 30
0.0
 10
119.7218912461112
 20
-153.9427137201949
 30
0.0
 10
119.7218912461112
 20
-153.8328151742154
 30
0.0
 10
119.7218912461112
 20
-153.6974229216451
 30
0.0
 10
119.7663329778709
 20
-153.5747775223702
 30
0.0
 10
119.9482340194921
 20
-153.4938177784668
 30
0.0
 10
120.1408148571176
 20
-153.4090684295297
 30
0.0
 10
120.3692246877896
 20
-153.3890868757152
 30
0.0
 10
120.5428575002462
 20
-153.3890868757152
 30
0.0
 10
120.7140787458631
 20
-153.3890868757152
 30
0.0
 10
120.9445556338264
 20
-153.407345881787
 30
0.0
 10
121.1371364714518
 20
-153.4938177784668
 30
0.0
  0
HATCH
  5
C8
330
C2
100
AcDbEntity
  8
レイヤー 1
 62
   250
420
  2299925
440
 33554687
100
AcDbHatch
 10
0.0
 20
0.0
 30
0.0
210
0.0
220
0.0
230
1.0
  2
SOLID
 70
     1
 71
     1
 91
        2
 92
        1
 93
        1
 72
     4
 94
        3
 73
     0
 74
     0
 95
       17
 96
       13
 40
0.0
 40
0.0
 40
0.0
 40
0.0
 40
1.0
 40
1.0
 40
1.0
 40
2.0
 40
2.0
 40
2.0
 40
3.0
 40
3.0
 40
3.0
 40
4.0
 40
4.0
 40
4.0
 40
4.0
 10
119.9144720837366
 20
-153.8328151742154
 10
119.9144720837366
 20
-154.0453775656553
 10
120.1980034421727
 20
-154.0853406732842
 10
120.5428575002462
 20
-154.0853406732842
 10
120.8622178517289
 20
-154.0853406732842
 10
121.1708984072072
 20
-154.0546793234655
 10
121.1708984072072
 20
-153.8328151742154
 10
121.1708984072072
 20
-153.6216308209696
 10
120.8897786156109
 20
-153.5802896751466
 10
120.5428575002462
 20
-153.5802896751466
 10
120.223152639215
 20
-153.5802896751466
 10
119.9144720837366
 20
-153.6126735727079
 10
119.9144720837366
 20
-153.8328151742154
 97
        0
 97
        1
330
C6
 92
        1
 93
        1
 72
     4
 94
        3
 73
     0
 74
     0
 95
       29
 96
       25
 40
0.0
 40
0.0
 40
0.0
 40
0.0
 40
1.0
 40
1.0
 40
1.0
 40
2.0
 40
2.0
 40
2.0
 40
3.0
 40
3.0
 40
3.0
 40
4.0
 40
4.0
 40
4.0
 40
5.0
 40
5.0
 40
5.0
 40
6.0
 40
6.0
 40
6.0
 40
7.0
 40
7.0
 40
7.0
 40
8.0
 40
8.0
 40
8.0
 40
8.0
 10
121.1371364714518
 20
-153.4938177784668
 10
121.346598276955
 20
-153.585801827923
 10
121.3655463021239
 20
-153.7335964242402
 10
121.3655463021239
 20
-153.8328151742154
 10
121.3655463021239
 20
-153.9699299745283
 10
121.319037513073
 20
-154.0905083165121
 10
121.1371364714518
 20
-154.171812569964
 10
120.9424885765352
 20
-154.2600070143864
 10
120.70546600715
 20
-154.2761989631671
 10
120.5428575002462
 20
-154.2761989631671
 10
120.3988525089628
 20
-154.2761989631671
 10
120.147016028991
 20
-154.2620740716775
 10
119.9482340194921
 20
-154.171812569964
 10
119.7453178954109
 20
-154.0798285205078
 10
119.7218912461112
 20
-153.9427137201949
 10
119.7218912461112
 20
-153.8328151742154
 10
119.7218912461112
 20
-153.6974229216451
 10
119.7663329778709
 20
-153.5747775223702
 10
119.9482340194921
 20
-153.4938177784668
 10
120.1408148571176
 20
-153.4090684295297
 10
120.3692246877896
 20
-153.3890868757152
 10
120.5428575002462
 20
-153.3890868757152
 10
120.7140787458631
 20
-153.3890868757152
 10
120.9445556338264
 20
-153.407345881787
 10
121.1371364714518
 20
-153.4938177784668
 97
        0
 97
        1
330
C7
 75
     2
 76
     1
 98
        1
 10
0.0
 20
0.0
450
        0
451
        0
460
0.0
461
0.0
452
        0
462
0.0
453
        0
470

  0
SPLINE
  5
C9
330
C2
100
AcDbEntity
  8
レイヤー 1
100
AcDbSpline
210
0.0
220
0.0
230
1.0
 70
    11
 71
     3
 72
    17
 73
    13
 74
     0
 42
0.0000000001
 43
0.0000000001
 40
0.0
 40
0.0
 40
0.0
 40
0.0
 40
1.0
 40
1.0
 40
1.0
 40
2.0
 40
2.0
 40
2.0
 40
3.0
 40
3.0
 40
3.0
 40
4.0
 40
4.0
 40
4.0
 40
4.0
 10
121.3149033984907
 20
-153.2061523054484
 30
0.0
 10
121.3149033984907
 20
-153.2061523054484
 30
0.0
 10
121.0630669185189
 20
-153.2061523054484
 30
0.0
 10
121.0630669185189
 20
-153.2061523054484
 30
0.0
 10
121.0630669185189
 20
-153.2061523054484
 30
0.0
 10
121.0630669185189
 20
-152.9915228567174
 30
0.0
 10
121.0630669185189
 20
-152.9915228567174
 30
0.0
 10
121.0630669185189
 20
-152.9915228567174
 30
0.0
 10
121.3149033984907
 20
-152.9915228567174
 30
0.0
 10
121.3149033984907
 20
-152.9915228567174
 30
0.0
 10
121.3149033984907
 20
-152.9915228567174
 30
0.0
 10
121.3149033984907
 20
-153.2061523054484
 30
0.0
 10
121.3149033984907
 20
-153.2061523054484
 30
0.0
  0
HATCH
  5
CA
330
C2
100
AcDbEntity
  8
レイヤー 1
 62
   250
420
  2299925
440
 33554687
100
AcDbHatch
 10
0.0
 20
0.0
 30
0.0
210
0.0
220
0.0
230
1.0
  2
SOLID
 70
     1
 71
     1
 91
        1
 92
        1
 93
        1
 72
     4
 94
        3
 73
     0
 74
     0
 95
       17
 96
       13
 40
0.0
 40
0.0
 40
0.0
 40
0.0
 40
1.0
 40
1.0
 40
1.0
 40
2.0
 40
2.0
 40
2.0
 40
3.0
 40
3.0
 40
3.0
 40
4.0
 40
4.0
 40
4.0
 40
4.0
 10
121.3149033984907
 20
-153.2061523054484
 10
121.3149033984907
 20
-153.2061523054484
 10
121.0630669185189
 20
-153.2061523054484
 10
121.0630669185189
 20
-153.2061523054484
 10
121.0630669185189
 20
-153.2061523054484
 10
121.0630669185189
 20
-152.9915228567174
 10
121.0630669185189
 20
-152.9915228567174
 10
121.0630669185189
 20
-152.9915228567174
 10
121.3149033984907
 20
-152.9915228567174
 10
121.3149033984907
 20
-152.9915228567174
 10
121.3149033984907
 20
-152.9915228567174
 10
121.3149033984907
 20
-153.2061523054484
 10
121.3149033984907
 20
-153.2061523054484
 97
        0
 97
        1
330
C9
 75
     2
 76
     1
 98
        1
 10
0.0
 20
0.0
450
        0
451
        0
460
0.0
461
0.0
452
        0
462
0.0
453
        0
470

  0
SPLINE
  5
CB
330
C2
100
AcDbEntity
  8
レイヤー 1
100
AcDbSpline
210
0.0
220
0.0
230
1.0
 70
    11
 71
     3
 72
    14
 73
    10
 74
     0
 42
0.0000000001
 43
0.0000000001
 40
0.0
 40
0.0
 40
0.0
 40
0.0
 40
1.0
 40
1.0
 40
1.0
 40
2.0
 40
2.0
 40
2.0
 40
3.0
 40
3.0
 40
3.0
 40
3.0
 10
120.1132540932356
 20
-152.2666747666208
 30
0.0
 10
120.1132540932356
 20
-152.2666747666208
 30
0.0
 10
120.7692002736271
 20
-152.6563150660026
 30
0.0
 10
120.7692002736271
 20
-152.6563150660026
 30
0.0
 10
120.7692002736271
 20
-152.6563150660026
 30
0.0
 10
120.7692002736271
 20
-152.2666747666208
 30
0.0
 10
120.7692002736271
 20
-152.2666747666208
 30
0.0
 10
120.7692002736271
 20
-152.2666747666208
 30
0.0
 10
120.1132540932356
 20
-152.2666747666208
 30
0.0
 10
120.1132540932356
 20
-152.2666747666208
 30
0.0
  0
SPLINE
  5
CC
330
C2
100
AcDbEntity
  8
レイヤー 1
100
AcDbSpline
210
0.0
220
0.0
230
1.0
 70
    11
 71
     3
 72
    38
 73
    34
 74
     0
 42
0.0000000001
 43
0.0000000001
 40
0.0
 40
0.0
 40
0.0
 40
0.0
 40
1.0
 40
1.0
 40
1.0
 40
2.0
 40
2.0
 40
2.0
 40
3.0
 40
3.0
 40
3.0
 40
4.0
 40
4.0
 40
4.0
 40
5.0
 40
5.0
 40
5.0
 40
6.0
 40
6.0
 40
6.0
 40
7.0
 40
7.0
 40
7.0
 40
8.0
 40
8.0
 40
8.0
 40
9.0
 40
9.0
 40
9.0
 40
10.0
 40
10.0
 40
10.0
 40
11.0
 40
11.0
 40
11.0
 40
11.0
 10
120.967982283126
 20
-152.0809841199659
 30
0.0
 10
120.967982283126
 20
-152.0809841199659
 30
0.0
 10
121.3149033984907
 20
-152.0809841199659
 30
0.0
 10
121.3149033984907
 20
-152.0809841199659
 30
0.0
 10
121.3149033984907
 20
-152.0809841199659
 30
0.0
 10
121.3149033984907
 20
-152.2666747666208
 30
0.0
 10
121.3149033984907
 20
-152.2666747666208
 30
0.0
 10
121.3149033984907
 20
-152.2666747666208
 30
0.0
 10
120.967982283126
 20
-152.2666747666208
 30
0.0
 10
120.967982283126
 20
-152.2666747666208
 30
0.0
 10
120.967982283126
 20
-152.2666747666208
 30
0.0
 10
120.967982283126
 20
-152.8258137638769
 30
0.0
 10
120.967982283126
 20
-152.8258137638769
 30
0.0
 10
120.967982283126
 20
-152.8258137638769
 30
0.0
 10
120.7437065670363
 20
-152.8258137638769
 30
0.0
 10
120.7437065670363
 20
-152.8258137638769
 30
0.0
 10
120.7437065670363
 20
-152.8258137638769
 30
0.0
 10
119.7704670924532
 20
-152.2470377223549
 30
0.0
 10
119.7704670924532
 20
-152.2470377223549
 30
0.0
 10
119.7704670924532
 20
-152.2470377223549
 30
0.0
 10
119.7704670924532
 20
-152.0809841199659
 30
0.0
 10
119.7704670924532
 20
-152.0809841199659
 30
0.0
 10
119.7704670924532
 20
-152.0809841199659
 30
0.0
 10
120.7692002736271
 20
-152.0809841199659
 30
0.0
 10
120.7692002736271
 20
-152.0809841199659
 30
0.0
 10
120.7692002736271
 20
-152.0809841199659
 30
0.0
 10
120.7692002736271
 20
-151.9042507215725
 30
0.0
 10
120.7692002736271
 20
-151.9042507215725
 30
0.0
 10
120.7692002736271
 20
-151.9042507215725
 30
0.0
 10
120.967982283126
 20
-151.9042507215725
 30
0.0
 10
120.967982283126
 20
-151.9042507215725
 30
0.0
 10
120.967982283126
 20
-151.9042507215725
 30
0.0
 10
120.967982283126
 20
-152.0809841199659
 30
0.0
 10
120.967982283126
 20
-152.0809841199659
 30
0.0
  0
HATCH
  5
CD
330
C2
100
AcDbEntity
  8
レイヤー 1
 62
   250
420
  2299925
440
 33554687
100
AcDbHatch
 10
0.0
 20
0.0
 30
0.0
210
0.0
220
0.0
230
1.0
  2
SOLID
 70
     1
 71
     1
 91
        2
 92
        1
 93
        1
 72
     4
 94
        3
 73
     0
 74
     0
 95
       14
 96
       10
 40
0.0
 40
0.0
 40
0.0
 40
0.0
 40
1.0
 40
1.0
 40
1.0
 40
2.0
 40
2.0
 40
2.0
 40
3.0
 40
3.0
 40
3.0
 40
3.0
 10
120.1132540932356
 20
-152.2666747666208
 10
120.1132540932356
 20
-152.2666747666208
 10
120.7692002736271
 20
-152.6563150660026
 10
120.7692002736271
 20
-152.6563150660026
 10
120.7692002736271
 20
-152.6563150660026
 10
120.7692002736271
 20
-152.2666747666208
 10
120.7692002736271
 20
-152.2666747666208
 10
120.7692002736271
 20
-152.2666747666208
 10
120.1132540932356
 20
-152.2666747666208
 10
120.1132540932356
 20
-152.2666747666208
 97
        0
 97
        1
330
CB
 92
        1
 93
        1
 72
     4
 94
        3
 73
     0
 74
     0
 95
       38
 96
       34
 40
0.0
 40
0.0
 40
0.0
 40
0.0
 40
1.0
 40
1.0
 40
1.0
 40
2.0
 40
2.0
 40
2.0
 40
3.0
 40
3.0
 40
3.0
 40
4.0
 40
4.0
 40
4.0
 40
5.0
 40
5.0
 40
5.0
 40
6.0
 40
6.0
 40
6.0
 40
7.0
 40
7.0
 40
7.0
 40
8.0
 40
8.0
 40
8.0
 40
9.0
 40
9.0
 40
9.0
 40
10.0
 40
10.0
 40
10.0
 40
11.0
 40
11.0
 40
11.0
 40
11.0
 10
120.967982283126
 20
-152.0809841199659
 10
120.967982283126
 20
-152.0809841199659
 10
121.3149033984907
 20
-152.0809841199659
 10
121.3149033984907
 20
-152.0809841199659
 10
121.3149033984907
 20
-152.0809841199659
 10
121.3149033984907
 20
-152.2666747666208
 10
121.3149033984907
 20
-152.2666747666208
 10
121.3149033984907
 20
-152.2666747666208
 10
120.967982283126
 20
-152.2666747666208
 10
120.967982283126
 20
-152.2666747666208
 10
120.967982283126
 20
-152.2666747666208
 10
120.967982283126
 20
-152.8258137638769
 10
120.967982283126
 20
-152.8258137638769
 10
120.967982283126
 20
-152.8258137638769
 10
120.7437065670363
 20
-152.8258137638769
 10
120.7437065670363
 20
-152.8258137638769
 10
120.7437065670363
 20
-152.8258137638769
 10
119.7704670924532
 20
-152.2470377223549
 10
119.7704670924532
 20
-152.2470377223549
 10
119.7704670924532
 20
-152.2470377223549
 10
119.7704670924532
 20
-152.0809841199659
 10
119.7704670924532
 20
-152.0809841199659
 10
119.7704670924532
 20
-152.0809841199659
 10
120.7692002736271
 20
-152.0809841199659
 10
120.7692002736271
 20
-152.0809841199659
 10
120.7692002736271
 20
-152.0809841199659
 10
120.7692002736271
 20
-151.9042507215725
 10
120.7692002736271
 20
-151.9042507215725
 10
120.7692002736271
 20
-151.9042507215725
 10
120.967982283126
 20
-151.9042507215725
 10
120.967982283126
 20
-151.9042507215725
 10
120.967982283126
 20
-151.9042507215725
 10
120.967982283126
 20
-152.0809841199659
 10
120.967982283126
 20
-152.0809841199659
 97
        0
 97
        1
330
CC
 75
     2
 76
     1
 98
        1
 10
0.0
 20
0.0
450
        0
451
        0
460
0.0
461
0.0
452
        0
462
0.0
453
        0
470

  0
ENDBLK
  5
C5
330
C2
100
AcDbEntity
  8
0
100
AcDbBlockEnd
  0
BLOCK
  5
D4
330
D2
100
AcDbEntity
  8
0
100
AcDbBlockBegin
  2
Block_9
 70
     0
 10
0.0
 20
0.0
 30
0.0
  3
Block_9
  1

  0
INSERT
  5
D7
330
D2
100
AcDbEntity
  8
レイヤー 1
100
AcDbBlockReference
  2
Block_10
 10
0.0
 20
0.0
 30
0.0
  0
ENDBLK
  5
D5
330
D2
100
AcDbEntity
  8
0
100
AcDbBlockEnd
  0
BLOCK
  5
D8
330
D6
100
AcDbEntity
  8
0
100
AcDbBlockBegin
  2
Block_10
 70
     0
 10
0.0
 20
0.0
 30
0.0
  3
Block_10
  1

  0
SPLINE
  5
DA
330
D6
100
AcDbEntity
  8
レイヤー 1
100
AcDbSpline
210
0.0
220
0.0
230
1.0
 70
    11
 71
     3
 72
    26
 73
    22
 74
     0
 42
0.0000000001
 43
0.0000000001
 40
0.0
 40
0.0
 40
0.0
 40
0.0
 40
1.0
 40
1.0
 40
1.0
 40
2.0
 40
2.0
 40
2.0
 40
3.0
 40
3.0
 40
3.0
 40
4.0
 40
4.0
 40
4.0
 40
5.0
 40
5.0
 40
5.0
 40
6.0
 40
6.0
 40
6.0
 40
7.0
 40
7.0
 40
7.0
 40
7.0
 10
90.03171384467957
 20
-142.7602782846224
 30
0.0
 10
90.03171384467957
 20
-142.7602782846224
 30
0.0
 10
88.92756074165701
 20
-142.7602782846224
 30
0.0
 10
88.92756074165701
 20
-142.7602782846224
 30
0.0
 10
88.92756074165701
 20
-142.7602782846224
 30
0.0
 10
88.92756074165701
 20
-143.0417425857673
 30
0.0
 10
88.92756074165701
 20
-143.0417425857673
 30
0.0
 10
88.92756074165701
 20
-143.0417425857673
 30
0.0
 10
88.77942163579126
 20
-143.0417425857673
 30
0.0
 10
88.77942163579126
 20
-143.0417425857673
 30
0.0
 10
88.76460772520468
 20
-142.7585557368798
 30
0.0
 10
88.60165470875235
 20
-142.7189371387994
 30
0.0
 10
88.48727753864208
 20
-142.6937879417571
 30
0.0
 10
88.48727753864208
 20
-142.6937879417571
 30
0.0
 10
88.48727753864208
 20
-142.569075485191
 30
0.0
 10
88.48727753864208
 20
-142.569075485191
 30
0.0
 10
88.48727753864208
 20
-142.569075485191
 30
0.0
 10
90.03171384467957
 20
-142.569075485191
 30
0.0
 10
90.03171384467957
 20
-142.569075485191
 30
0.0
 10
90.03171384467957
 20
-142.569075485191
 30
0.0
 10
90.03171384467957
 20
-142.7602782846224
 30
0.0
 10
90.03171384467957
 20
-142.7602782846224
 30
0.0
  0
HATCH
  5
DB
330
D6
100
AcDbEntity
  8
レイヤー 1
 62
   250
420
  2299925
440
 33554687
100
AcDbHatch
 10
0.0
 20
0.0
 30
0.0
210
0.0
220
0.0
230
1.0
  2
SOLID
 70
     1
 71
     1
 91
        1
 92
        1
 93
        1
 72
     4
 94
        3
 73
     0
 74
     0
 95
       26
 96
       22
 40
0.0
 40
0.0
 40
0.0
 40
0.0
 40
1.0
 40
1.0
 40
1.0
 40
2.0
 40
2.0
 40
2.0
 40
3.0
 40
3.0
 40
3.0
 40
4.0
 40
4.0
 40
4.0
 40
5.0
 40
5.0
 40
5.0
 40
6.0
 40
6.0
 40
6.0
 40
7.0
 40
7.0
 40
7.0
 40
7.0
 10
90.03171384467957
 20
-142.7602782846224
 10
90.03171384467957
 20
-142.7602782846224
 10
88.92756074165701
 20
-142.7602782846224
 10
88.92756074165701
 20
-142.7602782846224
 10
88.92756074165701
 20
-142.7602782846224
 10
88.92756074165701
 20
-143.0417425857673
 10
88.92756074165701
 20
-143.0417425857673
 10
88.92756074165701
 20
-143.0417425857673
 10
88.77942163579126
 20
-143.0417425857673
 10
88.77942163579126
 20
-143.0417425857673
 10
88.76460772520468
 20
-142.7585557368798
 10
88.60165470875235
 20
-142.7189371387994
 10
88.48727753864208
 20
-142.6937879417571
 10
88.48727753864208
 20
-142.6937879417571
 10
88.48727753864208
 20
-142.569075485191
 10
88.48727753864208
 20
-142.569075485191
 10
88.48727753864208
 20
-142.569075485191
 10
90.03171384467957
 20
-142.569075485191
 10
90.03171384467957
 20
-142.569075485191
 10
90.03171384467957
 20
-142.569075485191
 10
90.03171384467957
 20
-142.7602782846224
 10
90.03171384467957
 20
-142.7602782846224
 97
        0
 97
        1
330
DA
 75
     2
 76
     1
 98
        1
 10
0.0
 20
0.0
450
        0
451
        0
460
0.0
461
0.0
452
        0
462
0.0
453
        0
470

  0
SPLINE
  5
DC
330
D6
100
AcDbEntity
  8
レイヤー 1
100
AcDbSpline
210
0.0
220
0.0
230
1.0
 70
    11
 71
     3
 72
    17
 73
    13
 74
     0
 42
0.0000000001
 43
0.0000000001
 40
0.0
 40
0.0
 40
0.0
 40
0.0
 40
1.0
 40
1.0
 40
1.0
 40
2.0
 40
2.0
 40
2.0
 40
3.0
 40
3.0
 40
3.0
 40
4.0
 40
4.0
 40
4.0
 40
4.0
 10
90.03171384467957
 20
-142.0922742700325
 30
0.0
 10
90.03171384467957
 20
-142.0922742700325
 30
0.0
 10
89.77987736470781
 20
-142.0922742700325
 30
0.0
 10
89.77987736470781
 20
-142.0922742700325
 30
0.0
 10
89.77987736470781
 20
-142.0922742700325
 30
0.0
 10
89.77987736470781
 20
-141.8776448213014
 30
0.0
 10
89.77987736470781
 20
-141.8776448213014
 30
0.0
 10
89.77987736470781
 20
-141.8776448213014
 30
0.0
 10
90.03171384467957
 20
-141.8776448213014
 30
0.0
 10
90.03171384467957
 20
-141.8776448213014
 30
0.0
 10
90.03171384467957
 20
-141.8776448213014
 30
0.0
 10
90.03171384467957
 20
-142.0922742700325
 30
0.0
 10
90.03171384467957
 20
-142.0922742700325
 30
0.0
  0
HATCH
  5
DD
330
D6
100
AcDbEntity
  8
レイヤー 1
 62
   250
420
  2299925
440
 33554687
100
AcDbHatch
 10
0.0
 20
0.0
 30
0.0
210
0.0
220
0.0
230
1.0
  2
SOLID
 70
     1
 71
     1
 91
        1
 92
        1
 93
        1
 72
     4
 94
        3
 73
     0
 74
     0
 95
       17
 96
       13
 40
0.0
 40
0.0
 40
0.0
 40
0.0
 40
1.0
 40
1.0
 40
1.0
 40
2.0
 40
2.0
 40
2.0
 40
3.0
 40
3.0
 40
3.0
 40
4.0
 40
4.0
 40
4.0
 40
4.0
 10
90.03171384467957
 20
-142.0922742700325
 10
90.03171384467957
 20
-142.0922742700325
 10
89.77987736470781
 20
-142.0922742700325
 10
89.77987736470781
 20
-142.0922742700325
 10
89.77987736470781
 20
-142.0922742700325
 10
89.77987736470781
 20
-141.8776448213014
 10
89.77987736470781
 20
-141.8776448213014
 10
89.77987736470781
 20
-141.8776448213014
 10
90.03171384467957
 20
-141.8776448213014
 10
90.03171384467957
 20
-141.8776448213014
 10
90.03171384467957
 20
-141.8776448213014
 10
90.03171384467957
 20
-142.0922742700325
 10
90.03171384467957
 20
-142.0922742700325
 97
        0
 97
        1
330
DC
 75
     2
 76
     1
 98
        1
 10
0.0
 20
0.0
450
        0
451
        0
460
0.0
461
0.0
452
        0
462
0.0
453
        0
470

  0
SPLINE
  5
DE
330
D6
100
AcDbEntity
  8
レイヤー 1
100
AcDbSpline
210
0.0
220
0.0
230
1.0
 70
     9
 71
     3
 72
    17
 73
    13
 74
     0
 42
0.0000000001
 43
0.0000000001
 40
0.0
 40
0.0
 40
0.0
 40
0.0
 40
1.0
 40
1.0
 40
1.0
 40
2.0
 40
2.0
 40
2.0
 40
3.0
 40
3.0
 40
3.0
 40
4.0
 40
4.0
 40
4.0
 40
4.0
 10
88.63128252992551
 20
-141.2502929334374
 30
0.0
 10
88.63128252992551
 20
-141.4631998344258
 30
0.0
 10
88.91481388836158
 20
-141.5028184325062
 30
0.0
 10
89.25966794643509
 20
-141.5028184325062
 30
0.0
 10
89.57902829791775
 20
-141.5028184325062
 30
0.0
 10
89.88770885339613
 20
-141.4721570826875
 30
0.0
 10
89.88770885339613
 20
-141.2502929334374
 30
0.0
 10
89.88770885339613
 20
-141.0391085801916
 30
0.0
 10
89.60658906179975
 20
-140.9977674343686
 30
0.0
 10
89.25966794643509
 20
-140.9977674343686
 30
0.0
 10
88.93996308540391
 20
-140.9977674343686
 30
0.0
 10
88.63128252992551
 20
-141.0301513319299
 30
0.0
 10
88.63128252992551
 20
-141.2502929334374
 30
0.0
  0
SPLINE
  5
DF
330
D6
100
AcDbEntity
  8
レイヤー 1
100
AcDbSpline
210
0.0
220
0.0
230
1.0
 70
     9
 71
     3
 72
    29
 73
    25
 74
     0
 42
0.0000000001
 43
0.0000000001
 40
0.0
 40
0.0
 40
0.0
 40
0.0
 40
1.0
 40
1.0
 40
1.0
 40
2.0
 40
2.0
 40
2.0
 40
3.0
 40
3.0
 40
3.0
 40
4.0
 40
4.0
 40
4.0
 40
5.0
 40
5.0
 40
5.0
 40
6.0
 40
6.0
 40
6.0
 40
7.0
 40
7.0
 40
7.0
 40
8.0
 40
8.0
 40
8.0
 40
8.0
 10
89.85394691764069
 20
-140.9112955376888
 30
0.0
 10
90.06340872314387
 20
-141.003279587145
 30
0.0
 10
90.08235674831274
 20
-141.1510741834622
 30
0.0
 10
90.08235674831274
 20
-141.2502929334374
 30
0.0
 10
90.08235674831274
 20
-141.3874077337503
 30
0.0
 10
90.03584795926187
 20
-141.5079860757341
 30
0.0
 10
89.85394691764069
 20
-141.589290329186
 30
0.0
 10
89.65929902272407
 20
-141.6774847736084
 30
0.0
 10
89.42227645333888
 20
-141.6940212319376
 30
0.0
 10
89.25966794643509
 20
-141.6940212319376
 30
0.0
 10
89.11566295515164
 20
-141.6940212319376
 30
0.0
 10
88.86382647517988
 20
-141.6795518308995
 30
0.0
 10
88.66504446568097
 20
-141.589290329186
 30
0.0
 10
88.46212834159976
 20
-141.4973062797298
 30
0.0
 10
88.43870169230006
 20
-141.3601914794169
 30
0.0
 10
88.43870169230006
 20
-141.2502929334374
 30
0.0
 10
88.43870169230006
 20
-141.1149006808671
 30
0.0
 10
88.48314342405977
 20
-140.9922552815922
 30
0.0
 10
88.66504446568097
 20
-140.9112955376888
 30
0.0
 10
88.85762530330643
 20
-140.8265461887517
 30
0.0
 10
89.08603513397849
 20
-140.8065646349372
 30
0.0
 10
89.25966794643509
 20
-140.8065646349372
 30
0.0
 10
89.430889192052
 20
-140.8065646349372
 30
0.0
 10
89.66136608001521
 20
-140.8248236410091
 30
0.0
 10
89.85394691764069
 20
-140.9112955376888
 30
0.0
  0
HATCH
  5
E0
330
D6
100
AcDbEntity
  8
レイヤー 1
 62
   250
420
  2299925
440
 33554687
100
AcDbHatch
 10
0.0
 20
0.0
 30
0.0
210
0.0
220
0.0
230
1.0
  2
SOLID
 70
     1
 71
     1
 91
        2
 92
        1
 93
        1
 72
     4
 94
        3
 73
     0
 74
     0
 95
       17
 96
       13
 40
0.0
 40
0.0
 40
0.0
 40
0.0
 40
1.0
 40
1.0
 40
1.0
 40
2.0
 40
2.0
 40
2.0
 40
3.0
 40
3.0
 40
3.0
 40
4.0
 40
4.0
 40
4.0
 40
4.0
 10
88.63128252992551
 20
-141.2502929334374
 10
88.63128252992551
 20
-141.4631998344258
 10
88.91481388836158
 20
-141.5028184325062
 10
89.25966794643509
 20
-141.5028184325062
 10
89.57902829791775
 20
-141.5028184325062
 10
89.88770885339613
 20
-141.4721570826875
 10
89.88770885339613
 20
-141.2502929334374
 10
89.88770885339613
 20
-141.0391085801916
 10
89.60658906179975
 20
-140.9977674343686
 10
89.25966794643509
 20
-140.9977674343686
 10
88.93996308540391
 20
-140.9977674343686
 10
88.63128252992551
 20
-141.0301513319299
 10
88.63128252992551
 20
-141.2502929334374
 97
        0
 97
        1
330
DE
 92
        1
 93
        1
 72
     4
 94
        3
 73
     0
 74
     0
 95
       29
 96
       25
 40
0.0
 40
0.0
 40
0.0
 40
0.0
 40
1.0
 40
1.0
 40
1.0
 40
2.0
 40
2.0
 40
2.0
 40
3.0
 40
3.0
 40
3.0
 40
4.0
 40
4.0
 40
4.0
 40
5.0
 40
5.0
 40
5.0
 40
6.0
 40
6.0
 40
6.0
 40
7.0
 40
7.0
 40
7.0
 40
8.0
 40
8.0
 40
8.0
 40
8.0
 10
89.85394691764069
 20
-140.9112955376888
 10
90.06340872314387
 20
-141.003279587145
 10
90.08235674831274
 20
-141.1510741834622
 10
90.08235674831274
 20
-141.2502929334374
 10
90.08235674831274
 20
-141.3874077337503
 10
90.03584795926187
 20
-141.5079860757341
 10
89.85394691764069
 20
-141.589290329186
 10
89.65929902272407
 20
-141.6774847736084
 10
89.42227645333888
 20
-141.6940212319376
 10
89.25966794643509
 20
-141.6940212319376
 10
89.11566295515164
 20
-141.6940212319376
 10
88.86382647517988
 20
-141.6795518308995
 10
88.66504446568097
 20
-141.589290329186
 10
88.46212834159976
 20
-141.4973062797298
 10
88.43870169230006
 20
-141.3601914794169
 10
88.43870169230006
 20
-141.2502929334374
 10
88.43870169230006
 20
-141.1149006808671
 10
88.48314342405977
 20
-140.9922552815922
 10
88.66504446568097
 20
-140.9112955376888
 10
88.85762530330643
 20
-140.8265461887517
 10
89.08603513397849
 20
-140.8065646349372
 10
89.25966794643509
 20
-140.8065646349372
 10
89.430889192052
 20
-140.8065646349372
 10
89.66136608001521
 20
-140.8248236410091
 10
89.85394691764069
 20
-140.9112955376888
 97
        0
 97
        1
330
DF
 75
     2
 76
     1
 98
        1
 10
0.0
 20
0.0
450
        0
451
        0
460
0.0
461
0.0
452
        0
462
0.0
453
        0
470

  0
ENDBLK
  5
D9
330
D6
100
AcDbEntity
  8
0
100
AcDbBlockEnd
  0
BLOCK
  5
E5
330
E3
100
AcDbEntity
  8
0
100
AcDbBlockBegin
  2
Block_11
 70
     0
 10
0.0
 20
0.0
 30
0.0
  3
Block_11
  1

  0
LINE
  5
E7
330
E3
100
AcDbEntity
  8
レイヤー 1
 62
    18
420
        0
370
     9
100
AcDbLine
 10
108.4230109337873
 20
-151.9639056834201
 30
0.0
 11
108.1561660759263
 21
-151.000133450149
 31
0.0
  0
LINE
  5
E8
330
E3
100
AcDbEntity
  8
レイヤー 1
 62
    18
420
        0
370
     9
100
AcDbLine
 10
108.4230109337873
 20
-151.9639056834201
 30
0.0
 11
108.3885767264102
 21
-150.349945120616
 31
0.0
  0
LINE
  5
E9
330
E3
100
AcDbEntity
  8
レイヤー 1
 62
    18
420
        0
370
     9
100
AcDbLine
 10
108.4230109337873
 20
-151.9639056834201
 30
0.0
 11
108.6738590112925
 21
-150.9957252280333
 31
0.0
  0
ENDBLK
  5
E6
330
E3
100
AcDbEntity
  8
0
100
AcDbBlockEnd
  0
BLOCK
  5
EC
330
EA
100
AcDbEntity
  8
0
100
AcDbBlockBegin
  2
Block_12
 70
     0
 10
0.0
 20
0.0
 30
0.0
  3
Block_12
  1

  0
INSERT
  5
EF
330
EA
100
AcDbEntity
  8
レイヤー 1
100
AcDbBlockReference
  2
Block_13
 10
0.0
 20
0.0
 30
0.0
  0
ENDBLK
  5
ED
330
EA
100
AcDbEntity
  8
0
100
AcDbBlockEnd
  0
BLOCK
  5
F0
330
EE
100
AcDbEntity
  8
0
100
AcDbBlockBegin
  2
Block_13
 70
     0
 10
0.0
 20
0.0
 30
0.0
  3
Block_13
  1

  0
SPLINE
  5
F2
330
EE
100
AcDbEntity
  8
レイヤー 1
100
AcDbSpline
210
0.0
220
0.0
230
1.0
 70
     9
 71
     3
 72
    17
 73
    13
 74
     0
 42
0.0000000001
 43
0.0000000001
 40
0.0
 40
0.0
 40
0.0
 40
0.0
 40
1.0
 40
1.0
 40
1.0
 40
2.0
 40
2.0
 40
2.0
 40
3.0
 40
3.0
 40
3.0
 40
4.0
 40
4.0
 40
4.0
 40
4.0
 10
104.436863851929
 20
-149.283566585943
 30
0.0
 10
104.419810629277
 20
-149.3131944071161
 30
0.0
 10
104.3691677256438
 20
-149.4062119852179
 30
0.0
 10
104.3584879296395
 20
-149.4251600103867
 30
0.0
 10
104.5488294551996
 20
-149.484415652733
 30
0.0
 10
104.5700167924339
 20
-149.490961334155
 30
0.0
 10
104.6420192880756
 20
-149.518522098037
 30
0.0
 10
104.6969685610653
 20
-149.4317056918087
 30
0.0
 10
104.7202229555908
 20
-149.3576361388758
 30
0.0
 10
104.7350368661773
 20
-149.283566585943
 30
0.0
 10
104.7350368661773
 20
-149.283566585943
 30
0.0
 10
104.436863851929
 20
-149.283566585943
 30
0.0
 10
104.436863851929
 20
-149.283566585943
 30
0.0
  0
SPLINE
  5
F3
330
EE
100
AcDbEntity
  8
レイヤー 1
100
AcDbSpline
210
0.0
220
0.0
230
1.0
 70
    11
 71
     3
 72
    20
 73
    16
 74
     0
 42
0.0000000001
 43
0.0000000001
 40
0.0
 40
0.0
 40
0.0
 40
0.0
 40
1.0
 40
1.0
 40
1.0
 40
2.0
 40
2.0
 40
2.0
 40
3.0
 40
3.0
 40
3.0
 40
4.0
 40
4.0
 40
4.0
 40
5.0
 40
5.0
 40
5.0
 40
5.0
 10
104.3733018402261
 20
-148.433144765409
 30
0.0
 10
104.3733018402261
 20
-148.433144765409
 30
0.0
 10
104.3416069617618
 20
-148.433144765409
 30
0.0
 10
104.3416069617618
 20
-148.433144765409
 30
0.0
 10
104.3881157508127
 20
-148.5325357701585
 30
0.0
 10
104.419810629277
 20
-148.6128064949648
 30
0.0
 10
104.4537448198067
 20
-148.7397582635963
 30
0.0
 10
104.4537448198067
 20
-148.7397582635963
 30
0.0
 10
104.6609673132445
 20
-148.7397582635963
 30
0.0
 10
104.6609673132445
 20
-148.7397582635963
 30
0.0
 10
104.692834446483
 20
-148.6467406854945
 30
0.0
 10
104.7160888410085
 20
-148.5621635913316
 30
0.0
 10
104.7393432355339
 20
-148.433144765409
 30
0.0
 10
104.7393432355339
 20
-148.433144765409
 30
0.0
 10
104.3733018402261
 20
-148.433144765409
 30
0.0
 10
104.3733018402261
 20
-148.433144765409
 30
0.0
  0
SPLINE
  5
F4
330
EE
100
AcDbEntity
  8
レイヤー 1
100
AcDbSpline
210
0.0
220
0.0
230
1.0
 70
     9
 71
     3
 72
   242
 73
   238
 74
     0
 42
0.0000000001
 43
0.0000000001
 40
0.0
 40
0.0
 40
0.0
 40
0.0
 40
1.0
 40
1.0
 40
1.0
 40
2.0
 40
2.0
 40
2.0
 40
3.0
 40
3.0
 40
3.0
 40
4.0
 40
4.0
 40
4.0
 40
5.0
 40
5.0
 40
5.0
 40
6.0
 40
6.0
 40
6.0
 40
7.0
 40
7.0
 40
7.0
 40
8.0
 40
8.0
 40
8.0
 40
9.0
 40
9.0
 40
9.0
 40
10.0
 40
10.0
 40
10.0
 40
11.0
 40
11.0
 40
11.0
 40
12.0
 40
12.0
 40
12.0
 40
13.0
 40
13.0
 40
13.0
 40
14.0
 40
14.0
 40
14.0
 40
15.0
 40
15.0
 40
15.0
 40
16.0
 40
16.0
 40
16.0
 40
17.0
 40
17.0
 40
17.0
 40
18.0
 40
18.0
 40
18.0
 40
19.0
 40
19.0
 40
19.0
 40
20.0
 40
20.0
 40
20.0
 40
21.0
 40
21.0
 40
21.0
 40
22.0
 40
22.0
 40
22.0
 40
23.0
 40
23.0
 40
23.0
 40
24.0
 40
24.0
 40
24.0
 40
25.0
 40
25.0
 40
25.0
 40
26.0
 40
26.0
 40
26.0
 40
27.0
 40
27.0
 40
27.0
 40
28.0
 40
28.0
 40
28.0
 40
29.0
 40
29.0
 40
29.0
 40
30.0
 40
30.0
 40
30.0
 40
31.0
 40
31.0
 40
31.0
 40
32.0
 40
32.0
 40
32.0
 40
33.0
 40
33.0
 40
33.0
 40
34.0
 40
34.0
 40
34.0
 40
35.0
 40
35.0
 40
35.0
 40
36.0
 40
36.0
 40
36.0
 40
37.0
 40
37.0
 40
37.0
 40
38.0
 40
38.0
 40
38.0
 40
39.0
 40
39.0
 40
39.0
 40
40.0
 40
40.0
 40
40.0
 40
41.0
 40
41.0
 40
41.0
 40
42.0
 40
42.0
 40
42.0
 40
43.0
 40
43.0
 40
43.0
 40
44.0
 40
44.0
 40
44.0
 40
45.0
 40
45.0
 40
45.0
 40
46.0
 40
46.0
 40
46.0
 40
47.0
 40
47.0
 40
47.0
 40
48.0
 40
48.0
 40
48.0
 40
49.0
 40
49.0
 40
49.0
 40
50.0
 40
50.0
 40
50.0
 40
51.0
 40
51.0
 40
51.0
 40
52.0
 40
52.0
 40
52.0
 40
53.0
 40
53.0
 40
53.0
 40
54.0
 40
54.0
 40
54.0
 40
55.0
 40
55.0
 40
55.0
 40
56.0
 40
56.0
 40
56.0
 40
57.0
 40
57.0
 40
57.0
 40
58.0
 40
58.0
 40
58.0
 40
59.0
 40
59.0
 40
59.0
 40
60.0
 40
60.0
 40
60.0
 40
61.0
 40
61.0
 40
61.0
 40
62.0
 40
62.0
 40
62.0
 40
63.0
 40
63.0
 40
63.0
 40
64.0
 40
64.0
 40
64.0
 40
65.0
 40
65.0
 40
65.0
 40
66.0
 40
66.0
 40
66.0
 40
67.0
 40
67.0
 40
67.0
 40
68.0
 40
68.0
 40
68.0
 40
69.0
 40
69.0
 40
69.0
 40
70.0
 40
70.0
 40
70.0
 40
71.0
 40
71.0
 40
71.0
 40
72.0
 40
72.0
 40
72.0
 40
73.0
 40
73.0
 40
73.0
 40
74.0
 40
74.0
 40
74.0
 40
75.0
 40
75.0
 40
75.0
 40
76.0
 40
76.0
 40
76.0
 40
77.0
 40
77.0
 40
77.0
 40
78.0
 40
78.0
 40
78.0
 40
79.0
 40
79.0
 40
79.0
 40
79.0
 10
105.0016872567357
 20
-148.8984049106921
 30
0.0
 10
105.0016872567357
 20
-148.8984049106921
 30
0.0
 10
104.7477837194727
 20
-148.8984049106921
 30
0.0
 10
104.7477837194727
 20
-148.8984049106921
 30
0.0
 10
104.7477837194727
 20
-148.8984049106921
 30
0.0
 10
104.4706257876844
 20
-148.8984049106921
 30
0.0
 10
104.4706257876844
 20
-148.8984049106921
 30
0.0
 10
104.4706257876844
 20
-148.8984049106921
 30
0.0
 10
104.5975775563159
 20
-148.9407795851606
 30
0.0
 10
104.5975775563159
 20
-148.9407795851606
 30
0.0
 10
104.6080850975459
 20
-148.9452582092915
 30
0.0
 10
104.6208319508413
 20
-148.9514593811649
 30
0.0
 10
104.6208319508413
 20
-148.9642062344603
 30
0.0
 10
104.6208319508413
 20
-148.9852213169203
 30
0.0
 10
104.589137072377
 20
-148.9917669983423
 30
0.0
 10
104.5679497351427
 20
-148.9959011129246
 30
0.0
 10
104.5574421939127
 20
-149.0189832526758
 30
0.0
 10
104.5278143727396
 20
-149.0847845764441
 30
0.0
 10
104.5086940927964
 20
-149.1292263082038
 30
0.0
 10
104.5086940927964
 20
-149.1292263082038
 30
0.0
 10
104.7794785979371
 20
-149.1292263082038
 30
0.0
 10
104.7794785979371
 20
-149.1292263082038
 30
0.0
 10
104.8704291187477
 20
-149.1292263082038
 30
0.0
 10
105.0671440709554
 20
-149.124747684073
 30
0.0
 10
105.2089097501734
 20
-149.1164794549083
 30
0.0
 10
105.2089097501734
 20
-149.1164794549083
 30
0.0
 10
105.2089097501734
 20
-149.2942463819472
 30
0.0
 10
105.2089097501734
 20
-149.2942463819472
 30
0.0
 10
105.1263997133017
 20
-149.2897677578164
 30
0.0
 10
105.1052123760674
 20
-149.2897677578164
 30
0.0
 10
104.9253783917374
 20
-149.2856336432341
 30
0.0
 10
104.8936835132731
 20
-149.4399739209733
 30
0.0
 10
104.8492417815134
 20
-149.5205891553282
 30
0.0
 10
104.8048000497536
 20
-149.5901800841302
 30
0.0
 10
104.9253783917374
 20
-149.6494357264765
 30
0.0
 10
105.0313150779088
 20
-149.7173041075359
 30
0.0
 10
105.1348401972406
 20
-149.7996418896334
 30
0.0
 10
105.1348401972406
 20
-149.7996418896334
 30
0.0
 10
105.0165011673223
 20
-149.966729020668
 30
0.0
 10
105.0165011673223
 20
-149.966729020668
 30
0.0
 10
104.9932467727968
 20
-149.9477809954991
 30
0.0
 10
104.9804999195014
 20
-149.9395127663345
 30
0.0
 10
104.8683620614565
 20
-149.8547634173974
 30
0.0
 10
104.8196139603402
 20
-149.8165228575111
 30
0.0
 10
104.7605305727682
 20
-149.7806938644645
 30
0.0
 10
104.6800875931876
 20
-149.7362521327048
 30
0.0
 10
104.4685587303933
 20
-149.9226317984568
 30
0.0
 10
104.2632310394724
 20
-149.945713938208
 30
0.0
 10
103.9734985091629
 20
-149.9753417593811
 30
0.0
 10
103.9734985091629
 20
-149.9753417593811
 30
0.0
 10
103.8698011350568
 20
-149.7955077750511
 30
0.0
 10
103.8698011350568
 20
-149.7955077750511
 30
0.0
 10
104.1870944292484
 20
-149.7913736604688
 30
0.0
 10
104.3627942989961
 20
-149.765879953878
 30
0.0
 10
104.5150675194441
 20
-149.6559814078985
 30
0.0
 10
104.3965562347515
 20
-149.6049939947168
 30
0.0
 10
104.3076727712321
 20
-149.5777777403833
 30
0.0
 10
104.2718437781855
 20
-149.5650308870879
 30
0.0
 10
104.2527234982423
 20
-149.5925916509699
 30
0.0
 10
104.2379095876558
 20
-149.6115396761388
 30
0.0
 10
104.2103488237738
 20
-149.6453016118942
 30
0.0
 10
104.2103488237738
 20
-149.6453016118942
 30
0.0
 10
104.013633871566
 20
-149.5629638297967
 30
0.0
 10
104.013633871566
 20
-149.5629638297967
 30
0.0
 10
104.0961439084377
 20
-149.4823485954419
 30
0.0
 10
104.1574666080752
 20
-149.387263960049
 30
0.0
 10
104.2146551931304
 20
-149.2856336432341
 30
0.0
 10
104.0243136675703
 20
-149.2897677578164
 30
0.0
 10
104.003126330336
 20
-149.2897677578164
 30
0.0
 10
103.9206162934643
 20
-149.2942463819472
 30
0.0
 10
103.9206162934643
 20
-149.2942463819472
 30
0.0
 10
103.9206162934643
 20
-149.1164794549083
 30
0.0
 10
103.9206162934643
 20
-149.1164794549083
 30
0.0
 10
104.0601426606169
 20
-149.1226806267818
 30
0.0
 10
104.2696044661201
 20
-149.1271592509126
 30
0.0
 10
104.2950981727109
 20
-149.1271592509126
 30
0.0
 10
104.3119791405886
 20
-149.0930528056087
 30
0.0
 10
104.3669284135784
 20
-148.9724744636249
 30
0.0
 10
104.3860486935215
 20
-148.8984049106921
 30
0.0
 10
104.3669284135784
 20
-148.8984049106921
 30
0.0
 10
104.1893337413138
 20
-148.904950592114
 30
0.0
 10
103.9946858463971
 20
-148.9176974454094
 30
0.0
 10
103.9946858463971
 20
-148.9176974454094
 30
0.0
 10
103.9946858463971
 20
-149.0510226406886
 30
0.0
 10
103.9946858463971
 20
-149.0510226406886
 30
0.0
 10
103.9459377452809
 20
-149.0761718377309
 30
0.0
 10
103.8866821029346
 20
-149.1078667161952
 30
0.0
 10
103.7535291624297
 20
-149.1736680399635
 30
0.0
 10
103.7535291624297
 20
-149.1736680399635
 30
0.0
 10
103.7535291624297
 20
-149.3193955789896
 30
0.0
 10
103.7535291624297
 20
-149.3193955789896
 30
0.0
 10
103.7535291624297
 20
-149.3193955789896
 30
0.0
 10
103.7535291624297
 20
-149.7872395458865
 30
0.0
 10
103.7535291624297
 20
-149.7872395458865
 30
0.0
 10
103.7535291624297
 20
-149.9140190597437
 30
0.0
 10
103.7175279146088
 20
-149.97327470209
 30
0.0
 10
103.4339965561727
 20
-149.9646619633769
 30
0.0
 10
103.4339965561727
 20
-149.9646619633769
 30
0.0
 10
103.3302991820667
 20
-149.7576117247134
 30
0.0
 10
103.3302991820667
 20
-149.7576117247134
 30
0.0
 10
103.3938611937696
 20
-149.7700140684603
 30
0.0
 10
103.4424370401116
 20
-149.7744926925911
 30
0.0
 10
103.482744657289
 20
-149.7744926925911
 30
0.0
 10
103.558881267513
 20
-149.7744926925911
 30
0.0
 10
103.569388808743
 20
-149.7510660432914
 30
0.0
 10
103.569388808743
 20
-149.6856092290717
 30
0.0
 10
103.569388808743
 20
-149.6856092290717
 30
0.0
 10
103.569388808743
 20
-149.256005822061
 30
0.0
 10
103.569388808743
 20
-149.256005822061
 30
0.0
 10
103.4720648612847
 20
-149.2963134392384
 30
0.0
 10
103.455183893407
 20
-149.3025146111119
 30
0.0
 10
103.4086751043561
 20
-149.3218071458293
 30
0.0
 10
103.4043687349996
 20
-149.3428222282893
 30
0.0
 10
103.4002346204173
 20
-149.3724500494624
 30
0.0
 10
103.3811143404741
 20
-149.3724500494624
 30
0.0
 10
103.3726738565353
 20
-149.3724500494624
 30
0.0
 10
103.3621663153053
 20
-149.3683159348801
 30
0.0
 10
103.3557928886576
 20
-149.3448892855804
 30
0.0
 10
103.3557928886576
 20
-149.3448892855804
 30
0.0
 10
103.302910672959
 20
-149.152308447955
 30
0.0
 10
103.302910672959
 20
-149.152308447955
 30
0.0
 10
103.4488104667593
 20
-149.1057996589041
 30
0.0
 10
103.5144395357533
 20
-149.0827175191529
 30
0.0
 10
103.569388808743
 20
-149.0613579271444
 30
0.0
 10
103.569388808743
 20
-149.0613579271444
 30
0.0
 10
103.569388808743
 20
-148.6488077427857
 30
0.0
 10
103.569388808743
 20
-148.6488077427857
 30
0.0
 10
103.569388808743
 20
-148.6488077427857
 30
0.0
 10
103.5165065930444
 20
-148.6488077427857
 30
0.0
 10
103.5165065930444
 20
-148.6488077427857
 30
0.0
 10
103.5165065930444
 20
-148.6488077427857
 30
0.0
 10
103.4383029255293
 20
-148.6488077427857
 30
0.0
 10
103.4383029255293
 20
-148.6488077427857
 30
0.0
 10
103.3706067992441
 20
-148.6488077427857
 30
0.0
 10
103.3621663153053
 20
-148.6488077427857
 30
0.0
 10
103.3261650674844
 20
-148.6551811694334
 30
0.0
 10
103.3261650674844
 20
-148.6551811694334
 30
0.0
 10
103.3261650674844
 20
-148.4605332745168
 30
0.0
 10
103.3261650674844
 20
-148.4605332745168
 30
0.0
 10
103.3537258313664
 20
-148.4669067011645
 30
0.0
 10
103.3621663153053
 20
-148.4669067011645
 30
0.0
 10
103.4319294988816
 20
-148.4669067011645
 30
0.0
 10
103.4319294988816
 20
-148.4669067011645
 30
0.0
 10
103.5652546941608
 20
-148.4669067011645
 30
0.0
 10
103.5652546941608
 20
-148.4669067011645
 30
0.0
 10
103.5652546941608
 20
-148.3971435175882
 30
0.0
 10
103.5652546941608
 20
-148.3146334807164
 30
0.0
 10
103.5630153820953
 20
-148.3103271113599
 30
0.0
 10
103.5545748981565
 20
-148.1304931270299
 30
0.0
 10
103.5545748981565
 20
-148.111545101861
 30
0.0
 10
103.5525078408653
 20
-148.0650363128101
 30
0.0
 10
103.5525078408653
 20
-148.0650363128101
 30
0.0
 10
103.7683430730162
 20
-148.073476796749
 30
0.0
 10
103.7683430730162
 20
-148.073476796749
 30
0.0
 10
103.7788506142462
 20
-148.073476796749
 30
0.0
 10
103.8000379514805
 20
-148.0755438540401
 30
0.0
 10
103.8000379514805
 20
-148.0924248219178
 30
0.0
 10
103.8000379514805
 20
-148.111545101861
 30
0.0
 10
103.785224040894
 20
-148.122052643091
 30
0.0
 10
103.7599025890774
 20
-148.1411729230341
 30
0.0
 10
103.7599025890774
 20
-148.1918158266673
 30
0.0
 10
103.7535291624297
 20
-148.4203979121136
 30
0.0
 10
103.7555962197208
 20
-148.4669067011645
 30
0.0
 10
103.8846150456434
 20
-148.4669067011645
 30
0.0
 10
103.8973618989388
 20
-148.4669067011645
 30
0.0
 10
103.9946858463971
 20
-148.4584662172256
 30
0.0
 10
103.9946858463971
 20
-148.4584662172256
 30
0.0
 10
103.9946858463971
 20
-148.6531141121423
 30
0.0
 10
103.9946858463971
 20
-148.6531141121423
 30
0.0
 10
103.9566175412851
 20
-148.6508748000769
 30
0.0
 10
103.888921415
 20
-148.6467406854945
 30
0.0
 10
103.7535291624297
 20
-148.6488077427857
 30
0.0
 10
103.7535291624297
 20
-148.6488077427857
 30
0.0
 10
103.7535291624297
 20
-148.9872883742115
 30
0.0
 10
103.7535291624297
 20
-148.9872883742115
 30
0.0
 10
103.8084784354194
 20
-148.9642062344603
 30
0.0
 10
103.8741075044134
 20
-148.9366454705783
 30
0.0
 10
103.9226833507554
 20
-148.9132188212786
 30
0.0
 10
103.9226833507554
 20
-148.9132188212786
 30
0.0
 10
103.9226833507554
 20
-148.735624149014
 30
0.0
 10
103.9226833507554
 20
-148.735624149014
 30
0.0
 10
104.0368882660914
 20
-148.7481987475351
 30
0.0
 10
104.1553995507841
 20
-148.7481987475351
 30
0.0
 10
104.2718437781855
 20
-148.7481987475351
 30
0.0
 10
104.2484171288858
 20
-148.6531141121423
 30
0.0
 10
104.2210286197781
 20
-148.5706040752705
 30
0.0
 10
104.1574666080752
 20
-148.4372788799913
 30
0.0
 10
104.1130248763155
 20
-148.4393459372825
 30
0.0
 10
104.030687094218
 20
-148.443652306639
 30
0.0
 10
103.9924465343317
 20
-148.4457193639302
 30
0.0
 10
103.9924465343317
 20
-148.4457193639302
 30
0.0
 10
103.9924465343317
 20
-148.2658853796002
 30
0.0
 10
103.9924465343317
 20
-148.2658853796002
 30
0.0
 10
104.117331245672
 20
-148.2743258635391
 30
0.0
 10
104.2907918033544
 20
-148.2786322328956
 30
0.0
 10
104.3733018402261
 20
-148.2786322328956
 30
0.0
 10
104.3733018402261
 20
-148.2786322328956
 30
0.0
 10
104.4558118770978
 20
-148.2786322328956
 30
0.0
 10
104.4558118770978
 20
-148.2786322328956
 30
0.0
 10
104.4558118770978
 20
-148.1156792164433
 30
0.0
 10
104.4558118770978
 20
-148.1051716752133
 30
0.0
 10
104.4537448198067
 20
-148.0502224022235
 30
0.0
 10
104.4537448198067
 20
-148.0502224022235
 30
0.0
 10
104.6780205358964
 20
-148.0755438540401
 30
0.0
 10
104.6780205358964
 20
-148.0755438540401
 30
0.0
 10
104.6821546504787
 20
-148.0755438540401
 30
0.0
 10
104.703341987713
 20
-148.0776109113313
 30
0.0
 10
104.703341987713
 20
-148.094491879209
 30
0.0
 10
104.703341987713
 20
-148.1093057897956
 30
0.0
 10
104.692834446483
 20
-148.1179185285087
 30
0.0
 10
104.665273682601
 20
-148.1327324390953
 30
0.0
 10
104.6589002559533
 20
-148.198189253315
 30
0.0
 10
104.6568331986622
 20
-148.2193765905493
 30
0.0
 10
104.6568331986622
 20
-148.2786322328956
 30
0.0
 10
104.6568331986622
 20
-148.2786322328956
 30
0.0
 10
104.7519178340551
 20
-148.2786322328956
 30
0.0
 10
104.7519178340551
 20
-148.2786322328956
 30
0.0
 10
104.8344278709268
 20
-148.2786322328956
 30
0.0
 10
105.0078884286091
 20
-148.2743258635391
 30
0.0
 10
105.1327731399494
 20
-148.2658853796002
 30
0.0
 10
105.1327731399494
 20
-148.2658853796002
 30
0.0
 10
105.1327731399494
 20
-148.4457193639302
 30
0.0
 10
105.1327731399494
 20
-148.4457193639302
 30
0.0
 10
105.1031453187763
 20
-148.443652306639
 30
0.0
 10
104.9846340340837
 20
-148.4393459372825
 30
0.0
 10
104.9444986716805
 20
-148.4372788799913
 30
0.0
 10
104.9296847610939
 20
-148.4880940383988
 30
0.0
 10
104.8959228253385
 20
-148.6002318964437
 30
0.0
 10
104.8302937563445
 20
-148.7397582635963
 30
0.0
 10
104.8724961760388
 20
-148.7397582635963
 30
0.0
 10
105.1496541078271
 20
-148.7208102384274
 30
0.0
 10
105.2109768074646
 20
-148.718570926362
 30
0.0
 10
105.2109768074646
 20
-148.718570926362
 30
0.0
 10
105.2109768074646
 20
-148.9028835348229
 30
0.0
 10
105.2109768074646
 20
-148.9028835348229
 30
0.0
 10
105.1815212410657
 20
-148.9028835348229
 30
0.0
 10
105.1644680184137
 20
-148.8984049106921
 30
0.0
 10
105.0016872567357
 20
-148.8984049106921
 30
0.0
  0
HATCH
  5
F5
330
EE
100
AcDbEntity
  8
レイヤー 1
 62
    18
420
        0
440
 33554687
100
AcDbHatch
 10
0.0
 20
0.0
 30
0.0
210
0.0
220
0.0
230
1.0
  2
SOLID
 70
     1
 71
     1
 91
        3
 92
        1
 93
        1
 72
     4
 94
        3
 73
     0
 74
     0
 95
       17
 96
       13
 40
0.0
 40
0.0
 40
0.0
 40
0.0
 40
1.0
 40
1.0
 40
1.0
 40
2.0
 40
2.0
 40
2.0
 40
3.0
 40
3.0
 40
3.0
 40
4.0
 40
4.0
 40
4.0
 40
4.0
 10
104.436863851929
 20
-149.283566585943
 10
104.419810629277
 20
-149.3131944071161
 10
104.3691677256438
 20
-149.4062119852179
 10
104.3584879296395
 20
-149.4251600103867
 10
104.5488294551996
 20
-149.484415652733
 10
104.5700167924339
 20
-149.490961334155
 10
104.6420192880756
 20
-149.518522098037
 10
104.6969685610653
 20
-149.4317056918087
 10
104.7202229555908
 20
-149.3576361388758
 10
104.7350368661773
 20
-149.283566585943
 10
104.7350368661773
 20
-149.283566585943
 10
104.436863851929
 20
-149.283566585943
 10
104.436863851929
 20
-149.283566585943
 97
        0
 97
        1
330
F2
 92
        1
 93
        1
 72
     4
 94
        3
 73
     0
 74
     0
 95
       20
 96
       16
 40
0.0
 40
0.0
 40
0.0
 40
0.0
 40
1.0
 40
1.0
 40
1.0
 40
2.0
 40
2.0
 40
2.0
 40
3.0
 40
3.0
 40
3.0
 40
4.0
 40
4.0
 40
4.0
 40
5.0
 40
5.0
 40
5.0
 40
5.0
 10
104.3733018402261
 20
-148.433144765409
 10
104.3733018402261
 20
-148.433144765409
 10
104.3416069617618
 20
-148.433144765409
 10
104.3416069617618
 20
-148.433144765409
 10
104.3881157508127
 20
-148.5325357701585
 10
104.419810629277
 20
-148.6128064949648
 10
104.4537448198067
 20
-148.7397582635963
 10
104.4537448198067
 20
-148.7397582635963
 10
104.6609673132445
 20
-148.7397582635963
 10
104.6609673132445
 20
-148.7397582635963
 10
104.692834446483
 20
-148.6467406854945
 10
104.7160888410085
 20
-148.5621635913316
 10
104.7393432355339
 20
-148.433144765409
 10
104.7393432355339
 20
-148.433144765409
 10
104.3733018402261
 20
-148.433144765409
 10
104.3733018402261
 20
-148.433144765409
 97
        0
 97
        1
330
F3
 92
        1
 93
        1
 72
     4
 94
        3
 73
     0
 74
     0
 95
      242
 96
      238
 40
0.0
 40
0.0
 40
0.0
 40
0.0
 40
1.0
 40
1.0
 40
1.0
 40
2.0
 40
2.0
 40
2.0
 40
3.0
 40
3.0
 40
3.0
 40
4.0
 40
4.0
 40
4.0
 40
5.0
 40
5.0
 40
5.0
 40
6.0
 40
6.0
 40
6.0
 40
7.0
 40
7.0
 40
7.0
 40
8.0
 40
8.0
 40
8.0
 40
9.0
 40
9.0
 40
9.0
 40
10.0
 40
10.0
 40
10.0
 40
11.0
 40
11.0
 40
11.0
 40
12.0
 40
12.0
 40
12.0
 40
13.0
 40
13.0
 40
13.0
 40
14.0
 40
14.0
 40
14.0
 40
15.0
 40
15.0
 40
15.0
 40
16.0
 40
16.0
 40
16.0
 40
17.0
 40
17.0
 40
17.0
 40
18.0
 40
18.0
 40
18.0
 40
19.0
 40
19.0
 40
19.0
 40
20.0
 40
20.0
 40
20.0
 40
21.0
 40
21.0
 40
21.0
 40
22.0
 40
22.0
 40
22.0
 40
23.0
 40
23.0
 40
23.0
 40
24.0
 40
24.0
 40
24.0
 40
25.0
 40
25.0
 40
25.0
 40
26.0
 40
26.0
 40
26.0
 40
27.0
 40
27.0
 40
27.0
 40
28.0
 40
28.0
 40
28.0
 40
29.0
 40
29.0
 40
29.0
 40
30.0
 40
30.0
 40
30.0
 40
31.0
 40
31.0
 40
31.0
 40
32.0
 40
32.0
 40
32.0
 40
33.0
 40
33.0
 40
33.0
 40
34.0
 40
34.0
 40
34.0
 40
35.0
 40
35.0
 40
35.0
 40
36.0
 40
36.0
 40
36.0
 40
37.0
 40
37.0
 40
37.0
 40
38.0
 40
38.0
 40
38.0
 40
39.0
 40
39.0
 40
39.0
 40
40.0
 40
40.0
 40
40.0
 40
41.0
 40
41.0
 40
41.0
 40
42.0
 40
42.0
 40
42.0
 40
43.0
 40
43.0
 40
43.0
 40
44.0
 40
44.0
 40
44.0
 40
45.0
 40
45.0
 40
45.0
 40
46.0
 40
46.0
 40
46.0
 40
47.0
 40
47.0
 40
47.0
 40
48.0
 40
48.0
 40
48.0
 40
49.0
 40
49.0
 40
49.0
 40
50.0
 40
50.0
 40
50.0
 40
51.0
 40
51.0
 40
51.0
 40
52.0
 40
52.0
 40
52.0
 40
53.0
 40
53.0
 40
53.0
 40
54.0
 40
54.0
 40
54.0
 40
55.0
 40
55.0
 40
55.0
 40
56.0
 40
56.0
 40
56.0
 40
57.0
 40
57.0
 40
57.0
 40
58.0
 40
58.0
 40
58.0
 40
59.0
 40
59.0
 40
59.0
 40
60.0
 40
60.0
 40
60.0
 40
61.0
 40
61.0
 40
61.0
 40
62.0
 40
62.0
 40
62.0
 40
63.0
 40
63.0
 40
63.0
 40
64.0
 40
64.0
 40
64.0
 40
65.0
 40
65.0
 40
65.0
 40
66.0
 40
66.0
 40
66.0
 40
67.0
 40
67.0
 40
67.0
 40
68.0
 40
68.0
 40
68.0
 40
69.0
 40
69.0
 40
69.0
 40
70.0
 40
70.0
 40
70.0
 40
71.0
 40
71.0
 40
71.0
 40
72.0
 40
72.0
 40
72.0
 40
73.0
 40
73.0
 40
73.0
 40
74.0
 40
74.0
 40
74.0
 40
75.0
 40
75.0
 40
75.0
 40
76.0
 40
76.0
 40
76.0
 40
77.0
 40
77.0
 40
77.0
 40
78.0
 40
78.0
 40
78.0
 40
79.0
 40
79.0
 40
79.0
 40
79.0
 10
105.0016872567357
 20
-148.8984049106921
 10
105.0016872567357
 20
-148.8984049106921
 10
104.7477837194727
 20
-148.8984049106921
 10
104.7477837194727
 20
-148.8984049106921
 10
104.7477837194727
 20
-148.8984049106921
 10
104.4706257876844
 20
-148.8984049106921
 10
104.4706257876844
 20
-148.8984049106921
 10
104.4706257876844
 20
-148.8984049106921
 10
104.5975775563159
 20
-148.9407795851606
 10
104.5975775563159
 20
-148.9407795851606
 10
104.6080850975459
 20
-148.9452582092915
 10
104.6208319508413
 20
-148.9514593811649
 10
104.6208319508413
 20
-148.9642062344603
 10
104.6208319508413
 20
-148.9852213169203
 10
104.589137072377
 20
-148.9917669983423
 10
104.5679497351427
 20
-148.9959011129246
 10
104.5574421939127
 20
-149.0189832526758
 10
104.5278143727396
 20
-149.0847845764441
 10
104.5086940927964
 20
-149.1292263082038
 10
104.5086940927964
 20
-149.1292263082038
 10
104.7794785979371
 20
-149.1292263082038
 10
104.7794785979371
 20
-149.1292263082038
 10
104.8704291187477
 20
-149.1292263082038
 10
105.0671440709554
 20
-149.124747684073
 10
105.2089097501734
 20
-149.1164794549083
 10
105.2089097501734
 20
-149.1164794549083
 10
105.2089097501734
 20
-149.2942463819472
 10
105.2089097501734
 20
-149.2942463819472
 10
105.1263997133017
 20
-149.2897677578164
 10
105.1052123760674
 20
-149.2897677578164
 10
104.9253783917374
 20
-149.2856336432341
 10
104.8936835132731
 20
-149.4399739209733
 10
104.8492417815134
 20
-149.5205891553282
 10
104.8048000497536
 20
-149.5901800841302
 10
104.9253783917374
 20
-149.6494357264765
 10
105.0313150779088
 20
-149.7173041075359
 10
105.1348401972406
 20
-149.7996418896334
 10
105.1348401972406
 20
-149.7996418896334
 10
105.0165011673223
 20
-149.966729020668
 10
105.0165011673223
 20
-149.966729020668
 10
104.9932467727968
 20
-149.9477809954991
 10
104.9804999195014
 20
-149.9395127663345
 10
104.8683620614565
 20
-149.8547634173974
 10
104.8196139603402
 20
-149.8165228575111
 10
104.7605305727682
 20
-149.7806938644645
 10
104.6800875931876
 20
-149.7362521327048
 10
104.4685587303933
 20
-149.9226317984568
 10
104.2632310394724
 20
-149.945713938208
 10
103.9734985091629
 20
-149.9753417593811
 10
103.9734985091629
 20
-149.9753417593811
 10
103.8698011350568
 20
-149.7955077750511
 10
103.8698011350568
 20
-149.7955077750511
 10
104.1870944292484
 20
-149.7913736604688
 10
104.3627942989961
 20
-149.765879953878
 10
104.5150675194441
 20
-149.6559814078985
 10
104.3965562347515
 20
-149.6049939947168
 10
104.3076727712321
 20
-149.5777777403833
 10
104.2718437781855
 20
-149.5650308870879
 10
104.2527234982423
 20
-149.5925916509699
 10
104.2379095876558
 20
-149.6115396761388
 10
104.2103488237738
 20
-149.6453016118942
 10
104.2103488237738
 20
-149.6453016118942
 10
104.013633871566
 20
-149.5629638297967
 10
104.013633871566
 20
-149.5629638297967
 10
104.0961439084377
 20
-149.4823485954419
 10
104.1574666080752
 20
-149.387263960049
 10
104.2146551931304
 20
-149.2856336432341
 10
104.0243136675703
 20
-149.2897677578164
 10
104.003126330336
 20
-149.2897677578164
 10
103.9206162934643
 20
-149.2942463819472
 10
103.9206162934643
 20
-149.2942463819472
 10
103.9206162934643
 20
-149.1164794549083
 10
103.9206162934643
 20
-149.1164794549083
 10
104.0601426606169
 20
-149.1226806267818
 10
104.2696044661201
 20
-149.1271592509126
 10
104.2950981727109
 20
-149.1271592509126
 10
104.3119791405886
 20
-149.0930528056087
 10
104.3669284135784
 20
-148.9724744636249
 10
104.3860486935215
 20
-148.8984049106921
 10
104.3669284135784
 20
-148.8984049106921
 10
104.1893337413138
 20
-148.904950592114
 10
103.9946858463971
 20
-148.9176974454094
 10
103.9946858463971
 20
-148.9176974454094
 10
103.9946858463971
 20
-149.0510226406886
 10
103.9946858463971
 20
-149.0510226406886
 10
103.9459377452809
 20
-149.0761718377309
 10
103.8866821029346
 20
-149.1078667161952
 10
103.7535291624297
 20
-149.1736680399635
 10
103.7535291624297
 20
-149.1736680399635
 10
103.7535291624297
 20
-149.3193955789896
 10
103.7535291624297
 20
-149.3193955789896
 10
103.7535291624297
 20
-149.3193955789896
 10
103.7535291624297
 20
-149.7872395458865
 10
103.7535291624297
 20
-149.7872395458865
 10
103.7535291624297
 20
-149.9140190597437
 10
103.7175279146088
 20
-149.97327470209
 10
103.4339965561727
 20
-149.9646619633769
 10
103.4339965561727
 20
-149.9646619633769
 10
103.3302991820667
 20
-149.7576117247134
 10
103.3302991820667
 20
-149.7576117247134
 10
103.3938611937696
 20
-149.7700140684603
 10
103.4424370401116
 20
-149.7744926925911
 10
103.482744657289
 20
-149.7744926925911
 10
103.558881267513
 20
-149.7744926925911
 10
103.569388808743
 20
-149.7510660432914
 10
103.569388808743
 20
-149.6856092290717
 10
103.569388808743
 20
-149.6856092290717
 10
103.569388808743
 20
-149.256005822061
 10
103.569388808743
 20
-149.256005822061
 10
103.4720648612847
 20
-149.2963134392384
 10
103.455183893407
 20
-149.3025146111119
 10
103.4086751043561
 20
-149.3218071458293
 10
103.4043687349996
 20
-149.3428222282893
 10
103.4002346204173
 20
-149.3724500494624
 10
103.3811143404741
 20
-149.3724500494624
 10
103.3726738565353
 20
-149.3724500494624
 10
103.3621663153053
 20
-149.3683159348801
 10
103.3557928886576
 20
-149.3448892855804
 10
103.3557928886576
 20
-149.3448892855804
 10
103.302910672959
 20
-149.152308447955
 10
103.302910672959
 20
-149.152308447955
 10
103.4488104667593
 20
-149.1057996589041
 10
103.5144395357533
 20
-149.0827175191529
 10
103.569388808743
 20
-149.0613579271444
 10
103.569388808743
 20
-149.0613579271444
 10
103.569388808743
 20
-148.6488077427857
 10
103.569388808743
 20
-148.6488077427857
 10
103.569388808743
 20
-148.6488077427857
 10
103.5165065930444
 20
-148.6488077427857
 10
103.5165065930444
 20
-148.6488077427857
 10
103.5165065930444
 20
-148.6488077427857
 10
103.4383029255293
 20
-148.6488077427857
 10
103.4383029255293
 20
-148.6488077427857
 10
103.3706067992441
 20
-148.6488077427857
 10
103.3621663153053
 20
-148.6488077427857
 10
103.3261650674844
 20
-148.6551811694334
 10
103.3261650674844
 20
-148.6551811694334
 10
103.3261650674844
 20
-148.4605332745168
 10
103.3261650674844
 20
-148.4605332745168
 10
103.3537258313664
 20
-148.4669067011645
 10
103.3621663153053
 20
-148.4669067011645
 10
103.4319294988816
 20
-148.4669067011645
 10
103.4319294988816
 20
-148.4669067011645
 10
103.5652546941608
 20
-148.4669067011645
 10
103.5652546941608
 20
-148.4669067011645
 10
103.5652546941608
 20
-148.3971435175882
 10
103.5652546941608
 20
-148.3146334807164
 10
103.5630153820953
 20
-148.3103271113599
 10
103.5545748981565
 20
-148.1304931270299
 10
103.5545748981565
 20
-148.111545101861
 10
103.5525078408653
 20
-148.0650363128101
 10
103.5525078408653
 20
-148.0650363128101
 10
103.7683430730162
 20
-148.073476796749
 10
103.7683430730162
 20
-148.073476796749
 10
103.7788506142462
 20
-148.073476796749
 10
103.8000379514805
 20
-148.0755438540401
 10
103.8000379514805
 20
-148.0924248219178
 10
103.8000379514805
 20
-148.111545101861
 10
103.785224040894
 20
-148.122052643091
 10
103.7599025890774
 20
-148.1411729230341
 10
103.7599025890774
 20
-148.1918158266673
 10
103.7535291624297
 20
-148.4203979121136
 10
103.7555962197208
 20
-148.4669067011645
 10
103.8846150456434
 20
-148.4669067011645
 10
103.8973618989388
 20
-148.4669067011645
 10
103.9946858463971
 20
-148.4584662172256
 10
103.9946858463971
 20
-148.4584662172256
 10
103.9946858463971
 20
-148.6531141121423
 10
103.9946858463971
 20
-148.6531141121423
 10
103.9566175412851
 20
-148.6508748000769
 10
103.888921415
 20
-148.6467406854945
 10
103.7535291624297
 20
-148.6488077427857
 10
103.7535291624297
 20
-148.6488077427857
 10
103.7535291624297
 20
-148.9872883742115
 10
103.7535291624297
 20
-148.9872883742115
 10
103.8084784354194
 20
-148.9642062344603
 10
103.8741075044134
 20
-148.9366454705783
 10
103.9226833507554
 20
-148.9132188212786
 10
103.9226833507554
 20
-148.9132188212786
 10
103.9226833507554
 20
-148.735624149014
 10
103.9226833507554
 20
-148.735624149014
 10
104.0368882660914
 20
-148.7481987475351
 10
104.1553995507841
 20
-148.7481987475351
 10
104.2718437781855
 20
-148.7481987475351
 10
104.2484171288858
 20
-148.6531141121423
 10
104.2210286197781
 20
-148.5706040752705
 10
104.1574666080752
 20
-148.4372788799913
 10
104.1130248763155
 20
-148.4393459372825
 10
104.030687094218
 20
-148.443652306639
 10
103.9924465343317
 20
-148.4457193639302
 10
103.9924465343317
 20
-148.4457193639302
 10
103.9924465343317
 20
-148.2658853796002
 10
103.9924465343317
 20
-148.2658853796002
 10
104.117331245672
 20
-148.2743258635391
 10
104.2907918033544
 20
-148.2786322328956
 10
104.3733018402261
 20
-148.2786322328956
 10
104.3733018402261
 20
-148.2786322328956
 10
104.4558118770978
 20
-148.2786322328956
 10
104.4558118770978
 20
-148.2786322328956
 10
104.4558118770978
 20
-148.1156792164433
 10
104.4558118770978
 20
-148.1051716752133
 10
104.4537448198067
 20
-148.0502224022235
 10
104.4537448198067
 20
-148.0502224022235
 10
104.6780205358964
 20
-148.0755438540401
 10
104.6780205358964
 20
-148.0755438540401
 10
104.6821546504787
 20
-148.0755438540401
 10
104.703341987713
 20
-148.0776109113313
 10
104.703341987713
 20
-148.094491879209
 10
104.703341987713
 20
-148.1093057897956
 10
104.692834446483
 20
-148.1179185285087
 10
104.665273682601
 20
-148.1327324390953
 10
104.6589002559533
 20
-148.198189253315
 10
104.6568331986622
 20
-148.2193765905493
 10
104.6568331986622
 20
-148.2786322328956
 10
104.6568331986622
 20
-148.2786322328956
 10
104.7519178340551
 20
-148.2786322328956
 10
104.7519178340551
 20
-148.2786322328956
 10
104.8344278709268
 20
-148.2786322328956
 10
105.0078884286091
 20
-148.2743258635391
 10
105.1327731399494
 20
-148.2658853796002
 10
105.1327731399494
 20
-148.2658853796002
 10
105.1327731399494
 20
-148.4457193639302
 10
105.1327731399494
 20
-148.4457193639302
 10
105.1031453187763
 20
-148.443652306639
 10
104.9846340340837
 20
-148.4393459372825
 10
104.9444986716805
 20
-148.4372788799913
 10
104.9296847610939
 20
-148.4880940383988
 10
104.8959228253385
 20
-148.6002318964437
 10
104.8302937563445
 20
-148.7397582635963
 10
104.8724961760388
 20
-148.7397582635963
 10
105.1496541078271
 20
-148.7208102384274
 10
105.2109768074646
 20
-148.718570926362
 10
105.2109768074646
 20
-148.718570926362
 10
105.2109768074646
 20
-148.9028835348229
 10
105.2109768074646
 20
-148.9028835348229
 10
105.1815212410657
 20
-148.9028835348229
 10
105.1644680184137
 20
-148.8984049106921
 10
105.0016872567357
 20
-148.8984049106921
 97
        0
 97
        1
330
F4
 75
     2
 76
     1
 98
        1
 10
0.0
 20
0.0
450
        0
451
        0
460
0.0
461
0.0
452
        0
462
0.0
453
        0
470

  0
SPLINE
  5
F6
330
EE
100
AcDbEntity
  8
レイヤー 1
100
AcDbSpline
210
0.0
220
0.0
230
1.0
 70
    11
 71
     3
 72
    17
 73
    13
 74
     0
 42
0.0000000001
 43
0.0000000001
 40
0.0
 40
0.0
 40
0.0
 40
0.0
 40
1.0
 40
1.0
 40
1.0
 40
2.0
 40
2.0
 40
2.0
 40
3.0
 40
3.0
 40
3.0
 40
4.0
 40
4.0
 40
4.0
 40
4.0
 10
106.8582492137368
 20
-149.6983560823671
 30
0.0
 10
106.8582492137368
 20
-149.6983560823671
 30
0.0
 10
106.1516601297121
 20
-149.6983560823671
 30
0.0
 10
106.1516601297121
 20
-149.6983560823671
 30
0.0
 10
106.1516601297121
 20
-149.6983560823671
 30
0.0
 10
106.1516601297121
 20
-149.8123887429288
 30
0.0
 10
106.1516601297121
 20
-149.8123887429288
 30
0.0
 10
106.1516601297121
 20
-149.8123887429288
 30
0.0
 10
106.8582492137368
 20
-149.8123887429288
 30
0.0
 10
106.8582492137368
 20
-149.8123887429288
 30
0.0
 10
106.8582492137368
 20
-149.8123887429288
 30
0.0
 10
106.8582492137368
 20
-149.6983560823671
 30
0.0
 10
106.8582492137368
 20
-149.6983560823671
 30
0.0
  0
SPLINE
  5
F7
330
EE
100
AcDbEntity
  8
レイヤー 1
100
AcDbSpline
210
0.0
220
0.0
230
1.0
 70
    11
 71
     3
 72
    17
 73
    13
 74
     0
 42
0.0000000001
 43
0.0000000001
 40
0.0
 40
0.0
 40
0.0
 40
0.0
 40
1.0
 40
1.0
 40
1.0
 40
2.0
 40
2.0
 40
2.0
 40
3.0
 40
3.0
 40
3.0
 40
4.0
 40
4.0
 40
4.0
 40
4.0
 10
106.8582492137368
 20
-149.4547878315599
 30
0.0
 10
106.8582492137368
 20
-149.4547878315599
 30
0.0
 10
106.1516601297121
 20
-149.4547878315599
 30
0.0
 10
106.1516601297121
 20
-149.4547878315599
 30
0.0
 10
106.1516601297121
 20
-149.4547878315599
 30
0.0
 10
106.1516601297121
 20
-149.5691650016702
 30
0.0
 10
106.1516601297121
 20
-149.5691650016702
 30
0.0
 10
106.1516601297121
 20
-149.5691650016702
 30
0.0
 10
106.8582492137368
 20
-149.5691650016702
 30
0.0
 10
106.8582492137368
 20
-149.5691650016702
 30
0.0
 10
106.8582492137368
 20
-149.5691650016702
 30
0.0
 10
106.8582492137368
 20
-149.4547878315599
 30
0.0
 10
106.8582492137368
 20
-149.4547878315599
 30
0.0
  0
SPLINE
  5
F8
330
EE
100
AcDbEntity
  8
レイヤー 1
100
AcDbSpline
210
0.0
220
0.0
230
1.0
 70
    11
 71
     3
 72
    17
 73
    13
 74
     0
 42
0.0000000001
 43
0.0000000001
 40
0.0
 40
0.0
 40
0.0
 40
0.0
 40
1.0
 40
1.0
 40
1.0
 40
2.0
 40
2.0
 40
2.0
 40
3.0
 40
3.0
 40
3.0
 40
4.0
 40
4.0
 40
4.0
 40
4.0
 10
106.8582492137368
 20
-149.2222438863055
 30
0.0
 10
106.8582492137368
 20
-149.2222438863055
 30
0.0
 10
106.1516601297121
 20
-149.2222438863055
 30
0.0
 10
106.1516601297121
 20
-149.2222438863055
 30
0.0
 10
106.1516601297121
 20
-149.2222438863055
 30
0.0
 10
106.1516601297121
 20
-149.3300753749938
 30
0.0
 10
106.1516601297121
 20
-149.3300753749938
 30
0.0
 10
106.1516601297121
 20
-149.3300753749938
 30
0.0
 10
106.8582492137368
 20
-149.3300753749938
 30
0.0
 10
106.8582492137368
 20
-149.3300753749938
 30
0.0
 10
106.8582492137368
 20
-149.3300753749938
 30
0.0
 10
106.8582492137368
 20
-149.2222438863055
 30
0.0
 10
106.8582492137368
 20
-149.2222438863055
 30
0.0
  0
SPLINE
  5
F9
330
EE
100
AcDbEntity
  8
レイヤー 1
100
AcDbSpline
210
0.0
220
0.0
230
1.0
 70
     9
 71
     3
 72
   203
 73
   199
 74
     0
 42
0.0000000001
 43
0.0000000001
 40
0.0
 40
0.0
 40
0.0
 40
0.0
 40
1.0
 40
1.0
 40
1.0
 40
2.0
 40
2.0
 40
2.0
 40
3.0
 40
3.0
 40
3.0
 40
4.0
 40
4.0
 40
4.0
 40
5.0
 40
5.0
 40
5.0
 40
6.0
 40
6.0
 40
6.0
 40
7.0
 40
7.0
 40
7.0
 40
8.0
 40
8.0
 40
8.0
 40
9.0
 40
9.0
 40
9.0
 40
10.0
 40
10.0
 40
10.0
 40
11.0
 40
11.0
 40
11.0
 40
12.0
 40
12.0
 40
12.0
 40
13.0
 40
13.0
 40
13.0
 40
14.0
 40
14.0
 40
14.0
 40
15.0
 40
15.0
 40
15.0
 40
16.0
 40
16.0
 40
16.0
 40
17.0
 40
17.0
 40
17.0
 40
18.0
 40
18.0
 40
18.0
 40
19.0
 40
19.0
 40
19.0
 40
20.0
 40
20.0
 40
20.0
 40
21.0
 40
21.0
 40
21.0
 40
22.0
 40
22.0
 40
22.0
 40
23.0
 40
23.0
 40
23.0
 40
24.0
 40
24.0
 40
24.0
 40
25.0
 40
25.0
 40
25.0
 40
26.0
 40
26.0
 40
26.0
 40
27.0
 40
27.0
 40
27.0
 40
28.0
 40
28.0
 40
28.0
 40
29.0
 40
29.0
 40
29.0
 40
30.0
 40
30.0
 40
30.0
 40
31.0
 40
31.0
 40
31.0
 40
32.0
 40
32.0
 40
32.0
 40
33.0
 40
33.0
 40
33.0
 40
34.0
 40
34.0
 40
34.0
 40
35.0
 40
35.0
 40
35.0
 40
36.0
 40
36.0
 40
36.0
 40
37.0
 40
37.0
 40
37.0
 40
38.0
 40
38.0
 40
38.0
 40
39.0
 40
39.0
 40
39.0
 40
40.0
 40
40.0
 40
40.0
 40
41.0
 40
41.0
 40
41.0
 40
42.0
 40
42.0
 40
42.0
 40
43.0
 40
43.0
 40
43.0
 40
44.0
 40
44.0
 40
44.0
 40
45.0
 40
45.0
 40
45.0
 40
46.0
 40
46.0
 40
46.0
 40
47.0
 40
47.0
 40
47.0
 40
48.0
 40
48.0
 40
48.0
 40
49.0
 40
49.0
 40
49.0
 40
50.0
 40
50.0
 40
50.0
 40
51.0
 40
51.0
 40
51.0
 40
52.0
 40
52.0
 40
52.0
 40
53.0
 40
53.0
 40
53.0
 40
54.0
 40
54.0
 40
54.0
 40
55.0
 40
55.0
 40
55.0
 40
56.0
 40
56.0
 40
56.0
 40
57.0
 40
57.0
 40
57.0
 40
58.0
 40
58.0
 40
58.0
 40
59.0
 40
59.0
 40
59.0
 40
60.0
 40
60.0
 40
60.0
 40
61.0
 40
61.0
 40
61.0
 40
62.0
 40
62.0
 40
62.0
 40
63.0
 40
63.0
 40
63.0
 40
64.0
 40
64.0
 40
64.0
 40
65.0
 40
65.0
 40
65.0
 40
66.0
 40
66.0
 40
66.0
 40
66.0
 10
106.6932291399933
 20
-148.9662732917515
 30
0.0
 10
106.6932291399933
 20
-148.9662732917515
 30
0.0
 10
106.1347791618343
 20
-148.9662732917515
 30
0.0
 10
106.1347791618343
 20
-148.9662732917515
 30
0.0
 10
106.1240993658301
 20
-149.0107150235112
 30
0.0
 10
106.1154866271169
 20
-149.0424099019755
 30
0.0
 10
106.10308428337
 20
-149.0806504618618
 30
0.0
 10
106.1282334804124
 20
-149.0806504618618
 30
0.0
 10
106.1430473909989
 20
-149.0827175191529
 30
0.0
 10
106.1495930724209
 20
-149.0827175191529
 30
0.0
 10
106.1495930724209
 20
-149.0827175191529
 30
0.0
 10
106.3376952859156
 20
-149.0827175191529
 30
0.0
 10
106.3376952859156
 20
-149.0827175191529
 30
0.0
 10
106.3376952859156
 20
-149.0827175191529
 30
0.0
 10
106.7121771651622
 20
-149.0827175191529
 30
0.0
 10
106.7121771651622
 20
-149.0827175191529
 30
0.0
 10
106.7628200687954
 20
-149.0827175191529
 30
0.0
 10
107.0463514272314
 20
-149.0699706658575
 30
0.0
 10
107.0780463056957
 20
-149.0699706658575
 30
0.0
 10
107.0759792484046
 20
-149.0975314297395
 30
0.0
 10
107.0739121911134
 20
-149.1164794549083
 30
0.0
 10
107.0739121911134
 20
-149.1461072760815
 30
0.0
 10
107.0718451338223
 20
-149.1778021545458
 30
0.0
 10
107.0718451338223
 20
-149.3131944071161
 30
0.0
 10
107.0718451338223
 20
-149.3407551709981
 30
0.0
 10
107.0718451338223
 20
-149.3407551709981
 30
0.0
 10
107.0718451338223
 20
-149.5860459695479
 30
0.0
 10
107.0718451338223
 20
-149.5860459695479
 30
0.0
 10
107.0718451338223
 20
-149.6304877013076
 30
0.0
 10
107.0759792484046
 20
-149.8272026535154
 30
0.0
 10
107.0804578725354
 20
-149.9794758739635
 30
0.0
 10
107.0804578725354
 20
-149.9794758739635
 30
0.0
 10
106.853770589606
 20
-149.9794758739635
 30
0.0
 10
106.853770589606
 20
-149.9794758739635
 30
0.0
 10
106.853770589606
 20
-149.9794758739635
 30
0.0
 10
106.8561821564457
 20
-149.945713938208
 30
0.0
 10
106.8561821564457
 20
-149.945713938208
 30
0.0
 10
106.8561821564457
 20
-149.945713938208
 30
0.0
 10
106.1537271870032
 20
-149.945713938208
 30
0.0
 10
106.1537271870032
 20
-149.945713938208
 30
0.0
 10
106.1537271870032
 20
-149.945713938208
 30
0.0
 10
106.1557942442943
 20
-149.9794758739635
 30
0.0
 10
106.1557942442943
 20
-149.9794758739635
 30
0.0
 10
106.1557942442943
 20
-149.9794758739635
 30
0.0
 10
105.9380642096266
 20
-149.9794758739635
 30
0.0
 10
105.9380642096266
 20
-149.9794758739635
 30
0.0
 10
105.9421983242089
 20
-149.924698855748
 30
0.0
 10
105.9421983242089
 20
-149.9119520024525
 30
0.0
 10
105.9483994960823
 20
-149.7975748323423
 30
0.0
 10
105.9504665533735
 20
-149.7700140684603
 30
0.0
 10
105.9528781202131
 20
-149.6370333827296
 30
0.0
 10
105.9528781202131
 20
-149.6177408480122
 30
0.0
 10
105.9528781202131
 20
-149.6177408480122
 30
0.0
 10
105.9528781202131
 20
-149.414824723931
 30
0.0
 10
105.9528781202131
 20
-149.414824723931
 30
0.0
 10
105.813007243512
 20
-149.6642496370631
 30
0.0
 10
105.6438530551862
 20
-149.7955077750511
 30
0.0
 10
105.5380886237891
 20
-149.8609645892708
 30
0.0
 10
105.5380886237891
 20
-149.8609645892708
 30
0.0
 10
105.3644558113325
 20
-149.7214382221182
 30
0.0
 10
105.3644558113325
 20
-149.7214382221182
 30
0.0
 10
105.4533392748519
 20
-149.6707953184851
 30
0.0
 10
105.5973442661354
 20
-149.5839789122568
 30
0.0
 10
105.7348035759968
 20
-149.3893310173401
 30
0.0
 10
105.8257540968074
 20
-149.262551503483
 30
0.0
 10
105.8915554205757
 20
-149.1185465121995
 30
0.0
 10
105.9253173563311
 20
-148.9662732917515
 30
0.0
 10
105.6969075256591
 20
-148.9683403490426
 30
0.0
 10
105.517073541329
 20
-148.9748860304646
 30
0.0
 10
105.4216443963876
 20
-148.9769530877557
 30
0.0
 10
105.4216443963876
 20
-148.9769530877557
 30
0.0
 10
105.4216443963876
 20
-148.7990139059426
 30
0.0
 10
105.4216443963876
 20
-148.7990139059426
 30
0.0
 10
105.6183593485954
 20
-148.8053873325903
 30
0.0
 10
105.9018907070314
 20
-148.8096937019468
 30
0.0
 10
106.0520968701883
 20
-148.8096937019468
 30
0.0
 10
106.0520968701883
 20
-148.8096937019468
 30
0.0
 10
106.2656927902738
 20
-148.8096937019468
 30
0.0
 10
106.2656927902738
 20
-148.8096937019468
 30
0.0
 10
106.2656927902738
 20
-148.8096937019468
 30
0.0
 10
106.2656927902738
 20
-148.7016899584843
 30
0.0
 10
106.2656927902738
 20
-148.7016899584843
 30
0.0
 10
106.2656927902738
 20
-148.7016899584843
 30
0.0
 10
106.1199652512478
 20
-148.7016899584843
 30
0.0
 10
106.1199652512478
 20
-148.7016899584843
 30
0.0
 10
105.9504665533735
 20
-148.7016899584843
 30
0.0
 10
105.7813123650477
 20
-148.7059963278408
 30
0.0
 10
105.6142252340131
 20
-148.7123697544886
 30
0.0
 10
105.6142252340131
 20
-148.7123697544886
 30
0.0
 10
105.6142252340131
 20
-148.5409762540974
 30
0.0
 10
105.6142252340131
 20
-148.5409762540974
 30
0.0
 10
105.7685655117523
 20
-148.5514837953274
 30
0.0
 10
105.9549451775043
 20
-148.5514837953274
 30
0.0
 10
106.1199652512478
 20
-148.5514837953274
 30
0.0
 10
106.1199652512478
 20
-148.5514837953274
 30
0.0
 10
106.2656927902738
 20
-148.5514837953274
 30
0.0
 10
106.2656927902738
 20
-148.5514837953274
 30
0.0
 10
106.2656927902738
 20
-148.5514837953274
 30
0.0
 10
106.2656927902738
 20
-148.433144765409
 30
0.0
 10
106.2656927902738
 20
-148.433144765409
 30
0.0
 10
106.2656927902738
 20
-148.433144765409
 30
0.0
 10
106.1347791618343
 20
-148.433144765409
 30
0.0
 10
106.1347791618343
 20
-148.433144765409
 30
0.0
 10
106.0882703727835
 20
-148.433144765409
 30
0.0
 10
105.8850097391537
 20
-148.4415852493479
 30
0.0
 10
105.8426350646852
 20
-148.4415852493479
 30
0.0
 10
105.6397189406039
 20
-148.4457193639302
 30
0.0
 10
105.5635823303799
 20
-148.4477864212214
 30
0.0
 10
105.4853786628648
 20
-148.4500257332868
 30
0.0
 10
105.4853786628648
 20
-148.4500257332868
 30
0.0
 10
105.4853786628648
 20
-148.2658853796002
 30
0.0
 10
105.4853786628648
 20
-148.2658853796002
 30
0.0
 10
105.5994113234265
 20
-148.2743258635391
 30
0.0
 10
105.6438530551862
 20
-148.2743258635391
 30
0.0
 10
106.026947673146
 20
-148.2829386022522
 30
0.0
 10
105.9632134066689
 20
-148.187681712085
 30
0.0
 10
105.9356526427869
 20
-148.160120948203
 30
0.0
 10
105.8998236497403
 20
-148.1241197003821
 30
0.0
 10
105.8998236497403
 20
-148.1241197003821
 30
0.0
 10
106.0755235194881
 20
-148.0416096635104
 30
0.0
 10
106.0755235194881
 20
-148.0416096635104
 30
0.0
 10
106.1154866271169
 20
-148.0776109113313
 30
0.0
 10
106.1599283588767
 20
-148.1199855857998
 30
0.0
 10
106.2339979118095
 20
-148.2298841317793
 30
0.0
 10
106.2339979118095
 20
-148.2298841317793
 30
0.0
 10
106.1199652512478
 20
-148.2850056595433
 30
0.0
 10
106.1199652512478
 20
-148.2850056595433
 30
0.0
 10
106.1199652512478
 20
-148.2850056595433
 30
0.0
 10
106.1303005377035
 20
-148.2850056595433
 30
0.0
 10
106.1303005377035
 20
-148.2850056595433
 30
0.0
 10
106.1303005377035
 20
-148.2850056595433
 30
0.0
 10
106.6529215228159
 20
-148.2850056595433
 30
0.0
 10
106.6529215228159
 20
-148.2850056595433
 30
0.0
 10
106.6529215228159
 20
-148.2850056595433
 30
0.0
 10
106.557836887423
 20
-148.2405639277836
 30
0.0
 10
106.557836887423
 20
-148.2405639277836
 30
0.0
 10
106.585397651305
 20
-148.2024956226716
 30
0.0
 10
106.6422417268116
 20
-148.122052643091
 30
0.0
 10
106.6570556373982
 20
-148.0479830901581
 30
0.0
 10
106.6570556373982
 20
-148.0479830901581
 30
0.0
 10
106.8709960670322
 20
-148.111545101861
 30
0.0
 10
106.8709960670322
 20
-148.111545101861
 30
0.0
 10
106.8792642961968
 20
-148.1136121591521
 30
0.0
 10
106.9006238882054
 20
-148.1241197003821
 30
0.0
 10
106.9006238882054
 20
-148.1453070376164
 30
0.0
 10
106.9006238882054
 20
-148.1833753427284
 30
0.0
 10
106.8348225644371
 20
-148.1833753427284
 30
0.0
 10
106.8158745392682
 20
-148.1833753427284
 30
0.0
 10
106.8051947432639
 20
-148.2024956226716
 30
0.0
 10
106.7821126035128
 20
-148.2426309850747
 30
0.0
 10
106.7524847823396
 20
-148.2829386022522
 30
0.0
 10
107.1521158586286
 20
-148.2765651756045
 30
0.0
 10
107.1817436798018
 20
-148.2743258635391
 30
0.0
 10
107.2578802900258
 20
-148.2681246916656
 30
0.0
 10
107.2578802900258
 20
-148.2681246916656
 30
0.0
 10
107.2578802900258
 20
-148.4500257332868
 30
0.0
 10
107.2578802900258
 20
-148.4500257332868
 30
0.0
 10
107.2389322648569
 20
-148.4500257332868
 30
0.0
 10
107.2134385582661
 20
-148.4477864212214
 30
0.0
 10
106.9936414663071
 20
-148.4393459372825
 30
0.0
 10
106.9426540531254
 20
-148.4372788799913
 30
0.0
 10
106.7228569611665
 20
-148.433144765409
 30
0.0
 10
106.6784152294068
 20
-148.433144765409
 30
0.0
 10
106.6784152294068
 20
-148.433144765409
 30
0.0
 10
106.4624077424816
 20
-148.433144765409
 30
0.0
 10
106.4624077424816
 20
-148.433144765409
 30
0.0
 10
106.4624077424816
 20
-148.433144765409
 30
0.0
 10
106.4624077424816
 20
-148.5514837953274
 30
0.0
 10
106.4624077424816
 20
-148.5514837953274
 30
0.0
 10
106.4624077424816
 20
-148.5514837953274
 30
0.0
 10
106.6360405549382
 20
-148.5514837953274
 30
0.0
 10
106.6360405549382
 20
-148.5514837953274
 30
0.0
 10
106.7989935713905
 20
-148.5514837953274
 30
0.0
 10
106.9891628421763
 20
-148.5514837953274
 30
0.0
 10
107.1459146867552
 20
-148.5409762540974
 30
0.0
 10
107.1459146867552
 20
-148.5409762540974
 30
0.0
 10
107.1459146867552
 20
-148.7123697544886
 30
0.0
 10
107.1459146867552
 20
-148.7123697544886
 30
0.0
 10
106.936452881252
 20
-148.7039292705497
 30
0.0
 10
106.7397379290442
 20
-148.7016899584843
 30
0.0
 10
106.6360405549382
 20
-148.7016899584843
 30
0.0
 10
106.6360405549382
 20
-148.7016899584843
 30
0.0
 10
106.4624077424816
 20
-148.7016899584843
 30
0.0
 10
106.4624077424816
 20
-148.7016899584843
 30
0.0
 10
106.4624077424816
 20
-148.7016899584843
 30
0.0
 10
106.4624077424816
 20
-148.8096937019468
 30
0.0
 10
106.4624077424816
 20
-148.8096937019468
 30
0.0
 10
106.4624077424816
 20
-148.8096937019468
 30
0.0
 10
106.6932291399933
 20
-148.8096937019468
 30
0.0
 10
106.6932291399933
 20
-148.8096937019468
 30
0.0
 10
106.8265543352725
 20
-148.8096937019468
 30
0.0
 10
107.1142198082909
 20
-148.8053873325903
 30
0.0
 10
107.3236816137941
 20
-148.7990139059426
 30
0.0
 10
107.3236816137941
 20
-148.7990139059426
 30
0.0
 10
107.3236816137941
 20
-148.9769530877557
 30
0.0
 10
107.3236816137941
 20
-148.9769530877557
 30
0.0
 10
107.1311007761686
 20
-148.9704074063338
 30
0.0
 10
106.8179415965594
 20
-148.9662732917515
 30
0.0
 10
106.6932291399933
 20
-148.9662732917515
 30
0.0
  0
HATCH
  5
FA
330
EE
100
AcDbEntity
  8
レイヤー 1
 62
    18
420
        0
440
 33554687
100
AcDbHatch
 10
0.0
 20
0.0
 30
0.0
210
0.0
220
0.0
230
1.0
  2
SOLID
 70
     1
 71
     1
 91
        4
 92
        1
 93
        1
 72
     4
 94
        3
 73
     0
 74
     0
 95
       17
 96
       13
 40
0.0
 40
0.0
 40
0.0
 40
0.0
 40
1.0
 40
1.0
 40
1.0
 40
2.0
 40
2.0
 40
2.0
 40
3.0
 40
3.0
 40
3.0
 40
4.0
 40
4.0
 40
4.0
 40
4.0
 10
106.8582492137368
 20
-149.6983560823671
 10
106.8582492137368
 20
-149.6983560823671
 10
106.1516601297121
 20
-149.6983560823671
 10
106.1516601297121
 20
-149.6983560823671
 10
106.1516601297121
 20
-149.6983560823671
 10
106.1516601297121
 20
-149.8123887429288
 10
106.1516601297121
 20
-149.8123887429288
 10
106.1516601297121
 20
-149.8123887429288
 10
106.8582492137368
 20
-149.8123887429288
 10
106.8582492137368
 20
-149.8123887429288
 10
106.8582492137368
 20
-149.8123887429288
 10
106.8582492137368
 20
-149.6983560823671
 10
106.8582492137368
 20
-149.6983560823671
 97
        0
 97
        1
330
F6
 92
        1
 93
        1
 72
     4
 94
        3
 73
     0
 74
     0
 95
       17
 96
       13
 40
0.0
 40
0.0
 40
0.0
 40
0.0
 40
1.0
 40
1.0
 40
1.0
 40
2.0
 40
2.0
 40
2.0
 40
3.0
 40
3.0
 40
3.0
 40
4.0
 40
4.0
 40
4.0
 40
4.0
 10
106.8582492137368
 20
-149.4547878315599
 10
106.8582492137368
 20
-149.4547878315599
 10
106.1516601297121
 20
-149.4547878315599
 10
106.1516601297121
 20
-149.4547878315599
 10
106.1516601297121
 20
-149.4547878315599
 10
106.1516601297121
 20
-149.5691650016702
 10
106.1516601297121
 20
-149.5691650016702
 10
106.1516601297121
 20
-149.5691650016702
 10
106.8582492137368
 20
-149.5691650016702
 10
106.8582492137368
 20
-149.5691650016702
 10
106.8582492137368
 20
-149.5691650016702
 10
106.8582492137368
 20
-149.4547878315599
 10
106.8582492137368
 20
-149.4547878315599
 97
        0
 97
        1
330
F7
 92
        1
 93
        1
 72
     4
 94
        3
 73
     0
 74
     0
 95
       17
 96
       13
 40
0.0
 40
0.0
 40
0.0
 40
0.0
 40
1.0
 40
1.0
 40
1.0
 40
2.0
 40
2.0
 40
2.0
 40
3.0
 40
3.0
 40
3.0
 40
4.0
 40
4.0
 40
4.0
 40
4.0
 10
106.8582492137368
 20
-149.2222438863055
 10
106.8582492137368
 20
-149.2222438863055
 10
106.1516601297121
 20
-149.2222438863055
 10
106.1516601297121
 20
-149.2222438863055
 10
106.1516601297121
 20
-149.2222438863055
 10
106.1516601297121
 20
-149.3300753749938
 10
106.1516601297121
 20
-149.3300753749938
 10
106.1516601297121
 20
-149.3300753749938
 10
106.8582492137368
 20
-149.3300753749938
 10
106.8582492137368
 20
-149.3300753749938
 10
106.8582492137368
 20
-149.3300753749938
 10
106.8582492137368
 20
-149.2222438863055
 10
106.8582492137368
 20
-149.2222438863055
 97
        0
 97
        1
330
F8
 92
        1
 93
        1
 72
     4
 94
        3
 73
     0
 74
     0
 95
      203
 96
      199
 40
0.0
 40
0.0
 40
0.0
 40
0.0
 40
1.0
 40
1.0
 40
1.0
 40
2.0
 40
2.0
 40
2.0
 40
3.0
 40
3.0
 40
3.0
 40
4.0
 40
4.0
 40
4.0
 40
5.0
 40
5.0
 40
5.0
 40
6.0
 40
6.0
 40
6.0
 40
7.0
 40
7.0
 40
7.0
 40
8.0
 40
8.0
 40
8.0
 40
9.0
 40
9.0
 40
9.0
 40
10.0
 40
10.0
 40
10.0
 40
11.0
 40
11.0
 40
11.0
 40
12.0
 40
12.0
 40
12.0
 40
13.0
 40
13.0
 40
13.0
 40
14.0
 40
14.0
 40
14.0
 40
15.0
 40
15.0
 40
15.0
 40
16.0
 40
16.0
 40
16.0
 40
17.0
 40
17.0
 40
17.0
 40
18.0
 40
18.0
 40
18.0
 40
19.0
 40
19.0
 40
19.0
 40
20.0
 40
20.0
 40
20.0
 40
21.0
 40
21.0
 40
21.0
 40
22.0
 40
22.0
 40
22.0
 40
23.0
 40
23.0
 40
23.0
 40
24.0
 40
24.0
 40
24.0
 40
25.0
 40
25.0
 40
25.0
 40
26.0
 40
26.0
 40
26.0
 40
27.0
 40
27.0
 40
27.0
 40
28.0
 40
28.0
 40
28.0
 40
29.0
 40
29.0
 40
29.0
 40
30.0
 40
30.0
 40
30.0
 40
31.0
 40
31.0
 40
31.0
 40
32.0
 40
32.0
 40
32.0
 40
33.0
 40
33.0
 40
33.0
 40
34.0
 40
34.0
 40
34.0
 40
35.0
 40
35.0
 40
35.0
 40
36.0
 40
36.0
 40
36.0
 40
37.0
 40
37.0
 40
37.0
 40
38.0
 40
38.0
 40
38.0
 40
39.0
 40
39.0
 40
39.0
 40
40.0
 40
40.0
 40
40.0
 40
41.0
 40
41.0
 40
41.0
 40
42.0
 40
42.0
 40
42.0
 40
43.0
 40
43.0
 40
43.0
 40
44.0
 40
44.0
 40
44.0
 40
45.0
 40
45.0
 40
45.0
 40
46.0
 40
46.0
 40
46.0
 40
47.0
 40
47.0
 40
47.0
 40
48.0
 40
48.0
 40
48.0
 40
49.0
 40
49.0
 40
49.0
 40
50.0
 40
50.0
 40
50.0
 40
51.0
 40
51.0
 40
51.0
 40
52.0
 40
52.0
 40
52.0
 40
53.0
 40
53.0
 40
53.0
 40
54.0
 40
54.0
 40
54.0
 40
55.0
 40
55.0
 40
55.0
 40
56.0
 40
56.0
 40
56.0
 40
57.0
 40
57.0
 40
57.0
 40
58.0
 40
58.0
 40
58.0
 40
59.0
 40
59.0
 40
59.0
 40
60.0
 40
60.0
 40
60.0
 40
61.0
 40
61.0
 40
61.0
 40
62.0
 40
62.0
 40
62.0
 40
63.0
 40
63.0
 40
63.0
 40
64.0
 40
64.0
 40
64.0
 40
65.0
 40
65.0
 40
65.0
 40
66.0
 40
66.0
 40
66.0
 40
66.0
 10
106.6932291399933
 20
-148.9662732917515
 10
106.6932291399933
 20
-148.9662732917515
 10
106.1347791618343
 20
-148.9662732917515
 10
106.1347791618343
 20
-148.9662732917515
 10
106.1240993658301
 20
-149.0107150235112
 10
106.1154866271169
 20
-149.0424099019755
 10
106.10308428337
 20
-149.0806504618618
 10
106.1282334804124
 20
-149.0806504618618
 10
106.1430473909989
 20
-149.0827175191529
 10
106.1495930724209
 20
-149.0827175191529
 10
106.1495930724209
 20
-149.0827175191529
 10
106.3376952859156
 20
-149.0827175191529
 10
106.3376952859156
 20
-149.0827175191529
 10
106.3376952859156
 20
-149.0827175191529
 10
106.7121771651622
 20
-149.0827175191529
 10
106.7121771651622
 20
-149.0827175191529
 10
106.7628200687954
 20
-149.0827175191529
 10
107.0463514272314
 20
-149.0699706658575
 10
107.0780463056957
 20
-149.0699706658575
 10
107.0759792484046
 20
-149.0975314297395
 10
107.0739121911134
 20
-149.1164794549083
 10
107.0739121911134
 20
-149.1461072760815
 10
107.0718451338223
 20
-149.1778021545458
 10
107.0718451338223
 20
-149.3131944071161
 10
107.0718451338223
 20
-149.3407551709981
 10
107.0718451338223
 20
-149.3407551709981
 10
107.0718451338223
 20
-149.5860459695479
 10
107.0718451338223
 20
-149.5860459695479
 10
107.0718451338223
 20
-149.6304877013076
 10
107.0759792484046
 20
-149.8272026535154
 10
107.0804578725354
 20
-149.9794758739635
 10
107.0804578725354
 20
-149.9794758739635
 10
106.853770589606
 20
-149.9794758739635
 10
106.853770589606
 20
-149.9794758739635
 10
106.853770589606
 20
-149.9794758739635
 10
106.8561821564457
 20
-149.945713938208
 10
106.8561821564457
 20
-149.945713938208
 10
106.8561821564457
 20
-149.945713938208
 10
106.1537271870032
 20
-149.945713938208
 10
106.1537271870032
 20
-149.945713938208
 10
106.1537271870032
 20
-149.945713938208
 10
106.1557942442943
 20
-149.9794758739635
 10
106.1557942442943
 20
-149.9794758739635
 10
106.1557942442943
 20
-149.9794758739635
 10
105.9380642096266
 20
-149.9794758739635
 10
105.9380642096266
 20
-149.9794758739635
 10
105.9421983242089
 20
-149.924698855748
 10
105.9421983242089
 20
-149.9119520024525
 10
105.9483994960823
 20
-149.7975748323423
 10
105.9504665533735
 20
-149.7700140684603
 10
105.9528781202131
 20
-149.6370333827296
 10
105.9528781202131
 20
-149.6177408480122
 10
105.9528781202131
 20
-149.6177408480122
 10
105.9528781202131
 20
-149.414824723931
 10
105.9528781202131
 20
-149.414824723931
 10
105.813007243512
 20
-149.6642496370631
 10
105.6438530551862
 20
-149.7955077750511
 10
105.5380886237891
 20
-149.8609645892708
 10
105.5380886237891
 20
-149.8609645892708
 10
105.3644558113325
 20
-149.7214382221182
 10
105.3644558113325
 20
-149.7214382221182
 10
105.4533392748519
 20
-149.6707953184851
 10
105.5973442661354
 20
-149.5839789122568
 10
105.7348035759968
 20
-149.3893310173401
 10
105.8257540968074
 20
-149.262551503483
 10
105.8915554205757
 20
-149.1185465121995
 10
105.9253173563311
 20
-148.9662732917515
 10
105.6969075256591
 20
-148.9683403490426
 10
105.517073541329
 20
-148.9748860304646
 10
105.4216443963876
 20
-148.9769530877557
 10
105.4216443963876
 20
-148.9769530877557
 10
105.4216443963876
 20
-148.7990139059426
 10
105.4216443963876
 20
-148.7990139059426
 10
105.6183593485954
 20
-148.8053873325903
 10
105.9018907070314
 20
-148.8096937019468
 10
106.0520968701883
 20
-148.8096937019468
 10
106.0520968701883
 20
-148.8096937019468
 10
106.2656927902738
 20
-148.8096937019468
 10
106.2656927902738
 20
-148.8096937019468
 10
106.2656927902738
 20
-148.8096937019468
 10
106.2656927902738
 20
-148.7016899584843
 10
106.2656927902738
 20
-148.7016899584843
 10
106.2656927902738
 20
-148.7016899584843
 10
106.1199652512478
 20
-148.7016899584843
 10
106.1199652512478
 20
-148.7016899584843
 10
105.9504665533735
 20
-148.7016899584843
 10
105.7813123650477
 20
-148.7059963278408
 10
105.6142252340131
 20
-148.7123697544886
 10
105.6142252340131
 20
-148.7123697544886
 10
105.6142252340131
 20
-148.5409762540974
 10
105.6142252340131
 20
-148.5409762540974
 10
105.7685655117523
 20
-148.5514837953274
 10
105.9549451775043
 20
-148.5514837953274
 10
106.1199652512478
 20
-148.5514837953274
 10
106.1199652512478
 20
-148.5514837953274
 10
106.2656927902738
 20
-148.5514837953274
 10
106.2656927902738
 20
-148.5514837953274
 10
106.2656927902738
 20
-148.5514837953274
 10
106.2656927902738
 20
-148.433144765409
 10
106.2656927902738
 20
-148.433144765409
 10
106.2656927902738
 20
-148.433144765409
 10
106.1347791618343
 20
-148.433144765409
 10
106.1347791618343
 20
-148.433144765409
 10
106.0882703727835
 20
-148.433144765409
 10
105.8850097391537
 20
-148.4415852493479
 10
105.8426350646852
 20
-148.4415852493479
 10
105.6397189406039
 20
-148.4457193639302
 10
105.5635823303799
 20
-148.4477864212214
 10
105.4853786628648
 20
-148.4500257332868
 10
105.4853786628648
 20
-148.4500257332868
 10
105.4853786628648
 20
-148.2658853796002
 10
105.4853786628648
 20
-148.2658853796002
 10
105.5994113234265
 20
-148.2743258635391
 10
105.6438530551862
 20
-148.2743258635391
 10
106.026947673146
 20
-148.2829386022522
 10
105.9632134066689
 20
-148.187681712085
 10
105.9356526427869
 20
-148.160120948203
 10
105.8998236497403
 20
-148.1241197003821
 10
105.8998236497403
 20
-148.1241197003821
 10
106.0755235194881
 20
-148.0416096635104
 10
106.0755235194881
 20
-148.0416096635104
 10
106.1154866271169
 20
-148.0776109113313
 10
106.1599283588767
 20
-148.1199855857998
 10
106.2339979118095
 20
-148.2298841317793
 10
106.2339979118095
 20
-148.2298841317793
 10
106.1199652512478
 20
-148.2850056595433
 10
106.1199652512478
 20
-148.2850056595433
 10
106.1199652512478
 20
-148.2850056595433
 10
106.1303005377035
 20
-148.2850056595433
 10
106.1303005377035
 20
-148.2850056595433
 10
106.1303005377035
 20
-148.2850056595433
 10
106.6529215228159
 20
-148.2850056595433
 10
106.6529215228159
 20
-148.2850056595433
 10
106.6529215228159
 20
-148.2850056595433
 10
106.557836887423
 20
-148.2405639277836
 10
106.557836887423
 20
-148.2405639277836
 10
106.585397651305
 20
-148.2024956226716
 10
106.6422417268116
 20
-148.122052643091
 10
106.6570556373982
 20
-148.0479830901581
 10
106.6570556373982
 20
-148.0479830901581
 10
106.8709960670322
 20
-148.111545101861
 10
106.8709960670322
 20
-148.111545101861
 10
106.8792642961968
 20
-148.1136121591521
 10
106.9006238882054
 20
-148.1241197003821
 10
106.9006238882054
 20
-148.1453070376164
 10
106.9006238882054
 20
-148.1833753427284
 10
106.8348225644371
 20
-148.1833753427284
 10
106.8158745392682
 20
-148.1833753427284
 10
106.8051947432639
 20
-148.2024956226716
 10
106.7821126035128
 20
-148.2426309850747
 10
106.7524847823396
 20
-148.2829386022522
 10
107.1521158586286
 20
-148.2765651756045
 10
107.1817436798018
 20
-148.2743258635391
 10
107.2578802900258
 20
-148.2681246916656
 10
107.2578802900258
 20
-148.2681246916656
 10
107.2578802900258
 20
-148.4500257332868
 10
107.2578802900258
 20
-148.4500257332868
 10
107.2389322648569
 20
-148.4500257332868
 10
107.2134385582661
 20
-148.4477864212214
 10
106.9936414663071
 20
-148.4393459372825
 10
106.9426540531254
 20
-148.4372788799913
 10
106.7228569611665
 20
-148.433144765409
 10
106.6784152294068
 20
-148.433144765409
 10
106.6784152294068
 20
-148.433144765409
 10
106.4624077424816
 20
-148.433144765409
 10
106.4624077424816
 20
-148.433144765409
 10
106.4624077424816
 20
-148.433144765409
 10
106.4624077424816
 20
-148.5514837953274
 10
106.4624077424816
 20
-148.5514837953274
 10
106.4624077424816
 20
-148.5514837953274
 10
106.6360405549382
 20
-148.5514837953274
 10
106.6360405549382
 20
-148.5514837953274
 10
106.7989935713905
 20
-148.5514837953274
 10
106.9891628421763
 20
-148.5514837953274
 10
107.1459146867552
 20
-148.5409762540974
 10
107.1459146867552
 20
-148.5409762540974
 10
107.1459146867552
 20
-148.7123697544886
 10
107.1459146867552
 20
-148.7123697544886
 10
106.936452881252
 20
-148.7039292705497
 10
106.7397379290442
 20
-148.7016899584843
 10
106.6360405549382
 20
-148.7016899584843
 10
106.6360405549382
 20
-148.7016899584843
 10
106.4624077424816
 20
-148.7016899584843
 10
106.4624077424816
 20
-148.7016899584843
 10
106.4624077424816
 20
-148.7016899584843
 10
106.4624077424816
 20
-148.8096937019468
 10
106.4624077424816
 20
-148.8096937019468
 10
106.4624077424816
 20
-148.8096937019468
 10
106.6932291399933
 20
-148.8096937019468
 10
106.6932291399933
 20
-148.8096937019468
 10
106.8265543352725
 20
-148.8096937019468
 10
107.1142198082909
 20
-148.8053873325903
 10
107.3236816137941
 20
-148.7990139059426
 10
107.3236816137941
 20
-148.7990139059426
 10
107.3236816137941
 20
-148.9769530877557
 10
107.3236816137941
 20
-148.9769530877557
 10
107.1311007761686
 20
-148.9704074063338
 10
106.8179415965594
 20
-148.9662732917515
 10
106.6932291399933
 20
-148.9662732917515
 97
        0
 97
        1
330
F9
 75
     2
 76
     1
 98
        1
 10
0.0
 20
0.0
450
        0
451
        0
460
0.0
461
0.0
452
        0
462
0.0
453
        0
470

  0
SPLINE
  5
FB
330
EE
100
AcDbEntity
  8
レイヤー 1
100
AcDbSpline
210
0.0
220
0.0
230
1.0
 70
     9
 71
     3
 72
    29
 73
    25
 74
     0
 42
0.0000000001
 43
0.0000000001
 40
0.0
 40
0.0
 40
0.0
 40
0.0
 40
1.0
 40
1.0
 40
1.0
 40
2.0
 40
2.0
 40
2.0
 40
3.0
 40
3.0
 40
3.0
 40
4.0
 40
4.0
 40
4.0
 40
5.0
 40
5.0
 40
5.0
 40
6.0
 40
6.0
 40
6.0
 40
7.0
 40
7.0
 40
7.0
 40
8.0
 40
8.0
 40
8.0
 40
8.0
 10
108.5687391221634
 20
-148.4140244854659
 30
0.0
 10
108.5687391221634
 20
-148.4140244854659
 30
0.0
 10
108.2152723253767
 20
-148.4140244854659
 30
0.0
 10
108.2152723253767
 20
-148.4140244854659
 30
0.0
 10
108.1033067221061
 20
-148.4140244854659
 30
0.0
 10
107.9637803549535
 20
-148.4203979121136
 30
0.0
 10
107.8556043567166
 20
-148.433144765409
 30
0.0
 10
107.8556043567166
 20
-148.433144765409
 30
0.0
 10
107.8556043567166
 20
-148.198189253315
 30
0.0
 10
107.8556043567166
 20
-148.198189253315
 30
0.0
 10
107.9741156414092
 20
-148.2130031639016
 30
0.0
 10
108.1580837403216
 20
-148.2173095332582
 30
0.0
 10
108.2152723253767
 20
-148.2173095332582
 30
0.0
 10
108.2152723253767
 20
-148.2173095332582
 30
0.0
 10
108.5687391221634
 20
-148.2173095332582
 30
0.0
 10
108.5687391221634
 20
-148.2173095332582
 30
0.0
 10
108.5876871473322
 20
-148.2173095332582
 30
0.0
 10
108.790947780962
 20
-148.2173095332582
 30
0.0
 10
108.9325412054057
 20
-148.198189253315
 30
0.0
 10
108.9325412054057
 20
-148.198189253315
 30
0.0
 10
108.9325412054057
 20
-148.433144765409
 30
0.0
 10
108.9325412054057
 20
-148.433144765409
 30
0.0
 10
108.7761338703754
 20
-148.4140244854659
 30
0.0
 10
108.5856200900411
 20
-148.4140244854659
 30
0.0
 10
108.5687391221634
 20
-148.4140244854659
 30
0.0
  0
SPLINE
  5
FC
330
EE
100
AcDbEntity
  8
レイヤー 1
100
AcDbSpline
210
0.0
220
0.0
230
1.0
 70
     9
 71
     3
 72
    47
 73
    43
 74
     0
 42
0.0000000001
 43
0.0000000001
 40
0.0
 40
0.0
 40
0.0
 40
0.0
 40
1.0
 40
1.0
 40
1.0
 40
2.0
 40
2.0
 40
2.0
 40
3.0
 40
3.0
 40
3.0
 40
4.0
 40
4.0
 40
4.0
 40
5.0
 40
5.0
 40
5.0
 40
6.0
 40
6.0
 40
6.0
 40
7.0
 40
7.0
 40
7.0
 40
8.0
 40
8.0
 40
8.0
 40
9.0
 40
9.0
 40
9.0
 40
10.0
 40
10.0
 40
10.0
 40
11.0
 40
11.0
 40
11.0
 40
12.0
 40
12.0
 40
12.0
 40
13.0
 40
13.0
 40
13.0
 40
14.0
 40
14.0
 40
14.0
 40
14.0
 10
108.6700249294297
 20
-148.9428466424518
 30
0.0
 10
108.6700249294297
 20
-148.9428466424518
 30
0.0
 10
108.5687391221634
 20
-148.9428466424518
 30
0.0
 10
108.5687391221634
 20
-148.9428466424518
 30
0.0
 10
108.5687391221634
 20
-149.0296630486801
 30
0.0
 10
108.5473795301548
 20
-149.4189588385133
 30
0.0
 10
108.350664577947
 20
-149.6391004400208
 30
0.0
 10
108.198391357499
 20
-149.8082546283465
 30
0.0
 10
107.990996609287
 20
-149.8781900666971
 30
0.0
 10
107.9065917698983
 20
-149.9054063210306
 30
0.0
 10
107.9065917698983
 20
-149.9054063210306
 30
0.0
 10
107.7119438749817
 20
-149.738319189996
 30
0.0
 10
107.7119438749817
 20
-149.738319189996
 30
0.0
 10
107.8090955676658
 20
-149.7255723367005
 30
0.0
 10
107.9847954374135
 20
-149.7024901969494
 30
0.0
 10
108.1728976509081
 20
-149.5140434739062
 30
0.0
 10
108.246967203841
 20
-149.442385487813
 30
0.0
 10
108.350664577947
 20
-149.3025146111119
 30
0.0
 10
108.350664577947
 20
-148.9428466424518
 30
0.0
 10
108.350664577947
 20
-148.9428466424518
 30
0.0
 10
108.1201876899838
 20
-148.9428466424518
 30
0.0
 10
108.1201876899838
 20
-148.9428466424518
 30
0.0
 10
107.9341525337803
 20
-148.9428466424518
 30
0.0
 10
107.7477728680283
 20
-148.9473252665826
 30
0.0
 10
107.5617377118248
 20
-148.9621391771692
 30
0.0
 10
107.5617377118248
 20
-148.9621391771692
 30
0.0
 10
107.5617377118248
 20
-148.7419975756617
 30
0.0
 10
107.5617377118248
 20
-148.7419975756617
 30
0.0
 10
107.7498399253195
 20
-148.7568114862483
 30
0.0
 10
108.0354383410467
 20
-148.7609456008306
 30
0.0
 10
108.1201876899838
 20
-148.7609456008306
 30
0.0
 10
108.1201876899838
 20
-148.7609456008306
 30
0.0
 10
108.6700249294297
 20
-148.7609456008306
 30
0.0
 10
108.6700249294297
 20
-148.7609456008306
 30
0.0
 10
108.6893174641471
 20
-148.7609456008306
 30
0.0
 10
109.0066107583386
 20
-148.7609456008306
 30
0.0
 10
109.2350205890107
 20
-148.7419975756617
 30
0.0
 10
109.2350205890107
 20
-148.7419975756617
 30
0.0
 10
109.2350205890107
 20
-148.9621391771692
 30
0.0
 10
109.2350205890107
 20
-148.9621391771692
 30
0.0
 10
109.046918375516
 20
-148.9473252665826
 30
0.0
 10
108.8584716524729
 20
-148.9428466424518
 30
0.0
 10
108.6700249294297
 20
-148.9428466424518
 30
0.0
  0
HATCH
  5
FD
330
EE
100
AcDbEntity
  8
レイヤー 1
 62
    18
420
        0
440
 33554687
100
AcDbHatch
 10
0.0
 20
0.0
 30
0.0
210
0.0
220
0.0
230
1.0
  2
SOLID
 70
     1
 71
     1
 91
        2
 92
        1
 93
        1
 72
     4
 94
        3
 73
     0
 74
     0
 95
       29
 96
       25
 40
0.0
 40
0.0
 40
0.0
 40
0.0
 40
1.0
 40
1.0
 40
1.0
 40
2.0
 40
2.0
 40
2.0
 40
3.0
 40
3.0
 40
3.0
 40
4.0
 40
4.0
 40
4.0
 40
5.0
 40
5.0
 40
5.0
 40
6.0
 40
6.0
 40
6.0
 40
7.0
 40
7.0
 40
7.0
 40
8.0
 40
8.0
 40
8.0
 40
8.0
 10
108.5687391221634
 20
-148.4140244854659
 10
108.5687391221634
 20
-148.4140244854659
 10
108.2152723253767
 20
-148.4140244854659
 10
108.2152723253767
 20
-148.4140244854659
 10
108.1033067221061
 20
-148.4140244854659
 10
107.9637803549535
 20
-148.4203979121136
 10
107.8556043567166
 20
-148.433144765409
 10
107.8556043567166
 20
-148.433144765409
 10
107.8556043567166
 20
-148.198189253315
 10
107.8556043567166
 20
-148.198189253315
 10
107.9741156414092
 20
-148.2130031639016
 10
108.1580837403216
 20
-148.2173095332582
 10
108.2152723253767
 20
-148.2173095332582
 10
108.2152723253767
 20
-148.2173095332582
 10
108.5687391221634
 20
-148.2173095332582
 10
108.5687391221634
 20
-148.2173095332582
 10
108.5876871473322
 20
-148.2173095332582
 10
108.790947780962
 20
-148.2173095332582
 10
108.9325412054057
 20
-148.198189253315
 10
108.9325412054057
 20
-148.198189253315
 10
108.9325412054057
 20
-148.433144765409
 10
108.9325412054057
 20
-148.433144765409
 10
108.7761338703754
 20
-148.4140244854659
 10
108.5856200900411
 20
-148.4140244854659
 10
108.5687391221634
 20
-148.4140244854659
 97
        0
 97
        1
330
FB
 92
        1
 93
        1
 72
     4
 94
        3
 73
     0
 74
     0
 95
       47
 96
       43
 40
0.0
 40
0.0
 40
0.0
 40
0.0
 40
1.0
 40
1.0
 40
1.0
 40
2.0
 40
2.0
 40
2.0
 40
3.0
 40
3.0
 40
3.0
 40
4.0
 40
4.0
 40
4.0
 40
5.0
 40
5.0
 40
5.0
 40
6.0
 40
6.0
 40
6.0
 40
7.0
 40
7.0
 40
7.0
 40
8.0
 40
8.0
 40
8.0
 40
9.0
 40
9.0
 40
9.0
 40
10.0
 40
10.0
 40
10.0
 40
11.0
 40
11.0
 40
11.0
 40
12.0
 40
12.0
 40
12.0
 40
13.0
 40
13.0
 40
13.0
 40
14.0
 40
14.0
 40
14.0
 40
14.0
 10
108.6700249294297
 20
-148.9428466424518
 10
108.6700249294297
 20
-148.9428466424518
 10
108.5687391221634
 20
-148.9428466424518
 10
108.5687391221634
 20
-148.9428466424518
 10
108.5687391221634
 20
-149.0296630486801
 10
108.5473795301548
 20
-149.4189588385133
 10
108.350664577947
 20
-149.6391004400208
 10
108.198391357499
 20
-149.8082546283465
 10
107.990996609287
 20
-149.8781900666971
 10
107.9065917698983
 20
-149.9054063210306
 10
107.9065917698983
 20
-149.9054063210306
 10
107.7119438749817
 20
-149.738319189996
 10
107.7119438749817
 20
-149.738319189996
 10
107.8090955676658
 20
-149.7255723367005
 10
107.9847954374135
 20
-149.7024901969494
 10
108.1728976509081
 20
-149.5140434739062
 10
108.246967203841
 20
-149.442385487813
 10
108.350664577947
 20
-149.3025146111119
 10
108.350664577947
 20
-148.9428466424518
 10
108.350664577947
 20
-148.9428466424518
 10
108.1201876899838
 20
-148.9428466424518
 10
108.1201876899838
 20
-148.9428466424518
 10
107.9341525337803
 20
-148.9428466424518
 10
107.7477728680283
 20
-148.9473252665826
 10
107.5617377118248
 20
-148.9621391771692
 10
107.5617377118248
 20
-148.9621391771692
 10
107.5617377118248
 20
-148.7419975756617
 10
107.5617377118248
 20
-148.7419975756617
 10
107.7498399253195
 20
-148.7568114862483
 10
108.0354383410467
 20
-148.7609456008306
 10
108.1201876899838
 20
-148.7609456008306
 10
108.1201876899838
 20
-148.7609456008306
 10
108.6700249294297
 20
-148.7609456008306
 10
108.6700249294297
 20
-148.7609456008306
 10
108.6893174641471
 20
-148.7609456008306
 10
109.0066107583386
 20
-148.7609456008306
 10
109.2350205890107
 20
-148.7419975756617
 10
109.2350205890107
 20
-148.7419975756617
 10
109.2350205890107
 20
-148.9621391771692
 10
109.2350205890107
 20
-148.9621391771692
 10
109.046918375516
 20
-148.9473252665826
 10
108.8584716524729
 20
-148.9428466424518
 10
108.6700249294297
 20
-148.9428466424518
 97
        0
 97
        1
330
FC
 75
     2
 76
     1
 98
        1
 10
0.0
 20
0.0
450
        0
451
        0
460
0.0
461
0.0
452
        0
462
0.0
453
        0
470

  0
SPLINE
  5
FE
330
EE
100
AcDbEntity
  8
レイヤー 1
100
AcDbSpline
210
0.0
220
0.0
230
1.0
 70
     9
 71
     3
 72
    29
 73
    25
 74
     0
 42
0.0000000001
 43
0.0000000001
 40
0.0
 40
0.0
 40
0.0
 40
0.0
 40
1.0
 40
1.0
 40
1.0
 40
2.0
 40
2.0
 40
2.0
 40
3.0
 40
3.0
 40
3.0
 40
4.0
 40
4.0
 40
4.0
 40
5.0
 40
5.0
 40
5.0
 40
6.0
 40
6.0
 40
6.0
 40
7.0
 40
7.0
 40
7.0
 40
8.0
 40
8.0
 40
8.0
 40
8.0
 10
110.5159070904266
 20
-149.1057996589041
 30
0.0
 10
110.5159070904266
 20
-149.1057996589041
 30
0.0
 10
110.0315266652004
 20
-149.1057996589041
 30
0.0
 10
110.0315266652004
 20
-149.1057996589041
 30
0.0
 10
110.0039659013184
 20
-149.1057996589041
 30
0.0
 10
109.6866726071269
 20
-149.1057996589041
 30
0.0
 10
109.4751437443326
 20
-149.1312933654949
 30
0.0
 10
109.4751437443326
 20
-149.1312933654949
 30
0.0
 10
109.4751437443326
 20
-148.9008164775317
 30
0.0
 10
109.4751437443326
 20
-148.9008164775317
 30
0.0
 10
109.6339626462026
 20
-148.9238986172829
 30
0.0
 10
109.8241319169884
 20
-148.925965674574
 30
0.0
 10
110.0315266652004
 20
-148.925965674574
 30
0.0
 10
110.0315266652004
 20
-148.925965674574
 30
0.0
 10
110.5159070904266
 20
-148.925965674574
 30
0.0
 10
110.5159070904266
 20
-148.925965674574
 30
0.0
 10
110.7022867561786
 20
-148.925965674574
 30
0.0
 10
110.8883219123821
 20
-148.9238986172829
 30
0.0
 10
111.0722900112944
 20
-148.9008164775317
 30
0.0
 10
111.0722900112944
 20
-148.9008164775317
 30
0.0
 10
111.0722900112944
 20
-149.1312933654949
 30
0.0
 10
111.0722900112944
 20
-149.1312933654949
 30
0.0
 10
110.8883219123821
 20
-149.1078667161952
 30
0.0
 10
110.6409640565411
 20
-149.1057996589041
 30
0.0
 10
110.5159070904266
 20
-149.1057996589041
 30
0.0
  0
HATCH
  5
FF
330
EE
100
AcDbEntity
  8
レイヤー 1
 62
    18
420
        0
440
 33554687
100
AcDbHatch
 10
0.0
 20
0.0
 30
0.0
210
0.0
220
0.0
230
1.0
  2
SOLID
 70
     1
 71
     1
 91
        1
 92
        1
 93
        1
 72
     4
 94
        3
 73
     0
 74
     0
 95
       29
 96
       25
 40
0.0
 40
0.0
 40
0.0
 40
0.0
 40
1.0
 40
1.0
 40
1.0
 40
2.0
 40
2.0
 40
2.0
 40
3.0
 40
3.0
 40
3.0
 40
4.0
 40
4.0
 40
4.0
 40
5.0
 40
5.0
 40
5.0
 40
6.0
 40
6.0
 40
6.0
 40
7.0
 40
7.0
 40
7.0
 40
8.0
 40
8.0
 40
8.0
 40
8.0
 10
110.5159070904266
 20
-149.1057996589041
 10
110.5159070904266
 20
-149.1057996589041
 10
110.0315266652004
 20
-149.1057996589041
 10
110.0315266652004
 20
-149.1057996589041
 10
110.0039659013184
 20
-149.1057996589041
 10
109.6866726071269
 20
-149.1057996589041
 10
109.4751437443326
 20
-149.1312933654949
 10
109.4751437443326
 20
-149.1312933654949
 10
109.4751437443326
 20
-148.9008164775317
 10
109.4751437443326
 20
-148.9008164775317
 10
109.6339626462026
 20
-148.9238986172829
 10
109.8241319169884
 20
-148.925965674574
 10
110.0315266652004
 20
-148.925965674574
 10
110.0315266652004
 20
-148.925965674574
 10
110.5159070904266
 20
-148.925965674574
 10
110.5159070904266
 20
-148.925965674574
 10
110.7022867561786
 20
-148.925965674574
 10
110.8883219123821
 20
-148.9238986172829
 10
111.0722900112944
 20
-148.9008164775317
 10
111.0722900112944
 20
-148.9008164775317
 10
111.0722900112944
 20
-149.1312933654949
 10
111.0722900112944
 20
-149.1312933654949
 10
110.8883219123821
 20
-149.1078667161952
 10
110.6409640565411
 20
-149.1057996589041
 10
110.5159070904266
 20
-149.1057996589041
 97
        0
 97
        1
330
FE
 75
     2
 76
     1
 98
        1
 10
0.0
 20
0.0
450
        0
451
        0
460
0.0
461
0.0
452
        0
462
0.0
453
        0
470

  0
SPLINE
  5
100
330
EE
100
AcDbEntity
  8
レイヤー 1
100
AcDbSpline
210
0.0
220
0.0
230
1.0
 70
     9
 71
     3
 72
    47
 73
    43
 74
     0
 42
0.0000000001
 43
0.0000000001
 40
0.0
 40
0.0
 40
0.0
 40
0.0
 40
1.0
 40
1.0
 40
1.0
 40
2.0
 40
2.0
 40
2.0
 40
3.0
 40
3.0
 40
3.0
 40
4.0
 40
4.0
 40
4.0
 40
5.0
 40
5.0
 40
5.0
 40
6.0
 40
6.0
 40
6.0
 40
7.0
 40
7.0
 40
7.0
 40
8.0
 40
8.0
 40
8.0
 40
9.0
 40
9.0
 40
9.0
 40
10.0
 40
10.0
 40
10.0
 40
11.0
 40
11.0
 40
11.0
 40
12.0
 40
12.0
 40
12.0
 40
13.0
 40
13.0
 40
13.0
 40
14.0
 40
14.0
 40
14.0
 40
14.0
 10
112.7362711306701
 20
-148.5113484329242
 30
0.0
 10
112.6663356923195
 20
-148.7905734220037
 30
0.0
 10
112.5901990820955
 20
-149.0954643724483
 30
0.0
 10
112.2770399024863
 20
-149.4275715772264
 30
0.0
 10
112.0400173331011
 20
-149.6769964903585
 30
0.0
 10
111.7947265345513
 20
-149.7765597498822
 30
0.0
 10
111.6889621031541
 20
-149.8189344243508
 30
0.0
 10
111.6889621031541
 20
-149.8189344243508
 30
0.0
 10
111.4943142082375
 20
-149.6370333827296
 30
0.0
 10
111.4943142082375
 20
-149.6370333827296
 30
0.0
 10
111.680349364441
 20
-149.5901800841302
 30
0.0
 10
112.0424288999408
 20
-149.4971625060285
 30
0.0
 10
112.3383626021237
 20
-149.0021022847981
 30
0.0
 10
112.4992485612849
 20
-148.735624149014
 30
0.0
 10
112.5119954145803
 20
-148.5621635913316
 30
0.0
 10
112.5202636437449
 20
-148.4712130705211
 30
0.0
 10
112.5202636437449
 20
-148.4712130705211
 30
0.0
 10
112.0148681360588
 20
-148.4712130705211
 30
0.0
 10
112.0148681360588
 20
-148.4712130705211
 30
0.0
 10
111.8963568513662
 20
-148.4712130705211
 30
0.0
 10
111.4753661830686
 20
-148.4901610956899
 30
0.0
 10
111.3230929626206
 20
-148.5006686369199
 30
0.0
 10
111.3230929626206
 20
-148.5006686369199
 30
0.0
 10
111.3230929626206
 20
-148.291379086191
 30
0.0
 10
111.3230929626206
 20
-148.291379086191
 30
0.0
 10
111.4646863870644
 20
-148.3039536847122
 30
0.0
 10
111.742016573627
 20
-148.3082600540687
 30
0.0
 10
111.8581162914799
 20
-148.3082600540687
 30
0.0
 10
111.8581162914799
 20
-148.3082600540687
 30
0.0
 10
112.2136501455577
 20
-148.3082600540687
 30
0.0
 10
112.2136501455577
 20
-148.3082600540687
 30
0.0
 10
112.2412109094397
 20
-148.3082600540687
 30
0.0
 10
112.4017523590523
 20
-148.3061929967776
 30
0.0
 10
112.5119954145803
 20
-148.291379086191
 30
0.0
 10
112.5691839996355
 20
-148.2850056595433
 30
0.0
 10
112.5860649675132
 20
-148.2658853796002
 30
0.0
 10
112.6091471072644
 20
-148.2426309850747
 30
0.0
 10
112.6091471072644
 20
-148.2426309850747
 30
0.0
 10
112.7975938303075
 20
-148.3928371482316
 30
0.0
 10
112.7975938303075
 20
-148.3928371482316
 30
0.0
 10
112.782779919721
 20
-148.4224649694048
 30
0.0
 10
112.7721001237167
 20
-148.4415852493479
 30
0.0
 10
112.7362711306701
 20
-148.5113484329242
 30
0.0
  0
HATCH
  5
101
330
EE
100
AcDbEntity
  8
レイヤー 1
 62
    18
420
        0
440
 33554687
100
AcDbHatch
 10
0.0
 20
0.0
 30
0.0
210
0.0
220
0.0
230
1.0
  2
SOLID
 70
     1
 71
     1
 91
        1
 92
        1
 93
        1
 72
     4
 94
        3
 73
     0
 74
     0
 95
       47
 96
       43
 40
0.0
 40
0.0
 40
0.0
 40
0.0
 40
1.0
 40
1.0
 40
1.0
 40
2.0
 40
2.0
 40
2.0
 40
3.0
 40
3.0
 40
3.0
 40
4.0
 40
4.0
 40
4.0
 40
5.0
 40
5.0
 40
5.0
 40
6.0
 40
6.0
 40
6.0
 40
7.0
 40
7.0
 40
7.0
 40
8.0
 40
8.0
 40
8.0
 40
9.0
 40
9.0
 40
9.0
 40
10.0
 40
10.0
 40
10.0
 40
11.0
 40
11.0
 40
11.0
 40
12.0
 40
12.0
 40
12.0
 40
13.0
 40
13.0
 40
13.0
 40
14.0
 40
14.0
 40
14.0
 40
14.0
 10
112.7362711306701
 20
-148.5113484329242
 10
112.6663356923195
 20
-148.7905734220037
 10
112.5901990820955
 20
-149.0954643724483
 10
112.2770399024863
 20
-149.4275715772264
 10
112.0400173331011
 20
-149.6769964903585
 10
111.7947265345513
 20
-149.7765597498822
 10
111.6889621031541
 20
-149.8189344243508
 10
111.6889621031541
 20
-149.8189344243508
 10
111.4943142082375
 20
-149.6370333827296
 10
111.4943142082375
 20
-149.6370333827296
 10
111.680349364441
 20
-149.5901800841302
 10
112.0424288999408
 20
-149.4971625060285
 10
112.3383626021237
 20
-149.0021022847981
 10
112.4992485612849
 20
-148.735624149014
 10
112.5119954145803
 20
-148.5621635913316
 10
112.5202636437449
 20
-148.4712130705211
 10
112.5202636437449
 20
-148.4712130705211
 10
112.0148681360588
 20
-148.4712130705211
 10
112.0148681360588
 20
-148.4712130705211
 10
111.8963568513662
 20
-148.4712130705211
 10
111.4753661830686
 20
-148.4901610956899
 10
111.3230929626206
 20
-148.5006686369199
 10
111.3230929626206
 20
-148.5006686369199
 10
111.3230929626206
 20
-148.291379086191
 10
111.3230929626206
 20
-148.291379086191
 10
111.4646863870644
 20
-148.3039536847122
 10
111.742016573627
 20
-148.3082600540687
 10
111.8581162914799
 20
-148.3082600540687
 10
111.8581162914799
 20
-148.3082600540687
 10
112.2136501455577
 20
-148.3082600540687
 10
112.2136501455577
 20
-148.3082600540687
 10
112.2412109094397
 20
-148.3082600540687
 10
112.4017523590523
 20
-148.3061929967776
 10
112.5119954145803
 20
-148.291379086191
 10
112.5691839996355
 20
-148.2850056595433
 10
112.5860649675132
 20
-148.2658853796002
 10
112.6091471072644
 20
-148.2426309850747
 10
112.6091471072644
 20
-148.2426309850747
 10
112.7975938303075
 20
-148.3928371482316
 10
112.7975938303075
 20
-148.3928371482316
 10
112.782779919721
 20
-148.4224649694048
 10
112.7721001237167
 20
-148.4415852493479
 10
112.7362711306701
 20
-148.5113484329242
 97
        0
 97
        1
330
100
 75
     2
 76
     1
 98
        1
 10
0.0
 20
0.0
450
        0
451
        0
460
0.0
461
0.0
452
        0
462
0.0
453
        0
470

  0
SPLINE
  5
102
330
EE
100
AcDbEntity
  8
レイヤー 1
100
AcDbSpline
210
0.0
220
0.0
230
1.0
 70
    11
 71
     3
 72
    17
 73
    13
 74
     0
 42
0.0000000001
 43
0.0000000001
 40
0.0
 40
0.0
 40
0.0
 40
0.0
 40
1.0
 40
1.0
 40
1.0
 40
2.0
 40
2.0
 40
2.0
 40
3.0
 40
3.0
 40
3.0
 40
4.0
 40
4.0
 40
4.0
 40
4.0
 10
113.1266004491489
 20
-148.2934461434822
 30
0.0
 10
113.1266004491489
 20
-148.3527017858285
 30
0.0
 10
113.1731092381998
 20
-148.3992105748793
 30
0.0
 10
113.2323648805461
 20
-148.3992105748793
 30
0.0
 10
113.2916205228923
 20
-148.3992105748793
 30
0.0
 10
113.3401963692344
 20
-148.3527017858285
 30
0.0
 10
113.3401963692344
 20
-148.2934461434822
 30
0.0
 10
113.3401963692344
 20
-148.2341905011359
 30
0.0
 10
113.2916205228923
 20
-148.1856146547938
 30
0.0
 10
113.2323648805461
 20
-148.1856146547938
 30
0.0
 10
113.1731092381998
 20
-148.1856146547938
 30
0.0
 10
113.1266004491489
 20
-148.2341905011359
 30
0.0
 10
113.1266004491489
 20
-148.2934461434822
 30
0.0
  0
SPLINE
  5
103
330
EE
100
AcDbEntity
  8
レイヤー 1
100
AcDbSpline
210
0.0
220
0.0
230
1.0
 70
     9
 71
     3
 72
    17
 73
    13
 74
     0
 42
0.0000000001
 43
0.0000000001
 40
0.0
 40
0.0
 40
0.0
 40
0.0
 40
1.0
 40
1.0
 40
1.0
 40
2.0
 40
2.0
 40
2.0
 40
3.0
 40
3.0
 40
3.0
 40
4.0
 40
4.0
 40
4.0
 40
4.0
 10
113.4414821765007
 20
-148.2934461434822
 30
0.0
 10
113.4414821765007
 20
-148.4076510588182
 30
0.0
 10
113.348464598399
 20
-148.5029079489853
 30
0.0
 10
113.2323648805461
 20
-148.5029079489853
 30
0.0
 10
113.1179877104358
 20
-148.5029079489853
 30
0.0
 10
113.0229030750429
 20
-148.4076510588182
 30
0.0
 10
113.0229030750429
 20
-148.2934461434822
 30
0.0
 10
113.0229030750429
 20
-148.1770019160807
 30
0.0
 10
113.1179877104358
 20
-148.083984337979
 30
0.0
 10
113.2323648805461
 20
-148.083984337979
 30
0.0
 10
113.3463975411078
 20
-148.083984337979
 30
0.0
 10
113.4414821765007
 20
-148.1770019160807
 30
0.0
 10
113.4414821765007
 20
-148.2934461434822
 30
0.0
  0
HATCH
  5
104
330
EE
100
AcDbEntity
  8
レイヤー 1
 62
    18
420
        0
440
 33554687
100
AcDbHatch
 10
0.0
 20
0.0
 30
0.0
210
0.0
220
0.0
230
1.0
  2
SOLID
 70
     1
 71
     1
 91
        2
 92
        1
 93
        1
 72
     4
 94
        3
 73
     0
 74
     0
 95
       17
 96
       13
 40
0.0
 40
0.0
 40
0.0
 40
0.0
 40
1.0
 40
1.0
 40
1.0
 40
2.0
 40
2.0
 40
2.0
 40
3.0
 40
3.0
 40
3.0
 40
4.0
 40
4.0
 40
4.0
 40
4.0
 10
113.1266004491489
 20
-148.2934461434822
 10
113.1266004491489
 20
-148.3527017858285
 10
113.1731092381998
 20
-148.3992105748793
 10
113.2323648805461
 20
-148.3992105748793
 10
113.2916205228923
 20
-148.3992105748793
 10
113.3401963692344
 20
-148.3527017858285
 10
113.3401963692344
 20
-148.2934461434822
 10
113.3401963692344
 20
-148.2341905011359
 10
113.2916205228923
 20
-148.1856146547938
 10
113.2323648805461
 20
-148.1856146547938
 10
113.1731092381998
 20
-148.1856146547938
 10
113.1266004491489
 20
-148.2341905011359
 10
113.1266004491489
 20
-148.2934461434822
 97
        0
 97
        1
330
102
 92
        1
 93
        1
 72
     4
 94
        3
 73
     0
 74
     0
 95
       17
 96
       13
 40
0.0
 40
0.0
 40
0.0
 40
0.0
 40
1.0
 40
1.0
 40
1.0
 40
2.0
 40
2.0
 40
2.0
 40
3.0
 40
3.0
 40
3.0
 40
4.0
 40
4.0
 40
4.0
 40
4.0
 10
113.4414821765007
 20
-148.2934461434822
 10
113.4414821765007
 20
-148.4076510588182
 10
113.348464598399
 20
-148.5029079489853
 10
113.2323648805461
 20
-148.5029079489853
 10
113.1179877104358
 20
-148.5029079489853
 10
113.0229030750429
 20
-148.4076510588182
 10
113.0229030750429
 20
-148.2934461434822
 10
113.0229030750429
 20
-148.1770019160807
 10
113.1179877104358
 20
-148.083984337979
 10
113.2323648805461
 20
-148.083984337979
 10
113.3463975411078
 20
-148.083984337979
 10
113.4414821765007
 20
-148.1770019160807
 10
113.4414821765007
 20
-148.2934461434822
 97
        0
 97
        1
330
103
 75
     2
 76
     1
 98
        1
 10
0.0
 20
0.0
450
        0
451
        0
460
0.0
461
0.0
452
        0
462
0.0
453
        0
470

  0
ENDBLK
  5
F1
330
EE
100
AcDbEntity
  8
0
100
AcDbBlockEnd
  0
ENDSEC
  0
SECTION
  2
ENTITIES
  0
INSERT
  5
7A
330
70
100
AcDbEntity
  8
レイヤー 1
100
AcDbBlockReference
  2
Block_0
 10
0.0
 20
0.0
 30
0.0
  0
LINE
  5
E1
330
70
100
AcDbEntity
  8
レイヤー 1
  6
AI-Linetype-0
 62
   154
420
    23468
370
    25
100
AcDbLine
 10
103.6160333834719
 20
-152.1699833469481
 30
0.0
 11
113.6618877592818
 21
-152.1699833469481
 31
0.0
  0
INSERT
  5
E4
330
70
100
AcDbEntity
  8
レイヤー 1
100
AcDbBlockReference
  2
Block_11
 10
0.0
 20
0.0
 30
0.0
  0
INSERT
  5
EB
330
70
100
AcDbEntity
  8
レイヤー 1
100
AcDbBlockReference
  2
Block_12
 10
0.0
 20
0.0
 30
0.0
  0
ENDSEC
  0
SECTION
  2
OBJECTS
  0
DICTIONARY
  5
C
330
0
100
AcDbDictionary
281
     1
  3
ACAD_COLOR
350
63
  3
ACAD_DETAILVIEWSTYLE
350
6A
  3
ACAD_GROUP
350
D
  3
ACAD_LAYOUT
350
62
  3
ACAD_MATERIAL
350
10
  3
ACAD_MLEADERSTYLE
350
66
  3
ACAD_MLINESTYLE
350
5F
  3
ACAD_PLOTSETTINGS
350
61
  3
ACAD_PLOTSTYLENAME
350
E
  3
ACAD_SCALELIST
350
42
  3
ACAD_SECTIONVIEWSTYLE
350
68
  3
ACAD_TABLESTYLE
350
64
  3
ACAD_VISUALSTYLE
350
29
  3
ACDB_RECOMPOSE_DATA
350
10D
  3
AcDbVariableDictionary
350
105
  0
DICTIONARY
  5
63
102
{ACAD_REACTORS
330
C
102
}
330
C
100
AcDbDictionary
281
     1
  0
DICTIONARY
  5
6A
102
{ACAD_REACTORS
330
C
102
}
330
C
100
AcDbDictionary
281
     1
  3
Imperial24
350
6B
  0
DICTIONARY
  5
D
102
{ACAD_REACTORS
330
C
102
}
330
C
100
AcDbDictionary
281
     1
  0
DICTIONARY
  5
62
102
{ACAD_REACTORS
330
C
102
}
330
C
100
AcDbDictionary
281
     1
  3
Layout1
350
6F
  3
Layout2
350
77
  3
Model
350
73
  0
DICTIONARY
  5
10
102
{ACAD_REACTORS
330
C
102
}
330
C
100
AcDbDictionary
281
     1
  3
ByBlock
350
19
  3
ByLayer
350
11
  3
Global
350
21
  0
DICTIONARY
  5
66
102
{ACAD_REACTORS
330
C
102
}
330
C
100
AcDbDictionary
281
     1
  3
Standard
350
67
  0
DICTIONARY
  5
5F
102
{ACAD_REACTORS
330
C
102
}
330
C
100
AcDbDictionary
281
     1
  3
Standard
350
60
  0
DICTIONARY
  5
61
102
{ACAD_REACTORS
330
C
102
}
330
C
100
AcDbDictionary
281
     1
  0
ACDBDICTIONARYWDFLT
  5
E
102
{ACAD_REACTORS
330
C
102
}
330
C
100
AcDbDictionary
281
     1
  3
Normal
350
F
100
AcDbDictionaryWithDefault
340
F
  0
DICTIONARY
  5
42
102
{ACAD_REACTORS
330
C
102
}
330
C
100
AcDbDictionary
281
     1
  3
A0
350
43
  3
A1
350
44
  3
A2
350
45
  3
A3
350
46
  3
A4
350
47
  3
A5
350
48
  3
A6
350
49
  3
A7
350
4A
  3
A8
350
4B
  3
A9
350
4C
  3
B0
350
4D
  3
B1
350
4E
  3
B2
350
4F
  3
B3
350
50
  3
B4
350
51
  3
B5
350
52
  3
B6
350
53
  0
DICTIONARY
  5
68
102
{ACAD_REACTORS
330
C
102
}
330
C
100
AcDbDictionary
281
     1
  3
Imperial24
350
69
  0
DICTIONARY
  5
64
102
{ACAD_REACTORS
330
C
102
}
330
C
100
AcDbDictionary
281
     1
  3
Standard
350
65
  0
DICTIONARY
  5
29
102
{ACAD_REACTORS
330
C
102
}
330
C
100
AcDbDictionary
281
     1
  3
2dWireframe
350
2F
  3
Basic
350
2E
  3
Brighten
350
35
  3
ColorChange
350
39
  3
Conceptual
350
32
  3
Dim
350
34
  3
EdgeColorOff
350
41
  3
Facepattern
350
38
  3
Flat
350
2A
  3
FlatWithEdges
350
2B
  3
Gouraud
350
2C
  3
GouraudWithEdges
350
2D
  3
Hidden
350
31
  3
JitterOff
350
3F
  3
Linepattern
350
37
  3
OverhangOff
350
40
  3
Realistic
350
33
  3
Shaded
350
3E
  3
Shaded with edges
350
3D
  3
Shades of Gray
350
3A
  3
Sketchy
350
3B
  3
Thicken
350
36
  3
Wireframe
350
30
  3
X-Ray
350
3C
  0
XRECORD
  5
10D
102
{ACAD_REACTORS
330
C
102
}
330
C
100
AcDbXrecord
280
     1
 90
        1
330
65
  0
DICTIONARY
  5
105
102
{ACAD_REACTORS
330
C
102
}
330
C
100
AcDbDictionary
281
     1
  3
CANNOSCALE
350
10A
  3
CMLEADERSTYLE
350
107
  3
CTABLESTYLE
350
106
  3
CVIEWDETAILSTYLE
350
108
  3
CVIEWSECTIONSTYLE
350
109
  0
ACDBDETAILVIEWSTYLE
  5
6B
102
{ACAD_XDICTIONARY
360
142
102
}
102
{ACAD_REACTORS
330
6A
102
}
330
6A
100
AcDbModelDocViewStyle
 70
     0
  3
Imperial24
290
     0
100
AcDbDetailViewStyle
 70
     0
 71
     0
 90
        3
 71
     1
340
55
 62
   256
 40
0.24
340
0
 62
   256
 40
0.24
300

 40
0.36
280
     3
 71
     2
340
5D
 90
       25
 62
   256
 71
     3
340
55
 62
   256
 40
0.24
 90
        1
 40
0.75
 90
        1
300
%<\AcVar ViewType \f "%tc1">% %<\AcVar ViewDetailId>%\PSCALE %<\AcVar ViewScale \f "%sn">%
 71
     4
340
5D
 90
       25
 62
   256
340
5D
 90
       25
 62
   256
280
     0
  0
LAYOUT
  5
6F
102
{ACAD_REACTORS
330
62
102
}
330
62
100
AcDbPlotSettings
  1

  2

  4

  6

 40
0.0
 41
0.0
 42
0.0
 43
0.0
 44
0.0
 45
0.0
 46
0.0
 47
0.0
 48
0.0
 49
0.0
140
0.0
141
0.0
142
1.0
143
1.0
 70
   688
 72
     0
 73
     0
 74
     5
  7

 75
    16
147
1.0
 76
     0
 77
     2
 78
   300
148
0.0
149
0.0
100
AcDbLayout
  1
Layout1
 70
     1
 71
     1
 10
0.0
 20
0.0
 11
12.0
 21
9.0
 12
0.0
 22
0.0
 32
0.0
 14
0.0
 24
0.0
 34
0.0
 15
0.0
 25
0.0
 35
0.0
146
0.0
 13
0.0
 23
0.0
 33
0.0
 16
1.0
 26
0.0
 36
0.0
 17
0.0
 27
1.0
 37
0.0
 76
     0
330
6C
  0
LAYOUT
  5
77
102
{ACAD_REACTORS
330
62
102
}
330
62
100
AcDbPlotSettings
  1

  2

  4

  6

 40
0.0
 41
0.0
 42
0.0
 43
0.0
 44
0.0
 45
0.0
 46
0.0
 47
0.0
 48
0.0
 49
0.0
140
0.0
141
0.0
142
1.0
143
1.0
 70
   688
 72
     0
 73
     0
 74
     5
  7

 75
    16
147
1.0
 76
     0
 77
     2
 78
   300
148
0.0
149
0.0
100
AcDbLayout
  1
Layout2
 70
     1
 71
     2
 10
0.0
 20
0.0
 11
12.0
 21
9.0
 12
0.0
 22
0.0
 32
0.0
 14
0.0
 24
0.0
 34
0.0
 15
0.0
 25
0.0
 35
0.0
146
0.0
 13
0.0
 23
0.0
 33
0.0
 16
1.0
 26
0.0
 36
0.0
 17
0.0
 27
1.0
 37
0.0
 76
     0
330
74
  0
LAYOUT
  5
73
102
{ACAD_REACTORS
330
62
102
}
330
62
100
AcDbPlotSettings
  1

  2

  4

  6

 40
0.0
 41
0.0
 42
0.0
 43
0.0
 44
0.0
 45
0.0
 46
0.0
 47
0.0
 48
0.0
 49
0.0
140
0.0
141
0.0
142
1.0
143
1.0
 70
  1712
 72
     0
 73
     0
 74
     0
  7

 75
     0
147
1.0
 76
     0
 77
     2
 78
   300
148
0.0
149
0.0
100
AcDbLayout
  1
Model
 70
     1
 71
     0
 10
0.0
 20
0.0
 11
12.0
 21
9.0
 12
0.0
 22
0.0
 32
0.0
 14
0.0
 24
0.0
 34
0.0
 15
0.0
 25
0.0
 35
0.0
146
0.0
 13
0.0
 23
0.0
 33
0.0
 16
1.0
 26
0.0
 36
0.0
 17
0.0
 27
1.0
 37
0.0
 76
     0
330
70
  0
MATERIAL
  5
19
102
{ACAD_XDICTIONARY
360
1A
102
}
102
{ACAD_REACTORS
330
10
102
}
330
10
100
AcDbMaterial
  1
ByBlock
 72
     0
 43
0.0208333333333333
 43
0.0
 43
0.0
 43
0.0
 43
0.0
 43
0.0208333333333333
 43
0.0
 43
0.0
 43
0.0
 43
0.0
 43
1.0
 43
0.0
 43
0.0
 43
0.0
 43
0.0
 43
1.0
 77
     0
 47
0.0208333333333333
 47
0.0
 47
0.0
 47
0.0
 47
0.0
 47
0.0208333333333333
 47
0.0
 47
0.0
 47
0.0
 47
0.0
 47
1.0
 47
0.0
 47
0.0
 47
0.0
 47
0.0
 47
1.0
171
     0
 49
0.0208333333333333
 49
0.0
 49
0.0
 49
0.0
 49
0.0
 49
0.0208333333333333
 49
0.0
 49
0.0
 49
0.0
 49
0.0
 49
1.0
 49
0.0
 49
0.0
 49
0.0
 49
0.0
 49
1.0
175
     0
142
0.0208333333333333
142
0.0
142
0.0
142
0.0
142
0.0
142
0.0208333333333333
142
0.0
142
0.0
142
0.0
142
0.0
142
1.0
142
0.0
142
0.0
142
0.0
142
0.0
142
1.0
179
     0
144
0.0208333333333333
144
0.0
144
0.0
144
0.0
144
0.0
144
0.0208333333333333
144
0.0
144
0.0
144
0.0
144
0.0
144
1.0
144
0.0
144
0.0
144
0.0
144
0.0
144
1.0
147
0.0208333333333333
147
0.0
147
0.0
147
0.0
147
0.0
147
0.0208333333333333
147
0.0
147
0.0
147
0.0
147
0.0
147
1.0
147
0.0
147
0.0
147
0.0
147
0.0
147
1.0
  0
MATERIAL
  5
11
102
{ACAD_XDICTIONARY
360
12
102
}
102
{ACAD_REACTORS
330
10
102
}
330
10
100
AcDbMaterial
  1
ByLayer
 72
     0
 43
0.0208333333333333
 43
0.0
 43
0.0
 43
0.0
 43
0.0
 43
0.0208333333333333
 43
0.0
 43
0.0
 43
0.0
 43
0.0
 43
1.0
 43
0.0
 43
0.0
 43
0.0
 43
0.0
 43
1.0
 77
     0
 47
0.0208333333333333
 47
0.0
 47
0.0
 47
0.0
 47
0.0
 47
0.0208333333333333
 47
0.0
 47
0.0
 47
0.0
 47
0.0
 47
1.0
 47
0.0
 47
0.0
 47
0.0
 47
0.0
 47
1.0
171
     0
 49
0.0208333333333333
 49
0.0
 49
0.0
 49
0.0
 49
0.0
 49
0.0208333333333333
 49
0.0
 49
0.0
 49
0.0
 49
0.0
 49
1.0
 49
0.0
 49
0.0
 49
0.0
 49
0.0
 49
1.0
175
     0
142
0.0208333333333333
142
0.0
142
0.0
142
0.0
142
0.0
142
0.0208333333333333
142
0.0
142
0.0
142
0.0
142
0.0
142
1.0
142
0.0
142
0.0
142
0.0
142
0.0
142
1.0
179
     0
144
0.0208333333333333
144
0.0
144
0.0
144
0.0
144
0.0
144
0.0208333333333333
144
0.0
144
0.0
144
0.0
144
0.0
144
1.0
144
0.0
144
0.0
144
0.0
144
0.0
144
1.0
147
0.0208333333333333
147
0.0
147
0.0
147
0.0
147
0.0
147
0.0208333333333333
147
0.0
147
0.0
147
0.0
147
0.0
147
1.0
147
0.0
147
0.0
147
0.0
147
0.0
147
1.0
  0
MATERIAL
  5
21
102
{ACAD_XDICTIONARY
360
22
102
}
102
{ACAD_REACTORS
330
10
102
}
330
10
100
AcDbMaterial
  1
Global
 72
     0
 43
0.0208333333333333
 43
0.0
 43
0.0
 43
0.0
 43
0.0
 43
0.0208333333333333
 43
0.0
 43
0.0
 43
0.0
 43
0.0
 43
1.0
 43
0.0
 43
0.0
 43
0.0
 43
0.0
 43
1.0
 77
     0
 47
0.0208333333333333
 47
0.0
 47
0.0
 47
0.0
 47
0.0
 47
0.0208333333333333
 47
0.0
 47
0.0
 47
0.0
 47
0.0
 47
1.0
 47
0.0
 47
0.0
 47
0.0
 47
0.0
 47
1.0
171
     0
 49
0.0208333333333333
 49
0.0
 49
0.0
 49
0.0
 49
0.0
 49
0.0208333333333333
 49
0.0
 49
0.0
 49
0.0
 49
0.0
 49
1.0
 49
0.0
 49
0.0
 49
0.0
 49
0.0
 49
1.0
175
     0
142
0.0208333333333333
142
0.0
142
0.0
142
0.0
142
0.0
142
0.0208333333333333
142
0.0
142
0.0
142
0.0
142
0.0
142
1.0
142
0.0
142
0.0
142
0.0
142
0.0
142
1.0
179
     0
144
0.0208333333333333
144
0.0
144
0.0
144
0.0
144
0.0
144
0.0208333333333333
144
0.0
144
0.0
144
0.0
144
0.0
144
1.0
144
0.0
144
0.0
144
0.0
144
0.0
144
1.0
147
0.0208333333333333
147
0.0
147
0.0
147
0.0
147
0.0
147
0.0208333333333333
147
0.0
147
0.0
147
0.0
147
0.0
147
1.0
147
0.0
147
0.0
147
0.0
147
0.0
147
1.0
  0
MLEADERSTYLE
  5
67
102
{ACAD_XDICTIONARY
360
13E
102
}
102
{ACAD_REACTORS
330
66
102
}
330
66
100
AcDbMLeaderStyle
179
     2
170
     2
171
     1
172
     0
 90
        2
 40
0.0
 41
0.0
173
     1
 91
-1056964608
340
5B
 92
       -2
290
     1
 42
0.09
291
     1
 43
0.36
  3
Standard
 44
0.18
300

342
55
174
     1
178
     6
175
     1
176
     0
 93
-1056964608
 45
0.18
292
     0
297
     0
 46
0.18
 94
-1056964608
 47
1.0
 49
1.0
140
1.0
293
     1
141
0.0
294
     1
177
     0
142
1.0
295
     0
296
     0
143
0.125
271
     0
272
     9
273
     9
  0
MLINESTYLE
  5
60
102
{ACAD_REACTORS
330
5F
102
}
330
5F
100
AcDbMlineStyle
  2
STANDARD
 70
     0
  3

 62
   256
 51
90.0
 52
90.0
 71
     2
 49
0.5
 62
   256
  6
BYLAYER
 49
-0.5
 62
   256
  6
BYLAYER
  0
ACDBPLACEHOLDER
  5
F
102
{ACAD_REACTORS
330
E
102
}
330
E
  0
SCALE
  5
43
102
{ACAD_REACTORS
330
42
102
}
330
42
100
AcDbScale
 70
     0
300
1:1
140
1.0
141
1.0
290
     1
  0
SCALE
  5
44
102
{ACAD_REACTORS
330
42
102
}
330
42
100
AcDbScale
 70
     0
300
1/128" = 1'-0"
140
0.0078125
141
12.0
290
     0
  0
SCALE
  5
45
102
{ACAD_REACTORS
330
42
102
}
330
42
100
AcDbScale
 70
     0
300
1/64" = 1'-0"
140
0.015625
141
12.0
290
     0
  0
SCALE
  5
46
102
{ACAD_REACTORS
330
42
102
}
330
42
100
AcDbScale
 70
     0
300
1/32" = 1'-0"
140
0.03125
141
12.0
290
     0
  0
SCALE
  5
47
102
{ACAD_REACTORS
330
42
102
}
330
42
100
AcDbScale
 70
     0
300
1/16" = 1'-0"
140
0.0625
141
12.0
290
     0
  0
SCALE
  5
48
102
{ACAD_REACTORS
330
42
102
}
330
42
100
AcDbScale
 70
     0
300
3/32" = 1'-0"
140
0.09375
141
12.0
290
     0
  0
SCALE
  5
49
102
{ACAD_REACTORS
330
42
102
}
330
42
100
AcDbScale
 70
     0
300
1/8" = 1'-0"
140
0.125
141
12.0
290
     0
  0
SCALE
  5
4A
102
{ACAD_REACTORS
330
42
102
}
330
42
100
AcDbScale
 70
     0
300
3/16" = 1'-0"
140
0.1875
141
12.0
290
     0
  0
SCALE
  5
4B
102
{ACAD_REACTORS
330
42
102
}
330
42
100
AcDbScale
 70
     0
300
1/4" = 1'-0"
140
0.25
141
12.0
290
     0
  0
SCALE
  5
4C
102
{ACAD_REACTORS
330
42
102
}
330
42
100
AcDbScale
 70
     0
300
3/8" = 1'-0"
140
0.375
141
12.0
290
     0
  0
SCALE
  5
4D
102
{ACAD_REACTORS
330
42
102
}
330
42
100
AcDbScale
 70
     0
300
1/2" = 1'-0"
140
0.5
141
12.0
290
     0
  0
SCALE
  5
4E
102
{ACAD_REACTORS
330
42
102
}
330
42
100
AcDbScale
 70
     0
300
3/4" = 1'-0"
140
0.75
141
12.0
290
     0
  0
SCALE
  5
4F
102
{ACAD_REACTORS
330
42
102
}
330
42
100
AcDbScale
 70
     0
300
1" = 1'-0"
140
1.0
141
12.0
290
     0
  0
SCALE
  5
50
102
{ACAD_REACTORS
330
42
102
}
330
42
100
AcDbScale
 70
     0
300
1-1/2" = 1'-0"
140
1.5
141
12.0
290
     0
  0
SCALE
  5
51
102
{ACAD_REACTORS
330
42
102
}
330
42
100
AcDbScale
 70
     0
300
3" = 1'-0"
140
3.0
141
12.0
290
     0
  0
SCALE
  5
52
102
{ACAD_REACTORS
330
42
102
}
330
42
100
AcDbScale
 70
     0
300
6" = 1'-0"
140
6.0
141
12.0
290
     0
  0
SCALE
  5
53
102
{ACAD_REACTORS
330
42
102
}
330
42
100
AcDbScale
 70
     0
300
1'-0" = 1'-0"
140
12.0
141
12.0
290
     0
  0
ACDBSECTIONVIEWSTYLE
  5
69
102
{ACAD_XDICTIONARY
360
140
102
}
102
{ACAD_REACTORS
330
68
102
}
330
68
100
AcDbModelDocViewStyle
 70
     0
  3
Imperial24
290
     0
100
AcDbSectionViewStyle
 70
     0
 71
     0
 90
       78
 71
     1
340
55
 62
   256
 40
0.24
340
0
340
0
 62
   256
 40
0.24
300
I, O, Q, S, X, Z
 40
0.48
 90
        3
 40
0.18
 90
        1
 71
     2
340
5D
 90
       25
 62
   256
340
5D
 90
       50
 62
   256
 40
0.24
 40
0.0
 40
0.24
 71
     3
340
55
 62
   256
 40
0.24
 90
        1
 40
0.75
 90
        1
300
%<\AcVar ViewType \f "%tc1">% %<\AcVar ViewSectionStartId>%-%<\AcVar ViewSectionEndId>%\PSCALE %<\AcVar ViewScale \f "%sn">%
 71
     4
 62
   256
 62
   257
300
ANSI31
 40
1.0
 90
        0
290
     0
290
     0
 90
        6
 40
0.0
 40
1.570796326794896
 40
0.2617993877991494
 40
1.308996938995747
 40
-0.2617993877991494
 40
1.832595714594046
  0
TABLESTYLE
  5
65
102
{ACAD_XDICTIONARY
360
10B
102
}
102
{ACAD_REACTORS
330
64
102
}
330
64
100
AcDbTableStyle
280
     0
  3
Standard
 70
     0
 71
     0
 40
0.06
 41
0.06
280
     0
281
     0
  7
Standard
140
0.18
170
     2
 62
     0
 63
     7
283
     0
 90
      512
 91
        0
  1

274
    -2
284
     1
 64
     0
275
    -2
285
     1
 65
     0
276
    -2
286
     1
 66
     0
277
    -2
287
     1
 67
     0
278
    -2
288
     1
 68
     0
279
    -2
289
     1
 69
     0
  7
Standard
140
0.25
170
     5
 62
     0
 63
     7
283
     0
 90
      512
 91
        0
  1

274
    -2
284
     1
 64
     0
275
    -2
285
     1
 65
     0
276
    -2
286
     1
 66
     0
277
    -2
287
     1
 67
     0
278
    -2
288
     1
 68
     0
279
    -2
289
     1
 69
     0
  7
Standard
140
0.18
170
     5
 62
     0
 63
     7
283
     0
 90
      512
 91
        0
  1

274
    -2
284
     1
 64
     0
275
    -2
285
     1
 65
     0
276
    -2
286
     1
 66
     0
277
    -2
287
     1
 67
     0
278
    -2
288
     1
 68
     0
279
    -2
289
     1
 69
     0
  0
VISUALSTYLE
  5
2F
102
{ACAD_XDICTIONARY
360
118
102
}
102
{ACAD_REACTORS
330
29
102
}
330
29
100
AcDbVisualStyle
  2
2dWireframe
 70
     4
177
     2
291
     0
 71
     0
176
     1
 72
     2
176
     1
 73
     0
176
     1
 90
        0
176
     1
 40
0.6
176
     1
 41
30.0
176
     1
 63
     7
421
 16777215
176
     1
 74
     1
176
     1
 91
        4
176
     1
 64
     7
176
     1
 65
   257
176
     1
 75
     1
176
     1
175
     1
176
     1
 42
1.0
176
     1
 92
        0
176
     1
 66
   257
176
     1
 43
1.0
176
     1
 76
     1
176
     1
 77
     6
176
     1
 78
     2
176
     1
 67
     7
176
     1
 79
     5
176
     1
170
     0
176
     1
171
     0
176
     1
290
     0
176
     1
 93
        1
176
     1
 44
0.0
176
     1
173
     0
176
     1
1001
ACAD
1000
AcDbSavedByObjectVersion
1070
     0
  0
VISUALSTYLE
  5
2E
102
{ACAD_XDICTIONARY
360
116
102
}
102
{ACAD_REACTORS
330
29
102
}
330
29
100
AcDbVisualStyle
  2
Basic
 70
     7
177
     2
291
     1
 71
     1
176
     1
 72
     0
176
     1
 73
     1
176
     1
 90
        0
176
     1
 40
0.6
176
     1
 41
30.0
176
     1
 63
     7
421
 16777215
176
     1
 74
     0
176
     1
 91
        4
176
     1
 64
     7
176
     1
 65
   257
176
     1
 75
     1
176
     1
175
     1
176
     1
 42
1.0
176
     1
 92
        8
176
     1
 66
     7
176
     1
 43
1.0
176
     1
 76
     1
176
     1
 77
     6
176
     1
 78
     2
176
     1
 67
     7
176
     1
 79
     5
176
     1
170
     0
176
     1
171
     0
176
     1
290
     0
176
     1
 93
        1
176
     1
 44
0.0
176
     1
173
     0
176
     1
1001
ACAD
1000
AcDbSavedByObjectVersion
1070
     0
  0
VISUALSTYLE
  5
35
102
{ACAD_XDICTIONARY
360
124
102
}
102
{ACAD_REACTORS
330
29
102
}
330
29
100
AcDbVisualStyle
  2
Brighten
 70
    12
177
     2
291
     1
 71
     2
176
     1
 72
     2
176
     1
 73
     0
176
     1
 90
        0
176
     1
 40
0.6
176
     1
 41
30.0
176
     1
 63
     7
421
 16777215
176
     1
 74
     1
176
     1
 91
        4
176
     1
 64
     7
176
     1
 65
   257
176
     1
 75
     1
176
     1
175
     1
176
     1
 42
1.0
176
     1
 92
        8
176
     1
 66
     7
176
     1
 43
1.0
176
     1
 76
     1
176
     1
 77
     6
176
     1
 78
     2
176
     1
 67
     7
176
     1
 79
     5
176
     1
170
     0
176
     1
171
     0
176
     1
290
     0
176
     1
 93
        1
176
     1
 44
50.0
176
     1
173
     0
176
     1
1001
ACAD
1000
AcDbSavedByObjectVersion
1070
     0
  0
VISUALSTYLE
  5
39
102
{ACAD_XDICTIONARY
360
12C
102
}
102
{ACAD_REACTORS
330
29
102
}
330
29
100
AcDbVisualStyle
  2
ColorChange
 70
    16
177
     2
291
     1
 71
     2
176
     1
 72
     2
176
     1
 73
     3
176
     1
 90
        0
176
     1
 40
0.6
176
     1
 41
30.0
176
     1
 63
     8
421
  8421504
176
     1
 74
     1
176
     1
 91
        4
176
     1
 64
     7
176
     1
 65
   257
176
     1
 75
     1
176
     1
175
     1
176
     1
 42
1.0
176
     1
 92
        8
176
     1
 66
     8
424
  8421504
176
     1
 43
1.0
176
     1
 76
     1
176
     1
 77
     6
176
     1
 78
     2
176
     1
 67
     7
176
     1
 79
     5
176
     1
170
     0
176
     1
171
     0
176
     1
290
     0
176
     1
 93
        1
176
     1
 44
0.0
176
     1
173
     0
176
     1
1001
ACAD
1000
AcDbSavedByObjectVersion
1070
     0
  0
VISUALSTYLE
  5
32
102
{ACAD_XDICTIONARY
360
11E
102
}
102
{ACAD_REACTORS
330
29
102
}
330
29
100
AcDbVisualStyle
  2
Conceptual
 70
     9
177
     2
291
     0
 71
     3
176
     1
 72
     2
176
     1
 73
     0
176
     1
 90
        0
176
     1
 40
0.6
176
     1
 41
30.0
176
     1
 63
     7
421
 16777215
176
     1
 74
     2
176
     1
 91
        2
176
     1
 64
     7
176
     1
 65
   257
176
     1
 75
     1
176
     1
175
     1
176
     1
 42
179.0
176
     1
 92
        8
176
     1
 66
     7
176
     1
 43
1.0
176
     1
 76
     1
176
     1
 77
     6
176
     1
 78
     2
176
     1
 67
     7
176
     1
 79
     3
176
     1
170
     0
176
     1
171
     0
176
     1
290
     0
176
     1
 93
        1
176
     1
 44
0.0
176
     1
173
     0
176
     1
1001
ACAD
1000
AcDbSavedByObjectVersion
1070
     0
  0
VISUALSTYLE
  5
34
102
{ACAD_XDICTIONARY
360
122
102
}
102
{ACAD_REACTORS
330
29
102
}
330
29
100
AcDbVisualStyle
  2
Dim
 70
    11
177
     2
291
     1
 71
     2
176
     1
 72
     2
176
     1
 73
     0
176
     1
 90
        0
176
     1
 40
0.6
176
     1
 41
30.0
176
     1
 63
     7
421
 16777215
176
     1
 74
     1
176
     1
 91
        4
176
     1
 64
     7
176
     1
 65
   257
176
     1
 75
     1
176
     1
175
     1
176
     1
 42
1.0
176
     1
 92
        8
176
     1
 66
     7
176
     1
 43
1.0
176
     1
 76
     1
176
     1
 77
     6
176
     1
 78
     2
176
     1
 67
     7
176
     1
 79
     5
176
     1
170
     0
176
     1
171
     0
176
     1
290
     0
176
     1
 93
        1
176
     1
 44
-50.0
176
     1
173
     0
176
     1
1001
ACAD
1000
AcDbSavedByObjectVersion
1070
     0
  0
VISUALSTYLE
  5
41
102
{ACAD_XDICTIONARY
360
13C
102
}
102
{ACAD_REACTORS
330
29
102
}
330
29
100
AcDbVisualStyle
  2
EdgeColorOff
 70
    22
177
     2
291
     1
 71
     2
176
     0
 72
     2
176
     0
 73
     0
176
     0
 90
        0
176
     0
 40
0.6
176
     0
 41
30.0
176
     0
 63
     7
421
 16777215
176
     0
 74
     1
176
     0
 91
        4
176
     0
 64
     7
176
     0
 65
   257
176
     0
 75
     1
176
     0
175
     1
176
     0
 42
1.0
176
     0
 92
        8
176
     2
 66
     7
176
     0
 43
1.0
176
     0
 76
     1
176
     0
 77
     6
176
     0
 78
     2
176
     0
 67
     7
176
     0
 79
     5
176
     0
170
     0
176
     0
171
     0
176
     0
290
     0
176
     0
 93
        1
176
     0
 44
0.0
176
     0
173
     0
176
     0
1001
ACAD
1000
AcDbSavedByObjectVersion
1070
     0
  0
VISUALSTYLE
  5
38
102
{ACAD_XDICTIONARY
360
12A
102
}
102
{ACAD_REACTORS
330
29
102
}
330
29
100
AcDbVisualStyle
  2
Facepattern
 70
    15
177
     2
291
     1
 71
     2
176
     1
 72
     2
176
     1
 73
     0
176
     1
 90
        0
176
     1
 40
0.6
176
     1
 41
30.0
176
     1
 63
     7
421
 16777215
176
     1
 74
     1
176
     1
 91
        4
176
     1
 64
     7
176
     1
 65
   257
176
     1
 75
     1
176
     1
175
     1
176
     1
 42
1.0
176
     1
 92
        8
176
     1
 66
     7
176
     1
 43
1.0
176
     1
 76
     1
176
     1
 77
     6
176
     1
 78
     2
176
     1
 67
     7
176
     1
 79
     5
176
     1
170
     0
176
     1
171
     0
176
     1
290
     0
176
     1
 93
        1
176
     1
 44
0.0
176
     1
173
     0
176
     1
1001
ACAD
1000
AcDbSavedByObjectVersion
1070
     0
  0
VISUALSTYLE
  5
2A
102
{ACAD_XDICTIONARY
360
10E
102
}
102
{ACAD_REACTORS
330
29
102
}
330
29
100
AcDbVisualStyle
  2
Flat
 70
     0
177
     2
291
     1
 71
     2
176
     1
 72
     1
176
     1
 73
     1
176
     1
 90
        2
176
     1
 40
0.6
176
     1
 41
30.0
176
     1
 63
     7
421
 16777215
176
     1
 74
     0
176
     1
 91
        0
176
     1
 64
     7
176
     1
 65
   257
176
     1
 75
     1
176
     1
175
     1
176
     1
 42
1.0
176
     1
 92
        8
176
     1
 66
     7
176
     1
 43
1.0
176
     1
 76
     1
176
     1
 77
     6
176
     1
 78
     2
176
     1
 67
     7
176
     1
 79
     5
176
     1
170
     0
176
     1
171
     0
176
     1
290
     0
176
     1
 93
       13
176
     1
 44
0.0
176
     1
173
     0
176
     1
1001
ACAD
1000
AcDbSavedByObjectVersion
1070
     0
  0
VISUALSTYLE
  5
2B
102
{ACAD_XDICTIONARY
360
110
102
}
102
{ACAD_REACTORS
330
29
102
}
330
29
100
AcDbVisualStyle
  2
FlatWithEdges
 70
     1
177
     2
291
     1
 71
     2
176
     1
 72
     1
176
     1
 73
     1
176
     1
 90
        2
176
     1
 40
0.6
176
     1
 41
30.0
176
     1
 63
     7
421
 16777215
176
     1
 74
     1
176
     1
 91
        0
176
     1
 64
     7
176
     1
 65
   257
176
     1
 75
     1
176
     1
175
     1
176
     1
 42
1.0
176
     1
 92
        0
176
     1
 66
   257
176
     1
 43
1.0
176
     1
 76
     1
176
     1
 77
     6
176
     1
 78
     2
176
     1
 67
     7
176
     1
 79
     5
176
     1
170
     0
176
     1
171
     0
176
     1
290
     0
176
     1
 93
       13
176
     1
 44
0.0
176
     1
173
     0
176
     1
1001
ACAD
1000
AcDbSavedByObjectVersion
1070
     0
  0
VISUALSTYLE
  5
2C
102
{ACAD_XDICTIONARY
360
112
102
}
102
{ACAD_REACTORS
330
29
102
}
330
29
100
AcDbVisualStyle
  2
Gouraud
 70
     2
177
     2
291
     1
 71
     2
176
     1
 72
     2
176
     1
 73
     1
176
     1
 90
        2
176
     1
 40
0.6
176
     1
 41
30.0
176
     1
 63
     7
421
 16777215
176
     1
 74
     0
176
     1
 91
        0
176
     1
 64
     7
176
     1
 65
   257
176
     1
 75
     1
176
     1
175
     1
176
     1
 42
1.0
176
     1
 92
        0
176
     1
 66
     7
176
     1
 43
1.0
176
     1
 76
     1
176
     1
 77
     6
176
     1
 78
     2
176
     1
 67
     7
176
     1
 79
     5
176
     1
170
     0
176
     1
171
     0
176
     1
290
     0
176
     1
 93
       13
176
     1
 44
0.0
176
     1
173
     0
176
     1
1001
ACAD
1000
AcDbSavedByObjectVersion
1070
     0
  0
VISUALSTYLE
  5
2D
102
{ACAD_XDICTIONARY
360
114
102
}
102
{ACAD_REACTORS
330
29
102
}
330
29
100
AcDbVisualStyle
  2
GouraudWithEdges
 70
     3
177
     2
291
     1
 71
     2
176
     1
 72
     2
176
     1
 73
     1
176
     1
 90
        2
176
     1
 40
0.6
176
     1
 41
30.0
176
     1
 63
     7
421
 16777215
176
     1
 74
     1
176
     1
 91
        0
176
     1
 64
     7
176
     1
 65
   257
176
     1
 75
     1
176
     1
175
     1
176
     1
 42
1.0
176
     1
 92
        0
176
     1
 66
   257
176
     1
 43
1.0
176
     1
 76
     1
176
     1
 77
     6
176
     1
 78
     2
176
     1
 67
     7
176
     1
 79
     5
176
     1
170
     0
176
     1
171
     0
176
     1
290
     0
176
     1
 93
       13
176
     1
 44
0.0
176
     1
173
     0
176
     1
1001
ACAD
1000
AcDbSavedByObjectVersion
1070
     0
  0
VISUALSTYLE
  5
31
102
{ACAD_XDICTIONARY
360
11C
102
}
102
{ACAD_REACTORS
330
29
102
}
330
29
100
AcDbVisualStyle
  2
Hidden
 70
     6
177
     2
291
     0
 71
     1
176
     1
 72
     2
176
     1
 73
     2
176
     1
 90
        0
176
     1
 40
0.6
176
     1
 41
30.0
176
     1
 63
     7
421
 16777215
176
     1
 74
     2
176
     1
 91
        2
176
     1
 64
     7
176
     1
 65
   257
176
     1
 75
     2
176
     1
175
     1
176
     1
 42
40.0
176
     1
 92
        0
176
     1
 66
   257
176
     1
 43
1.0
176
     1
 76
     1
176
     1
 77
     6
176
     1
 78
     2
176
     1
 67
     7
176
     1
 79
     3
176
     1
170
     0
176
     1
171
     0
176
     1
290
     0
176
     1
 93
        1
176
     1
 44
0.0
176
     1
173
     0
176
     1
1001
ACAD
1000
AcDbSavedByObjectVersion
1070
     0
  0
VISUALSTYLE
  5
3F
102
{ACAD_XDICTIONARY
360
138
102
}
102
{ACAD_REACTORS
330
29
102
}
330
29
100
AcDbVisualStyle
  2
JitterOff
 70
    20
177
     2
291
     1
 71
     2
176
     0
 72
     2
176
     0
 73
     0
176
     0
 90
        0
176
     0
 40
0.6
176
     0
 41
30.0
176
     0
 63
     7
421
 16777215
176
     0
 74
     1
176
     0
 91
        4
176
     0
 64
     7
176
     0
 65
   257
176
     0
 75
     1
176
     0
175
     1
176
     0
 42
1.0
176
     0
 92
       10
176
     2
 66
     7
176
     0
 43
1.0
176
     0
 76
     1
176
     0
 77
     6
176
     0
 78
     2
176
     0
 67
     7
176
     0
 79
     5
176
     0
170
     0
176
     0
171
     0
176
     0
290
     0
176
     0
 93
        1
176
     0
 44
0.0
176
     0
173
     0
176
     0
1001
ACAD
1000
AcDbSavedByObjectVersion
1070
     0
  0
VISUALSTYLE
  5
37
102
{ACAD_XDICTIONARY
360
128
102
}
102
{ACAD_REACTORS
330
29
102
}
330
29
100
AcDbVisualStyle
  2
Linepattern
 70
    14
177
     2
291
     1
 71
     2
176
     1
 72
     2
176
     1
 73
     0
176
     1
 90
        0
176
     1
 40
0.6
176
     1
 41
30.0
176
     1
 63
     7
421
 16777215
176
     1
 74
     1
176
     1
 91
        4
176
     1
 64
     7
176
     1
 65
   257
176
     1
 75
     7
176
     1
175
     7
176
     1
 42
1.0
176
     1
 92
        8
176
     1
 66
     7
176
     1
 43
1.0
176
     1
 76
     1
176
     1
 77
     6
176
     1
 78
     2
176
     1
 67
     7
176
     1
 79
     5
176
     1
170
     0
176
     1
171
     0
176
     1
290
     0
176
     1
 93
        1
176
     1
 44
0.0
176
     1
173
     0
176
     1
1001
ACAD
1000
AcDbSavedByObjectVersion
1070
     0
  0
VISUALSTYLE
  5
40
102
{ACAD_XDICTIONARY
360
13A
102
}
102
{ACAD_REACTORS
330
29
102
}
330
29
100
AcDbVisualStyle
  2
OverhangOff
 70
    21
177
     2
291
     1
 71
     2
176
     0
 72
     2
176
     0
 73
     0
176
     0
 90
        0
176
     0
 40
0.6
176
     0
 41
30.0
176
     0
 63
     7
421
 16777215
176
     0
 74
     1
176
     0
 91
        4
176
     0
 64
     7
176
     0
 65
   257
176
     0
 75
     1
176
     0
175
     1
176
     0
 42
1.0
176
     0
 92
        9
176
     2
 66
     7
176
     0
 43
1.0
176
     0
 76
     1
176
     0
 77
     6
176
     0
 78
     2
176
     0
 67
     7
176
     0
 79
     5
176
     0
170
     0
176
     0
171
     0
176
     0
290
     0
176
     0
 93
        1
176
     0
 44
0.0
176
     0
173
     0
176
     0
1001
ACAD
1000
AcDbSavedByObjectVersion
1070
     0
  0
VISUALSTYLE
  5
33
102
{ACAD_XDICTIONARY
360
120
102
}
102
{ACAD_REACTORS
330
29
102
}
330
29
100
AcDbVisualStyle
  2
Realistic
 70
     8
177
     2
291
     0
 71
     2
176
     1
 72
     3
176
     1
 73
     0
176
     1
 90
        2
176
     1
 40
0.6
176
     1
 41
30.0
176
     1
 63
     7
421
 16777215
176
     1
 74
     0
176
     1
 91
        0
176
     1
 64
     7
176
     1
 65
   257
176
     1
 75
     1
176
     1
175
     1
176
     1
 42
1.0
176
     1
 92
        8
176
     1
 66
   257
176
     1
 43
1.0
176
     1
 76
     1
176
     1
 77
     6
176
     1
 78
     2
176
     1
 67
     7
176
     1
 79
     3
176
     1
170
     0
176
     1
171
     0
176
     1
290
     0
176
     1
 93
       13
176
     1
 44
0.0
176
     1
173
     0
176
     1
1001
ACAD
1000
AcDbSavedByObjectVersion
1070
     0
  0
VISUALSTYLE
  5
3E
102
{ACAD_XDICTIONARY
360
136
102
}
102
{ACAD_REACTORS
330
29
102
}
330
29
100
AcDbVisualStyle
  2
Shaded
 70
    27
177
     2
291
     0
 71
     2
176
     1
 72
     2
176
     1
 73
     1
176
     1
 90
        2
176
     1
 40
0.6
176
     1
 41
30.0
176
     1
 63
     7
421
 16777215
176
     1
 74
     0
176
     1
 91
        4
176
     1
 64
     7
176
     1
 65
   257
176
     1
 75
     1
176
     1
175
     1
176
     1
 42
1.0
176
     1
 92
        8
176
     1
 66
   257
176
     1
 43
1.0
176
     1
 76
     1
176
     1
 77
     6
176
     1
 78
     2
176
     1
 67
     8
425
  7895160
176
     1
 79
     3
176
     1
170
     0
176
     1
171
     0
176
     1
290
     0
176
     1
 93
        5
176
     1
 44
0.0
176
     1
173
     0
176
     1
1001
ACAD
1000
AcDbSavedByObjectVersion
1070
     0
  0
VISUALSTYLE
  5
3D
102
{ACAD_XDICTIONARY
360
134
102
}
102
{ACAD_REACTORS
330
29
102
}
330
29
100
AcDbVisualStyle
  2
Shaded with edges
 70
    26
177
     2
291
     0
 71
     2
176
     1
 72
     2
176
     1
 73
     1
176
     1
 90
        2
176
     1
 40
0.6
176
     1
 41
30.0
176
     1
 63
     7
421
 16777215
176
     1
 74
     1
176
     1
 91
        2
176
     1
 64
     7
176
     1
 65
   257
176
     1
 75
     2
176
     1
175
     1
176
     1
 42
1.0
176
     1
 92
        8
176
     1
 66
   257
176
     1
 43
1.0
176
     1
 76
     1
176
     1
 77
     6
176
     1
 78
     2
176
     1
 67
     7
176
     1
 79
     3
176
     1
170
     0
176
     1
171
     0
176
     1
290
     0
176
     1
 93
        5
176
     1
 44
0.0
176
     1
173
     0
176
     1
1001
ACAD
1000
AcDbSavedByObjectVersion
1070
     0
  0
VISUALSTYLE
  5
3A
102
{ACAD_XDICTIONARY
360
12E
102
}
102
{ACAD_REACTORS
330
29
102
}
330
29
100
AcDbVisualStyle
  2
Shades of Gray
 70
    23
177
     2
291
     0
 71
     2
176
     1
 72
     2
176
     1
 73
     3
176
     1
 90
        0
176
     1
 40
0.6
176
     1
 41
30.0
176
     1
 63
     7
421
 16777215
176
     1
 74
     2
176
     1
 91
        2
176
     1
 64
     7
176
     1
 65
     7
176
     1
 75
     1
176
     1
175
     1
176
     1
 42
40.0
176
     1
 92
        8
176
     1
 66
     7
176
     1
 43
1.0
176
     1
 76
     1
176
     1
 77
     6
176
     1
 78
     2
176
     1
 67
     7
176
     1
 79
     3
176
     1
170
     0
176
     1
171
     0
176
     1
290
     0
176
     1
 93
        1
176
     1
 44
0.0
176
     1
173
     0
176
     1
1001
ACAD
1000
AcDbSavedByObjectVersion
1070
     0
  0
VISUALSTYLE
  5
3B
102
{ACAD_XDICTIONARY
360
130
102
}
102
{ACAD_REACTORS
330
29
102
}
330
29
100
AcDbVisualStyle
  2
Sketchy
 70
    24
177
     2
291
     0
 71
     1
176
     1
 72
     2
176
     1
 73
     2
176
     1
 90
        0
176
     1
 40
0.6
176
     1
 41
30.0
176
     1
 63
     7
421
 16777215
176
     1
 74
     2
176
     1
 91
        2
176
     1
 64
     7
176
     1
 65
     7
176
     1
 75
     1
176
     1
175
     1
176
     1
 42
40.0
176
     1
 92
       11
176
     1
 66
     7
176
     1
 43
1.0
176
     1
 76
     1
176
     1
 77
     6
176
     1
 78
     2
176
     1
 67
     7
176
     1
 79
     6
176
     1
170
     0
176
     1
171
     0
176
     1
290
     0
176
     1
 93
        1
176
     1
 44
0.0
176
     1
173
     0
176
     1
1001
ACAD
1000
AcDbSavedByObjectVersion
1070
     0
  0
VISUALSTYLE
  5
36
102
{ACAD_XDICTIONARY
360
126
102
}
102
{ACAD_REACTORS
330
29
102
}
330
29
100
AcDbVisualStyle
  2
Thicken
 70
    13
177
     2
291
     1
 71
     2
176
     1
 72
     2
176
     1
 73
     0
176
     1
 90
        0
176
     1
 40
0.6
176
     1
 41
30.0
176
     1
 63
     7
421
 16777215
176
     1
 74
     1
176
     1
 91
        4
176
     1
 64
     7
176
     1
 65
   257
176
     1
 75
     1
176
     1
175
     1
176
     1
 42
1.0
176
     1
 92
       12
176
     1
 66
     7
176
     1
 43
1.0
176
     1
 76
     1
176
     1
 77
     6
176
     1
 78
     2
176
     1
 67
     7
176
     1
 79
     5
176
     1
170
     0
176
     1
171
     0
176
     1
290
     0
176
     1
 93
        1
176
     1
 44
0.0
176
     1
173
     0
176
     1
1001
ACAD
1000
AcDbSavedByObjectVersion
1070
     0
  0
VISUALSTYLE
  5
30
102
{ACAD_XDICTIONARY
360
11A
102
}
102
{ACAD_REACTORS
330
29
102
}
330
29
100
AcDbVisualStyle
  2
Wireframe
 70
     5
177
     2
291
     0
 71
     0
176
     1
 72
     2
176
     1
 73
     0
176
     1
 90
        0
176
     1
 40
0.6
176
     1
 41
30.0
176
     1
 63
     7
421
 16777215
176
     1
 74
     1
176
     1
 91
        4
176
     1
 64
     7
176
     1
 65
   257
176
     1
 75
     1
176
     1
175
     1
176
     1
 42
1.0
176
     1
 92
        0
176
     1
 66
   257
176
     1
 43
1.0
176
     1
 76
     1
176
     1
 77
     6
176
     1
 78
     2
176
     1
 67
     7
176
     1
 79
     3
176
     1
170
     0
176
     1
171
     0
176
     1
290
     0
176
     1
 93
        1
176
     1
 44
0.0
176
     1
173
     0
176
     1
1001
ACAD
1000
AcDbSavedByObjectVersion
1070
     0
  0
VISUALSTYLE
  5
3C
102
{ACAD_XDICTIONARY
360
132
102
}
102
{ACAD_REACTORS
330
29
102
}
330
29
100
AcDbVisualStyle
  2
X-Ray
 70
    25
177
     2
291
     0
 71
     2
176
     1
 72
     2
176
     1
 73
     1
176
     1
 90
        1
176
     1
 40
0.5
176
     1
 41
30.0
176
     1
 63
     7
421
 16777215
176
     1
 74
     1
176
     1
 91
        0
176
     1
 64
     7
176
     1
 65
   257
176
     1
 75
     1
176
     1
175
     1
176
     1
 42
1.0
176
     1
 92
        8
176
     1
 66
     7
176
     1
 43
1.0
176
     1
 76
     1
176
     1
 77
     6
176
     1
 78
     2
176
     1
 67
     7
176
     1
 79
     3
176
     1
170
     0
176
     1
171
     0
176
     1
290
     0
176
     1
 93
       13
176
     1
 44
0.0
176
     1
173
     0
176
     1
1001
ACAD
1000
AcDbSavedByObjectVersion
1070
     0
  0
DICTIONARYVAR
  5
10A
102
{ACAD_REACTORS
330
105
102
}
330
105
100
DictionaryVariables
280
     0
  1
1:1
  0
DICTIONARYVAR
  5
107
102
{ACAD_REACTORS
330
105
102
}
330
105
100
DictionaryVariables
280
     0
  1
STANDARD
  0
DICTIONARYVAR
  5
106
102
{ACAD_REACTORS
330
105
102
}
330
105
100
DictionaryVariables
280
     0
  1
STANDARD
  0
DICTIONARYVAR
  5
108
102
{ACAD_REACTORS
330
105
102
}
330
105
100
DictionaryVariables
280
     0
  1
Imperial24
  0
DICTIONARYVAR
  5
109
102
{ACAD_REACTORS
330
105
102
}
330
105
100
DictionaryVariables
280
     0
  1
Imperial24
  0
DICTIONARY
  5
142
330
6B
100
AcDbDictionary
280
     1
281
     1
  3
ACAD_XREC_ROUNDTRIP
360
143
  0
DICTIONARY
  5
1A
330
19
100
AcDbDictionary
280
     1
281
     1
  3
BUMPTILE
360
1C
  3
DIFFUSETILE
360
1B
  3
OPACITYTILE
360
1F
  3
REFLECTIONTILE
360
1E
  3
REFRACTIONTILE
360
20
  3
SPECULARTILE
360
1D
  0
DICTIONARY
  5
12
330
11
100
AcDbDictionary
280
     1
281
     1
  3
BUMPTILE
360
14
  3
DIFFUSETILE
360
13
  3
OPACITYTILE
360
17
  3
REFLECTIONTILE
360
16
  3
REFRACTIONTILE
360
18
  3
SPECULARTILE
360
15
  0
DICTIONARY
  5
22
330
21
100
AcDbDictionary
280
     1
281
     1
  3
BUMPTILE
360
24
  3
DIFFUSETILE
360
23
  3
OPACITYTILE
360
27
  3
REFLECTIONTILE
360
26
  3
REFRACTIONTILE
360
28
  3
SPECULARTILE
360
25
  0
DICTIONARY
  5
13E
330
67
100
AcDbDictionary
280
     1
281
     1
  3
ACAD_XREC_ROUNDTRIP
360
13F
  0
DICTIONARY
  5
140
330
69
100
AcDbDictionary
280
     1
281
     1
  3
ACAD_XREC_ROUNDTRIP
360
141
  0
DICTIONARY
  5
10B
330
65
100
AcDbDictionary
280
     1
281
     1
  3
ACAD_ROUNDTRIP_2008_TABLESTYLE_CELLSTYLEMAP
360
10C
  0
DICTIONARY
  5
118
330
2F
100
AcDbDictionary
280
     1
281
     1
  3
ACAD_XREC_ROUNDTRIP
360
119
  0
DICTIONARY
  5
116
330
2E
100
AcDbDictionary
280
     1
281
     1
  3
ACAD_XREC_ROUNDTRIP
360
117
  0
DICTIONARY
  5
124
330
35
100
AcDbDictionary
280
     1
281
     1
  3
ACAD_XREC_ROUNDTRIP
360
125
  0
DICTIONARY
  5
12C
330
39
100
AcDbDictionary
280
     1
281
     1
  3
ACAD_XREC_ROUNDTRIP
360
12D
  0
DICTIONARY
  5
11E
330
32
100
AcDbDictionary
280
     1
281
     1
  3
ACAD_XREC_ROUNDTRIP
360
11F
  0
DICTIONARY
  5
122
330
34
100
AcDbDictionary
280
     1
281
     1
  3
ACAD_XREC_ROUNDTRIP
360
123
  0
DICTIONARY
  5
13C
330
41
100
AcDbDictionary
280
     1
281
     1
  3
ACAD_XREC_ROUNDTRIP
360
13D
  0
DICTIONARY
  5
12A
330
38
100
AcDbDictionary
280
     1
281
     1
  3
ACAD_XREC_ROUNDTRIP
360
12B
  0
DICTIONARY
  5
10E
330
2A
100
AcDbDictionary
280
     1
281
     1
  3
ACAD_XREC_ROUNDTRIP
360
10F
  0
DICTIONARY
  5
110
330
2B
100
AcDbDictionary
280
     1
281
     1
  3
ACAD_XREC_ROUNDTRIP
360
111
  0
DICTIONARY
  5
112
330
2C
100
AcDbDictionary
280
     1
281
     1
  3
ACAD_XREC_ROUNDTRIP
360
113
  0
DICTIONARY
  5
114
330
2D
100
AcDbDictionary
280
     1
281
     1
  3
ACAD_XREC_ROUNDTRIP
360
115
  0
DICTIONARY
  5
11C
330
31
100
AcDbDictionary
280
     1
281
     1
  3
ACAD_XREC_ROUNDTRIP
360
11D
  0
DICTIONARY
  5
138
330
3F
100
AcDbDictionary
280
     1
281
     1
  3
ACAD_XREC_ROUNDTRIP
360
139
  0
DICTIONARY
  5
128
330
37
100
AcDbDictionary
280
     1
281
     1
  3
ACAD_XREC_ROUNDTRIP
360
129
  0
DICTIONARY
  5
13A
330
40
100
AcDbDictionary
280
     1
281
     1
  3
ACAD_XREC_ROUNDTRIP
360
13B
  0
DICTIONARY
  5
120
330
33
100
AcDbDictionary
280
     1
281
     1
  3
ACAD_XREC_ROUNDTRIP
360
121
  0
DICTIONARY
  5
136
330
3E
100
AcDbDictionary
280
     1
281
     1
  3
ACAD_XREC_ROUNDTRIP
360
137
  0
DICTIONARY
  5
134
330
3D
100
AcDbDictionary
280
     1
281
     1
  3
ACAD_XREC_ROUNDTRIP
360
135
  0
DICTIONARY
  5
12E
330
3A
100
AcDbDictionary
280
     1
281
     1
  3
ACAD_XREC_ROUNDTRIP
360
12F
  0
DICTIONARY
  5
130
330
3B
100
AcDbDictionary
280
     1
281
     1
  3
ACAD_XREC_ROUNDTRIP
360
131
  0
DICTIONARY
  5
126
330
36
100
AcDbDictionary
280
     1
281
     1
  3
ACAD_XREC_ROUNDTRIP
360
127
  0
DICTIONARY
  5
11A
330
30
100
AcDbDictionary
280
     1
281
     1
  3
ACAD_XREC_ROUNDTRIP
360
11B
  0
DICTIONARY
  5
132
330
3C
100
AcDbDictionary
280
     1
281
     1
  3
ACAD_XREC_ROUNDTRIP
360
133
  0
XRECORD
  5
143
102
{ACAD_REACTORS
330
142
102
}
330
142
100
AcDbXrecord
280
     1
102
DISPLAYNAME
  1
Imperial24
102
FLAGS
 90
        0
  0
XRECORD
  5
1C
102
{ACAD_REACTORS
330
1A
102
}
330
1A
100
AcDbXrecord
280
     1
270
     1
271
     1
  0
XRECORD
  5
1B
102
{ACAD_REACTORS
330
1A
102
}
330
1A
100
AcDbXrecord
280
     1
270
     1
271
     1
  0
XRECORD
  5
1F
102
{ACAD_REACTORS
330
1A
102
}
330
1A
100
AcDbXrecord
280
     1
270
     1
271
     1
  0
XRECORD
  5
1E
102
{ACAD_REACTORS
330
1A
102
}
330
1A
100
AcDbXrecord
280
     1
270
     1
271
     1
  0
XRECORD
  5
20
102
{ACAD_REACTORS
330
1A
102
}
330
1A
100
AcDbXrecord
280
     1
270
     1
271
     1
  0
XRECORD
  5
1D
102
{ACAD_REACTORS
330
1A
102
}
330
1A
100
AcDbXrecord
280
     1
270
     1
271
     1
  0
XRECORD
  5
14
102
{ACAD_REACTORS
330
12
102
}
330
12
100
AcDbXrecord
280
     1
270
     1
271
     1
  0
XRECORD
  5
13
102
{ACAD_REACTORS
330
12
102
}
330
12
100
AcDbXrecord
280
     1
270
     1
271
     1
  0
XRECORD
  5
17
102
{ACAD_REACTORS
330
12
102
}
330
12
100
AcDbXrecord
280
     1
270
     1
271
     1
  0
XRECORD
  5
16
102
{ACAD_REACTORS
330
12
102
}
330
12
100
AcDbXrecord
280
     1
270
     1
271
     1
  0
XRECORD
  5
18
102
{ACAD_REACTORS
330
12
102
}
330
12
100
AcDbXrecord
280
     1
270
     1
271
     1
  0
XRECORD
  5
15
102
{ACAD_REACTORS
330
12
102
}
330
12
100
AcDbXrecord
280
     1
270
     1
271
     1
  0
XRECORD
  5
24
102
{ACAD_REACTORS
330
22
102
}
330
22
100
AcDbXrecord
280
     1
270
     1
271
     1
  0
XRECORD
  5
23
102
{ACAD_REACTORS
330
22
102
}
330
22
100
AcDbXrecord
280
     1
270
     1
271
     1
  0
XRECORD
  5
27
102
{ACAD_REACTORS
330
22
102
}
330
22
100
AcDbXrecord
280
     1
270
     1
271
     1
  0
XRECORD
  5
26
102
{ACAD_REACTORS
330
22
102
}
330
22
100
AcDbXrecord
280
     1
270
     1
271
     1
  0
XRECORD
  5
28
102
{ACAD_REACTORS
330
22
102
}
330
22
100
AcDbXrecord
280
     1
270
     1
271
     1
  0
XRECORD
  5
25
102
{ACAD_REACTORS
330
22
102
}
330
22
100
AcDbXrecord
280
     1
270
     1
271
     1
  0
XRECORD
  5
13F
102
{ACAD_REACTORS
330
13E
102
}
330
13E
100
AcDbXrecord
280
     1
102
ACAD_ROUNDTRIP_2012_MLEADER_STYLE
298
     1
  0
XRECORD
  5
141
102
{ACAD_REACTORS
330
140
102
}
330
140
100
AcDbXrecord
280
     1
102
DISPLAYNAME
  1
Imperial24
102
FLAGS
 90
        0
  0
CELLSTYLEMAP
  5
10C
102
{ACAD_REACTORS
330
10B
102
}
330
10B
100
AcDbCellStyleMap
 90
        3
300
CELLSTYLE
  1
TABLEFORMAT_BEGIN
 90
        5
170
     1
 91
        0
 92
    32768
 62
   257
 93
        1
300
CONTENTFORMAT
  1
CONTENTFORMAT_BEGIN
 90
        0
 91
        0
 92
      512
 93
        0
300

 40
0.0
140
1.0
 94
        5
 62
     0
340
55
144
0.25
309
CONTENTFORMAT_END
171
     0
 94
        0
309
TABLEFORMAT_END
  1
CELLSTYLE_BEGIN
 90
        1
 91
        1
300
_TITLE
309
CELLSTYLE_END
300
CELLSTYLE
  1
TABLEFORMAT_BEGIN
 90
        5
170
     1
 91
        0
 92
        0
 62
   257
 93
        1
300
CONTENTFORMAT
  1
CONTENTFORMAT_BEGIN
 90
        0
 91
        0
 92
      512
 93
        0
300

 40
0.0
140
1.0
 94
        5
 62
     0
340
55
144
0.18
309
CONTENTFORMAT_END
171
     0
 94
        0
309
TABLEFORMAT_END
  1
CELLSTYLE_BEGIN
 90
        2
 91
        1
300
_HEADER
309
CELLSTYLE_END
300
CELLSTYLE
  1
TABLEFORMAT_BEGIN
 90
        5
170
     1
 91
        0
 92
        0
 62
   257
 93
        1
300
CONTENTFORMAT
  1
CONTENTFORMAT_BEGIN
 90
        0
 91
        0
 92
      512
 93
        0
300

 40
0.0
140
1.0
 94
        2
 62
     0
340
55
144
0.18
309
CONTENTFORMAT_END
171
     0
 94
        0
309
TABLEFORMAT_END
  1
CELLSTYLE_BEGIN
 90
        3
 91
        2
300
_DATA
309
CELLSTYLE_END
  0
XRECORD
  5
119
102
{ACAD_REACTORS
330
118
102
}
330
118
100
AcDbXrecord
280
     1
102
RTVSPost2010Prop28
280
     1
102
RTVSPost2010PropOp28
 70
     1
102
RTVSPost2010Prop29
280
     1
102
RTVSPost2010PropOp29
 70
     1
102
RTVSPost2010Prop30
280
     0
102
RTVSPost2010PropOp30
 70
     1
102
RTVSPost2010Prop31
280
     0
102
RTVSPost2010PropOp31
 70
     1
102
RTVSPost2010Prop32
280
     0
102
RTVSPost2010PropOp32
 70
     1
102
RTVSPost2010Prop33
280
     0
102
RTVSPost2010PropOp33
 70
     1
102
RTVSPost2010Prop34
280
     0
102
RTVSPost2010PropOp34
 70
     1
102
RTVSPost2010Prop35
280
     0
102
RTVSPost2010PropOp35
 70
     1
102
RTVSPost2010Prop36
280
     0
102
RTVSPost2010PropOp36
 70
     1
102
RTVSPost2010Prop37
 90
       50
102
RTVSPost2010PropOp37
 70
     1
102
RTVSPost2010Prop38
140
0.0
102
RTVSPost2010PropOp38
 70
     1
102
RTVSPost2010Prop39
140
1.0
102
RTVSPost2010PropOp39
 70
     1
102
RTVSPost2010Prop40
 90
        0
102
RTVSPost2010PropOp40
 70
     1
102
RTVSPost2010Prop41ColorIndex
 90
       18
102
RTVSPost2010Prop41ColorRGB
 90
        0
102
RTVSPost2010PropOp41
 70
     1
102
RTVSPost2010Prop42
 90
       50
102
RTVSPost2010PropOp42
 70
     1
102
RTVSPost2010Prop43
 90
        3
102
RTVSPost2010PropOp43
 70
     1
102
RTVSPost2010Prop44ColorIndex
 90
        5
102
RTVSPost2010Prop44ColorRGB
 90
      255
102
RTVSPost2010PropOp44
 70
     1
102
RTVSPost2010Prop45
280
     0
102
RTVSPost2010PropOp45
 70
     1
102
RTVSPost2010Prop46
 90
       50
102
RTVSPost2010PropOp46
 70
     1
102
RTVSPost2010Prop47
 90
       50
102
RTVSPost2010PropOp47
 70
     1
102
RTVSPost2010Prop48
 90
       50
102
RTVSPost2010PropOp48
 70
     1
102
RTVSPost2010Prop49
280
     0
102
RTVSPost2010PropOp49
 70
     1
102
RTVSPost2010Prop50
 90
       50
102
RTVSPost2010PropOp50
 70
     1
102
RTVSPost2010Prop51ColorIndex
 90
      256
102
RTVSPost2010Prop51ColorRGB
 90
-16777216
102
RTVSPost2010PropOp51
 70
     0
102
RTVSPost2010Prop52
140
1.0
102
RTVSPost2010PropOp52
 70
     0
102
RTVSPost2010Prop53
 90
        2
102
RTVSPost2010PropOp53
 70
     1
102
RTVSPost2010Prop54
  1
strokes_ogs.tif
102
RTVSPost2010PropOp54
 70
     1
102
RTVSPost2010Prop55
280
     0
102
RTVSPost2010PropOp55
 70
     1
102
RTVSPost2010Prop56
140
1.0
102
RTVSPost2010PropOp56
 70
     1
102
RTVSPost2010Prop57
140
1.0
102
RTVSPost2010PropOp57
 70
     1
  0
XRECORD
  5
117
102
{ACAD_REACTORS
330
116
102
}
330
116
100
AcDbXrecord
280
     1
102
RTVSPost2010Prop28
280
     0
102
RTVSPost2010PropOp28
 70
     1
102
RTVSPost2010Prop29
280
     1
102
RTVSPost2010PropOp29
 70
     1
102
RTVSPost2010Prop30
280
     1
102
RTVSPost2010PropOp30
 70
     1
102
RTVSPost2010Prop31
280
     0
102
RTVSPost2010PropOp31
 70
     1
102
RTVSPost2010Prop32
280
     0
102
RTVSPost2010PropOp32
 70
     1
102
RTVSPost2010Prop33
280
     0
102
RTVSPost2010PropOp33
 70
     1
102
RTVSPost2010Prop34
280
     0
102
RTVSPost2010PropOp34
 70
     1
102
RTVSPost2010Prop35
280
     0
102
RTVSPost2010PropOp35
 70
     1
102
RTVSPost2010Prop36
280
     0
102
RTVSPost2010PropOp36
 70
     1
102
RTVSPost2010Prop37
 90
       50
102
RTVSPost2010PropOp37
 70
     1
102
RTVSPost2010Prop38
140
0.0
102
RTVSPost2010PropOp38
 70
     1
102
RTVSPost2010Prop39
140
1.0
102
RTVSPost2010PropOp39
 70
     1
102
RTVSPost2010Prop40
 90
        0
102
RTVSPost2010PropOp40
 70
     1
102
RTVSPost2010Prop41ColorIndex
 90
       18
102
RTVSPost2010Prop41ColorRGB
 90
        0
102
RTVSPost2010PropOp41
 70
     1
102
RTVSPost2010Prop42
 90
       50
102
RTVSPost2010PropOp42
 70
     1
102
RTVSPost2010Prop43
 90
        3
102
RTVSPost2010PropOp43
 70
     1
102
RTVSPost2010Prop44ColorIndex
 90
        5
102
RTVSPost2010Prop44ColorRGB
 90
      255
102
RTVSPost2010PropOp44
 70
     1
102
RTVSPost2010Prop45
280
     0
102
RTVSPost2010PropOp45
 70
     1
102
RTVSPost2010Prop46
 90
       50
102
RTVSPost2010PropOp46
 70
     1
102
RTVSPost2010Prop47
 90
       50
102
RTVSPost2010PropOp47
 70
     1
102
RTVSPost2010Prop48
 90
       50
102
RTVSPost2010PropOp48
 70
     1
102
RTVSPost2010Prop49
280
     0
102
RTVSPost2010PropOp49
 70
     1
102
RTVSPost2010Prop50
 90
       50
102
RTVSPost2010PropOp50
 70
     1
102
RTVSPost2010Prop51ColorIndex
 90
      256
102
RTVSPost2010Prop51ColorRGB
 90
-16777216
102
RTVSPost2010PropOp51
 70
     0
102
RTVSPost2010Prop52
140
1.0
102
RTVSPost2010PropOp52
 70
     0
102
RTVSPost2010Prop53
 90
        2
102
RTVSPost2010PropOp53
 70
     1
102
RTVSPost2010Prop54
  1
strokes_ogs.tif
102
RTVSPost2010PropOp54
 70
     1
102
RTVSPost2010Prop55
280
     0
102
RTVSPost2010PropOp55
 70
     1
102
RTVSPost2010Prop56
140
1.0
102
RTVSPost2010PropOp56
 70
     1
102
RTVSPost2010Prop57
140
1.0
102
RTVSPost2010PropOp57
 70
     1
  0
XRECORD
  5
125
102
{ACAD_REACTORS
330
124
102
}
330
124
100
AcDbXrecord
280
     1
102
RTVSPost2010Prop28
280
     0
102
RTVSPost2010PropOp28
 70
     1
102
RTVSPost2010Prop29
280
     1
102
RTVSPost2010PropOp29
 70
     1
102
RTVSPost2010Prop30
280
     1
102
RTVSPost2010PropOp30
 70
     1
102
RTVSPost2010Prop31
280
     0
102
RTVSPost2010PropOp31
 70
     1
102
RTVSPost2010Prop32
280
     0
102
RTVSPost2010PropOp32
 70
     1
102
RTVSPost2010Prop33
280
     0
102
RTVSPost2010PropOp33
 70
     1
102
RTVSPost2010Prop34
280
     0
102
RTVSPost2010PropOp34
 70
     1
102
RTVSPost2010Prop35
280
     0
102
RTVSPost2010PropOp35
 70
     1
102
RTVSPost2010Prop36
280
     0
102
RTVSPost2010PropOp36
 70
     1
102
RTVSPost2010Prop37
 90
       50
102
RTVSPost2010PropOp37
 70
     1
102
RTVSPost2010Prop38
140
0.0
102
RTVSPost2010PropOp38
 70
     1
102
RTVSPost2010Prop39
140
1.0
102
RTVSPost2010PropOp39
 70
     1
102
RTVSPost2010Prop40
 90
        0
102
RTVSPost2010PropOp40
 70
     1
102
RTVSPost2010Prop41ColorIndex
 90
       18
102
RTVSPost2010Prop41ColorRGB
 90
        0
102
RTVSPost2010PropOp41
 70
     1
102
RTVSPost2010Prop42
 90
       50
102
RTVSPost2010PropOp42
 70
     1
102
RTVSPost2010Prop43
 90
        3
102
RTVSPost2010PropOp43
 70
     1
102
RTVSPost2010Prop44ColorIndex
 90
        5
102
RTVSPost2010Prop44ColorRGB
 90
      255
102
RTVSPost2010PropOp44
 70
     1
102
RTVSPost2010Prop45
280
     0
102
RTVSPost2010PropOp45
 70
     1
102
RTVSPost2010Prop46
 90
       50
102
RTVSPost2010PropOp46
 70
     1
102
RTVSPost2010Prop47
 90
       50
102
RTVSPost2010PropOp47
 70
     1
102
RTVSPost2010Prop48
 90
       50
102
RTVSPost2010PropOp48
 70
     1
102
RTVSPost2010Prop49
280
     0
102
RTVSPost2010PropOp49
 70
     1
102
RTVSPost2010Prop50
 90
       50
102
RTVSPost2010PropOp50
 70
     1
102
RTVSPost2010Prop51ColorIndex
 90
      256
102
RTVSPost2010Prop51ColorRGB
 90
-16777216
102
RTVSPost2010PropOp51
 70
     0
102
RTVSPost2010Prop52
140
1.0
102
RTVSPost2010PropOp52
 70
     0
102
RTVSPost2010Prop53
 90
        2
102
RTVSPost2010PropOp53
 70
     1
102
RTVSPost2010Prop54
  1
strokes_ogs.tif
102
RTVSPost2010PropOp54
 70
     1
102
RTVSPost2010Prop55
280
     0
102
RTVSPost2010PropOp55
 70
     1
102
RTVSPost2010Prop56
140
1.0
102
RTVSPost2010PropOp56
 70
     1
102
RTVSPost2010Prop57
140
1.0
102
RTVSPost2010PropOp57
 70
     1
  0
XRECORD
  5
12D
102
{ACAD_REACTORS
330
12C
102
}
330
12C
100
AcDbXrecord
280
     1
102
RTVSPost2010Prop28
280
     0
102
RTVSPost2010PropOp28
 70
     1
102
RTVSPost2010Prop29
280
     1
102
RTVSPost2010PropOp29
 70
     1
102
RTVSPost2010Prop30
280
     1
102
RTVSPost2010PropOp30
 70
     1
102
RTVSPost2010Prop31
280
     0
102
RTVSPost2010PropOp31
 70
     1
102
RTVSPost2010Prop32
280
     0
102
RTVSPost2010PropOp32
 70
     1
102
RTVSPost2010Prop33
280
     0
102
RTVSPost2010PropOp33
 70
     1
102
RTVSPost2010Prop34
280
     0
102
RTVSPost2010PropOp34
 70
     1
102
RTVSPost2010Prop35
280
     0
102
RTVSPost2010PropOp35
 70
     1
102
RTVSPost2010Prop36
280
     0
102
RTVSPost2010PropOp36
 70
     1
102
RTVSPost2010Prop37
 90
       50
102
RTVSPost2010PropOp37
 70
     1
102
RTVSPost2010Prop38
140
0.0
102
RTVSPost2010PropOp38
 70
     1
102
RTVSPost2010Prop39
140
1.0
102
RTVSPost2010PropOp39
 70
     1
102
RTVSPost2010Prop40
 90
        0
102
RTVSPost2010PropOp40
 70
     1
102
RTVSPost2010Prop41ColorIndex
 90
       18
102
RTVSPost2010Prop41ColorRGB
 90
        0
102
RTVSPost2010PropOp41
 70
     1
102
RTVSPost2010Prop42
 90
       50
102
RTVSPost2010PropOp42
 70
     1
102
RTVSPost2010Prop43
 90
        3
102
RTVSPost2010PropOp43
 70
     1
102
RTVSPost2010Prop44ColorIndex
 90
        5
102
RTVSPost2010Prop44ColorRGB
 90
      255
102
RTVSPost2010PropOp44
 70
     1
102
RTVSPost2010Prop45
280
     0
102
RTVSPost2010PropOp45
 70
     1
102
RTVSPost2010Prop46
 90
       50
102
RTVSPost2010PropOp46
 70
     1
102
RTVSPost2010Prop47
 90
       50
102
RTVSPost2010PropOp47
 70
     1
102
RTVSPost2010Prop48
 90
       50
102
RTVSPost2010PropOp48
 70
     1
102
RTVSPost2010Prop49
280
     0
102
RTVSPost2010PropOp49
 70
     1
102
RTVSPost2010Prop50
 90
       50
102
RTVSPost2010PropOp50
 70
     1
102
RTVSPost2010Prop51ColorIndex
 90
      256
102
RTVSPost2010Prop51ColorRGB
 90
-16777216
102
RTVSPost2010PropOp51
 70
     0
102
RTVSPost2010Prop52
140
1.0
102
RTVSPost2010PropOp52
 70
     0
102
RTVSPost2010Prop53
 90
        2
102
RTVSPost2010PropOp53
 70
     1
102
RTVSPost2010Prop54
  1
strokes_ogs.tif
102
RTVSPost2010PropOp54
 70
     1
102
RTVSPost2010Prop55
280
     0
102
RTVSPost2010PropOp55
 70
     1
102
RTVSPost2010Prop56
140
1.0
102
RTVSPost2010PropOp56
 70
     1
102
RTVSPost2010Prop57
140
1.0
102
RTVSPost2010PropOp57
 70
     1
  0
XRECORD
  5
11F
102
{ACAD_REACTORS
330
11E
102
}
330
11E
100
AcDbXrecord
280
     1
102
RTVSPost2010Prop28
280
     0
102
RTVSPost2010PropOp28
 70
     1
102
RTVSPost2010Prop29
280
     1
102
RTVSPost2010PropOp29
 70
     1
102
RTVSPost2010Prop30
280
     1
102
RTVSPost2010PropOp30
 70
     1
102
RTVSPost2010Prop31
280
     0
102
RTVSPost2010PropOp31
 70
     1
102
RTVSPost2010Prop32
280
     0
102
RTVSPost2010PropOp32
 70
     1
102
RTVSPost2010Prop33
280
     0
102
RTVSPost2010PropOp33
 70
     1
102
RTVSPost2010Prop34
280
     0
102
RTVSPost2010PropOp34
 70
     1
102
RTVSPost2010Prop35
280
     0
102
RTVSPost2010PropOp35
 70
     1
102
RTVSPost2010Prop36
280
     0
102
RTVSPost2010PropOp36
 70
     1
102
RTVSPost2010Prop37
 90
       50
102
RTVSPost2010PropOp37
 70
     1
102
RTVSPost2010Prop38
140
0.0
102
RTVSPost2010PropOp38
 70
     1
102
RTVSPost2010Prop39
140
1.0
102
RTVSPost2010PropOp39
 70
     1
102
RTVSPost2010Prop40
 90
        0
102
RTVSPost2010PropOp40
 70
     1
102
RTVSPost2010Prop41ColorIndex
 90
       18
102
RTVSPost2010Prop41ColorRGB
 90
        0
102
RTVSPost2010PropOp41
 70
     1
102
RTVSPost2010Prop42
 90
       50
102
RTVSPost2010PropOp42
 70
     1
102
RTVSPost2010Prop43
 90
        3
102
RTVSPost2010PropOp43
 70
     1
102
RTVSPost2010Prop44ColorIndex
 90
        5
102
RTVSPost2010Prop44ColorRGB
 90
      255
102
RTVSPost2010PropOp44
 70
     1
102
RTVSPost2010Prop45
280
     0
102
RTVSPost2010PropOp45
 70
     1
102
RTVSPost2010Prop46
 90
       50
102
RTVSPost2010PropOp46
 70
     1
102
RTVSPost2010Prop47
 90
       50
102
RTVSPost2010PropOp47
 70
     1
102
RTVSPost2010Prop48
 90
       50
102
RTVSPost2010PropOp48
 70
     1
102
RTVSPost2010Prop49
280
     0
102
RTVSPost2010PropOp49
 70
     1
102
RTVSPost2010Prop50
 90
       50
102
RTVSPost2010PropOp50
 70
     1
102
RTVSPost2010Prop51ColorIndex
 90
      256
102
RTVSPost2010Prop51ColorRGB
 90
-16777216
102
RTVSPost2010PropOp51
 70
     0
102
RTVSPost2010Prop52
140
1.0
102
RTVSPost2010PropOp52
 70
     0
102
RTVSPost2010Prop53
 90
        2
102
RTVSPost2010PropOp53
 70
     1
102
RTVSPost2010Prop54
  1
strokes_ogs.tif
102
RTVSPost2010PropOp54
 70
     1
102
RTVSPost2010Prop55
280
     0
102
RTVSPost2010PropOp55
 70
     1
102
RTVSPost2010Prop56
140
1.0
102
RTVSPost2010PropOp56
 70
     1
102
RTVSPost2010Prop57
140
1.0
102
RTVSPost2010PropOp57
 70
     1
  0
XRECORD
  5
123
102
{ACAD_REACTORS
330
122
102
}
330
122
100
AcDbXrecord
280
     1
102
RTVSPost2010Prop28
280
     0
102
RTVSPost2010PropOp28
 70
     1
102
RTVSPost2010Prop29
280
     1
102
RTVSPost2010PropOp29
 70
     1
102
RTVSPost2010Prop30
280
     1
102
RTVSPost2010PropOp30
 70
     1
102
RTVSPost2010Prop31
280
     0
102
RTVSPost2010PropOp31
 70
     1
102
RTVSPost2010Prop32
280
     0
102
RTVSPost2010PropOp32
 70
     1
102
RTVSPost2010Prop33
280
     0
102
RTVSPost2010PropOp33
 70
     1
102
RTVSPost2010Prop34
280
     0
102
RTVSPost2010PropOp34
 70
     1
102
RTVSPost2010Prop35
280
     0
102
RTVSPost2010PropOp35
 70
     1
102
RTVSPost2010Prop36
280
     0
102
RTVSPost2010PropOp36
 70
     1
102
RTVSPost2010Prop37
 90
       50
102
RTVSPost2010PropOp37
 70
     1
102
RTVSPost2010Prop38
140
0.0
102
RTVSPost2010PropOp38
 70
     1
102
RTVSPost2010Prop39
140
1.0
102
RTVSPost2010PropOp39
 70
     1
102
RTVSPost2010Prop40
 90
        0
102
RTVSPost2010PropOp40
 70
     1
102
RTVSPost2010Prop41ColorIndex
 90
       18
102
RTVSPost2010Prop41ColorRGB
 90
        0
102
RTVSPost2010PropOp41
 70
     1
102
RTVSPost2010Prop42
 90
       50
102
RTVSPost2010PropOp42
 70
     1
102
RTVSPost2010Prop43
 90
        3
102
RTVSPost2010PropOp43
 70
     1
102
RTVSPost2010Prop44ColorIndex
 90
        5
102
RTVSPost2010Prop44ColorRGB
 90
      255
102
RTVSPost2010PropOp44
 70
     1
102
RTVSPost2010Prop45
280
     0
102
RTVSPost2010PropOp45
 70
     1
102
RTVSPost2010Prop46
 90
       50
102
RTVSPost2010PropOp46
 70
     1
102
RTVSPost2010Prop47
 90
       50
102
RTVSPost2010PropOp47
 70
     1
102
RTVSPost2010Prop48
 90
       50
102
RTVSPost2010PropOp48
 70
     1
102
RTVSPost2010Prop49
280
     0
102
RTVSPost2010PropOp49
 70
     1
102
RTVSPost2010Prop50
 90
       50
102
RTVSPost2010PropOp50
 70
     1
102
RTVSPost2010Prop51ColorIndex
 90
      256
102
RTVSPost2010Prop51ColorRGB
 90
-16777216
102
RTVSPost2010PropOp51
 70
     0
102
RTVSPost2010Prop52
140
1.0
102
RTVSPost2010PropOp52
 70
     0
102
RTVSPost2010Prop53
 90
        2
102
RTVSPost2010PropOp53
 70
     1
102
RTVSPost2010Prop54
  1
strokes_ogs.tif
102
RTVSPost2010PropOp54
 70
     1
102
RTVSPost2010Prop55
280
     0
102
RTVSPost2010PropOp55
 70
     1
102
RTVSPost2010Prop56
140
1.0
102
RTVSPost2010PropOp56
 70
     1
102
RTVSPost2010Prop57
140
1.0
102
RTVSPost2010PropOp57
 70
     1
  0
XRECORD
  5
13D
102
{ACAD_REACTORS
330
13C
102
}
330
13C
100
AcDbXrecord
280
     1
102
RTVSPost2010Prop28
280
     0
102
RTVSPost2010PropOp28
 70
     0
102
RTVSPost2010Prop29
280
     1
102
RTVSPost2010PropOp29
 70
     0
102
RTVSPost2010Prop30
280
     1
102
RTVSPost2010PropOp30
 70
     0
102
RTVSPost2010Prop31
280
     0
102
RTVSPost2010PropOp31
 70
     0
102
RTVSPost2010Prop32
280
     0
102
RTVSPost2010PropOp32
 70
     0
102
RTVSPost2010Prop33
280
     0
102
RTVSPost2010PropOp33
 70
     0
102
RTVSPost2010Prop34
280
     0
102
RTVSPost2010PropOp34
 70
     0
102
RTVSPost2010Prop35
280
     0
102
RTVSPost2010PropOp35
 70
     0
102
RTVSPost2010Prop36
280
     0
102
RTVSPost2010PropOp36
 70
     0
102
RTVSPost2010Prop37
 90
       50
102
RTVSPost2010PropOp37
 70
     0
102
RTVSPost2010Prop38
140
0.0
102
RTVSPost2010PropOp38
 70
     0
102
RTVSPost2010Prop39
140
1.0
102
RTVSPost2010PropOp39
 70
     0
102
RTVSPost2010Prop40
 90
        0
102
RTVSPost2010PropOp40
 70
     0
102
RTVSPost2010Prop41ColorIndex
 90
       18
102
RTVSPost2010Prop41ColorRGB
 90
        0
102
RTVSPost2010PropOp41
 70
     0
102
RTVSPost2010Prop42
 90
       50
102
RTVSPost2010PropOp42
 70
     0
102
RTVSPost2010Prop43
 90
        3
102
RTVSPost2010PropOp43
 70
     0
102
RTVSPost2010Prop44ColorIndex
 90
        5
102
RTVSPost2010Prop44ColorRGB
 90
      255
102
RTVSPost2010PropOp44
 70
     0
102
RTVSPost2010Prop45
280
     0
102
RTVSPost2010PropOp45
 70
     0
102
RTVSPost2010Prop46
 90
       50
102
RTVSPost2010PropOp46
 70
     0
102
RTVSPost2010Prop47
 90
       50
102
RTVSPost2010PropOp47
 70
     0
102
RTVSPost2010Prop48
 90
       50
102
RTVSPost2010PropOp48
 70
     0
102
RTVSPost2010Prop49
280
     0
102
RTVSPost2010PropOp49
 70
     0
102
RTVSPost2010Prop50
 90
       50
102
RTVSPost2010PropOp50
 70
     0
102
RTVSPost2010Prop51ColorIndex
 90
      256
102
RTVSPost2010Prop51ColorRGB
 90
-16777216
102
RTVSPost2010PropOp51
 70
     0
102
RTVSPost2010Prop52
140
1.0
102
RTVSPost2010PropOp52
 70
     0
102
RTVSPost2010Prop53
 90
        2
102
RTVSPost2010PropOp53
 70
     0
102
RTVSPost2010Prop54
  1
strokes_ogs.tif
102
RTVSPost2010PropOp54
 70
     0
102
RTVSPost2010Prop55
280
     0
102
RTVSPost2010PropOp55
 70
     0
102
RTVSPost2010Prop56
140
1.0
102
RTVSPost2010PropOp56
 70
     0
102
RTVSPost2010Prop57
140
1.0
102
RTVSPost2010PropOp57
 70
     0
  0
XRECORD
  5
12B
102
{ACAD_REACTORS
330
12A
102
}
330
12A
100
AcDbXrecord
280
     1
102
RTVSPost2010Prop28
280
     0
102
RTVSPost2010PropOp28
 70
     1
102
RTVSPost2010Prop29
280
     1
102
RTVSPost2010PropOp29
 70
     1
102
RTVSPost2010Prop30
280
     1
102
RTVSPost2010PropOp30
 70
     1
102
RTVSPost2010Prop31
280
     0
102
RTVSPost2010PropOp31
 70
     1
102
RTVSPost2010Prop32
280
     0
102
RTVSPost2010PropOp32
 70
     1
102
RTVSPost2010Prop33
280
     0
102
RTVSPost2010PropOp33
 70
     1
102
RTVSPost2010Prop34
280
     0
102
RTVSPost2010PropOp34
 70
     1
102
RTVSPost2010Prop35
280
     0
102
RTVSPost2010PropOp35
 70
     1
102
RTVSPost2010Prop36
280
     0
102
RTVSPost2010PropOp36
 70
     1
102
RTVSPost2010Prop37
 90
       50
102
RTVSPost2010PropOp37
 70
     1
102
RTVSPost2010Prop38
140
0.0
102
RTVSPost2010PropOp38
 70
     1
102
RTVSPost2010Prop39
140
1.0
102
RTVSPost2010PropOp39
 70
     1
102
RTVSPost2010Prop40
 90
        0
102
RTVSPost2010PropOp40
 70
     1
102
RTVSPost2010Prop41ColorIndex
 90
       18
102
RTVSPost2010Prop41ColorRGB
 90
        0
102
RTVSPost2010PropOp41
 70
     1
102
RTVSPost2010Prop42
 90
       50
102
RTVSPost2010PropOp42
 70
     1
102
RTVSPost2010Prop43
 90
        3
102
RTVSPost2010PropOp43
 70
     1
102
RTVSPost2010Prop44ColorIndex
 90
        5
102
RTVSPost2010Prop44ColorRGB
 90
      255
102
RTVSPost2010PropOp44
 70
     1
102
RTVSPost2010Prop45
280
     0
102
RTVSPost2010PropOp45
 70
     1
102
RTVSPost2010Prop46
 90
       50
102
RTVSPost2010PropOp46
 70
     1
102
RTVSPost2010Prop47
 90
       50
102
RTVSPost2010PropOp47
 70
     1
102
RTVSPost2010Prop48
 90
       50
102
RTVSPost2010PropOp48
 70
     1
102
RTVSPost2010Prop49
280
     0
102
RTVSPost2010PropOp49
 70
     1
102
RTVSPost2010Prop50
 90
       50
102
RTVSPost2010PropOp50
 70
     1
102
RTVSPost2010Prop51ColorIndex
 90
      256
102
RTVSPost2010Prop51ColorRGB
 90
-16777216
102
RTVSPost2010PropOp51
 70
     0
102
RTVSPost2010Prop52
140
1.0
102
RTVSPost2010PropOp52
 70
     0
102
RTVSPost2010Prop53
 90
        2
102
RTVSPost2010PropOp53
 70
     1
102
RTVSPost2010Prop54
  1
strokes_ogs.tif
102
RTVSPost2010PropOp54
 70
     1
102
RTVSPost2010Prop55
280
     0
102
RTVSPost2010PropOp55
 70
     1
102
RTVSPost2010Prop56
140
1.0
102
RTVSPost2010PropOp56
 70
     1
102
RTVSPost2010Prop57
140
1.0
102
RTVSPost2010PropOp57
 70
     1
  0
XRECORD
  5
10F
102
{ACAD_REACTORS
330
10E
102
}
330
10E
100
AcDbXrecord
280
     1
102
RTVSPost2010Prop28
280
     0
102
RTVSPost2010PropOp28
 70
     1
102
RTVSPost2010Prop29
280
     1
102
RTVSPost2010PropOp29
 70
     1
102
RTVSPost2010Prop30
280
     1
102
RTVSPost2010PropOp30
 70
     1
102
RTVSPost2010Prop31
280
     0
102
RTVSPost2010PropOp31
 70
     1
102
RTVSPost2010Prop32
280
     0
102
RTVSPost2010PropOp32
 70
     1
102
RTVSPost2010Prop33
280
     0
102
RTVSPost2010PropOp33
 70
     1
102
RTVSPost2010Prop34
280
     0
102
RTVSPost2010PropOp34
 70
     1
102
RTVSPost2010Prop35
280
     0
102
RTVSPost2010PropOp35
 70
     1
102
RTVSPost2010Prop36
280
     0
102
RTVSPost2010PropOp36
 70
     1
102
RTVSPost2010Prop37
 90
       50
102
RTVSPost2010PropOp37
 70
     1
102
RTVSPost2010Prop38
140
0.0
102
RTVSPost2010PropOp38
 70
     1
102
RTVSPost2010Prop39
140
1.0
102
RTVSPost2010PropOp39
 70
     1
102
RTVSPost2010Prop40
 90
        0
102
RTVSPost2010PropOp40
 70
     1
102
RTVSPost2010Prop41ColorIndex
 90
       18
102
RTVSPost2010Prop41ColorRGB
 90
        0
102
RTVSPost2010PropOp41
 70
     1
102
RTVSPost2010Prop42
 90
       50
102
RTVSPost2010PropOp42
 70
     1
102
RTVSPost2010Prop43
 90
        3
102
RTVSPost2010PropOp43
 70
     1
102
RTVSPost2010Prop44ColorIndex
 90
        5
102
RTVSPost2010Prop44ColorRGB
 90
      255
102
RTVSPost2010PropOp44
 70
     1
102
RTVSPost2010Prop45
280
     0
102
RTVSPost2010PropOp45
 70
     1
102
RTVSPost2010Prop46
 90
       50
102
RTVSPost2010PropOp46
 70
     1
102
RTVSPost2010Prop47
 90
       50
102
RTVSPost2010PropOp47
 70
     1
102
RTVSPost2010Prop48
 90
       50
102
RTVSPost2010PropOp48
 70
     1
102
RTVSPost2010Prop49
280
     0
102
RTVSPost2010PropOp49
 70
     1
102
RTVSPost2010Prop50
 90
       50
102
RTVSPost2010PropOp50
 70
     1
102
RTVSPost2010Prop51ColorIndex
 90
      256
102
RTVSPost2010Prop51ColorRGB
 90
-16777216
102
RTVSPost2010PropOp51
 70
     0
102
RTVSPost2010Prop52
140
1.0
102
RTVSPost2010PropOp52
 70
     0
102
RTVSPost2010Prop53
 90
        2
102
RTVSPost2010PropOp53
 70
     1
102
RTVSPost2010Prop54
  1
strokes_ogs.tif
102
RTVSPost2010PropOp54
 70
     1
102
RTVSPost2010Prop55
280
     0
102
RTVSPost2010PropOp55
 70
     1
102
RTVSPost2010Prop56
140
1.0
102
RTVSPost2010PropOp56
 70
     1
102
RTVSPost2010Prop57
140
1.0
102
RTVSPost2010PropOp57
 70
     1
  0
XRECORD
  5
111
102
{ACAD_REACTORS
330
110
102
}
330
110
100
AcDbXrecord
280
     1
102
RTVSPost2010Prop28
280
     0
102
RTVSPost2010PropOp28
 70
     1
102
RTVSPost2010Prop29
280
     1
102
RTVSPost2010PropOp29
 70
     1
102
RTVSPost2010Prop30
280
     1
102
RTVSPost2010PropOp30
 70
     1
102
RTVSPost2010Prop31
280
     0
102
RTVSPost2010PropOp31
 70
     1
102
RTVSPost2010Prop32
280
     0
102
RTVSPost2010PropOp32
 70
     1
102
RTVSPost2010Prop33
280
     0
102
RTVSPost2010PropOp33
 70
     1
102
RTVSPost2010Prop34
280
     0
102
RTVSPost2010PropOp34
 70
     1
102
RTVSPost2010Prop35
280
     0
102
RTVSPost2010PropOp35
 70
     1
102
RTVSPost2010Prop36
280
     0
102
RTVSPost2010PropOp36
 70
     1
102
RTVSPost2010Prop37
 90
       50
102
RTVSPost2010PropOp37
 70
     1
102
RTVSPost2010Prop38
140
0.0
102
RTVSPost2010PropOp38
 70
     1
102
RTVSPost2010Prop39
140
1.0
102
RTVSPost2010PropOp39
 70
     1
102
RTVSPost2010Prop40
 90
        0
102
RTVSPost2010PropOp40
 70
     1
102
RTVSPost2010Prop41ColorIndex
 90
       18
102
RTVSPost2010Prop41ColorRGB
 90
        0
102
RTVSPost2010PropOp41
 70
     1
102
RTVSPost2010Prop42
 90
       50
102
RTVSPost2010PropOp42
 70
     1
102
RTVSPost2010Prop43
 90
        3
102
RTVSPost2010PropOp43
 70
     1
102
RTVSPost2010Prop44ColorIndex
 90
        5
102
RTVSPost2010Prop44ColorRGB
 90
      255
102
RTVSPost2010PropOp44
 70
     1
102
RTVSPost2010Prop45
280
     0
102
RTVSPost2010PropOp45
 70
     1
102
RTVSPost2010Prop46
 90
       50
102
RTVSPost2010PropOp46
 70
     1
102
RTVSPost2010Prop47
 90
       50
102
RTVSPost2010PropOp47
 70
     1
102
RTVSPost2010Prop48
 90
       50
102
RTVSPost2010PropOp48
 70
     1
102
RTVSPost2010Prop49
280
     0
102
RTVSPost2010PropOp49
 70
     1
102
RTVSPost2010Prop50
 90
       50
102
RTVSPost2010PropOp50
 70
     1
102
RTVSPost2010Prop51ColorIndex
 90
      256
102
RTVSPost2010Prop51ColorRGB
 90
-16777216
102
RTVSPost2010PropOp51
 70
     0
102
RTVSPost2010Prop52
140
1.0
102
RTVSPost2010PropOp52
 70
     0
102
RTVSPost2010Prop53
 90
        2
102
RTVSPost2010PropOp53
 70
     1
102
RTVSPost2010Prop54
  1
strokes_ogs.tif
102
RTVSPost2010PropOp54
 70
     1
102
RTVSPost2010Prop55
280
     0
102
RTVSPost2010PropOp55
 70
     1
102
RTVSPost2010Prop56
140
1.0
102
RTVSPost2010PropOp56
 70
     1
102
RTVSPost2010Prop57
140
1.0
102
RTVSPost2010PropOp57
 70
     1
  0
XRECORD
  5
113
102
{ACAD_REACTORS
330
112
102
}
330
112
100
AcDbXrecord
280
     1
102
RTVSPost2010Prop28
280
     0
102
RTVSPost2010PropOp28
 70
     1
102
RTVSPost2010Prop29
280
     1
102
RTVSPost2010PropOp29
 70
     1
102
RTVSPost2010Prop30
280
     1
102
RTVSPost2010PropOp30
 70
     1
102
RTVSPost2010Prop31
280
     0
102
RTVSPost2010PropOp31
 70
     1
102
RTVSPost2010Prop32
280
     0
102
RTVSPost2010PropOp32
 70
     1
102
RTVSPost2010Prop33
280
     0
102
RTVSPost2010PropOp33
 70
     1
102
RTVSPost2010Prop34
280
     0
102
RTVSPost2010PropOp34
 70
     1
102
RTVSPost2010Prop35
280
     0
102
RTVSPost2010PropOp35
 70
     1
102
RTVSPost2010Prop36
280
     0
102
RTVSPost2010PropOp36
 70
     1
102
RTVSPost2010Prop37
 90
       50
102
RTVSPost2010PropOp37
 70
     1
102
RTVSPost2010Prop38
140
0.0
102
RTVSPost2010PropOp38
 70
     1
102
RTVSPost2010Prop39
140
1.0
102
RTVSPost2010PropOp39
 70
     1
102
RTVSPost2010Prop40
 90
        0
102
RTVSPost2010PropOp40
 70
     1
102
RTVSPost2010Prop41ColorIndex
 90
       18
102
RTVSPost2010Prop41ColorRGB
 90
        0
102
RTVSPost2010PropOp41
 70
     1
102
RTVSPost2010Prop42
 90
       50
102
RTVSPost2010PropOp42
 70
     1
102
RTVSPost2010Prop43
 90
        3
102
RTVSPost2010PropOp43
 70
     1
102
RTVSPost2010Prop44ColorIndex
 90
        5
102
RTVSPost2010Prop44ColorRGB
 90
      255
102
RTVSPost2010PropOp44
 70
     1
102
RTVSPost2010Prop45
280
     0
102
RTVSPost2010PropOp45
 70
     1
102
RTVSPost2010Prop46
 90
       50
102
RTVSPost2010PropOp46
 70
     1
102
RTVSPost2010Prop47
 90
       50
102
RTVSPost2010PropOp47
 70
     1
102
RTVSPost2010Prop48
 90
       50
102
RTVSPost2010PropOp48
 70
     1
102
RTVSPost2010Prop49
280
     0
102
RTVSPost2010PropOp49
 70
     1
102
RTVSPost2010Prop50
 90
       50
102
RTVSPost2010PropOp50
 70
     1
102
RTVSPost2010Prop51ColorIndex
 90
      256
102
RTVSPost2010Prop51ColorRGB
 90
-16777216
102
RTVSPost2010PropOp51
 70
     0
102
RTVSPost2010Prop52
140
1.0
102
RTVSPost2010PropOp52
 70
     0
102
RTVSPost2010Prop53
 90
        2
102
RTVSPost2010PropOp53
 70
     1
102
RTVSPost2010Prop54
  1
strokes_ogs.tif
102
RTVSPost2010PropOp54
 70
     1
102
RTVSPost2010Prop55
280
     0
102
RTVSPost2010PropOp55
 70
     1
102
RTVSPost2010Prop56
140
1.0
102
RTVSPost2010PropOp56
 70
     1
102
RTVSPost2010Prop57
140
1.0
102
RTVSPost2010PropOp57
 70
     1
  0
XRECORD
  5
115
102
{ACAD_REACTORS
330
114
102
}
330
114
100
AcDbXrecord
280
     1
102
RTVSPost2010Prop28
280
     0
102
RTVSPost2010PropOp28
 70
     1
102
RTVSPost2010Prop29
280
     1
102
RTVSPost2010PropOp29
 70
     1
102
RTVSPost2010Prop30
280
     1
102
RTVSPost2010PropOp30
 70
     1
102
RTVSPost2010Prop31
280
     0
102
RTVSPost2010PropOp31
 70
     1
102
RTVSPost2010Prop32
280
     0
102
RTVSPost2010PropOp32
 70
     1
102
RTVSPost2010Prop33
280
     0
102
RTVSPost2010PropOp33
 70
     1
102
RTVSPost2010Prop34
280
     0
102
RTVSPost2010PropOp34
 70
     1
102
RTVSPost2010Prop35
280
     0
102
RTVSPost2010PropOp35
 70
     1
102
RTVSPost2010Prop36
280
     0
102
RTVSPost2010PropOp36
 70
     1
102
RTVSPost2010Prop37
 90
       50
102
RTVSPost2010PropOp37
 70
     1
102
RTVSPost2010Prop38
140
0.0
102
RTVSPost2010PropOp38
 70
     1
102
RTVSPost2010Prop39
140
1.0
102
RTVSPost2010PropOp39
 70
     1
102
RTVSPost2010Prop40
 90
        0
102
RTVSPost2010PropOp40
 70
     1
102
RTVSPost2010Prop41ColorIndex
 90
       18
102
RTVSPost2010Prop41ColorRGB
 90
        0
102
RTVSPost2010PropOp41
 70
     1
102
RTVSPost2010Prop42
 90
       50
102
RTVSPost2010PropOp42
 70
     1
102
RTVSPost2010Prop43
 90
        3
102
RTVSPost2010PropOp43
 70
     1
102
RTVSPost2010Prop44ColorIndex
 90
        5
102
RTVSPost2010Prop44ColorRGB
 90
      255
102
RTVSPost2010PropOp44
 70
     1
102
RTVSPost2010Prop45
280
     0
102
RTVSPost2010PropOp45
 70
     1
102
RTVSPost2010Prop46
 90
       50
102
RTVSPost2010PropOp46
 70
     1
102
RTVSPost2010Prop47
 90
       50
102
RTVSPost2010PropOp47
 70
     1
102
RTVSPost2010Prop48
 90
       50
102
RTVSPost2010PropOp48
 70
     1
102
RTVSPost2010Prop49
280
     0
102
RTVSPost2010PropOp49
 70
     1
102
RTVSPost2010Prop50
 90
       50
102
RTVSPost2010PropOp50
 70
     1
102
RTVSPost2010Prop51ColorIndex
 90
      256
102
RTVSPost2010Prop51ColorRGB
 90
-16777216
102
RTVSPost2010PropOp51
 70
     0
102
RTVSPost2010Prop52
140
1.0
102
RTVSPost2010PropOp52
 70
     0
102
RTVSPost2010Prop53
 90
        2
102
RTVSPost2010PropOp53
 70
     1
102
RTVSPost2010Prop54
  1
strokes_ogs.tif
102
RTVSPost2010PropOp54
 70
     1
102
RTVSPost2010Prop55
280
     0
102
RTVSPost2010PropOp55
 70
     1
102
RTVSPost2010Prop56
140
1.0
102
RTVSPost2010PropOp56
 70
     1
102
RTVSPost2010Prop57
140
1.0
102
RTVSPost2010PropOp57
 70
     1
  0
XRECORD
  5
11D
102
{ACAD_REACTORS
330
11C
102
}
330
11C
100
AcDbXrecord
280
     1
102
RTVSPost2010Prop28
280
     0
102
RTVSPost2010PropOp28
 70
     1
102
RTVSPost2010Prop29
280
     1
102
RTVSPost2010PropOp29
 70
     1
102
RTVSPost2010Prop30
280
     1
102
RTVSPost2010PropOp30
 70
     1
102
RTVSPost2010Prop31
280
     0
102
RTVSPost2010PropOp31
 70
     1
102
RTVSPost2010Prop32
280
     0
102
RTVSPost2010PropOp32
 70
     1
102
RTVSPost2010Prop33
280
     0
102
RTVSPost2010PropOp33
 70
     1
102
RTVSPost2010Prop34
280
     0
102
RTVSPost2010PropOp34
 70
     1
102
RTVSPost2010Prop35
280
     0
102
RTVSPost2010PropOp35
 70
     1
102
RTVSPost2010Prop36
280
     0
102
RTVSPost2010PropOp36
 70
     1
102
RTVSPost2010Prop37
 90
       50
102
RTVSPost2010PropOp37
 70
     1
102
RTVSPost2010Prop38
140
0.0
102
RTVSPost2010PropOp38
 70
     1
102
RTVSPost2010Prop39
140
1.0
102
RTVSPost2010PropOp39
 70
     1
102
RTVSPost2010Prop40
 90
        0
102
RTVSPost2010PropOp40
 70
     1
102
RTVSPost2010Prop41ColorIndex
 90
       18
102
RTVSPost2010Prop41ColorRGB
 90
        0
102
RTVSPost2010PropOp41
 70
     1
102
RTVSPost2010Prop42
 90
       50
102
RTVSPost2010PropOp42
 70
     1
102
RTVSPost2010Prop43
 90
        3
102
RTVSPost2010PropOp43
 70
     1
102
RTVSPost2010Prop44ColorIndex
 90
        5
102
RTVSPost2010Prop44ColorRGB
 90
      255
102
RTVSPost2010PropOp44
 70
     1
102
RTVSPost2010Prop45
280
     0
102
RTVSPost2010PropOp45
 70
     1
102
RTVSPost2010Prop46
 90
       50
102
RTVSPost2010PropOp46
 70
     1
102
RTVSPost2010Prop47
 90
       50
102
RTVSPost2010PropOp47
 70
     1
102
RTVSPost2010Prop48
 90
       50
102
RTVSPost2010PropOp48
 70
     1
102
RTVSPost2010Prop49
280
     0
102
RTVSPost2010PropOp49
 70
     1
102
RTVSPost2010Prop50
 90
       50
102
RTVSPost2010PropOp50
 70
     1
102
RTVSPost2010Prop51ColorIndex
 90
      256
102
RTVSPost2010Prop51ColorRGB
 90
-16777216
102
RTVSPost2010PropOp51
 70
     0
102
RTVSPost2010Prop52
140
1.0
102
RTVSPost2010PropOp52
 70
     0
102
RTVSPost2010Prop53
 90
        2
102
RTVSPost2010PropOp53
 70
     1
102
RTVSPost2010Prop54
  1
strokes_ogs.tif
102
RTVSPost2010PropOp54
 70
     1
102
RTVSPost2010Prop55
280
     0
102
RTVSPost2010PropOp55
 70
     1
102
RTVSPost2010Prop56
140
1.0
102
RTVSPost2010PropOp56
 70
     1
102
RTVSPost2010Prop57
140
1.0
102
RTVSPost2010PropOp57
 70
     1
  0
XRECORD
  5
139
102
{ACAD_REACTORS
330
138
102
}
330
138
100
AcDbXrecord
280
     1
102
RTVSPost2010Prop28
280
     0
102
RTVSPost2010PropOp28
 70
     0
102
RTVSPost2010Prop29
280
     1
102
RTVSPost2010PropOp29
 70
     0
102
RTVSPost2010Prop30
280
     1
102
RTVSPost2010PropOp30
 70
     0
102
RTVSPost2010Prop31
280
     0
102
RTVSPost2010PropOp31
 70
     0
102
RTVSPost2010Prop32
280
     0
102
RTVSPost2010PropOp32
 70
     0
102
RTVSPost2010Prop33
280
     0
102
RTVSPost2010PropOp33
 70
     0
102
RTVSPost2010Prop34
280
     0
102
RTVSPost2010PropOp34
 70
     0
102
RTVSPost2010Prop35
280
     0
102
RTVSPost2010PropOp35
 70
     0
102
RTVSPost2010Prop36
280
     0
102
RTVSPost2010PropOp36
 70
     0
102
RTVSPost2010Prop37
 90
       50
102
RTVSPost2010PropOp37
 70
     0
102
RTVSPost2010Prop38
140
0.0
102
RTVSPost2010PropOp38
 70
     0
102
RTVSPost2010Prop39
140
1.0
102
RTVSPost2010PropOp39
 70
     0
102
RTVSPost2010Prop40
 90
        0
102
RTVSPost2010PropOp40
 70
     0
102
RTVSPost2010Prop41ColorIndex
 90
       18
102
RTVSPost2010Prop41ColorRGB
 90
        0
102
RTVSPost2010PropOp41
 70
     0
102
RTVSPost2010Prop42
 90
       50
102
RTVSPost2010PropOp42
 70
     0
102
RTVSPost2010Prop43
 90
        3
102
RTVSPost2010PropOp43
 70
     0
102
RTVSPost2010Prop44ColorIndex
 90
        5
102
RTVSPost2010Prop44ColorRGB
 90
      255
102
RTVSPost2010PropOp44
 70
     0
102
RTVSPost2010Prop45
280
     0
102
RTVSPost2010PropOp45
 70
     0
102
RTVSPost2010Prop46
 90
       50
102
RTVSPost2010PropOp46
 70
     0
102
RTVSPost2010Prop47
 90
       50
102
RTVSPost2010PropOp47
 70
     0
102
RTVSPost2010Prop48
 90
       50
102
RTVSPost2010PropOp48
 70
     0
102
RTVSPost2010Prop49
280
     0
102
RTVSPost2010PropOp49
 70
     0
102
RTVSPost2010Prop50
 90
       50
102
RTVSPost2010PropOp50
 70
     0
102
RTVSPost2010Prop51ColorIndex
 90
      256
102
RTVSPost2010Prop51ColorRGB
 90
-16777216
102
RTVSPost2010PropOp51
 70
     0
102
RTVSPost2010Prop52
140
1.0
102
RTVSPost2010PropOp52
 70
     0
102
RTVSPost2010Prop53
 90
        2
102
RTVSPost2010PropOp53
 70
     0
102
RTVSPost2010Prop54
  1
strokes_ogs.tif
102
RTVSPost2010PropOp54
 70
     0
102
RTVSPost2010Prop55
280
     0
102
RTVSPost2010PropOp55
 70
     0
102
RTVSPost2010Prop56
140
1.0
102
RTVSPost2010PropOp56
 70
     0
102
RTVSPost2010Prop57
140
1.0
102
RTVSPost2010PropOp57
 70
     0
  0
XRECORD
  5
129
102
{ACAD_REACTORS
330
128
102
}
330
128
100
AcDbXrecord
280
     1
102
RTVSPost2010Prop28
280
     0
102
RTVSPost2010PropOp28
 70
     1
102
RTVSPost2010Prop29
280
     1
102
RTVSPost2010PropOp29
 70
     1
102
RTVSPost2010Prop30
280
     1
102
RTVSPost2010PropOp30
 70
     1
102
RTVSPost2010Prop31
280
     0
102
RTVSPost2010PropOp31
 70
     1
102
RTVSPost2010Prop32
280
     0
102
RTVSPost2010PropOp32
 70
     1
102
RTVSPost2010Prop33
280
     0
102
RTVSPost2010PropOp33
 70
     1
102
RTVSPost2010Prop34
280
     0
102
RTVSPost2010PropOp34
 70
     1
102
RTVSPost2010Prop35
280
     0
102
RTVSPost2010PropOp35
 70
     1
102
RTVSPost2010Prop36
280
     0
102
RTVSPost2010PropOp36
 70
     1
102
RTVSPost2010Prop37
 90
       50
102
RTVSPost2010PropOp37
 70
     1
102
RTVSPost2010Prop38
140
0.0
102
RTVSPost2010PropOp38
 70
     1
102
RTVSPost2010Prop39
140
1.0
102
RTVSPost2010PropOp39
 70
     1
102
RTVSPost2010Prop40
 90
        0
102
RTVSPost2010PropOp40
 70
     1
102
RTVSPost2010Prop41ColorIndex
 90
       18
102
RTVSPost2010Prop41ColorRGB
 90
        0
102
RTVSPost2010PropOp41
 70
     1
102
RTVSPost2010Prop42
 90
       50
102
RTVSPost2010PropOp42
 70
     1
102
RTVSPost2010Prop43
 90
        3
102
RTVSPost2010PropOp43
 70
     1
102
RTVSPost2010Prop44ColorIndex
 90
        5
102
RTVSPost2010Prop44ColorRGB
 90
      255
102
RTVSPost2010PropOp44
 70
     1
102
RTVSPost2010Prop45
280
     0
102
RTVSPost2010PropOp45
 70
     1
102
RTVSPost2010Prop46
 90
       50
102
RTVSPost2010PropOp46
 70
     1
102
RTVSPost2010Prop47
 90
       50
102
RTVSPost2010PropOp47
 70
     1
102
RTVSPost2010Prop48
 90
       50
102
RTVSPost2010PropOp48
 70
     1
102
RTVSPost2010Prop49
280
     0
102
RTVSPost2010PropOp49
 70
     1
102
RTVSPost2010Prop50
 90
       50
102
RTVSPost2010PropOp50
 70
     1
102
RTVSPost2010Prop51ColorIndex
 90
      256
102
RTVSPost2010Prop51ColorRGB
 90
-16777216
102
RTVSPost2010PropOp51
 70
     0
102
RTVSPost2010Prop52
140
1.0
102
RTVSPost2010PropOp52
 70
     0
102
RTVSPost2010Prop53
 90
        2
102
RTVSPost2010PropOp53
 70
     1
102
RTVSPost2010Prop54
  1
strokes_ogs.tif
102
RTVSPost2010PropOp54
 70
     1
102
RTVSPost2010Prop55
280
     0
102
RTVSPost2010PropOp55
 70
     1
102
RTVSPost2010Prop56
140
1.0
102
RTVSPost2010PropOp56
 70
     1
102
RTVSPost2010Prop57
140
1.0
102
RTVSPost2010PropOp57
 70
     1
  0
XRECORD
  5
13B
102
{ACAD_REACTORS
330
13A
102
}
330
13A
100
AcDbXrecord
280
     1
102
RTVSPost2010Prop28
280
     0
102
RTVSPost2010PropOp28
 70
     0
102
RTVSPost2010Prop29
280
     1
102
RTVSPost2010PropOp29
 70
     0
102
RTVSPost2010Prop30
280
     1
102
RTVSPost2010PropOp30
 70
     0
102
RTVSPost2010Prop31
280
     0
102
RTVSPost2010PropOp31
 70
     0
102
RTVSPost2010Prop32
280
     0
102
RTVSPost2010PropOp32
 70
     0
102
RTVSPost2010Prop33
280
     0
102
RTVSPost2010PropOp33
 70
     0
102
RTVSPost2010Prop34
280
     0
102
RTVSPost2010PropOp34
 70
     0
102
RTVSPost2010Prop35
280
     0
102
RTVSPost2010PropOp35
 70
     0
102
RTVSPost2010Prop36
280
     0
102
RTVSPost2010PropOp36
 70
     0
102
RTVSPost2010Prop37
 90
       50
102
RTVSPost2010PropOp37
 70
     0
102
RTVSPost2010Prop38
140
0.0
102
RTVSPost2010PropOp38
 70
     0
102
RTVSPost2010Prop39
140
1.0
102
RTVSPost2010PropOp39
 70
     0
102
RTVSPost2010Prop40
 90
        0
102
RTVSPost2010PropOp40
 70
     0
102
RTVSPost2010Prop41ColorIndex
 90
       18
102
RTVSPost2010Prop41ColorRGB
 90
        0
102
RTVSPost2010PropOp41
 70
     0
102
RTVSPost2010Prop42
 90
       50
102
RTVSPost2010PropOp42
 70
     0
102
RTVSPost2010Prop43
 90
        3
102
RTVSPost2010PropOp43
 70
     0
102
RTVSPost2010Prop44ColorIndex
 90
        5
102
RTVSPost2010Prop44ColorRGB
 90
      255
102
RTVSPost2010PropOp44
 70
     0
102
RTVSPost2010Prop45
280
     0
102
RTVSPost2010PropOp45
 70
     0
102
RTVSPost2010Prop46
 90
       50
102
RTVSPost2010PropOp46
 70
     0
102
RTVSPost2010Prop47
 90
       50
102
RTVSPost2010PropOp47
 70
     0
102
RTVSPost2010Prop48
 90
       50
102
RTVSPost2010PropOp48
 70
     0
102
RTVSPost2010Prop49
280
     0
102
RTVSPost2010PropOp49
 70
     0
102
RTVSPost2010Prop50
 90
       50
102
RTVSPost2010PropOp50
 70
     0
102
RTVSPost2010Prop51ColorIndex
 90
      256
102
RTVSPost2010Prop51ColorRGB
 90
-16777216
102
RTVSPost2010PropOp51
 70
     0
102
RTVSPost2010Prop52
140
1.0
102
RTVSPost2010PropOp52
 70
     0
102
RTVSPost2010Prop53
 90
        2
102
RTVSPost2010PropOp53
 70
     0
102
RTVSPost2010Prop54
  1
strokes_ogs.tif
102
RTVSPost2010PropOp54
 70
     0
102
RTVSPost2010Prop55
280
     0
102
RTVSPost2010PropOp55
 70
     0
102
RTVSPost2010Prop56
140
1.0
102
RTVSPost2010PropOp56
 70
     0
102
RTVSPost2010Prop57
140
1.0
102
RTVSPost2010PropOp57
 70
     0
  0
XRECORD
  5
121
102
{ACAD_REACTORS
330
120
102
}
330
120
100
AcDbXrecord
280
     1
102
RTVSPost2010Prop28
280
     0
102
RTVSPost2010PropOp28
 70
     1
102
RTVSPost2010Prop29
280
     1
102
RTVSPost2010PropOp29
 70
     1
102
RTVSPost2010Prop30
280
     1
102
RTVSPost2010PropOp30
 70
     1
102
RTVSPost2010Prop31
280
     0
102
RTVSPost2010PropOp31
 70
     1
102
RTVSPost2010Prop32
280
     0
102
RTVSPost2010PropOp32
 70
     1
102
RTVSPost2010Prop33
280
     0
102
RTVSPost2010PropOp33
 70
     1
102
RTVSPost2010Prop34
280
     0
102
RTVSPost2010PropOp34
 70
     1
102
RTVSPost2010Prop35
280
     0
102
RTVSPost2010PropOp35
 70
     1
102
RTVSPost2010Prop36
280
     0
102
RTVSPost2010PropOp36
 70
     1
102
RTVSPost2010Prop37
 90
       50
102
RTVSPost2010PropOp37
 70
     1
102
RTVSPost2010Prop38
140
0.0
102
RTVSPost2010PropOp38
 70
     1
102
RTVSPost2010Prop39
140
1.0
102
RTVSPost2010PropOp39
 70
     1
102
RTVSPost2010Prop40
 90
        0
102
RTVSPost2010PropOp40
 70
     1
102
RTVSPost2010Prop41ColorIndex
 90
       18
102
RTVSPost2010Prop41ColorRGB
 90
        0
102
RTVSPost2010PropOp41
 70
     1
102
RTVSPost2010Prop42
 90
       50
102
RTVSPost2010PropOp42
 70
     1
102
RTVSPost2010Prop43
 90
        3
102
RTVSPost2010PropOp43
 70
     1
102
RTVSPost2010Prop44ColorIndex
 90
        5
102
RTVSPost2010Prop44ColorRGB
 90
      255
102
RTVSPost2010PropOp44
 70
     1
102
RTVSPost2010Prop45
280
     0
102
RTVSPost2010PropOp45
 70
     1
102
RTVSPost2010Prop46
 90
       50
102
RTVSPost2010PropOp46
 70
     1
102
RTVSPost2010Prop47
 90
       50
102
RTVSPost2010PropOp47
 70
     1
102
RTVSPost2010Prop48
 90
       50
102
RTVSPost2010PropOp48
 70
     1
102
RTVSPost2010Prop49
280
     0
102
RTVSPost2010PropOp49
 70
     1
102
RTVSPost2010Prop50
 90
       50
102
RTVSPost2010PropOp50
 70
     1
102
RTVSPost2010Prop51ColorIndex
 90
      256
102
RTVSPost2010Prop51ColorRGB
 90
-16777216
102
RTVSPost2010PropOp51
 70
     0
102
RTVSPost2010Prop52
140
1.0
102
RTVSPost2010PropOp52
 70
     0
102
RTVSPost2010Prop53
 90
        2
102
RTVSPost2010PropOp53
 70
     1
102
RTVSPost2010Prop54
  1
strokes_ogs.tif
102
RTVSPost2010PropOp54
 70
     1
102
RTVSPost2010Prop55
280
     0
102
RTVSPost2010PropOp55
 70
     1
102
RTVSPost2010Prop56
140
1.0
102
RTVSPost2010PropOp56
 70
     1
102
RTVSPost2010Prop57
140
1.0
102
RTVSPost2010PropOp57
 70
     1
  0
XRECORD
  5
137
102
{ACAD_REACTORS
330
136
102
}
330
136
100
AcDbXrecord
280
     1
102
RTVSPost2010Prop28
280
     0
102
RTVSPost2010PropOp28
 70
     1
102
RTVSPost2010Prop29
280
     1
102
RTVSPost2010PropOp29
 70
     1
102
RTVSPost2010Prop30
280
     1
102
RTVSPost2010PropOp30
 70
     1
102
RTVSPost2010Prop31
280
     0
102
RTVSPost2010PropOp31
 70
     1
102
RTVSPost2010Prop32
280
     0
102
RTVSPost2010PropOp32
 70
     1
102
RTVSPost2010Prop33
280
     0
102
RTVSPost2010PropOp33
 70
     1
102
RTVSPost2010Prop34
280
     0
102
RTVSPost2010PropOp34
 70
     1
102
RTVSPost2010Prop35
280
     0
102
RTVSPost2010PropOp35
 70
     1
102
RTVSPost2010Prop36
280
     0
102
RTVSPost2010PropOp36
 70
     1
102
RTVSPost2010Prop37
 90
       50
102
RTVSPost2010PropOp37
 70
     1
102
RTVSPost2010Prop38
140
0.0
102
RTVSPost2010PropOp38
 70
     1
102
RTVSPost2010Prop39
140
1.0
102
RTVSPost2010PropOp39
 70
     1
102
RTVSPost2010Prop40
 90
        0
102
RTVSPost2010PropOp40
 70
     1
102
RTVSPost2010Prop41ColorIndex
 90
       18
102
RTVSPost2010Prop41ColorRGB
 90
        0
102
RTVSPost2010PropOp41
 70
     1
102
RTVSPost2010Prop42
 90
       50
102
RTVSPost2010PropOp42
 70
     1
102
RTVSPost2010Prop43
 90
        3
102
RTVSPost2010PropOp43
 70
     1
102
RTVSPost2010Prop44ColorIndex
 90
        5
102
RTVSPost2010Prop44ColorRGB
 90
      255
102
RTVSPost2010PropOp44
 70
     1
102
RTVSPost2010Prop45
280
     0
102
RTVSPost2010PropOp45
 70
     1
102
RTVSPost2010Prop46
 90
       50
102
RTVSPost2010PropOp46
 70
     1
102
RTVSPost2010Prop47
 90
       50
102
RTVSPost2010PropOp47
 70
     1
102
RTVSPost2010Prop48
 90
       50
102
RTVSPost2010PropOp48
 70
     1
102
RTVSPost2010Prop49
280
     0
102
RTVSPost2010PropOp49
 70
     1
102
RTVSPost2010Prop50
 90
       50
102
RTVSPost2010PropOp50
 70
     1
102
RTVSPost2010Prop51ColorIndex
 90
      256
102
RTVSPost2010Prop51ColorRGB
 90
-16777216
102
RTVSPost2010PropOp51
 70
     0
102
RTVSPost2010Prop52
140
1.0
102
RTVSPost2010PropOp52
 70
     0
102
RTVSPost2010Prop53
 90
        2
102
RTVSPost2010PropOp53
 70
     1
102
RTVSPost2010Prop54
  1
strokes_ogs.tif
102
RTVSPost2010PropOp54
 70
     1
102
RTVSPost2010Prop55
280
     0
102
RTVSPost2010PropOp55
 70
     1
102
RTVSPost2010Prop56
140
1.0
102
RTVSPost2010PropOp56
 70
     1
102
RTVSPost2010Prop57
140
1.0
102
RTVSPost2010PropOp57
 70
     1
  0
XRECORD
  5
135
102
{ACAD_REACTORS
330
134
102
}
330
134
100
AcDbXrecord
280
     1
102
RTVSPost2010Prop28
280
     0
102
RTVSPost2010PropOp28
 70
     1
102
RTVSPost2010Prop29
280
     1
102
RTVSPost2010PropOp29
 70
     1
102
RTVSPost2010Prop30
280
     1
102
RTVSPost2010PropOp30
 70
     1
102
RTVSPost2010Prop31
280
     0
102
RTVSPost2010PropOp31
 70
     1
102
RTVSPost2010Prop32
280
     0
102
RTVSPost2010PropOp32
 70
     1
102
RTVSPost2010Prop33
280
     0
102
RTVSPost2010PropOp33
 70
     1
102
RTVSPost2010Prop34
280
     0
102
RTVSPost2010PropOp34
 70
     1
102
RTVSPost2010Prop35
280
     0
102
RTVSPost2010PropOp35
 70
     1
102
RTVSPost2010Prop36
280
     0
102
RTVSPost2010PropOp36
 70
     1
102
RTVSPost2010Prop37
 90
       50
102
RTVSPost2010PropOp37
 70
     1
102
RTVSPost2010Prop38
140
0.0
102
RTVSPost2010PropOp38
 70
     1
102
RTVSPost2010Prop39
140
1.0
102
RTVSPost2010PropOp39
 70
     1
102
RTVSPost2010Prop40
 90
        0
102
RTVSPost2010PropOp40
 70
     1
102
RTVSPost2010Prop41ColorIndex
 90
       18
102
RTVSPost2010Prop41ColorRGB
 90
        0
102
RTVSPost2010PropOp41
 70
     1
102
RTVSPost2010Prop42
 90
       50
102
RTVSPost2010PropOp42
 70
     1
102
RTVSPost2010Prop43
 90
        3
102
RTVSPost2010PropOp43
 70
     1
102
RTVSPost2010Prop44ColorIndex
 90
        5
102
RTVSPost2010Prop44ColorRGB
 90
      255
102
RTVSPost2010PropOp44
 70
     1
102
RTVSPost2010Prop45
280
     0
102
RTVSPost2010PropOp45
 70
     1
102
RTVSPost2010Prop46
 90
       50
102
RTVSPost2010PropOp46
 70
     1
102
RTVSPost2010Prop47
 90
       50
102
RTVSPost2010PropOp47
 70
     1
102
RTVSPost2010Prop48
 90
       50
102
RTVSPost2010PropOp48
 70
     1
102
RTVSPost2010Prop49
280
     0
102
RTVSPost2010PropOp49
 70
     1
102
RTVSPost2010Prop50
 90
       50
102
RTVSPost2010PropOp50
 70
     1
102
RTVSPost2010Prop51ColorIndex
 90
      256
102
RTVSPost2010Prop51ColorRGB
 90
-16777216
102
RTVSPost2010PropOp51
 70
     0
102
RTVSPost2010Prop52
140
1.0
102
RTVSPost2010PropOp52
 70
     0
102
RTVSPost2010Prop53
 90
        2
102
RTVSPost2010PropOp53
 70
     1
102
RTVSPost2010Prop54
  1
strokes_ogs.tif
102
RTVSPost2010PropOp54
 70
     1
102
RTVSPost2010Prop55
280
     0
102
RTVSPost2010PropOp55
 70
     1
102
RTVSPost2010Prop56
140
1.0
102
RTVSPost2010PropOp56
 70
     1
102
RTVSPost2010Prop57
140
1.0
102
RTVSPost2010PropOp57
 70
     1
  0
XRECORD
  5
12F
102
{ACAD_REACTORS
330
12E
102
}
330
12E
100
AcDbXrecord
280
     1
102
RTVSPost2010Prop28
280
     0
102
RTVSPost2010PropOp28
 70
     1
102
RTVSPost2010Prop29
280
     1
102
RTVSPost2010PropOp29
 70
     1
102
RTVSPost2010Prop30
280
     1
102
RTVSPost2010PropOp30
 70
     1
102
RTVSPost2010Prop31
280
     0
102
RTVSPost2010PropOp31
 70
     1
102
RTVSPost2010Prop32
280
     0
102
RTVSPost2010PropOp32
 70
     1
102
RTVSPost2010Prop33
280
     0
102
RTVSPost2010PropOp33
 70
     1
102
RTVSPost2010Prop34
280
     0
102
RTVSPost2010PropOp34
 70
     1
102
RTVSPost2010Prop35
280
     0
102
RTVSPost2010PropOp35
 70
     1
102
RTVSPost2010Prop36
280
     0
102
RTVSPost2010PropOp36
 70
     1
102
RTVSPost2010Prop37
 90
       50
102
RTVSPost2010PropOp37
 70
     1
102
RTVSPost2010Prop38
140
0.0
102
RTVSPost2010PropOp38
 70
     1
102
RTVSPost2010Prop39
140
1.0
102
RTVSPost2010PropOp39
 70
     1
102
RTVSPost2010Prop40
 90
        0
102
RTVSPost2010PropOp40
 70
     1
102
RTVSPost2010Prop41ColorIndex
 90
       18
102
RTVSPost2010Prop41ColorRGB
 90
        0
102
RTVSPost2010PropOp41
 70
     1
102
RTVSPost2010Prop42
 90
       50
102
RTVSPost2010PropOp42
 70
     1
102
RTVSPost2010Prop43
 90
        3
102
RTVSPost2010PropOp43
 70
     1
102
RTVSPost2010Prop44ColorIndex
 90
        5
102
RTVSPost2010Prop44ColorRGB
 90
      255
102
RTVSPost2010PropOp44
 70
     1
102
RTVSPost2010Prop45
280
     0
102
RTVSPost2010PropOp45
 70
     1
102
RTVSPost2010Prop46
 90
       50
102
RTVSPost2010PropOp46
 70
     1
102
RTVSPost2010Prop47
 90
       50
102
RTVSPost2010PropOp47
 70
     1
102
RTVSPost2010Prop48
 90
       50
102
RTVSPost2010PropOp48
 70
     1
102
RTVSPost2010Prop49
280
     0
102
RTVSPost2010PropOp49
 70
     1
102
RTVSPost2010Prop50
 90
       50
102
RTVSPost2010PropOp50
 70
     1
102
RTVSPost2010Prop51ColorIndex
 90
      256
102
RTVSPost2010Prop51ColorRGB
 90
-16777216
102
RTVSPost2010PropOp51
 70
     0
102
RTVSPost2010Prop52
140
1.0
102
RTVSPost2010PropOp52
 70
     0
102
RTVSPost2010Prop53
 90
        2
102
RTVSPost2010PropOp53
 70
     1
102
RTVSPost2010Prop54
  1
strokes_ogs.tif
102
RTVSPost2010PropOp54
 70
     1
102
RTVSPost2010Prop55
280
     0
102
RTVSPost2010PropOp55
 70
     1
102
RTVSPost2010Prop56
140
1.0
102
RTVSPost2010PropOp56
 70
     1
102
RTVSPost2010Prop57
140
1.0
102
RTVSPost2010PropOp57
 70
     1
  0
XRECORD
  5
131
102
{ACAD_REACTORS
330
130
102
}
330
130
100
AcDbXrecord
280
     1
102
RTVSPost2010Prop28
280
     0
102
RTVSPost2010PropOp28
 70
     1
102
RTVSPost2010Prop29
280
     1
102
RTVSPost2010PropOp29
 70
     1
102
RTVSPost2010Prop30
280
     1
102
RTVSPost2010PropOp30
 70
     1
102
RTVSPost2010Prop31
280
     0
102
RTVSPost2010PropOp31
 70
     1
102
RTVSPost2010Prop32
280
     0
102
RTVSPost2010PropOp32
 70
     1
102
RTVSPost2010Prop33
280
     0
102
RTVSPost2010PropOp33
 70
     1
102
RTVSPost2010Prop34
280
     0
102
RTVSPost2010PropOp34
 70
     1
102
RTVSPost2010Prop35
280
     0
102
RTVSPost2010PropOp35
 70
     1
102
RTVSPost2010Prop36
280
     0
102
RTVSPost2010PropOp36
 70
     1
102
RTVSPost2010Prop37
 90
       50
102
RTVSPost2010PropOp37
 70
     1
102
RTVSPost2010Prop38
140
0.0
102
RTVSPost2010PropOp38
 70
     1
102
RTVSPost2010Prop39
140
1.0
102
RTVSPost2010PropOp39
 70
     1
102
RTVSPost2010Prop40
 90
        0
102
RTVSPost2010PropOp40
 70
     1
102
RTVSPost2010Prop41ColorIndex
 90
       18
102
RTVSPost2010Prop41ColorRGB
 90
        0
102
RTVSPost2010PropOp41
 70
     1
102
RTVSPost2010Prop42
 90
       50
102
RTVSPost2010PropOp42
 70
     1
102
RTVSPost2010Prop43
 90
        3
102
RTVSPost2010PropOp43
 70
     1
102
RTVSPost2010Prop44ColorIndex
 90
        5
102
RTVSPost2010Prop44ColorRGB
 90
      255
102
RTVSPost2010PropOp44
 70
     1
102
RTVSPost2010Prop45
280
     0
102
RTVSPost2010PropOp45
 70
     1
102
RTVSPost2010Prop46
 90
       50
102
RTVSPost2010PropOp46
 70
     1
102
RTVSPost2010Prop47
 90
       50
102
RTVSPost2010PropOp47
 70
     1
102
RTVSPost2010Prop48
 90
       50
102
RTVSPost2010PropOp48
 70
     1
102
RTVSPost2010Prop49
280
     0
102
RTVSPost2010PropOp49
 70
     1
102
RTVSPost2010Prop50
 90
       50
102
RTVSPost2010PropOp50
 70
     1
102
RTVSPost2010Prop51ColorIndex
 90
      256
102
RTVSPost2010Prop51ColorRGB
 90
-16777216
102
RTVSPost2010PropOp51
 70
     0
102
RTVSPost2010Prop52
140
1.0
102
RTVSPost2010PropOp52
 70
     0
102
RTVSPost2010Prop53
 90
        2
102
RTVSPost2010PropOp53
 70
     1
102
RTVSPost2010Prop54
  1
strokes_ogs.tif
102
RTVSPost2010PropOp54
 70
     1
102
RTVSPost2010Prop55
280
     0
102
RTVSPost2010PropOp55
 70
     1
102
RTVSPost2010Prop56
140
1.0
102
RTVSPost2010PropOp56
 70
     1
102
RTVSPost2010Prop57
140
1.0
102
RTVSPost2010PropOp57
 70
     1
  0
XRECORD
  5
127
102
{ACAD_REACTORS
330
126
102
}
330
126
100
AcDbXrecord
280
     1
102
RTVSPost2010Prop28
280
     0
102
RTVSPost2010PropOp28
 70
     1
102
RTVSPost2010Prop29
280
     1
102
RTVSPost2010PropOp29
 70
     1
102
RTVSPost2010Prop30
280
     1
102
RTVSPost2010PropOp30
 70
     1
102
RTVSPost2010Prop31
280
     0
102
RTVSPost2010PropOp31
 70
     1
102
RTVSPost2010Prop32
280
     0
102
RTVSPost2010PropOp32
 70
     1
102
RTVSPost2010Prop33
280
     0
102
RTVSPost2010PropOp33
 70
     1
102
RTVSPost2010Prop34
280
     0
102
RTVSPost2010PropOp34
 70
     1
102
RTVSPost2010Prop35
280
     0
102
RTVSPost2010PropOp35
 70
     1
102
RTVSPost2010Prop36
280
     0
102
RTVSPost2010PropOp36
 70
     1
102
RTVSPost2010Prop37
 90
       50
102
RTVSPost2010PropOp37
 70
     1
102
RTVSPost2010Prop38
140
0.0
102
RTVSPost2010PropOp38
 70
     1
102
RTVSPost2010Prop39
140
1.0
102
RTVSPost2010PropOp39
 70
     1
102
RTVSPost2010Prop40
 90
        0
102
RTVSPost2010PropOp40
 70
     1
102
RTVSPost2010Prop41ColorIndex
 90
       18
102
RTVSPost2010Prop41ColorRGB
 90
        0
102
RTVSPost2010PropOp41
 70
     1
102
RTVSPost2010Prop42
 90
       50
102
RTVSPost2010PropOp42
 70
     1
102
RTVSPost2010Prop43
 90
        3
102
RTVSPost2010PropOp43
 70
     1
102
RTVSPost2010Prop44ColorIndex
 90
        5
102
RTVSPost2010Prop44ColorRGB
 90
      255
102
RTVSPost2010PropOp44
 70
     1
102
RTVSPost2010Prop45
280
     0
102
RTVSPost2010PropOp45
 70
     1
102
RTVSPost2010Prop46
 90
       50
102
RTVSPost2010PropOp46
 70
     1
102
RTVSPost2010Prop47
 90
       50
102
RTVSPost2010PropOp47
 70
     1
102
RTVSPost2010Prop48
 90
       50
102
RTVSPost2010PropOp48
 70
     1
102
RTVSPost2010Prop49
280
     0
102
RTVSPost2010PropOp49
 70
     1
102
RTVSPost2010Prop50
 90
       50
102
RTVSPost2010PropOp50
 70
     1
102
RTVSPost2010Prop51ColorIndex
 90
      256
102
RTVSPost2010Prop51ColorRGB
 90
-16777216
102
RTVSPost2010PropOp51
 70
     0
102
RTVSPost2010Prop52
140
1.0
102
RTVSPost2010PropOp52
 70
     0
102
RTVSPost2010Prop53
 90
        2
102
RTVSPost2010PropOp53
 70
     1
102
RTVSPost2010Prop54
  1
strokes_ogs.tif
102
RTVSPost2010PropOp54
 70
     1
102
RTVSPost2010Prop55
280
     0
102
RTVSPost2010PropOp55
 70
     1
102
RTVSPost2010Prop56
140
1.0
102
RTVSPost2010PropOp56
 70
     1
102
RTVSPost2010Prop57
140
1.0
102
RTVSPost2010PropOp57
 70
     1
  0
XRECORD
  5
11B
102
{ACAD_REACTORS
330
11A
102
}
330
11A
100
AcDbXrecord
280
     1
102
RTVSPost2010Prop28
280
     0
102
RTVSPost2010PropOp28
 70
     1
102
RTVSPost2010Prop29
280
     1
102
RTVSPost2010PropOp29
 70
     1
102
RTVSPost2010Prop30
280
     1
102
RTVSPost2010PropOp30
 70
     1
102
RTVSPost2010Prop31
280
     0
102
RTVSPost2010PropOp31
 70
     1
102
RTVSPost2010Prop32
280
     0
102
RTVSPost2010PropOp32
 70
     1
102
RTVSPost2010Prop33
280
     0
102
RTVSPost2010PropOp33
 70
     1
102
RTVSPost2010Prop34
280
     0
102
RTVSPost2010PropOp34
 70
     1
102
RTVSPost2010Prop35
280
     0
102
RTVSPost2010PropOp35
 70
     1
102
RTVSPost2010Prop36
280
     0
102
RTVSPost2010PropOp36
 70
     1
102
RTVSPost2010Prop37
 90
       50
102
RTVSPost2010PropOp37
 70
     1
102
RTVSPost2010Prop38
140
0.0
102
RTVSPost2010PropOp38
 70
     1
102
RTVSPost2010Prop39
140
1.0
102
RTVSPost2010PropOp39
 70
     1
102
RTVSPost2010Prop40
 90
        0
102
RTVSPost2010PropOp40
 70
     1
102
RTVSPost2010Prop41ColorIndex
 90
       18
102
RTVSPost2010Prop41ColorRGB
 90
        0
102
RTVSPost2010PropOp41
 70
     1
102
RTVSPost2010Prop42
 90
       50
102
RTVSPost2010PropOp42
 70
     1
102
RTVSPost2010Prop43
 90
        3
102
RTVSPost2010PropOp43
 70
     1
102
RTVSPost2010Prop44ColorIndex
 90
        5
102
RTVSPost2010Prop44ColorRGB
 90
      255
102
RTVSPost2010PropOp44
 70
     1
102
RTVSPost2010Prop45
280
     0
102
RTVSPost2010PropOp45
 70
     1
102
RTVSPost2010Prop46
 90
       50
102
RTVSPost2010PropOp46
 70
     1
102
RTVSPost2010Prop47
 90
       50
102
RTVSPost2010PropOp47
 70
     1
102
RTVSPost2010Prop48
 90
       50
102
RTVSPost2010PropOp48
 70
     1
102
RTVSPost2010Prop49
280
     0
102
RTVSPost2010PropOp49
 70
     1
102
RTVSPost2010Prop50
 90
       50
102
RTVSPost2010PropOp50
 70
     1
102
RTVSPost2010Prop51ColorIndex
 90
      256
102
RTVSPost2010Prop51ColorRGB
 90
-16777216
102
RTVSPost2010PropOp51
 70
     0
102
RTVSPost2010Prop52
140
1.0
102
RTVSPost2010PropOp52
 70
     0
102
RTVSPost2010Prop53
 90
        2
102
RTVSPost2010PropOp53
 70
     1
102
RTVSPost2010Prop54
  1
strokes_ogs.tif
102
RTVSPost2010PropOp54
 70
     1
102
RTVSPost2010Prop55
280
     0
102
RTVSPost2010PropOp55
 70
     1
102
RTVSPost2010Prop56
140
1.0
102
RTVSPost2010PropOp56
 70
     1
102
RTVSPost2010Prop57
140
1.0
102
RTVSPost2010PropOp57
 70
     1
  0
XRECORD
  5
133
102
{ACAD_REACTORS
330
132
102
}
330
132
100
AcDbXrecord
280
     1
102
RTVSPost2010Prop28
280
     0
102
RTVSPost2010PropOp28
 70
     1
102
RTVSPost2010Prop29
280
     1
102
RTVSPost2010PropOp29
 70
     1
102
RTVSPost2010Prop30
280
     1
102
RTVSPost2010PropOp30
 70
     1
102
RTVSPost2010Prop31
280
     0
102
RTVSPost2010PropOp31
 70
     1
102
RTVSPost2010Prop32
280
     0
102
RTVSPost2010PropOp32
 70
     1
102
RTVSPost2010Prop33
280
     0
102
RTVSPost2010PropOp33
 70
     1
102
RTVSPost2010Prop34
280
     0
102
RTVSPost2010PropOp34
 70
     1
102
RTVSPost2010Prop35
280
     0
102
RTVSPost2010PropOp35
 70
     1
102
RTVSPost2010Prop36
280
     0
102
RTVSPost2010PropOp36
 70
     1
102
RTVSPost2010Prop37
 90
       50
102
RTVSPost2010PropOp37
 70
     1
102
RTVSPost2010Prop38
140
0.0
102
RTVSPost2010PropOp38
 70
     1
102
RTVSPost2010Prop39
140
1.0
102
RTVSPost2010PropOp39
 70
     1
102
RTVSPost2010Prop40
 90
        0
102
RTVSPost2010PropOp40
 70
     1
102
RTVSPost2010Prop41ColorIndex
 90
       18
102
RTVSPost2010Prop41ColorRGB
 90
        0
102
RTVSPost2010PropOp41
 70
     1
102
RTVSPost2010Prop42
 90
       50
102
RTVSPost2010PropOp42
 70
     1
102
RTVSPost2010Prop43
 90
        3
102
RTVSPost2010PropOp43
 70
     1
102
RTVSPost2010Prop44ColorIndex
 90
        5
102
RTVSPost2010Prop44ColorRGB
 90
      255
102
RTVSPost2010PropOp44
 70
     1
102
RTVSPost2010Prop45
280
     0
102
RTVSPost2010PropOp45
 70
     1
102
RTVSPost2010Prop46
 90
       50
102
RTVSPost2010PropOp46
 70
     1
102
RTVSPost2010Prop47
 90
       50
102
RTVSPost2010PropOp47
 70
     1
102
RTVSPost2010Prop48
 90
       50
102
RTVSPost2010PropOp48
 70
     1
102
RTVSPost2010Prop49
280
     0
102
RTVSPost2010PropOp49
 70
     1
102
RTVSPost2010Prop50
 90
       50
102
RTVSPost2010PropOp50
 70
     1
102
RTVSPost2010Prop51ColorIndex
 90
      256
102
RTVSPost2010Prop51ColorRGB
 90
-16777216
102
RTVSPost2010PropOp51
 70
     0
102
RTVSPost2010Prop52
140
1.0
102
RTVSPost2010PropOp52
 70
     0
102
RTVSPost2010Prop53
 90
        2
102
RTVSPost2010PropOp53
 70
     1
102
RTVSPost2010Prop54
  1
strokes_ogs.tif
102
RTVSPost2010PropOp54
 70
     1
102
RTVSPost2010Prop55
280
     0
102
RTVSPost2010PropOp55
 70
     1
102
RTVSPost2010Prop56
140
1.0
102
RTVSPost2010PropOp56
 70
     1
102
RTVSPost2010Prop57
140
1.0
102
RTVSPost2010PropOp57
 70
     1
  0
ENDSEC
  0
EOF
