  0
SECTION
  2
HEADER
  9
$ACADVER
  1
AC1024
  9
$ACADMAINTVER
 70
   226
  9
$DWGCODEPAGE
  3
ANSI_932
  9
$INSBASE
 10
0.0
 20
0.0
 30
0.0
  9
$EXTMIN
 10
1.000000000000000E+20
 20
1.000000000000000E+20
 30
1.000000000000000E+20
  9
$EXTMAX
 10
-1.000000000000000E+20
 20
-1.000000000000000E+20
 30
-1.000000000000000E+20
  9
$LIMMIN
 10
0.0
 20
0.0
  9
$LIMMAX
 10
12.0
 20
9.0
  9
$ORTHOMODE
 70
     0
  9
$REGENMODE
 70
     1
  9
$FILLMODE
 70
     1
  9
$QTEXTMODE
 70
     0
  9
$MIRRTEXT
 70
     0
  9
$LTSCALE
 40
1.0
  9
$ATTMODE
 70
     1
  9
$TEXTSIZE
 40
0.2
  9
$TRACEWID
 40
0.05
  9
$TEXTSTYLE
  7
Standard
  9
$CLAYER
  8
0
  9
$CELTYPE
  6
ByLayer
  9
$CECOLOR
 62
   256
  9
$CELTSCALE
 40
1.0
  9
$DISPSILH
 70
     0
  9
$DIMSCALE
 40
1.0
  9
$DIMASZ
 40
0.18
  9
$DIMEXO
 40
0.0625
  9
$DIMDLI
 40
0.38
  9
$DIMRND
 40
0.0
  9
$DIMDLE
 40
0.0
  9
$DIMEXE
 40
0.18
  9
$DIMTP
 40
0.0
  9
$DIMTM
 40
0.0
  9
$DIMTXT
 40
0.18
  9
$DIMCEN
 40
0.09
  9
$DIMTSZ
 40
0.0
  9
$DIMTOL
 70
     0
  9
$DIMLIM
 70
     0
  9
$DIMTIH
 70
     1
  9
$DIMTOH
 70
     1
  9
$DIMSE1
 70
     0
  9
$DIMSE2
 70
     0
  9
$DIMTAD
 70
     0
  9
$DIMZIN
 70
     0
  9
$DIMBLK
  1

  9
$DIMASO
 70
     1
  9
$DIMSHO
 70
     1
  9
$DIMPOST
  1

  9
$DIMAPOST
  1

  9
$DIMALT
 70
     0
  9
$DIMALTD
 70
     2
  9
$DIMALTF
 40
25.4
  9
$DIMLFAC
 40
1.0
  9
$DIMTOFL
 70
     0
  9
$DIMTVP
 40
0.0
  9
$DIMTIX
 70
     0
  9
$DIMSOXD
 70
     0
  9
$DIMSAH
 70
     0
  9
$DIMBLK1
  1

  9
$DIMBLK2
  1

  9
$DIMSTYLE
  2
Standard
  9
$DIMCLRD
 70
     0
  9
$DIMCLRE
 70
     0
  9
$DIMCLRT
 70
     0
  9
$DIMTFAC
 40
1.0
  9
$DIMGAP
 40
0.09
  9
$DIMJUST
 70
     0
  9
$DIMSD1
 70
     0
  9
$DIMSD2
 70
     0
  9
$DIMTOLJ
 70
     1
  9
$DIMTZIN
 70
     0
  9
$DIMALTZ
 70
     0
  9
$DIMALTTZ
 70
     0
  9
$DIMUPT
 70
     0
  9
$DIMDEC
 70
     4
  9
$DIMTDEC
 70
     4
  9
$DIMALTU
 70
     2
  9
$DIMALTTD
 70
     2
  9
$DIMTXSTY
  7
Standard
  9
$DIMAUNIT
 70
     0
  9
$DIMADEC
 70
     0
  9
$DIMALTRND
 40
0.0
  9
$DIMAZIN
 70
     0
  9
$DIMDSEP
 70
    46
  9
$DIMATFIT
 70
     3
  9
$DIMFRAC
 70
     0
  9
$DIMLDRBLK
  1

  9
$DIMLUNIT
 70
     2
  9
$DIMLWD
 70
    -2
  9
$DIMLWE
 70
    -2
  9
$DIMTMOVE
 70
     0
  9
$DIMFXL
 40
1.0
  9
$DIMFXLON
 70
     0
  9
$DIMJOGANG
 40
0.7853981633974483
  9
$DIMTFILL
 70
     0
  9
$DIMTFILLCLR
 70
     0
  9
$DIMARCSYM
 70
     0
  9
$DIMLTYPE
  6

  9
$DIMLTEX1
  6

  9
$DIMLTEX2
  6

  9
$DIMTXTDIRECTION
 70
     0
  9
$LUNITS
 70
     2
  9
$LUPREC
 70
     4
  9
$SKETCHINC
 40
0.1
  9
$FILLETRAD
 40
0.0
  9
$AUNITS
 70
     0
  9
$AUPREC
 70
     0
  9
$MENU
  1
.
  9
$ELEVATION
 40
0.0
  9
$PELEVATION
 40
0.0
  9
$THICKNESS
 40
0.0
  9
$LIMCHECK
 70
     0
  9
$CHAMFERA
 40
0.0
  9
$CHAMFERB
 40
0.0
  9
$CHAMFERC
 40
0.0
  9
$CHAMFERD
 40
0.0
  9
$SKPOLY
 70
     0
  9
$TDCREATE
 40
2459569.490254629
  9
$TDUCREATE
 40
2459569.115254629
  9
$TDUPDATE
 40
2459569.490254629
  9
$TDUUPDATE
 40
2459569.115254629
  9
$TDINDWG
 40
0.0000000000
  9
$TDUSRTIMER
 40
0.0000000000
  9
$USRTIMER
 70
     1
  9
$ANGBASE
 50
0.0
  9
$ANGDIR
 70
     0
  9
$PDMODE
 70
     0
  9
$PDSIZE
 40
0.0
  9
$PLINEWID
 40
0.0
  9
$SPLFRAME
 70
     0
  9
$SPLINETYPE
 70
     6
  9
$SPLINESEGS
 70
     8
  9
$HANDSEED
  5
13C
  9
$SURFTAB1
 70
     6
  9
$SURFTAB2
 70
     6
  9
$SURFTYPE
 70
     6
  9
$SURFU
 70
     6
  9
$SURFV
 70
     6
  9
$UCSBASE
  2

  9
$UCSNAME
  2

  9
$UCSORG
 10
0.0
 20
0.0
 30
0.0
  9
$UCSXDIR
 10
1.0
 20
0.0
 30
0.0
  9
$UCSYDIR
 10
0.0
 20
1.0
 30
0.0
  9
$UCSORTHOREF
  2

  9
$UCSORTHOVIEW
 70
     0
  9
$UCSORGTOP
 10
0.0
 20
0.0
 30
0.0
  9
$UCSORGBOTTOM
 10
0.0
 20
0.0
 30
0.0
  9
$UCSORGLEFT
 10
0.0
 20
0.0
 30
0.0
  9
$UCSORGRIGHT
 10
0.0
 20
0.0
 30
0.0
  9
$UCSORGFRONT
 10
0.0
 20
0.0
 30
0.0
  9
$UCSORGBACK
 10
0.0
 20
0.0
 30
0.0
  9
$PUCSBASE
  2

  9
$PUCSNAME
  2

  9
$PUCSORG
 10
0.0
 20
0.0
 30
0.0
  9
$PUCSXDIR
 10
1.0
 20
0.0
 30
0.0
  9
$PUCSYDIR
 10
0.0
 20
1.0
 30
0.0
  9
$PUCSORTHOREF
  2

  9
$PUCSORTHOVIEW
 70
     0
  9
$PUCSORGTOP
 10
0.0
 20
0.0
 30
0.0
  9
$PUCSORGBOTTOM
 10
0.0
 20
0.0
 30
0.0
  9
$PUCSORGLEFT
 10
0.0
 20
0.0
 30
0.0
  9
$PUCSORGRIGHT
 10
0.0
 20
0.0
 30
0.0
  9
$PUCSORGFRONT
 10
0.0
 20
0.0
 30
0.0
  9
$PUCSORGBACK
 10
0.0
 20
0.0
 30
0.0
  9
$USERI1
 70
     0
  9
$USERI2
 70
     0
  9
$USERI3
 70
     0
  9
$USERI4
 70
     0
  9
$USERI5
 70
     0
  9
$USERR1
 40
0.0
  9
$USERR2
 40
0.0
  9
$USERR3
 40
0.0
  9
$USERR4
 40
0.0
  9
$USERR5
 40
0.0
  9
$WORLDVIEW
 70
     1
  9
$SHADEDGE
 70
     3
  9
$SHADEDIF
 70
    70
  9
$TILEMODE
 70
     1
  9
$MAXACTVP
 70
    64
  9
$PINSBASE
 10
0.0
 20
0.0
 30
0.0
  9
$PLIMCHECK
 70
     0
  9
$PEXTMIN
 10
1.000000000000000E+20
 20
1.000000000000000E+20
 30
1.000000000000000E+20
  9
$PEXTMAX
 10
-1.000000000000000E+20
 20
-1.000000000000000E+20
 30
-1.000000000000000E+20
  9
$PLIMMIN
 10
0.0
 20
0.0
  9
$PLIMMAX
 10
12.0
 20
9.0
  9
$UNITMODE
 70
     0
  9
$VISRETAIN
 70
     1
  9
$PLINEGEN
 70
     0
  9
$PSLTSCALE
 70
     1
  9
$TREEDEPTH
 70
  3020
  9
$CMLSTYLE
  2
Standard
  9
$CMLJUST
 70
     0
  9
$CMLSCALE
 40
1.0
  9
$PROXYGRAPHICS
 70
     1
  9
$MEASUREMENT
 70
     0
  9
$CELWEIGHT
370
    -1
  9
$ENDCAPS
280
     0
  9
$JOINSTYLE
280
     0
  9
$LWDISPLAY
290
     1
  9
$INSUNITS
 70
     4
  9
$HYPERLINKBASE
  1

  9
$STYLESHEET
  1

  9
$XEDIT
290
     1
  9
$CEPSNTYPE
380
     0
  9
$PSTYLEMODE
290
     1
  9
$FINGERPRINTGUID
  2
{49A71898-169D-C84C-B554-FC5E2A0BA309}
  9
$VERSIONGUID
  2
{C5EBC401-33EC-3248-AD79-8D9CACC1A41C}
  9
$EXTNAMES
290
     1
  9
$PSVPSCALE
 40
0.0
  9
$OLESTARTUP
290
     0
  9
$SORTENTS
280
   127
  9
$INDEXCTL
280
     0
  9
$HIDETEXT
280
     1
  9
$XCLIPFRAME
280
     2
  9
$HALOGAP
280
     0
  9
$OBSCOLOR
 70
   257
  9
$OBSLTYPE
280
     0
  9
$INTERSECTIONDISPLAY
280
     0
  9
$INTERSECTIONCOLOR
 70
   257
  9
$DIMASSOC
280
     2
  9
$PROJECTNAME
  1

  9
$CAMERADISPLAY
290
     0
  9
$LENSLENGTH
 40
50.0
  9
$CAMERAHEIGHT
 40
0.0
  9
$STEPSPERSEC
 40
2.0
  9
$STEPSIZE
 40
6.0
  9
$3DDWFPREC
 40
2.0
  9
$PSOLWIDTH
 40
0.25
  9
$PSOLHEIGHT
 40
4.0
  9
$LOFTANG1
 40
1.570796326794896
  9
$LOFTANG2
 40
1.570796326794896
  9
$LOFTMAG1
 40
0.0
  9
$LOFTMAG2
 40
0.0
  9
$LOFTPARAM
 70
     7
  9
$LOFTNORMALS
280
     1
  9
$LATITUDE
 40
37.795
  9
$LONGITUDE
 40
-122.394
  9
$NORTHDIRECTION
 40
0.0
  9
$TIMEZONE
 70
 -8000
  9
$LIGHTGLYPHDISPLAY
280
     1
  9
$TILEMODELIGHTSYNCH
280
     1
  9
$CMATERIAL
347
11
  9
$SOLIDHIST
280
     0
  9
$SHOWHIST
280
     1
  9
$DWFFRAME
280
     2
  9
$DGNFRAME
280
     0
  9
$REALWORLDSCALE
290
     1
  9
$INTERFERECOLOR
 62
     1
  9
$INTERFEREOBJVS
345
33
  9
$INTERFEREVPVS
346
30
  9
$CSHADOW
280
     0
  9
$SHADOWPLANELOCATION
 40
0.0
  0
ENDSEC
  0
SECTION
  2
CLASSES
  0
CLASS
  1
ACDBDICTIONARYWDFLT
  2
AcDbDictionaryWithDefault
  3
ObjectDBX Classes
 90
        0
 91
        1
280
     0
281
     0
  0
CLASS
  1
MATERIAL
  2
AcDbMaterial
  3
ObjectDBX Classes
 90
     1153
 91
        3
280
     0
281
     0
  0
CLASS
  1
VISUALSTYLE
  2
AcDbVisualStyle
  3
ObjectDBX Classes
 90
     4095
 91
       24
280
     0
281
     0
  0
CLASS
  1
SCALE
  2
AcDbScale
  3
ObjectDBX Classes
 90
     1153
 91
       17
280
     0
281
     0
  0
CLASS
  1
TABLESTYLE
  2
AcDbTableStyle
  3
ObjectDBX Classes
 90
     4095
 91
        1
280
     0
281
     0
  0
CLASS
  1
MLEADERSTYLE
  2
AcDbMLeaderStyle
  3
ACDB_MLEADERSTYLE_CLASS
 90
     4095
 91
        1
280
     0
281
     0
  0
CLASS
  1
ACDBSECTIONVIEWSTYLE
  2
AcDbSectionViewStyle
  3
ObjectDBX Classes
 90
     1025
 91
        1
280
     0
281
     0
  0
CLASS
  1
ACDBDETAILVIEWSTYLE
  2
AcDbDetailViewStyle
  3
ObjectDBX Classes
 90
     1025
 91
        1
280
     0
281
     0
  0
CLASS
  1
DICTIONARYVAR
  2
AcDbDictionaryVar
  3
ObjectDBX Classes
 90
        0
 91
        5
280
     0
281
     0
  0
CLASS
  1
CELLSTYLEMAP
  2
AcDbCellStyleMap
  3
ObjectDBX Classes
 90
     1152
 91
        1
280
     0
281
     0
  0
ENDSEC
  0
SECTION
  2
TABLES
  0
TABLE
  2
VPORT
  5
8
330
0
100
AcDbSymbolTable
 70
     1
  0
VPORT
  5
57
330
8
100
AcDbSymbolTableRecord
100
AcDbViewportTableRecord
  2
*Active
 70
     0
 10
0.0
 20
0.0
 11
1.0
 21
1.0
 12
0.0
 22
0.0
 13
0.0
 23
0.0
 14
1.0
 24
1.0
 15
0.0
 25
0.0
 16
0.0
 26
0.0
 36
1.0
 17
104.9999999737534
 27
-148.4999999628701
 37
0.0
 40
302.939999924255
 41
0.7070707070707534
 42
50.0
 43
0.0
 44
0.0
 50
0.0
 51
0.0
 71
     0
 72
   100
 73
     1
 74
     0
 75
     1
 76
     0
 77
     0
 78
     0
281
     0
 65
     1
110
0.0
120
0.0
130
0.0
111
1.0
121
0.0
131
0.0
112
0.0
122
1.0
132
0.0
 79
     0
146
0.0
 60
     3
 61
     5
292
     1
282
     1
141
0.0
142
0.0
 63
   250
421
  3355443
  0
ENDTAB
  0
TABLE
  2
LTYPE
  5
5
330
0
100
AcDbSymbolTable
 70
     2
  0
LTYPE
  5
5B
330
5
100
AcDbSymbolTableRecord
100
AcDbLinetypeTableRecord
  2
ByBlock
 70
     0
  3

 72
    65
 73
     0
 40
0.0
  0
LTYPE
  5
5C
330
5
100
AcDbSymbolTableRecord
100
AcDbLinetypeTableRecord
  2
ByLayer
 70
     0
  3

 72
    65
 73
     0
 40
0.0
  0
LTYPE
  5
5D
330
5
100
AcDbSymbolTableRecord
100
AcDbLinetypeTableRecord
  2
Continuous
 70
     0
  3
Solid line
 72
    65
 73
     0
 40
0.0
  0
LTYPE
  5
DA
330
5
100
AcDbSymbolTableRecord
100
AcDbLinetypeTableRecord
  2
AI-Linetype-0
 70
     0
  3
Adobe Illustrator Linetype No. 0
 72
    65
 73
     2
 40
1.411111110758333
 49
0.7055555553791667
 74
     0
 49
-0.7055555553791667
 74
     0
  0
ENDTAB
  0
TABLE
  2
LAYER
  5
2
330
0
100
AcDbSymbolTable
 70
     2
  0
LAYER
  5
54
330
2
100
AcDbSymbolTableRecord
100
AcDbLayerTableRecord
  2
0
 70
     0
 62
     7
  6
Continuous
370
    -3
390
F
347
21
  0
LAYER
  5
78
330
2
100
AcDbSymbolTableRecord
100
AcDbLayerTableRecord
  2
レイヤー 1
 70
     0
 62
     7
  6
Continuous
370
     0
390
F
347
21
  0
ENDTAB
  0
TABLE
  2
STYLE
  5
3
330
0
100
AcDbSymbolTable
 70
     2
  0
STYLE
  5
55
330
3
100
AcDbSymbolTableRecord
100
AcDbTextStyleTableRecord
  2
Standard
 70
     0
 40
0.0
 41
1.0
 50
0.0
 71
     0
 42
0.2
  3
txt
  4

  0
STYLE
  5
5A
330
3
100
AcDbSymbolTableRecord
100
AcDbTextStyleTableRecord
  2
Annotative
 70
     0
 40
0.0
 41
1.0
 50
0.0
 71
     0
 42
0.2
  3
txt
  4

1001
AcadAnnotative
1000
AnnotativeData
1002
{
1070
     1
1070
     1
1002
}
  0
ENDTAB
  0
TABLE
  2
VIEW
  5
6
330
0
100
AcDbSymbolTable
 70
     0
  0
ENDTAB
  0
TABLE
  2
UCS
  5
7
330
0
100
AcDbSymbolTable
 70
     0
  0
ENDTAB
  0
TABLE
  2
APPID
  5
9
330
0
100
AcDbSymbolTable
 70
     2
  0
APPID
  5
56
330
9
100
AcDbSymbolTableRecord
100
AcDbRegAppTableRecord
  2
ACAD
 70
     0
  0
APPID
  5
5E
330
9
100
AcDbSymbolTableRecord
100
AcDbRegAppTableRecord
  2
AcadAnnotative
 70
     0
  0
ENDTAB
  0
TABLE
  2
DIMSTYLE
  5
A
330
0
100
AcDbSymbolTable
 70
     2
100
AcDbDimStyleTable
 71
     0
  0
DIMSTYLE
105
58
330
A
100
AcDbSymbolTableRecord
100
AcDbDimStyleTableRecord
  2
Standard
 70
     0
340
55
  0
DIMSTYLE
105
59
330
A
100
AcDbSymbolTableRecord
100
AcDbDimStyleTableRecord
  2
Annotative
 70
     0
340
55
1001
AcadAnnotative
1000
AnnotativeData
1002
{
1070
     1
1070
     1
1002
}
  0
ENDTAB
  0
TABLE
  2
BLOCK_RECORD
  5
1
330
0
100
AcDbSymbolTable
 70
    14
  0
BLOCK_RECORD
  5
70
330
1
100
AcDbSymbolTableRecord
100
AcDbBlockTableRecord
  2
*Model_Space
340
73
 70
     0
280
     1
281
     0
  0
BLOCK_RECORD
  5
6C
330
1
100
AcDbSymbolTableRecord
100
AcDbBlockTableRecord
  2
*Paper_Space
340
6F
 70
     0
280
     1
281
     0
  0
BLOCK_RECORD
  5
74
330
1
100
AcDbSymbolTableRecord
100
AcDbBlockTableRecord
  2
*Paper_Space0
340
77
 70
     0
280
     1
281
     0
  0
BLOCK_RECORD
  5
79
330
1
100
AcDbSymbolTableRecord
100
AcDbBlockTableRecord
  2
Block_0
340
0
102
{BLKREFS
331
7A
102
}
 70
     0
280
     1
281
     0
  0
BLOCK_RECORD
  5
7D
330
1
100
AcDbSymbolTableRecord
100
AcDbBlockTableRecord
  2
Block_1
340
0
102
{BLKREFS
331
7E
102
}
 70
     0
280
     1
281
     0
  0
BLOCK_RECORD
  5
94
330
1
100
AcDbSymbolTableRecord
100
AcDbBlockTableRecord
  2
Block_2
340
0
102
{BLKREFS
331
95
102
}
 70
     0
280
     1
281
     0
  0
BLOCK_RECORD
  5
9D
330
1
100
AcDbSymbolTableRecord
100
AcDbBlockTableRecord
  2
Block_3
340
0
102
{BLKREFS
331
9E
102
}
 70
     0
280
     1
281
     0
  0
BLOCK_RECORD
  5
A1
330
1
100
AcDbSymbolTableRecord
100
AcDbBlockTableRecord
  2
Block_4
340
0
102
{BLKREFS
331
A2
102
}
 70
     0
280
     1
281
     0
  0
BLOCK_RECORD
  5
AB
330
1
100
AcDbSymbolTableRecord
100
AcDbBlockTableRecord
  2
Block_5
340
0
102
{BLKREFS
331
AC
102
}
 70
     0
280
     1
281
     0
  0
BLOCK_RECORD
  5
B6
330
1
100
AcDbSymbolTableRecord
100
AcDbBlockTableRecord
  2
Block_6
340
0
102
{BLKREFS
331
B7
102
}
 70
     0
280
     1
281
     0
  0
BLOCK_RECORD
  5
BA
330
1
100
AcDbSymbolTableRecord
100
AcDbBlockTableRecord
  2
Block_7
340
0
102
{BLKREFS
331
BB
102
}
 70
     0
280
     1
281
     0
  0
BLOCK_RECORD
  5
CA
330
1
100
AcDbSymbolTableRecord
100
AcDbBlockTableRecord
  2
Block_8
340
0
102
{BLKREFS
331
CB
102
}
 70
     0
280
     1
281
     0
  0
BLOCK_RECORD
  5
CE
330
1
100
AcDbSymbolTableRecord
100
AcDbBlockTableRecord
  2
Block_9
340
0
102
{BLKREFS
331
CF
102
}
 70
     0
280
     1
281
     0
  0
BLOCK_RECORD
  5
DB
330
1
100
AcDbSymbolTableRecord
100
AcDbBlockTableRecord
  2
Block_10
340
0
102
{BLKREFS
331
DC
102
}
 70
     0
280
     1
281
     0
  0
BLOCK_RECORD
  5
E2
330
1
100
AcDbSymbolTableRecord
100
AcDbBlockTableRecord
  2
Block_11
340
0
102
{BLKREFS
331
E3
102
}
 70
     0
280
     1
281
     0
  0
BLOCK_RECORD
  5
E6
330
1
100
AcDbSymbolTableRecord
100
AcDbBlockTableRecord
  2
Block_12
340
0
102
{BLKREFS
331
E7
102
}
 70
     0
280
     1
281
     0
  0
ENDTAB
  0
ENDSEC
  0
SECTION
  2
BLOCKS
  0
BLOCK
  5
71
330
70
100
AcDbEntity
  8
0
100
AcDbBlockBegin
  2
*Model_Space
 70
     0
 10
0.0
 20
0.0
 30
0.0
  3
*Model_Space
  1

  0
ENDBLK
  5
72
330
70
100
AcDbEntity
  8
0
100
AcDbBlockEnd
  0
BLOCK
  5
6D
330
6C
100
AcDbEntity
 67
     1
  8
0
100
AcDbBlockBegin
  2
*Paper_Space
 70
     0
 10
0.0
 20
0.0
 30
0.0
  3
*Paper_Space
  1

  0
ENDBLK
  5
6E
330
6C
100
AcDbEntity
 67
     1
  8
0
100
AcDbBlockEnd
  0
BLOCK
  5
75
330
74
100
AcDbEntity
 67
     1
  8
0
100
AcDbBlockBegin
  2
*Paper_Space0
 70
     0
 10
0.0
 20
0.0
 30
0.0
  3
*Paper_Space0
  1

  0
ENDBLK
  5
76
330
74
100
AcDbEntity
 67
     1
  8
0
100
AcDbBlockEnd
  0
BLOCK
  5
7B
330
79
100
AcDbEntity
  8
0
100
AcDbBlockBegin
  2
Block_0
 70
     0
 10
0.0
 20
0.0
 30
0.0
  3
Block_0
  1

  0
INSERT
  5
7E
330
79
100
AcDbEntity
  8
レイヤー 1
100
AcDbBlockReference
  2
Block_1
 10
0.0
 20
0.0
 30
0.0
  0
ENDBLK
  5
7C
330
79
100
AcDbEntity
  8
0
100
AcDbBlockEnd
  0
BLOCK
  5
7F
330
7D
100
AcDbEntity
  8
0
100
AcDbBlockBegin
  2
Block_1
 70
     0
 10
0.0
 20
0.0
 30
0.0
  3
Block_1
  1

  0
LINE
  5
81
330
7D
100
AcDbEntity
  8
レイヤー 1
 62
   250
420
  2299925
370
    25
100
AcDbLine
 10
92.72754714250927
 20
-145.0070334027234
 30
0.0
 11
97.72755464125941
 21
-145.0070334027234
 31
0.0
  0
LINE
  5
82
330
7D
100
AcDbEntity
  8
レイヤー 1
 62
   250
420
  2299925
370
    25
100
AcDbLine
 10
96.72755832215928
 20
-146.0068055994397
 30
0.0
 11
96.72755832215928
 21
-152.0068623882831
 31
0.0
  0
LINE
  5
83
330
7D
100
AcDbEntity
  8
レイヤー 1
 62
   250
420
  2299925
370
    25
100
AcDbLine
 10
92.72754714250927
 20
-146.0068055994397
 30
0.0
 11
96.72755825262061
 21
-146.0068055994397
 31
0.0
  0
LINE
  5
84
330
7D
100
AcDbEntity
  8
レイヤー 1
 62
   250
420
  2299925
370
    25
100
AcDbLine
 10
92.72754714250927
 20
-145.0070334027234
 30
0.0
 11
92.72754714250927
 21
-146.0068055994397
 31
0.0
  0
LINE
  5
85
330
7D
100
AcDbEntity
  8
レイヤー 1
 62
   250
420
  2299925
370
    25
100
AcDbLine
 10
97.72755470591349
 20
-145.0070334027234
 30
0.0
 11
97.72755470591349
 21
-151.0071835274246
 31
0.0
  0
LINE
  5
86
330
7D
100
AcDbEntity
  8
レイヤー 1
 62
   250
420
  2299925
370
    25
100
AcDbLine
 10
113.7275303914526
 20
-151.0071835274246
 30
0.0
 11
113.7275303914526
 21
-151.4071629616647
 31
0.0
  0
LINE
  5
87
330
7D
100
AcDbEntity
  8
レイヤー 1
 62
   250
420
  2299925
370
    25
100
AcDbLine
 10
97.72755471079809
 20
-151.0071835274246
 30
0.0
 11
113.7275303914526
 21
-151.0071835274246
 31
0.0
  0
LINE
  5
88
330
7D
100
AcDbEntity
  8
レイヤー 1
 62
   250
420
  2299925
370
    25
100
AcDbLine
 10
113.7275303914526
 20
-151.4071629616647
 30
0.0
 11
96.72755832215928
 21
-152.0068623882831
 31
0.0
  0
SPLINE
  5
89
330
7D
100
AcDbEntity
  8
レイヤー 1
 62
   250
420
  2299925
370
     9
100
AcDbSpline
210
0.0
220
0.0
230
1.0
 70
    11
 71
     3
 72
    17
 73
    13
 74
     0
 42
0.0000000001
 43
0.0000000001
 40
0.0
 40
0.0
 40
0.0
 40
0.0
 40
1.0
 40
1.0
 40
1.0
 40
2.0
 40
2.0
 40
2.0
 40
3.0
 40
3.0
 40
3.0
 40
4.0
 40
4.0
 40
4.0
 40
4.0
 10
117.8279027613286
 20
-145.0070334027234
 30
0.0
 10
117.8279027613286
 20
-144.9517531263559
 30
0.0
 10
117.7830999835619
 20
-144.9069503497212
 30
0.0
 10
117.7272894560769
 20
-144.9069503497212
 30
0.0
 10
117.6721855685945
 20
-144.9069503497212
 30
0.0
 10
117.6273827919591
 20
-144.9517531263559
 30
0.0
 10
117.6273827919591
 20
-145.0070334027234
 30
0.0
 10
117.6273827919591
 20
-145.0623136790909
 30
0.0
 10
117.6721855685945
 20
-145.107116455726
 30
0.0
 10
117.7272894560769
 20
-145.107116455726
 30
0.0
 10
117.7830999835619
 20
-145.107116455726
 30
0.0
 10
117.8279027613286
 20
-145.0623136790909
 30
0.0
 10
117.8279027613286
 20
-145.0070334027234
 30
0.0
  0
SPLINE
  5
8A
330
7D
100
AcDbEntity
  8
レイヤー 1
 62
   250
420
  2299925
370
     9
100
AcDbSpline
210
0.0
220
0.0
230
1.0
 70
     9
 71
     3
 72
    17
 73
    13
 74
     0
 42
0.0000000001
 43
0.0000000001
 40
0.0
 40
0.0
 40
0.0
 40
0.0
 40
1.0
 40
1.0
 40
1.0
 40
2.0
 40
2.0
 40
2.0
 40
3.0
 40
3.0
 40
3.0
 40
4.0
 40
4.0
 40
4.0
 40
4.0
 10
117.8279027613286
 20
-151.0071835274246
 30
0.0
 10
117.8279027613286
 20
-150.9517268621728
 30
0.0
 10
117.7830999835619
 20
-150.906924085538
 30
0.0
 10
117.7272894560769
 20
-150.906924085538
 30
0.0
 10
117.6721855685945
 20
-150.906924085538
 30
0.0
 10
117.6273827919591
 20
-150.9517268621728
 30
0.0
 10
117.6273827919591
 20
-151.0071835274246
 30
0.0
 10
117.6273827919591
 20
-151.0622874149077
 30
0.0
 10
117.6721855685945
 20
-151.1070901915424
 30
0.0
 10
117.7272894560769
 20
-151.1070901915424
 30
0.0
 10
117.7830999835619
 20
-151.1070901915424
 30
0.0
 10
117.8279027613286
 20
-151.0622874149077
 30
0.0
 10
117.8279027613286
 20
-151.0071835274246
 30
0.0
  0
SPLINE
  5
8B
330
7D
100
AcDbEntity
  8
レイヤー 1
 62
   250
420
  2299925
370
     9
100
AcDbSpline
210
0.0
220
0.0
230
1.0
 70
     9
 71
     3
 72
    17
 73
    13
 74
     0
 42
0.0000000001
 43
0.0000000001
 40
0.0
 40
0.0
 40
0.0
 40
0.0
 40
1.0
 40
1.0
 40
1.0
 40
2.0
 40
2.0
 40
2.0
 40
3.0
 40
3.0
 40
3.0
 40
4.0
 40
4.0
 40
4.0
 40
4.0
 10
117.8279027613286
 20
-151.4071629616647
 30
0.0
 10
117.8279027613286
 20
-151.3517062964129
 30
0.0
 10
117.7830999835619
 20
-151.3069035197781
 30
0.0
 10
117.7272894560769
 20
-151.3069035197781
 30
0.0
 10
117.6721855685945
 20
-151.3069035197781
 30
0.0
 10
117.6273827919591
 20
-151.3517062964129
 30
0.0
 10
117.6273827919591
 20
-151.4071629616647
 30
0.0
 10
117.6273827919591
 20
-151.4622668491478
 30
0.0
 10
117.6721855685945
 20
-151.5070696257826
 30
0.0
 10
117.7272894560769
 20
-151.5070696257826
 30
0.0
 10
117.7830999835619
 20
-151.5070696257826
 30
0.0
 10
117.8279027613286
 20
-151.4622668491478
 30
0.0
 10
117.8279027613286
 20
-151.4071629616647
 30
0.0
  0
CIRCLE
  5
8C
330
7D
100
AcDbEntity
  8
レイヤー 1
 62
   250
420
  2299925
370
     9
100
AcDbCircle
 10
113.7275303914526
 20
-156.1067978417671
 30
0.0
 40
0.0999066641178353
  0
SPLINE
  5
8D
330
7D
100
AcDbEntity
  8
レイヤー 1
 62
   250
420
  2299925
370
     9
100
AcDbSpline
210
0.0
220
0.0
230
1.0
 70
     9
 71
     3
 72
    17
 73
    13
 74
     0
 42
0.0000000001
 43
0.0000000001
 40
0.0
 40
0.0
 40
0.0
 40
0.0
 40
1.0
 40
1.0
 40
1.0
 40
2.0
 40
2.0
 40
2.0
 40
3.0
 40
3.0
 40
3.0
 40
4.0
 40
4.0
 40
4.0
 40
4.0
 10
92.82763019803979
 20
-156.1067978417671
 30
0.0
 10
92.82763019803979
 20
-156.0516526858365
 30
0.0
 10
92.78282742027307
 20
-156.0068911776492
 30
0.0
 10
92.72754714250927
 20
-156.0068911776492
 30
0.0
 10
92.67226686474549
 20
-156.0068911776492
 30
0.0
 10
92.62764047586763
 20
-156.0516526858365
 30
0.0
 10
92.62764047586763
 20
-156.1067978417671
 30
0.0
 10
92.62764047586763
 20
-156.1619017292501
 30
0.0
 10
92.67226686474549
 20
-156.2067045058849
 30
0.0
 10
92.72754714250927
 20
-156.2067045058849
 30
0.0
 10
92.78282742027307
 20
-156.2067045058849
 30
0.0
 10
92.82763019803979
 20
-156.1619017292501
 30
0.0
 10
92.82763019803979
 20
-156.1067978417671
 30
0.0
  0
SPLINE
  5
8E
330
7D
100
AcDbEntity
  8
レイヤー 1
 62
   250
420
  2299925
370
     9
100
AcDbSpline
210
0.0
220
0.0
230
1.0
 70
    11
 71
     3
 72
    17
 73
    13
 74
     0
 42
0.0000000001
 43
0.0000000001
 40
0.0
 40
0.0
 40
0.0
 40
0.0
 40
1.0
 40
1.0
 40
1.0
 40
2.0
 40
2.0
 40
2.0
 40
3.0
 40
3.0
 40
3.0
 40
4.0
 40
4.0
 40
4.0
 40
4.0
 10
90.77777964299677
 20
-145.0070334027234
 30
0.0
 10
90.77777964299677
 20
-144.9517531263559
 30
0.0
 10
90.73301214300789
 20
-144.9069503497212
 30
0.0
 10
90.67787297635515
 20
-144.9069503497212
 30
0.0
 10
90.62259269859071
 20
-144.9069503497212
 30
0.0
 10
90.57782519860181
 20
-144.9517531263559
 30
0.0
 10
90.57782519860181
 20
-145.0070334027234
 30
0.0
 10
90.57782519860181
 20
-145.0623136790909
 30
0.0
 10
90.62259269859071
 20
-145.107116455726
 30
0.0
 10
90.67787297635515
 20
-145.107116455726
 30
0.0
 10
90.73301214300789
 20
-145.107116455726
 30
0.0
 10
90.77777964299677
 20
-145.0623136790909
 30
0.0
 10
90.77777964299677
 20
-145.0070334027234
 30
0.0
  0
SPLINE
  5
8F
330
7D
100
AcDbEntity
  8
レイヤー 1
 62
   250
420
  2299925
370
     9
100
AcDbSpline
210
0.0
220
0.0
230
1.0
 70
     9
 71
     3
 72
    17
 73
    13
 74
     0
 42
0.0000000001
 43
0.0000000001
 40
0.0
 40
0.0
 40
0.0
 40
0.0
 40
1.0
 40
1.0
 40
1.0
 40
2.0
 40
2.0
 40
2.0
 40
3.0
 40
3.0
 40
3.0
 40
4.0
 40
4.0
 40
4.0
 40
4.0
 10
90.77777964299677
 20
-146.0068055994397
 30
0.0
 10
90.77777964299677
 20
-145.9516664341794
 30
0.0
 10
90.73301214300789
 20
-145.9068989353215
 30
0.0
 10
90.67787297635515
 20
-145.9068989353215
 30
0.0
 10
90.62259269859071
 20
-145.9068989353215
 30
0.0
 10
90.57782519860181
 20
-145.9516664341794
 30
0.0
 10
90.57782519860181
 20
-146.0068055994397
 30
0.0
 10
90.57782519860181
 20
-146.0622622646912
 30
0.0
 10
90.62259269859071
 20
-146.107065041326
 30
0.0
 10
90.67787297635515
 20
-146.107065041326
 30
0.0
 10
90.73301214300789
 20
-146.107065041326
 30
0.0
 10
90.77777964299677
 20
-146.0622622646912
 30
0.0
 10
90.77777964299677
 20
-146.0068055994397
 30
0.0
  0
SPLINE
  5
90
330
7D
100
AcDbEntity
  8
レイヤー 1
 62
   250
420
  2299925
370
     9
100
AcDbSpline
210
0.0
220
0.0
230
1.0
 70
     9
 71
     3
 72
    17
 73
    13
 74
     0
 42
0.0000000001
 43
0.0000000001
 40
0.0
 40
0.0
 40
0.0
 40
0.0
 40
1.0
 40
1.0
 40
1.0
 40
2.0
 40
2.0
 40
2.0
 40
3.0
 40
3.0
 40
3.0
 40
4.0
 40
4.0
 40
4.0
 40
4.0
 10
96.82760609991197
 20
-156.1067978417671
 30
0.0
 10
96.82760609991197
 20
-156.0516526858365
 30
0.0
 10
96.78283859992308
 20
-156.0068911776492
 30
0.0
 10
96.72755832215928
 20
-156.0068911776492
 30
0.0
 10
96.6724191555059
 20
-156.0068911776492
 30
0.0
 10
96.62765165551766
 20
-156.0516526858365
 30
0.0
 10
96.62765165551766
 20
-156.1067978417671
 30
0.0
 10
96.62765165551766
 20
-156.1619017292501
 30
0.0
 10
96.6724191555059
 20
-156.2067045058849
 30
0.0
 10
96.72755832215928
 20
-156.2067045058849
 30
0.0
 10
96.78283859992308
 20
-156.2067045058849
 30
0.0
 10
96.82760609991197
 20
-156.1619017292501
 30
0.0
 10
96.82760609991197
 20
-156.1067978417671
 30
0.0
  0
LINE
  5
91
330
7D
100
AcDbEntity
  8
レイヤー 1
 62
   250
420
  2299925
370
     9
100
AcDbLine
 10
92.72772353139815
 20
-156.1067978417671
 30
0.0
 11
96.72755825262061
 21
-156.1067978417671
 31
0.0
  0
LINE
  5
92
330
7D
100
AcDbEntity
  8
レイヤー 1
 62
   250
420
  2299925
370
     9
100
AcDbLine
 10
92.72754714250927
 20
-148.6469591431945
 30
0.0
 11
92.72754714250927
 21
-157.1072403162436
 31
0.0
  0
LINE
  5
93
330
7D
100
AcDbEntity
  8
レイヤー 1
 62
   250
420
  2299925
370
     9
100
AcDbLine
 10
96.72755832215928
 20
-154.6467564901269
 30
0.0
 11
96.72755832215928
 21
-157.1072403162436
 31
0.0
  0
INSERT
  5
95
330
7D
100
AcDbEntity
  8
レイヤー 1
100
AcDbBlockReference
  2
Block_2
 10
0.0
 20
0.0
 30
0.0
  0
LINE
  5
9B
330
7D
100
AcDbEntity
  8
レイヤー 1
 62
   250
420
  2299925
370
     9
100
AcDbLine
 10
96.72755832215928
 20
-156.1067978417671
 30
0.0
 11
113.7275303914526
 21
-156.1067978417671
 31
0.0
  0
LINE
  5
9C
330
7D
100
AcDbEntity
  8
レイヤー 1
 62
   250
420
  2299925
370
     9
100
AcDbLine
 10
113.7275303914526
 20
-153.9467042857645
 30
0.0
 11
113.7275303914526
 21
-157.1072403162436
 31
0.0
  0
INSERT
  5
9E
330
7D
100
AcDbEntity
  8
レイヤー 1
100
AcDbBlockReference
  2
Block_3
 10
0.0
 20
0.0
 30
0.0
  0
LINE
  5
A9
330
7D
100
AcDbEntity
  8
レイヤー 1
 62
   250
420
  2299925
370
     9
100
AcDbLine
 10
117.7272894560769
 20
-151.0071835274246
 30
0.0
 11
117.7272894560769
 21
-145.0070334027234
 31
0.0
  0
LINE
  5
AA
330
7D
100
AcDbEntity
  8
レイヤー 1
 62
   250
420
  2299925
370
     9
100
AcDbLine
 10
100.3676252656936
 20
-145.0070334027234
 30
0.0
 11
118.7277319305535
 21
-145.0070334027234
 31
0.0
  0
INSERT
  5
AC
330
7D
100
AcDbEntity
  8
レイヤー 1
100
AcDbBlockReference
  2
Block_5
 10
0.0
 20
0.0
 30
0.0
  0
LINE
  5
B2
330
7D
100
AcDbEntity
  8
レイヤー 1
 62
   250
420
  2299925
370
     9
100
AcDbLine
 10
117.7272894560769
 20
-151.4071629616647
 30
0.0
 11
117.7272894560769
 21
-152.4069351583806
 31
0.0
  0
LINE
  5
B3
330
7D
100
AcDbEntity
  8
レイヤー 1
 62
   250
420
  2299925
370
     9
100
AcDbLine
 10
117.7272894560769
 20
-151.0071835274246
 30
0.0
 11
117.7272894560769
 21
-151.4071629616647
 31
0.0
  0
LINE
  5
B4
330
7D
100
AcDbEntity
  8
レイヤー 1
 62
   250
420
  2299925
370
     9
100
AcDbLine
 10
116.2672481044368
 20
-151.0071835274246
 30
0.0
 11
118.7277319305535
 21
-151.0071835274246
 31
0.0
  0
LINE
  5
B5
330
7D
100
AcDbEntity
  8
レイヤー 1
 62
   250
420
  2299925
370
     9
100
AcDbLine
 10
116.2672481044368
 20
-151.4071629616647
 30
0.0
 11
118.7277319305535
 21
-151.4071629616647
 31
0.0
  0
INSERT
  5
B7
330
7D
100
AcDbEntity
  8
レイヤー 1
100
AcDbBlockReference
  2
Block_6
 10
0.0
 20
0.0
 30
0.0
  0
LINE
  5
C6
330
7D
100
AcDbEntity
  8
レイヤー 1
 62
   250
420
  2299925
370
     9
100
AcDbLine
 10
90.67787297635515
 20
-145.0070334027234
 30
0.0
 11
90.67787297635515
 21
-144.0070848171231
 31
0.0
  0
LINE
  5
C7
330
7D
100
AcDbEntity
  8
レイヤー 1
 62
   250
420
  2299925
370
     9
100
AcDbLine
 10
90.67787297635515
 20
-145.0070334027234
 30
0.0
 11
90.67787297635515
 21
-147.0068952961471
 31
0.0
  0
LINE
  5
C8
330
7D
100
AcDbEntity
  8
レイヤー 1
 62
   250
420
  2299925
370
     9
100
AcDbLine
 10
92.1377379759903
 20
-145.0070334027234
 30
0.0
 11
89.67778325438267
 21
-145.0070334027234
 31
0.0
  0
LINE
  5
C9
330
7D
100
AcDbEntity
  8
レイヤー 1
 62
   250
420
  2299925
370
     9
100
AcDbLine
 10
92.1377379759903
 20
-146.0068055994397
 30
0.0
 11
89.67778325438267
 21
-146.0068055994397
 31
0.0
  0
INSERT
  5
CB
330
7D
100
AcDbEntity
  8
レイヤー 1
100
AcDbBlockReference
  2
Block_8
 10
0.0
 20
0.0
 30
0.0
  0
ENDBLK
  5
80
330
7D
100
AcDbEntity
  8
0
100
AcDbBlockEnd
  0
BLOCK
  5
96
330
94
100
AcDbEntity
  8
0
100
AcDbBlockBegin
  2
Block_2
 70
     0
 10
0.0
 20
0.0
 30
0.0
  3
Block_2
  1

  0
SPLINE
  5
98
330
94
100
AcDbEntity
  8
レイヤー 1
100
AcDbSpline
210
0.0
220
0.0
230
1.0
 70
    11
 71
     3
 72
    14
 73
    10
 74
     0
 42
0.0000000001
 43
0.0000000001
 40
0.0
 40
0.0
 40
0.0
 40
0.0
 40
1.0
 40
1.0
 40
1.0
 40
2.0
 40
2.0
 40
2.0
 40
3.0
 40
3.0
 40
3.0
 40
3.0
 10
94.80230981787929
 20
-154.2593179952893
 30
0.0
 10
94.80230981787929
 20
-154.2593179952893
 30
0.0
 10
94.41266951849753
 20
-154.9152641756809
 30
0.0
 10
94.41266951849753
 20
-154.9152641756809
 30
0.0
 10
94.41266951849753
 20
-154.9152641756809
 30
0.0
 10
94.80230981787929
 20
-154.9152641756809
 30
0.0
 10
94.80230981787929
 20
-154.9152641756809
 30
0.0
 10
94.80230981787929
 20
-154.9152641756809
 30
0.0
 10
94.80230981787929
 20
-154.2593179952893
 30
0.0
 10
94.80230981787929
 20
-154.2593179952893
 30
0.0
  0
SPLINE
  5
99
330
94
100
AcDbEntity
  8
レイヤー 1
100
AcDbSpline
210
0.0
220
0.0
230
1.0
 70
    11
 71
     3
 72
    38
 73
    34
 74
     0
 42
0.0000000001
 43
0.0000000001
 40
0.0
 40
0.0
 40
0.0
 40
0.0
 40
1.0
 40
1.0
 40
1.0
 40
2.0
 40
2.0
 40
2.0
 40
3.0
 40
3.0
 40
3.0
 40
4.0
 40
4.0
 40
4.0
 40
5.0
 40
5.0
 40
5.0
 40
6.0
 40
6.0
 40
6.0
 40
7.0
 40
7.0
 40
7.0
 40
8.0
 40
8.0
 40
8.0
 40
9.0
 40
9.0
 40
9.0
 40
10.0
 40
10.0
 40
10.0
 40
11.0
 40
11.0
 40
11.0
 40
11.0
 10
94.98800046453425
 20
-155.1140461851798
 30
0.0
 10
94.98800046453425
 20
-155.1140461851798
 30
0.0
 10
94.98800046453425
 20
-155.4609673005445
 30
0.0
 10
94.98800046453425
 20
-155.4609673005445
 30
0.0
 10
94.98800046453425
 20
-155.4609673005445
 30
0.0
 10
94.80230981787929
 20
-155.4609673005445
 30
0.0
 10
94.80230981787929
 20
-155.4609673005445
 30
0.0
 10
94.80230981787929
 20
-155.4609673005445
 30
0.0
 10
94.80230981787929
 20
-155.1140461851798
 30
0.0
 10
94.80230981787929
 20
-155.1140461851798
 30
0.0
 10
94.80230981787929
 20
-155.1140461851798
 30
0.0
 10
94.24317082062323
 20
-155.1140461851798
 30
0.0
 10
94.24317082062323
 20
-155.1140461851798
 30
0.0
 10
94.24317082062323
 20
-155.1140461851798
 30
0.0
 10
94.24317082062323
 20
-154.88977046909
 30
0.0
 10
94.24317082062323
 20
-154.88977046909
 30
0.0
 10
94.24317082062323
 20
-154.88977046909
 30
0.0
 10
94.82211911691948
 20
-153.916530994507
 30
0.0
 10
94.82211911691948
 20
-153.916530994507
 30
0.0
 10
94.82211911691948
 20
-153.916530994507
 30
0.0
 10
94.98800046453425
 20
-153.916530994507
 30
0.0
 10
94.98800046453425
 20
-153.916530994507
 30
0.0
 10
94.98800046453425
 20
-153.916530994507
 30
0.0
 10
94.98800046453425
 20
-154.9152641756809
 30
0.0
 10
94.98800046453425
 20
-154.9152641756809
 30
0.0
 10
94.98800046453425
 20
-154.9152641756809
 30
0.0
 10
95.16473386292757
 20
-154.9152641756809
 30
0.0
 10
95.16473386292757
 20
-154.9152641756809
 30
0.0
 10
95.16473386292757
 20
-154.9152641756809
 30
0.0
 10
95.16473386292757
 20
-155.1140461851798
 30
0.0
 10
95.16473386292757
 20
-155.1140461851798
 30
0.0
 10
95.16473386292757
 20
-155.1140461851798
 30
0.0
 10
94.98800046453425
 20
-155.1140461851798
 30
0.0
 10
94.98800046453425
 20
-155.1140461851798
 30
0.0
  0
HATCH
  5
9A
330
94
100
AcDbEntity
  8
レイヤー 1
 62
   250
420
  2299925
440
 33554687
100
AcDbHatch
 10
0.0
 20
0.0
 30
0.0
210
0.0
220
0.0
230
1.0
  2
SOLID
 70
     1
 71
     1
 91
        2
 92
        1
 93
        1
 72
     4
 94
        3
 73
     0
 74
     0
 95
       14
 96
       10
 40
0.0
 40
0.0
 40
0.0
 40
0.0
 40
1.0
 40
1.0
 40
1.0
 40
2.0
 40
2.0
 40
2.0
 40
3.0
 40
3.0
 40
3.0
 40
3.0
 10
94.80230981787929
 20
-154.2593179952893
 10
94.80230981787929
 20
-154.2593179952893
 10
94.41266951849753
 20
-154.9152641756809
 10
94.41266951849753
 20
-154.9152641756809
 10
94.41266951849753
 20
-154.9152641756809
 10
94.80230981787929
 20
-154.9152641756809
 10
94.80230981787929
 20
-154.9152641756809
 10
94.80230981787929
 20
-154.9152641756809
 10
94.80230981787929
 20
-154.2593179952893
 10
94.80230981787929
 20
-154.2593179952893
 97
        0
 97
        1
330
98
 92
        1
 93
        1
 72
     4
 94
        3
 73
     0
 74
     0
 95
       38
 96
       34
 40
0.0
 40
0.0
 40
0.0
 40
0.0
 40
1.0
 40
1.0
 40
1.0
 40
2.0
 40
2.0
 40
2.0
 40
3.0
 40
3.0
 40
3.0
 40
4.0
 40
4.0
 40
4.0
 40
5.0
 40
5.0
 40
5.0
 40
6.0
 40
6.0
 40
6.0
 40
7.0
 40
7.0
 40
7.0
 40
8.0
 40
8.0
 40
8.0
 40
9.0
 40
9.0
 40
9.0
 40
10.0
 40
10.0
 40
10.0
 40
11.0
 40
11.0
 40
11.0
 40
11.0
 10
94.98800046453425
 20
-155.1140461851798
 10
94.98800046453425
 20
-155.1140461851798
 10
94.98800046453425
 20
-155.4609673005445
 10
94.98800046453425
 20
-155.4609673005445
 10
94.98800046453425
 20
-155.4609673005445
 10
94.80230981787929
 20
-155.4609673005445
 10
94.80230981787929
 20
-155.4609673005445
 10
94.80230981787929
 20
-155.4609673005445
 10
94.80230981787929
 20
-155.1140461851798
 10
94.80230981787929
 20
-155.1140461851798
 10
94.80230981787929
 20
-155.1140461851798
 10
94.24317082062323
 20
-155.1140461851798
 10
94.24317082062323
 20
-155.1140461851798
 10
94.24317082062323
 20
-155.1140461851798
 10
94.24317082062323
 20
-154.88977046909
 10
94.24317082062323
 20
-154.88977046909
 10
94.24317082062323
 20
-154.88977046909
 10
94.82211911691948
 20
-153.916530994507
 10
94.82211911691948
 20
-153.916530994507
 10
94.82211911691948
 20
-153.916530994507
 10
94.98800046453425
 20
-153.916530994507
 10
94.98800046453425
 20
-153.916530994507
 10
94.98800046453425
 20
-153.916530994507
 10
94.98800046453425
 20
-154.9152641756809
 10
94.98800046453425
 20
-154.9152641756809
 10
94.98800046453425
 20
-154.9152641756809
 10
95.16473386292757
 20
-154.9152641756809
 10
95.16473386292757
 20
-154.9152641756809
 10
95.16473386292757
 20
-154.9152641756809
 10
95.16473386292757
 20
-155.1140461851798
 10
95.16473386292757
 20
-155.1140461851798
 10
95.16473386292757
 20
-155.1140461851798
 10
94.98800046453425
 20
-155.1140461851798
 10
94.98800046453425
 20
-155.1140461851798
 97
        0
 97
        1
330
99
 75
     2
 76
     1
 98
        1
 10
0.0
 20
0.0
450
        0
451
        0
460
0.0
461
0.0
452
        0
462
0.0
453
        0
470

  0
ENDBLK
  5
97
330
94
100
AcDbEntity
  8
0
100
AcDbBlockEnd
  0
BLOCK
  5
9F
330
9D
100
AcDbEntity
  8
0
100
AcDbBlockBegin
  2
Block_3
 70
     0
 10
0.0
 20
0.0
 30
0.0
  3
Block_3
  1

  0
INSERT
  5
A2
330
9D
100
AcDbEntity
  8
レイヤー 1
100
AcDbBlockReference
  2
Block_4
 10
0.0
 20
0.0
 30
0.0
  0
ENDBLK
  5
A0
330
9D
100
AcDbEntity
  8
0
100
AcDbBlockEnd
  0
BLOCK
  5
A3
330
A1
100
AcDbEntity
  8
0
100
AcDbBlockBegin
  2
Block_4
 70
     0
 10
0.0
 20
0.0
 30
0.0
  3
Block_4
  1

  0
SPLINE
  5
A5
330
A1
100
AcDbEntity
  8
レイヤー 1
100
AcDbSpline
210
0.0
220
0.0
230
1.0
 70
    11
 71
     3
 72
    26
 73
    22
 74
     0
 42
0.0000000001
 43
0.0000000001
 40
0.0
 40
0.0
 40
0.0
 40
0.0
 40
1.0
 40
1.0
 40
1.0
 40
2.0
 40
2.0
 40
2.0
 40
3.0
 40
3.0
 40
3.0
 40
4.0
 40
4.0
 40
4.0
 40
5.0
 40
5.0
 40
5.0
 40
6.0
 40
6.0
 40
6.0
 40
7.0
 40
7.0
 40
7.0
 40
7.0
 10
104.6857720007382
 20
-155.461311810093
 30
0.0
 10
104.6857720007382
 20
-155.461311810093
 30
0.0
 10
104.6857720007382
 20
-154.3571587070704
 30
0.0
 10
104.6857720007382
 20
-154.3571587070704
 30
0.0
 10
104.6857720007382
 20
-154.3571587070704
 30
0.0
 10
104.4043076995933
 20
-154.3571587070704
 30
0.0
 10
104.4043076995933
 20
-154.3571587070704
 30
0.0
 10
104.4043076995933
 20
-154.3571587070704
 30
0.0
 10
104.4043076995933
 20
-154.2090196012047
 30
0.0
 10
104.4043076995933
 20
-154.2090196012047
 30
0.0
 10
104.6874945484809
 20
-154.1942056906181
 30
0.0
 10
104.7271131465613
 20
-154.0312526741658
 30
0.0
 10
104.7522623436036
 20
-153.9168755040555
 30
0.0
 10
104.7522623436036
 20
-153.9168755040555
 30
0.0
 10
104.8769748001696
 20
-153.9168755040555
 30
0.0
 10
104.8769748001696
 20
-153.9168755040555
 30
0.0
 10
104.8769748001696
 20
-153.9168755040555
 30
0.0
 10
104.8769748001696
 20
-155.461311810093
 30
0.0
 10
104.8769748001696
 20
-155.461311810093
 30
0.0
 10
104.8769748001696
 20
-155.461311810093
 30
0.0
 10
104.6857720007382
 20
-155.461311810093
 30
0.0
 10
104.6857720007382
 20
-155.461311810093
 30
0.0
  0
HATCH
  5
A6
330
A1
100
AcDbEntity
  8
レイヤー 1
 62
   250
420
  2299925
440
 33554687
100
AcDbHatch
 10
0.0
 20
0.0
 30
0.0
210
0.0
220
0.0
230
1.0
  2
SOLID
 70
     1
 71
     1
 91
        1
 92
        1
 93
        1
 72
     4
 94
        3
 73
     0
 74
     0
 95
       26
 96
       22
 40
0.0
 40
0.0
 40
0.0
 40
0.0
 40
1.0
 40
1.0
 40
1.0
 40
2.0
 40
2.0
 40
2.0
 40
3.0
 40
3.0
 40
3.0
 40
4.0
 40
4.0
 40
4.0
 40
5.0
 40
5.0
 40
5.0
 40
6.0
 40
6.0
 40
6.0
 40
7.0
 40
7.0
 40
7.0
 40
7.0
 10
104.6857720007382
 20
-155.461311810093
 10
104.6857720007382
 20
-155.461311810093
 10
104.6857720007382
 20
-154.3571587070704
 10
104.6857720007382
 20
-154.3571587070704
 10
104.6857720007382
 20
-154.3571587070704
 10
104.4043076995933
 20
-154.3571587070704
 10
104.4043076995933
 20
-154.3571587070704
 10
104.4043076995933
 20
-154.3571587070704
 10
104.4043076995933
 20
-154.2090196012047
 10
104.4043076995933
 20
-154.2090196012047
 10
104.6874945484809
 20
-154.1942056906181
 10
104.7271131465613
 20
-154.0312526741658
 10
104.7522623436036
 20
-153.9168755040555
 10
104.7522623436036
 20
-153.9168755040555
 10
104.8769748001696
 20
-153.9168755040555
 10
104.8769748001696
 20
-153.9168755040555
 10
104.8769748001696
 20
-153.9168755040555
 10
104.8769748001696
 20
-155.461311810093
 10
104.8769748001696
 20
-155.461311810093
 10
104.8769748001696
 20
-155.461311810093
 10
104.6857720007382
 20
-155.461311810093
 10
104.6857720007382
 20
-155.461311810093
 97
        0
 97
        1
330
A5
 75
     2
 76
     1
 98
        1
 10
0.0
 20
0.0
450
        0
451
        0
460
0.0
461
0.0
452
        0
462
0.0
453
        0
470

  0
SPLINE
  5
A7
330
A1
100
AcDbEntity
  8
レイヤー 1
100
AcDbSpline
210
0.0
220
0.0
230
1.0
 70
     9
 71
     3
 72
    26
 73
    22
 74
     0
 42
0.0000000001
 43
0.0000000001
 40
0.0
 40
0.0
 40
0.0
 40
0.0
 40
1.0
 40
1.0
 40
1.0
 40
2.0
 40
2.0
 40
2.0
 40
3.0
 40
3.0
 40
3.0
 40
4.0
 40
4.0
 40
4.0
 40
5.0
 40
5.0
 40
5.0
 40
6.0
 40
6.0
 40
6.0
 40
7.0
 40
7.0
 40
7.0
 40
7.0
 10
105.6531548129964
 20
-155.461311810093
 30
0.0
 10
105.6531548129964
 20
-155.461311810093
 30
0.0
 10
105.4512722175608
 20
-155.461311810093
 30
0.0
 10
105.4512722175608
 20
-155.461311810093
 30
0.0
 10
105.4729763191178
 20
-155.1522867450661
 30
0.0
 10
105.6369628642157
 20
-154.6341443840845
 30
0.0
 10
105.9831949604834
 20
-154.1284043668498
 30
0.0
 10
105.9831949604834
 20
-154.1284043668498
 30
0.0
 10
105.2690266663911
 20
-154.1284043668498
 30
0.0
 10
105.2690266663911
 20
-154.1284043668498
 30
0.0
 10
105.2690266663911
 20
-154.1284043668498
 30
0.0
 10
105.2690266663911
 20
-153.9168755040555
 30
0.0
 10
105.2690266663911
 20
-153.9168755040555
 30
0.0
 10
105.2690266663911
 20
-153.9168755040555
 30
0.0
 10
106.185077555919
 20
-153.9168755040555
 30
0.0
 10
106.185077555919
 20
-153.9168755040555
 30
0.0
 10
106.185077555919
 20
-153.9168755040555
 30
0.0
 10
106.185077555919
 20
-154.1284043668498
 30
0.0
 10
106.185077555919
 20
-154.1284043668498
 30
0.0
 10
105.909469917099
 20
-154.4184814067079
 30
0.0
 10
105.6820936150725
 20
-155.0106933206223
 30
0.0
 10
105.6531548129964
 20
-155.461311810093
 30
0.0
  0
HATCH
  5
A8
330
A1
100
AcDbEntity
  8
レイヤー 1
 62
   250
420
  2299925
440
 33554687
100
AcDbHatch
 10
0.0
 20
0.0
 30
0.0
210
0.0
220
0.0
230
1.0
  2
SOLID
 70
     1
 71
     1
 91
        1
 92
        1
 93
        1
 72
     4
 94
        3
 73
     0
 74
     0
 95
       26
 96
       22
 40
0.0
 40
0.0
 40
0.0
 40
0.0
 40
1.0
 40
1.0
 40
1.0
 40
2.0
 40
2.0
 40
2.0
 40
3.0
 40
3.0
 40
3.0
 40
4.0
 40
4.0
 40
4.0
 40
5.0
 40
5.0
 40
5.0
 40
6.0
 40
6.0
 40
6.0
 40
7.0
 40
7.0
 40
7.0
 40
7.0
 10
105.6531548129964
 20
-155.461311810093
 10
105.6531548129964
 20
-155.461311810093
 10
105.4512722175608
 20
-155.461311810093
 10
105.4512722175608
 20
-155.461311810093
 10
105.4729763191178
 20
-155.1522867450661
 10
105.6369628642157
 20
-154.6341443840845
 10
105.9831949604834
 20
-154.1284043668498
 10
105.9831949604834
 20
-154.1284043668498
 10
105.2690266663911
 20
-154.1284043668498
 10
105.2690266663911
 20
-154.1284043668498
 10
105.2690266663911
 20
-154.1284043668498
 10
105.2690266663911
 20
-153.9168755040555
 10
105.2690266663911
 20
-153.9168755040555
 10
105.2690266663911
 20
-153.9168755040555
 10
106.185077555919
 20
-153.9168755040555
 10
106.185077555919
 20
-153.9168755040555
 10
106.185077555919
 20
-153.9168755040555
 10
106.185077555919
 20
-154.1284043668498
 10
106.185077555919
 20
-154.1284043668498
 10
105.909469917099
 20
-154.4184814067079
 10
105.6820936150725
 20
-155.0106933206223
 10
105.6531548129964
 20
-155.461311810093
 97
        0
 97
        1
330
A7
 75
     2
 76
     1
 98
        1
 10
0.0
 20
0.0
450
        0
451
        0
460
0.0
461
0.0
452
        0
462
0.0
453
        0
470

  0
ENDBLK
  5
A4
330
A1
100
AcDbEntity
  8
0
100
AcDbBlockEnd
  0
BLOCK
  5
AD
330
AB
100
AcDbEntity
  8
0
100
AcDbBlockBegin
  2
Block_5
 70
     0
 10
0.0
 20
0.0
 30
0.0
  3
Block_5
  1

  0
SPLINE
  5
AF
330
AB
100
AcDbEntity
  8
レイヤー 1
100
AcDbSpline
210
0.0
220
0.0
230
1.0
 70
     9
 71
     3
 72
    17
 73
    13
 74
     0
 42
0.0000000001
 43
0.0000000001
 40
0.0
 40
0.0
 40
0.0
 40
0.0
 40
1.0
 40
1.0
 40
1.0
 40
2.0
 40
2.0
 40
2.0
 40
3.0
 40
3.0
 40
3.0
 40
4.0
 40
4.0
 40
4.0
 40
4.0
 10
116.2733506653761
 20
-147.988210683489
 30
0.0
 10
116.2733506653761
 20
-148.2117973804817
 30
0.0
 10
116.4848795281704
 20
-148.2441812780431
 30
0.0
 10
116.6013237555719
 20
-148.2441812780431
 30
0.0
 10
116.7770236253196
 20
-148.2441812780431
 30
0.0
 10
116.9399766417719
 20
-148.1628770245912
 30
0.0
 10
116.9399766417719
 20
-148.0061251800123
 30
0.0
 10
116.9399766417719
 20
-147.9031168250034
 30
0.0
 10
116.8807209994256
 20
-147.7535996809435
 30
0.0
 10
116.5951225836984
 20
-147.7535996809435
 30
0.0
 10
116.3708468676087
 20
-147.7535996809435
 30
0.0
 10
116.2733506653761
 20
-147.8724554751846
 30
0.0
 10
116.2733506653761
 20
-147.988210683489
 30
0.0
  0
SPLINE
  5
B0
330
AB
100
AcDbEntity
  8
レイヤー 1
100
AcDbSpline
210
0.0
220
0.0
230
1.0
 70
     9
 71
     3
 72
    32
 73
    28
 74
     0
 42
0.0000000001
 43
0.0000000001
 40
0.0
 40
0.0
 40
0.0
 40
0.0
 40
1.0
 40
1.0
 40
1.0
 40
2.0
 40
2.0
 40
2.0
 40
3.0
 40
3.0
 40
3.0
 40
4.0
 40
4.0
 40
4.0
 40
5.0
 40
5.0
 40
5.0
 40
6.0
 40
6.0
 40
6.0
 40
7.0
 40
7.0
 40
7.0
 40
8.0
 40
8.0
 40
8.0
 40
9.0
 40
9.0
 40
9.0
 40
9.0
 10
117.1322129698489
 20
-148.0023355749786
 30
0.0
 10
117.1322129698489
 20
-148.4426187779935
 30
0.0
 10
116.5782416158207
 20
-148.4498534785125
 30
0.0
 10
116.3643011861867
 20
-148.4498534785125
 30
0.0
 10
116.1338242982235
 20
-148.4498534785125
 30
0.0
 10
115.486490856545
 20
-148.4333170201833
 30
0.0
 10
115.486490856545
 20
-147.9699516774172
 30
0.0
 10
115.486490856545
 20
-147.8221570811
 30
0.0
 10
115.5564262948956
 20
-147.6130397851453
 30
0.0
 10
115.8885334996737
 20
-147.580655887584
 30
0.0
 10
115.8885334996737
 20
-147.580655887584
 30
0.0
 10
115.8885334996737
 20
-147.7625569292052
 30
0.0
 10
115.8885334996737
 20
-147.7625569292052
 30
0.0
 10
115.8313449146185
 20
-147.7715141774668
 30
0.0
 10
115.6832058087528
 20
-147.7987304318003
 30
0.0
 10
115.6832058087528
 20
-147.9716742251598
 30
0.0
 10
115.6832058087528
 20
-148.2207546287434
 30
0.0
 10
116.0111788989486
 20
-148.2548610740474
 30
0.0
 10
116.2161620803209
 20
-148.2658853796002
 30
0.0
 10
116.1379584128058
 20
-148.1863036738909
 30
0.0
 10
116.0787027704595
 20
-148.1287705792872
 30
0.0
 10
116.0787027704595
 20
-147.973741282451
 30
0.0
 10
116.0787027704595
 20
-147.8204345333574
 30
0.0
 10
116.1868787686963
 20
-147.5623968815122
 30
0.0
 10
116.5930555264073
 20
-147.5623968815122
 30
0.0
 10
116.9124158778899
 20
-147.5623968815122
 30
0.0
 10
117.1322129698489
 20
-147.7318955793865
 30
0.0
 10
117.1322129698489
 20
-148.0023355749786
 30
0.0
  0
HATCH
  5
B1
330
AB
100
AcDbEntity
  8
レイヤー 1
 62
   250
420
  2299925
440
 33554687
100
AcDbHatch
 10
0.0
 20
0.0
 30
0.0
210
0.0
220
0.0
230
1.0
  2
SOLID
 70
     1
 71
     1
 91
        2
 92
        1
 93
        1
 72
     4
 94
        3
 73
     0
 74
     0
 95
       17
 96
       13
 40
0.0
 40
0.0
 40
0.0
 40
0.0
 40
1.0
 40
1.0
 40
1.0
 40
2.0
 40
2.0
 40
2.0
 40
3.0
 40
3.0
 40
3.0
 40
4.0
 40
4.0
 40
4.0
 40
4.0
 10
116.2733506653761
 20
-147.988210683489
 10
116.2733506653761
 20
-148.2117973804817
 10
116.4848795281704
 20
-148.2441812780431
 10
116.6013237555719
 20
-148.2441812780431
 10
116.7770236253196
 20
-148.2441812780431
 10
116.9399766417719
 20
-148.1628770245912
 10
116.9399766417719
 20
-148.0061251800123
 10
116.9399766417719
 20
-147.9031168250034
 10
116.8807209994256
 20
-147.7535996809435
 10
116.5951225836984
 20
-147.7535996809435
 10
116.3708468676087
 20
-147.7535996809435
 10
116.2733506653761
 20
-147.8724554751846
 10
116.2733506653761
 20
-147.988210683489
 97
        0
 97
        1
330
AF
 92
        1
 93
        1
 72
     4
 94
        3
 73
     0
 74
     0
 95
       32
 96
       28
 40
0.0
 40
0.0
 40
0.0
 40
0.0
 40
1.0
 40
1.0
 40
1.0
 40
2.0
 40
2.0
 40
2.0
 40
3.0
 40
3.0
 40
3.0
 40
4.0
 40
4.0
 40
4.0
 40
5.0
 40
5.0
 40
5.0
 40
6.0
 40
6.0
 40
6.0
 40
7.0
 40
7.0
 40
7.0
 40
8.0
 40
8.0
 40
8.0
 40
9.0
 40
9.0
 40
9.0
 40
9.0
 10
117.1322129698489
 20
-148.0023355749786
 10
117.1322129698489
 20
-148.4426187779935
 10
116.5782416158207
 20
-148.4498534785125
 10
116.3643011861867
 20
-148.4498534785125
 10
116.1338242982235
 20
-148.4498534785125
 10
115.486490856545
 20
-148.4333170201833
 10
115.486490856545
 20
-147.9699516774172
 10
115.486490856545
 20
-147.8221570811
 10
115.5564262948956
 20
-147.6130397851453
 10
115.8885334996737
 20
-147.580655887584
 10
115.8885334996737
 20
-147.580655887584
 10
115.8885334996737
 20
-147.7625569292052
 10
115.8885334996737
 20
-147.7625569292052
 10
115.8313449146185
 20
-147.7715141774668
 10
115.6832058087528
 20
-147.7987304318003
 10
115.6832058087528
 20
-147.9716742251598
 10
115.6832058087528
 20
-148.2207546287434
 10
116.0111788989486
 20
-148.2548610740474
 10
116.2161620803209
 20
-148.2658853796002
 10
116.1379584128058
 20
-148.1863036738909
 10
116.0787027704595
 20
-148.1287705792872
 10
116.0787027704595
 20
-147.973741282451
 10
116.0787027704595
 20
-147.8204345333574
 10
116.1868787686963
 20
-147.5623968815122
 10
116.5930555264073
 20
-147.5623968815122
 10
116.9124158778899
 20
-147.5623968815122
 10
117.1322129698489
 20
-147.7318955793865
 10
117.1322129698489
 20
-148.0023355749786
 97
        0
 97
        1
330
B0
 75
     2
 76
     1
 98
        1
 10
0.0
 20
0.0
450
        0
451
        0
460
0.0
461
0.0
452
        0
462
0.0
453
        0
470

  0
ENDBLK
  5
AE
330
AB
100
AcDbEntity
  8
0
100
AcDbBlockEnd
  0
BLOCK
  5
B8
330
B6
100
AcDbEntity
  8
0
100
AcDbBlockBegin
  2
Block_6
 70
     0
 10
0.0
 20
0.0
 30
0.0
  3
Block_6
  1

  0
INSERT
  5
BB
330
B6
100
AcDbEntity
  8
レイヤー 1
100
AcDbBlockReference
  2
Block_7
 10
0.0
 20
0.0
 30
0.0
  0
ENDBLK
  5
B9
330
B6
100
AcDbEntity
  8
0
100
AcDbBlockEnd
  0
BLOCK
  5
BC
330
BA
100
AcDbEntity
  8
0
100
AcDbBlockBegin
  2
Block_7
 70
     0
 10
0.0
 20
0.0
 30
0.0
  3
Block_7
  1

  0
SPLINE
  5
BE
330
BA
100
AcDbEntity
  8
レイヤー 1
100
AcDbSpline
210
0.0
220
0.0
230
1.0
 70
     9
 71
     3
 72
    17
 73
    13
 74
     0
 42
0.0000000001
 43
0.0000000001
 40
0.0
 40
0.0
 40
0.0
 40
0.0
 40
1.0
 40
1.0
 40
1.0
 40
2.0
 40
2.0
 40
2.0
 40
3.0
 40
3.0
 40
3.0
 40
4.0
 40
4.0
 40
4.0
 40
4.0
 10
119.9144720837366
 20
-152.0827066677085
 30
0.0
 10
119.9144720837366
 20
-152.2952690591484
 30
0.0
 10
120.1980034421727
 20
-152.3352321667773
 30
0.0
 10
120.5428575002462
 20
-152.3352321667773
 30
0.0
 10
120.8622178517289
 20
-152.3352321667773
 30
0.0
 10
121.1708984072072
 20
-152.3045708169586
 30
0.0
 10
121.1708984072072
 20
-152.0827066677085
 30
0.0
 10
121.1708984072072
 20
-151.8715223144627
 30
0.0
 10
120.8897786156109
 20
-151.8301811686397
 30
0.0
 10
120.5428575002462
 20
-151.8301811686397
 30
0.0
 10
120.223152639215
 20
-151.8301811686397
 30
0.0
 10
119.9144720837366
 20
-151.862565066201
 30
0.0
 10
119.9144720837366
 20
-152.0827066677085
 30
0.0
  0
SPLINE
  5
BF
330
BA
100
AcDbEntity
  8
レイヤー 1
100
AcDbSpline
210
0.0
220
0.0
230
1.0
 70
     9
 71
     3
 72
    29
 73
    25
 74
     0
 42
0.0000000001
 43
0.0000000001
 40
0.0
 40
0.0
 40
0.0
 40
0.0
 40
1.0
 40
1.0
 40
1.0
 40
2.0
 40
2.0
 40
2.0
 40
3.0
 40
3.0
 40
3.0
 40
4.0
 40
4.0
 40
4.0
 40
5.0
 40
5.0
 40
5.0
 40
6.0
 40
6.0
 40
6.0
 40
7.0
 40
7.0
 40
7.0
 40
8.0
 40
8.0
 40
8.0
 40
8.0
 10
121.1371364714518
 20
-151.7437092719599
 30
0.0
 10
121.346598276955
 20
-151.8356933214161
 30
0.0
 10
121.3655463021239
 20
-151.9834879177333
 30
0.0
 10
121.3655463021239
 20
-152.0827066677085
 30
0.0
 10
121.3655463021239
 20
-152.2198214680214
 30
0.0
 10
121.319037513073
 20
-152.3403998100052
 30
0.0
 10
121.1371364714518
 20
-152.421704063457
 30
0.0
 10
120.9424885765352
 20
-152.5098985078795
 30
0.0
 10
120.70546600715
 20
-152.5260904566601
 30
0.0
 10
120.5428575002462
 20
-152.5260904566601
 30
0.0
 10
120.3988525089628
 20
-152.5260904566601
 30
0.0
 10
120.147016028991
 20
-152.5119655651706
 30
0.0
 10
119.9482340194921
 20
-152.421704063457
 30
0.0
 10
119.7453178954109
 20
-152.3297200140009
 30
0.0
 10
119.7218912461112
 20
-152.1926052136879
 30
0.0
 10
119.7218912461112
 20
-152.0827066677085
 30
0.0
 10
119.7218912461112
 20
-151.9473144151382
 30
0.0
 10
119.7663329778709
 20
-151.8246690158633
 30
0.0
 10
119.9482340194921
 20
-151.7437092719599
 30
0.0
 10
120.1408148571176
 20
-151.6589599230227
 30
0.0
 10
120.3692246877896
 20
-151.6389783692083
 30
0.0
 10
120.5428575002462
 20
-151.6389783692083
 30
0.0
 10
120.7140787458631
 20
-151.6389783692083
 30
0.0
 10
120.9445556338264
 20
-151.6572373752801
 30
0.0
 10
121.1371364714518
 20
-151.7437092719599
 30
0.0
  0
HATCH
  5
C0
330
BA
100
AcDbEntity
  8
レイヤー 1
 62
   250
420
  2299925
440
 33554687
100
AcDbHatch
 10
0.0
 20
0.0
 30
0.0
210
0.0
220
0.0
230
1.0
  2
SOLID
 70
     1
 71
     1
 91
        2
 92
        1
 93
        1
 72
     4
 94
        3
 73
     0
 74
     0
 95
       17
 96
       13
 40
0.0
 40
0.0
 40
0.0
 40
0.0
 40
1.0
 40
1.0
 40
1.0
 40
2.0
 40
2.0
 40
2.0
 40
3.0
 40
3.0
 40
3.0
 40
4.0
 40
4.0
 40
4.0
 40
4.0
 10
119.9144720837366
 20
-152.0827066677085
 10
119.9144720837366
 20
-152.2952690591484
 10
120.1980034421727
 20
-152.3352321667773
 10
120.5428575002462
 20
-152.3352321667773
 10
120.8622178517289
 20
-152.3352321667773
 10
121.1708984072072
 20
-152.3045708169586
 10
121.1708984072072
 20
-152.0827066677085
 10
121.1708984072072
 20
-151.8715223144627
 10
120.8897786156109
 20
-151.8301811686397
 10
120.5428575002462
 20
-151.8301811686397
 10
120.223152639215
 20
-151.8301811686397
 10
119.9144720837366
 20
-151.862565066201
 10
119.9144720837366
 20
-152.0827066677085
 97
        0
 97
        1
330
BE
 92
        1
 93
        1
 72
     4
 94
        3
 73
     0
 74
     0
 95
       29
 96
       25
 40
0.0
 40
0.0
 40
0.0
 40
0.0
 40
1.0
 40
1.0
 40
1.0
 40
2.0
 40
2.0
 40
2.0
 40
3.0
 40
3.0
 40
3.0
 40
4.0
 40
4.0
 40
4.0
 40
5.0
 40
5.0
 40
5.0
 40
6.0
 40
6.0
 40
6.0
 40
7.0
 40
7.0
 40
7.0
 40
8.0
 40
8.0
 40
8.0
 40
8.0
 10
121.1371364714518
 20
-151.7437092719599
 10
121.346598276955
 20
-151.8356933214161
 10
121.3655463021239
 20
-151.9834879177333
 10
121.3655463021239
 20
-152.0827066677085
 10
121.3655463021239
 20
-152.2198214680214
 10
121.319037513073
 20
-152.3403998100052
 10
121.1371364714518
 20
-152.421704063457
 10
120.9424885765352
 20
-152.5098985078795
 10
120.70546600715
 20
-152.5260904566601
 10
120.5428575002462
 20
-152.5260904566601
 10
120.3988525089628
 20
-152.5260904566601
 10
120.147016028991
 20
-152.5119655651706
 10
119.9482340194921
 20
-152.421704063457
 10
119.7453178954109
 20
-152.3297200140009
 10
119.7218912461112
 20
-152.1926052136879
 10
119.7218912461112
 20
-152.0827066677085
 10
119.7218912461112
 20
-151.9473144151382
 10
119.7663329778709
 20
-151.8246690158633
 10
119.9482340194921
 20
-151.7437092719599
 10
120.1408148571176
 20
-151.6589599230227
 10
120.3692246877896
 20
-151.6389783692083
 10
120.5428575002462
 20
-151.6389783692083
 10
120.7140787458631
 20
-151.6389783692083
 10
120.9445556338264
 20
-151.6572373752801
 10
121.1371364714518
 20
-151.7437092719599
 97
        0
 97
        1
330
BF
 75
     2
 76
     1
 98
        1
 10
0.0
 20
0.0
450
        0
451
        0
460
0.0
461
0.0
452
        0
462
0.0
453
        0
470

  0
SPLINE
  5
C1
330
BA
100
AcDbEntity
  8
レイヤー 1
100
AcDbSpline
210
0.0
220
0.0
230
1.0
 70
    11
 71
     3
 72
    17
 73
    13
 74
     0
 42
0.0000000001
 43
0.0000000001
 40
0.0
 40
0.0
 40
0.0
 40
0.0
 40
1.0
 40
1.0
 40
1.0
 40
2.0
 40
2.0
 40
2.0
 40
3.0
 40
3.0
 40
3.0
 40
4.0
 40
4.0
 40
4.0
 40
4.0
 10
121.3149033984907
 20
-151.4560437989415
 30
0.0
 10
121.3149033984907
 20
-151.4560437989415
 30
0.0
 10
121.0630669185189
 20
-151.4560437989415
 30
0.0
 10
121.0630669185189
 20
-151.4560437989415
 30
0.0
 10
121.0630669185189
 20
-151.4560437989415
 30
0.0
 10
121.0630669185189
 20
-151.2414143502105
 30
0.0
 10
121.0630669185189
 20
-151.2414143502105
 30
0.0
 10
121.0630669185189
 20
-151.2414143502105
 30
0.0
 10
121.3149033984907
 20
-151.2414143502105
 30
0.0
 10
121.3149033984907
 20
-151.2414143502105
 30
0.0
 10
121.3149033984907
 20
-151.2414143502105
 30
0.0
 10
121.3149033984907
 20
-151.4560437989415
 30
0.0
 10
121.3149033984907
 20
-151.4560437989415
 30
0.0
  0
HATCH
  5
C2
330
BA
100
AcDbEntity
  8
レイヤー 1
 62
   250
420
  2299925
440
 33554687
100
AcDbHatch
 10
0.0
 20
0.0
 30
0.0
210
0.0
220
0.0
230
1.0
  2
SOLID
 70
     1
 71
     1
 91
        1
 92
        1
 93
        1
 72
     4
 94
        3
 73
     0
 74
     0
 95
       17
 96
       13
 40
0.0
 40
0.0
 40
0.0
 40
0.0
 40
1.0
 40
1.0
 40
1.0
 40
2.0
 40
2.0
 40
2.0
 40
3.0
 40
3.0
 40
3.0
 40
4.0
 40
4.0
 40
4.0
 40
4.0
 10
121.3149033984907
 20
-151.4560437989415
 10
121.3149033984907
 20
-151.4560437989415
 10
121.0630669185189
 20
-151.4560437989415
 10
121.0630669185189
 20
-151.4560437989415
 10
121.0630669185189
 20
-151.4560437989415
 10
121.0630669185189
 20
-151.2414143502105
 10
121.0630669185189
 20
-151.2414143502105
 10
121.0630669185189
 20
-151.2414143502105
 10
121.3149033984907
 20
-151.2414143502105
 10
121.3149033984907
 20
-151.2414143502105
 10
121.3149033984907
 20
-151.2414143502105
 10
121.3149033984907
 20
-151.4560437989415
 10
121.3149033984907
 20
-151.4560437989415
 97
        0
 97
        1
330
C1
 75
     2
 76
     1
 98
        1
 10
0.0
 20
0.0
450
        0
451
        0
460
0.0
461
0.0
452
        0
462
0.0
453
        0
470

  0
SPLINE
  5
C3
330
BA
100
AcDbEntity
  8
レイヤー 1
100
AcDbSpline
210
0.0
220
0.0
230
1.0
 70
    11
 71
     3
 72
    14
 73
    10
 74
     0
 42
0.0000000001
 43
0.0000000001
 40
0.0
 40
0.0
 40
0.0
 40
0.0
 40
1.0
 40
1.0
 40
1.0
 40
2.0
 40
2.0
 40
2.0
 40
3.0
 40
3.0
 40
3.0
 40
3.0
 10
120.1132540932356
 20
-150.5165662601139
 30
0.0
 10
120.1132540932356
 20
-150.5165662601139
 30
0.0
 10
120.7692002736271
 20
-150.9062065594956
 30
0.0
 10
120.7692002736271
 20
-150.9062065594956
 30
0.0
 10
120.7692002736271
 20
-150.9062065594956
 30
0.0
 10
120.7692002736271
 20
-150.5165662601139
 30
0.0
 10
120.7692002736271
 20
-150.5165662601139
 30
0.0
 10
120.7692002736271
 20
-150.5165662601139
 30
0.0
 10
120.1132540932356
 20
-150.5165662601139
 30
0.0
 10
120.1132540932356
 20
-150.5165662601139
 30
0.0
  0
SPLINE
  5
C4
330
BA
100
AcDbEntity
  8
レイヤー 1
100
AcDbSpline
210
0.0
220
0.0
230
1.0
 70
    11
 71
     3
 72
    38
 73
    34
 74
     0
 42
0.0000000001
 43
0.0000000001
 40
0.0
 40
0.0
 40
0.0
 40
0.0
 40
1.0
 40
1.0
 40
1.0
 40
2.0
 40
2.0
 40
2.0
 40
3.0
 40
3.0
 40
3.0
 40
4.0
 40
4.0
 40
4.0
 40
5.0
 40
5.0
 40
5.0
 40
6.0
 40
6.0
 40
6.0
 40
7.0
 40
7.0
 40
7.0
 40
8.0
 40
8.0
 40
8.0
 40
9.0
 40
9.0
 40
9.0
 40
10.0
 40
10.0
 40
10.0
 40
11.0
 40
11.0
 40
11.0
 40
11.0
 10
120.967982283126
 20
-150.3308756134589
 30
0.0
 10
120.967982283126
 20
-150.3308756134589
 30
0.0
 10
121.3149033984907
 20
-150.3308756134589
 30
0.0
 10
121.3149033984907
 20
-150.3308756134589
 30
0.0
 10
121.3149033984907
 20
-150.3308756134589
 30
0.0
 10
121.3149033984907
 20
-150.5165662601139
 30
0.0
 10
121.3149033984907
 20
-150.5165662601139
 30
0.0
 10
121.3149033984907
 20
-150.5165662601139
 30
0.0
 10
120.967982283126
 20
-150.5165662601139
 30
0.0
 10
120.967982283126
 20
-150.5165662601139
 30
0.0
 10
120.967982283126
 20
-150.5165662601139
 30
0.0
 10
120.967982283126
 20
-151.0757052573699
 30
0.0
 10
120.967982283126
 20
-151.0757052573699
 30
0.0
 10
120.967982283126
 20
-151.0757052573699
 30
0.0
 10
120.7437065670363
 20
-151.0757052573699
 30
0.0
 10
120.7437065670363
 20
-151.0757052573699
 30
0.0
 10
120.7437065670363
 20
-151.0757052573699
 30
0.0
 10
119.7704670924532
 20
-150.496929215848
 30
0.0
 10
119.7704670924532
 20
-150.496929215848
 30
0.0
 10
119.7704670924532
 20
-150.496929215848
 30
0.0
 10
119.7704670924532
 20
-150.3308756134589
 30
0.0
 10
119.7704670924532
 20
-150.3308756134589
 30
0.0
 10
119.7704670924532
 20
-150.3308756134589
 30
0.0
 10
120.7692002736271
 20
-150.3308756134589
 30
0.0
 10
120.7692002736271
 20
-150.3308756134589
 30
0.0
 10
120.7692002736271
 20
-150.3308756134589
 30
0.0
 10
120.7692002736271
 20
-150.1541422150656
 30
0.0
 10
120.7692002736271
 20
-150.1541422150656
 30
0.0
 10
120.7692002736271
 20
-150.1541422150656
 30
0.0
 10
120.967982283126
 20
-150.1541422150656
 30
0.0
 10
120.967982283126
 20
-150.1541422150656
 30
0.0
 10
120.967982283126
 20
-150.1541422150656
 30
0.0
 10
120.967982283126
 20
-150.3308756134589
 30
0.0
 10
120.967982283126
 20
-150.3308756134589
 30
0.0
  0
HATCH
  5
C5
330
BA
100
AcDbEntity
  8
レイヤー 1
 62
   250
420
  2299925
440
 33554687
100
AcDbHatch
 10
0.0
 20
0.0
 30
0.0
210
0.0
220
0.0
230
1.0
  2
SOLID
 70
     1
 71
     1
 91
        2
 92
        1
 93
        1
 72
     4
 94
        3
 73
     0
 74
     0
 95
       14
 96
       10
 40
0.0
 40
0.0
 40
0.0
 40
0.0
 40
1.0
 40
1.0
 40
1.0
 40
2.0
 40
2.0
 40
2.0
 40
3.0
 40
3.0
 40
3.0
 40
3.0
 10
120.1132540932356
 20
-150.5165662601139
 10
120.1132540932356
 20
-150.5165662601139
 10
120.7692002736271
 20
-150.9062065594956
 10
120.7692002736271
 20
-150.9062065594956
 10
120.7692002736271
 20
-150.9062065594956
 10
120.7692002736271
 20
-150.5165662601139
 10
120.7692002736271
 20
-150.5165662601139
 10
120.7692002736271
 20
-150.5165662601139
 10
120.1132540932356
 20
-150.5165662601139
 10
120.1132540932356
 20
-150.5165662601139
 97
        0
 97
        1
330
C3
 92
        1
 93
        1
 72
     4
 94
        3
 73
     0
 74
     0
 95
       38
 96
       34
 40
0.0
 40
0.0
 40
0.0
 40
0.0
 40
1.0
 40
1.0
 40
1.0
 40
2.0
 40
2.0
 40
2.0
 40
3.0
 40
3.0
 40
3.0
 40
4.0
 40
4.0
 40
4.0
 40
5.0
 40
5.0
 40
5.0
 40
6.0
 40
6.0
 40
6.0
 40
7.0
 40
7.0
 40
7.0
 40
8.0
 40
8.0
 40
8.0
 40
9.0
 40
9.0
 40
9.0
 40
10.0
 40
10.0
 40
10.0
 40
11.0
 40
11.0
 40
11.0
 40
11.0
 10
120.967982283126
 20
-150.3308756134589
 10
120.967982283126
 20
-150.3308756134589
 10
121.3149033984907
 20
-150.3308756134589
 10
121.3149033984907
 20
-150.3308756134589
 10
121.3149033984907
 20
-150.3308756134589
 10
121.3149033984907
 20
-150.5165662601139
 10
121.3149033984907
 20
-150.5165662601139
 10
121.3149033984907
 20
-150.5165662601139
 10
120.967982283126
 20
-150.5165662601139
 10
120.967982283126
 20
-150.5165662601139
 10
120.967982283126
 20
-150.5165662601139
 10
120.967982283126
 20
-151.0757052573699
 10
120.967982283126
 20
-151.0757052573699
 10
120.967982283126
 20
-151.0757052573699
 10
120.7437065670363
 20
-151.0757052573699
 10
120.7437065670363
 20
-151.0757052573699
 10
120.7437065670363
 20
-151.0757052573699
 10
119.7704670924532
 20
-150.496929215848
 10
119.7704670924532
 20
-150.496929215848
 10
119.7704670924532
 20
-150.496929215848
 10
119.7704670924532
 20
-150.3308756134589
 10
119.7704670924532
 20
-150.3308756134589
 10
119.7704670924532
 20
-150.3308756134589
 10
120.7692002736271
 20
-150.3308756134589
 10
120.7692002736271
 20
-150.3308756134589
 10
120.7692002736271
 20
-150.3308756134589
 10
120.7692002736271
 20
-150.1541422150656
 10
120.7692002736271
 20
-150.1541422150656
 10
120.7692002736271
 20
-150.1541422150656
 10
120.967982283126
 20
-150.1541422150656
 10
120.967982283126
 20
-150.1541422150656
 10
120.967982283126
 20
-150.1541422150656
 10
120.967982283126
 20
-150.3308756134589
 10
120.967982283126
 20
-150.3308756134589
 97
        0
 97
        1
330
C4
 75
     2
 76
     1
 98
        1
 10
0.0
 20
0.0
450
        0
451
        0
460
0.0
461
0.0
452
        0
462
0.0
453
        0
470

  0
ENDBLK
  5
BD
330
BA
100
AcDbEntity
  8
0
100
AcDbBlockEnd
  0
BLOCK
  5
CC
330
CA
100
AcDbEntity
  8
0
100
AcDbBlockBegin
  2
Block_8
 70
     0
 10
0.0
 20
0.0
 30
0.0
  3
Block_8
  1

  0
INSERT
  5
CF
330
CA
100
AcDbEntity
  8
レイヤー 1
100
AcDbBlockReference
  2
Block_9
 10
0.0
 20
0.0
 30
0.0
  0
ENDBLK
  5
CD
330
CA
100
AcDbEntity
  8
0
100
AcDbBlockEnd
  0
BLOCK
  5
D0
330
CE
100
AcDbEntity
  8
0
100
AcDbBlockBegin
  2
Block_9
 70
     0
 10
0.0
 20
0.0
 30
0.0
  3
Block_9
  1

  0
SPLINE
  5
D2
330
CE
100
AcDbEntity
  8
レイヤー 1
100
AcDbSpline
210
0.0
220
0.0
230
1.0
 70
    11
 71
     3
 72
    26
 73
    22
 74
     0
 42
0.0000000001
 43
0.0000000001
 40
0.0
 40
0.0
 40
0.0
 40
0.0
 40
1.0
 40
1.0
 40
1.0
 40
2.0
 40
2.0
 40
2.0
 40
3.0
 40
3.0
 40
3.0
 40
4.0
 40
4.0
 40
4.0
 40
5.0
 40
5.0
 40
5.0
 40
6.0
 40
6.0
 40
6.0
 40
7.0
 40
7.0
 40
7.0
 40
7.0
 10
90.03171384467957
 20
-144.5103867911293
 30
0.0
 10
90.03171384467957
 20
-144.5103867911293
 30
0.0
 10
88.92756074165701
 20
-144.5103867911293
 30
0.0
 10
88.92756074165701
 20
-144.5103867911293
 30
0.0
 10
88.92756074165701
 20
-144.5103867911293
 30
0.0
 10
88.92756074165701
 20
-144.7918510922742
 30
0.0
 10
88.92756074165701
 20
-144.7918510922742
 30
0.0
 10
88.92756074165701
 20
-144.7918510922742
 30
0.0
 10
88.77942163579126
 20
-144.7918510922742
 30
0.0
 10
88.77942163579126
 20
-144.7918510922742
 30
0.0
 10
88.76460772520468
 20
-144.5086642433867
 30
0.0
 10
88.60165470875235
 20
-144.4690456453063
 30
0.0
 10
88.48727753864208
 20
-144.443896448264
 30
0.0
 10
88.48727753864208
 20
-144.443896448264
 30
0.0
 10
88.48727753864208
 20
-144.319183991698
 30
0.0
 10
88.48727753864208
 20
-144.319183991698
 30
0.0
 10
88.48727753864208
 20
-144.319183991698
 30
0.0
 10
90.03171384467957
 20
-144.319183991698
 30
0.0
 10
90.03171384467957
 20
-144.319183991698
 30
0.0
 10
90.03171384467957
 20
-144.319183991698
 30
0.0
 10
90.03171384467957
 20
-144.5103867911293
 30
0.0
 10
90.03171384467957
 20
-144.5103867911293
 30
0.0
  0
HATCH
  5
D3
330
CE
100
AcDbEntity
  8
レイヤー 1
 62
   250
420
  2299925
440
 33554687
100
AcDbHatch
 10
0.0
 20
0.0
 30
0.0
210
0.0
220
0.0
230
1.0
  2
SOLID
 70
     1
 71
     1
 91
        1
 92
        1
 93
        1
 72
     4
 94
        3
 73
     0
 74
     0
 95
       26
 96
       22
 40
0.0
 40
0.0
 40
0.0
 40
0.0
 40
1.0
 40
1.0
 40
1.0
 40
2.0
 40
2.0
 40
2.0
 40
3.0
 40
3.0
 40
3.0
 40
4.0
 40
4.0
 40
4.0
 40
5.0
 40
5.0
 40
5.0
 40
6.0
 40
6.0
 40
6.0
 40
7.0
 40
7.0
 40
7.0
 40
7.0
 10
90.03171384467957
 20
-144.5103867911293
 10
90.03171384467957
 20
-144.5103867911293
 10
88.92756074165701
 20
-144.5103867911293
 10
88.92756074165701
 20
-144.5103867911293
 10
88.92756074165701
 20
-144.5103867911293
 10
88.92756074165701
 20
-144.7918510922742
 10
88.92756074165701
 20
-144.7918510922742
 10
88.92756074165701
 20
-144.7918510922742
 10
88.77942163579126
 20
-144.7918510922742
 10
88.77942163579126
 20
-144.7918510922742
 10
88.76460772520468
 20
-144.5086642433867
 10
88.60165470875235
 20
-144.4690456453063
 10
88.48727753864208
 20
-144.443896448264
 10
88.48727753864208
 20
-144.443896448264
 10
88.48727753864208
 20
-144.319183991698
 10
88.48727753864208
 20
-144.319183991698
 10
88.48727753864208
 20
-144.319183991698
 10
90.03171384467957
 20
-144.319183991698
 10
90.03171384467957
 20
-144.319183991698
 10
90.03171384467957
 20
-144.319183991698
 10
90.03171384467957
 20
-144.5103867911293
 10
90.03171384467957
 20
-144.5103867911293
 97
        0
 97
        1
330
D2
 75
     2
 76
     1
 98
        1
 10
0.0
 20
0.0
450
        0
451
        0
460
0.0
461
0.0
452
        0
462
0.0
453
        0
470

  0
SPLINE
  5
D4
330
CE
100
AcDbEntity
  8
レイヤー 1
100
AcDbSpline
210
0.0
220
0.0
230
1.0
 70
    11
 71
     3
 72
    17
 73
    13
 74
     0
 42
0.0000000001
 43
0.0000000001
 40
0.0
 40
0.0
 40
0.0
 40
0.0
 40
1.0
 40
1.0
 40
1.0
 40
2.0
 40
2.0
 40
2.0
 40
3.0
 40
3.0
 40
3.0
 40
4.0
 40
4.0
 40
4.0
 40
4.0
 10
90.03171384467957
 20
-143.8423827765394
 30
0.0
 10
90.03171384467957
 20
-143.8423827765394
 30
0.0
 10
89.77987736470781
 20
-143.8423827765394
 30
0.0
 10
89.77987736470781
 20
-143.8423827765394
 30
0.0
 10
89.77987736470781
 20
-143.8423827765394
 30
0.0
 10
89.77987736470781
 20
-143.6277533278083
 30
0.0
 10
89.77987736470781
 20
-143.6277533278083
 30
0.0
 10
89.77987736470781
 20
-143.6277533278083
 30
0.0
 10
90.03171384467957
 20
-143.6277533278083
 30
0.0
 10
90.03171384467957
 20
-143.6277533278083
 30
0.0
 10
90.03171384467957
 20
-143.6277533278083
 30
0.0
 10
90.03171384467957
 20
-143.8423827765394
 30
0.0
 10
90.03171384467957
 20
-143.8423827765394
 30
0.0
  0
HATCH
  5
D5
330
CE
100
AcDbEntity
  8
レイヤー 1
 62
   250
420
  2299925
440
 33554687
100
AcDbHatch
 10
0.0
 20
0.0
 30
0.0
210
0.0
220
0.0
230
1.0
  2
SOLID
 70
     1
 71
     1
 91
        1
 92
        1
 93
        1
 72
     4
 94
        3
 73
     0
 74
     0
 95
       17
 96
       13
 40
0.0
 40
0.0
 40
0.0
 40
0.0
 40
1.0
 40
1.0
 40
1.0
 40
2.0
 40
2.0
 40
2.0
 40
3.0
 40
3.0
 40
3.0
 40
4.0
 40
4.0
 40
4.0
 40
4.0
 10
90.03171384467957
 20
-143.8423827765394
 10
90.03171384467957
 20
-143.8423827765394
 10
89.77987736470781
 20
-143.8423827765394
 10
89.77987736470781
 20
-143.8423827765394
 10
89.77987736470781
 20
-143.8423827765394
 10
89.77987736470781
 20
-143.6277533278083
 10
89.77987736470781
 20
-143.6277533278083
 10
89.77987736470781
 20
-143.6277533278083
 10
90.03171384467957
 20
-143.6277533278083
 10
90.03171384467957
 20
-143.6277533278083
 10
90.03171384467957
 20
-143.6277533278083
 10
90.03171384467957
 20
-143.8423827765394
 10
90.03171384467957
 20
-143.8423827765394
 97
        0
 97
        1
330
D4
 75
     2
 76
     1
 98
        1
 10
0.0
 20
0.0
450
        0
451
        0
460
0.0
461
0.0
452
        0
462
0.0
453
        0
470

  0
SPLINE
  5
D6
330
CE
100
AcDbEntity
  8
レイヤー 1
100
AcDbSpline
210
0.0
220
0.0
230
1.0
 70
     9
 71
     3
 72
    17
 73
    13
 74
     0
 42
0.0000000001
 43
0.0000000001
 40
0.0
 40
0.0
 40
0.0
 40
0.0
 40
1.0
 40
1.0
 40
1.0
 40
2.0
 40
2.0
 40
2.0
 40
3.0
 40
3.0
 40
3.0
 40
4.0
 40
4.0
 40
4.0
 40
4.0
 10
88.63128252992551
 20
-143.0004014399443
 30
0.0
 10
88.63128252992551
 20
-143.2133083409328
 30
0.0
 10
88.91481388836158
 20
-143.2529269390131
 30
0.0
 10
89.25966794643509
 20
-143.2529269390131
 30
0.0
 10
89.57902829791775
 20
-143.2529269390131
 30
0.0
 10
89.88770885339613
 20
-143.2222655891944
 30
0.0
 10
89.88770885339613
 20
-143.0004014399443
 30
0.0
 10
89.88770885339613
 20
-142.7892170866985
 30
0.0
 10
89.60658906179975
 20
-142.7478759408755
 30
0.0
 10
89.25966794643509
 20
-142.7478759408755
 30
0.0
 10
88.93996308540391
 20
-142.7478759408755
 30
0.0
 10
88.63128252992551
 20
-142.7802598384368
 30
0.0
 10
88.63128252992551
 20
-143.0004014399443
 30
0.0
  0
SPLINE
  5
D7
330
CE
100
AcDbEntity
  8
レイヤー 1
100
AcDbSpline
210
0.0
220
0.0
230
1.0
 70
     9
 71
     3
 72
    29
 73
    25
 74
     0
 42
0.0000000001
 43
0.0000000001
 40
0.0
 40
0.0
 40
0.0
 40
0.0
 40
1.0
 40
1.0
 40
1.0
 40
2.0
 40
2.0
 40
2.0
 40
3.0
 40
3.0
 40
3.0
 40
4.0
 40
4.0
 40
4.0
 40
5.0
 40
5.0
 40
5.0
 40
6.0
 40
6.0
 40
6.0
 40
7.0
 40
7.0
 40
7.0
 40
8.0
 40
8.0
 40
8.0
 40
8.0
 10
89.85394691764069
 20
-142.6614040441957
 30
0.0
 10
90.06340872314387
 20
-142.7533880936519
 30
0.0
 10
90.08235674831274
 20
-142.9011826899691
 30
0.0
 10
90.08235674831274
 20
-143.0004014399443
 30
0.0
 10
90.08235674831274
 20
-143.1375162402573
 30
0.0
 10
90.03584795926187
 20
-143.258094582241
 30
0.0
 10
89.85394691764069
 20
-143.3393988356929
 30
0.0
 10
89.65929902272407
 20
-143.4275932801153
 30
0.0
 10
89.42227645333888
 20
-143.4441297384445
 30
0.0
 10
89.25966794643509
 20
-143.4441297384445
 30
0.0
 10
89.11566295515164
 20
-143.4441297384445
 30
0.0
 10
88.86382647517988
 20
-143.4296603374065
 30
0.0
 10
88.66504446568097
 20
-143.3393988356929
 30
0.0
 10
88.46212834159976
 20
-143.2474147862367
 30
0.0
 10
88.43870169230006
 20
-143.1102999859238
 30
0.0
 10
88.43870169230006
 20
-143.0004014399443
 30
0.0
 10
88.43870169230006
 20
-142.865009187374
 30
0.0
 10
88.48314342405977
 20
-142.7423637880991
 30
0.0
 10
88.66504446568097
 20
-142.6614040441957
 30
0.0
 10
88.85762530330643
 20
-142.5766546952586
 30
0.0
 10
89.08603513397849
 20
-142.5566731414441
 30
0.0
 10
89.25966794643509
 20
-142.5566731414441
 30
0.0
 10
89.430889192052
 20
-142.5566731414441
 30
0.0
 10
89.66136608001521
 20
-142.574932147516
 30
0.0
 10
89.85394691764069
 20
-142.6614040441957
 30
0.0
  0
HATCH
  5
D8
330
CE
100
AcDbEntity
  8
レイヤー 1
 62
   250
420
  2299925
440
 33554687
100
AcDbHatch
 10
0.0
 20
0.0
 30
0.0
210
0.0
220
0.0
230
1.0
  2
SOLID
 70
     1
 71
     1
 91
        2
 92
        1
 93
        1
 72
     4
 94
        3
 73
     0
 74
     0
 95
       17
 96
       13
 40
0.0
 40
0.0
 40
0.0
 40
0.0
 40
1.0
 40
1.0
 40
1.0
 40
2.0
 40
2.0
 40
2.0
 40
3.0
 40
3.0
 40
3.0
 40
4.0
 40
4.0
 40
4.0
 40
4.0
 10
88.63128252992551
 20
-143.0004014399443
 10
88.63128252992551
 20
-143.2133083409328
 10
88.91481388836158
 20
-143.2529269390131
 10
89.25966794643509
 20
-143.2529269390131
 10
89.57902829791775
 20
-143.2529269390131
 10
89.88770885339613
 20
-143.2222655891944
 10
89.88770885339613
 20
-143.0004014399443
 10
89.88770885339613
 20
-142.7892170866985
 10
89.60658906179975
 20
-142.7478759408755
 10
89.25966794643509
 20
-142.7478759408755
 10
88.93996308540391
 20
-142.7478759408755
 10
88.63128252992551
 20
-142.7802598384368
 10
88.63128252992551
 20
-143.0004014399443
 97
        0
 97
        1
330
D6
 92
        1
 93
        1
 72
     4
 94
        3
 73
     0
 74
     0
 95
       29
 96
       25
 40
0.0
 40
0.0
 40
0.0
 40
0.0
 40
1.0
 40
1.0
 40
1.0
 40
2.0
 40
2.0
 40
2.0
 40
3.0
 40
3.0
 40
3.0
 40
4.0
 40
4.0
 40
4.0
 40
5.0
 40
5.0
 40
5.0
 40
6.0
 40
6.0
 40
6.0
 40
7.0
 40
7.0
 40
7.0
 40
8.0
 40
8.0
 40
8.0
 40
8.0
 10
89.85394691764069
 20
-142.6614040441957
 10
90.06340872314387
 20
-142.7533880936519
 10
90.08235674831274
 20
-142.9011826899691
 10
90.08235674831274
 20
-143.0004014399443
 10
90.08235674831274
 20
-143.1375162402573
 10
90.03584795926187
 20
-143.258094582241
 10
89.85394691764069
 20
-143.3393988356929
 10
89.65929902272407
 20
-143.4275932801153
 10
89.42227645333888
 20
-143.4441297384445
 10
89.25966794643509
 20
-143.4441297384445
 10
89.11566295515164
 20
-143.4441297384445
 10
88.86382647517988
 20
-143.4296603374065
 10
88.66504446568097
 20
-143.3393988356929
 10
88.46212834159976
 20
-143.2474147862367
 10
88.43870169230006
 20
-143.1102999859238
 10
88.43870169230006
 20
-143.0004014399443
 10
88.43870169230006
 20
-142.865009187374
 10
88.48314342405977
 20
-142.7423637880991
 10
88.66504446568097
 20
-142.6614040441957
 10
88.85762530330643
 20
-142.5766546952586
 10
89.08603513397849
 20
-142.5566731414441
 10
89.25966794643509
 20
-142.5566731414441
 10
89.430889192052
 20
-142.5566731414441
 10
89.66136608001521
 20
-142.574932147516
 10
89.85394691764069
 20
-142.6614040441957
 97
        0
 97
        1
330
D7
 75
     2
 76
     1
 98
        1
 10
0.0
 20
0.0
450
        0
451
        0
460
0.0
461
0.0
452
        0
462
0.0
453
        0
470

  0
ENDBLK
  5
D1
330
CE
100
AcDbEntity
  8
0
100
AcDbBlockEnd
  0
BLOCK
  5
DD
330
DB
100
AcDbEntity
  8
0
100
AcDbBlockBegin
  2
Block_10
 70
     0
 10
0.0
 20
0.0
 30
0.0
  3
Block_10
  1

  0
LINE
  5
DF
330
DB
100
AcDbEntity
  8
レイヤー 1
 62
    18
420
        0
370
     9
100
AcDbLine
 10
108.4230109337873
 20
-150.2137379643345
 30
0.0
 11
108.1561660759263
 21
-149.2499657310635
 31
0.0
  0
LINE
  5
E0
330
DB
100
AcDbEntity
  8
レイヤー 1
 62
    18
420
        0
370
     9
100
AcDbLine
 10
108.4230109337873
 20
-150.2137379643345
 30
0.0
 11
108.3885767264102
 21
-148.5997774015304
 31
0.0
  0
LINE
  5
E1
330
DB
100
AcDbEntity
  8
レイヤー 1
 62
    18
420
        0
370
     9
100
AcDbLine
 10
108.4230109337873
 20
-150.2137379643345
 30
0.0
 11
108.6738590112925
 21
-149.2455575089477
 31
0.0
  0
ENDBLK
  5
DE
330
DB
100
AcDbEntity
  8
0
100
AcDbBlockEnd
  0
BLOCK
  5
E4
330
E2
100
AcDbEntity
  8
0
100
AcDbBlockBegin
  2
Block_11
 70
     0
 10
0.0
 20
0.0
 30
0.0
  3
Block_11
  1

  0
INSERT
  5
E7
330
E2
100
AcDbEntity
  8
レイヤー 1
100
AcDbBlockReference
  2
Block_12
 10
0.0
 20
0.0
 30
0.0
  0
ENDBLK
  5
E5
330
E2
100
AcDbEntity
  8
0
100
AcDbBlockEnd
  0
BLOCK
  5
E8
330
E6
100
AcDbEntity
  8
0
100
AcDbBlockBegin
  2
Block_12
 70
     0
 10
0.0
 20
0.0
 30
0.0
  3
Block_12
  1

  0
SPLINE
  5
EA
330
E6
100
AcDbEntity
  8
レイヤー 1
100
AcDbSpline
210
0.0
220
0.0
230
1.0
 70
     9
 71
     3
 72
    17
 73
    13
 74
     0
 42
0.0000000001
 43
0.0000000001
 40
0.0
 40
0.0
 40
0.0
 40
0.0
 40
1.0
 40
1.0
 40
1.0
 40
2.0
 40
2.0
 40
2.0
 40
3.0
 40
3.0
 40
3.0
 40
4.0
 40
4.0
 40
4.0
 40
4.0
 10
104.436863851929
 20
-147.5334580794361
 30
0.0
 10
104.419810629277
 20
-147.562913645835
 30
0.0
 10
104.3691677256438
 20
-147.656103478711
 30
0.0
 10
104.3584879296395
 20
-147.6750515038798
 30
0.0
 10
104.5488294551996
 20
-147.7343071462261
 30
0.0
 10
104.5700167924339
 20
-147.7406805728738
 30
0.0
 10
104.6420192880756
 20
-147.7682413367558
 30
0.0
 10
104.6969685610653
 20
-147.6814249305275
 30
0.0
 10
104.7202229555908
 20
-147.6073553775947
 30
0.0
 10
104.7350368661773
 20
-147.5334580794361
 30
0.0
 10
104.7350368661773
 20
-147.5334580794361
 30
0.0
 10
104.436863851929
 20
-147.5334580794361
 30
0.0
 10
104.436863851929
 20
-147.5334580794361
 30
0.0
  0
SPLINE
  5
EB
330
E6
100
AcDbEntity
  8
レイヤー 1
100
AcDbSpline
210
0.0
220
0.0
230
1.0
 70
    11
 71
     3
 72
    20
 73
    16
 74
     0
 42
0.0000000001
 43
0.0000000001
 40
0.0
 40
0.0
 40
0.0
 40
0.0
 40
1.0
 40
1.0
 40
1.0
 40
2.0
 40
2.0
 40
2.0
 40
3.0
 40
3.0
 40
3.0
 40
4.0
 40
4.0
 40
4.0
 40
5.0
 40
5.0
 40
5.0
 40
5.0
 10
104.3733018402261
 20
-146.6830362589021
 30
0.0
 10
104.3733018402261
 20
-146.6830362589021
 30
0.0
 10
104.3416069617618
 20
-146.6830362589021
 30
0.0
 10
104.3416069617618
 20
-146.6830362589021
 30
0.0
 10
104.3881157508127
 20
-146.7824272636516
 30
0.0
 10
104.419810629277
 20
-146.8626979884579
 30
0.0
 10
104.4537448198067
 20
-146.9896497570894
 30
0.0
 10
104.4537448198067
 20
-146.9896497570894
 30
0.0
 10
104.6609673132445
 20
-146.9896497570894
 30
0.0
 10
104.6609673132445
 20
-146.9896497570894
 30
0.0
 10
104.692834446483
 20
-146.8966321789876
 30
0.0
 10
104.7160888410085
 20
-146.8120550848247
 30
0.0
 10
104.7393432355339
 20
-146.6830362589021
 30
0.0
 10
104.7393432355339
 20
-146.6830362589021
 30
0.0
 10
104.3733018402261
 20
-146.6830362589021
 30
0.0
 10
104.3733018402261
 20
-146.6830362589021
 30
0.0
  0
SPLINE
  5
EC
330
E6
100
AcDbEntity
  8
レイヤー 1
100
AcDbSpline
210
0.0
220
0.0
230
1.0
 70
     9
 71
     3
 72
   242
 73
   238
 74
     0
 42
0.0000000001
 43
0.0000000001
 40
0.0
 40
0.0
 40
0.0
 40
0.0
 40
1.0
 40
1.0
 40
1.0
 40
2.0
 40
2.0
 40
2.0
 40
3.0
 40
3.0
 40
3.0
 40
4.0
 40
4.0
 40
4.0
 40
5.0
 40
5.0
 40
5.0
 40
6.0
 40
6.0
 40
6.0
 40
7.0
 40
7.0
 40
7.0
 40
8.0
 40
8.0
 40
8.0
 40
9.0
 40
9.0
 40
9.0
 40
10.0
 40
10.0
 40
10.0
 40
11.0
 40
11.0
 40
11.0
 40
12.0
 40
12.0
 40
12.0
 40
13.0
 40
13.0
 40
13.0
 40
14.0
 40
14.0
 40
14.0
 40
15.0
 40
15.0
 40
15.0
 40
16.0
 40
16.0
 40
16.0
 40
17.0
 40
17.0
 40
17.0
 40
18.0
 40
18.0
 40
18.0
 40
19.0
 40
19.0
 40
19.0
 40
20.0
 40
20.0
 40
20.0
 40
21.0
 40
21.0
 40
21.0
 40
22.0
 40
22.0
 40
22.0
 40
23.0
 40
23.0
 40
23.0
 40
24.0
 40
24.0
 40
24.0
 40
25.0
 40
25.0
 40
25.0
 40
26.0
 40
26.0
 40
26.0
 40
27.0
 40
27.0
 40
27.0
 40
28.0
 40
28.0
 40
28.0
 40
29.0
 40
29.0
 40
29.0
 40
30.0
 40
30.0
 40
30.0
 40
31.0
 40
31.0
 40
31.0
 40
32.0
 40
32.0
 40
32.0
 40
33.0
 40
33.0
 40
33.0
 40
34.0
 40
34.0
 40
34.0
 40
35.0
 40
35.0
 40
35.0
 40
36.0
 40
36.0
 40
36.0
 40
37.0
 40
37.0
 40
37.0
 40
38.0
 40
38.0
 40
38.0
 40
39.0
 40
39.0
 40
39.0
 40
40.0
 40
40.0
 40
40.0
 40
41.0
 40
41.0
 40
41.0
 40
42.0
 40
42.0
 40
42.0
 40
43.0
 40
43.0
 40
43.0
 40
44.0
 40
44.0
 40
44.0
 40
45.0
 40
45.0
 40
45.0
 40
46.0
 40
46.0
 40
46.0
 40
47.0
 40
47.0
 40
47.0
 40
48.0
 40
48.0
 40
48.0
 40
49.0
 40
49.0
 40
49.0
 40
50.0
 40
50.0
 40
50.0
 40
51.0
 40
51.0
 40
51.0
 40
52.0
 40
52.0
 40
52.0
 40
53.0
 40
53.0
 40
53.0
 40
54.0
 40
54.0
 40
54.0
 40
55.0
 40
55.0
 40
55.0
 40
56.0
 40
56.0
 40
56.0
 40
57.0
 40
57.0
 40
57.0
 40
58.0
 40
58.0
 40
58.0
 40
59.0
 40
59.0
 40
59.0
 40
60.0
 40
60.0
 40
60.0
 40
61.0
 40
61.0
 40
61.0
 40
62.0
 40
62.0
 40
62.0
 40
63.0
 40
63.0
 40
63.0
 40
64.0
 40
64.0
 40
64.0
 40
65.0
 40
65.0
 40
65.0
 40
66.0
 40
66.0
 40
66.0
 40
67.0
 40
67.0
 40
67.0
 40
68.0
 40
68.0
 40
68.0
 40
69.0
 40
69.0
 40
69.0
 40
70.0
 40
70.0
 40
70.0
 40
71.0
 40
71.0
 40
71.0
 40
72.0
 40
72.0
 40
72.0
 40
73.0
 40
73.0
 40
73.0
 40
74.0
 40
74.0
 40
74.0
 40
75.0
 40
75.0
 40
75.0
 40
76.0
 40
76.0
 40
76.0
 40
77.0
 40
77.0
 40
77.0
 40
78.0
 40
78.0
 40
78.0
 40
79.0
 40
79.0
 40
79.0
 40
79.0
 10
105.0016872567357
 20
-147.1482964041851
 30
0.0
 10
105.0016872567357
 20
-147.1482964041851
 30
0.0
 10
104.7477837194727
 20
-147.1482964041851
 30
0.0
 10
104.7477837194727
 20
-147.1482964041851
 30
0.0
 10
104.7477837194727
 20
-147.1482964041851
 30
0.0
 10
104.4706257876844
 20
-147.1482964041851
 30
0.0
 10
104.4706257876844
 20
-147.1482964041851
 30
0.0
 10
104.4706257876844
 20
-147.1482964041851
 30
0.0
 10
104.5975775563159
 20
-147.1906710786537
 30
0.0
 10
104.5975775563159
 20
-147.1906710786537
 30
0.0
 10
104.6080850975459
 20
-147.1949774480103
 30
0.0
 10
104.6208319508413
 20
-147.2011786198837
 30
0.0
 10
104.6208319508413
 20
-147.2139254731791
 30
0.0
 10
104.6208319508413
 20
-147.2351128104134
 30
0.0
 10
104.589137072377
 20
-147.2414862370611
 30
0.0
 10
104.5679497351427
 20
-147.2456203516434
 30
0.0
 10
104.5574421939127
 20
-147.2688747461689
 30
0.0
 10
104.5278143727396
 20
-147.3345038151629
 30
0.0
 10
104.5086940927964
 20
-147.3789455469226
 30
0.0
 10
104.5086940927964
 20
-147.3789455469226
 30
0.0
 10
104.7794785979371
 20
-147.3789455469226
 30
0.0
 10
104.7794785979371
 20
-147.3789455469226
 30
0.0
 10
104.8704291187477
 20
-147.3789455469226
 30
0.0
 10
105.0671440709554
 20
-147.3746391775661
 30
0.0
 10
105.2089097501734
 20
-147.3661986936272
 30
0.0
 10
105.2089097501734
 20
-147.3661986936272
 30
0.0
 10
105.2089097501734
 20
-147.5439656206661
 30
0.0
 10
105.2089097501734
 20
-147.5439656206661
 30
0.0
 10
105.1263997133017
 20
-147.5396592513095
 30
0.0
 10
105.1052123760674
 20
-147.5396592513095
 30
0.0
 10
104.9253783917374
 20
-147.5355251367272
 30
0.0
 10
104.8936835132731
 20
-147.6898654144664
 30
0.0
 10
104.8492417815134
 20
-147.770308394047
 30
0.0
 10
104.8048000497536
 20
-147.8400715776233
 30
0.0
 10
104.9253783917374
 20
-147.8993272199696
 30
0.0
 10
105.0313150779088
 20
-147.9670233462548
 30
0.0
 10
105.1348401972406
 20
-148.0495333831265
 30
0.0
 10
105.1348401972406
 20
-148.0495333831265
 30
0.0
 10
105.0165011673223
 20
-148.2166205141611
 30
0.0
 10
105.0165011673223
 20
-148.2166205141611
 30
0.0
 10
104.9932467727968
 20
-148.1976724889922
 30
0.0
 10
104.9804999195014
 20
-148.1892320050534
 30
0.0
 10
104.8683620614565
 20
-148.1044826561162
 30
0.0
 10
104.8196139603402
 20
-148.0664143510042
 30
0.0
 10
104.7605305727682
 20
-148.0305853579576
 30
0.0
 10
104.6800875931876
 20
-147.9861436261979
 30
0.0
 10
104.4685587303933
 20
-148.1723510371756
 30
0.0
 10
104.2632310394724
 20
-148.1956054317011
 30
0.0
 10
103.9734985091629
 20
-148.2252332528742
 30
0.0
 10
103.9734985091629
 20
-148.2252332528742
 30
0.0
 10
103.8698011350568
 20
-148.0453992685442
 30
0.0
 10
103.8698011350568
 20
-148.0453992685442
 30
0.0
 10
104.1870944292484
 20
-148.0410928991876
 30
0.0
 10
104.3627942989961
 20
-148.015771447371
 30
0.0
 10
104.5150675194441
 20
-147.9057006466173
 30
0.0
 10
104.3965562347515
 20
-147.8548854882099
 30
0.0
 10
104.3076727712321
 20
-147.8274969791021
 30
0.0
 10
104.2718437781855
 20
-147.8147501258067
 30
0.0
 10
104.2527234982423
 20
-147.8423108896887
 30
0.0
 10
104.2379095876558
 20
-147.8612589148576
 30
0.0
 10
104.2103488237738
 20
-147.8951931053873
 30
0.0
 10
104.2103488237738
 20
-147.8951931053873
 30
0.0
 10
104.013633871566
 20
-147.8126830685156
 30
0.0
 10
104.013633871566
 20
-147.8126830685156
 30
0.0
 10
104.0961439084377
 20
-147.732240088935
 30
0.0
 10
104.1574666080752
 20
-147.6369831987678
 30
0.0
 10
104.2146551931304
 20
-147.5355251367272
 30
0.0
 10
104.0243136675703
 20
-147.5396592513095
 30
0.0
 10
104.003126330336
 20
-147.5396592513095
 30
0.0
 10
103.9206162934643
 20
-147.5439656206661
 30
0.0
 10
103.9206162934643
 20
-147.5439656206661
 30
0.0
 10
103.9206162934643
 20
-147.3661986936272
 30
0.0
 10
103.9206162934643
 20
-147.3661986936272
 30
0.0
 10
104.0601426606169
 20
-147.3725721202749
 30
0.0
 10
104.2696044661201
 20
-147.3768784896314
 30
0.0
 10
104.2950981727109
 20
-147.3768784896314
 30
0.0
 10
104.3119791405886
 20
-147.3429442991017
 30
0.0
 10
104.3669284135784
 20
-147.222365957118
 30
0.0
 10
104.3860486935215
 20
-147.1482964041851
 30
0.0
 10
104.3669284135784
 20
-147.1482964041851
 30
0.0
 10
104.1893337413138
 20
-147.1546698308328
 30
0.0
 10
103.9946858463971
 20
-147.1674166841283
 30
0.0
 10
103.9946858463971
 20
-147.1674166841283
 30
0.0
 10
103.9946858463971
 20
-147.3007418794074
 30
0.0
 10
103.9946858463971
 20
-147.3007418794074
 30
0.0
 10
103.9459377452809
 20
-147.326063331224
 30
0.0
 10
103.8866821029346
 20
-147.3577582096883
 30
0.0
 10
103.7535291624297
 20
-147.4233872786823
 30
0.0
 10
103.7535291624297
 20
-147.4233872786823
 30
0.0
 10
103.7535291624297
 20
-147.5692870724827
 30
0.0
 10
103.7535291624297
 20
-147.5692870724827
 30
0.0
 10
103.7535291624297
 20
-147.5692870724827
 30
0.0
 10
103.7535291624297
 20
-148.0369587846053
 30
0.0
 10
103.7535291624297
 20
-148.0369587846053
 30
0.0
 10
103.7535291624297
 20
-148.1637382984625
 30
0.0
 10
103.7175279146088
 20
-148.2229939408088
 30
0.0
 10
103.4339965561727
 20
-148.21455345687
 30
0.0
 10
103.4339965561727
 20
-148.21455345687
 30
0.0
 10
103.3302991820667
 20
-148.0073309634322
 30
0.0
 10
103.3302991820667
 20
-148.0073309634322
 30
0.0
 10
103.3938611937696
 20
-148.0199055619533
 30
0.0
 10
103.4424370401116
 20
-148.0242119313099
 30
0.0
 10
103.482744657289
 20
-148.0242119313099
 30
0.0
 10
103.558881267513
 20
-148.0242119313099
 30
0.0
 10
103.569388808743
 20
-148.0009575367845
 30
0.0
 10
103.569388808743
 20
-147.9353284677904
 30
0.0
 10
103.569388808743
 20
-147.9353284677904
 30
0.0
 10
103.569388808743
 20
-147.505897315554
 30
0.0
 10
103.569388808743
 20
-147.505897315554
 30
0.0
 10
103.4720648612847
 20
-147.5460326779572
 30
0.0
 10
103.455183893407
 20
-147.5524061046049
 30
0.0
 10
103.4086751043561
 20
-147.5715263845481
 30
0.0
 10
103.4043687349996
 20
-147.5925414670081
 30
0.0
 10
103.4002346204173
 20
-147.6221692881813
 30
0.0
 10
103.3811143404741
 20
-147.6221692881813
 30
0.0
 10
103.3726738565353
 20
-147.6221692881813
 30
0.0
 10
103.3621663153053
 20
-147.6180351735989
 30
0.0
 10
103.3557928886576
 20
-147.5947807790735
 30
0.0
 10
103.3557928886576
 20
-147.5947807790735
 30
0.0
 10
103.302910672959
 20
-147.402199941448
 30
0.0
 10
103.302910672959
 20
-147.402199941448
 30
0.0
 10
103.4488104667593
 20
-147.3556911523972
 30
0.0
 10
103.5144395357533
 20
-147.3324367578717
 30
0.0
 10
103.569388808743
 20
-147.3112494206374
 30
0.0
 10
103.569388808743
 20
-147.3112494206374
 30
0.0
 10
103.569388808743
 20
-146.8986992362788
 30
0.0
 10
103.569388808743
 20
-146.8986992362788
 30
0.0
 10
103.569388808743
 20
-146.8986992362788
 30
0.0
 10
103.5165065930444
 20
-146.8986992362788
 30
0.0
 10
103.5165065930444
 20
-146.8986992362788
 30
0.0
 10
103.5165065930444
 20
-146.8986992362788
 30
0.0
 10
103.4383029255293
 20
-146.8986992362788
 30
0.0
 10
103.4383029255293
 20
-146.8986992362788
 30
0.0
 10
103.3706067992441
 20
-146.8986992362788
 30
0.0
 10
103.3621663153053
 20
-146.8986992362788
 30
0.0
 10
103.3261650674844
 20
-146.9050726629265
 30
0.0
 10
103.3261650674844
 20
-146.9050726629265
 30
0.0
 10
103.3261650674844
 20
-146.7104247680099
 30
0.0
 10
103.3261650674844
 20
-146.7104247680099
 30
0.0
 10
103.3537258313664
 20
-146.7167981946576
 30
0.0
 10
103.3621663153053
 20
-146.7167981946576
 30
0.0
 10
103.4319294988816
 20
-146.7167981946576
 30
0.0
 10
103.4319294988816
 20
-146.7167981946576
 30
0.0
 10
103.5652546941608
 20
-146.7167981946576
 30
0.0
 10
103.5652546941608
 20
-146.7167981946576
 30
0.0
 10
103.5652546941608
 20
-146.6470350110813
 30
0.0
 10
103.5652546941608
 20
-146.5645249742095
 30
0.0
 10
103.5630153820953
 20
-146.560218604853
 30
0.0
 10
103.5545748981565
 20
-146.3803846205229
 30
0.0
 10
103.5545748981565
 20
-146.3614365953541
 30
0.0
 10
103.5525078408653
 20
-146.3149278063032
 30
0.0
 10
103.5525078408653
 20
-146.3149278063032
 30
0.0
 10
103.7683430730162
 20
-146.3233682902421
 30
0.0
 10
103.7683430730162
 20
-146.3233682902421
 30
0.0
 10
103.7788506142462
 20
-146.3233682902421
 30
0.0
 10
103.8000379514805
 20
-146.3254353475332
 30
0.0
 10
103.8000379514805
 20
-146.3423163154109
 30
0.0
 10
103.8000379514805
 20
-146.3614365953541
 30
0.0
 10
103.785224040894
 20
-146.3719441365841
 30
0.0
 10
103.7599025890774
 20
-146.3910644165272
 30
0.0
 10
103.7599025890774
 20
-146.4417073201604
 30
0.0
 10
103.7535291624297
 20
-146.6702894056067
 30
0.0
 10
103.7555962197208
 20
-146.7167981946576
 30
0.0
 10
103.8846150456434
 20
-146.7167981946576
 30
0.0
 10
103.8973618989388
 20
-146.7167981946576
 30
0.0
 10
103.9946858463971
 20
-146.7083577107187
 30
0.0
 10
103.9946858463971
 20
-146.7083577107187
 30
0.0
 10
103.9946858463971
 20
-146.9030056056354
 30
0.0
 10
103.9946858463971
 20
-146.9030056056354
 30
0.0
 10
103.9566175412851
 20
-146.9007662935699
 30
0.0
 10
103.888921415
 20
-146.8966321789876
 30
0.0
 10
103.7535291624297
 20
-146.8986992362788
 30
0.0
 10
103.7535291624297
 20
-146.8986992362788
 30
0.0
 10
103.7535291624297
 20
-147.2371798677046
 30
0.0
 10
103.7535291624297
 20
-147.2371798677046
 30
0.0
 10
103.8084784354194
 20
-147.2139254731791
 30
0.0
 10
103.8741075044134
 20
-147.1863647092971
 30
0.0
 10
103.9226833507554
 20
-147.1631103147717
 30
0.0
 10
103.9226833507554
 20
-147.1631103147717
 30
0.0
 10
103.9226833507554
 20
-146.9855156425071
 30
0.0
 10
103.9226833507554
 20
-146.9855156425071
 30
0.0
 10
104.0368882660914
 20
-146.9980902410282
 30
0.0
 10
104.1553995507841
 20
-146.9980902410282
 30
0.0
 10
104.2718437781855
 20
-146.9980902410282
 30
0.0
 10
104.2484171288858
 20
-146.9030056056354
 30
0.0
 10
104.2210286197781
 20
-146.8204955687636
 30
0.0
 10
104.1574666080752
 20
-146.6871703734844
 30
0.0
 10
104.1130248763155
 20
-146.6892374307756
 30
0.0
 10
104.030687094218
 20
-146.6935438001321
 30
0.0
 10
103.9924465343317
 20
-146.6956108574233
 30
0.0
 10
103.9924465343317
 20
-146.6956108574233
 30
0.0
 10
103.9924465343317
 20
-146.5157768730932
 30
0.0
 10
103.9924465343317
 20
-146.5157768730932
 30
0.0
 10
104.117331245672
 20
-146.5242173570321
 30
0.0
 10
104.2907918033544
 20
-146.5285237263887
 30
0.0
 10
104.3733018402261
 20
-146.5285237263887
 30
0.0
 10
104.3733018402261
 20
-146.5285237263887
 30
0.0
 10
104.4558118770978
 20
-146.5285237263887
 30
0.0
 10
104.4558118770978
 20
-146.5285237263887
 30
0.0
 10
104.4558118770978
 20
-146.3655707099364
 30
0.0
 10
104.4558118770978
 20
-146.3550631687064
 30
0.0
 10
104.4537448198067
 20
-146.3001138957166
 30
0.0
 10
104.4537448198067
 20
-146.3001138957166
 30
0.0
 10
104.6780205358964
 20
-146.3254353475332
 30
0.0
 10
104.6780205358964
 20
-146.3254353475332
 30
0.0
 10
104.6821546504787
 20
-146.3254353475332
 30
0.0
 10
104.703341987713
 20
-146.3275024048243
 30
0.0
 10
104.703341987713
 20
-146.3443833727021
 30
0.0
 10
104.703341987713
 20
-146.3591972832887
 30
0.0
 10
104.692834446483
 20
-146.3678100220018
 30
0.0
 10
104.665273682601
 20
-146.3826239325884
 30
0.0
 10
104.6589002559533
 20
-146.4480807468081
 30
0.0
 10
104.6568331986622
 20
-146.4692680840424
 30
0.0
 10
104.6568331986622
 20
-146.5285237263887
 30
0.0
 10
104.6568331986622
 20
-146.5285237263887
 30
0.0
 10
104.7519178340551
 20
-146.5285237263887
 30
0.0
 10
104.7519178340551
 20
-146.5285237263887
 30
0.0
 10
104.8344278709268
 20
-146.5285237263887
 30
0.0
 10
105.0078884286091
 20
-146.5242173570321
 30
0.0
 10
105.1327731399494
 20
-146.5157768730932
 30
0.0
 10
105.1327731399494
 20
-146.5157768730932
 30
0.0
 10
105.1327731399494
 20
-146.6956108574233
 30
0.0
 10
105.1327731399494
 20
-146.6956108574233
 30
0.0
 10
105.1031453187763
 20
-146.6935438001321
 30
0.0
 10
104.9846340340837
 20
-146.6892374307756
 30
0.0
 10
104.9444986716805
 20
-146.6871703734844
 30
0.0
 10
104.9296847610939
 20
-146.7379855318919
 30
0.0
 10
104.8959228253385
 20
-146.8501233899368
 30
0.0
 10
104.8302937563445
 20
-146.9896497570894
 30
0.0
 10
104.8724961760388
 20
-146.9896497570894
 30
0.0
 10
105.1496541078271
 20
-146.9707017319205
 30
0.0
 10
105.2109768074646
 20
-146.9684624198551
 30
0.0
 10
105.2109768074646
 20
-146.9684624198551
 30
0.0
 10
105.2109768074646
 20
-147.1526027735417
 30
0.0
 10
105.2109768074646
 20
-147.1526027735417
 30
0.0
 10
105.1815212410657
 20
-147.1526027735417
 30
0.0
 10
105.1644680184137
 20
-147.1482964041851
 30
0.0
 10
105.0016872567357
 20
-147.1482964041851
 30
0.0
  0
HATCH
  5
ED
330
E6
100
AcDbEntity
  8
レイヤー 1
 62
    18
420
        0
440
 33554687
100
AcDbHatch
 10
0.0
 20
0.0
 30
0.0
210
0.0
220
0.0
230
1.0
  2
SOLID
 70
     1
 71
     1
 91
        3
 92
        1
 93
        1
 72
     4
 94
        3
 73
     0
 74
     0
 95
       17
 96
       13
 40
0.0
 40
0.0
 40
0.0
 40
0.0
 40
1.0
 40
1.0
 40
1.0
 40
2.0
 40
2.0
 40
2.0
 40
3.0
 40
3.0
 40
3.0
 40
4.0
 40
4.0
 40
4.0
 40
4.0
 10
104.436863851929
 20
-147.5334580794361
 10
104.419810629277
 20
-147.562913645835
 10
104.3691677256438
 20
-147.656103478711
 10
104.3584879296395
 20
-147.6750515038798
 10
104.5488294551996
 20
-147.7343071462261
 10
104.5700167924339
 20
-147.7406805728738
 10
104.6420192880756
 20
-147.7682413367558
 10
104.6969685610653
 20
-147.6814249305275
 10
104.7202229555908
 20
-147.6073553775947
 10
104.7350368661773
 20
-147.5334580794361
 10
104.7350368661773
 20
-147.5334580794361
 10
104.436863851929
 20
-147.5334580794361
 10
104.436863851929
 20
-147.5334580794361
 97
        0
 97
        1
330
EA
 92
        1
 93
        1
 72
     4
 94
        3
 73
     0
 74
     0
 95
       20
 96
       16
 40
0.0
 40
0.0
 40
0.0
 40
0.0
 40
1.0
 40
1.0
 40
1.0
 40
2.0
 40
2.0
 40
2.0
 40
3.0
 40
3.0
 40
3.0
 40
4.0
 40
4.0
 40
4.0
 40
5.0
 40
5.0
 40
5.0
 40
5.0
 10
104.3733018402261
 20
-146.6830362589021
 10
104.3733018402261
 20
-146.6830362589021
 10
104.3416069617618
 20
-146.6830362589021
 10
104.3416069617618
 20
-146.6830362589021
 10
104.3881157508127
 20
-146.7824272636516
 10
104.419810629277
 20
-146.8626979884579
 10
104.4537448198067
 20
-146.9896497570894
 10
104.4537448198067
 20
-146.9896497570894
 10
104.6609673132445
 20
-146.9896497570894
 10
104.6609673132445
 20
-146.9896497570894
 10
104.692834446483
 20
-146.8966321789876
 10
104.7160888410085
 20
-146.8120550848247
 10
104.7393432355339
 20
-146.6830362589021
 10
104.7393432355339
 20
-146.6830362589021
 10
104.3733018402261
 20
-146.6830362589021
 10
104.3733018402261
 20
-146.6830362589021
 97
        0
 97
        1
330
EB
 92
        1
 93
        1
 72
     4
 94
        3
 73
     0
 74
     0
 95
      242
 96
      238
 40
0.0
 40
0.0
 40
0.0
 40
0.0
 40
1.0
 40
1.0
 40
1.0
 40
2.0
 40
2.0
 40
2.0
 40
3.0
 40
3.0
 40
3.0
 40
4.0
 40
4.0
 40
4.0
 40
5.0
 40
5.0
 40
5.0
 40
6.0
 40
6.0
 40
6.0
 40
7.0
 40
7.0
 40
7.0
 40
8.0
 40
8.0
 40
8.0
 40
9.0
 40
9.0
 40
9.0
 40
10.0
 40
10.0
 40
10.0
 40
11.0
 40
11.0
 40
11.0
 40
12.0
 40
12.0
 40
12.0
 40
13.0
 40
13.0
 40
13.0
 40
14.0
 40
14.0
 40
14.0
 40
15.0
 40
15.0
 40
15.0
 40
16.0
 40
16.0
 40
16.0
 40
17.0
 40
17.0
 40
17.0
 40
18.0
 40
18.0
 40
18.0
 40
19.0
 40
19.0
 40
19.0
 40
20.0
 40
20.0
 40
20.0
 40
21.0
 40
21.0
 40
21.0
 40
22.0
 40
22.0
 40
22.0
 40
23.0
 40
23.0
 40
23.0
 40
24.0
 40
24.0
 40
24.0
 40
25.0
 40
25.0
 40
25.0
 40
26.0
 40
26.0
 40
26.0
 40
27.0
 40
27.0
 40
27.0
 40
28.0
 40
28.0
 40
28.0
 40
29.0
 40
29.0
 40
29.0
 40
30.0
 40
30.0
 40
30.0
 40
31.0
 40
31.0
 40
31.0
 40
32.0
 40
32.0
 40
32.0
 40
33.0
 40
33.0
 40
33.0
 40
34.0
 40
34.0
 40
34.0
 40
35.0
 40
35.0
 40
35.0
 40
36.0
 40
36.0
 40
36.0
 40
37.0
 40
37.0
 40
37.0
 40
38.0
 40
38.0
 40
38.0
 40
39.0
 40
39.0
 40
39.0
 40
40.0
 40
40.0
 40
40.0
 40
41.0
 40
41.0
 40
41.0
 40
42.0
 40
42.0
 40
42.0
 40
43.0
 40
43.0
 40
43.0
 40
44.0
 40
44.0
 40
44.0
 40
45.0
 40
45.0
 40
45.0
 40
46.0
 40
46.0
 40
46.0
 40
47.0
 40
47.0
 40
47.0
 40
48.0
 40
48.0
 40
48.0
 40
49.0
 40
49.0
 40
49.0
 40
50.0
 40
50.0
 40
50.0
 40
51.0
 40
51.0
 40
51.0
 40
52.0
 40
52.0
 40
52.0
 40
53.0
 40
53.0
 40
53.0
 40
54.0
 40
54.0
 40
54.0
 40
55.0
 40
55.0
 40
55.0
 40
56.0
 40
56.0
 40
56.0
 40
57.0
 40
57.0
 40
57.0
 40
58.0
 40
58.0
 40
58.0
 40
59.0
 40
59.0
 40
59.0
 40
60.0
 40
60.0
 40
60.0
 40
61.0
 40
61.0
 40
61.0
 40
62.0
 40
62.0
 40
62.0
 40
63.0
 40
63.0
 40
63.0
 40
64.0
 40
64.0
 40
64.0
 40
65.0
 40
65.0
 40
65.0
 40
66.0
 40
66.0
 40
66.0
 40
67.0
 40
67.0
 40
67.0
 40
68.0
 40
68.0
 40
68.0
 40
69.0
 40
69.0
 40
69.0
 40
70.0
 40
70.0
 40
70.0
 40
71.0
 40
71.0
 40
71.0
 40
72.0
 40
72.0
 40
72.0
 40
73.0
 40
73.0
 40
73.0
 40
74.0
 40
74.0
 40
74.0
 40
75.0
 40
75.0
 40
75.0
 40
76.0
 40
76.0
 40
76.0
 40
77.0
 40
77.0
 40
77.0
 40
78.0
 40
78.0
 40
78.0
 40
79.0
 40
79.0
 40
79.0
 40
79.0
 10
105.0016872567357
 20
-147.1482964041851
 10
105.0016872567357
 20
-147.1482964041851
 10
104.7477837194727
 20
-147.1482964041851
 10
104.7477837194727
 20
-147.1482964041851
 10
104.7477837194727
 20
-147.1482964041851
 10
104.4706257876844
 20
-147.1482964041851
 10
104.4706257876844
 20
-147.1482964041851
 10
104.4706257876844
 20
-147.1482964041851
 10
104.5975775563159
 20
-147.1906710786537
 10
104.5975775563159
 20
-147.1906710786537
 10
104.6080850975459
 20
-147.1949774480103
 10
104.6208319508413
 20
-147.2011786198837
 10
104.6208319508413
 20
-147.2139254731791
 10
104.6208319508413
 20
-147.2351128104134
 10
104.589137072377
 20
-147.2414862370611
 10
104.5679497351427
 20
-147.2456203516434
 10
104.5574421939127
 20
-147.2688747461689
 10
104.5278143727396
 20
-147.3345038151629
 10
104.5086940927964
 20
-147.3789455469226
 10
104.5086940927964
 20
-147.3789455469226
 10
104.7794785979371
 20
-147.3789455469226
 10
104.7794785979371
 20
-147.3789455469226
 10
104.8704291187477
 20
-147.3789455469226
 10
105.0671440709554
 20
-147.3746391775661
 10
105.2089097501734
 20
-147.3661986936272
 10
105.2089097501734
 20
-147.3661986936272
 10
105.2089097501734
 20
-147.5439656206661
 10
105.2089097501734
 20
-147.5439656206661
 10
105.1263997133017
 20
-147.5396592513095
 10
105.1052123760674
 20
-147.5396592513095
 10
104.9253783917374
 20
-147.5355251367272
 10
104.8936835132731
 20
-147.6898654144664
 10
104.8492417815134
 20
-147.770308394047
 10
104.8048000497536
 20
-147.8400715776233
 10
104.9253783917374
 20
-147.8993272199696
 10
105.0313150779088
 20
-147.9670233462548
 10
105.1348401972406
 20
-148.0495333831265
 10
105.1348401972406
 20
-148.0495333831265
 10
105.0165011673223
 20
-148.2166205141611
 10
105.0165011673223
 20
-148.2166205141611
 10
104.9932467727968
 20
-148.1976724889922
 10
104.9804999195014
 20
-148.1892320050534
 10
104.8683620614565
 20
-148.1044826561162
 10
104.8196139603402
 20
-148.0664143510042
 10
104.7605305727682
 20
-148.0305853579576
 10
104.6800875931876
 20
-147.9861436261979
 10
104.4685587303933
 20
-148.1723510371756
 10
104.2632310394724
 20
-148.1956054317011
 10
103.9734985091629
 20
-148.2252332528742
 10
103.9734985091629
 20
-148.2252332528742
 10
103.8698011350568
 20
-148.0453992685442
 10
103.8698011350568
 20
-148.0453992685442
 10
104.1870944292484
 20
-148.0410928991876
 10
104.3627942989961
 20
-148.015771447371
 10
104.5150675194441
 20
-147.9057006466173
 10
104.3965562347515
 20
-147.8548854882099
 10
104.3076727712321
 20
-147.8274969791021
 10
104.2718437781855
 20
-147.8147501258067
 10
104.2527234982423
 20
-147.8423108896887
 10
104.2379095876558
 20
-147.8612589148576
 10
104.2103488237738
 20
-147.8951931053873
 10
104.2103488237738
 20
-147.8951931053873
 10
104.013633871566
 20
-147.8126830685156
 10
104.013633871566
 20
-147.8126830685156
 10
104.0961439084377
 20
-147.732240088935
 10
104.1574666080752
 20
-147.6369831987678
 10
104.2146551931304
 20
-147.5355251367272
 10
104.0243136675703
 20
-147.5396592513095
 10
104.003126330336
 20
-147.5396592513095
 10
103.9206162934643
 20
-147.5439656206661
 10
103.9206162934643
 20
-147.5439656206661
 10
103.9206162934643
 20
-147.3661986936272
 10
103.9206162934643
 20
-147.3661986936272
 10
104.0601426606169
 20
-147.3725721202749
 10
104.2696044661201
 20
-147.3768784896314
 10
104.2950981727109
 20
-147.3768784896314
 10
104.3119791405886
 20
-147.3429442991017
 10
104.3669284135784
 20
-147.222365957118
 10
104.3860486935215
 20
-147.1482964041851
 10
104.3669284135784
 20
-147.1482964041851
 10
104.1893337413138
 20
-147.1546698308328
 10
103.9946858463971
 20
-147.1674166841283
 10
103.9946858463971
 20
-147.1674166841283
 10
103.9946858463971
 20
-147.3007418794074
 10
103.9946858463971
 20
-147.3007418794074
 10
103.9459377452809
 20
-147.326063331224
 10
103.8866821029346
 20
-147.3577582096883
 10
103.7535291624297
 20
-147.4233872786823
 10
103.7535291624297
 20
-147.4233872786823
 10
103.7535291624297
 20
-147.5692870724827
 10
103.7535291624297
 20
-147.5692870724827
 10
103.7535291624297
 20
-147.5692870724827
 10
103.7535291624297
 20
-148.0369587846053
 10
103.7535291624297
 20
-148.0369587846053
 10
103.7535291624297
 20
-148.1637382984625
 10
103.7175279146088
 20
-148.2229939408088
 10
103.4339965561727
 20
-148.21455345687
 10
103.4339965561727
 20
-148.21455345687
 10
103.3302991820667
 20
-148.0073309634322
 10
103.3302991820667
 20
-148.0073309634322
 10
103.3938611937696
 20
-148.0199055619533
 10
103.4424370401116
 20
-148.0242119313099
 10
103.482744657289
 20
-148.0242119313099
 10
103.558881267513
 20
-148.0242119313099
 10
103.569388808743
 20
-148.0009575367845
 10
103.569388808743
 20
-147.9353284677904
 10
103.569388808743
 20
-147.9353284677904
 10
103.569388808743
 20
-147.505897315554
 10
103.569388808743
 20
-147.505897315554
 10
103.4720648612847
 20
-147.5460326779572
 10
103.455183893407
 20
-147.5524061046049
 10
103.4086751043561
 20
-147.5715263845481
 10
103.4043687349996
 20
-147.5925414670081
 10
103.4002346204173
 20
-147.6221692881813
 10
103.3811143404741
 20
-147.6221692881813
 10
103.3726738565353
 20
-147.6221692881813
 10
103.3621663153053
 20
-147.6180351735989
 10
103.3557928886576
 20
-147.5947807790735
 10
103.3557928886576
 20
-147.5947807790735
 10
103.302910672959
 20
-147.402199941448
 10
103.302910672959
 20
-147.402199941448
 10
103.4488104667593
 20
-147.3556911523972
 10
103.5144395357533
 20
-147.3324367578717
 10
103.569388808743
 20
-147.3112494206374
 10
103.569388808743
 20
-147.3112494206374
 10
103.569388808743
 20
-146.8986992362788
 10
103.569388808743
 20
-146.8986992362788
 10
103.569388808743
 20
-146.8986992362788
 10
103.5165065930444
 20
-146.8986992362788
 10
103.5165065930444
 20
-146.8986992362788
 10
103.5165065930444
 20
-146.8986992362788
 10
103.4383029255293
 20
-146.8986992362788
 10
103.4383029255293
 20
-146.8986992362788
 10
103.3706067992441
 20
-146.8986992362788
 10
103.3621663153053
 20
-146.8986992362788
 10
103.3261650674844
 20
-146.9050726629265
 10
103.3261650674844
 20
-146.9050726629265
 10
103.3261650674844
 20
-146.7104247680099
 10
103.3261650674844
 20
-146.7104247680099
 10
103.3537258313664
 20
-146.7167981946576
 10
103.3621663153053
 20
-146.7167981946576
 10
103.4319294988816
 20
-146.7167981946576
 10
103.4319294988816
 20
-146.7167981946576
 10
103.5652546941608
 20
-146.7167981946576
 10
103.5652546941608
 20
-146.7167981946576
 10
103.5652546941608
 20
-146.6470350110813
 10
103.5652546941608
 20
-146.5645249742095
 10
103.5630153820953
 20
-146.560218604853
 10
103.5545748981565
 20
-146.3803846205229
 10
103.5545748981565
 20
-146.3614365953541
 10
103.5525078408653
 20
-146.3149278063032
 10
103.5525078408653
 20
-146.3149278063032
 10
103.7683430730162
 20
-146.3233682902421
 10
103.7683430730162
 20
-146.3233682902421
 10
103.7788506142462
 20
-146.3233682902421
 10
103.8000379514805
 20
-146.3254353475332
 10
103.8000379514805
 20
-146.3423163154109
 10
103.8000379514805
 20
-146.3614365953541
 10
103.785224040894
 20
-146.3719441365841
 10
103.7599025890774
 20
-146.3910644165272
 10
103.7599025890774
 20
-146.4417073201604
 10
103.7535291624297
 20
-146.6702894056067
 10
103.7555962197208
 20
-146.7167981946576
 10
103.8846150456434
 20
-146.7167981946576
 10
103.8973618989388
 20
-146.7167981946576
 10
103.9946858463971
 20
-146.7083577107187
 10
103.9946858463971
 20
-146.7083577107187
 10
103.9946858463971
 20
-146.9030056056354
 10
103.9946858463971
 20
-146.9030056056354
 10
103.9566175412851
 20
-146.9007662935699
 10
103.888921415
 20
-146.8966321789876
 10
103.7535291624297
 20
-146.8986992362788
 10
103.7535291624297
 20
-146.8986992362788
 10
103.7535291624297
 20
-147.2371798677046
 10
103.7535291624297
 20
-147.2371798677046
 10
103.8084784354194
 20
-147.2139254731791
 10
103.8741075044134
 20
-147.1863647092971
 10
103.9226833507554
 20
-147.1631103147717
 10
103.9226833507554
 20
-147.1631103147717
 10
103.9226833507554
 20
-146.9855156425071
 10
103.9226833507554
 20
-146.9855156425071
 10
104.0368882660914
 20
-146.9980902410282
 10
104.1553995507841
 20
-146.9980902410282
 10
104.2718437781855
 20
-146.9980902410282
 10
104.2484171288858
 20
-146.9030056056354
 10
104.2210286197781
 20
-146.8204955687636
 10
104.1574666080752
 20
-146.6871703734844
 10
104.1130248763155
 20
-146.6892374307756
 10
104.030687094218
 20
-146.6935438001321
 10
103.9924465343317
 20
-146.6956108574233
 10
103.9924465343317
 20
-146.6956108574233
 10
103.9924465343317
 20
-146.5157768730932
 10
103.9924465343317
 20
-146.5157768730932
 10
104.117331245672
 20
-146.5242173570321
 10
104.2907918033544
 20
-146.5285237263887
 10
104.3733018402261
 20
-146.5285237263887
 10
104.3733018402261
 20
-146.5285237263887
 10
104.4558118770978
 20
-146.5285237263887
 10
104.4558118770978
 20
-146.5285237263887
 10
104.4558118770978
 20
-146.3655707099364
 10
104.4558118770978
 20
-146.3550631687064
 10
104.4537448198067
 20
-146.3001138957166
 10
104.4537448198067
 20
-146.3001138957166
 10
104.6780205358964
 20
-146.3254353475332
 10
104.6780205358964
 20
-146.3254353475332
 10
104.6821546504787
 20
-146.3254353475332
 10
104.703341987713
 20
-146.3275024048243
 10
104.703341987713
 20
-146.3443833727021
 10
104.703341987713
 20
-146.3591972832887
 10
104.692834446483
 20
-146.3678100220018
 10
104.665273682601
 20
-146.3826239325884
 10
104.6589002559533
 20
-146.4480807468081
 10
104.6568331986622
 20
-146.4692680840424
 10
104.6568331986622
 20
-146.5285237263887
 10
104.6568331986622
 20
-146.5285237263887
 10
104.7519178340551
 20
-146.5285237263887
 10
104.7519178340551
 20
-146.5285237263887
 10
104.8344278709268
 20
-146.5285237263887
 10
105.0078884286091
 20
-146.5242173570321
 10
105.1327731399494
 20
-146.5157768730932
 10
105.1327731399494
 20
-146.5157768730932
 10
105.1327731399494
 20
-146.6956108574233
 10
105.1327731399494
 20
-146.6956108574233
 10
105.1031453187763
 20
-146.6935438001321
 10
104.9846340340837
 20
-146.6892374307756
 10
104.9444986716805
 20
-146.6871703734844
 10
104.9296847610939
 20
-146.7379855318919
 10
104.8959228253385
 20
-146.8501233899368
 10
104.8302937563445
 20
-146.9896497570894
 10
104.8724961760388
 20
-146.9896497570894
 10
105.1496541078271
 20
-146.9707017319205
 10
105.2109768074646
 20
-146.9684624198551
 10
105.2109768074646
 20
-146.9684624198551
 10
105.2109768074646
 20
-147.1526027735417
 10
105.2109768074646
 20
-147.1526027735417
 10
105.1815212410657
 20
-147.1526027735417
 10
105.1644680184137
 20
-147.1482964041851
 10
105.0016872567357
 20
-147.1482964041851
 97
        0
 97
        1
330
EC
 75
     2
 76
     1
 98
        1
 10
0.0
 20
0.0
450
        0
451
        0
460
0.0
461
0.0
452
        0
462
0.0
453
        0
470

  0
SPLINE
  5
EE
330
E6
100
AcDbEntity
  8
レイヤー 1
100
AcDbSpline
210
0.0
220
0.0
230
1.0
 70
    11
 71
     3
 72
    17
 73
    13
 74
     0
 42
0.0000000001
 43
0.0000000001
 40
0.0
 40
0.0
 40
0.0
 40
0.0
 40
1.0
 40
1.0
 40
1.0
 40
2.0
 40
2.0
 40
2.0
 40
3.0
 40
3.0
 40
3.0
 40
4.0
 40
4.0
 40
4.0
 40
4.0
 10
106.8582492137368
 20
-147.9480753210859
 30
0.0
 10
106.8582492137368
 20
-147.9480753210859
 30
0.0
 10
106.1516601297121
 20
-147.9480753210859
 30
0.0
 10
106.1516601297121
 20
-147.9480753210859
 30
0.0
 10
106.1516601297121
 20
-147.9480753210859
 30
0.0
 10
106.1516601297121
 20
-148.0622802364219
 30
0.0
 10
106.1516601297121
 20
-148.0622802364219
 30
0.0
 10
106.1516601297121
 20
-148.0622802364219
 30
0.0
 10
106.8582492137368
 20
-148.0622802364219
 30
0.0
 10
106.8582492137368
 20
-148.0622802364219
 30
0.0
 10
106.8582492137368
 20
-148.0622802364219
 30
0.0
 10
106.8582492137368
 20
-147.9480753210859
 30
0.0
 10
106.8582492137368
 20
-147.9480753210859
 30
0.0
  0
SPLINE
  5
EF
330
E6
100
AcDbEntity
  8
レイヤー 1
100
AcDbSpline
210
0.0
220
0.0
230
1.0
 70
    11
 71
     3
 72
    17
 73
    13
 74
     0
 42
0.0000000001
 43
0.0000000001
 40
0.0
 40
0.0
 40
0.0
 40
0.0
 40
1.0
 40
1.0
 40
1.0
 40
2.0
 40
2.0
 40
2.0
 40
3.0
 40
3.0
 40
3.0
 40
4.0
 40
4.0
 40
4.0
 40
4.0
 10
106.8582492137368
 20
-147.704679325053
 30
0.0
 10
106.8582492137368
 20
-147.704679325053
 30
0.0
 10
106.1516601297121
 20
-147.704679325053
 30
0.0
 10
106.1516601297121
 20
-147.704679325053
 30
0.0
 10
106.1516601297121
 20
-147.704679325053
 30
0.0
 10
106.1516601297121
 20
-147.8190564951633
 30
0.0
 10
106.1516601297121
 20
-147.8190564951633
 30
0.0
 10
106.1516601297121
 20
-147.8190564951633
 30
0.0
 10
106.8582492137368
 20
-147.8190564951633
 30
0.0
 10
106.8582492137368
 20
-147.8190564951633
 30
0.0
 10
106.8582492137368
 20
-147.8190564951633
 30
0.0
 10
106.8582492137368
 20
-147.704679325053
 30
0.0
 10
106.8582492137368
 20
-147.704679325053
 30
0.0
  0
SPLINE
  5
F0
330
E6
100
AcDbEntity
  8
レイヤー 1
100
AcDbSpline
210
0.0
220
0.0
230
1.0
 70
    11
 71
     3
 72
    17
 73
    13
 74
     0
 42
0.0000000001
 43
0.0000000001
 40
0.0
 40
0.0
 40
0.0
 40
0.0
 40
1.0
 40
1.0
 40
1.0
 40
2.0
 40
2.0
 40
2.0
 40
3.0
 40
3.0
 40
3.0
 40
4.0
 40
4.0
 40
4.0
 40
4.0
 10
106.8582492137368
 20
-147.4719631250244
 30
0.0
 10
106.8582492137368
 20
-147.4719631250244
 30
0.0
 10
106.1516601297121
 20
-147.4719631250244
 30
0.0
 10
106.1516601297121
 20
-147.4719631250244
 30
0.0
 10
106.1516601297121
 20
-147.4719631250244
 30
0.0
 10
106.1516601297121
 20
-147.5799668684869
 30
0.0
 10
106.1516601297121
 20
-147.5799668684869
 30
0.0
 10
106.1516601297121
 20
-147.5799668684869
 30
0.0
 10
106.8582492137368
 20
-147.5799668684869
 30
0.0
 10
106.8582492137368
 20
-147.5799668684869
 30
0.0
 10
106.8582492137368
 20
-147.5799668684869
 30
0.0
 10
106.8582492137368
 20
-147.4719631250244
 30
0.0
 10
106.8582492137368
 20
-147.4719631250244
 30
0.0
  0
SPLINE
  5
F1
330
E6
100
AcDbEntity
  8
レイヤー 1
100
AcDbSpline
210
0.0
220
0.0
230
1.0
 70
     9
 71
     3
 72
   203
 73
   199
 74
     0
 42
0.0000000001
 43
0.0000000001
 40
0.0
 40
0.0
 40
0.0
 40
0.0
 40
1.0
 40
1.0
 40
1.0
 40
2.0
 40
2.0
 40
2.0
 40
3.0
 40
3.0
 40
3.0
 40
4.0
 40
4.0
 40
4.0
 40
5.0
 40
5.0
 40
5.0
 40
6.0
 40
6.0
 40
6.0
 40
7.0
 40
7.0
 40
7.0
 40
8.0
 40
8.0
 40
8.0
 40
9.0
 40
9.0
 40
9.0
 40
10.0
 40
10.0
 40
10.0
 40
11.0
 40
11.0
 40
11.0
 40
12.0
 40
12.0
 40
12.0
 40
13.0
 40
13.0
 40
13.0
 40
14.0
 40
14.0
 40
14.0
 40
15.0
 40
15.0
 40
15.0
 40
16.0
 40
16.0
 40
16.0
 40
17.0
 40
17.0
 40
17.0
 40
18.0
 40
18.0
 40
18.0
 40
19.0
 40
19.0
 40
19.0
 40
20.0
 40
20.0
 40
20.0
 40
21.0
 40
21.0
 40
21.0
 40
22.0
 40
22.0
 40
22.0
 40
23.0
 40
23.0
 40
23.0
 40
24.0
 40
24.0
 40
24.0
 40
25.0
 40
25.0
 40
25.0
 40
26.0
 40
26.0
 40
26.0
 40
27.0
 40
27.0
 40
27.0
 40
28.0
 40
28.0
 40
28.0
 40
29.0
 40
29.0
 40
29.0
 40
30.0
 40
30.0
 40
30.0
 40
31.0
 40
31.0
 40
31.0
 40
32.0
 40
32.0
 40
32.0
 40
33.0
 40
33.0
 40
33.0
 40
34.0
 40
34.0
 40
34.0
 40
35.0
 40
35.0
 40
35.0
 40
36.0
 40
36.0
 40
36.0
 40
37.0
 40
37.0
 40
37.0
 40
38.0
 40
38.0
 40
38.0
 40
39.0
 40
39.0
 40
39.0
 40
40.0
 40
40.0
 40
40.0
 40
41.0
 40
41.0
 40
41.0
 40
42.0
 40
42.0
 40
42.0
 40
43.0
 40
43.0
 40
43.0
 40
44.0
 40
44.0
 40
44.0
 40
45.0
 40
45.0
 40
45.0
 40
46.0
 40
46.0
 40
46.0
 40
47.0
 40
47.0
 40
47.0
 40
48.0
 40
48.0
 40
48.0
 40
49.0
 40
49.0
 40
49.0
 40
50.0
 40
50.0
 40
50.0
 40
51.0
 40
51.0
 40
51.0
 40
52.0
 40
52.0
 40
52.0
 40
53.0
 40
53.0
 40
53.0
 40
54.0
 40
54.0
 40
54.0
 40
55.0
 40
55.0
 40
55.0
 40
56.0
 40
56.0
 40
56.0
 40
57.0
 40
57.0
 40
57.0
 40
58.0
 40
58.0
 40
58.0
 40
59.0
 40
59.0
 40
59.0
 40
60.0
 40
60.0
 40
60.0
 40
61.0
 40
61.0
 40
61.0
 40
62.0
 40
62.0
 40
62.0
 40
63.0
 40
63.0
 40
63.0
 40
64.0
 40
64.0
 40
64.0
 40
65.0
 40
65.0
 40
65.0
 40
66.0
 40
66.0
 40
66.0
 40
66.0
 10
106.6932291399933
 20
-147.2159925304703
 30
0.0
 10
106.6932291399933
 20
-147.2159925304703
 30
0.0
 10
106.1347791618343
 20
-147.2159925304703
 30
0.0
 10
106.1347791618343
 20
-147.2159925304703
 30
0.0
 10
106.1240993658301
 20
-147.26043426223
 30
0.0
 10
106.1154866271169
 20
-147.2921291406943
 30
0.0
 10
106.10308428337
 20
-147.3303697005806
 30
0.0
 10
106.1282334804124
 20
-147.3303697005806
 30
0.0
 10
106.1430473909989
 20
-147.3324367578717
 30
0.0
 10
106.1495930724209
 20
-147.3324367578717
 30
0.0
 10
106.1495930724209
 20
-147.3324367578717
 30
0.0
 10
106.3376952859156
 20
-147.3324367578717
 30
0.0
 10
106.3376952859156
 20
-147.3324367578717
 30
0.0
 10
106.3376952859156
 20
-147.3324367578717
 30
0.0
 10
106.7121771651622
 20
-147.3324367578717
 30
0.0
 10
106.7121771651622
 20
-147.3324367578717
 30
0.0
 10
106.7628200687954
 20
-147.3324367578717
 30
0.0
 10
107.0463514272314
 20
-147.3196899045763
 30
0.0
 10
107.0780463056957
 20
-147.3196899045763
 30
0.0
 10
107.0759792484046
 20
-147.3472506684583
 30
0.0
 10
107.0739121911134
 20
-147.3661986936272
 30
0.0
 10
107.0739121911134
 20
-147.3958265148003
 30
0.0
 10
107.0718451338223
 20
-147.4275213932646
 30
0.0
 10
107.0718451338223
 20
-147.562913645835
 30
0.0
 10
107.0718451338223
 20
-147.5904744097169
 30
0.0
 10
107.0718451338223
 20
-147.5904744097169
 30
0.0
 10
107.0718451338223
 20
-147.835937463041
 30
0.0
 10
107.0718451338223
 20
-147.835937463041
 30
0.0
 10
107.0718451338223
 20
-147.8803791948007
 30
0.0
 10
107.0759792484046
 20
-148.0770941470085
 30
0.0
 10
107.0804578725354
 20
-148.2293673674565
 30
0.0
 10
107.0804578725354
 20
-148.2293673674565
 30
0.0
 10
106.853770589606
 20
-148.2293673674565
 30
0.0
 10
106.853770589606
 20
-148.2293673674565
 30
0.0
 10
106.853770589606
 20
-148.2293673674565
 30
0.0
 10
106.8561821564457
 20
-148.1956054317011
 30
0.0
 10
106.8561821564457
 20
-148.1956054317011
 30
0.0
 10
106.8561821564457
 20
-148.1956054317011
 30
0.0
 10
106.1537271870032
 20
-148.1956054317011
 30
0.0
 10
106.1537271870032
 20
-148.1956054317011
 30
0.0
 10
106.1537271870032
 20
-148.1956054317011
 30
0.0
 10
106.1557942442943
 20
-148.2293673674565
 30
0.0
 10
106.1557942442943
 20
-148.2293673674565
 30
0.0
 10
106.1557942442943
 20
-148.2293673674565
 30
0.0
 10
105.9380642096266
 20
-148.2293673674565
 30
0.0
 10
105.9380642096266
 20
-148.2293673674565
 30
0.0
 10
105.9421983242089
 20
-148.1744180944668
 30
0.0
 10
105.9421983242089
 20
-148.1616712411714
 30
0.0
 10
105.9483994960823
 20
-148.0474663258353
 30
0.0
 10
105.9504665533735
 20
-148.0199055619533
 30
0.0
 10
105.9528781202131
 20
-147.8867526214484
 30
0.0
 10
105.9528781202131
 20
-147.8676323415053
 30
0.0
 10
105.9528781202131
 20
-147.8676323415053
 30
0.0
 10
105.9528781202131
 20
-147.6645439626498
 30
0.0
 10
105.9528781202131
 20
-147.6645439626498
 30
0.0
 10
105.813007243512
 20
-147.9141411305562
 30
0.0
 10
105.6438530551862
 20
-148.0453992685442
 30
0.0
 10
105.5380886237891
 20
-148.110856082764
 30
0.0
 10
105.5380886237891
 20
-148.110856082764
 30
0.0
 10
105.3644558113325
 20
-147.9713297156113
 30
0.0
 10
105.3644558113325
 20
-147.9713297156113
 30
0.0
 10
105.4533392748519
 20
-147.9205145572039
 30
0.0
 10
105.5973442661354
 20
-147.8336981509756
 30
0.0
 10
105.7348035759968
 20
-147.6392225108332
 30
0.0
 10
105.8257540968074
 20
-147.5122707422018
 30
0.0
 10
105.8915554205757
 20
-147.3684380056926
 30
0.0
 10
105.9253173563311
 20
-147.2159925304703
 30
0.0
 10
105.6969075256591
 20
-147.2182318425357
 30
0.0
 10
105.517073541329
 20
-147.2246052691834
 30
0.0
 10
105.4216443963876
 20
-147.2266723264746
 30
0.0
 10
105.4216443963876
 20
-147.2266723264746
 30
0.0
 10
105.4216443963876
 20
-147.0489053994357
 30
0.0
 10
105.4216443963876
 20
-147.0489053994357
 30
0.0
 10
105.6183593485954
 20
-147.0552788260834
 30
0.0
 10
105.9018907070314
 20
-147.0595851954399
 30
0.0
 10
106.0520968701883
 20
-147.0595851954399
 30
0.0
 10
106.0520968701883
 20
-147.0595851954399
 30
0.0
 10
106.2656927902738
 20
-147.0595851954399
 30
0.0
 10
106.2656927902738
 20
-147.0595851954399
 30
0.0
 10
106.2656927902738
 20
-147.0595851954399
 30
0.0
 10
106.2656927902738
 20
-146.9515814519773
 30
0.0
 10
106.2656927902738
 20
-146.9515814519773
 30
0.0
 10
106.2656927902738
 20
-146.9515814519773
 30
0.0
 10
106.1199652512478
 20
-146.9515814519773
 30
0.0
 10
106.1199652512478
 20
-146.9515814519773
 30
0.0
 10
105.9504665533735
 20
-146.9515814519773
 30
0.0
 10
105.7813123650477
 20
-146.9558878213339
 30
0.0
 10
105.6142252340131
 20
-146.9622612479817
 30
0.0
 10
105.6142252340131
 20
-146.9622612479817
 30
0.0
 10
105.6142252340131
 20
-146.7908677475905
 30
0.0
 10
105.6142252340131
 20
-146.7908677475905
 30
0.0
 10
105.7685655117523
 20
-146.8013752888205
 30
0.0
 10
105.9549451775043
 20
-146.8013752888205
 30
0.0
 10
106.1199652512478
 20
-146.8013752888205
 30
0.0
 10
106.1199652512478
 20
-146.8013752888205
 30
0.0
 10
106.2656927902738
 20
-146.8013752888205
 30
0.0
 10
106.2656927902738
 20
-146.8013752888205
 30
0.0
 10
106.2656927902738
 20
-146.8013752888205
 30
0.0
 10
106.2656927902738
 20
-146.6830362589021
 30
0.0
 10
106.2656927902738
 20
-146.6830362589021
 30
0.0
 10
106.2656927902738
 20
-146.6830362589021
 30
0.0
 10
106.1347791618343
 20
-146.6830362589021
 30
0.0
 10
106.1347791618343
 20
-146.6830362589021
 30
0.0
 10
106.0882703727835
 20
-146.6830362589021
 30
0.0
 10
105.8850097391537
 20
-146.691476742841
 30
0.0
 10
105.8426350646852
 20
-146.691476742841
 30
0.0
 10
105.6397189406039
 20
-146.6956108574233
 30
0.0
 10
105.5635823303799
 20
-146.6976779147145
 30
0.0
 10
105.4853786628648
 20
-146.6999172267799
 30
0.0
 10
105.4853786628648
 20
-146.6999172267799
 30
0.0
 10
105.4853786628648
 20
-146.5157768730932
 30
0.0
 10
105.4853786628648
 20
-146.5157768730932
 30
0.0
 10
105.5994113234265
 20
-146.5242173570321
 30
0.0
 10
105.6438530551862
 20
-146.5242173570321
 30
0.0
 10
106.026947673146
 20
-146.5328300957453
 30
0.0
 10
105.9632134066689
 20
-146.4375732055781
 30
0.0
 10
105.9356526427869
 20
-146.4100124416961
 30
0.0
 10
105.8998236497403
 20
-146.3740111938752
 30
0.0
 10
105.8998236497403
 20
-146.3740111938752
 30
0.0
 10
106.0755235194881
 20
-146.2915011570035
 30
0.0
 10
106.0755235194881
 20
-146.2915011570035
 30
0.0
 10
106.1154866271169
 20
-146.3275024048243
 30
0.0
 10
106.1599283588767
 20
-146.3698770792929
 30
0.0
 10
106.2339979118095
 20
-146.4797756252724
 30
0.0
 10
106.2339979118095
 20
-146.4797756252724
 30
0.0
 10
106.1199652512478
 20
-146.5348971530364
 30
0.0
 10
106.1199652512478
 20
-146.5348971530364
 30
0.0
 10
106.1199652512478
 20
-146.5348971530364
 30
0.0
 10
106.1303005377035
 20
-146.5348971530364
 30
0.0
 10
106.1303005377035
 20
-146.5348971530364
 30
0.0
 10
106.1303005377035
 20
-146.5348971530364
 30
0.0
 10
106.6529215228159
 20
-146.5348971530364
 30
0.0
 10
106.6529215228159
 20
-146.5348971530364
 30
0.0
 10
106.6529215228159
 20
-146.5348971530364
 30
0.0
 10
106.557836887423
 20
-146.4904554212767
 30
0.0
 10
106.557836887423
 20
-146.4904554212767
 30
0.0
 10
106.585397651305
 20
-146.4523871161647
 30
0.0
 10
106.6422417268116
 20
-146.3719441365841
 30
0.0
 10
106.6570556373982
 20
-146.2978745836512
 30
0.0
 10
106.6570556373982
 20
-146.2978745836512
 30
0.0
 10
106.8709960670322
 20
-146.3614365953541
 30
0.0
 10
106.8709960670322
 20
-146.3614365953541
 30
0.0
 10
106.8792642961968
 20
-146.3635036526452
 30
0.0
 10
106.9006238882054
 20
-146.3740111938752
 30
0.0
 10
106.9006238882054
 20
-146.3951985311095
 30
0.0
 10
106.9006238882054
 20
-146.4332668362215
 30
0.0
 10
106.8348225644371
 20
-146.4332668362215
 30
0.0
 10
106.8158745392682
 20
-146.4332668362215
 30
0.0
 10
106.8051947432639
 20
-146.4523871161647
 30
0.0
 10
106.7821126035128
 20
-146.4925224785678
 30
0.0
 10
106.7524847823396
 20
-146.5328300957453
 30
0.0
 10
107.1521158586286
 20
-146.5264566690976
 30
0.0
 10
107.1817436798018
 20
-146.5242173570321
 30
0.0
 10
107.2578802900258
 20
-146.5180161851587
 30
0.0
 10
107.2578802900258
 20
-146.5180161851587
 30
0.0
 10
107.2578802900258
 20
-146.6999172267799
 30
0.0
 10
107.2578802900258
 20
-146.6999172267799
 30
0.0
 10
107.2389322648569
 20
-146.6999172267799
 30
0.0
 10
107.2134385582661
 20
-146.6976779147145
 30
0.0
 10
106.9936414663071
 20
-146.6892374307756
 30
0.0
 10
106.9426540531254
 20
-146.6871703734844
 30
0.0
 10
106.7228569611665
 20
-146.6830362589021
 30
0.0
 10
106.6784152294068
 20
-146.6830362589021
 30
0.0
 10
106.6784152294068
 20
-146.6830362589021
 30
0.0
 10
106.4624077424816
 20
-146.6830362589021
 30
0.0
 10
106.4624077424816
 20
-146.6830362589021
 30
0.0
 10
106.4624077424816
 20
-146.6830362589021
 30
0.0
 10
106.4624077424816
 20
-146.8013752888205
 30
0.0
 10
106.4624077424816
 20
-146.8013752888205
 30
0.0
 10
106.4624077424816
 20
-146.8013752888205
 30
0.0
 10
106.6360405549382
 20
-146.8013752888205
 30
0.0
 10
106.6360405549382
 20
-146.8013752888205
 30
0.0
 10
106.7989935713905
 20
-146.8013752888205
 30
0.0
 10
106.9891628421763
 20
-146.8013752888205
 30
0.0
 10
107.1459146867552
 20
-146.7908677475905
 30
0.0
 10
107.1459146867552
 20
-146.7908677475905
 30
0.0
 10
107.1459146867552
 20
-146.9622612479817
 30
0.0
 10
107.1459146867552
 20
-146.9622612479817
 30
0.0
 10
106.936452881252
 20
-146.9538207640428
 30
0.0
 10
106.7397379290442
 20
-146.9515814519773
 30
0.0
 10
106.6360405549382
 20
-146.9515814519773
 30
0.0
 10
106.6360405549382
 20
-146.9515814519773
 30
0.0
 10
106.4624077424816
 20
-146.9515814519773
 30
0.0
 10
106.4624077424816
 20
-146.9515814519773
 30
0.0
 10
106.4624077424816
 20
-146.9515814519773
 30
0.0
 10
106.4624077424816
 20
-147.0595851954399
 30
0.0
 10
106.4624077424816
 20
-147.0595851954399
 30
0.0
 10
106.4624077424816
 20
-147.0595851954399
 30
0.0
 10
106.6932291399933
 20
-147.0595851954399
 30
0.0
 10
106.6932291399933
 20
-147.0595851954399
 30
0.0
 10
106.8265543352725
 20
-147.0595851954399
 30
0.0
 10
107.1142198082909
 20
-147.0552788260834
 30
0.0
 10
107.3236816137941
 20
-147.0489053994357
 30
0.0
 10
107.3236816137941
 20
-147.0489053994357
 30
0.0
 10
107.3236816137941
 20
-147.2266723264746
 30
0.0
 10
107.3236816137941
 20
-147.2266723264746
 30
0.0
 10
107.1311007761686
 20
-147.2202988998269
 30
0.0
 10
106.8179415965594
 20
-147.2159925304703
 30
0.0
 10
106.6932291399933
 20
-147.2159925304703
 30
0.0
  0
HATCH
  5
F2
330
E6
100
AcDbEntity
  8
レイヤー 1
 62
    18
420
        0
440
 33554687
100
AcDbHatch
 10
0.0
 20
0.0
 30
0.0
210
0.0
220
0.0
230
1.0
  2
SOLID
 70
     1
 71
     1
 91
        4
 92
        1
 93
        1
 72
     4
 94
        3
 73
     0
 74
     0
 95
       17
 96
       13
 40
0.0
 40
0.0
 40
0.0
 40
0.0
 40
1.0
 40
1.0
 40
1.0
 40
2.0
 40
2.0
 40
2.0
 40
3.0
 40
3.0
 40
3.0
 40
4.0
 40
4.0
 40
4.0
 40
4.0
 10
106.8582492137368
 20
-147.9480753210859
 10
106.8582492137368
 20
-147.9480753210859
 10
106.1516601297121
 20
-147.9480753210859
 10
106.1516601297121
 20
-147.9480753210859
 10
106.1516601297121
 20
-147.9480753210859
 10
106.1516601297121
 20
-148.0622802364219
 10
106.1516601297121
 20
-148.0622802364219
 10
106.1516601297121
 20
-148.0622802364219
 10
106.8582492137368
 20
-148.0622802364219
 10
106.8582492137368
 20
-148.0622802364219
 10
106.8582492137368
 20
-148.0622802364219
 10
106.8582492137368
 20
-147.9480753210859
 10
106.8582492137368
 20
-147.9480753210859
 97
        0
 97
        1
330
EE
 92
        1
 93
        1
 72
     4
 94
        3
 73
     0
 74
     0
 95
       17
 96
       13
 40
0.0
 40
0.0
 40
0.0
 40
0.0
 40
1.0
 40
1.0
 40
1.0
 40
2.0
 40
2.0
 40
2.0
 40
3.0
 40
3.0
 40
3.0
 40
4.0
 40
4.0
 40
4.0
 40
4.0
 10
106.8582492137368
 20
-147.704679325053
 10
106.8582492137368
 20
-147.704679325053
 10
106.1516601297121
 20
-147.704679325053
 10
106.1516601297121
 20
-147.704679325053
 10
106.1516601297121
 20
-147.704679325053
 10
106.1516601297121
 20
-147.8190564951633
 10
106.1516601297121
 20
-147.8190564951633
 10
106.1516601297121
 20
-147.8190564951633
 10
106.8582492137368
 20
-147.8190564951633
 10
106.8582492137368
 20
-147.8190564951633
 10
106.8582492137368
 20
-147.8190564951633
 10
106.8582492137368
 20
-147.704679325053
 10
106.8582492137368
 20
-147.704679325053
 97
        0
 97
        1
330
EF
 92
        1
 93
        1
 72
     4
 94
        3
 73
     0
 74
     0
 95
       17
 96
       13
 40
0.0
 40
0.0
 40
0.0
 40
0.0
 40
1.0
 40
1.0
 40
1.0
 40
2.0
 40
2.0
 40
2.0
 40
3.0
 40
3.0
 40
3.0
 40
4.0
 40
4.0
 40
4.0
 40
4.0
 10
106.8582492137368
 20
-147.4719631250244
 10
106.8582492137368
 20
-147.4719631250244
 10
106.1516601297121
 20
-147.4719631250244
 10
106.1516601297121
 20
-147.4719631250244
 10
106.1516601297121
 20
-147.4719631250244
 10
106.1516601297121
 20
-147.5799668684869
 10
106.1516601297121
 20
-147.5799668684869
 10
106.1516601297121
 20
-147.5799668684869
 10
106.8582492137368
 20
-147.5799668684869
 10
106.8582492137368
 20
-147.5799668684869
 10
106.8582492137368
 20
-147.5799668684869
 10
106.8582492137368
 20
-147.4719631250244
 10
106.8582492137368
 20
-147.4719631250244
 97
        0
 97
        1
330
F0
 92
        1
 93
        1
 72
     4
 94
        3
 73
     0
 74
     0
 95
      203
 96
      199
 40
0.0
 40
0.0
 40
0.0
 40
0.0
 40
1.0
 40
1.0
 40
1.0
 40
2.0
 40
2.0
 40
2.0
 40
3.0
 40
3.0
 40
3.0
 40
4.0
 40
4.0
 40
4.0
 40
5.0
 40
5.0
 40
5.0
 40
6.0
 40
6.0
 40
6.0
 40
7.0
 40
7.0
 40
7.0
 40
8.0
 40
8.0
 40
8.0
 40
9.0
 40
9.0
 40
9.0
 40
10.0
 40
10.0
 40
10.0
 40
11.0
 40
11.0
 40
11.0
 40
12.0
 40
12.0
 40
12.0
 40
13.0
 40
13.0
 40
13.0
 40
14.0
 40
14.0
 40
14.0
 40
15.0
 40
15.0
 40
15.0
 40
16.0
 40
16.0
 40
16.0
 40
17.0
 40
17.0
 40
17.0
 40
18.0
 40
18.0
 40
18.0
 40
19.0
 40
19.0
 40
19.0
 40
20.0
 40
20.0
 40
20.0
 40
21.0
 40
21.0
 40
21.0
 40
22.0
 40
22.0
 40
22.0
 40
23.0
 40
23.0
 40
23.0
 40
24.0
 40
24.0
 40
24.0
 40
25.0
 40
25.0
 40
25.0
 40
26.0
 40
26.0
 40
26.0
 40
27.0
 40
27.0
 40
27.0
 40
28.0
 40
28.0
 40
28.0
 40
29.0
 40
29.0
 40
29.0
 40
30.0
 40
30.0
 40
30.0
 40
31.0
 40
31.0
 40
31.0
 40
32.0
 40
32.0
 40
32.0
 40
33.0
 40
33.0
 40
33.0
 40
34.0
 40
34.0
 40
34.0
 40
35.0
 40
35.0
 40
35.0
 40
36.0
 40
36.0
 40
36.0
 40
37.0
 40
37.0
 40
37.0
 40
38.0
 40
38.0
 40
38.0
 40
39.0
 40
39.0
 40
39.0
 40
40.0
 40
40.0
 40
40.0
 40
41.0
 40
41.0
 40
41.0
 40
42.0
 40
42.0
 40
42.0
 40
43.0
 40
43.0
 40
43.0
 40
44.0
 40
44.0
 40
44.0
 40
45.0
 40
45.0
 40
45.0
 40
46.0
 40
46.0
 40
46.0
 40
47.0
 40
47.0
 40
47.0
 40
48.0
 40
48.0
 40
48.0
 40
49.0
 40
49.0
 40
49.0
 40
50.0
 40
50.0
 40
50.0
 40
51.0
 40
51.0
 40
51.0
 40
52.0
 40
52.0
 40
52.0
 40
53.0
 40
53.0
 40
53.0
 40
54.0
 40
54.0
 40
54.0
 40
55.0
 40
55.0
 40
55.0
 40
56.0
 40
56.0
 40
56.0
 40
57.0
 40
57.0
 40
57.0
 40
58.0
 40
58.0
 40
58.0
 40
59.0
 40
59.0
 40
59.0
 40
60.0
 40
60.0
 40
60.0
 40
61.0
 40
61.0
 40
61.0
 40
62.0
 40
62.0
 40
62.0
 40
63.0
 40
63.0
 40
63.0
 40
64.0
 40
64.0
 40
64.0
 40
65.0
 40
65.0
 40
65.0
 40
66.0
 40
66.0
 40
66.0
 40
66.0
 10
106.6932291399933
 20
-147.2159925304703
 10
106.6932291399933
 20
-147.2159925304703
 10
106.1347791618343
 20
-147.2159925304703
 10
106.1347791618343
 20
-147.2159925304703
 10
106.1240993658301
 20
-147.26043426223
 10
106.1154866271169
 20
-147.2921291406943
 10
106.10308428337
 20
-147.3303697005806
 10
106.1282334804124
 20
-147.3303697005806
 10
106.1430473909989
 20
-147.3324367578717
 10
106.1495930724209
 20
-147.3324367578717
 10
106.1495930724209
 20
-147.3324367578717
 10
106.3376952859156
 20
-147.3324367578717
 10
106.3376952859156
 20
-147.3324367578717
 10
106.3376952859156
 20
-147.3324367578717
 10
106.7121771651622
 20
-147.3324367578717
 10
106.7121771651622
 20
-147.3324367578717
 10
106.7628200687954
 20
-147.3324367578717
 10
107.0463514272314
 20
-147.3196899045763
 10
107.0780463056957
 20
-147.3196899045763
 10
107.0759792484046
 20
-147.3472506684583
 10
107.0739121911134
 20
-147.3661986936272
 10
107.0739121911134
 20
-147.3958265148003
 10
107.0718451338223
 20
-147.4275213932646
 10
107.0718451338223
 20
-147.562913645835
 10
107.0718451338223
 20
-147.5904744097169
 10
107.0718451338223
 20
-147.5904744097169
 10
107.0718451338223
 20
-147.835937463041
 10
107.0718451338223
 20
-147.835937463041
 10
107.0718451338223
 20
-147.8803791948007
 10
107.0759792484046
 20
-148.0770941470085
 10
107.0804578725354
 20
-148.2293673674565
 10
107.0804578725354
 20
-148.2293673674565
 10
106.853770589606
 20
-148.2293673674565
 10
106.853770589606
 20
-148.2293673674565
 10
106.853770589606
 20
-148.2293673674565
 10
106.8561821564457
 20
-148.1956054317011
 10
106.8561821564457
 20
-148.1956054317011
 10
106.8561821564457
 20
-148.1956054317011
 10
106.1537271870032
 20
-148.1956054317011
 10
106.1537271870032
 20
-148.1956054317011
 10
106.1537271870032
 20
-148.1956054317011
 10
106.1557942442943
 20
-148.2293673674565
 10
106.1557942442943
 20
-148.2293673674565
 10
106.1557942442943
 20
-148.2293673674565
 10
105.9380642096266
 20
-148.2293673674565
 10
105.9380642096266
 20
-148.2293673674565
 10
105.9421983242089
 20
-148.1744180944668
 10
105.9421983242089
 20
-148.1616712411714
 10
105.9483994960823
 20
-148.0474663258353
 10
105.9504665533735
 20
-148.0199055619533
 10
105.9528781202131
 20
-147.8867526214484
 10
105.9528781202131
 20
-147.8676323415053
 10
105.9528781202131
 20
-147.8676323415053
 10
105.9528781202131
 20
-147.6645439626498
 10
105.9528781202131
 20
-147.6645439626498
 10
105.813007243512
 20
-147.9141411305562
 10
105.6438530551862
 20
-148.0453992685442
 10
105.5380886237891
 20
-148.110856082764
 10
105.5380886237891
 20
-148.110856082764
 10
105.3644558113325
 20
-147.9713297156113
 10
105.3644558113325
 20
-147.9713297156113
 10
105.4533392748519
 20
-147.9205145572039
 10
105.5973442661354
 20
-147.8336981509756
 10
105.7348035759968
 20
-147.6392225108332
 10
105.8257540968074
 20
-147.5122707422018
 10
105.8915554205757
 20
-147.3684380056926
 10
105.9253173563311
 20
-147.2159925304703
 10
105.6969075256591
 20
-147.2182318425357
 10
105.517073541329
 20
-147.2246052691834
 10
105.4216443963876
 20
-147.2266723264746
 10
105.4216443963876
 20
-147.2266723264746
 10
105.4216443963876
 20
-147.0489053994357
 10
105.4216443963876
 20
-147.0489053994357
 10
105.6183593485954
 20
-147.0552788260834
 10
105.9018907070314
 20
-147.0595851954399
 10
106.0520968701883
 20
-147.0595851954399
 10
106.0520968701883
 20
-147.0595851954399
 10
106.2656927902738
 20
-147.0595851954399
 10
106.2656927902738
 20
-147.0595851954399
 10
106.2656927902738
 20
-147.0595851954399
 10
106.2656927902738
 20
-146.9515814519773
 10
106.2656927902738
 20
-146.9515814519773
 10
106.2656927902738
 20
-146.9515814519773
 10
106.1199652512478
 20
-146.9515814519773
 10
106.1199652512478
 20
-146.9515814519773
 10
105.9504665533735
 20
-146.9515814519773
 10
105.7813123650477
 20
-146.9558878213339
 10
105.6142252340131
 20
-146.9622612479817
 10
105.6142252340131
 20
-146.9622612479817
 10
105.6142252340131
 20
-146.7908677475905
 10
105.6142252340131
 20
-146.7908677475905
 10
105.7685655117523
 20
-146.8013752888205
 10
105.9549451775043
 20
-146.8013752888205
 10
106.1199652512478
 20
-146.8013752888205
 10
106.1199652512478
 20
-146.8013752888205
 10
106.2656927902738
 20
-146.8013752888205
 10
106.2656927902738
 20
-146.8013752888205
 10
106.2656927902738
 20
-146.8013752888205
 10
106.2656927902738
 20
-146.6830362589021
 10
106.2656927902738
 20
-146.6830362589021
 10
106.2656927902738
 20
-146.6830362589021
 10
106.1347791618343
 20
-146.6830362589021
 10
106.1347791618343
 20
-146.6830362589021
 10
106.0882703727835
 20
-146.6830362589021
 10
105.8850097391537
 20
-146.691476742841
 10
105.8426350646852
 20
-146.691476742841
 10
105.6397189406039
 20
-146.6956108574233
 10
105.5635823303799
 20
-146.6976779147145
 10
105.4853786628648
 20
-146.6999172267799
 10
105.4853786628648
 20
-146.6999172267799
 10
105.4853786628648
 20
-146.5157768730932
 10
105.4853786628648
 20
-146.5157768730932
 10
105.5994113234265
 20
-146.5242173570321
 10
105.6438530551862
 20
-146.5242173570321
 10
106.026947673146
 20
-146.5328300957453
 10
105.9632134066689
 20
-146.4375732055781
 10
105.9356526427869
 20
-146.4100124416961
 10
105.8998236497403
 20
-146.3740111938752
 10
105.8998236497403
 20
-146.3740111938752
 10
106.0755235194881
 20
-146.2915011570035
 10
106.0755235194881
 20
-146.2915011570035
 10
106.1154866271169
 20
-146.3275024048243
 10
106.1599283588767
 20
-146.3698770792929
 10
106.2339979118095
 20
-146.4797756252724
 10
106.2339979118095
 20
-146.4797756252724
 10
106.1199652512478
 20
-146.5348971530364
 10
106.1199652512478
 20
-146.5348971530364
 10
106.1199652512478
 20
-146.5348971530364
 10
106.1303005377035
 20
-146.5348971530364
 10
106.1303005377035
 20
-146.5348971530364
 10
106.1303005377035
 20
-146.5348971530364
 10
106.6529215228159
 20
-146.5348971530364
 10
106.6529215228159
 20
-146.5348971530364
 10
106.6529215228159
 20
-146.5348971530364
 10
106.557836887423
 20
-146.4904554212767
 10
106.557836887423
 20
-146.4904554212767
 10
106.585397651305
 20
-146.4523871161647
 10
106.6422417268116
 20
-146.3719441365841
 10
106.6570556373982
 20
-146.2978745836512
 10
106.6570556373982
 20
-146.2978745836512
 10
106.8709960670322
 20
-146.3614365953541
 10
106.8709960670322
 20
-146.3614365953541
 10
106.8792642961968
 20
-146.3635036526452
 10
106.9006238882054
 20
-146.3740111938752
 10
106.9006238882054
 20
-146.3951985311095
 10
106.9006238882054
 20
-146.4332668362215
 10
106.8348225644371
 20
-146.4332668362215
 10
106.8158745392682
 20
-146.4332668362215
 10
106.8051947432639
 20
-146.4523871161647
 10
106.7821126035128
 20
-146.4925224785678
 10
106.7524847823396
 20
-146.5328300957453
 10
107.1521158586286
 20
-146.5264566690976
 10
107.1817436798018
 20
-146.5242173570321
 10
107.2578802900258
 20
-146.5180161851587
 10
107.2578802900258
 20
-146.5180161851587
 10
107.2578802900258
 20
-146.6999172267799
 10
107.2578802900258
 20
-146.6999172267799
 10
107.2389322648569
 20
-146.6999172267799
 10
107.2134385582661
 20
-146.6976779147145
 10
106.9936414663071
 20
-146.6892374307756
 10
106.9426540531254
 20
-146.6871703734844
 10
106.7228569611665
 20
-146.6830362589021
 10
106.6784152294068
 20
-146.6830362589021
 10
106.6784152294068
 20
-146.6830362589021
 10
106.4624077424816
 20
-146.6830362589021
 10
106.4624077424816
 20
-146.6830362589021
 10
106.4624077424816
 20
-146.6830362589021
 10
106.4624077424816
 20
-146.8013752888205
 10
106.4624077424816
 20
-146.8013752888205
 10
106.4624077424816
 20
-146.8013752888205
 10
106.6360405549382
 20
-146.8013752888205
 10
106.6360405549382
 20
-146.8013752888205
 10
106.7989935713905
 20
-146.8013752888205
 10
106.9891628421763
 20
-146.8013752888205
 10
107.1459146867552
 20
-146.7908677475905
 10
107.1459146867552
 20
-146.7908677475905
 10
107.1459146867552
 20
-146.9622612479817
 10
107.1459146867552
 20
-146.9622612479817
 10
106.936452881252
 20
-146.9538207640428
 10
106.7397379290442
 20
-146.9515814519773
 10
106.6360405549382
 20
-146.9515814519773
 10
106.6360405549382
 20
-146.9515814519773
 10
106.4624077424816
 20
-146.9515814519773
 10
106.4624077424816
 20
-146.9515814519773
 10
106.4624077424816
 20
-146.9515814519773
 10
106.4624077424816
 20
-147.0595851954399
 10
106.4624077424816
 20
-147.0595851954399
 10
106.4624077424816
 20
-147.0595851954399
 10
106.6932291399933
 20
-147.0595851954399
 10
106.6932291399933
 20
-147.0595851954399
 10
106.8265543352725
 20
-147.0595851954399
 10
107.1142198082909
 20
-147.0552788260834
 10
107.3236816137941
 20
-147.0489053994357
 10
107.3236816137941
 20
-147.0489053994357
 10
107.3236816137941
 20
-147.2266723264746
 10
107.3236816137941
 20
-147.2266723264746
 10
107.1311007761686
 20
-147.2202988998269
 10
106.8179415965594
 20
-147.2159925304703
 10
106.6932291399933
 20
-147.2159925304703
 97
        0
 97
        1
330
F1
 75
     2
 76
     1
 98
        1
 10
0.0
 20
0.0
450
        0
451
        0
460
0.0
461
0.0
452
        0
462
0.0
453
        0
470

  0
SPLINE
  5
F3
330
E6
100
AcDbEntity
  8
レイヤー 1
100
AcDbSpline
210
0.0
220
0.0
230
1.0
 70
     9
 71
     3
 72
    29
 73
    25
 74
     0
 42
0.0000000001
 43
0.0000000001
 40
0.0
 40
0.0
 40
0.0
 40
0.0
 40
1.0
 40
1.0
 40
1.0
 40
2.0
 40
2.0
 40
2.0
 40
3.0
 40
3.0
 40
3.0
 40
4.0
 40
4.0
 40
4.0
 40
5.0
 40
5.0
 40
5.0
 40
6.0
 40
6.0
 40
6.0
 40
7.0
 40
7.0
 40
7.0
 40
8.0
 40
8.0
 40
8.0
 40
8.0
 10
108.5687391221634
 20
-146.663915978959
 30
0.0
 10
108.5687391221634
 20
-146.663915978959
 30
0.0
 10
108.2152723253767
 20
-146.663915978959
 30
0.0
 10
108.2152723253767
 20
-146.663915978959
 30
0.0
 10
108.1033067221061
 20
-146.663915978959
 30
0.0
 10
107.9637803549535
 20
-146.6702894056067
 30
0.0
 10
107.8556043567166
 20
-146.6830362589021
 30
0.0
 10
107.8556043567166
 20
-146.6830362589021
 30
0.0
 10
107.8556043567166
 20
-146.4480807468081
 30
0.0
 10
107.8556043567166
 20
-146.4480807468081
 30
0.0
 10
107.9741156414092
 20
-146.4628946573947
 30
0.0
 10
108.1580837403216
 20
-146.4672010267513
 30
0.0
 10
108.2152723253767
 20
-146.4672010267513
 30
0.0
 10
108.2152723253767
 20
-146.4672010267513
 30
0.0
 10
108.5687391221634
 20
-146.4672010267513
 30
0.0
 10
108.5687391221634
 20
-146.4672010267513
 30
0.0
 10
108.5876871473322
 20
-146.4672010267513
 30
0.0
 10
108.790947780962
 20
-146.4672010267513
 30
0.0
 10
108.9325412054057
 20
-146.4480807468081
 30
0.0
 10
108.9325412054057
 20
-146.4480807468081
 30
0.0
 10
108.9325412054057
 20
-146.6830362589021
 30
0.0
 10
108.9325412054057
 20
-146.6830362589021
 30
0.0
 10
108.7761338703754
 20
-146.663915978959
 30
0.0
 10
108.5856200900411
 20
-146.663915978959
 30
0.0
 10
108.5687391221634
 20
-146.663915978959
 30
0.0
  0
SPLINE
  5
F4
330
E6
100
AcDbEntity
  8
レイヤー 1
100
AcDbSpline
210
0.0
220
0.0
230
1.0
 70
     9
 71
     3
 72
    47
 73
    43
 74
     0
 42
0.0000000001
 43
0.0000000001
 40
0.0
 40
0.0
 40
0.0
 40
0.0
 40
1.0
 40
1.0
 40
1.0
 40
2.0
 40
2.0
 40
2.0
 40
3.0
 40
3.0
 40
3.0
 40
4.0
 40
4.0
 40
4.0
 40
5.0
 40
5.0
 40
5.0
 40
6.0
 40
6.0
 40
6.0
 40
7.0
 40
7.0
 40
7.0
 40
8.0
 40
8.0
 40
8.0
 40
9.0
 40
9.0
 40
9.0
 40
10.0
 40
10.0
 40
10.0
 40
11.0
 40
11.0
 40
11.0
 40
12.0
 40
12.0
 40
12.0
 40
13.0
 40
13.0
 40
13.0
 40
14.0
 40
14.0
 40
14.0
 40
14.0
 10
108.6700249294297
 20
-147.1927381359448
 30
0.0
 10
108.6700249294297
 20
-147.1927381359448
 30
0.0
 10
108.5687391221634
 20
-147.1927381359448
 30
0.0
 10
108.5687391221634
 20
-147.1927381359448
 30
0.0
 10
108.5687391221634
 20
-147.2795545421732
 30
0.0
 10
108.5473795301548
 20
-147.6688503320064
 30
0.0
 10
108.350664577947
 20
-147.8888196787396
 30
0.0
 10
108.198391357499
 20
-148.0579738670654
 30
0.0
 10
107.990996609287
 20
-148.1279093054159
 30
0.0
 10
107.9065917698983
 20
-148.1552978145237
 30
0.0
 10
107.9065917698983
 20
-148.1552978145237
 30
0.0
 10
107.7119438749817
 20
-147.988210683489
 30
0.0
 10
107.7119438749817
 20
-147.988210683489
 30
0.0
 10
107.8090955676658
 20
-147.9754638301936
 30
0.0
 10
107.9847954374135
 20
-147.9522094356682
 30
0.0
 10
108.1728976509081
 20
-147.7639349673993
 30
0.0
 10
108.246967203841
 20
-147.6921047265318
 30
0.0
 10
108.350664577947
 20
-147.5524061046049
 30
0.0
 10
108.350664577947
 20
-147.1927381359448
 30
0.0
 10
108.350664577947
 20
-147.1927381359448
 30
0.0
 10
108.1201876899838
 20
-147.1927381359448
 30
0.0
 10
108.1201876899838
 20
-147.1927381359448
 30
0.0
 10
107.9341525337803
 20
-147.1927381359448
 30
0.0
 10
107.7477728680283
 20
-147.1970445053014
 30
0.0
 10
107.5617377118248
 20
-147.211858415888
 30
0.0
 10
107.5617377118248
 20
-147.211858415888
 30
0.0
 10
107.5617377118248
 20
-146.9918890691548
 30
0.0
 10
107.5617377118248
 20
-146.9918890691548
 30
0.0
 10
107.7498399253195
 20
-147.0067029797414
 30
0.0
 10
108.0354383410467
 20
-147.0108370943236
 30
0.0
 10
108.1201876899838
 20
-147.0108370943236
 30
0.0
 10
108.1201876899838
 20
-147.0108370943236
 30
0.0
 10
108.6700249294297
 20
-147.0108370943236
 30
0.0
 10
108.6700249294297
 20
-147.0108370943236
 30
0.0
 10
108.6893174641471
 20
-147.0108370943236
 30
0.0
 10
109.0066107583386
 20
-147.0108370943236
 30
0.0
 10
109.2350205890107
 20
-146.9918890691548
 30
0.0
 10
109.2350205890107
 20
-146.9918890691548
 30
0.0
 10
109.2350205890107
 20
-147.211858415888
 30
0.0
 10
109.2350205890107
 20
-147.211858415888
 30
0.0
 10
109.046918375516
 20
-147.1970445053014
 30
0.0
 10
108.8584716524729
 20
-147.1927381359448
 30
0.0
 10
108.6700249294297
 20
-147.1927381359448
 30
0.0
  0
HATCH
  5
F5
330
E6
100
AcDbEntity
  8
レイヤー 1
 62
    18
420
        0
440
 33554687
100
AcDbHatch
 10
0.0
 20
0.0
 30
0.0
210
0.0
220
0.0
230
1.0
  2
SOLID
 70
     1
 71
     1
 91
        2
 92
        1
 93
        1
 72
     4
 94
        3
 73
     0
 74
     0
 95
       29
 96
       25
 40
0.0
 40
0.0
 40
0.0
 40
0.0
 40
1.0
 40
1.0
 40
1.0
 40
2.0
 40
2.0
 40
2.0
 40
3.0
 40
3.0
 40
3.0
 40
4.0
 40
4.0
 40
4.0
 40
5.0
 40
5.0
 40
5.0
 40
6.0
 40
6.0
 40
6.0
 40
7.0
 40
7.0
 40
7.0
 40
8.0
 40
8.0
 40
8.0
 40
8.0
 10
108.5687391221634
 20
-146.663915978959
 10
108.5687391221634
 20
-146.663915978959
 10
108.2152723253767
 20
-146.663915978959
 10
108.2152723253767
 20
-146.663915978959
 10
108.1033067221061
 20
-146.663915978959
 10
107.9637803549535
 20
-146.6702894056067
 10
107.8556043567166
 20
-146.6830362589021
 10
107.8556043567166
 20
-146.6830362589021
 10
107.8556043567166
 20
-146.4480807468081
 10
107.8556043567166
 20
-146.4480807468081
 10
107.9741156414092
 20
-146.4628946573947
 10
108.1580837403216
 20
-146.4672010267513
 10
108.2152723253767
 20
-146.4672010267513
 10
108.2152723253767
 20
-146.4672010267513
 10
108.5687391221634
 20
-146.4672010267513
 10
108.5687391221634
 20
-146.4672010267513
 10
108.5876871473322
 20
-146.4672010267513
 10
108.790947780962
 20
-146.4672010267513
 10
108.9325412054057
 20
-146.4480807468081
 10
108.9325412054057
 20
-146.4480807468081
 10
108.9325412054057
 20
-146.6830362589021
 10
108.9325412054057
 20
-146.6830362589021
 10
108.7761338703754
 20
-146.663915978959
 10
108.5856200900411
 20
-146.663915978959
 10
108.5687391221634
 20
-146.663915978959
 97
        0
 97
        1
330
F3
 92
        1
 93
        1
 72
     4
 94
        3
 73
     0
 74
     0
 95
       47
 96
       43
 40
0.0
 40
0.0
 40
0.0
 40
0.0
 40
1.0
 40
1.0
 40
1.0
 40
2.0
 40
2.0
 40
2.0
 40
3.0
 40
3.0
 40
3.0
 40
4.0
 40
4.0
 40
4.0
 40
5.0
 40
5.0
 40
5.0
 40
6.0
 40
6.0
 40
6.0
 40
7.0
 40
7.0
 40
7.0
 40
8.0
 40
8.0
 40
8.0
 40
9.0
 40
9.0
 40
9.0
 40
10.0
 40
10.0
 40
10.0
 40
11.0
 40
11.0
 40
11.0
 40
12.0
 40
12.0
 40
12.0
 40
13.0
 40
13.0
 40
13.0
 40
14.0
 40
14.0
 40
14.0
 40
14.0
 10
108.6700249294297
 20
-147.1927381359448
 10
108.6700249294297
 20
-147.1927381359448
 10
108.5687391221634
 20
-147.1927381359448
 10
108.5687391221634
 20
-147.1927381359448
 10
108.5687391221634
 20
-147.2795545421732
 10
108.5473795301548
 20
-147.6688503320064
 10
108.350664577947
 20
-147.8888196787396
 10
108.198391357499
 20
-148.0579738670654
 10
107.990996609287
 20
-148.1279093054159
 10
107.9065917698983
 20
-148.1552978145237
 10
107.9065917698983
 20
-148.1552978145237
 10
107.7119438749817
 20
-147.988210683489
 10
107.7119438749817
 20
-147.988210683489
 10
107.8090955676658
 20
-147.9754638301936
 10
107.9847954374135
 20
-147.9522094356682
 10
108.1728976509081
 20
-147.7639349673993
 10
108.246967203841
 20
-147.6921047265318
 10
108.350664577947
 20
-147.5524061046049
 10
108.350664577947
 20
-147.1927381359448
 10
108.350664577947
 20
-147.1927381359448
 10
108.1201876899838
 20
-147.1927381359448
 10
108.1201876899838
 20
-147.1927381359448
 10
107.9341525337803
 20
-147.1927381359448
 10
107.7477728680283
 20
-147.1970445053014
 10
107.5617377118248
 20
-147.211858415888
 10
107.5617377118248
 20
-147.211858415888
 10
107.5617377118248
 20
-146.9918890691548
 10
107.5617377118248
 20
-146.9918890691548
 10
107.7498399253195
 20
-147.0067029797414
 10
108.0354383410467
 20
-147.0108370943236
 10
108.1201876899838
 20
-147.0108370943236
 10
108.1201876899838
 20
-147.0108370943236
 10
108.6700249294297
 20
-147.0108370943236
 10
108.6700249294297
 20
-147.0108370943236
 10
108.6893174641471
 20
-147.0108370943236
 10
109.0066107583386
 20
-147.0108370943236
 10
109.2350205890107
 20
-146.9918890691548
 10
109.2350205890107
 20
-146.9918890691548
 10
109.2350205890107
 20
-147.211858415888
 10
109.2350205890107
 20
-147.211858415888
 10
109.046918375516
 20
-147.1970445053014
 10
108.8584716524729
 20
-147.1927381359448
 10
108.6700249294297
 20
-147.1927381359448
 97
        0
 97
        1
330
F4
 75
     2
 76
     1
 98
        1
 10
0.0
 20
0.0
450
        0
451
        0
460
0.0
461
0.0
452
        0
462
0.0
453
        0
470

  0
SPLINE
  5
F6
330
E6
100
AcDbEntity
  8
レイヤー 1
100
AcDbSpline
210
0.0
220
0.0
230
1.0
 70
     9
 71
     3
 72
    29
 73
    25
 74
     0
 42
0.0000000001
 43
0.0000000001
 40
0.0
 40
0.0
 40
0.0
 40
0.0
 40
1.0
 40
1.0
 40
1.0
 40
2.0
 40
2.0
 40
2.0
 40
3.0
 40
3.0
 40
3.0
 40
4.0
 40
4.0
 40
4.0
 40
5.0
 40
5.0
 40
5.0
 40
6.0
 40
6.0
 40
6.0
 40
7.0
 40
7.0
 40
7.0
 40
8.0
 40
8.0
 40
8.0
 40
8.0
 10
110.5159070904266
 20
-147.3556911523972
 30
0.0
 10
110.5159070904266
 20
-147.3556911523972
 30
0.0
 10
110.0315266652004
 20
-147.3556911523972
 30
0.0
 10
110.0315266652004
 20
-147.3556911523972
 30
0.0
 10
110.0039659013184
 20
-147.3556911523972
 30
0.0
 10
109.6866726071269
 20
-147.3556911523972
 30
0.0
 10
109.4751437443326
 20
-147.3810126042138
 30
0.0
 10
109.4751437443326
 20
-147.3810126042138
 30
0.0
 10
109.4751437443326
 20
-147.1505357162506
 30
0.0
 10
109.4751437443326
 20
-147.1505357162506
 30
0.0
 10
109.6339626462026
 20
-147.173790110776
 30
0.0
 10
109.8241319169884
 20
-147.1758571680671
 30
0.0
 10
110.0315266652004
 20
-147.1758571680671
 30
0.0
 10
110.0315266652004
 20
-147.1758571680671
 30
0.0
 10
110.5159070904266
 20
-147.1758571680671
 30
0.0
 10
110.5159070904266
 20
-147.1758571680671
 30
0.0
 10
110.7022867561786
 20
-147.1758571680671
 30
0.0
 10
110.8883219123821
 20
-147.173790110776
 30
0.0
 10
111.0722900112944
 20
-147.1505357162506
 30
0.0
 10
111.0722900112944
 20
-147.1505357162506
 30
0.0
 10
111.0722900112944
 20
-147.3810126042138
 30
0.0
 10
111.0722900112944
 20
-147.3810126042138
 30
0.0
 10
110.8883219123821
 20
-147.3577582096883
 30
0.0
 10
110.6409640565411
 20
-147.3556911523972
 30
0.0
 10
110.5159070904266
 20
-147.3556911523972
 30
0.0
  0
HATCH
  5
F7
330
E6
100
AcDbEntity
  8
レイヤー 1
 62
    18
420
        0
440
 33554687
100
AcDbHatch
 10
0.0
 20
0.0
 30
0.0
210
0.0
220
0.0
230
1.0
  2
SOLID
 70
     1
 71
     1
 91
        1
 92
        1
 93
        1
 72
     4
 94
        3
 73
     0
 74
     0
 95
       29
 96
       25
 40
0.0
 40
0.0
 40
0.0
 40
0.0
 40
1.0
 40
1.0
 40
1.0
 40
2.0
 40
2.0
 40
2.0
 40
3.0
 40
3.0
 40
3.0
 40
4.0
 40
4.0
 40
4.0
 40
5.0
 40
5.0
 40
5.0
 40
6.0
 40
6.0
 40
6.0
 40
7.0
 40
7.0
 40
7.0
 40
8.0
 40
8.0
 40
8.0
 40
8.0
 10
110.5159070904266
 20
-147.3556911523972
 10
110.5159070904266
 20
-147.3556911523972
 10
110.0315266652004
 20
-147.3556911523972
 10
110.0315266652004
 20
-147.3556911523972
 10
110.0039659013184
 20
-147.3556911523972
 10
109.6866726071269
 20
-147.3556911523972
 10
109.4751437443326
 20
-147.3810126042138
 10
109.4751437443326
 20
-147.3810126042138
 10
109.4751437443326
 20
-147.1505357162506
 10
109.4751437443326
 20
-147.1505357162506
 10
109.6339626462026
 20
-147.173790110776
 10
109.8241319169884
 20
-147.1758571680671
 10
110.0315266652004
 20
-147.1758571680671
 10
110.0315266652004
 20
-147.1758571680671
 10
110.5159070904266
 20
-147.1758571680671
 10
110.5159070904266
 20
-147.1758571680671
 10
110.7022867561786
 20
-147.1758571680671
 10
110.8883219123821
 20
-147.173790110776
 10
111.0722900112944
 20
-147.1505357162506
 10
111.0722900112944
 20
-147.1505357162506
 10
111.0722900112944
 20
-147.3810126042138
 10
111.0722900112944
 20
-147.3810126042138
 10
110.8883219123821
 20
-147.3577582096883
 10
110.6409640565411
 20
-147.3556911523972
 10
110.5159070904266
 20
-147.3556911523972
 97
        0
 97
        1
330
F6
 75
     2
 76
     1
 98
        1
 10
0.0
 20
0.0
450
        0
451
        0
460
0.0
461
0.0
452
        0
462
0.0
453
        0
470

  0
SPLINE
  5
F8
330
E6
100
AcDbEntity
  8
レイヤー 1
100
AcDbSpline
210
0.0
220
0.0
230
1.0
 70
     9
 71
     3
 72
    47
 73
    43
 74
     0
 42
0.0000000001
 43
0.0000000001
 40
0.0
 40
0.0
 40
0.0
 40
0.0
 40
1.0
 40
1.0
 40
1.0
 40
2.0
 40
2.0
 40
2.0
 40
3.0
 40
3.0
 40
3.0
 40
4.0
 40
4.0
 40
4.0
 40
5.0
 40
5.0
 40
5.0
 40
6.0
 40
6.0
 40
6.0
 40
7.0
 40
7.0
 40
7.0
 40
8.0
 40
8.0
 40
8.0
 40
9.0
 40
9.0
 40
9.0
 40
10.0
 40
10.0
 40
10.0
 40
11.0
 40
11.0
 40
11.0
 40
12.0
 40
12.0
 40
12.0
 40
13.0
 40
13.0
 40
13.0
 40
14.0
 40
14.0
 40
14.0
 40
14.0
 10
112.7362711306701
 20
-146.7612399264173
 30
0.0
 10
112.6663356923195
 20
-147.0404649154968
 30
0.0
 10
112.5901990820955
 20
-147.3451836111672
 30
0.0
 10
112.2770399024863
 20
-147.6772908159452
 30
0.0
 10
112.0400173331011
 20
-147.9268879838516
 30
0.0
 10
111.7947265345513
 20
-148.026278988601
 30
0.0
 10
111.6889621031541
 20
-148.0686536630696
 30
0.0
 10
111.6889621031541
 20
-148.0686536630696
 30
0.0
 10
111.4943142082375
 20
-147.8867526214484
 30
0.0
 10
111.4943142082375
 20
-147.8867526214484
 30
0.0
 10
111.680349364441
 20
-147.8400715776233
 30
0.0
 10
112.0424288999408
 20
-147.7470539995215
 30
0.0
 10
112.3383626021237
 20
-147.2519937782911
 30
0.0
 10
112.4992485612849
 20
-146.9855156425071
 30
0.0
 10
112.5119954145803
 20
-146.8120550848247
 30
0.0
 10
112.5202636437449
 20
-146.7211045640142
 30
0.0
 10
112.5202636437449
 20
-146.7211045640142
 30
0.0
 10
112.0148681360588
 20
-146.7211045640142
 30
0.0
 10
112.0148681360588
 20
-146.7211045640142
 30
0.0
 10
111.8963568513662
 20
-146.7211045640142
 30
0.0
 10
111.4753661830686
 20
-146.740052589183
 30
0.0
 10
111.3230929626206
 20
-146.750560130413
 30
0.0
 10
111.3230929626206
 20
-146.750560130413
 30
0.0
 10
111.3230929626206
 20
-146.5412705796841
 30
0.0
 10
111.3230929626206
 20
-146.5412705796841
 30
0.0
 10
111.4646863870644
 20
-146.5538451782053
 30
0.0
 10
111.742016573627
 20
-146.5581515475618
 30
0.0
 10
111.8581162914799
 20
-146.5581515475618
 30
0.0
 10
111.8581162914799
 20
-146.5581515475618
 30
0.0
 10
112.2136501455577
 20
-146.5581515475618
 30
0.0
 10
112.2136501455577
 20
-146.5581515475618
 30
0.0
 10
112.2412109094397
 20
-146.5581515475618
 30
0.0
 10
112.4017523590523
 20
-146.5560844902707
 30
0.0
 10
112.5119954145803
 20
-146.5412705796841
 30
0.0
 10
112.5691839996355
 20
-146.5348971530364
 30
0.0
 10
112.5860649675132
 20
-146.5157768730932
 30
0.0
 10
112.6091471072644
 20
-146.4925224785678
 30
0.0
 10
112.6091471072644
 20
-146.4925224785678
 30
0.0
 10
112.7975938303075
 20
-146.6427286417247
 30
0.0
 10
112.7975938303075
 20
-146.6427286417247
 30
0.0
 10
112.782779919721
 20
-146.6723564628979
 30
0.0
 10
112.7721001237167
 20
-146.691476742841
 30
0.0
 10
112.7362711306701
 20
-146.7612399264173
 30
0.0
  0
HATCH
  5
F9
330
E6
100
AcDbEntity
  8
レイヤー 1
 62
    18
420
        0
440
 33554687
100
AcDbHatch
 10
0.0
 20
0.0
 30
0.0
210
0.0
220
0.0
230
1.0
  2
SOLID
 70
     1
 71
     1
 91
        1
 92
        1
 93
        1
 72
     4
 94
        3
 73
     0
 74
     0
 95
       47
 96
       43
 40
0.0
 40
0.0
 40
0.0
 40
0.0
 40
1.0
 40
1.0
 40
1.0
 40
2.0
 40
2.0
 40
2.0
 40
3.0
 40
3.0
 40
3.0
 40
4.0
 40
4.0
 40
4.0
 40
5.0
 40
5.0
 40
5.0
 40
6.0
 40
6.0
 40
6.0
 40
7.0
 40
7.0
 40
7.0
 40
8.0
 40
8.0
 40
8.0
 40
9.0
 40
9.0
 40
9.0
 40
10.0
 40
10.0
 40
10.0
 40
11.0
 40
11.0
 40
11.0
 40
12.0
 40
12.0
 40
12.0
 40
13.0
 40
13.0
 40
13.0
 40
14.0
 40
14.0
 40
14.0
 40
14.0
 10
112.7362711306701
 20
-146.7612399264173
 10
112.6663356923195
 20
-147.0404649154968
 10
112.5901990820955
 20
-147.3451836111672
 10
112.2770399024863
 20
-147.6772908159452
 10
112.0400173331011
 20
-147.9268879838516
 10
111.7947265345513
 20
-148.026278988601
 10
111.6889621031541
 20
-148.0686536630696
 10
111.6889621031541
 20
-148.0686536630696
 10
111.4943142082375
 20
-147.8867526214484
 10
111.4943142082375
 20
-147.8867526214484
 10
111.680349364441
 20
-147.8400715776233
 10
112.0424288999408
 20
-147.7470539995215
 10
112.3383626021237
 20
-147.2519937782911
 10
112.4992485612849
 20
-146.9855156425071
 10
112.5119954145803
 20
-146.8120550848247
 10
112.5202636437449
 20
-146.7211045640142
 10
112.5202636437449
 20
-146.7211045640142
 10
112.0148681360588
 20
-146.7211045640142
 10
112.0148681360588
 20
-146.7211045640142
 10
111.8963568513662
 20
-146.7211045640142
 10
111.4753661830686
 20
-146.740052589183
 10
111.3230929626206
 20
-146.750560130413
 10
111.3230929626206
 20
-146.750560130413
 10
111.3230929626206
 20
-146.5412705796841
 10
111.3230929626206
 20
-146.5412705796841
 10
111.4646863870644
 20
-146.5538451782053
 10
111.742016573627
 20
-146.5581515475618
 10
111.8581162914799
 20
-146.5581515475618
 10
111.8581162914799
 20
-146.5581515475618
 10
112.2136501455577
 20
-146.5581515475618
 10
112.2136501455577
 20
-146.5581515475618
 10
112.2412109094397
 20
-146.5581515475618
 10
112.4017523590523
 20
-146.5560844902707
 10
112.5119954145803
 20
-146.5412705796841
 10
112.5691839996355
 20
-146.5348971530364
 10
112.5860649675132
 20
-146.5157768730932
 10
112.6091471072644
 20
-146.4925224785678
 10
112.6091471072644
 20
-146.4925224785678
 10
112.7975938303075
 20
-146.6427286417247
 10
112.7975938303075
 20
-146.6427286417247
 10
112.782779919721
 20
-146.6723564628979
 10
112.7721001237167
 20
-146.691476742841
 10
112.7362711306701
 20
-146.7612399264173
 97
        0
 97
        1
330
F8
 75
     2
 76
     1
 98
        1
 10
0.0
 20
0.0
450
        0
451
        0
460
0.0
461
0.0
452
        0
462
0.0
453
        0
470

  0
SPLINE
  5
FA
330
E6
100
AcDbEntity
  8
レイヤー 1
100
AcDbSpline
210
0.0
220
0.0
230
1.0
 70
    11
 71
     3
 72
    17
 73
    13
 74
     0
 42
0.0000000001
 43
0.0000000001
 40
0.0
 40
0.0
 40
0.0
 40
0.0
 40
1.0
 40
1.0
 40
1.0
 40
2.0
 40
2.0
 40
2.0
 40
3.0
 40
3.0
 40
3.0
 40
4.0
 40
4.0
 40
4.0
 40
4.0
 10
113.1266004491489
 20
-146.5433376369753
 30
0.0
 10
113.1266004491489
 20
-146.6025932793216
 30
0.0
 10
113.1731092381998
 20
-146.6491020683724
 30
0.0
 10
113.2323648805461
 20
-146.6491020683724
 30
0.0
 10
113.2916205228923
 20
-146.6491020683724
 30
0.0
 10
113.3401963692344
 20
-146.6025932793216
 30
0.0
 10
113.3401963692344
 20
-146.5433376369753
 30
0.0
 10
113.3401963692344
 20
-146.484081994629
 30
0.0
 10
113.2916205228923
 20
-146.4355061482869
 30
0.0
 10
113.2323648805461
 20
-146.4355061482869
 30
0.0
 10
113.1731092381998
 20
-146.4355061482869
 30
0.0
 10
113.1266004491489
 20
-146.484081994629
 30
0.0
 10
113.1266004491489
 20
-146.5433376369753
 30
0.0
  0
SPLINE
  5
FB
330
E6
100
AcDbEntity
  8
レイヤー 1
100
AcDbSpline
210
0.0
220
0.0
230
1.0
 70
     9
 71
     3
 72
    17
 73
    13
 74
     0
 42
0.0000000001
 43
0.0000000001
 40
0.0
 40
0.0
 40
0.0
 40
0.0
 40
1.0
 40
1.0
 40
1.0
 40
2.0
 40
2.0
 40
2.0
 40
3.0
 40
3.0
 40
3.0
 40
4.0
 40
4.0
 40
4.0
 40
4.0
 10
113.4414821765007
 20
-146.5433376369753
 30
0.0
 10
113.4414821765007
 20
-146.6575425523113
 30
0.0
 10
113.348464598399
 20
-146.7527994424784
 30
0.0
 10
113.2323648805461
 20
-146.7527994424784
 30
0.0
 10
113.1179877104358
 20
-146.7527994424784
 30
0.0
 10
113.0229030750429
 20
-146.6575425523113
 30
0.0
 10
113.0229030750429
 20
-146.5433376369753
 30
0.0
 10
113.0229030750429
 20
-146.4268934095738
 30
0.0
 10
113.1179877104358
 20
-146.3338758314721
 30
0.0
 10
113.2323648805461
 20
-146.3338758314721
 30
0.0
 10
113.3463975411078
 20
-146.3338758314721
 30
0.0
 10
113.4414821765007
 20
-146.4268934095738
 30
0.0
 10
113.4414821765007
 20
-146.5433376369753
 30
0.0
  0
HATCH
  5
FC
330
E6
100
AcDbEntity
  8
レイヤー 1
 62
    18
420
        0
440
 33554687
100
AcDbHatch
 10
0.0
 20
0.0
 30
0.0
210
0.0
220
0.0
230
1.0
  2
SOLID
 70
     1
 71
     1
 91
        2
 92
        1
 93
        1
 72
     4
 94
        3
 73
     0
 74
     0
 95
       17
 96
       13
 40
0.0
 40
0.0
 40
0.0
 40
0.0
 40
1.0
 40
1.0
 40
1.0
 40
2.0
 40
2.0
 40
2.0
 40
3.0
 40
3.0
 40
3.0
 40
4.0
 40
4.0
 40
4.0
 40
4.0
 10
113.1266004491489
 20
-146.5433376369753
 10
113.1266004491489
 20
-146.6025932793216
 10
113.1731092381998
 20
-146.6491020683724
 10
113.2323648805461
 20
-146.6491020683724
 10
113.2916205228923
 20
-146.6491020683724
 10
113.3401963692344
 20
-146.6025932793216
 10
113.3401963692344
 20
-146.5433376369753
 10
113.3401963692344
 20
-146.484081994629
 10
113.2916205228923
 20
-146.4355061482869
 10
113.2323648805461
 20
-146.4355061482869
 10
113.1731092381998
 20
-146.4355061482869
 10
113.1266004491489
 20
-146.484081994629
 10
113.1266004491489
 20
-146.5433376369753
 97
        0
 97
        1
330
FA
 92
        1
 93
        1
 72
     4
 94
        3
 73
     0
 74
     0
 95
       17
 96
       13
 40
0.0
 40
0.0
 40
0.0
 40
0.0
 40
1.0
 40
1.0
 40
1.0
 40
2.0
 40
2.0
 40
2.0
 40
3.0
 40
3.0
 40
3.0
 40
4.0
 40
4.0
 40
4.0
 40
4.0
 10
113.4414821765007
 20
-146.5433376369753
 10
113.4414821765007
 20
-146.6575425523113
 10
113.348464598399
 20
-146.7527994424784
 10
113.2323648805461
 20
-146.7527994424784
 10
113.1179877104358
 20
-146.7527994424784
 10
113.0229030750429
 20
-146.6575425523113
 10
113.0229030750429
 20
-146.5433376369753
 10
113.0229030750429
 20
-146.4268934095738
 10
113.1179877104358
 20
-146.3338758314721
 10
113.2323648805461
 20
-146.3338758314721
 10
113.3463975411078
 20
-146.3338758314721
 10
113.4414821765007
 20
-146.4268934095738
 10
113.4414821765007
 20
-146.5433376369753
 97
        0
 97
        1
330
FB
 75
     2
 76
     1
 98
        1
 10
0.0
 20
0.0
450
        0
451
        0
460
0.0
461
0.0
452
        0
462
0.0
453
        0
470

  0
ENDBLK
  5
E9
330
E6
100
AcDbEntity
  8
0
100
AcDbBlockEnd
  0
ENDSEC
  0
SECTION
  2
ENTITIES
  0
INSERT
  5
7A
330
70
100
AcDbEntity
  8
レイヤー 1
100
AcDbBlockReference
  2
Block_0
 10
0.0
 20
0.0
 30
0.0
  0
LINE
  5
D9
330
70
100
AcDbEntity
  8
レイヤー 1
  6
AI-Linetype-0
 62
   154
420
    23468
370
    25
100
AcDbLine
 10
103.6160333834719
 20
-150.4198156278626
 30
0.0
 11
113.6618877592818
 21
-150.4198156278626
 31
0.0
  0
INSERT
  5
DC
330
70
100
AcDbEntity
  8
レイヤー 1
100
AcDbBlockReference
  2
Block_10
 10
0.0
 20
0.0
 30
0.0
  0
INSERT
  5
E3
330
70
100
AcDbEntity
  8
レイヤー 1
100
AcDbBlockReference
  2
Block_11
 10
0.0
 20
0.0
 30
0.0
  0
ENDSEC
  0
SECTION
  2
OBJECTS
  0
DICTIONARY
  5
C
330
0
100
AcDbDictionary
281
     1
  3
ACAD_COLOR
350
63
  3
ACAD_DETAILVIEWSTYLE
350
6A
  3
ACAD_GROUP
350
D
  3
ACAD_LAYOUT
350
62
  3
ACAD_MATERIAL
350
10
  3
ACAD_MLEADERSTYLE
350
66
  3
ACAD_MLINESTYLE
350
5F
  3
ACAD_PLOTSETTINGS
350
61
  3
ACAD_PLOTSTYLENAME
350
E
  3
ACAD_SCALELIST
350
42
  3
ACAD_SECTIONVIEWSTYLE
350
68
  3
ACAD_TABLESTYLE
350
64
  3
ACAD_VISUALSTYLE
350
29
  3
ACDB_RECOMPOSE_DATA
350
105
  3
AcDbVariableDictionary
350
FD
  0
DICTIONARY
  5
63
102
{ACAD_REACTORS
330
C
102
}
330
C
100
AcDbDictionary
281
     1
  0
DICTIONARY
  5
6A
102
{ACAD_REACTORS
330
C
102
}
330
C
100
AcDbDictionary
281
     1
  3
Imperial24
350
6B
  0
DICTIONARY
  5
D
102
{ACAD_REACTORS
330
C
102
}
330
C
100
AcDbDictionary
281
     1
  0
DICTIONARY
  5
62
102
{ACAD_REACTORS
330
C
102
}
330
C
100
AcDbDictionary
281
     1
  3
Layout1
350
6F
  3
Layout2
350
77
  3
Model
350
73
  0
DICTIONARY
  5
10
102
{ACAD_REACTORS
330
C
102
}
330
C
100
AcDbDictionary
281
     1
  3
ByBlock
350
19
  3
ByLayer
350
11
  3
Global
350
21
  0
DICTIONARY
  5
66
102
{ACAD_REACTORS
330
C
102
}
330
C
100
AcDbDictionary
281
     1
  3
Standard
350
67
  0
DICTIONARY
  5
5F
102
{ACAD_REACTORS
330
C
102
}
330
C
100
AcDbDictionary
281
     1
  3
Standard
350
60
  0
DICTIONARY
  5
61
102
{ACAD_REACTORS
330
C
102
}
330
C
100
AcDbDictionary
281
     1
  0
ACDBDICTIONARYWDFLT
  5
E
102
{ACAD_REACTORS
330
C
102
}
330
C
100
AcDbDictionary
281
     1
  3
Normal
350
F
100
AcDbDictionaryWithDefault
340
F
  0
DICTIONARY
  5
42
102
{ACAD_REACTORS
330
C
102
}
330
C
100
AcDbDictionary
281
     1
  3
A0
350
43
  3
A1
350
44
  3
A2
350
45
  3
A3
350
46
  3
A4
350
47
  3
A5
350
48
  3
A6
350
49
  3
A7
350
4A
  3
A8
350
4B
  3
A9
350
4C
  3
B0
350
4D
  3
B1
350
4E
  3
B2
350
4F
  3
B3
350
50
  3
B4
350
51
  3
B5
350
52
  3
B6
350
53
  0
DICTIONARY
  5
68
102
{ACAD_REACTORS
330
C
102
}
330
C
100
AcDbDictionary
281
     1
  3
Imperial24
350
69
  0
DICTIONARY
  5
64
102
{ACAD_REACTORS
330
C
102
}
330
C
100
AcDbDictionary
281
     1
  3
Standard
350
65
  0
DICTIONARY
  5
29
102
{ACAD_REACTORS
330
C
102
}
330
C
100
AcDbDictionary
281
     1
  3
2dWireframe
350
2F
  3
Basic
350
2E
  3
Brighten
350
35
  3
ColorChange
350
39
  3
Conceptual
350
32
  3
Dim
350
34
  3
EdgeColorOff
350
41
  3
Facepattern
350
38
  3
Flat
350
2A
  3
FlatWithEdges
350
2B
  3
Gouraud
350
2C
  3
GouraudWithEdges
350
2D
  3
Hidden
350
31
  3
JitterOff
350
3F
  3
Linepattern
350
37
  3
OverhangOff
350
40
  3
Realistic
350
33
  3
Shaded
350
3E
  3
Shaded with edges
350
3D
  3
Shades of Gray
350
3A
  3
Sketchy
350
3B
  3
Thicken
350
36
  3
Wireframe
350
30
  3
X-Ray
350
3C
  0
XRECORD
  5
105
102
{ACAD_REACTORS
330
C
102
}
330
C
100
AcDbXrecord
280
     1
 90
        1
330
65
  0
DICTIONARY
  5
FD
102
{ACAD_REACTORS
330
C
102
}
330
C
100
AcDbDictionary
281
     1
  3
CANNOSCALE
350
102
  3
CMLEADERSTYLE
350
FF
  3
CTABLESTYLE
350
FE
  3
CVIEWDETAILSTYLE
350
100
  3
CVIEWSECTIONSTYLE
350
101
  0
ACDBDETAILVIEWSTYLE
  5
6B
102
{ACAD_XDICTIONARY
360
13A
102
}
102
{ACAD_REACTORS
330
6A
102
}
330
6A
100
AcDbModelDocViewStyle
 70
     0
  3
Imperial24
290
     0
100
AcDbDetailViewStyle
 70
     0
 71
     0
 90
        3
 71
     1
340
55
 62
   256
 40
0.24
340
0
 62
   256
 40
0.24
300

 40
0.36
280
     3
 71
     2
340
5D
 90
       25
 62
   256
 71
     3
340
55
 62
   256
 40
0.24
 90
        1
 40
0.75
 90
        1
300
%<\AcVar ViewType \f "%tc1">% %<\AcVar ViewDetailId>%\PSCALE %<\AcVar ViewScale \f "%sn">%
 71
     4
340
5D
 90
       25
 62
   256
340
5D
 90
       25
 62
   256
280
     0
  0
LAYOUT
  5
6F
102
{ACAD_REACTORS
330
62
102
}
330
62
100
AcDbPlotSettings
  1

  2

  4

  6

 40
0.0
 41
0.0
 42
0.0
 43
0.0
 44
0.0
 45
0.0
 46
0.0
 47
0.0
 48
0.0
 49
0.0
140
0.0
141
0.0
142
1.0
143
1.0
 70
   688
 72
     0
 73
     0
 74
     5
  7

 75
    16
147
1.0
 76
     0
 77
     2
 78
   300
148
0.0
149
0.0
100
AcDbLayout
  1
Layout1
 70
     1
 71
     1
 10
0.0
 20
0.0
 11
12.0
 21
9.0
 12
0.0
 22
0.0
 32
0.0
 14
0.0
 24
0.0
 34
0.0
 15
0.0
 25
0.0
 35
0.0
146
0.0
 13
0.0
 23
0.0
 33
0.0
 16
1.0
 26
0.0
 36
0.0
 17
0.0
 27
1.0
 37
0.0
 76
     0
330
6C
  0
LAYOUT
  5
77
102
{ACAD_REACTORS
330
62
102
}
330
62
100
AcDbPlotSettings
  1

  2

  4

  6

 40
0.0
 41
0.0
 42
0.0
 43
0.0
 44
0.0
 45
0.0
 46
0.0
 47
0.0
 48
0.0
 49
0.0
140
0.0
141
0.0
142
1.0
143
1.0
 70
   688
 72
     0
 73
     0
 74
     5
  7

 75
    16
147
1.0
 76
     0
 77
     2
 78
   300
148
0.0
149
0.0
100
AcDbLayout
  1
Layout2
 70
     1
 71
     2
 10
0.0
 20
0.0
 11
12.0
 21
9.0
 12
0.0
 22
0.0
 32
0.0
 14
0.0
 24
0.0
 34
0.0
 15
0.0
 25
0.0
 35
0.0
146
0.0
 13
0.0
 23
0.0
 33
0.0
 16
1.0
 26
0.0
 36
0.0
 17
0.0
 27
1.0
 37
0.0
 76
     0
330
74
  0
LAYOUT
  5
73
102
{ACAD_REACTORS
330
62
102
}
330
62
100
AcDbPlotSettings
  1

  2

  4

  6

 40
0.0
 41
0.0
 42
0.0
 43
0.0
 44
0.0
 45
0.0
 46
0.0
 47
0.0
 48
0.0
 49
0.0
140
0.0
141
0.0
142
1.0
143
1.0
 70
  1712
 72
     0
 73
     0
 74
     0
  7

 75
     0
147
1.0
 76
     0
 77
     2
 78
   300
148
0.0
149
0.0
100
AcDbLayout
  1
Model
 70
     1
 71
     0
 10
0.0
 20
0.0
 11
12.0
 21
9.0
 12
0.0
 22
0.0
 32
0.0
 14
0.0
 24
0.0
 34
0.0
 15
0.0
 25
0.0
 35
0.0
146
0.0
 13
0.0
 23
0.0
 33
0.0
 16
1.0
 26
0.0
 36
0.0
 17
0.0
 27
1.0
 37
0.0
 76
     0
330
70
  0
MATERIAL
  5
19
102
{ACAD_XDICTIONARY
360
1A
102
}
102
{ACAD_REACTORS
330
10
102
}
330
10
100
AcDbMaterial
  1
ByBlock
 72
     0
 43
0.0208333333333333
 43
0.0
 43
0.0
 43
0.0
 43
0.0
 43
0.0208333333333333
 43
0.0
 43
0.0
 43
0.0
 43
0.0
 43
1.0
 43
0.0
 43
0.0
 43
0.0
 43
0.0
 43
1.0
 77
     0
 47
0.0208333333333333
 47
0.0
 47
0.0
 47
0.0
 47
0.0
 47
0.0208333333333333
 47
0.0
 47
0.0
 47
0.0
 47
0.0
 47
1.0
 47
0.0
 47
0.0
 47
0.0
 47
0.0
 47
1.0
171
     0
 49
0.0208333333333333
 49
0.0
 49
0.0
 49
0.0
 49
0.0
 49
0.0208333333333333
 49
0.0
 49
0.0
 49
0.0
 49
0.0
 49
1.0
 49
0.0
 49
0.0
 49
0.0
 49
0.0
 49
1.0
175
     0
142
0.0208333333333333
142
0.0
142
0.0
142
0.0
142
0.0
142
0.0208333333333333
142
0.0
142
0.0
142
0.0
142
0.0
142
1.0
142
0.0
142
0.0
142
0.0
142
0.0
142
1.0
179
     0
144
0.0208333333333333
144
0.0
144
0.0
144
0.0
144
0.0
144
0.0208333333333333
144
0.0
144
0.0
144
0.0
144
0.0
144
1.0
144
0.0
144
0.0
144
0.0
144
0.0
144
1.0
147
0.0208333333333333
147
0.0
147
0.0
147
0.0
147
0.0
147
0.0208333333333333
147
0.0
147
0.0
147
0.0
147
0.0
147
1.0
147
0.0
147
0.0
147
0.0
147
0.0
147
1.0
  0
MATERIAL
  5
11
102
{ACAD_XDICTIONARY
360
12
102
}
102
{ACAD_REACTORS
330
10
102
}
330
10
100
AcDbMaterial
  1
ByLayer
 72
     0
 43
0.0208333333333333
 43
0.0
 43
0.0
 43
0.0
 43
0.0
 43
0.0208333333333333
 43
0.0
 43
0.0
 43
0.0
 43
0.0
 43
1.0
 43
0.0
 43
0.0
 43
0.0
 43
0.0
 43
1.0
 77
     0
 47
0.0208333333333333
 47
0.0
 47
0.0
 47
0.0
 47
0.0
 47
0.0208333333333333
 47
0.0
 47
0.0
 47
0.0
 47
0.0
 47
1.0
 47
0.0
 47
0.0
 47
0.0
 47
0.0
 47
1.0
171
     0
 49
0.0208333333333333
 49
0.0
 49
0.0
 49
0.0
 49
0.0
 49
0.0208333333333333
 49
0.0
 49
0.0
 49
0.0
 49
0.0
 49
1.0
 49
0.0
 49
0.0
 49
0.0
 49
0.0
 49
1.0
175
     0
142
0.0208333333333333
142
0.0
142
0.0
142
0.0
142
0.0
142
0.0208333333333333
142
0.0
142
0.0
142
0.0
142
0.0
142
1.0
142
0.0
142
0.0
142
0.0
142
0.0
142
1.0
179
     0
144
0.0208333333333333
144
0.0
144
0.0
144
0.0
144
0.0
144
0.0208333333333333
144
0.0
144
0.0
144
0.0
144
0.0
144
1.0
144
0.0
144
0.0
144
0.0
144
0.0
144
1.0
147
0.0208333333333333
147
0.0
147
0.0
147
0.0
147
0.0
147
0.0208333333333333
147
0.0
147
0.0
147
0.0
147
0.0
147
1.0
147
0.0
147
0.0
147
0.0
147
0.0
147
1.0
  0
MATERIAL
  5
21
102
{ACAD_XDICTIONARY
360
22
102
}
102
{ACAD_REACTORS
330
10
102
}
330
10
100
AcDbMaterial
  1
Global
 72
     0
 43
0.0208333333333333
 43
0.0
 43
0.0
 43
0.0
 43
0.0
 43
0.0208333333333333
 43
0.0
 43
0.0
 43
0.0
 43
0.0
 43
1.0
 43
0.0
 43
0.0
 43
0.0
 43
0.0
 43
1.0
 77
     0
 47
0.0208333333333333
 47
0.0
 47
0.0
 47
0.0
 47
0.0
 47
0.0208333333333333
 47
0.0
 47
0.0
 47
0.0
 47
0.0
 47
1.0
 47
0.0
 47
0.0
 47
0.0
 47
0.0
 47
1.0
171
     0
 49
0.0208333333333333
 49
0.0
 49
0.0
 49
0.0
 49
0.0
 49
0.0208333333333333
 49
0.0
 49
0.0
 49
0.0
 49
0.0
 49
1.0
 49
0.0
 49
0.0
 49
0.0
 49
0.0
 49
1.0
175
     0
142
0.0208333333333333
142
0.0
142
0.0
142
0.0
142
0.0
142
0.0208333333333333
142
0.0
142
0.0
142
0.0
142
0.0
142
1.0
142
0.0
142
0.0
142
0.0
142
0.0
142
1.0
179
     0
144
0.0208333333333333
144
0.0
144
0.0
144
0.0
144
0.0
144
0.0208333333333333
144
0.0
144
0.0
144
0.0
144
0.0
144
1.0
144
0.0
144
0.0
144
0.0
144
0.0
144
1.0
147
0.0208333333333333
147
0.0
147
0.0
147
0.0
147
0.0
147
0.0208333333333333
147
0.0
147
0.0
147
0.0
147
0.0
147
1.0
147
0.0
147
0.0
147
0.0
147
0.0
147
1.0
  0
MLEADERSTYLE
  5
67
102
{ACAD_XDICTIONARY
360
136
102
}
102
{ACAD_REACTORS
330
66
102
}
330
66
100
AcDbMLeaderStyle
179
     2
170
     2
171
     1
172
     0
 90
        2
 40
0.0
 41
0.0
173
     1
 91
-1056964608
340
5B
 92
       -2
290
     1
 42
0.09
291
     1
 43
0.36
  3
Standard
 44
0.18
300

342
55
174
     1
178
     6
175
     1
176
     0
 93
-1056964608
 45
0.18
292
     0
297
     0
 46
0.18
 94
-1056964608
 47
1.0
 49
1.0
140
1.0
293
     1
141
0.0
294
     1
177
     0
142
1.0
295
     0
296
     0
143
0.125
271
     0
272
     9
273
     9
  0
MLINESTYLE
  5
60
102
{ACAD_REACTORS
330
5F
102
}
330
5F
100
AcDbMlineStyle
  2
STANDARD
 70
     0
  3

 62
   256
 51
90.0
 52
90.0
 71
     2
 49
0.5
 62
   256
  6
BYLAYER
 49
-0.5
 62
   256
  6
BYLAYER
  0
ACDBPLACEHOLDER
  5
F
102
{ACAD_REACTORS
330
E
102
}
330
E
  0
SCALE
  5
43
102
{ACAD_REACTORS
330
42
102
}
330
42
100
AcDbScale
 70
     0
300
1:1
140
1.0
141
1.0
290
     1
  0
SCALE
  5
44
102
{ACAD_REACTORS
330
42
102
}
330
42
100
AcDbScale
 70
     0
300
1/128" = 1'-0"
140
0.0078125
141
12.0
290
     0
  0
SCALE
  5
45
102
{ACAD_REACTORS
330
42
102
}
330
42
100
AcDbScale
 70
     0
300
1/64" = 1'-0"
140
0.015625
141
12.0
290
     0
  0
SCALE
  5
46
102
{ACAD_REACTORS
330
42
102
}
330
42
100
AcDbScale
 70
     0
300
1/32" = 1'-0"
140
0.03125
141
12.0
290
     0
  0
SCALE
  5
47
102
{ACAD_REACTORS
330
42
102
}
330
42
100
AcDbScale
 70
     0
300
1/16" = 1'-0"
140
0.0625
141
12.0
290
     0
  0
SCALE
  5
48
102
{ACAD_REACTORS
330
42
102
}
330
42
100
AcDbScale
 70
     0
300
3/32" = 1'-0"
140
0.09375
141
12.0
290
     0
  0
SCALE
  5
49
102
{ACAD_REACTORS
330
42
102
}
330
42
100
AcDbScale
 70
     0
300
1/8" = 1'-0"
140
0.125
141
12.0
290
     0
  0
SCALE
  5
4A
102
{ACAD_REACTORS
330
42
102
}
330
42
100
AcDbScale
 70
     0
300
3/16" = 1'-0"
140
0.1875
141
12.0
290
     0
  0
SCALE
  5
4B
102
{ACAD_REACTORS
330
42
102
}
330
42
100
AcDbScale
 70
     0
300
1/4" = 1'-0"
140
0.25
141
12.0
290
     0
  0
SCALE
  5
4C
102
{ACAD_REACTORS
330
42
102
}
330
42
100
AcDbScale
 70
     0
300
3/8" = 1'-0"
140
0.375
141
12.0
290
     0
  0
SCALE
  5
4D
102
{ACAD_REACTORS
330
42
102
}
330
42
100
AcDbScale
 70
     0
300
1/2" = 1'-0"
140
0.5
141
12.0
290
     0
  0
SCALE
  5
4E
102
{ACAD_REACTORS
330
42
102
}
330
42
100
AcDbScale
 70
     0
300
3/4" = 1'-0"
140
0.75
141
12.0
290
     0
  0
SCALE
  5
4F
102
{ACAD_REACTORS
330
42
102
}
330
42
100
AcDbScale
 70
     0
300
1" = 1'-0"
140
1.0
141
12.0
290
     0
  0
SCALE
  5
50
102
{ACAD_REACTORS
330
42
102
}
330
42
100
AcDbScale
 70
     0
300
1-1/2" = 1'-0"
140
1.5
141
12.0
290
     0
  0
SCALE
  5
51
102
{ACAD_REACTORS
330
42
102
}
330
42
100
AcDbScale
 70
     0
300
3" = 1'-0"
140
3.0
141
12.0
290
     0
  0
SCALE
  5
52
102
{ACAD_REACTORS
330
42
102
}
330
42
100
AcDbScale
 70
     0
300
6" = 1'-0"
140
6.0
141
12.0
290
     0
  0
SCALE
  5
53
102
{ACAD_REACTORS
330
42
102
}
330
42
100
AcDbScale
 70
     0
300
1'-0" = 1'-0"
140
12.0
141
12.0
290
     0
  0
ACDBSECTIONVIEWSTYLE
  5
69
102
{ACAD_XDICTIONARY
360
138
102
}
102
{ACAD_REACTORS
330
68
102
}
330
68
100
AcDbModelDocViewStyle
 70
     0
  3
Imperial24
290
     0
100
AcDbSectionViewStyle
 70
     0
 71
     0
 90
       78
 71
     1
340
55
 62
   256
 40
0.24
340
0
340
0
 62
   256
 40
0.24
300
I, O, Q, S, X, Z
 40
0.48
 90
        3
 40
0.18
 90
        1
 71
     2
340
5D
 90
       25
 62
   256
340
5D
 90
       50
 62
   256
 40
0.24
 40
0.0
 40
0.24
 71
     3
340
55
 62
   256
 40
0.24
 90
        1
 40
0.75
 90
        1
300
%<\AcVar ViewType \f "%tc1">% %<\AcVar ViewSectionStartId>%-%<\AcVar ViewSectionEndId>%\PSCALE %<\AcVar ViewScale \f "%sn">%
 71
     4
 62
   256
 62
   257
300
ANSI31
 40
1.0
 90
        0
290
     0
290
     0
 90
        6
 40
0.0
 40
1.570796326794896
 40
0.2617993877991494
 40
1.308996938995747
 40
-0.2617993877991494
 40
1.832595714594046
  0
TABLESTYLE
  5
65
102
{ACAD_XDICTIONARY
360
103
102
}
102
{ACAD_REACTORS
330
64
102
}
330
64
100
AcDbTableStyle
280
     0
  3
Standard
 70
     0
 71
     0
 40
0.06
 41
0.06
280
     0
281
     0
  7
Standard
140
0.18
170
     2
 62
     0
 63
     7
283
     0
 90
      512
 91
        0
  1

274
    -2
284
     1
 64
     0
275
    -2
285
     1
 65
     0
276
    -2
286
     1
 66
     0
277
    -2
287
     1
 67
     0
278
    -2
288
     1
 68
     0
279
    -2
289
     1
 69
     0
  7
Standard
140
0.25
170
     5
 62
     0
 63
     7
283
     0
 90
      512
 91
        0
  1

274
    -2
284
     1
 64
     0
275
    -2
285
     1
 65
     0
276
    -2
286
     1
 66
     0
277
    -2
287
     1
 67
     0
278
    -2
288
     1
 68
     0
279
    -2
289
     1
 69
     0
  7
Standard
140
0.18
170
     5
 62
     0
 63
     7
283
     0
 90
      512
 91
        0
  1

274
    -2
284
     1
 64
     0
275
    -2
285
     1
 65
     0
276
    -2
286
     1
 66
     0
277
    -2
287
     1
 67
     0
278
    -2
288
     1
 68
     0
279
    -2
289
     1
 69
     0
  0
VISUALSTYLE
  5
2F
102
{ACAD_XDICTIONARY
360
110
102
}
102
{ACAD_REACTORS
330
29
102
}
330
29
100
AcDbVisualStyle
  2
2dWireframe
 70
     4
177
     2
291
     0
 71
     0
176
     1
 72
     2
176
     1
 73
     0
176
     1
 90
        0
176
     1
 40
0.6
176
     1
 41
30.0
176
     1
 63
     7
421
 16777215
176
     1
 74
     1
176
     1
 91
        4
176
     1
 64
     7
176
     1
 65
   257
176
     1
 75
     1
176
     1
175
     1
176
     1
 42
1.0
176
     1
 92
        0
176
     1
 66
   257
176
     1
 43
1.0
176
     1
 76
     1
176
     1
 77
     6
176
     1
 78
     2
176
     1
 67
     7
176
     1
 79
     5
176
     1
170
     0
176
     1
171
     0
176
     1
290
     0
176
     1
 93
        1
176
     1
 44
0.0
176
     1
173
     0
176
     1
1001
ACAD
1000
AcDbSavedByObjectVersion
1070
     0
  0
VISUALSTYLE
  5
2E
102
{ACAD_XDICTIONARY
360
10E
102
}
102
{ACAD_REACTORS
330
29
102
}
330
29
100
AcDbVisualStyle
  2
Basic
 70
     7
177
     2
291
     1
 71
     1
176
     1
 72
     0
176
     1
 73
     1
176
     1
 90
        0
176
     1
 40
0.6
176
     1
 41
30.0
176
     1
 63
     7
421
 16777215
176
     1
 74
     0
176
     1
 91
        4
176
     1
 64
     7
176
     1
 65
   257
176
     1
 75
     1
176
     1
175
     1
176
     1
 42
1.0
176
     1
 92
        8
176
     1
 66
     7
176
     1
 43
1.0
176
     1
 76
     1
176
     1
 77
     6
176
     1
 78
     2
176
     1
 67
     7
176
     1
 79
     5
176
     1
170
     0
176
     1
171
     0
176
     1
290
     0
176
     1
 93
        1
176
     1
 44
0.0
176
     1
173
     0
176
     1
1001
ACAD
1000
AcDbSavedByObjectVersion
1070
     0
  0
VISUALSTYLE
  5
35
102
{ACAD_XDICTIONARY
360
11C
102
}
102
{ACAD_REACTORS
330
29
102
}
330
29
100
AcDbVisualStyle
  2
Brighten
 70
    12
177
     2
291
     1
 71
     2
176
     1
 72
     2
176
     1
 73
     0
176
     1
 90
        0
176
     1
 40
0.6
176
     1
 41
30.0
176
     1
 63
     7
421
 16777215
176
     1
 74
     1
176
     1
 91
        4
176
     1
 64
     7
176
     1
 65
   257
176
     1
 75
     1
176
     1
175
     1
176
     1
 42
1.0
176
     1
 92
        8
176
     1
 66
     7
176
     1
 43
1.0
176
     1
 76
     1
176
     1
 77
     6
176
     1
 78
     2
176
     1
 67
     7
176
     1
 79
     5
176
     1
170
     0
176
     1
171
     0
176
     1
290
     0
176
     1
 93
        1
176
     1
 44
50.0
176
     1
173
     0
176
     1
1001
ACAD
1000
AcDbSavedByObjectVersion
1070
     0
  0
VISUALSTYLE
  5
39
102
{ACAD_XDICTIONARY
360
124
102
}
102
{ACAD_REACTORS
330
29
102
}
330
29
100
AcDbVisualStyle
  2
ColorChange
 70
    16
177
     2
291
     1
 71
     2
176
     1
 72
     2
176
     1
 73
     3
176
     1
 90
        0
176
     1
 40
0.6
176
     1
 41
30.0
176
     1
 63
     8
421
  8421504
176
     1
 74
     1
176
     1
 91
        4
176
     1
 64
     7
176
     1
 65
   257
176
     1
 75
     1
176
     1
175
     1
176
     1
 42
1.0
176
     1
 92
        8
176
     1
 66
     8
424
  8421504
176
     1
 43
1.0
176
     1
 76
     1
176
     1
 77
     6
176
     1
 78
     2
176
     1
 67
     7
176
     1
 79
     5
176
     1
170
     0
176
     1
171
     0
176
     1
290
     0
176
     1
 93
        1
176
     1
 44
0.0
176
     1
173
     0
176
     1
1001
ACAD
1000
AcDbSavedByObjectVersion
1070
     0
  0
VISUALSTYLE
  5
32
102
{ACAD_XDICTIONARY
360
116
102
}
102
{ACAD_REACTORS
330
29
102
}
330
29
100
AcDbVisualStyle
  2
Conceptual
 70
     9
177
     2
291
     0
 71
     3
176
     1
 72
     2
176
     1
 73
     0
176
     1
 90
        0
176
     1
 40
0.6
176
     1
 41
30.0
176
     1
 63
     7
421
 16777215
176
     1
 74
     2
176
     1
 91
        2
176
     1
 64
     7
176
     1
 65
   257
176
     1
 75
     1
176
     1
175
     1
176
     1
 42
179.0
176
     1
 92
        8
176
     1
 66
     7
176
     1
 43
1.0
176
     1
 76
     1
176
     1
 77
     6
176
     1
 78
     2
176
     1
 67
     7
176
     1
 79
     3
176
     1
170
     0
176
     1
171
     0
176
     1
290
     0
176
     1
 93
        1
176
     1
 44
0.0
176
     1
173
     0
176
     1
1001
ACAD
1000
AcDbSavedByObjectVersion
1070
     0
  0
VISUALSTYLE
  5
34
102
{ACAD_XDICTIONARY
360
11A
102
}
102
{ACAD_REACTORS
330
29
102
}
330
29
100
AcDbVisualStyle
  2
Dim
 70
    11
177
     2
291
     1
 71
     2
176
     1
 72
     2
176
     1
 73
     0
176
     1
 90
        0
176
     1
 40
0.6
176
     1
 41
30.0
176
     1
 63
     7
421
 16777215
176
     1
 74
     1
176
     1
 91
        4
176
     1
 64
     7
176
     1
 65
   257
176
     1
 75
     1
176
     1
175
     1
176
     1
 42
1.0
176
     1
 92
        8
176
     1
 66
     7
176
     1
 43
1.0
176
     1
 76
     1
176
     1
 77
     6
176
     1
 78
     2
176
     1
 67
     7
176
     1
 79
     5
176
     1
170
     0
176
     1
171
     0
176
     1
290
     0
176
     1
 93
        1
176
     1
 44
-50.0
176
     1
173
     0
176
     1
1001
ACAD
1000
AcDbSavedByObjectVersion
1070
     0
  0
VISUALSTYLE
  5
41
102
{ACAD_XDICTIONARY
360
134
102
}
102
{ACAD_REACTORS
330
29
102
}
330
29
100
AcDbVisualStyle
  2
EdgeColorOff
 70
    22
177
     2
291
     1
 71
     2
176
     0
 72
     2
176
     0
 73
     0
176
     0
 90
        0
176
     0
 40
0.6
176
     0
 41
30.0
176
     0
 63
     7
421
 16777215
176
     0
 74
     1
176
     0
 91
        4
176
     0
 64
     7
176
     0
 65
   257
176
     0
 75
     1
176
     0
175
     1
176
     0
 42
1.0
176
     0
 92
        8
176
     2
 66
     7
176
     0
 43
1.0
176
     0
 76
     1
176
     0
 77
     6
176
     0
 78
     2
176
     0
 67
     7
176
     0
 79
     5
176
     0
170
     0
176
     0
171
     0
176
     0
290
     0
176
     0
 93
        1
176
     0
 44
0.0
176
     0
173
     0
176
     0
1001
ACAD
1000
AcDbSavedByObjectVersion
1070
     0
  0
VISUALSTYLE
  5
38
102
{ACAD_XDICTIONARY
360
122
102
}
102
{ACAD_REACTORS
330
29
102
}
330
29
100
AcDbVisualStyle
  2
Facepattern
 70
    15
177
     2
291
     1
 71
     2
176
     1
 72
     2
176
     1
 73
     0
176
     1
 90
        0
176
     1
 40
0.6
176
     1
 41
30.0
176
     1
 63
     7
421
 16777215
176
     1
 74
     1
176
     1
 91
        4
176
     1
 64
     7
176
     1
 65
   257
176
     1
 75
     1
176
     1
175
     1
176
     1
 42
1.0
176
     1
 92
        8
176
     1
 66
     7
176
     1
 43
1.0
176
     1
 76
     1
176
     1
 77
     6
176
     1
 78
     2
176
     1
 67
     7
176
     1
 79
     5
176
     1
170
     0
176
     1
171
     0
176
     1
290
     0
176
     1
 93
        1
176
     1
 44
0.0
176
     1
173
     0
176
     1
1001
ACAD
1000
AcDbSavedByObjectVersion
1070
     0
  0
VISUALSTYLE
  5
2A
102
{ACAD_XDICTIONARY
360
106
102
}
102
{ACAD_REACTORS
330
29
102
}
330
29
100
AcDbVisualStyle
  2
Flat
 70
     0
177
     2
291
     1
 71
     2
176
     1
 72
     1
176
     1
 73
     1
176
     1
 90
        2
176
     1
 40
0.6
176
     1
 41
30.0
176
     1
 63
     7
421
 16777215
176
     1
 74
     0
176
     1
 91
        0
176
     1
 64
     7
176
     1
 65
   257
176
     1
 75
     1
176
     1
175
     1
176
     1
 42
1.0
176
     1
 92
        8
176
     1
 66
     7
176
     1
 43
1.0
176
     1
 76
     1
176
     1
 77
     6
176
     1
 78
     2
176
     1
 67
     7
176
     1
 79
     5
176
     1
170
     0
176
     1
171
     0
176
     1
290
     0
176
     1
 93
       13
176
     1
 44
0.0
176
     1
173
     0
176
     1
1001
ACAD
1000
AcDbSavedByObjectVersion
1070
     0
  0
VISUALSTYLE
  5
2B
102
{ACAD_XDICTIONARY
360
108
102
}
102
{ACAD_REACTORS
330
29
102
}
330
29
100
AcDbVisualStyle
  2
FlatWithEdges
 70
     1
177
     2
291
     1
 71
     2
176
     1
 72
     1
176
     1
 73
     1
176
     1
 90
        2
176
     1
 40
0.6
176
     1
 41
30.0
176
     1
 63
     7
421
 16777215
176
     1
 74
     1
176
     1
 91
        0
176
     1
 64
     7
176
     1
 65
   257
176
     1
 75
     1
176
     1
175
     1
176
     1
 42
1.0
176
     1
 92
        0
176
     1
 66
   257
176
     1
 43
1.0
176
     1
 76
     1
176
     1
 77
     6
176
     1
 78
     2
176
     1
 67
     7
176
     1
 79
     5
176
     1
170
     0
176
     1
171
     0
176
     1
290
     0
176
     1
 93
       13
176
     1
 44
0.0
176
     1
173
     0
176
     1
1001
ACAD
1000
AcDbSavedByObjectVersion
1070
     0
  0
VISUALSTYLE
  5
2C
102
{ACAD_XDICTIONARY
360
10A
102
}
102
{ACAD_REACTORS
330
29
102
}
330
29
100
AcDbVisualStyle
  2
Gouraud
 70
     2
177
     2
291
     1
 71
     2
176
     1
 72
     2
176
     1
 73
     1
176
     1
 90
        2
176
     1
 40
0.6
176
     1
 41
30.0
176
     1
 63
     7
421
 16777215
176
     1
 74
     0
176
     1
 91
        0
176
     1
 64
     7
176
     1
 65
   257
176
     1
 75
     1
176
     1
175
     1
176
     1
 42
1.0
176
     1
 92
        0
176
     1
 66
     7
176
     1
 43
1.0
176
     1
 76
     1
176
     1
 77
     6
176
     1
 78
     2
176
     1
 67
     7
176
     1
 79
     5
176
     1
170
     0
176
     1
171
     0
176
     1
290
     0
176
     1
 93
       13
176
     1
 44
0.0
176
     1
173
     0
176
     1
1001
ACAD
1000
AcDbSavedByObjectVersion
1070
     0
  0
VISUALSTYLE
  5
2D
102
{ACAD_XDICTIONARY
360
10C
102
}
102
{ACAD_REACTORS
330
29
102
}
330
29
100
AcDbVisualStyle
  2
GouraudWithEdges
 70
     3
177
     2
291
     1
 71
     2
176
     1
 72
     2
176
     1
 73
     1
176
     1
 90
        2
176
     1
 40
0.6
176
     1
 41
30.0
176
     1
 63
     7
421
 16777215
176
     1
 74
     1
176
     1
 91
        0
176
     1
 64
     7
176
     1
 65
   257
176
     1
 75
     1
176
     1
175
     1
176
     1
 42
1.0
176
     1
 92
        0
176
     1
 66
   257
176
     1
 43
1.0
176
     1
 76
     1
176
     1
 77
     6
176
     1
 78
     2
176
     1
 67
     7
176
     1
 79
     5
176
     1
170
     0
176
     1
171
     0
176
     1
290
     0
176
     1
 93
       13
176
     1
 44
0.0
176
     1
173
     0
176
     1
1001
ACAD
1000
AcDbSavedByObjectVersion
1070
     0
  0
VISUALSTYLE
  5
31
102
{ACAD_XDICTIONARY
360
114
102
}
102
{ACAD_REACTORS
330
29
102
}
330
29
100
AcDbVisualStyle
  2
Hidden
 70
     6
177
     2
291
     0
 71
     1
176
     1
 72
     2
176
     1
 73
     2
176
     1
 90
        0
176
     1
 40
0.6
176
     1
 41
30.0
176
     1
 63
     7
421
 16777215
176
     1
 74
     2
176
     1
 91
        2
176
     1
 64
     7
176
     1
 65
   257
176
     1
 75
     2
176
     1
175
     1
176
     1
 42
40.0
176
     1
 92
        0
176
     1
 66
   257
176
     1
 43
1.0
176
     1
 76
     1
176
     1
 77
     6
176
     1
 78
     2
176
     1
 67
     7
176
     1
 79
     3
176
     1
170
     0
176
     1
171
     0
176
     1
290
     0
176
     1
 93
        1
176
     1
 44
0.0
176
     1
173
     0
176
     1
1001
ACAD
1000
AcDbSavedByObjectVersion
1070
     0
  0
VISUALSTYLE
  5
3F
102
{ACAD_XDICTIONARY
360
130
102
}
102
{ACAD_REACTORS
330
29
102
}
330
29
100
AcDbVisualStyle
  2
JitterOff
 70
    20
177
     2
291
     1
 71
     2
176
     0
 72
     2
176
     0
 73
     0
176
     0
 90
        0
176
     0
 40
0.6
176
     0
 41
30.0
176
     0
 63
     7
421
 16777215
176
     0
 74
     1
176
     0
 91
        4
176
     0
 64
     7
176
     0
 65
   257
176
     0
 75
     1
176
     0
175
     1
176
     0
 42
1.0
176
     0
 92
       10
176
     2
 66
     7
176
     0
 43
1.0
176
     0
 76
     1
176
     0
 77
     6
176
     0
 78
     2
176
     0
 67
     7
176
     0
 79
     5
176
     0
170
     0
176
     0
171
     0
176
     0
290
     0
176
     0
 93
        1
176
     0
 44
0.0
176
     0
173
     0
176
     0
1001
ACAD
1000
AcDbSavedByObjectVersion
1070
     0
  0
VISUALSTYLE
  5
37
102
{ACAD_XDICTIONARY
360
120
102
}
102
{ACAD_REACTORS
330
29
102
}
330
29
100
AcDbVisualStyle
  2
Linepattern
 70
    14
177
     2
291
     1
 71
     2
176
     1
 72
     2
176
     1
 73
     0
176
     1
 90
        0
176
     1
 40
0.6
176
     1
 41
30.0
176
     1
 63
     7
421
 16777215
176
     1
 74
     1
176
     1
 91
        4
176
     1
 64
     7
176
     1
 65
   257
176
     1
 75
     7
176
     1
175
     7
176
     1
 42
1.0
176
     1
 92
        8
176
     1
 66
     7
176
     1
 43
1.0
176
     1
 76
     1
176
     1
 77
     6
176
     1
 78
     2
176
     1
 67
     7
176
     1
 79
     5
176
     1
170
     0
176
     1
171
     0
176
     1
290
     0
176
     1
 93
        1
176
     1
 44
0.0
176
     1
173
     0
176
     1
1001
ACAD
1000
AcDbSavedByObjectVersion
1070
     0
  0
VISUALSTYLE
  5
40
102
{ACAD_XDICTIONARY
360
132
102
}
102
{ACAD_REACTORS
330
29
102
}
330
29
100
AcDbVisualStyle
  2
OverhangOff
 70
    21
177
     2
291
     1
 71
     2
176
     0
 72
     2
176
     0
 73
     0
176
     0
 90
        0
176
     0
 40
0.6
176
     0
 41
30.0
176
     0
 63
     7
421
 16777215
176
     0
 74
     1
176
     0
 91
        4
176
     0
 64
     7
176
     0
 65
   257
176
     0
 75
     1
176
     0
175
     1
176
     0
 42
1.0
176
     0
 92
        9
176
     2
 66
     7
176
     0
 43
1.0
176
     0
 76
     1
176
     0
 77
     6
176
     0
 78
     2
176
     0
 67
     7
176
     0
 79
     5
176
     0
170
     0
176
     0
171
     0
176
     0
290
     0
176
     0
 93
        1
176
     0
 44
0.0
176
     0
173
     0
176
     0
1001
ACAD
1000
AcDbSavedByObjectVersion
1070
     0
  0
VISUALSTYLE
  5
33
102
{ACAD_XDICTIONARY
360
118
102
}
102
{ACAD_REACTORS
330
29
102
}
330
29
100
AcDbVisualStyle
  2
Realistic
 70
     8
177
     2
291
     0
 71
     2
176
     1
 72
     3
176
     1
 73
     0
176
     1
 90
        2
176
     1
 40
0.6
176
     1
 41
30.0
176
     1
 63
     7
421
 16777215
176
     1
 74
     0
176
     1
 91
        0
176
     1
 64
     7
176
     1
 65
   257
176
     1
 75
     1
176
     1
175
     1
176
     1
 42
1.0
176
     1
 92
        8
176
     1
 66
   257
176
     1
 43
1.0
176
     1
 76
     1
176
     1
 77
     6
176
     1
 78
     2
176
     1
 67
     7
176
     1
 79
     3
176
     1
170
     0
176
     1
171
     0
176
     1
290
     0
176
     1
 93
       13
176
     1
 44
0.0
176
     1
173
     0
176
     1
1001
ACAD
1000
AcDbSavedByObjectVersion
1070
     0
  0
VISUALSTYLE
  5
3E
102
{ACAD_XDICTIONARY
360
12E
102
}
102
{ACAD_REACTORS
330
29
102
}
330
29
100
AcDbVisualStyle
  2
Shaded
 70
    27
177
     2
291
     0
 71
     2
176
     1
 72
     2
176
     1
 73
     1
176
     1
 90
        2
176
     1
 40
0.6
176
     1
 41
30.0
176
     1
 63
     7
421
 16777215
176
     1
 74
     0
176
     1
 91
        4
176
     1
 64
     7
176
     1
 65
   257
176
     1
 75
     1
176
     1
175
     1
176
     1
 42
1.0
176
     1
 92
        8
176
     1
 66
   257
176
     1
 43
1.0
176
     1
 76
     1
176
     1
 77
     6
176
     1
 78
     2
176
     1
 67
     8
425
  7895160
176
     1
 79
     3
176
     1
170
     0
176
     1
171
     0
176
     1
290
     0
176
     1
 93
        5
176
     1
 44
0.0
176
     1
173
     0
176
     1
1001
ACAD
1000
AcDbSavedByObjectVersion
1070
     0
  0
VISUALSTYLE
  5
3D
102
{ACAD_XDICTIONARY
360
12C
102
}
102
{ACAD_REACTORS
330
29
102
}
330
29
100
AcDbVisualStyle
  2
Shaded with edges
 70
    26
177
     2
291
     0
 71
     2
176
     1
 72
     2
176
     1
 73
     1
176
     1
 90
        2
176
     1
 40
0.6
176
     1
 41
30.0
176
     1
 63
     7
421
 16777215
176
     1
 74
     1
176
     1
 91
        2
176
     1
 64
     7
176
     1
 65
   257
176
     1
 75
     2
176
     1
175
     1
176
     1
 42
1.0
176
     1
 92
        8
176
     1
 66
   257
176
     1
 43
1.0
176
     1
 76
     1
176
     1
 77
     6
176
     1
 78
     2
176
     1
 67
     7
176
     1
 79
     3
176
     1
170
     0
176
     1
171
     0
176
     1
290
     0
176
     1
 93
        5
176
     1
 44
0.0
176
     1
173
     0
176
     1
1001
ACAD
1000
AcDbSavedByObjectVersion
1070
     0
  0
VISUALSTYLE
  5
3A
102
{ACAD_XDICTIONARY
360
126
102
}
102
{ACAD_REACTORS
330
29
102
}
330
29
100
AcDbVisualStyle
  2
Shades of Gray
 70
    23
177
     2
291
     0
 71
     2
176
     1
 72
     2
176
     1
 73
     3
176
     1
 90
        0
176
     1
 40
0.6
176
     1
 41
30.0
176
     1
 63
     7
421
 16777215
176
     1
 74
     2
176
     1
 91
        2
176
     1
 64
     7
176
     1
 65
     7
176
     1
 75
     1
176
     1
175
     1
176
     1
 42
40.0
176
     1
 92
        8
176
     1
 66
     7
176
     1
 43
1.0
176
     1
 76
     1
176
     1
 77
     6
176
     1
 78
     2
176
     1
 67
     7
176
     1
 79
     3
176
     1
170
     0
176
     1
171
     0
176
     1
290
     0
176
     1
 93
        1
176
     1
 44
0.0
176
     1
173
     0
176
     1
1001
ACAD
1000
AcDbSavedByObjectVersion
1070
     0
  0
VISUALSTYLE
  5
3B
102
{ACAD_XDICTIONARY
360
128
102
}
102
{ACAD_REACTORS
330
29
102
}
330
29
100
AcDbVisualStyle
  2
Sketchy
 70
    24
177
     2
291
     0
 71
     1
176
     1
 72
     2
176
     1
 73
     2
176
     1
 90
        0
176
     1
 40
0.6
176
     1
 41
30.0
176
     1
 63
     7
421
 16777215
176
     1
 74
     2
176
     1
 91
        2
176
     1
 64
     7
176
     1
 65
     7
176
     1
 75
     1
176
     1
175
     1
176
     1
 42
40.0
176
     1
 92
       11
176
     1
 66
     7
176
     1
 43
1.0
176
     1
 76
     1
176
     1
 77
     6
176
     1
 78
     2
176
     1
 67
     7
176
     1
 79
     6
176
     1
170
     0
176
     1
171
     0
176
     1
290
     0
176
     1
 93
        1
176
     1
 44
0.0
176
     1
173
     0
176
     1
1001
ACAD
1000
AcDbSavedByObjectVersion
1070
     0
  0
VISUALSTYLE
  5
36
102
{ACAD_XDICTIONARY
360
11E
102
}
102
{ACAD_REACTORS
330
29
102
}
330
29
100
AcDbVisualStyle
  2
Thicken
 70
    13
177
     2
291
     1
 71
     2
176
     1
 72
     2
176
     1
 73
     0
176
     1
 90
        0
176
     1
 40
0.6
176
     1
 41
30.0
176
     1
 63
     7
421
 16777215
176
     1
 74
     1
176
     1
 91
        4
176
     1
 64
     7
176
     1
 65
   257
176
     1
 75
     1
176
     1
175
     1
176
     1
 42
1.0
176
     1
 92
       12
176
     1
 66
     7
176
     1
 43
1.0
176
     1
 76
     1
176
     1
 77
     6
176
     1
 78
     2
176
     1
 67
     7
176
     1
 79
     5
176
     1
170
     0
176
     1
171
     0
176
     1
290
     0
176
     1
 93
        1
176
     1
 44
0.0
176
     1
173
     0
176
     1
1001
ACAD
1000
AcDbSavedByObjectVersion
1070
     0
  0
VISUALSTYLE
  5
30
102
{ACAD_XDICTIONARY
360
112
102
}
102
{ACAD_REACTORS
330
29
102
}
330
29
100
AcDbVisualStyle
  2
Wireframe
 70
     5
177
     2
291
     0
 71
     0
176
     1
 72
     2
176
     1
 73
     0
176
     1
 90
        0
176
     1
 40
0.6
176
     1
 41
30.0
176
     1
 63
     7
421
 16777215
176
     1
 74
     1
176
     1
 91
        4
176
     1
 64
     7
176
     1
 65
   257
176
     1
 75
     1
176
     1
175
     1
176
     1
 42
1.0
176
     1
 92
        0
176
     1
 66
   257
176
     1
 43
1.0
176
     1
 76
     1
176
     1
 77
     6
176
     1
 78
     2
176
     1
 67
     7
176
     1
 79
     3
176
     1
170
     0
176
     1
171
     0
176
     1
290
     0
176
     1
 93
        1
176
     1
 44
0.0
176
     1
173
     0
176
     1
1001
ACAD
1000
AcDbSavedByObjectVersion
1070
     0
  0
VISUALSTYLE
  5
3C
102
{ACAD_XDICTIONARY
360
12A
102
}
102
{ACAD_REACTORS
330
29
102
}
330
29
100
AcDbVisualStyle
  2
X-Ray
 70
    25
177
     2
291
     0
 71
     2
176
     1
 72
     2
176
     1
 73
     1
176
     1
 90
        1
176
     1
 40
0.5
176
     1
 41
30.0
176
     1
 63
     7
421
 16777215
176
     1
 74
     1
176
     1
 91
        0
176
     1
 64
     7
176
     1
 65
   257
176
     1
 75
     1
176
     1
175
     1
176
     1
 42
1.0
176
     1
 92
        8
176
     1
 66
     7
176
     1
 43
1.0
176
     1
 76
     1
176
     1
 77
     6
176
     1
 78
     2
176
     1
 67
     7
176
     1
 79
     3
176
     1
170
     0
176
     1
171
     0
176
     1
290
     0
176
     1
 93
       13
176
     1
 44
0.0
176
     1
173
     0
176
     1
1001
ACAD
1000
AcDbSavedByObjectVersion
1070
     0
  0
DICTIONARYVAR
  5
102
102
{ACAD_REACTORS
330
FD
102
}
330
FD
100
DictionaryVariables
280
     0
  1
1:1
  0
DICTIONARYVAR
  5
FF
102
{ACAD_REACTORS
330
FD
102
}
330
FD
100
DictionaryVariables
280
     0
  1
STANDARD
  0
DICTIONARYVAR
  5
FE
102
{ACAD_REACTORS
330
FD
102
}
330
FD
100
DictionaryVariables
280
     0
  1
STANDARD
  0
DICTIONARYVAR
  5
100
102
{ACAD_REACTORS
330
FD
102
}
330
FD
100
DictionaryVariables
280
     0
  1
Imperial24
  0
DICTIONARYVAR
  5
101
102
{ACAD_REACTORS
330
FD
102
}
330
FD
100
DictionaryVariables
280
     0
  1
Imperial24
  0
DICTIONARY
  5
13A
330
6B
100
AcDbDictionary
280
     1
281
     1
  3
ACAD_XREC_ROUNDTRIP
360
13B
  0
DICTIONARY
  5
1A
330
19
100
AcDbDictionary
280
     1
281
     1
  3
BUMPTILE
360
1C
  3
DIFFUSETILE
360
1B
  3
OPACITYTILE
360
1F
  3
REFLECTIONTILE
360
1E
  3
REFRACTIONTILE
360
20
  3
SPECULARTILE
360
1D
  0
DICTIONARY
  5
12
330
11
100
AcDbDictionary
280
     1
281
     1
  3
BUMPTILE
360
14
  3
DIFFUSETILE
360
13
  3
OPACITYTILE
360
17
  3
REFLECTIONTILE
360
16
  3
REFRACTIONTILE
360
18
  3
SPECULARTILE
360
15
  0
DICTIONARY
  5
22
330
21
100
AcDbDictionary
280
     1
281
     1
  3
BUMPTILE
360
24
  3
DIFFUSETILE
360
23
  3
OPACITYTILE
360
27
  3
REFLECTIONTILE
360
26
  3
REFRACTIONTILE
360
28
  3
SPECULARTILE
360
25
  0
DICTIONARY
  5
136
330
67
100
AcDbDictionary
280
     1
281
     1
  3
ACAD_XREC_ROUNDTRIP
360
137
  0
DICTIONARY
  5
138
330
69
100
AcDbDictionary
280
     1
281
     1
  3
ACAD_XREC_ROUNDTRIP
360
139
  0
DICTIONARY
  5
103
330
65
100
AcDbDictionary
280
     1
281
     1
  3
ACAD_ROUNDTRIP_2008_TABLESTYLE_CELLSTYLEMAP
360
104
  0
DICTIONARY
  5
110
330
2F
100
AcDbDictionary
280
     1
281
     1
  3
ACAD_XREC_ROUNDTRIP
360
111
  0
DICTIONARY
  5
10E
330
2E
100
AcDbDictionary
280
     1
281
     1
  3
ACAD_XREC_ROUNDTRIP
360
10F
  0
DICTIONARY
  5
11C
330
35
100
AcDbDictionary
280
     1
281
     1
  3
ACAD_XREC_ROUNDTRIP
360
11D
  0
DICTIONARY
  5
124
330
39
100
AcDbDictionary
280
     1
281
     1
  3
ACAD_XREC_ROUNDTRIP
360
125
  0
DICTIONARY
  5
116
330
32
100
AcDbDictionary
280
     1
281
     1
  3
ACAD_XREC_ROUNDTRIP
360
117
  0
DICTIONARY
  5
11A
330
34
100
AcDbDictionary
280
     1
281
     1
  3
ACAD_XREC_ROUNDTRIP
360
11B
  0
DICTIONARY
  5
134
330
41
100
AcDbDictionary
280
     1
281
     1
  3
ACAD_XREC_ROUNDTRIP
360
135
  0
DICTIONARY
  5
122
330
38
100
AcDbDictionary
280
     1
281
     1
  3
ACAD_XREC_ROUNDTRIP
360
123
  0
DICTIONARY
  5
106
330
2A
100
AcDbDictionary
280
     1
281
     1
  3
ACAD_XREC_ROUNDTRIP
360
107
  0
DICTIONARY
  5
108
330
2B
100
AcDbDictionary
280
     1
281
     1
  3
ACAD_XREC_ROUNDTRIP
360
109
  0
DICTIONARY
  5
10A
330
2C
100
AcDbDictionary
280
     1
281
     1
  3
ACAD_XREC_ROUNDTRIP
360
10B
  0
DICTIONARY
  5
10C
330
2D
100
AcDbDictionary
280
     1
281
     1
  3
ACAD_XREC_ROUNDTRIP
360
10D
  0
DICTIONARY
  5
114
330
31
100
AcDbDictionary
280
     1
281
     1
  3
ACAD_XREC_ROUNDTRIP
360
115
  0
DICTIONARY
  5
130
330
3F
100
AcDbDictionary
280
     1
281
     1
  3
ACAD_XREC_ROUNDTRIP
360
131
  0
DICTIONARY
  5
120
330
37
100
AcDbDictionary
280
     1
281
     1
  3
ACAD_XREC_ROUNDTRIP
360
121
  0
DICTIONARY
  5
132
330
40
100
AcDbDictionary
280
     1
281
     1
  3
ACAD_XREC_ROUNDTRIP
360
133
  0
DICTIONARY
  5
118
330
33
100
AcDbDictionary
280
     1
281
     1
  3
ACAD_XREC_ROUNDTRIP
360
119
  0
DICTIONARY
  5
12E
330
3E
100
AcDbDictionary
280
     1
281
     1
  3
ACAD_XREC_ROUNDTRIP
360
12F
  0
DICTIONARY
  5
12C
330
3D
100
AcDbDictionary
280
     1
281
     1
  3
ACAD_XREC_ROUNDTRIP
360
12D
  0
DICTIONARY
  5
126
330
3A
100
AcDbDictionary
280
     1
281
     1
  3
ACAD_XREC_ROUNDTRIP
360
127
  0
DICTIONARY
  5
128
330
3B
100
AcDbDictionary
280
     1
281
     1
  3
ACAD_XREC_ROUNDTRIP
360
129
  0
DICTIONARY
  5
11E
330
36
100
AcDbDictionary
280
     1
281
     1
  3
ACAD_XREC_ROUNDTRIP
360
11F
  0
DICTIONARY
  5
112
330
30
100
AcDbDictionary
280
     1
281
     1
  3
ACAD_XREC_ROUNDTRIP
360
113
  0
DICTIONARY
  5
12A
330
3C
100
AcDbDictionary
280
     1
281
     1
  3
ACAD_XREC_ROUNDTRIP
360
12B
  0
XRECORD
  5
13B
102
{ACAD_REACTORS
330
13A
102
}
330
13A
100
AcDbXrecord
280
     1
102
DISPLAYNAME
  1
Imperial24
102
FLAGS
 90
        0
  0
XRECORD
  5
1C
102
{ACAD_REACTORS
330
1A
102
}
330
1A
100
AcDbXrecord
280
     1
270
     1
271
     1
  0
XRECORD
  5
1B
102
{ACAD_REACTORS
330
1A
102
}
330
1A
100
AcDbXrecord
280
     1
270
     1
271
     1
  0
XRECORD
  5
1F
102
{ACAD_REACTORS
330
1A
102
}
330
1A
100
AcDbXrecord
280
     1
270
     1
271
     1
  0
XRECORD
  5
1E
102
{ACAD_REACTORS
330
1A
102
}
330
1A
100
AcDbXrecord
280
     1
270
     1
271
     1
  0
XRECORD
  5
20
102
{ACAD_REACTORS
330
1A
102
}
330
1A
100
AcDbXrecord
280
     1
270
     1
271
     1
  0
XRECORD
  5
1D
102
{ACAD_REACTORS
330
1A
102
}
330
1A
100
AcDbXrecord
280
     1
270
     1
271
     1
  0
XRECORD
  5
14
102
{ACAD_REACTORS
330
12
102
}
330
12
100
AcDbXrecord
280
     1
270
     1
271
     1
  0
XRECORD
  5
13
102
{ACAD_REACTORS
330
12
102
}
330
12
100
AcDbXrecord
280
     1
270
     1
271
     1
  0
XRECORD
  5
17
102
{ACAD_REACTORS
330
12
102
}
330
12
100
AcDbXrecord
280
     1
270
     1
271
     1
  0
XRECORD
  5
16
102
{ACAD_REACTORS
330
12
102
}
330
12
100
AcDbXrecord
280
     1
270
     1
271
     1
  0
XRECORD
  5
18
102
{ACAD_REACTORS
330
12
102
}
330
12
100
AcDbXrecord
280
     1
270
     1
271
     1
  0
XRECORD
  5
15
102
{ACAD_REACTORS
330
12
102
}
330
12
100
AcDbXrecord
280
     1
270
     1
271
     1
  0
XRECORD
  5
24
102
{ACAD_REACTORS
330
22
102
}
330
22
100
AcDbXrecord
280
     1
270
     1
271
     1
  0
XRECORD
  5
23
102
{ACAD_REACTORS
330
22
102
}
330
22
100
AcDbXrecord
280
     1
270
     1
271
     1
  0
XRECORD
  5
27
102
{ACAD_REACTORS
330
22
102
}
330
22
100
AcDbXrecord
280
     1
270
     1
271
     1
  0
XRECORD
  5
26
102
{ACAD_REACTORS
330
22
102
}
330
22
100
AcDbXrecord
280
     1
270
     1
271
     1
  0
XRECORD
  5
28
102
{ACAD_REACTORS
330
22
102
}
330
22
100
AcDbXrecord
280
     1
270
     1
271
     1
  0
XRECORD
  5
25
102
{ACAD_REACTORS
330
22
102
}
330
22
100
AcDbXrecord
280
     1
270
     1
271
     1
  0
XRECORD
  5
137
102
{ACAD_REACTORS
330
136
102
}
330
136
100
AcDbXrecord
280
     1
102
ACAD_ROUNDTRIP_2012_MLEADER_STYLE
298
     1
  0
XRECORD
  5
139
102
{ACAD_REACTORS
330
138
102
}
330
138
100
AcDbXrecord
280
     1
102
DISPLAYNAME
  1
Imperial24
102
FLAGS
 90
        0
  0
CELLSTYLEMAP
  5
104
102
{ACAD_REACTORS
330
103
102
}
330
103
100
AcDbCellStyleMap
 90
        3
300
CELLSTYLE
  1
TABLEFORMAT_BEGIN
 90
        5
170
     1
 91
        0
 92
    32768
 62
   257
 93
        1
300
CONTENTFORMAT
  1
CONTENTFORMAT_BEGIN
 90
        0
 91
        0
 92
      512
 93
        0
300

 40
0.0
140
1.0
 94
        5
 62
     0
340
55
144
0.25
309
CONTENTFORMAT_END
171
     0
 94
        0
309
TABLEFORMAT_END
  1
CELLSTYLE_BEGIN
 90
        1
 91
        1
300
_TITLE
309
CELLSTYLE_END
300
CELLSTYLE
  1
TABLEFORMAT_BEGIN
 90
        5
170
     1
 91
        0
 92
        0
 62
   257
 93
        1
300
CONTENTFORMAT
  1
CONTENTFORMAT_BEGIN
 90
        0
 91
        0
 92
      512
 93
        0
300

 40
0.0
140
1.0
 94
        5
 62
     0
340
55
144
0.18
309
CONTENTFORMAT_END
171
     0
 94
        0
309
TABLEFORMAT_END
  1
CELLSTYLE_BEGIN
 90
        2
 91
        1
300
_HEADER
309
CELLSTYLE_END
300
CELLSTYLE
  1
TABLEFORMAT_BEGIN
 90
        5
170
     1
 91
        0
 92
        0
 62
   257
 93
        1
300
CONTENTFORMAT
  1
CONTENTFORMAT_BEGIN
 90
        0
 91
        0
 92
      512
 93
        0
300

 40
0.0
140
1.0
 94
        2
 62
     0
340
55
144
0.18
309
CONTENTFORMAT_END
171
     0
 94
        0
309
TABLEFORMAT_END
  1
CELLSTYLE_BEGIN
 90
        3
 91
        2
300
_DATA
309
CELLSTYLE_END
  0
XRECORD
  5
111
102
{ACAD_REACTORS
330
110
102
}
330
110
100
AcDbXrecord
280
     1
102
RTVSPost2010Prop28
280
     1
102
RTVSPost2010PropOp28
 70
     1
102
RTVSPost2010Prop29
280
     1
102
RTVSPost2010PropOp29
 70
     1
102
RTVSPost2010Prop30
280
     0
102
RTVSPost2010PropOp30
 70
     1
102
RTVSPost2010Prop31
280
     0
102
RTVSPost2010PropOp31
 70
     1
102
RTVSPost2010Prop32
280
     0
102
RTVSPost2010PropOp32
 70
     1
102
RTVSPost2010Prop33
280
     0
102
RTVSPost2010PropOp33
 70
     1
102
RTVSPost2010Prop34
280
     0
102
RTVSPost2010PropOp34
 70
     1
102
RTVSPost2010Prop35
280
     0
102
RTVSPost2010PropOp35
 70
     1
102
RTVSPost2010Prop36
280
     0
102
RTVSPost2010PropOp36
 70
     1
102
RTVSPost2010Prop37
 90
       50
102
RTVSPost2010PropOp37
 70
     1
102
RTVSPost2010Prop38
140
0.0
102
RTVSPost2010PropOp38
 70
     1
102
RTVSPost2010Prop39
140
1.0
102
RTVSPost2010PropOp39
 70
     1
102
RTVSPost2010Prop40
 90
        0
102
RTVSPost2010PropOp40
 70
     1
102
RTVSPost2010Prop41ColorIndex
 90
       18
102
RTVSPost2010Prop41ColorRGB
 90
        0
102
RTVSPost2010PropOp41
 70
     1
102
RTVSPost2010Prop42
 90
       50
102
RTVSPost2010PropOp42
 70
     1
102
RTVSPost2010Prop43
 90
        3
102
RTVSPost2010PropOp43
 70
     1
102
RTVSPost2010Prop44ColorIndex
 90
        5
102
RTVSPost2010Prop44ColorRGB
 90
      255
102
RTVSPost2010PropOp44
 70
     1
102
RTVSPost2010Prop45
280
     0
102
RTVSPost2010PropOp45
 70
     1
102
RTVSPost2010Prop46
 90
       50
102
RTVSPost2010PropOp46
 70
     1
102
RTVSPost2010Prop47
 90
       50
102
RTVSPost2010PropOp47
 70
     1
102
RTVSPost2010Prop48
 90
       50
102
RTVSPost2010PropOp48
 70
     1
102
RTVSPost2010Prop49
280
     0
102
RTVSPost2010PropOp49
 70
     1
102
RTVSPost2010Prop50
 90
       50
102
RTVSPost2010PropOp50
 70
     1
102
RTVSPost2010Prop51ColorIndex
 90
      256
102
RTVSPost2010Prop51ColorRGB
 90
-16777216
102
RTVSPost2010PropOp51
 70
     0
102
RTVSPost2010Prop52
140
1.0
102
RTVSPost2010PropOp52
 70
     0
102
RTVSPost2010Prop53
 90
        2
102
RTVSPost2010PropOp53
 70
     1
102
RTVSPost2010Prop54
  1
strokes_ogs.tif
102
RTVSPost2010PropOp54
 70
     1
102
RTVSPost2010Prop55
280
     0
102
RTVSPost2010PropOp55
 70
     1
102
RTVSPost2010Prop56
140
1.0
102
RTVSPost2010PropOp56
 70
     1
102
RTVSPost2010Prop57
140
1.0
102
RTVSPost2010PropOp57
 70
     1
  0
XRECORD
  5
10F
102
{ACAD_REACTORS
330
10E
102
}
330
10E
100
AcDbXrecord
280
     1
102
RTVSPost2010Prop28
280
     0
102
RTVSPost2010PropOp28
 70
     1
102
RTVSPost2010Prop29
280
     1
102
RTVSPost2010PropOp29
 70
     1
102
RTVSPost2010Prop30
280
     1
102
RTVSPost2010PropOp30
 70
     1
102
RTVSPost2010Prop31
280
     0
102
RTVSPost2010PropOp31
 70
     1
102
RTVSPost2010Prop32
280
     0
102
RTVSPost2010PropOp32
 70
     1
102
RTVSPost2010Prop33
280
     0
102
RTVSPost2010PropOp33
 70
     1
102
RTVSPost2010Prop34
280
     0
102
RTVSPost2010PropOp34
 70
     1
102
RTVSPost2010Prop35
280
     0
102
RTVSPost2010PropOp35
 70
     1
102
RTVSPost2010Prop36
280
     0
102
RTVSPost2010PropOp36
 70
     1
102
RTVSPost2010Prop37
 90
       50
102
RTVSPost2010PropOp37
 70
     1
102
RTVSPost2010Prop38
140
0.0
102
RTVSPost2010PropOp38
 70
     1
102
RTVSPost2010Prop39
140
1.0
102
RTVSPost2010PropOp39
 70
     1
102
RTVSPost2010Prop40
 90
        0
102
RTVSPost2010PropOp40
 70
     1
102
RTVSPost2010Prop41ColorIndex
 90
       18
102
RTVSPost2010Prop41ColorRGB
 90
        0
102
RTVSPost2010PropOp41
 70
     1
102
RTVSPost2010Prop42
 90
       50
102
RTVSPost2010PropOp42
 70
     1
102
RTVSPost2010Prop43
 90
        3
102
RTVSPost2010PropOp43
 70
     1
102
RTVSPost2010Prop44ColorIndex
 90
        5
102
RTVSPost2010Prop44ColorRGB
 90
      255
102
RTVSPost2010PropOp44
 70
     1
102
RTVSPost2010Prop45
280
     0
102
RTVSPost2010PropOp45
 70
     1
102
RTVSPost2010Prop46
 90
       50
102
RTVSPost2010PropOp46
 70
     1
102
RTVSPost2010Prop47
 90
       50
102
RTVSPost2010PropOp47
 70
     1
102
RTVSPost2010Prop48
 90
       50
102
RTVSPost2010PropOp48
 70
     1
102
RTVSPost2010Prop49
280
     0
102
RTVSPost2010PropOp49
 70
     1
102
RTVSPost2010Prop50
 90
       50
102
RTVSPost2010PropOp50
 70
     1
102
RTVSPost2010Prop51ColorIndex
 90
      256
102
RTVSPost2010Prop51ColorRGB
 90
-16777216
102
RTVSPost2010PropOp51
 70
     0
102
RTVSPost2010Prop52
140
1.0
102
RTVSPost2010PropOp52
 70
     0
102
RTVSPost2010Prop53
 90
        2
102
RTVSPost2010PropOp53
 70
     1
102
RTVSPost2010Prop54
  1
strokes_ogs.tif
102
RTVSPost2010PropOp54
 70
     1
102
RTVSPost2010Prop55
280
     0
102
RTVSPost2010PropOp55
 70
     1
102
RTVSPost2010Prop56
140
1.0
102
RTVSPost2010PropOp56
 70
     1
102
RTVSPost2010Prop57
140
1.0
102
RTVSPost2010PropOp57
 70
     1
  0
XRECORD
  5
11D
102
{ACAD_REACTORS
330
11C
102
}
330
11C
100
AcDbXrecord
280
     1
102
RTVSPost2010Prop28
280
     0
102
RTVSPost2010PropOp28
 70
     1
102
RTVSPost2010Prop29
280
     1
102
RTVSPost2010PropOp29
 70
     1
102
RTVSPost2010Prop30
280
     1
102
RTVSPost2010PropOp30
 70
     1
102
RTVSPost2010Prop31
280
     0
102
RTVSPost2010PropOp31
 70
     1
102
RTVSPost2010Prop32
280
     0
102
RTVSPost2010PropOp32
 70
     1
102
RTVSPost2010Prop33
280
     0
102
RTVSPost2010PropOp33
 70
     1
102
RTVSPost2010Prop34
280
     0
102
RTVSPost2010PropOp34
 70
     1
102
RTVSPost2010Prop35
280
     0
102
RTVSPost2010PropOp35
 70
     1
102
RTVSPost2010Prop36
280
     0
102
RTVSPost2010PropOp36
 70
     1
102
RTVSPost2010Prop37
 90
       50
102
RTVSPost2010PropOp37
 70
     1
102
RTVSPost2010Prop38
140
0.0
102
RTVSPost2010PropOp38
 70
     1
102
RTVSPost2010Prop39
140
1.0
102
RTVSPost2010PropOp39
 70
     1
102
RTVSPost2010Prop40
 90
        0
102
RTVSPost2010PropOp40
 70
     1
102
RTVSPost2010Prop41ColorIndex
 90
       18
102
RTVSPost2010Prop41ColorRGB
 90
        0
102
RTVSPost2010PropOp41
 70
     1
102
RTVSPost2010Prop42
 90
       50
102
RTVSPost2010PropOp42
 70
     1
102
RTVSPost2010Prop43
 90
        3
102
RTVSPost2010PropOp43
 70
     1
102
RTVSPost2010Prop44ColorIndex
 90
        5
102
RTVSPost2010Prop44ColorRGB
 90
      255
102
RTVSPost2010PropOp44
 70
     1
102
RTVSPost2010Prop45
280
     0
102
RTVSPost2010PropOp45
 70
     1
102
RTVSPost2010Prop46
 90
       50
102
RTVSPost2010PropOp46
 70
     1
102
RTVSPost2010Prop47
 90
       50
102
RTVSPost2010PropOp47
 70
     1
102
RTVSPost2010Prop48
 90
       50
102
RTVSPost2010PropOp48
 70
     1
102
RTVSPost2010Prop49
280
     0
102
RTVSPost2010PropOp49
 70
     1
102
RTVSPost2010Prop50
 90
       50
102
RTVSPost2010PropOp50
 70
     1
102
RTVSPost2010Prop51ColorIndex
 90
      256
102
RTVSPost2010Prop51ColorRGB
 90
-16777216
102
RTVSPost2010PropOp51
 70
     0
102
RTVSPost2010Prop52
140
1.0
102
RTVSPost2010PropOp52
 70
     0
102
RTVSPost2010Prop53
 90
        2
102
RTVSPost2010PropOp53
 70
     1
102
RTVSPost2010Prop54
  1
strokes_ogs.tif
102
RTVSPost2010PropOp54
 70
     1
102
RTVSPost2010Prop55
280
     0
102
RTVSPost2010PropOp55
 70
     1
102
RTVSPost2010Prop56
140
1.0
102
RTVSPost2010PropOp56
 70
     1
102
RTVSPost2010Prop57
140
1.0
102
RTVSPost2010PropOp57
 70
     1
  0
XRECORD
  5
125
102
{ACAD_REACTORS
330
124
102
}
330
124
100
AcDbXrecord
280
     1
102
RTVSPost2010Prop28
280
     0
102
RTVSPost2010PropOp28
 70
     1
102
RTVSPost2010Prop29
280
     1
102
RTVSPost2010PropOp29
 70
     1
102
RTVSPost2010Prop30
280
     1
102
RTVSPost2010PropOp30
 70
     1
102
RTVSPost2010Prop31
280
     0
102
RTVSPost2010PropOp31
 70
     1
102
RTVSPost2010Prop32
280
     0
102
RTVSPost2010PropOp32
 70
     1
102
RTVSPost2010Prop33
280
     0
102
RTVSPost2010PropOp33
 70
     1
102
RTVSPost2010Prop34
280
     0
102
RTVSPost2010PropOp34
 70
     1
102
RTVSPost2010Prop35
280
     0
102
RTVSPost2010PropOp35
 70
     1
102
RTVSPost2010Prop36
280
     0
102
RTVSPost2010PropOp36
 70
     1
102
RTVSPost2010Prop37
 90
       50
102
RTVSPost2010PropOp37
 70
     1
102
RTVSPost2010Prop38
140
0.0
102
RTVSPost2010PropOp38
 70
     1
102
RTVSPost2010Prop39
140
1.0
102
RTVSPost2010PropOp39
 70
     1
102
RTVSPost2010Prop40
 90
        0
102
RTVSPost2010PropOp40
 70
     1
102
RTVSPost2010Prop41ColorIndex
 90
       18
102
RTVSPost2010Prop41ColorRGB
 90
        0
102
RTVSPost2010PropOp41
 70
     1
102
RTVSPost2010Prop42
 90
       50
102
RTVSPost2010PropOp42
 70
     1
102
RTVSPost2010Prop43
 90
        3
102
RTVSPost2010PropOp43
 70
     1
102
RTVSPost2010Prop44ColorIndex
 90
        5
102
RTVSPost2010Prop44ColorRGB
 90
      255
102
RTVSPost2010PropOp44
 70
     1
102
RTVSPost2010Prop45
280
     0
102
RTVSPost2010PropOp45
 70
     1
102
RTVSPost2010Prop46
 90
       50
102
RTVSPost2010PropOp46
 70
     1
102
RTVSPost2010Prop47
 90
       50
102
RTVSPost2010PropOp47
 70
     1
102
RTVSPost2010Prop48
 90
       50
102
RTVSPost2010PropOp48
 70
     1
102
RTVSPost2010Prop49
280
     0
102
RTVSPost2010PropOp49
 70
     1
102
RTVSPost2010Prop50
 90
       50
102
RTVSPost2010PropOp50
 70
     1
102
RTVSPost2010Prop51ColorIndex
 90
      256
102
RTVSPost2010Prop51ColorRGB
 90
-16777216
102
RTVSPost2010PropOp51
 70
     0
102
RTVSPost2010Prop52
140
1.0
102
RTVSPost2010PropOp52
 70
     0
102
RTVSPost2010Prop53
 90
        2
102
RTVSPost2010PropOp53
 70
     1
102
RTVSPost2010Prop54
  1
strokes_ogs.tif
102
RTVSPost2010PropOp54
 70
     1
102
RTVSPost2010Prop55
280
     0
102
RTVSPost2010PropOp55
 70
     1
102
RTVSPost2010Prop56
140
1.0
102
RTVSPost2010PropOp56
 70
     1
102
RTVSPost2010Prop57
140
1.0
102
RTVSPost2010PropOp57
 70
     1
  0
XRECORD
  5
117
102
{ACAD_REACTORS
330
116
102
}
330
116
100
AcDbXrecord
280
     1
102
RTVSPost2010Prop28
280
     0
102
RTVSPost2010PropOp28
 70
     1
102
RTVSPost2010Prop29
280
     1
102
RTVSPost2010PropOp29
 70
     1
102
RTVSPost2010Prop30
280
     1
102
RTVSPost2010PropOp30
 70
     1
102
RTVSPost2010Prop31
280
     0
102
RTVSPost2010PropOp31
 70
     1
102
RTVSPost2010Prop32
280
     0
102
RTVSPost2010PropOp32
 70
     1
102
RTVSPost2010Prop33
280
     0
102
RTVSPost2010PropOp33
 70
     1
102
RTVSPost2010Prop34
280
     0
102
RTVSPost2010PropOp34
 70
     1
102
RTVSPost2010Prop35
280
     0
102
RTVSPost2010PropOp35
 70
     1
102
RTVSPost2010Prop36
280
     0
102
RTVSPost2010PropOp36
 70
     1
102
RTVSPost2010Prop37
 90
       50
102
RTVSPost2010PropOp37
 70
     1
102
RTVSPost2010Prop38
140
0.0
102
RTVSPost2010PropOp38
 70
     1
102
RTVSPost2010Prop39
140
1.0
102
RTVSPost2010PropOp39
 70
     1
102
RTVSPost2010Prop40
 90
        0
102
RTVSPost2010PropOp40
 70
     1
102
RTVSPost2010Prop41ColorIndex
 90
       18
102
RTVSPost2010Prop41ColorRGB
 90
        0
102
RTVSPost2010PropOp41
 70
     1
102
RTVSPost2010Prop42
 90
       50
102
RTVSPost2010PropOp42
 70
     1
102
RTVSPost2010Prop43
 90
        3
102
RTVSPost2010PropOp43
 70
     1
102
RTVSPost2010Prop44ColorIndex
 90
        5
102
RTVSPost2010Prop44ColorRGB
 90
      255
102
RTVSPost2010PropOp44
 70
     1
102
RTVSPost2010Prop45
280
     0
102
RTVSPost2010PropOp45
 70
     1
102
RTVSPost2010Prop46
 90
       50
102
RTVSPost2010PropOp46
 70
     1
102
RTVSPost2010Prop47
 90
       50
102
RTVSPost2010PropOp47
 70
     1
102
RTVSPost2010Prop48
 90
       50
102
RTVSPost2010PropOp48
 70
     1
102
RTVSPost2010Prop49
280
     0
102
RTVSPost2010PropOp49
 70
     1
102
RTVSPost2010Prop50
 90
       50
102
RTVSPost2010PropOp50
 70
     1
102
RTVSPost2010Prop51ColorIndex
 90
      256
102
RTVSPost2010Prop51ColorRGB
 90
-16777216
102
RTVSPost2010PropOp51
 70
     0
102
RTVSPost2010Prop52
140
1.0
102
RTVSPost2010PropOp52
 70
     0
102
RTVSPost2010Prop53
 90
        2
102
RTVSPost2010PropOp53
 70
     1
102
RTVSPost2010Prop54
  1
strokes_ogs.tif
102
RTVSPost2010PropOp54
 70
     1
102
RTVSPost2010Prop55
280
     0
102
RTVSPost2010PropOp55
 70
     1
102
RTVSPost2010Prop56
140
1.0
102
RTVSPost2010PropOp56
 70
     1
102
RTVSPost2010Prop57
140
1.0
102
RTVSPost2010PropOp57
 70
     1
  0
XRECORD
  5
11B
102
{ACAD_REACTORS
330
11A
102
}
330
11A
100
AcDbXrecord
280
     1
102
RTVSPost2010Prop28
280
     0
102
RTVSPost2010PropOp28
 70
     1
102
RTVSPost2010Prop29
280
     1
102
RTVSPost2010PropOp29
 70
     1
102
RTVSPost2010Prop30
280
     1
102
RTVSPost2010PropOp30
 70
     1
102
RTVSPost2010Prop31
280
     0
102
RTVSPost2010PropOp31
 70
     1
102
RTVSPost2010Prop32
280
     0
102
RTVSPost2010PropOp32
 70
     1
102
RTVSPost2010Prop33
280
     0
102
RTVSPost2010PropOp33
 70
     1
102
RTVSPost2010Prop34
280
     0
102
RTVSPost2010PropOp34
 70
     1
102
RTVSPost2010Prop35
280
     0
102
RTVSPost2010PropOp35
 70
     1
102
RTVSPost2010Prop36
280
     0
102
RTVSPost2010PropOp36
 70
     1
102
RTVSPost2010Prop37
 90
       50
102
RTVSPost2010PropOp37
 70
     1
102
RTVSPost2010Prop38
140
0.0
102
RTVSPost2010PropOp38
 70
     1
102
RTVSPost2010Prop39
140
1.0
102
RTVSPost2010PropOp39
 70
     1
102
RTVSPost2010Prop40
 90
        0
102
RTVSPost2010PropOp40
 70
     1
102
RTVSPost2010Prop41ColorIndex
 90
       18
102
RTVSPost2010Prop41ColorRGB
 90
        0
102
RTVSPost2010PropOp41
 70
     1
102
RTVSPost2010Prop42
 90
       50
102
RTVSPost2010PropOp42
 70
     1
102
RTVSPost2010Prop43
 90
        3
102
RTVSPost2010PropOp43
 70
     1
102
RTVSPost2010Prop44ColorIndex
 90
        5
102
RTVSPost2010Prop44ColorRGB
 90
      255
102
RTVSPost2010PropOp44
 70
     1
102
RTVSPost2010Prop45
280
     0
102
RTVSPost2010PropOp45
 70
     1
102
RTVSPost2010Prop46
 90
       50
102
RTVSPost2010PropOp46
 70
     1
102
RTVSPost2010Prop47
 90
       50
102
RTVSPost2010PropOp47
 70
     1
102
RTVSPost2010Prop48
 90
       50
102
RTVSPost2010PropOp48
 70
     1
102
RTVSPost2010Prop49
280
     0
102
RTVSPost2010PropOp49
 70
     1
102
RTVSPost2010Prop50
 90
       50
102
RTVSPost2010PropOp50
 70
     1
102
RTVSPost2010Prop51ColorIndex
 90
      256
102
RTVSPost2010Prop51ColorRGB
 90
-16777216
102
RTVSPost2010PropOp51
 70
     0
102
RTVSPost2010Prop52
140
1.0
102
RTVSPost2010PropOp52
 70
     0
102
RTVSPost2010Prop53
 90
        2
102
RTVSPost2010PropOp53
 70
     1
102
RTVSPost2010Prop54
  1
strokes_ogs.tif
102
RTVSPost2010PropOp54
 70
     1
102
RTVSPost2010Prop55
280
     0
102
RTVSPost2010PropOp55
 70
     1
102
RTVSPost2010Prop56
140
1.0
102
RTVSPost2010PropOp56
 70
     1
102
RTVSPost2010Prop57
140
1.0
102
RTVSPost2010PropOp57
 70
     1
  0
XRECORD
  5
135
102
{ACAD_REACTORS
330
134
102
}
330
134
100
AcDbXrecord
280
     1
102
RTVSPost2010Prop28
280
     0
102
RTVSPost2010PropOp28
 70
     0
102
RTVSPost2010Prop29
280
     1
102
RTVSPost2010PropOp29
 70
     0
102
RTVSPost2010Prop30
280
     1
102
RTVSPost2010PropOp30
 70
     0
102
RTVSPost2010Prop31
280
     0
102
RTVSPost2010PropOp31
 70
     0
102
RTVSPost2010Prop32
280
     0
102
RTVSPost2010PropOp32
 70
     0
102
RTVSPost2010Prop33
280
     0
102
RTVSPost2010PropOp33
 70
     0
102
RTVSPost2010Prop34
280
     0
102
RTVSPost2010PropOp34
 70
     0
102
RTVSPost2010Prop35
280
     0
102
RTVSPost2010PropOp35
 70
     0
102
RTVSPost2010Prop36
280
     0
102
RTVSPost2010PropOp36
 70
     0
102
RTVSPost2010Prop37
 90
       50
102
RTVSPost2010PropOp37
 70
     0
102
RTVSPost2010Prop38
140
0.0
102
RTVSPost2010PropOp38
 70
     0
102
RTVSPost2010Prop39
140
1.0
102
RTVSPost2010PropOp39
 70
     0
102
RTVSPost2010Prop40
 90
        0
102
RTVSPost2010PropOp40
 70
     0
102
RTVSPost2010Prop41ColorIndex
 90
       18
102
RTVSPost2010Prop41ColorRGB
 90
        0
102
RTVSPost2010PropOp41
 70
     0
102
RTVSPost2010Prop42
 90
       50
102
RTVSPost2010PropOp42
 70
     0
102
RTVSPost2010Prop43
 90
        3
102
RTVSPost2010PropOp43
 70
     0
102
RTVSPost2010Prop44ColorIndex
 90
        5
102
RTVSPost2010Prop44ColorRGB
 90
      255
102
RTVSPost2010PropOp44
 70
     0
102
RTVSPost2010Prop45
280
     0
102
RTVSPost2010PropOp45
 70
     0
102
RTVSPost2010Prop46
 90
       50
102
RTVSPost2010PropOp46
 70
     0
102
RTVSPost2010Prop47
 90
       50
102
RTVSPost2010PropOp47
 70
     0
102
RTVSPost2010Prop48
 90
       50
102
RTVSPost2010PropOp48
 70
     0
102
RTVSPost2010Prop49
280
     0
102
RTVSPost2010PropOp49
 70
     0
102
RTVSPost2010Prop50
 90
       50
102
RTVSPost2010PropOp50
 70
     0
102
RTVSPost2010Prop51ColorIndex
 90
      256
102
RTVSPost2010Prop51ColorRGB
 90
-16777216
102
RTVSPost2010PropOp51
 70
     0
102
RTVSPost2010Prop52
140
1.0
102
RTVSPost2010PropOp52
 70
     0
102
RTVSPost2010Prop53
 90
        2
102
RTVSPost2010PropOp53
 70
     0
102
RTVSPost2010Prop54
  1
strokes_ogs.tif
102
RTVSPost2010PropOp54
 70
     0
102
RTVSPost2010Prop55
280
     0
102
RTVSPost2010PropOp55
 70
     0
102
RTVSPost2010Prop56
140
1.0
102
RTVSPost2010PropOp56
 70
     0
102
RTVSPost2010Prop57
140
1.0
102
RTVSPost2010PropOp57
 70
     0
  0
XRECORD
  5
123
102
{ACAD_REACTORS
330
122
102
}
330
122
100
AcDbXrecord
280
     1
102
RTVSPost2010Prop28
280
     0
102
RTVSPost2010PropOp28
 70
     1
102
RTVSPost2010Prop29
280
     1
102
RTVSPost2010PropOp29
 70
     1
102
RTVSPost2010Prop30
280
     1
102
RTVSPost2010PropOp30
 70
     1
102
RTVSPost2010Prop31
280
     0
102
RTVSPost2010PropOp31
 70
     1
102
RTVSPost2010Prop32
280
     0
102
RTVSPost2010PropOp32
 70
     1
102
RTVSPost2010Prop33
280
     0
102
RTVSPost2010PropOp33
 70
     1
102
RTVSPost2010Prop34
280
     0
102
RTVSPost2010PropOp34
 70
     1
102
RTVSPost2010Prop35
280
     0
102
RTVSPost2010PropOp35
 70
     1
102
RTVSPost2010Prop36
280
     0
102
RTVSPost2010PropOp36
 70
     1
102
RTVSPost2010Prop37
 90
       50
102
RTVSPost2010PropOp37
 70
     1
102
RTVSPost2010Prop38
140
0.0
102
RTVSPost2010PropOp38
 70
     1
102
RTVSPost2010Prop39
140
1.0
102
RTVSPost2010PropOp39
 70
     1
102
RTVSPost2010Prop40
 90
        0
102
RTVSPost2010PropOp40
 70
     1
102
RTVSPost2010Prop41ColorIndex
 90
       18
102
RTVSPost2010Prop41ColorRGB
 90
        0
102
RTVSPost2010PropOp41
 70
     1
102
RTVSPost2010Prop42
 90
       50
102
RTVSPost2010PropOp42
 70
     1
102
RTVSPost2010Prop43
 90
        3
102
RTVSPost2010PropOp43
 70
     1
102
RTVSPost2010Prop44ColorIndex
 90
        5
102
RTVSPost2010Prop44ColorRGB
 90
      255
102
RTVSPost2010PropOp44
 70
     1
102
RTVSPost2010Prop45
280
     0
102
RTVSPost2010PropOp45
 70
     1
102
RTVSPost2010Prop46
 90
       50
102
RTVSPost2010PropOp46
 70
     1
102
RTVSPost2010Prop47
 90
       50
102
RTVSPost2010PropOp47
 70
     1
102
RTVSPost2010Prop48
 90
       50
102
RTVSPost2010PropOp48
 70
     1
102
RTVSPost2010Prop49
280
     0
102
RTVSPost2010PropOp49
 70
     1
102
RTVSPost2010Prop50
 90
       50
102
RTVSPost2010PropOp50
 70
     1
102
RTVSPost2010Prop51ColorIndex
 90
      256
102
RTVSPost2010Prop51ColorRGB
 90
-16777216
102
RTVSPost2010PropOp51
 70
     0
102
RTVSPost2010Prop52
140
1.0
102
RTVSPost2010PropOp52
 70
     0
102
RTVSPost2010Prop53
 90
        2
102
RTVSPost2010PropOp53
 70
     1
102
RTVSPost2010Prop54
  1
strokes_ogs.tif
102
RTVSPost2010PropOp54
 70
     1
102
RTVSPost2010Prop55
280
     0
102
RTVSPost2010PropOp55
 70
     1
102
RTVSPost2010Prop56
140
1.0
102
RTVSPost2010PropOp56
 70
     1
102
RTVSPost2010Prop57
140
1.0
102
RTVSPost2010PropOp57
 70
     1
  0
XRECORD
  5
107
102
{ACAD_REACTORS
330
106
102
}
330
106
100
AcDbXrecord
280
     1
102
RTVSPost2010Prop28
280
     0
102
RTVSPost2010PropOp28
 70
     1
102
RTVSPost2010Prop29
280
     1
102
RTVSPost2010PropOp29
 70
     1
102
RTVSPost2010Prop30
280
     1
102
RTVSPost2010PropOp30
 70
     1
102
RTVSPost2010Prop31
280
     0
102
RTVSPost2010PropOp31
 70
     1
102
RTVSPost2010Prop32
280
     0
102
RTVSPost2010PropOp32
 70
     1
102
RTVSPost2010Prop33
280
     0
102
RTVSPost2010PropOp33
 70
     1
102
RTVSPost2010Prop34
280
     0
102
RTVSPost2010PropOp34
 70
     1
102
RTVSPost2010Prop35
280
     0
102
RTVSPost2010PropOp35
 70
     1
102
RTVSPost2010Prop36
280
     0
102
RTVSPost2010PropOp36
 70
     1
102
RTVSPost2010Prop37
 90
       50
102
RTVSPost2010PropOp37
 70
     1
102
RTVSPost2010Prop38
140
0.0
102
RTVSPost2010PropOp38
 70
     1
102
RTVSPost2010Prop39
140
1.0
102
RTVSPost2010PropOp39
 70
     1
102
RTVSPost2010Prop40
 90
        0
102
RTVSPost2010PropOp40
 70
     1
102
RTVSPost2010Prop41ColorIndex
 90
       18
102
RTVSPost2010Prop41ColorRGB
 90
        0
102
RTVSPost2010PropOp41
 70
     1
102
RTVSPost2010Prop42
 90
       50
102
RTVSPost2010PropOp42
 70
     1
102
RTVSPost2010Prop43
 90
        3
102
RTVSPost2010PropOp43
 70
     1
102
RTVSPost2010Prop44ColorIndex
 90
        5
102
RTVSPost2010Prop44ColorRGB
 90
      255
102
RTVSPost2010PropOp44
 70
     1
102
RTVSPost2010Prop45
280
     0
102
RTVSPost2010PropOp45
 70
     1
102
RTVSPost2010Prop46
 90
       50
102
RTVSPost2010PropOp46
 70
     1
102
RTVSPost2010Prop47
 90
       50
102
RTVSPost2010PropOp47
 70
     1
102
RTVSPost2010Prop48
 90
       50
102
RTVSPost2010PropOp48
 70
     1
102
RTVSPost2010Prop49
280
     0
102
RTVSPost2010PropOp49
 70
     1
102
RTVSPost2010Prop50
 90
       50
102
RTVSPost2010PropOp50
 70
     1
102
RTVSPost2010Prop51ColorIndex
 90
      256
102
RTVSPost2010Prop51ColorRGB
 90
-16777216
102
RTVSPost2010PropOp51
 70
     0
102
RTVSPost2010Prop52
140
1.0
102
RTVSPost2010PropOp52
 70
     0
102
RTVSPost2010Prop53
 90
        2
102
RTVSPost2010PropOp53
 70
     1
102
RTVSPost2010Prop54
  1
strokes_ogs.tif
102
RTVSPost2010PropOp54
 70
     1
102
RTVSPost2010Prop55
280
     0
102
RTVSPost2010PropOp55
 70
     1
102
RTVSPost2010Prop56
140
1.0
102
RTVSPost2010PropOp56
 70
     1
102
RTVSPost2010Prop57
140
1.0
102
RTVSPost2010PropOp57
 70
     1
  0
XRECORD
  5
109
102
{ACAD_REACTORS
330
108
102
}
330
108
100
AcDbXrecord
280
     1
102
RTVSPost2010Prop28
280
     0
102
RTVSPost2010PropOp28
 70
     1
102
RTVSPost2010Prop29
280
     1
102
RTVSPost2010PropOp29
 70
     1
102
RTVSPost2010Prop30
280
     1
102
RTVSPost2010PropOp30
 70
     1
102
RTVSPost2010Prop31
280
     0
102
RTVSPost2010PropOp31
 70
     1
102
RTVSPost2010Prop32
280
     0
102
RTVSPost2010PropOp32
 70
     1
102
RTVSPost2010Prop33
280
     0
102
RTVSPost2010PropOp33
 70
     1
102
RTVSPost2010Prop34
280
     0
102
RTVSPost2010PropOp34
 70
     1
102
RTVSPost2010Prop35
280
     0
102
RTVSPost2010PropOp35
 70
     1
102
RTVSPost2010Prop36
280
     0
102
RTVSPost2010PropOp36
 70
     1
102
RTVSPost2010Prop37
 90
       50
102
RTVSPost2010PropOp37
 70
     1
102
RTVSPost2010Prop38
140
0.0
102
RTVSPost2010PropOp38
 70
     1
102
RTVSPost2010Prop39
140
1.0
102
RTVSPost2010PropOp39
 70
     1
102
RTVSPost2010Prop40
 90
        0
102
RTVSPost2010PropOp40
 70
     1
102
RTVSPost2010Prop41ColorIndex
 90
       18
102
RTVSPost2010Prop41ColorRGB
 90
        0
102
RTVSPost2010PropOp41
 70
     1
102
RTVSPost2010Prop42
 90
       50
102
RTVSPost2010PropOp42
 70
     1
102
RTVSPost2010Prop43
 90
        3
102
RTVSPost2010PropOp43
 70
     1
102
RTVSPost2010Prop44ColorIndex
 90
        5
102
RTVSPost2010Prop44ColorRGB
 90
      255
102
RTVSPost2010PropOp44
 70
     1
102
RTVSPost2010Prop45
280
     0
102
RTVSPost2010PropOp45
 70
     1
102
RTVSPost2010Prop46
 90
       50
102
RTVSPost2010PropOp46
 70
     1
102
RTVSPost2010Prop47
 90
       50
102
RTVSPost2010PropOp47
 70
     1
102
RTVSPost2010Prop48
 90
       50
102
RTVSPost2010PropOp48
 70
     1
102
RTVSPost2010Prop49
280
     0
102
RTVSPost2010PropOp49
 70
     1
102
RTVSPost2010Prop50
 90
       50
102
RTVSPost2010PropOp50
 70
     1
102
RTVSPost2010Prop51ColorIndex
 90
      256
102
RTVSPost2010Prop51ColorRGB
 90
-16777216
102
RTVSPost2010PropOp51
 70
     0
102
RTVSPost2010Prop52
140
1.0
102
RTVSPost2010PropOp52
 70
     0
102
RTVSPost2010Prop53
 90
        2
102
RTVSPost2010PropOp53
 70
     1
102
RTVSPost2010Prop54
  1
strokes_ogs.tif
102
RTVSPost2010PropOp54
 70
     1
102
RTVSPost2010Prop55
280
     0
102
RTVSPost2010PropOp55
 70
     1
102
RTVSPost2010Prop56
140
1.0
102
RTVSPost2010PropOp56
 70
     1
102
RTVSPost2010Prop57
140
1.0
102
RTVSPost2010PropOp57
 70
     1
  0
XRECORD
  5
10B
102
{ACAD_REACTORS
330
10A
102
}
330
10A
100
AcDbXrecord
280
     1
102
RTVSPost2010Prop28
280
     0
102
RTVSPost2010PropOp28
 70
     1
102
RTVSPost2010Prop29
280
     1
102
RTVSPost2010PropOp29
 70
     1
102
RTVSPost2010Prop30
280
     1
102
RTVSPost2010PropOp30
 70
     1
102
RTVSPost2010Prop31
280
     0
102
RTVSPost2010PropOp31
 70
     1
102
RTVSPost2010Prop32
280
     0
102
RTVSPost2010PropOp32
 70
     1
102
RTVSPost2010Prop33
280
     0
102
RTVSPost2010PropOp33
 70
     1
102
RTVSPost2010Prop34
280
     0
102
RTVSPost2010PropOp34
 70
     1
102
RTVSPost2010Prop35
280
     0
102
RTVSPost2010PropOp35
 70
     1
102
RTVSPost2010Prop36
280
     0
102
RTVSPost2010PropOp36
 70
     1
102
RTVSPost2010Prop37
 90
       50
102
RTVSPost2010PropOp37
 70
     1
102
RTVSPost2010Prop38
140
0.0
102
RTVSPost2010PropOp38
 70
     1
102
RTVSPost2010Prop39
140
1.0
102
RTVSPost2010PropOp39
 70
     1
102
RTVSPost2010Prop40
 90
        0
102
RTVSPost2010PropOp40
 70
     1
102
RTVSPost2010Prop41ColorIndex
 90
       18
102
RTVSPost2010Prop41ColorRGB
 90
        0
102
RTVSPost2010PropOp41
 70
     1
102
RTVSPost2010Prop42
 90
       50
102
RTVSPost2010PropOp42
 70
     1
102
RTVSPost2010Prop43
 90
        3
102
RTVSPost2010PropOp43
 70
     1
102
RTVSPost2010Prop44ColorIndex
 90
        5
102
RTVSPost2010Prop44ColorRGB
 90
      255
102
RTVSPost2010PropOp44
 70
     1
102
RTVSPost2010Prop45
280
     0
102
RTVSPost2010PropOp45
 70
     1
102
RTVSPost2010Prop46
 90
       50
102
RTVSPost2010PropOp46
 70
     1
102
RTVSPost2010Prop47
 90
       50
102
RTVSPost2010PropOp47
 70
     1
102
RTVSPost2010Prop48
 90
       50
102
RTVSPost2010PropOp48
 70
     1
102
RTVSPost2010Prop49
280
     0
102
RTVSPost2010PropOp49
 70
     1
102
RTVSPost2010Prop50
 90
       50
102
RTVSPost2010PropOp50
 70
     1
102
RTVSPost2010Prop51ColorIndex
 90
      256
102
RTVSPost2010Prop51ColorRGB
 90
-16777216
102
RTVSPost2010PropOp51
 70
     0
102
RTVSPost2010Prop52
140
1.0
102
RTVSPost2010PropOp52
 70
     0
102
RTVSPost2010Prop53
 90
        2
102
RTVSPost2010PropOp53
 70
     1
102
RTVSPost2010Prop54
  1
strokes_ogs.tif
102
RTVSPost2010PropOp54
 70
     1
102
RTVSPost2010Prop55
280
     0
102
RTVSPost2010PropOp55
 70
     1
102
RTVSPost2010Prop56
140
1.0
102
RTVSPost2010PropOp56
 70
     1
102
RTVSPost2010Prop57
140
1.0
102
RTVSPost2010PropOp57
 70
     1
  0
XRECORD
  5
10D
102
{ACAD_REACTORS
330
10C
102
}
330
10C
100
AcDbXrecord
280
     1
102
RTVSPost2010Prop28
280
     0
102
RTVSPost2010PropOp28
 70
     1
102
RTVSPost2010Prop29
280
     1
102
RTVSPost2010PropOp29
 70
     1
102
RTVSPost2010Prop30
280
     1
102
RTVSPost2010PropOp30
 70
     1
102
RTVSPost2010Prop31
280
     0
102
RTVSPost2010PropOp31
 70
     1
102
RTVSPost2010Prop32
280
     0
102
RTVSPost2010PropOp32
 70
     1
102
RTVSPost2010Prop33
280
     0
102
RTVSPost2010PropOp33
 70
     1
102
RTVSPost2010Prop34
280
     0
102
RTVSPost2010PropOp34
 70
     1
102
RTVSPost2010Prop35
280
     0
102
RTVSPost2010PropOp35
 70
     1
102
RTVSPost2010Prop36
280
     0
102
RTVSPost2010PropOp36
 70
     1
102
RTVSPost2010Prop37
 90
       50
102
RTVSPost2010PropOp37
 70
     1
102
RTVSPost2010Prop38
140
0.0
102
RTVSPost2010PropOp38
 70
     1
102
RTVSPost2010Prop39
140
1.0
102
RTVSPost2010PropOp39
 70
     1
102
RTVSPost2010Prop40
 90
        0
102
RTVSPost2010PropOp40
 70
     1
102
RTVSPost2010Prop41ColorIndex
 90
       18
102
RTVSPost2010Prop41ColorRGB
 90
        0
102
RTVSPost2010PropOp41
 70
     1
102
RTVSPost2010Prop42
 90
       50
102
RTVSPost2010PropOp42
 70
     1
102
RTVSPost2010Prop43
 90
        3
102
RTVSPost2010PropOp43
 70
     1
102
RTVSPost2010Prop44ColorIndex
 90
        5
102
RTVSPost2010Prop44ColorRGB
 90
      255
102
RTVSPost2010PropOp44
 70
     1
102
RTVSPost2010Prop45
280
     0
102
RTVSPost2010PropOp45
 70
     1
102
RTVSPost2010Prop46
 90
       50
102
RTVSPost2010PropOp46
 70
     1
102
RTVSPost2010Prop47
 90
       50
102
RTVSPost2010PropOp47
 70
     1
102
RTVSPost2010Prop48
 90
       50
102
RTVSPost2010PropOp48
 70
     1
102
RTVSPost2010Prop49
280
     0
102
RTVSPost2010PropOp49
 70
     1
102
RTVSPost2010Prop50
 90
       50
102
RTVSPost2010PropOp50
 70
     1
102
RTVSPost2010Prop51ColorIndex
 90
      256
102
RTVSPost2010Prop51ColorRGB
 90
-16777216
102
RTVSPost2010PropOp51
 70
     0
102
RTVSPost2010Prop52
140
1.0
102
RTVSPost2010PropOp52
 70
     0
102
RTVSPost2010Prop53
 90
        2
102
RTVSPost2010PropOp53
 70
     1
102
RTVSPost2010Prop54
  1
strokes_ogs.tif
102
RTVSPost2010PropOp54
 70
     1
102
RTVSPost2010Prop55
280
     0
102
RTVSPost2010PropOp55
 70
     1
102
RTVSPost2010Prop56
140
1.0
102
RTVSPost2010PropOp56
 70
     1
102
RTVSPost2010Prop57
140
1.0
102
RTVSPost2010PropOp57
 70
     1
  0
XRECORD
  5
115
102
{ACAD_REACTORS
330
114
102
}
330
114
100
AcDbXrecord
280
     1
102
RTVSPost2010Prop28
280
     0
102
RTVSPost2010PropOp28
 70
     1
102
RTVSPost2010Prop29
280
     1
102
RTVSPost2010PropOp29
 70
     1
102
RTVSPost2010Prop30
280
     1
102
RTVSPost2010PropOp30
 70
     1
102
RTVSPost2010Prop31
280
     0
102
RTVSPost2010PropOp31
 70
     1
102
RTVSPost2010Prop32
280
     0
102
RTVSPost2010PropOp32
 70
     1
102
RTVSPost2010Prop33
280
     0
102
RTVSPost2010PropOp33
 70
     1
102
RTVSPost2010Prop34
280
     0
102
RTVSPost2010PropOp34
 70
     1
102
RTVSPost2010Prop35
280
     0
102
RTVSPost2010PropOp35
 70
     1
102
RTVSPost2010Prop36
280
     0
102
RTVSPost2010PropOp36
 70
     1
102
RTVSPost2010Prop37
 90
       50
102
RTVSPost2010PropOp37
 70
     1
102
RTVSPost2010Prop38
140
0.0
102
RTVSPost2010PropOp38
 70
     1
102
RTVSPost2010Prop39
140
1.0
102
RTVSPost2010PropOp39
 70
     1
102
RTVSPost2010Prop40
 90
        0
102
RTVSPost2010PropOp40
 70
     1
102
RTVSPost2010Prop41ColorIndex
 90
       18
102
RTVSPost2010Prop41ColorRGB
 90
        0
102
RTVSPost2010PropOp41
 70
     1
102
RTVSPost2010Prop42
 90
       50
102
RTVSPost2010PropOp42
 70
     1
102
RTVSPost2010Prop43
 90
        3
102
RTVSPost2010PropOp43
 70
     1
102
RTVSPost2010Prop44ColorIndex
 90
        5
102
RTVSPost2010Prop44ColorRGB
 90
      255
102
RTVSPost2010PropOp44
 70
     1
102
RTVSPost2010Prop45
280
     0
102
RTVSPost2010PropOp45
 70
     1
102
RTVSPost2010Prop46
 90
       50
102
RTVSPost2010PropOp46
 70
     1
102
RTVSPost2010Prop47
 90
       50
102
RTVSPost2010PropOp47
 70
     1
102
RTVSPost2010Prop48
 90
       50
102
RTVSPost2010PropOp48
 70
     1
102
RTVSPost2010Prop49
280
     0
102
RTVSPost2010PropOp49
 70
     1
102
RTVSPost2010Prop50
 90
       50
102
RTVSPost2010PropOp50
 70
     1
102
RTVSPost2010Prop51ColorIndex
 90
      256
102
RTVSPost2010Prop51ColorRGB
 90
-16777216
102
RTVSPost2010PropOp51
 70
     0
102
RTVSPost2010Prop52
140
1.0
102
RTVSPost2010PropOp52
 70
     0
102
RTVSPost2010Prop53
 90
        2
102
RTVSPost2010PropOp53
 70
     1
102
RTVSPost2010Prop54
  1
strokes_ogs.tif
102
RTVSPost2010PropOp54
 70
     1
102
RTVSPost2010Prop55
280
     0
102
RTVSPost2010PropOp55
 70
     1
102
RTVSPost2010Prop56
140
1.0
102
RTVSPost2010PropOp56
 70
     1
102
RTVSPost2010Prop57
140
1.0
102
RTVSPost2010PropOp57
 70
     1
  0
XRECORD
  5
131
102
{ACAD_REACTORS
330
130
102
}
330
130
100
AcDbXrecord
280
     1
102
RTVSPost2010Prop28
280
     0
102
RTVSPost2010PropOp28
 70
     0
102
RTVSPost2010Prop29
280
     1
102
RTVSPost2010PropOp29
 70
     0
102
RTVSPost2010Prop30
280
     1
102
RTVSPost2010PropOp30
 70
     0
102
RTVSPost2010Prop31
280
     0
102
RTVSPost2010PropOp31
 70
     0
102
RTVSPost2010Prop32
280
     0
102
RTVSPost2010PropOp32
 70
     0
102
RTVSPost2010Prop33
280
     0
102
RTVSPost2010PropOp33
 70
     0
102
RTVSPost2010Prop34
280
     0
102
RTVSPost2010PropOp34
 70
     0
102
RTVSPost2010Prop35
280
     0
102
RTVSPost2010PropOp35
 70
     0
102
RTVSPost2010Prop36
280
     0
102
RTVSPost2010PropOp36
 70
     0
102
RTVSPost2010Prop37
 90
       50
102
RTVSPost2010PropOp37
 70
     0
102
RTVSPost2010Prop38
140
0.0
102
RTVSPost2010PropOp38
 70
     0
102
RTVSPost2010Prop39
140
1.0
102
RTVSPost2010PropOp39
 70
     0
102
RTVSPost2010Prop40
 90
        0
102
RTVSPost2010PropOp40
 70
     0
102
RTVSPost2010Prop41ColorIndex
 90
       18
102
RTVSPost2010Prop41ColorRGB
 90
        0
102
RTVSPost2010PropOp41
 70
     0
102
RTVSPost2010Prop42
 90
       50
102
RTVSPost2010PropOp42
 70
     0
102
RTVSPost2010Prop43
 90
        3
102
RTVSPost2010PropOp43
 70
     0
102
RTVSPost2010Prop44ColorIndex
 90
        5
102
RTVSPost2010Prop44ColorRGB
 90
      255
102
RTVSPost2010PropOp44
 70
     0
102
RTVSPost2010Prop45
280
     0
102
RTVSPost2010PropOp45
 70
     0
102
RTVSPost2010Prop46
 90
       50
102
RTVSPost2010PropOp46
 70
     0
102
RTVSPost2010Prop47
 90
       50
102
RTVSPost2010PropOp47
 70
     0
102
RTVSPost2010Prop48
 90
       50
102
RTVSPost2010PropOp48
 70
     0
102
RTVSPost2010Prop49
280
     0
102
RTVSPost2010PropOp49
 70
     0
102
RTVSPost2010Prop50
 90
       50
102
RTVSPost2010PropOp50
 70
     0
102
RTVSPost2010Prop51ColorIndex
 90
      256
102
RTVSPost2010Prop51ColorRGB
 90
-16777216
102
RTVSPost2010PropOp51
 70
     0
102
RTVSPost2010Prop52
140
1.0
102
RTVSPost2010PropOp52
 70
     0
102
RTVSPost2010Prop53
 90
        2
102
RTVSPost2010PropOp53
 70
     0
102
RTVSPost2010Prop54
  1
strokes_ogs.tif
102
RTVSPost2010PropOp54
 70
     0
102
RTVSPost2010Prop55
280
     0
102
RTVSPost2010PropOp55
 70
     0
102
RTVSPost2010Prop56
140
1.0
102
RTVSPost2010PropOp56
 70
     0
102
RTVSPost2010Prop57
140
1.0
102
RTVSPost2010PropOp57
 70
     0
  0
XRECORD
  5
121
102
{ACAD_REACTORS
330
120
102
}
330
120
100
AcDbXrecord
280
     1
102
RTVSPost2010Prop28
280
     0
102
RTVSPost2010PropOp28
 70
     1
102
RTVSPost2010Prop29
280
     1
102
RTVSPost2010PropOp29
 70
     1
102
RTVSPost2010Prop30
280
     1
102
RTVSPost2010PropOp30
 70
     1
102
RTVSPost2010Prop31
280
     0
102
RTVSPost2010PropOp31
 70
     1
102
RTVSPost2010Prop32
280
     0
102
RTVSPost2010PropOp32
 70
     1
102
RTVSPost2010Prop33
280
     0
102
RTVSPost2010PropOp33
 70
     1
102
RTVSPost2010Prop34
280
     0
102
RTVSPost2010PropOp34
 70
     1
102
RTVSPost2010Prop35
280
     0
102
RTVSPost2010PropOp35
 70
     1
102
RTVSPost2010Prop36
280
     0
102
RTVSPost2010PropOp36
 70
     1
102
RTVSPost2010Prop37
 90
       50
102
RTVSPost2010PropOp37
 70
     1
102
RTVSPost2010Prop38
140
0.0
102
RTVSPost2010PropOp38
 70
     1
102
RTVSPost2010Prop39
140
1.0
102
RTVSPost2010PropOp39
 70
     1
102
RTVSPost2010Prop40
 90
        0
102
RTVSPost2010PropOp40
 70
     1
102
RTVSPost2010Prop41ColorIndex
 90
       18
102
RTVSPost2010Prop41ColorRGB
 90
        0
102
RTVSPost2010PropOp41
 70
     1
102
RTVSPost2010Prop42
 90
       50
102
RTVSPost2010PropOp42
 70
     1
102
RTVSPost2010Prop43
 90
        3
102
RTVSPost2010PropOp43
 70
     1
102
RTVSPost2010Prop44ColorIndex
 90
        5
102
RTVSPost2010Prop44ColorRGB
 90
      255
102
RTVSPost2010PropOp44
 70
     1
102
RTVSPost2010Prop45
280
     0
102
RTVSPost2010PropOp45
 70
     1
102
RTVSPost2010Prop46
 90
       50
102
RTVSPost2010PropOp46
 70
     1
102
RTVSPost2010Prop47
 90
       50
102
RTVSPost2010PropOp47
 70
     1
102
RTVSPost2010Prop48
 90
       50
102
RTVSPost2010PropOp48
 70
     1
102
RTVSPost2010Prop49
280
     0
102
RTVSPost2010PropOp49
 70
     1
102
RTVSPost2010Prop50
 90
       50
102
RTVSPost2010PropOp50
 70
     1
102
RTVSPost2010Prop51ColorIndex
 90
      256
102
RTVSPost2010Prop51ColorRGB
 90
-16777216
102
RTVSPost2010PropOp51
 70
     0
102
RTVSPost2010Prop52
140
1.0
102
RTVSPost2010PropOp52
 70
     0
102
RTVSPost2010Prop53
 90
        2
102
RTVSPost2010PropOp53
 70
     1
102
RTVSPost2010Prop54
  1
strokes_ogs.tif
102
RTVSPost2010PropOp54
 70
     1
102
RTVSPost2010Prop55
280
     0
102
RTVSPost2010PropOp55
 70
     1
102
RTVSPost2010Prop56
140
1.0
102
RTVSPost2010PropOp56
 70
     1
102
RTVSPost2010Prop57
140
1.0
102
RTVSPost2010PropOp57
 70
     1
  0
XRECORD
  5
133
102
{ACAD_REACTORS
330
132
102
}
330
132
100
AcDbXrecord
280
     1
102
RTVSPost2010Prop28
280
     0
102
RTVSPost2010PropOp28
 70
     0
102
RTVSPost2010Prop29
280
     1
102
RTVSPost2010PropOp29
 70
     0
102
RTVSPost2010Prop30
280
     1
102
RTVSPost2010PropOp30
 70
     0
102
RTVSPost2010Prop31
280
     0
102
RTVSPost2010PropOp31
 70
     0
102
RTVSPost2010Prop32
280
     0
102
RTVSPost2010PropOp32
 70
     0
102
RTVSPost2010Prop33
280
     0
102
RTVSPost2010PropOp33
 70
     0
102
RTVSPost2010Prop34
280
     0
102
RTVSPost2010PropOp34
 70
     0
102
RTVSPost2010Prop35
280
     0
102
RTVSPost2010PropOp35
 70
     0
102
RTVSPost2010Prop36
280
     0
102
RTVSPost2010PropOp36
 70
     0
102
RTVSPost2010Prop37
 90
       50
102
RTVSPost2010PropOp37
 70
     0
102
RTVSPost2010Prop38
140
0.0
102
RTVSPost2010PropOp38
 70
     0
102
RTVSPost2010Prop39
140
1.0
102
RTVSPost2010PropOp39
 70
     0
102
RTVSPost2010Prop40
 90
        0
102
RTVSPost2010PropOp40
 70
     0
102
RTVSPost2010Prop41ColorIndex
 90
       18
102
RTVSPost2010Prop41ColorRGB
 90
        0
102
RTVSPost2010PropOp41
 70
     0
102
RTVSPost2010Prop42
 90
       50
102
RTVSPost2010PropOp42
 70
     0
102
RTVSPost2010Prop43
 90
        3
102
RTVSPost2010PropOp43
 70
     0
102
RTVSPost2010Prop44ColorIndex
 90
        5
102
RTVSPost2010Prop44ColorRGB
 90
      255
102
RTVSPost2010PropOp44
 70
     0
102
RTVSPost2010Prop45
280
     0
102
RTVSPost2010PropOp45
 70
     0
102
RTVSPost2010Prop46
 90
       50
102
RTVSPost2010PropOp46
 70
     0
102
RTVSPost2010Prop47
 90
       50
102
RTVSPost2010PropOp47
 70
     0
102
RTVSPost2010Prop48
 90
       50
102
RTVSPost2010PropOp48
 70
     0
102
RTVSPost2010Prop49
280
     0
102
RTVSPost2010PropOp49
 70
     0
102
RTVSPost2010Prop50
 90
       50
102
RTVSPost2010PropOp50
 70
     0
102
RTVSPost2010Prop51ColorIndex
 90
      256
102
RTVSPost2010Prop51ColorRGB
 90
-16777216
102
RTVSPost2010PropOp51
 70
     0
102
RTVSPost2010Prop52
140
1.0
102
RTVSPost2010PropOp52
 70
     0
102
RTVSPost2010Prop53
 90
        2
102
RTVSPost2010PropOp53
 70
     0
102
RTVSPost2010Prop54
  1
strokes_ogs.tif
102
RTVSPost2010PropOp54
 70
     0
102
RTVSPost2010Prop55
280
     0
102
RTVSPost2010PropOp55
 70
     0
102
RTVSPost2010Prop56
140
1.0
102
RTVSPost2010PropOp56
 70
     0
102
RTVSPost2010Prop57
140
1.0
102
RTVSPost2010PropOp57
 70
     0
  0
XRECORD
  5
119
102
{ACAD_REACTORS
330
118
102
}
330
118
100
AcDbXrecord
280
     1
102
RTVSPost2010Prop28
280
     0
102
RTVSPost2010PropOp28
 70
     1
102
RTVSPost2010Prop29
280
     1
102
RTVSPost2010PropOp29
 70
     1
102
RTVSPost2010Prop30
280
     1
102
RTVSPost2010PropOp30
 70
     1
102
RTVSPost2010Prop31
280
     0
102
RTVSPost2010PropOp31
 70
     1
102
RTVSPost2010Prop32
280
     0
102
RTVSPost2010PropOp32
 70
     1
102
RTVSPost2010Prop33
280
     0
102
RTVSPost2010PropOp33
 70
     1
102
RTVSPost2010Prop34
280
     0
102
RTVSPost2010PropOp34
 70
     1
102
RTVSPost2010Prop35
280
     0
102
RTVSPost2010PropOp35
 70
     1
102
RTVSPost2010Prop36
280
     0
102
RTVSPost2010PropOp36
 70
     1
102
RTVSPost2010Prop37
 90
       50
102
RTVSPost2010PropOp37
 70
     1
102
RTVSPost2010Prop38
140
0.0
102
RTVSPost2010PropOp38
 70
     1
102
RTVSPost2010Prop39
140
1.0
102
RTVSPost2010PropOp39
 70
     1
102
RTVSPost2010Prop40
 90
        0
102
RTVSPost2010PropOp40
 70
     1
102
RTVSPost2010Prop41ColorIndex
 90
       18
102
RTVSPost2010Prop41ColorRGB
 90
        0
102
RTVSPost2010PropOp41
 70
     1
102
RTVSPost2010Prop42
 90
       50
102
RTVSPost2010PropOp42
 70
     1
102
RTVSPost2010Prop43
 90
        3
102
RTVSPost2010PropOp43
 70
     1
102
RTVSPost2010Prop44ColorIndex
 90
        5
102
RTVSPost2010Prop44ColorRGB
 90
      255
102
RTVSPost2010PropOp44
 70
     1
102
RTVSPost2010Prop45
280
     0
102
RTVSPost2010PropOp45
 70
     1
102
RTVSPost2010Prop46
 90
       50
102
RTVSPost2010PropOp46
 70
     1
102
RTVSPost2010Prop47
 90
       50
102
RTVSPost2010PropOp47
 70
     1
102
RTVSPost2010Prop48
 90
       50
102
RTVSPost2010PropOp48
 70
     1
102
RTVSPost2010Prop49
280
     0
102
RTVSPost2010PropOp49
 70
     1
102
RTVSPost2010Prop50
 90
       50
102
RTVSPost2010PropOp50
 70
     1
102
RTVSPost2010Prop51ColorIndex
 90
      256
102
RTVSPost2010Prop51ColorRGB
 90
-16777216
102
RTVSPost2010PropOp51
 70
     0
102
RTVSPost2010Prop52
140
1.0
102
RTVSPost2010PropOp52
 70
     0
102
RTVSPost2010Prop53
 90
        2
102
RTVSPost2010PropOp53
 70
     1
102
RTVSPost2010Prop54
  1
strokes_ogs.tif
102
RTVSPost2010PropOp54
 70
     1
102
RTVSPost2010Prop55
280
     0
102
RTVSPost2010PropOp55
 70
     1
102
RTVSPost2010Prop56
140
1.0
102
RTVSPost2010PropOp56
 70
     1
102
RTVSPost2010Prop57
140
1.0
102
RTVSPost2010PropOp57
 70
     1
  0
XRECORD
  5
12F
102
{ACAD_REACTORS
330
12E
102
}
330
12E
100
AcDbXrecord
280
     1
102
RTVSPost2010Prop28
280
     0
102
RTVSPost2010PropOp28
 70
     1
102
RTVSPost2010Prop29
280
     1
102
RTVSPost2010PropOp29
 70
     1
102
RTVSPost2010Prop30
280
     1
102
RTVSPost2010PropOp30
 70
     1
102
RTVSPost2010Prop31
280
     0
102
RTVSPost2010PropOp31
 70
     1
102
RTVSPost2010Prop32
280
     0
102
RTVSPost2010PropOp32
 70
     1
102
RTVSPost2010Prop33
280
     0
102
RTVSPost2010PropOp33
 70
     1
102
RTVSPost2010Prop34
280
     0
102
RTVSPost2010PropOp34
 70
     1
102
RTVSPost2010Prop35
280
     0
102
RTVSPost2010PropOp35
 70
     1
102
RTVSPost2010Prop36
280
     0
102
RTVSPost2010PropOp36
 70
     1
102
RTVSPost2010Prop37
 90
       50
102
RTVSPost2010PropOp37
 70
     1
102
RTVSPost2010Prop38
140
0.0
102
RTVSPost2010PropOp38
 70
     1
102
RTVSPost2010Prop39
140
1.0
102
RTVSPost2010PropOp39
 70
     1
102
RTVSPost2010Prop40
 90
        0
102
RTVSPost2010PropOp40
 70
     1
102
RTVSPost2010Prop41ColorIndex
 90
       18
102
RTVSPost2010Prop41ColorRGB
 90
        0
102
RTVSPost2010PropOp41
 70
     1
102
RTVSPost2010Prop42
 90
       50
102
RTVSPost2010PropOp42
 70
     1
102
RTVSPost2010Prop43
 90
        3
102
RTVSPost2010PropOp43
 70
     1
102
RTVSPost2010Prop44ColorIndex
 90
        5
102
RTVSPost2010Prop44ColorRGB
 90
      255
102
RTVSPost2010PropOp44
 70
     1
102
RTVSPost2010Prop45
280
     0
102
RTVSPost2010PropOp45
 70
     1
102
RTVSPost2010Prop46
 90
       50
102
RTVSPost2010PropOp46
 70
     1
102
RTVSPost2010Prop47
 90
       50
102
RTVSPost2010PropOp47
 70
     1
102
RTVSPost2010Prop48
 90
       50
102
RTVSPost2010PropOp48
 70
     1
102
RTVSPost2010Prop49
280
     0
102
RTVSPost2010PropOp49
 70
     1
102
RTVSPost2010Prop50
 90
       50
102
RTVSPost2010PropOp50
 70
     1
102
RTVSPost2010Prop51ColorIndex
 90
      256
102
RTVSPost2010Prop51ColorRGB
 90
-16777216
102
RTVSPost2010PropOp51
 70
     0
102
RTVSPost2010Prop52
140
1.0
102
RTVSPost2010PropOp52
 70
     0
102
RTVSPost2010Prop53
 90
        2
102
RTVSPost2010PropOp53
 70
     1
102
RTVSPost2010Prop54
  1
strokes_ogs.tif
102
RTVSPost2010PropOp54
 70
     1
102
RTVSPost2010Prop55
280
     0
102
RTVSPost2010PropOp55
 70
     1
102
RTVSPost2010Prop56
140
1.0
102
RTVSPost2010PropOp56
 70
     1
102
RTVSPost2010Prop57
140
1.0
102
RTVSPost2010PropOp57
 70
     1
  0
XRECORD
  5
12D
102
{ACAD_REACTORS
330
12C
102
}
330
12C
100
AcDbXrecord
280
     1
102
RTVSPost2010Prop28
280
     0
102
RTVSPost2010PropOp28
 70
     1
102
RTVSPost2010Prop29
280
     1
102
RTVSPost2010PropOp29
 70
     1
102
RTVSPost2010Prop30
280
     1
102
RTVSPost2010PropOp30
 70
     1
102
RTVSPost2010Prop31
280
     0
102
RTVSPost2010PropOp31
 70
     1
102
RTVSPost2010Prop32
280
     0
102
RTVSPost2010PropOp32
 70
     1
102
RTVSPost2010Prop33
280
     0
102
RTVSPost2010PropOp33
 70
     1
102
RTVSPost2010Prop34
280
     0
102
RTVSPost2010PropOp34
 70
     1
102
RTVSPost2010Prop35
280
     0
102
RTVSPost2010PropOp35
 70
     1
102
RTVSPost2010Prop36
280
     0
102
RTVSPost2010PropOp36
 70
     1
102
RTVSPost2010Prop37
 90
       50
102
RTVSPost2010PropOp37
 70
     1
102
RTVSPost2010Prop38
140
0.0
102
RTVSPost2010PropOp38
 70
     1
102
RTVSPost2010Prop39
140
1.0
102
RTVSPost2010PropOp39
 70
     1
102
RTVSPost2010Prop40
 90
        0
102
RTVSPost2010PropOp40
 70
     1
102
RTVSPost2010Prop41ColorIndex
 90
       18
102
RTVSPost2010Prop41ColorRGB
 90
        0
102
RTVSPost2010PropOp41
 70
     1
102
RTVSPost2010Prop42
 90
       50
102
RTVSPost2010PropOp42
 70
     1
102
RTVSPost2010Prop43
 90
        3
102
RTVSPost2010PropOp43
 70
     1
102
RTVSPost2010Prop44ColorIndex
 90
        5
102
RTVSPost2010Prop44ColorRGB
 90
      255
102
RTVSPost2010PropOp44
 70
     1
102
RTVSPost2010Prop45
280
     0
102
RTVSPost2010PropOp45
 70
     1
102
RTVSPost2010Prop46
 90
       50
102
RTVSPost2010PropOp46
 70
     1
102
RTVSPost2010Prop47
 90
       50
102
RTVSPost2010PropOp47
 70
     1
102
RTVSPost2010Prop48
 90
       50
102
RTVSPost2010PropOp48
 70
     1
102
RTVSPost2010Prop49
280
     0
102
RTVSPost2010PropOp49
 70
     1
102
RTVSPost2010Prop50
 90
       50
102
RTVSPost2010PropOp50
 70
     1
102
RTVSPost2010Prop51ColorIndex
 90
      256
102
RTVSPost2010Prop51ColorRGB
 90
-16777216
102
RTVSPost2010PropOp51
 70
     0
102
RTVSPost2010Prop52
140
1.0
102
RTVSPost2010PropOp52
 70
     0
102
RTVSPost2010Prop53
 90
        2
102
RTVSPost2010PropOp53
 70
     1
102
RTVSPost2010Prop54
  1
strokes_ogs.tif
102
RTVSPost2010PropOp54
 70
     1
102
RTVSPost2010Prop55
280
     0
102
RTVSPost2010PropOp55
 70
     1
102
RTVSPost2010Prop56
140
1.0
102
RTVSPost2010PropOp56
 70
     1
102
RTVSPost2010Prop57
140
1.0
102
RTVSPost2010PropOp57
 70
     1
  0
XRECORD
  5
127
102
{ACAD_REACTORS
330
126
102
}
330
126
100
AcDbXrecord
280
     1
102
RTVSPost2010Prop28
280
     0
102
RTVSPost2010PropOp28
 70
     1
102
RTVSPost2010Prop29
280
     1
102
RTVSPost2010PropOp29
 70
     1
102
RTVSPost2010Prop30
280
     1
102
RTVSPost2010PropOp30
 70
     1
102
RTVSPost2010Prop31
280
     0
102
RTVSPost2010PropOp31
 70
     1
102
RTVSPost2010Prop32
280
     0
102
RTVSPost2010PropOp32
 70
     1
102
RTVSPost2010Prop33
280
     0
102
RTVSPost2010PropOp33
 70
     1
102
RTVSPost2010Prop34
280
     0
102
RTVSPost2010PropOp34
 70
     1
102
RTVSPost2010Prop35
280
     0
102
RTVSPost2010PropOp35
 70
     1
102
RTVSPost2010Prop36
280
     0
102
RTVSPost2010PropOp36
 70
     1
102
RTVSPost2010Prop37
 90
       50
102
RTVSPost2010PropOp37
 70
     1
102
RTVSPost2010Prop38
140
0.0
102
RTVSPost2010PropOp38
 70
     1
102
RTVSPost2010Prop39
140
1.0
102
RTVSPost2010PropOp39
 70
     1
102
RTVSPost2010Prop40
 90
        0
102
RTVSPost2010PropOp40
 70
     1
102
RTVSPost2010Prop41ColorIndex
 90
       18
102
RTVSPost2010Prop41ColorRGB
 90
        0
102
RTVSPost2010PropOp41
 70
     1
102
RTVSPost2010Prop42
 90
       50
102
RTVSPost2010PropOp42
 70
     1
102
RTVSPost2010Prop43
 90
        3
102
RTVSPost2010PropOp43
 70
     1
102
RTVSPost2010Prop44ColorIndex
 90
        5
102
RTVSPost2010Prop44ColorRGB
 90
      255
102
RTVSPost2010PropOp44
 70
     1
102
RTVSPost2010Prop45
280
     0
102
RTVSPost2010PropOp45
 70
     1
102
RTVSPost2010Prop46
 90
       50
102
RTVSPost2010PropOp46
 70
     1
102
RTVSPost2010Prop47
 90
       50
102
RTVSPost2010PropOp47
 70
     1
102
RTVSPost2010Prop48
 90
       50
102
RTVSPost2010PropOp48
 70
     1
102
RTVSPost2010Prop49
280
     0
102
RTVSPost2010PropOp49
 70
     1
102
RTVSPost2010Prop50
 90
       50
102
RTVSPost2010PropOp50
 70
     1
102
RTVSPost2010Prop51ColorIndex
 90
      256
102
RTVSPost2010Prop51ColorRGB
 90
-16777216
102
RTVSPost2010PropOp51
 70
     0
102
RTVSPost2010Prop52
140
1.0
102
RTVSPost2010PropOp52
 70
     0
102
RTVSPost2010Prop53
 90
        2
102
RTVSPost2010PropOp53
 70
     1
102
RTVSPost2010Prop54
  1
strokes_ogs.tif
102
RTVSPost2010PropOp54
 70
     1
102
RTVSPost2010Prop55
280
     0
102
RTVSPost2010PropOp55
 70
     1
102
RTVSPost2010Prop56
140
1.0
102
RTVSPost2010PropOp56
 70
     1
102
RTVSPost2010Prop57
140
1.0
102
RTVSPost2010PropOp57
 70
     1
  0
XRECORD
  5
129
102
{ACAD_REACTORS
330
128
102
}
330
128
100
AcDbXrecord
280
     1
102
RTVSPost2010Prop28
280
     0
102
RTVSPost2010PropOp28
 70
     1
102
RTVSPost2010Prop29
280
     1
102
RTVSPost2010PropOp29
 70
     1
102
RTVSPost2010Prop30
280
     1
102
RTVSPost2010PropOp30
 70
     1
102
RTVSPost2010Prop31
280
     0
102
RTVSPost2010PropOp31
 70
     1
102
RTVSPost2010Prop32
280
     0
102
RTVSPost2010PropOp32
 70
     1
102
RTVSPost2010Prop33
280
     0
102
RTVSPost2010PropOp33
 70
     1
102
RTVSPost2010Prop34
280
     0
102
RTVSPost2010PropOp34
 70
     1
102
RTVSPost2010Prop35
280
     0
102
RTVSPost2010PropOp35
 70
     1
102
RTVSPost2010Prop36
280
     0
102
RTVSPost2010PropOp36
 70
     1
102
RTVSPost2010Prop37
 90
       50
102
RTVSPost2010PropOp37
 70
     1
102
RTVSPost2010Prop38
140
0.0
102
RTVSPost2010PropOp38
 70
     1
102
RTVSPost2010Prop39
140
1.0
102
RTVSPost2010PropOp39
 70
     1
102
RTVSPost2010Prop40
 90
        0
102
RTVSPost2010PropOp40
 70
     1
102
RTVSPost2010Prop41ColorIndex
 90
       18
102
RTVSPost2010Prop41ColorRGB
 90
        0
102
RTVSPost2010PropOp41
 70
     1
102
RTVSPost2010Prop42
 90
       50
102
RTVSPost2010PropOp42
 70
     1
102
RTVSPost2010Prop43
 90
        3
102
RTVSPost2010PropOp43
 70
     1
102
RTVSPost2010Prop44ColorIndex
 90
        5
102
RTVSPost2010Prop44ColorRGB
 90
      255
102
RTVSPost2010PropOp44
 70
     1
102
RTVSPost2010Prop45
280
     0
102
RTVSPost2010PropOp45
 70
     1
102
RTVSPost2010Prop46
 90
       50
102
RTVSPost2010PropOp46
 70
     1
102
RTVSPost2010Prop47
 90
       50
102
RTVSPost2010PropOp47
 70
     1
102
RTVSPost2010Prop48
 90
       50
102
RTVSPost2010PropOp48
 70
     1
102
RTVSPost2010Prop49
280
     0
102
RTVSPost2010PropOp49
 70
     1
102
RTVSPost2010Prop50
 90
       50
102
RTVSPost2010PropOp50
 70
     1
102
RTVSPost2010Prop51ColorIndex
 90
      256
102
RTVSPost2010Prop51ColorRGB
 90
-16777216
102
RTVSPost2010PropOp51
 70
     0
102
RTVSPost2010Prop52
140
1.0
102
RTVSPost2010PropOp52
 70
     0
102
RTVSPost2010Prop53
 90
        2
102
RTVSPost2010PropOp53
 70
     1
102
RTVSPost2010Prop54
  1
strokes_ogs.tif
102
RTVSPost2010PropOp54
 70
     1
102
RTVSPost2010Prop55
280
     0
102
RTVSPost2010PropOp55
 70
     1
102
RTVSPost2010Prop56
140
1.0
102
RTVSPost2010PropOp56
 70
     1
102
RTVSPost2010Prop57
140
1.0
102
RTVSPost2010PropOp57
 70
     1
  0
XRECORD
  5
11F
102
{ACAD_REACTORS
330
11E
102
}
330
11E
100
AcDbXrecord
280
     1
102
RTVSPost2010Prop28
280
     0
102
RTVSPost2010PropOp28
 70
     1
102
RTVSPost2010Prop29
280
     1
102
RTVSPost2010PropOp29
 70
     1
102
RTVSPost2010Prop30
280
     1
102
RTVSPost2010PropOp30
 70
     1
102
RTVSPost2010Prop31
280
     0
102
RTVSPost2010PropOp31
 70
     1
102
RTVSPost2010Prop32
280
     0
102
RTVSPost2010PropOp32
 70
     1
102
RTVSPost2010Prop33
280
     0
102
RTVSPost2010PropOp33
 70
     1
102
RTVSPost2010Prop34
280
     0
102
RTVSPost2010PropOp34
 70
     1
102
RTVSPost2010Prop35
280
     0
102
RTVSPost2010PropOp35
 70
     1
102
RTVSPost2010Prop36
280
     0
102
RTVSPost2010PropOp36
 70
     1
102
RTVSPost2010Prop37
 90
       50
102
RTVSPost2010PropOp37
 70
     1
102
RTVSPost2010Prop38
140
0.0
102
RTVSPost2010PropOp38
 70
     1
102
RTVSPost2010Prop39
140
1.0
102
RTVSPost2010PropOp39
 70
     1
102
RTVSPost2010Prop40
 90
        0
102
RTVSPost2010PropOp40
 70
     1
102
RTVSPost2010Prop41ColorIndex
 90
       18
102
RTVSPost2010Prop41ColorRGB
 90
        0
102
RTVSPost2010PropOp41
 70
     1
102
RTVSPost2010Prop42
 90
       50
102
RTVSPost2010PropOp42
 70
     1
102
RTVSPost2010Prop43
 90
        3
102
RTVSPost2010PropOp43
 70
     1
102
RTVSPost2010Prop44ColorIndex
 90
        5
102
RTVSPost2010Prop44ColorRGB
 90
      255
102
RTVSPost2010PropOp44
 70
     1
102
RTVSPost2010Prop45
280
     0
102
RTVSPost2010PropOp45
 70
     1
102
RTVSPost2010Prop46
 90
       50
102
RTVSPost2010PropOp46
 70
     1
102
RTVSPost2010Prop47
 90
       50
102
RTVSPost2010PropOp47
 70
     1
102
RTVSPost2010Prop48
 90
       50
102
RTVSPost2010PropOp48
 70
     1
102
RTVSPost2010Prop49
280
     0
102
RTVSPost2010PropOp49
 70
     1
102
RTVSPost2010Prop50
 90
       50
102
RTVSPost2010PropOp50
 70
     1
102
RTVSPost2010Prop51ColorIndex
 90
      256
102
RTVSPost2010Prop51ColorRGB
 90
-16777216
102
RTVSPost2010PropOp51
 70
     0
102
RTVSPost2010Prop52
140
1.0
102
RTVSPost2010PropOp52
 70
     0
102
RTVSPost2010Prop53
 90
        2
102
RTVSPost2010PropOp53
 70
     1
102
RTVSPost2010Prop54
  1
strokes_ogs.tif
102
RTVSPost2010PropOp54
 70
     1
102
RTVSPost2010Prop55
280
     0
102
RTVSPost2010PropOp55
 70
     1
102
RTVSPost2010Prop56
140
1.0
102
RTVSPost2010PropOp56
 70
     1
102
RTVSPost2010Prop57
140
1.0
102
RTVSPost2010PropOp57
 70
     1
  0
XRECORD
  5
113
102
{ACAD_REACTORS
330
112
102
}
330
112
100
AcDbXrecord
280
     1
102
RTVSPost2010Prop28
280
     0
102
RTVSPost2010PropOp28
 70
     1
102
RTVSPost2010Prop29
280
     1
102
RTVSPost2010PropOp29
 70
     1
102
RTVSPost2010Prop30
280
     1
102
RTVSPost2010PropOp30
 70
     1
102
RTVSPost2010Prop31
280
     0
102
RTVSPost2010PropOp31
 70
     1
102
RTVSPost2010Prop32
280
     0
102
RTVSPost2010PropOp32
 70
     1
102
RTVSPost2010Prop33
280
     0
102
RTVSPost2010PropOp33
 70
     1
102
RTVSPost2010Prop34
280
     0
102
RTVSPost2010PropOp34
 70
     1
102
RTVSPost2010Prop35
280
     0
102
RTVSPost2010PropOp35
 70
     1
102
RTVSPost2010Prop36
280
     0
102
RTVSPost2010PropOp36
 70
     1
102
RTVSPost2010Prop37
 90
       50
102
RTVSPost2010PropOp37
 70
     1
102
RTVSPost2010Prop38
140
0.0
102
RTVSPost2010PropOp38
 70
     1
102
RTVSPost2010Prop39
140
1.0
102
RTVSPost2010PropOp39
 70
     1
102
RTVSPost2010Prop40
 90
        0
102
RTVSPost2010PropOp40
 70
     1
102
RTVSPost2010Prop41ColorIndex
 90
       18
102
RTVSPost2010Prop41ColorRGB
 90
        0
102
RTVSPost2010PropOp41
 70
     1
102
RTVSPost2010Prop42
 90
       50
102
RTVSPost2010PropOp42
 70
     1
102
RTVSPost2010Prop43
 90
        3
102
RTVSPost2010PropOp43
 70
     1
102
RTVSPost2010Prop44ColorIndex
 90
        5
102
RTVSPost2010Prop44ColorRGB
 90
      255
102
RTVSPost2010PropOp44
 70
     1
102
RTVSPost2010Prop45
280
     0
102
RTVSPost2010PropOp45
 70
     1
102
RTVSPost2010Prop46
 90
       50
102
RTVSPost2010PropOp46
 70
     1
102
RTVSPost2010Prop47
 90
       50
102
RTVSPost2010PropOp47
 70
     1
102
RTVSPost2010Prop48
 90
       50
102
RTVSPost2010PropOp48
 70
     1
102
RTVSPost2010Prop49
280
     0
102
RTVSPost2010PropOp49
 70
     1
102
RTVSPost2010Prop50
 90
       50
102
RTVSPost2010PropOp50
 70
     1
102
RTVSPost2010Prop51ColorIndex
 90
      256
102
RTVSPost2010Prop51ColorRGB
 90
-16777216
102
RTVSPost2010PropOp51
 70
     0
102
RTVSPost2010Prop52
140
1.0
102
RTVSPost2010PropOp52
 70
     0
102
RTVSPost2010Prop53
 90
        2
102
RTVSPost2010PropOp53
 70
     1
102
RTVSPost2010Prop54
  1
strokes_ogs.tif
102
RTVSPost2010PropOp54
 70
     1
102
RTVSPost2010Prop55
280
     0
102
RTVSPost2010PropOp55
 70
     1
102
RTVSPost2010Prop56
140
1.0
102
RTVSPost2010PropOp56
 70
     1
102
RTVSPost2010Prop57
140
1.0
102
RTVSPost2010PropOp57
 70
     1
  0
XRECORD
  5
12B
102
{ACAD_REACTORS
330
12A
102
}
330
12A
100
AcDbXrecord
280
     1
102
RTVSPost2010Prop28
280
     0
102
RTVSPost2010PropOp28
 70
     1
102
RTVSPost2010Prop29
280
     1
102
RTVSPost2010PropOp29
 70
     1
102
RTVSPost2010Prop30
280
     1
102
RTVSPost2010PropOp30
 70
     1
102
RTVSPost2010Prop31
280
     0
102
RTVSPost2010PropOp31
 70
     1
102
RTVSPost2010Prop32
280
     0
102
RTVSPost2010PropOp32
 70
     1
102
RTVSPost2010Prop33
280
     0
102
RTVSPost2010PropOp33
 70
     1
102
RTVSPost2010Prop34
280
     0
102
RTVSPost2010PropOp34
 70
     1
102
RTVSPost2010Prop35
280
     0
102
RTVSPost2010PropOp35
 70
     1
102
RTVSPost2010Prop36
280
     0
102
RTVSPost2010PropOp36
 70
     1
102
RTVSPost2010Prop37
 90
       50
102
RTVSPost2010PropOp37
 70
     1
102
RTVSPost2010Prop38
140
0.0
102
RTVSPost2010PropOp38
 70
     1
102
RTVSPost2010Prop39
140
1.0
102
RTVSPost2010PropOp39
 70
     1
102
RTVSPost2010Prop40
 90
        0
102
RTVSPost2010PropOp40
 70
     1
102
RTVSPost2010Prop41ColorIndex
 90
       18
102
RTVSPost2010Prop41ColorRGB
 90
        0
102
RTVSPost2010PropOp41
 70
     1
102
RTVSPost2010Prop42
 90
       50
102
RTVSPost2010PropOp42
 70
     1
102
RTVSPost2010Prop43
 90
        3
102
RTVSPost2010PropOp43
 70
     1
102
RTVSPost2010Prop44ColorIndex
 90
        5
102
RTVSPost2010Prop44ColorRGB
 90
      255
102
RTVSPost2010PropOp44
 70
     1
102
RTVSPost2010Prop45
280
     0
102
RTVSPost2010PropOp45
 70
     1
102
RTVSPost2010Prop46
 90
       50
102
RTVSPost2010PropOp46
 70
     1
102
RTVSPost2010Prop47
 90
       50
102
RTVSPost2010PropOp47
 70
     1
102
RTVSPost2010Prop48
 90
       50
102
RTVSPost2010PropOp48
 70
     1
102
RTVSPost2010Prop49
280
     0
102
RTVSPost2010PropOp49
 70
     1
102
RTVSPost2010Prop50
 90
       50
102
RTVSPost2010PropOp50
 70
     1
102
RTVSPost2010Prop51ColorIndex
 90
      256
102
RTVSPost2010Prop51ColorRGB
 90
-16777216
102
RTVSPost2010PropOp51
 70
     0
102
RTVSPost2010Prop52
140
1.0
102
RTVSPost2010PropOp52
 70
     0
102
RTVSPost2010Prop53
 90
        2
102
RTVSPost2010PropOp53
 70
     1
102
RTVSPost2010Prop54
  1
strokes_ogs.tif
102
RTVSPost2010PropOp54
 70
     1
102
RTVSPost2010Prop55
280
     0
102
RTVSPost2010PropOp55
 70
     1
102
RTVSPost2010Prop56
140
1.0
102
RTVSPost2010PropOp56
 70
     1
102
RTVSPost2010Prop57
140
1.0
102
RTVSPost2010PropOp57
 70
     1
  0
ENDSEC
  0
EOF
