  0
SECTION
  2
HEADER
  9
$ACADVER
  1
AC1024
  9
$ACADMAINTVER
 70
   226
  9
$DWGCODEPAGE
  3
ANSI_932
  9
$INSBASE
 10
0.0
 20
0.0
 30
0.0
  9
$EXTMIN
 10
1.000000000000000E+20
 20
1.000000000000000E+20
 30
1.000000000000000E+20
  9
$EXTMAX
 10
-1.000000000000000E+20
 20
-1.000000000000000E+20
 30
-1.000000000000000E+20
  9
$LIMMIN
 10
0.0
 20
0.0
  9
$LIMMAX
 10
12.0
 20
9.0
  9
$ORTHOMODE
 70
     0
  9
$REGENMODE
 70
     1
  9
$FILLMODE
 70
     1
  9
$QTEXTMODE
 70
     0
  9
$MIRRTEXT
 70
     0
  9
$LTSCALE
 40
1.0
  9
$ATTMODE
 70
     1
  9
$TEXTSIZE
 40
0.2
  9
$TRACEWID
 40
0.05
  9
$TEXTSTYLE
  7
Standard
  9
$CLAYER
  8
0
  9
$CELTYPE
  6
ByLayer
  9
$CECOLOR
 62
   256
  9
$CELTSCALE
 40
1.0
  9
$DISPSILH
 70
     0
  9
$DIMSCALE
 40
1.0
  9
$DIMASZ
 40
0.18
  9
$DIMEXO
 40
0.0625
  9
$DIMDLI
 40
0.38
  9
$DIMRND
 40
0.0
  9
$DIMDLE
 40
0.0
  9
$DIMEXE
 40
0.18
  9
$DIMTP
 40
0.0
  9
$DIMTM
 40
0.0
  9
$DIMTXT
 40
0.18
  9
$DIMCEN
 40
0.09
  9
$DIMTSZ
 40
0.0
  9
$DIMTOL
 70
     0
  9
$DIMLIM
 70
     0
  9
$DIMTIH
 70
     1
  9
$DIMTOH
 70
     1
  9
$DIMSE1
 70
     0
  9
$DIMSE2
 70
     0
  9
$DIMTAD
 70
     0
  9
$DIMZIN
 70
     0
  9
$DIMBLK
  1

  9
$DIMASO
 70
     1
  9
$DIMSHO
 70
     1
  9
$DIMPOST
  1

  9
$DIMAPOST
  1

  9
$DIMALT
 70
     0
  9
$DIMALTD
 70
     2
  9
$DIMALTF
 40
25.4
  9
$DIMLFAC
 40
1.0
  9
$DIMTOFL
 70
     0
  9
$DIMTVP
 40
0.0
  9
$DIMTIX
 70
     0
  9
$DIMSOXD
 70
     0
  9
$DIMSAH
 70
     0
  9
$DIMBLK1
  1

  9
$DIMBLK2
  1

  9
$DIMSTYLE
  2
Standard
  9
$DIMCLRD
 70
     0
  9
$DIMCLRE
 70
     0
  9
$DIMCLRT
 70
     0
  9
$DIMTFAC
 40
1.0
  9
$DIMGAP
 40
0.09
  9
$DIMJUST
 70
     0
  9
$DIMSD1
 70
     0
  9
$DIMSD2
 70
     0
  9
$DIMTOLJ
 70
     1
  9
$DIMTZIN
 70
     0
  9
$DIMALTZ
 70
     0
  9
$DIMALTTZ
 70
     0
  9
$DIMUPT
 70
     0
  9
$DIMDEC
 70
     4
  9
$DIMTDEC
 70
     4
  9
$DIMALTU
 70
     2
  9
$DIMALTTD
 70
     2
  9
$DIMTXSTY
  7
Standard
  9
$DIMAUNIT
 70
     0
  9
$DIMADEC
 70
     0
  9
$DIMALTRND
 40
0.0
  9
$DIMAZIN
 70
     0
  9
$DIMDSEP
 70
    46
  9
$DIMATFIT
 70
     3
  9
$DIMFRAC
 70
     0
  9
$DIMLDRBLK
  1

  9
$DIMLUNIT
 70
     2
  9
$DIMLWD
 70
    -2
  9
$DIMLWE
 70
    -2
  9
$DIMTMOVE
 70
     0
  9
$DIMFXL
 40
1.0
  9
$DIMFXLON
 70
     0
  9
$DIMJOGANG
 40
0.7853981633974483
  9
$DIMTFILL
 70
     0
  9
$DIMTFILLCLR
 70
     0
  9
$DIMARCSYM
 70
     0
  9
$DIMLTYPE
  6

  9
$DIMLTEX1
  6

  9
$DIMLTEX2
  6

  9
$DIMTXTDIRECTION
 70
     0
  9
$LUNITS
 70
     2
  9
$LUPREC
 70
     4
  9
$SKETCHINC
 40
0.1
  9
$FILLETRAD
 40
0.0
  9
$AUNITS
 70
     0
  9
$AUPREC
 70
     0
  9
$MENU
  1
.
  9
$ELEVATION
 40
0.0
  9
$PELEVATION
 40
0.0
  9
$THICKNESS
 40
0.0
  9
$LIMCHECK
 70
     0
  9
$CHAMFERA
 40
0.0
  9
$CHAMFERB
 40
0.0
  9
$CHAMFERC
 40
0.0
  9
$CHAMFERD
 40
0.0
  9
$SKPOLY
 70
     0
  9
$TDCREATE
 40
2459569.489965278
  9
$TDUCREATE
 40
2459569.114965278
  9
$TDUPDATE
 40
2459569.489965278
  9
$TDUUPDATE
 40
2459569.114965278
  9
$TDINDWG
 40
0.0000115741
  9
$TDUSRTIMER
 40
0.0000115741
  9
$USRTIMER
 70
     1
  9
$ANGBASE
 50
0.0
  9
$ANGDIR
 70
     0
  9
$PDMODE
 70
     0
  9
$PDSIZE
 40
0.0
  9
$PLINEWID
 40
0.0
  9
$SPLFRAME
 70
     0
  9
$SPLINETYPE
 70
     6
  9
$SPLINESEGS
 70
     8
  9
$HANDSEED
  5
14D
  9
$SURFTAB1
 70
     6
  9
$SURFTAB2
 70
     6
  9
$SURFTYPE
 70
     6
  9
$SURFU
 70
     6
  9
$SURFV
 70
     6
  9
$UCSBASE
  2

  9
$UCSNAME
  2

  9
$UCSORG
 10
0.0
 20
0.0
 30
0.0
  9
$UCSXDIR
 10
1.0
 20
0.0
 30
0.0
  9
$UCSYDIR
 10
0.0
 20
1.0
 30
0.0
  9
$UCSORTHOREF
  2

  9
$UCSORTHOVIEW
 70
     0
  9
$UCSORGTOP
 10
0.0
 20
0.0
 30
0.0
  9
$UCSORGBOTTOM
 10
0.0
 20
0.0
 30
0.0
  9
$UCSORGLEFT
 10
0.0
 20
0.0
 30
0.0
  9
$UCSORGRIGHT
 10
0.0
 20
0.0
 30
0.0
  9
$UCSORGFRONT
 10
0.0
 20
0.0
 30
0.0
  9
$UCSORGBACK
 10
0.0
 20
0.0
 30
0.0
  9
$PUCSBASE
  2

  9
$PUCSNAME
  2

  9
$PUCSORG
 10
0.0
 20
0.0
 30
0.0
  9
$PUCSXDIR
 10
1.0
 20
0.0
 30
0.0
  9
$PUCSYDIR
 10
0.0
 20
1.0
 30
0.0
  9
$PUCSORTHOREF
  2

  9
$PUCSORTHOVIEW
 70
     0
  9
$PUCSORGTOP
 10
0.0
 20
0.0
 30
0.0
  9
$PUCSORGBOTTOM
 10
0.0
 20
0.0
 30
0.0
  9
$PUCSORGLEFT
 10
0.0
 20
0.0
 30
0.0
  9
$PUCSORGRIGHT
 10
0.0
 20
0.0
 30
0.0
  9
$PUCSORGFRONT
 10
0.0
 20
0.0
 30
0.0
  9
$PUCSORGBACK
 10
0.0
 20
0.0
 30
0.0
  9
$USERI1
 70
     0
  9
$USERI2
 70
     0
  9
$USERI3
 70
     0
  9
$USERI4
 70
     0
  9
$USERI5
 70
     0
  9
$USERR1
 40
0.0
  9
$USERR2
 40
0.0
  9
$USERR3
 40
0.0
  9
$USERR4
 40
0.0
  9
$USERR5
 40
0.0
  9
$WORLDVIEW
 70
     1
  9
$SHADEDGE
 70
     3
  9
$SHADEDIF
 70
    70
  9
$TILEMODE
 70
     1
  9
$MAXACTVP
 70
    64
  9
$PINSBASE
 10
0.0
 20
0.0
 30
0.0
  9
$PLIMCHECK
 70
     0
  9
$PEXTMIN
 10
1.000000000000000E+20
 20
1.000000000000000E+20
 30
1.000000000000000E+20
  9
$PEXTMAX
 10
-1.000000000000000E+20
 20
-1.000000000000000E+20
 30
-1.000000000000000E+20
  9
$PLIMMIN
 10
0.0
 20
0.0
  9
$PLIMMAX
 10
12.0
 20
9.0
  9
$UNITMODE
 70
     0
  9
$VISRETAIN
 70
     1
  9
$PLINEGEN
 70
     0
  9
$PSLTSCALE
 70
     1
  9
$TREEDEPTH
 70
  3020
  9
$CMLSTYLE
  2
Standard
  9
$CMLJUST
 70
     0
  9
$CMLSCALE
 40
1.0
  9
$PROXYGRAPHICS
 70
     1
  9
$MEASUREMENT
 70
     0
  9
$CELWEIGHT
370
    -1
  9
$ENDCAPS
280
     0
  9
$JOINSTYLE
280
     0
  9
$LWDISPLAY
290
     1
  9
$INSUNITS
 70
     4
  9
$HYPERLINKBASE
  1

  9
$STYLESHEET
  1

  9
$XEDIT
290
     1
  9
$CEPSNTYPE
380
     0
  9
$PSTYLEMODE
290
     1
  9
$FINGERPRINTGUID
  2
{26A541EB-4538-FE4C-B13A-BCF137DA9AF7}
  9
$VERSIONGUID
  2
{69178560-A1EF-6849-98B4-8EAC53F27312}
  9
$EXTNAMES
290
     1
  9
$PSVPSCALE
 40
0.0
  9
$OLESTARTUP
290
     0
  9
$SORTENTS
280
   127
  9
$INDEXCTL
280
     0
  9
$HIDETEXT
280
     1
  9
$XCLIPFRAME
280
     2
  9
$HALOGAP
280
     0
  9
$OBSCOLOR
 70
   257
  9
$OBSLTYPE
280
     0
  9
$INTERSECTIONDISPLAY
280
     0
  9
$INTERSECTIONCOLOR
 70
   257
  9
$DIMASSOC
280
     2
  9
$PROJECTNAME
  1

  9
$CAMERADISPLAY
290
     0
  9
$LENSLENGTH
 40
50.0
  9
$CAMERAHEIGHT
 40
0.0
  9
$STEPSPERSEC
 40
2.0
  9
$STEPSIZE
 40
6.0
  9
$3DDWFPREC
 40
2.0
  9
$PSOLWIDTH
 40
0.25
  9
$PSOLHEIGHT
 40
4.0
  9
$LOFTANG1
 40
1.570796326794896
  9
$LOFTANG2
 40
1.570796326794896
  9
$LOFTMAG1
 40
0.0
  9
$LOFTMAG2
 40
0.0
  9
$LOFTPARAM
 70
     7
  9
$LOFTNORMALS
280
     1
  9
$LATITUDE
 40
37.795
  9
$LONGITUDE
 40
-122.394
  9
$NORTHDIRECTION
 40
0.0
  9
$TIMEZONE
 70
 -8000
  9
$LIGHTGLYPHDISPLAY
280
     1
  9
$TILEMODELIGHTSYNCH
280
     1
  9
$CMATERIAL
347
11
  9
$SOLIDHIST
280
     0
  9
$SHOWHIST
280
     1
  9
$DWFFRAME
280
     2
  9
$DGNFRAME
280
     0
  9
$REALWORLDSCALE
290
     1
  9
$INTERFERECOLOR
 62
     1
  9
$INTERFEREOBJVS
345
33
  9
$INTERFEREVPVS
346
30
  9
$CSHADOW
280
     0
  9
$SHADOWPLANELOCATION
 40
0.0
  0
ENDSEC
  0
SECTION
  2
CLASSES
  0
CLASS
  1
ACDBDICTIONARYWDFLT
  2
AcDbDictionaryWithDefault
  3
ObjectDBX Classes
 90
        0
 91
        1
280
     0
281
     0
  0
CLASS
  1
MATERIAL
  2
AcDbMaterial
  3
ObjectDBX Classes
 90
     1153
 91
        3
280
     0
281
     0
  0
CLASS
  1
VISUALSTYLE
  2
AcDbVisualStyle
  3
ObjectDBX Classes
 90
     4095
 91
       24
280
     0
281
     0
  0
CLASS
  1
SCALE
  2
AcDbScale
  3
ObjectDBX Classes
 90
     1153
 91
       17
280
     0
281
     0
  0
CLASS
  1
TABLESTYLE
  2
AcDbTableStyle
  3
ObjectDBX Classes
 90
     4095
 91
        1
280
     0
281
     0
  0
CLASS
  1
MLEADERSTYLE
  2
AcDbMLeaderStyle
  3
ACDB_MLEADERSTYLE_CLASS
 90
     4095
 91
        1
280
     0
281
     0
  0
CLASS
  1
ACDBSECTIONVIEWSTYLE
  2
AcDbSectionViewStyle
  3
ObjectDBX Classes
 90
     1025
 91
        1
280
     0
281
     0
  0
CLASS
  1
ACDBDETAILVIEWSTYLE
  2
AcDbDetailViewStyle
  3
ObjectDBX Classes
 90
     1025
 91
        1
280
     0
281
     0
  0
CLASS
  1
DICTIONARYVAR
  2
AcDbDictionaryVar
  3
ObjectDBX Classes
 90
        0
 91
        5
280
     0
281
     0
  0
CLASS
  1
CELLSTYLEMAP
  2
AcDbCellStyleMap
  3
ObjectDBX Classes
 90
     1152
 91
        1
280
     0
281
     0
  0
ENDSEC
  0
SECTION
  2
TABLES
  0
TABLE
  2
VPORT
  5
8
330
0
100
AcDbSymbolTable
 70
     1
  0
VPORT
  5
57
330
8
100
AcDbSymbolTableRecord
100
AcDbViewportTableRecord
  2
*Active
 70
     0
 10
0.0
 20
0.0
 11
1.0
 21
1.0
 12
0.0
 22
0.0
 13
0.0
 23
0.0
 14
1.0
 24
1.0
 15
0.0
 25
0.0
 16
0.0
 26
0.0
 36
1.0
 17
104.9999999737534
 27
-148.4999999628701
 37
0.0
 40
302.939999924255
 41
0.7070707070707534
 42
50.0
 43
0.0
 44
0.0
 50
0.0
 51
0.0
 71
     0
 72
   100
 73
     1
 74
     0
 75
     1
 76
     0
 77
     0
 78
     0
281
     0
 65
     1
110
0.0
120
0.0
130
0.0
111
1.0
121
0.0
131
0.0
112
0.0
122
1.0
132
0.0
 79
     0
146
0.0
 60
     3
 61
     5
292
     1
282
     1
141
0.0
142
0.0
 63
   250
421
  3355443
  0
ENDTAB
  0
TABLE
  2
LTYPE
  5
5
330
0
100
AcDbSymbolTable
 70
     2
  0
LTYPE
  5
5B
330
5
100
AcDbSymbolTableRecord
100
AcDbLinetypeTableRecord
  2
ByBlock
 70
     0
  3

 72
    65
 73
     0
 40
0.0
  0
LTYPE
  5
5C
330
5
100
AcDbSymbolTableRecord
100
AcDbLinetypeTableRecord
  2
ByLayer
 70
     0
  3

 72
    65
 73
     0
 40
0.0
  0
LTYPE
  5
5D
330
5
100
AcDbSymbolTableRecord
100
AcDbLinetypeTableRecord
  2
Continuous
 70
     0
  3
Solid line
 72
    65
 73
     0
 40
0.0
  0
LTYPE
  5
10D
330
5
100
AcDbSymbolTableRecord
100
AcDbLinetypeTableRecord
  2
AI-Linetype-0
 70
     0
  3
Adobe Illustrator Linetype No. 0
 72
    65
 73
     2
 40
1.411111110758333
 49
0.7055555553791667
 74
     0
 49
-0.7055555553791667
 74
     0
  0
ENDTAB
  0
TABLE
  2
LAYER
  5
2
330
0
100
AcDbSymbolTable
 70
     2
  0
LAYER
  5
54
330
2
100
AcDbSymbolTableRecord
100
AcDbLayerTableRecord
  2
0
 70
     0
 62
     7
  6
Continuous
370
    -3
390
F
347
21
  0
LAYER
  5
78
330
2
100
AcDbSymbolTableRecord
100
AcDbLayerTableRecord
  2
レイヤー 1
 70
     0
 62
     7
  6
Continuous
370
     0
390
F
347
21
  0
ENDTAB
  0
TABLE
  2
STYLE
  5
3
330
0
100
AcDbSymbolTable
 70
     2
  0
STYLE
  5
55
330
3
100
AcDbSymbolTableRecord
100
AcDbTextStyleTableRecord
  2
Standard
 70
     0
 40
0.0
 41
1.0
 50
0.0
 71
     0
 42
0.2
  3
txt
  4

  0
STYLE
  5
5A
330
3
100
AcDbSymbolTableRecord
100
AcDbTextStyleTableRecord
  2
Annotative
 70
     0
 40
0.0
 41
1.0
 50
0.0
 71
     0
 42
0.2
  3
txt
  4

1001
AcadAnnotative
1000
AnnotativeData
1002
{
1070
     1
1070
     1
1002
}
  0
ENDTAB
  0
TABLE
  2
VIEW
  5
6
330
0
100
AcDbSymbolTable
 70
     0
  0
ENDTAB
  0
TABLE
  2
UCS
  5
7
330
0
100
AcDbSymbolTable
 70
     0
  0
ENDTAB
  0
TABLE
  2
APPID
  5
9
330
0
100
AcDbSymbolTable
 70
     2
  0
APPID
  5
56
330
9
100
AcDbSymbolTableRecord
100
AcDbRegAppTableRecord
  2
ACAD
 70
     0
  0
APPID
  5
5E
330
9
100
AcDbSymbolTableRecord
100
AcDbRegAppTableRecord
  2
AcadAnnotative
 70
     0
  0
ENDTAB
  0
TABLE
  2
DIMSTYLE
  5
A
330
0
100
AcDbSymbolTable
 70
     2
100
AcDbDimStyleTable
 71
     0
  0
DIMSTYLE
105
58
330
A
100
AcDbSymbolTableRecord
100
AcDbDimStyleTableRecord
  2
Standard
 70
     0
340
55
  0
DIMSTYLE
105
59
330
A
100
AcDbSymbolTableRecord
100
AcDbDimStyleTableRecord
  2
Annotative
 70
     0
340
55
1001
AcadAnnotative
1000
AnnotativeData
1002
{
1070
     1
1070
     1
1002
}
  0
ENDTAB
  0
TABLE
  2
BLOCK_RECORD
  5
1
330
0
100
AcDbSymbolTable
 70
    13
  0
BLOCK_RECORD
  5
70
330
1
100
AcDbSymbolTableRecord
100
AcDbBlockTableRecord
  2
*Model_Space
340
73
 70
     0
280
     1
281
     0
  0
BLOCK_RECORD
  5
6C
330
1
100
AcDbSymbolTableRecord
100
AcDbBlockTableRecord
  2
*Paper_Space
340
6F
 70
     0
280
     1
281
     0
  0
BLOCK_RECORD
  5
74
330
1
100
AcDbSymbolTableRecord
100
AcDbBlockTableRecord
  2
*Paper_Space0
340
77
 70
     0
280
     1
281
     0
  0
BLOCK_RECORD
  5
95
330
1
100
AcDbSymbolTableRecord
100
AcDbBlockTableRecord
  2
Block_0
340
0
102
{BLKREFS
331
96
102
}
 70
     0
280
     1
281
     0
  0
BLOCK_RECORD
  5
9E
330
1
100
AcDbSymbolTableRecord
100
AcDbBlockTableRecord
  2
Block_1
340
0
102
{BLKREFS
331
9F
102
}
 70
     0
280
     1
281
     0
  0
BLOCK_RECORD
  5
A2
330
1
100
AcDbSymbolTableRecord
100
AcDbBlockTableRecord
  2
Block_2
340
0
102
{BLKREFS
331
A3
102
}
 70
     0
280
     1
281
     0
  0
BLOCK_RECORD
  5
AE
330
1
100
AcDbSymbolTableRecord
100
AcDbBlockTableRecord
  2
Block_3
340
0
102
{BLKREFS
331
AF
102
}
 70
     0
280
     1
281
     0
  0
BLOCK_RECORD
  5
B2
330
1
100
AcDbSymbolTableRecord
100
AcDbBlockTableRecord
  2
Block_4
340
0
102
{BLKREFS
331
B3
102
}
 70
     0
280
     1
281
     0
  0
BLOCK_RECORD
  5
C0
330
1
100
AcDbSymbolTableRecord
100
AcDbBlockTableRecord
  2
Block_5
340
0
102
{BLKREFS
331
C1
102
}
 70
     0
280
     1
281
     0
  0
BLOCK_RECORD
  5
C4
330
1
100
AcDbSymbolTableRecord
100
AcDbBlockTableRecord
  2
Block_6
340
0
102
{BLKREFS
331
C5
102
}
 70
     0
280
     1
281
     0
  0
BLOCK_RECORD
  5
CF
330
1
100
AcDbSymbolTableRecord
100
AcDbBlockTableRecord
  2
Block_7
340
0
102
{BLKREFS
331
D0
102
}
 70
     0
280
     1
281
     0
  0
BLOCK_RECORD
  5
D9
330
1
100
AcDbSymbolTableRecord
100
AcDbBlockTableRecord
  2
Block_8
340
0
102
{BLKREFS
331
DA
102
}
 70
     0
280
     1
281
     0
  0
BLOCK_RECORD
  5
DD
330
1
100
AcDbSymbolTableRecord
100
AcDbBlockTableRecord
  2
Block_9
340
0
102
{BLKREFS
331
DE
102
}
 70
     0
280
     1
281
     0
  0
BLOCK_RECORD
  5
EA
330
1
100
AcDbSymbolTableRecord
100
AcDbBlockTableRecord
  2
Block_10
340
0
102
{BLKREFS
331
EB
102
}
 70
     0
280
     1
281
     0
  0
BLOCK_RECORD
  5
EE
330
1
100
AcDbSymbolTableRecord
100
AcDbBlockTableRecord
  2
Block_11
340
0
102
{BLKREFS
331
EF
102
}
 70
     0
280
     1
281
     0
  0
ENDTAB
  0
ENDSEC
  0
SECTION
  2
BLOCKS
  0
BLOCK
  5
71
330
70
100
AcDbEntity
  8
0
100
AcDbBlockBegin
  2
*Model_Space
 70
     0
 10
0.0
 20
0.0
 30
0.0
  3
*Model_Space
  1

  0
ENDBLK
  5
72
330
70
100
AcDbEntity
  8
0
100
AcDbBlockEnd
  0
BLOCK
  5
6D
330
6C
100
AcDbEntity
 67
     1
  8
0
100
AcDbBlockBegin
  2
*Paper_Space
 70
     0
 10
0.0
 20
0.0
 30
0.0
  3
*Paper_Space
  1

  0
ENDBLK
  5
6E
330
6C
100
AcDbEntity
 67
     1
  8
0
100
AcDbBlockEnd
  0
BLOCK
  5
75
330
74
100
AcDbEntity
 67
     1
  8
0
100
AcDbBlockBegin
  2
*Paper_Space0
 70
     0
 10
0.0
 20
0.0
 30
0.0
  3
*Paper_Space0
  1

  0
ENDBLK
  5
76
330
74
100
AcDbEntity
 67
     1
  8
0
100
AcDbBlockEnd
  0
BLOCK
  5
97
330
95
100
AcDbEntity
  8
0
100
AcDbBlockBegin
  2
Block_0
 70
     0
 10
0.0
 20
0.0
 30
0.0
  3
Block_0
  1

  0
SPLINE
  5
99
330
95
100
AcDbEntity
  8
レイヤー 1
100
AcDbSpline
210
0.0
220
0.0
230
1.0
 70
    11
 71
     3
 72
    26
 73
    22
 74
     0
 42
0.0000000001
 43
0.0000000001
 40
0.0
 40
0.0
 40
0.0
 40
0.0
 40
1.0
 40
1.0
 40
1.0
 40
2.0
 40
2.0
 40
2.0
 40
3.0
 40
3.0
 40
3.0
 40
4.0
 40
4.0
 40
4.0
 40
5.0
 40
5.0
 40
5.0
 40
6.0
 40
6.0
 40
6.0
 40
7.0
 40
7.0
 40
7.0
 40
7.0
 10
120.9042480166489
 20
-137.3821397225989
 30
0.0
 10
120.9042480166489
 20
-137.3821397225989
 30
0.0
 10
119.7997504040778
 20
-137.3821397225989
 30
0.0
 10
119.7997504040778
 20
-137.3821397225989
 30
0.0
 10
119.7997504040778
 20
-137.3821397225989
 30
0.0
 10
119.7997504040778
 20
-137.7121798700858
 30
0.0
 10
119.7997504040778
 20
-137.7121798700858
 30
0.0
 10
119.7997504040778
 20
-137.7121798700858
 30
0.0
 10
119.6516112982121
 20
-137.7121798700858
 30
0.0
 10
119.6516112982121
 20
-137.7121798700858
 30
0.0
 10
119.637141897174
 20
-137.3800726653078
 30
0.0
 10
119.4738443711732
 20
-137.3335638762569
 30
0.0
 10
119.3594672010629
 20
-137.3039360550837
 30
0.0
 10
119.3594672010629
 20
-137.3039360550837
 30
0.0
 10
119.3594672010629
 20
-137.1578640065091
 30
0.0
 10
119.3594672010629
 20
-137.1578640065091
 30
0.0
 10
119.3594672010629
 20
-137.1578640065091
 30
0.0
 10
120.9042480166489
 20
-137.1578640065091
 30
0.0
 10
120.9042480166489
 20
-137.1578640065091
 30
0.0
 10
120.9042480166489
 20
-137.1578640065091
 30
0.0
 10
120.9042480166489
 20
-137.3821397225989
 30
0.0
 10
120.9042480166489
 20
-137.3821397225989
 30
0.0
  0
HATCH
  5
9A
330
95
100
AcDbEntity
  8
レイヤー 1
 62
    18
420
        0
440
 33554687
100
AcDbHatch
 10
0.0
 20
0.0
 30
0.0
210
0.0
220
0.0
230
1.0
  2
SOLID
 70
     1
 71
     1
 91
        1
 92
        1
 93
        1
 72
     4
 94
        3
 73
     0
 74
     0
 95
       26
 96
       22
 40
0.0
 40
0.0
 40
0.0
 40
0.0
 40
1.0
 40
1.0
 40
1.0
 40
2.0
 40
2.0
 40
2.0
 40
3.0
 40
3.0
 40
3.0
 40
4.0
 40
4.0
 40
4.0
 40
5.0
 40
5.0
 40
5.0
 40
6.0
 40
6.0
 40
6.0
 40
7.0
 40
7.0
 40
7.0
 40
7.0
 10
120.9042480166489
 20
-137.3821397225989
 10
120.9042480166489
 20
-137.3821397225989
 10
119.7997504040778
 20
-137.3821397225989
 10
119.7997504040778
 20
-137.3821397225989
 10
119.7997504040778
 20
-137.3821397225989
 10
119.7997504040778
 20
-137.7121798700858
 10
119.7997504040778
 20
-137.7121798700858
 10
119.7997504040778
 20
-137.7121798700858
 10
119.6516112982121
 20
-137.7121798700858
 10
119.6516112982121
 20
-137.7121798700858
 10
119.637141897174
 20
-137.3800726653078
 10
119.4738443711732
 20
-137.3335638762569
 10
119.3594672010629
 20
-137.3039360550837
 10
119.3594672010629
 20
-137.3039360550837
 10
119.3594672010629
 20
-137.1578640065091
 10
119.3594672010629
 20
-137.1578640065091
 10
119.3594672010629
 20
-137.1578640065091
 10
120.9042480166489
 20
-137.1578640065091
 10
120.9042480166489
 20
-137.1578640065091
 10
120.9042480166489
 20
-137.1578640065091
 10
120.9042480166489
 20
-137.3821397225989
 10
120.9042480166489
 20
-137.3821397225989
 97
        0
 97
        1
330
99
 75
     2
 76
     1
 98
        1
 10
0.0
 20
0.0
450
        0
451
        0
460
0.0
461
0.0
452
        0
462
0.0
453
        0
470

  0
ENDBLK
  5
98
330
95
100
AcDbEntity
  8
0
100
AcDbBlockEnd
  0
BLOCK
  5
A0
330
9E
100
AcDbEntity
  8
0
100
AcDbBlockBegin
  2
Block_1
 70
     0
 10
0.0
 20
0.0
 30
0.0
  3
Block_1
  1

  0
INSERT
  5
A3
330
9E
100
AcDbEntity
  8
レイヤー 1
100
AcDbBlockReference
  2
Block_2
 10
0.0
 20
0.0
 30
0.0
  0
ENDBLK
  5
A1
330
9E
100
AcDbEntity
  8
0
100
AcDbBlockEnd
  0
BLOCK
  5
A4
330
A2
100
AcDbEntity
  8
0
100
AcDbBlockBegin
  2
Block_2
 70
     0
 10
0.0
 20
0.0
 30
0.0
  3
Block_2
  1

  0
SPLINE
  5
A6
330
A2
100
AcDbEntity
  8
レイヤー 1
100
AcDbSpline
210
0.0
220
0.0
230
1.0
 70
     9
 71
     3
 72
    62
 73
    58
 74
     0
 42
0.0000000001
 43
0.0000000001
 40
0.0
 40
0.0
 40
0.0
 40
0.0
 40
1.0
 40
1.0
 40
1.0
 40
2.0
 40
2.0
 40
2.0
 40
3.0
 40
3.0
 40
3.0
 40
4.0
 40
4.0
 40
4.0
 40
5.0
 40
5.0
 40
5.0
 40
6.0
 40
6.0
 40
6.0
 40
7.0
 40
7.0
 40
7.0
 40
8.0
 40
8.0
 40
8.0
 40
9.0
 40
9.0
 40
9.0
 40
10.0
 40
10.0
 40
10.0
 40
11.0
 40
11.0
 40
11.0
 40
12.0
 40
12.0
 40
12.0
 40
13.0
 40
13.0
 40
13.0
 40
14.0
 40
14.0
 40
14.0
 40
15.0
 40
15.0
 40
15.0
 40
16.0
 40
16.0
 40
16.0
 40
17.0
 40
17.0
 40
17.0
 40
18.0
 40
18.0
 40
18.0
 40
19.0
 40
19.0
 40
19.0
 40
19.0
 10
102.0354600439355
 20
-135.0325846016585
 30
0.0
 10
101.9402031537684
 20
-135.0325846016585
 30
0.0
 10
101.7223008643263
 20
-135.0113972644242
 30
0.0
 10
101.5975884077603
 20
-134.8251898534465
 30
0.0
 10
101.5235188548274
 20
-134.7130519954016
 30
0.0
 10
101.5192124854709
 20
-134.6136609906521
 30
0.0
 10
101.5150783708886
 20
-134.5290838964892
 30
0.0
 10
101.5150783708886
 20
-134.5290838964892
 30
0.0
 10
101.7350477176218
 20
-134.5290838964892
 30
0.0
 10
101.7350477176218
 20
-134.5290838964892
 30
0.0
 10
101.7371147749129
 20
-134.6031534494221
 30
0.0
 10
101.7477945709172
 20
-134.8379367067419
 30
0.0
 10
102.031153674579
 20
-134.8379367067419
 30
0.0
 10
102.1687852392147
 20
-134.8379367067419
 30
0.0
 10
102.3210584596628
 20
-134.7681735231656
 30
0.0
 10
102.3210584596628
 20
-134.5395914377192
 30
0.0
 10
102.3210584596628
 20
-134.4233194650921
 30
0.0
 10
102.2829901545508
 20
-134.3745713639758
 30
0.0
 10
102.2512952760864
 20
-134.3428764855115
 30
0.0
 10
102.1772257231536
 20
-134.2688069325786
 30
0.0
 10
102.0607814957521
 20
-134.2562323340575
 30
0.0
 10
102.0058322227624
 20
-134.2562323340575
 30
0.0
 10
101.9868841975935
 20
-134.2562323340575
 30
0.0
 10
101.9508829497727
 20
-134.2582993913486
 30
0.0
 10
101.9233221858907
 20
-134.2624335059309
 30
0.0
 10
101.9233221858907
 20
-134.2624335059309
 30
0.0
 10
101.9233221858907
 20
-134.0677856110143
 30
0.0
 10
101.9233221858907
 20
-134.0677856110143
 30
0.0
 10
101.9613904910027
 20
-134.074159037662
 30
0.0
 10
102.0037651654712
 20
-134.0763983497274
 30
0.0
 10
102.010138592119
 20
-134.0763983497274
 30
0.0
 10
102.0755954063387
 20
-134.0763983497274
 30
0.0
 10
102.2745496706119
 20
-134.0552110124931
 30
0.0
 10
102.2745496706119
 20
-133.8181884431079
 30
0.0
 10
102.2745496706119
 20
-133.6405937708433
 30
0.0
 10
102.1432915326239
 20
-133.5854722430793
 30
0.0
 10
102.0333929866444
 20
-133.5854722430793
 30
0.0
 10
101.7689819081515
 20
-133.5854722430793
 30
0.0
 10
101.7603691694384
 20
-133.8181884431079
 30
0.0
 10
101.7562350548561
 20
-133.8901909387496
 30
0.0
 10
101.7562350548561
 20
-133.8901909387496
 30
0.0
 10
101.5531466760006
 20
-133.8901909387496
 30
0.0
 10
101.5531466760006
 20
-133.8901909387496
 30
0.0
 10
101.5615871599394
 20
-133.7653062274094
 30
0.0
 10
101.5891479238214
 20
-133.3887572908715
 30
0.0
 10
102.0459675851656
 20
-133.3887572908715
 30
0.0
 10
102.2702433012553
 20
-133.3887572908715
 30
0.0
 10
102.5113999852228
 20
-133.515709059503
 30
0.0
 10
102.5113999852228
 20
-133.8118150164602
 30
0.0
 10
102.5113999852228
 20
-133.998022427438
 30
0.0
 10
102.4163153498299
 20
-134.0805324643097
 30
0.0
 10
102.3167520903062
 20
-134.1418551639472
 30
0.0
 10
102.3782470447179
 20
-134.1694159278292
 30
0.0
 10
102.5601480863391
 20
-134.2498589074097
 30
0.0
 10
102.5601480863391
 20
-134.5270168391981
 30
0.0
 10
102.5601480863391
 20
-134.8654974706239
 30
0.0
 10
102.3126179757239
 20
-135.0325846016585
 30
0.0
 10
102.0354600439355
 20
-135.0325846016585
 30
0.0
  0
HATCH
  5
A7
330
A2
100
AcDbEntity
  8
レイヤー 1
 62
    18
420
        0
440
 33554687
100
AcDbHatch
 10
0.0
 20
0.0
 30
0.0
210
0.0
220
0.0
230
1.0
  2
SOLID
 70
     1
 71
     1
 91
        1
 92
        1
 93
        1
 72
     4
 94
        3
 73
     0
 74
     0
 95
       62
 96
       58
 40
0.0
 40
0.0
 40
0.0
 40
0.0
 40
1.0
 40
1.0
 40
1.0
 40
2.0
 40
2.0
 40
2.0
 40
3.0
 40
3.0
 40
3.0
 40
4.0
 40
4.0
 40
4.0
 40
5.0
 40
5.0
 40
5.0
 40
6.0
 40
6.0
 40
6.0
 40
7.0
 40
7.0
 40
7.0
 40
8.0
 40
8.0
 40
8.0
 40
9.0
 40
9.0
 40
9.0
 40
10.0
 40
10.0
 40
10.0
 40
11.0
 40
11.0
 40
11.0
 40
12.0
 40
12.0
 40
12.0
 40
13.0
 40
13.0
 40
13.0
 40
14.0
 40
14.0
 40
14.0
 40
15.0
 40
15.0
 40
15.0
 40
16.0
 40
16.0
 40
16.0
 40
17.0
 40
17.0
 40
17.0
 40
18.0
 40
18.0
 40
18.0
 40
19.0
 40
19.0
 40
19.0
 40
19.0
 10
102.0354600439355
 20
-135.0325846016585
 10
101.9402031537684
 20
-135.0325846016585
 10
101.7223008643263
 20
-135.0113972644242
 10
101.5975884077603
 20
-134.8251898534465
 10
101.5235188548274
 20
-134.7130519954016
 10
101.5192124854709
 20
-134.6136609906521
 10
101.5150783708886
 20
-134.5290838964892
 10
101.5150783708886
 20
-134.5290838964892
 10
101.7350477176218
 20
-134.5290838964892
 10
101.7350477176218
 20
-134.5290838964892
 10
101.7371147749129
 20
-134.6031534494221
 10
101.7477945709172
 20
-134.8379367067419
 10
102.031153674579
 20
-134.8379367067419
 10
102.1687852392147
 20
-134.8379367067419
 10
102.3210584596628
 20
-134.7681735231656
 10
102.3210584596628
 20
-134.5395914377192
 10
102.3210584596628
 20
-134.4233194650921
 10
102.2829901545508
 20
-134.3745713639758
 10
102.2512952760864
 20
-134.3428764855115
 10
102.1772257231536
 20
-134.2688069325786
 10
102.0607814957521
 20
-134.2562323340575
 10
102.0058322227624
 20
-134.2562323340575
 10
101.9868841975935
 20
-134.2562323340575
 10
101.9508829497727
 20
-134.2582993913486
 10
101.9233221858907
 20
-134.2624335059309
 10
101.9233221858907
 20
-134.2624335059309
 10
101.9233221858907
 20
-134.0677856110143
 10
101.9233221858907
 20
-134.0677856110143
 10
101.9613904910027
 20
-134.074159037662
 10
102.0037651654712
 20
-134.0763983497274
 10
102.010138592119
 20
-134.0763983497274
 10
102.0755954063387
 20
-134.0763983497274
 10
102.2745496706119
 20
-134.0552110124931
 10
102.2745496706119
 20
-133.8181884431079
 10
102.2745496706119
 20
-133.6405937708433
 10
102.1432915326239
 20
-133.5854722430793
 10
102.0333929866444
 20
-133.5854722430793
 10
101.7689819081515
 20
-133.5854722430793
 10
101.7603691694384
 20
-133.8181884431079
 10
101.7562350548561
 20
-133.8901909387496
 10
101.7562350548561
 20
-133.8901909387496
 10
101.5531466760006
 20
-133.8901909387496
 10
101.5531466760006
 20
-133.8901909387496
 10
101.5615871599394
 20
-133.7653062274094
 10
101.5891479238214
 20
-133.3887572908715
 10
102.0459675851656
 20
-133.3887572908715
 10
102.2702433012553
 20
-133.3887572908715
 10
102.5113999852228
 20
-133.515709059503
 10
102.5113999852228
 20
-133.8118150164602
 10
102.5113999852228
 20
-133.998022427438
 10
102.4163153498299
 20
-134.0805324643097
 10
102.3167520903062
 20
-134.1418551639472
 10
102.3782470447179
 20
-134.1694159278292
 10
102.5601480863391
 20
-134.2498589074097
 10
102.5601480863391
 20
-134.5270168391981
 10
102.5601480863391
 20
-134.8654974706239
 10
102.3126179757239
 20
-135.0325846016585
 10
102.0354600439355
 20
-135.0325846016585
 97
        0
 97
        1
330
A6
 75
     2
 76
     1
 98
        1
 10
0.0
 20
0.0
450
        0
451
        0
460
0.0
461
0.0
452
        0
462
0.0
453
        0
470

  0
SPLINE
  5
A8
330
A2
100
AcDbEntity
  8
レイヤー 1
100
AcDbSpline
210
0.0
220
0.0
230
1.0
 70
    11
 71
     3
 72
    26
 73
    22
 74
     0
 42
0.0000000001
 43
0.0000000001
 40
0.0
 40
0.0
 40
0.0
 40
0.0
 40
1.0
 40
1.0
 40
1.0
 40
2.0
 40
2.0
 40
2.0
 40
3.0
 40
3.0
 40
3.0
 40
4.0
 40
4.0
 40
4.0
 40
5.0
 40
5.0
 40
5.0
 40
6.0
 40
6.0
 40
6.0
 40
7.0
 40
7.0
 40
7.0
 40
7.0
 10
103.1721692992938
 20
-134.9817694432511
 30
0.0
 10
103.1721692992938
 20
-134.9817694432511
 30
0.0
 10
103.1721692992938
 20
-133.8774440854542
 30
0.0
 10
103.1721692992938
 20
-133.8774440854542
 30
0.0
 10
103.1721692992938
 20
-133.8774440854542
 30
0.0
 10
102.8421291518068
 20
-133.8774440854542
 30
0.0
 10
102.8421291518068
 20
-133.8774440854542
 30
0.0
 10
102.8421291518068
 20
-133.8774440854542
 30
0.0
 10
102.8421291518068
 20
-133.7294772343627
 30
0.0
 10
102.8421291518068
 20
-133.7294772343627
 30
0.0
 10
103.1742363565849
 20
-133.7146633237762
 30
0.0
 10
103.2207451456358
 20
-133.5517103073238
 30
0.0
 10
103.2503729668089
 20
-133.4375053919878
 30
0.0
 10
103.2503729668089
 20
-133.4375053919878
 30
0.0
 10
103.3964450153835
 20
-133.4375053919878
 30
0.0
 10
103.3964450153835
 20
-133.4375053919878
 30
0.0
 10
103.3964450153835
 20
-133.4375053919878
 30
0.0
 10
103.3964450153835
 20
-134.9817694432511
 30
0.0
 10
103.3964450153835
 20
-134.9817694432511
 30
0.0
 10
103.3964450153835
 20
-134.9817694432511
 30
0.0
 10
103.1721692992938
 20
-134.9817694432511
 30
0.0
 10
103.1721692992938
 20
-134.9817694432511
 30
0.0
  0
HATCH
  5
A9
330
A2
100
AcDbEntity
  8
レイヤー 1
 62
    18
420
        0
440
 33554687
100
AcDbHatch
 10
0.0
 20
0.0
 30
0.0
210
0.0
220
0.0
230
1.0
  2
SOLID
 70
     1
 71
     1
 91
        1
 92
        1
 93
        1
 72
     4
 94
        3
 73
     0
 74
     0
 95
       26
 96
       22
 40
0.0
 40
0.0
 40
0.0
 40
0.0
 40
1.0
 40
1.0
 40
1.0
 40
2.0
 40
2.0
 40
2.0
 40
3.0
 40
3.0
 40
3.0
 40
4.0
 40
4.0
 40
4.0
 40
5.0
 40
5.0
 40
5.0
 40
6.0
 40
6.0
 40
6.0
 40
7.0
 40
7.0
 40
7.0
 40
7.0
 10
103.1721692992938
 20
-134.9817694432511
 10
103.1721692992938
 20
-134.9817694432511
 10
103.1721692992938
 20
-133.8774440854542
 10
103.1721692992938
 20
-133.8774440854542
 10
103.1721692992938
 20
-133.8774440854542
 10
102.8421291518068
 20
-133.8774440854542
 10
102.8421291518068
 20
-133.8774440854542
 10
102.8421291518068
 20
-133.8774440854542
 10
102.8421291518068
 20
-133.7294772343627
 10
102.8421291518068
 20
-133.7294772343627
 10
103.1742363565849
 20
-133.7146633237762
 10
103.2207451456358
 20
-133.5517103073238
 10
103.2503729668089
 20
-133.4375053919878
 10
103.2503729668089
 20
-133.4375053919878
 10
103.3964450153835
 20
-133.4375053919878
 10
103.3964450153835
 20
-133.4375053919878
 10
103.3964450153835
 20
-133.4375053919878
 10
103.3964450153835
 20
-134.9817694432511
 10
103.3964450153835
 20
-134.9817694432511
 10
103.3964450153835
 20
-134.9817694432511
 10
103.1721692992938
 20
-134.9817694432511
 10
103.1721692992938
 20
-134.9817694432511
 97
        0
 97
        1
330
A8
 75
     2
 76
     1
 98
        1
 10
0.0
 20
0.0
450
        0
451
        0
460
0.0
461
0.0
452
        0
462
0.0
453
        0
470

  0
ENDBLK
  5
A5
330
A2
100
AcDbEntity
  8
0
100
AcDbBlockEnd
  0
BLOCK
  5
B0
330
AE
100
AcDbEntity
  8
0
100
AcDbBlockBegin
  2
Block_3
 70
     0
 10
0.0
 20
0.0
 30
0.0
  3
Block_3
  1

  0
INSERT
  5
B3
330
AE
100
AcDbEntity
  8
レイヤー 1
100
AcDbBlockReference
  2
Block_4
 10
0.0
 20
0.0
 30
0.0
  0
ENDBLK
  5
B1
330
AE
100
AcDbEntity
  8
0
100
AcDbBlockEnd
  0
BLOCK
  5
B4
330
B2
100
AcDbEntity
  8
0
100
AcDbBlockBegin
  2
Block_4
 70
     0
 10
0.0
 20
0.0
 30
0.0
  3
Block_4
  1

  0
SPLINE
  5
B6
330
B2
100
AcDbEntity
  8
レイヤー 1
100
AcDbSpline
210
0.0
220
0.0
230
1.0
 70
     9
 71
     3
 72
    17
 73
    13
 74
     0
 42
0.0000000001
 43
0.0000000001
 40
0.0
 40
0.0
 40
0.0
 40
0.0
 40
1.0
 40
1.0
 40
1.0
 40
2.0
 40
2.0
 40
2.0
 40
3.0
 40
3.0
 40
3.0
 40
4.0
 40
4.0
 40
4.0
 40
4.0
 10
104.5030096852458
 20
-154.696156102819
 30
0.0
 10
104.5030096852458
 20
-154.9459255254996
 30
0.0
 10
104.7865410436818
 20
-154.9924343145505
 30
0.0
 10
105.1313951017553
 20
-154.9924343145505
 30
0.0
 10
105.450755453238
 20
-154.9924343145505
 30
0.0
 10
105.7596082634906
 20
-154.9562608119554
 30
0.0
 10
105.7596082634906
 20
-154.696156102819
 30
0.0
 10
105.7596082634906
 20
-154.4484537374295
 30
0.0
 10
105.47831621712
 20
-154.3998778910875
 30
0.0
 10
105.1313951017553
 20
-154.3998778910875
 30
0.0
 10
104.8116902407241
 20
-154.3998778910875
 30
0.0
 10
104.5030096852458
 20
-154.4381184509738
 30
0.0
 10
104.5030096852458
 20
-154.696156102819
 30
0.0
  0
SPLINE
  5
B7
330
B2
100
AcDbEntity
  8
レイヤー 1
100
AcDbSpline
210
0.0
220
0.0
230
1.0
 70
     9
 71
     3
 72
    29
 73
    25
 74
     0
 42
0.0000000001
 43
0.0000000001
 40
0.0
 40
0.0
 40
0.0
 40
0.0
 40
1.0
 40
1.0
 40
1.0
 40
2.0
 40
2.0
 40
2.0
 40
3.0
 40
3.0
 40
3.0
 40
4.0
 40
4.0
 40
4.0
 40
5.0
 40
5.0
 40
5.0
 40
6.0
 40
6.0
 40
6.0
 40
7.0
 40
7.0
 40
7.0
 40
8.0
 40
8.0
 40
8.0
 40
8.0
 10
105.7258463277352
 20
-154.2982475742726
 30
0.0
 10
105.9353081332384
 20
-154.4064235725095
 30
0.0
 10
105.9539116488587
 20
-154.5797118754176
 30
0.0
 10
105.9539116488587
 20
-154.696156102819
 30
0.0
 10
105.9539116488587
 20
-154.8570420619802
 30
0.0
 10
105.9077473693564
 20
-154.9986354864239
 30
0.0
 10
105.7258463277352
 20
-155.0937201218168
 30
0.0
 10
105.5308539232701
 20
-155.1974174959229
 30
0.0
 10
105.2940036086591
 20
-155.2167100306403
 30
0.0
 10
105.1313951017553
 20
-155.2167100306403
 30
0.0
 10
104.9873901104719
 20
-155.2167100306403
 30
0.0
 10
104.7355536305001
 20
-155.199484553214
 30
0.0
 10
104.5367716210012
 20
-155.0937201218168
 30
0.0
 10
104.33385549692
 20
-154.9858886331285
 30
0.0
 10
104.3104288476203
 20
-154.8250026739673
 30
0.0
 10
104.3104288476203
 20
-154.696156102819
 30
0.0
 10
104.3104288476203
 20
-154.537337200949
 30
0.0
 10
104.35487057938
 20
-154.3936767192141
 30
0.0
 10
104.5367716210012
 20
-154.2982475742726
 30
0.0
 10
104.7293524586267
 20
-154.1990288242975
 30
0.0
 10
104.9577622892987
 20
-154.1756021749977
 30
0.0
 10
105.1313951017553
 20
-154.1756021749977
 30
0.0
 10
105.3026163473722
 20
-154.1756021749977
 30
0.0
 10
105.5329209805612
 20
-154.1969617670063
 30
0.0
 10
105.7258463277352
 20
-154.2982475742726
 30
0.0
  0
HATCH
  5
B8
330
B2
100
AcDbEntity
  8
レイヤー 1
 62
    18
420
        0
440
 33554687
100
AcDbHatch
 10
0.0
 20
0.0
 30
0.0
210
0.0
220
0.0
230
1.0
  2
SOLID
 70
     1
 71
     1
 91
        2
 92
        1
 93
        1
 72
     4
 94
        3
 73
     0
 74
     0
 95
       17
 96
       13
 40
0.0
 40
0.0
 40
0.0
 40
0.0
 40
1.0
 40
1.0
 40
1.0
 40
2.0
 40
2.0
 40
2.0
 40
3.0
 40
3.0
 40
3.0
 40
4.0
 40
4.0
 40
4.0
 40
4.0
 10
104.5030096852458
 20
-154.696156102819
 10
104.5030096852458
 20
-154.9459255254996
 10
104.7865410436818
 20
-154.9924343145505
 10
105.1313951017553
 20
-154.9924343145505
 10
105.450755453238
 20
-154.9924343145505
 10
105.7596082634906
 20
-154.9562608119554
 10
105.7596082634906
 20
-154.696156102819
 10
105.7596082634906
 20
-154.4484537374295
 10
105.47831621712
 20
-154.3998778910875
 10
105.1313951017553
 20
-154.3998778910875
 10
104.8116902407241
 20
-154.3998778910875
 10
104.5030096852458
 20
-154.4381184509738
 10
104.5030096852458
 20
-154.696156102819
 97
        0
 97
        1
330
B6
 92
        1
 93
        1
 72
     4
 94
        3
 73
     0
 74
     0
 95
       29
 96
       25
 40
0.0
 40
0.0
 40
0.0
 40
0.0
 40
1.0
 40
1.0
 40
1.0
 40
2.0
 40
2.0
 40
2.0
 40
3.0
 40
3.0
 40
3.0
 40
4.0
 40
4.0
 40
4.0
 40
5.0
 40
5.0
 40
5.0
 40
6.0
 40
6.0
 40
6.0
 40
7.0
 40
7.0
 40
7.0
 40
8.0
 40
8.0
 40
8.0
 40
8.0
 10
105.7258463277352
 20
-154.2982475742726
 10
105.9353081332384
 20
-154.4064235725095
 10
105.9539116488587
 20
-154.5797118754176
 10
105.9539116488587
 20
-154.696156102819
 10
105.9539116488587
 20
-154.8570420619802
 10
105.9077473693564
 20
-154.9986354864239
 10
105.7258463277352
 20
-155.0937201218168
 10
105.5308539232701
 20
-155.1974174959229
 10
105.2940036086591
 20
-155.2167100306403
 10
105.1313951017553
 20
-155.2167100306403
 10
104.9873901104719
 20
-155.2167100306403
 10
104.7355536305001
 20
-155.199484553214
 10
104.5367716210012
 20
-155.0937201218168
 10
104.33385549692
 20
-154.9858886331285
 10
104.3104288476203
 20
-154.8250026739673
 10
104.3104288476203
 20
-154.696156102819
 10
104.3104288476203
 20
-154.537337200949
 10
104.35487057938
 20
-154.3936767192141
 10
104.5367716210012
 20
-154.2982475742726
 10
104.7293524586267
 20
-154.1990288242975
 10
104.9577622892987
 20
-154.1756021749977
 10
105.1313951017553
 20
-154.1756021749977
 10
105.3026163473722
 20
-154.1756021749977
 10
105.5329209805612
 20
-154.1969617670063
 10
105.7258463277352
 20
-154.2982475742726
 97
        0
 97
        1
330
B7
 75
     2
 76
     1
 98
        1
 10
0.0
 20
0.0
450
        0
451
        0
460
0.0
461
0.0
452
        0
462
0.0
453
        0
470

  0
SPLINE
  5
B9
330
B2
100
AcDbEntity
  8
レイヤー 1
100
AcDbSpline
210
0.0
220
0.0
230
1.0
 70
    11
 71
     3
 72
    17
 73
    13
 74
     0
 42
0.0000000001
 43
0.0000000001
 40
0.0
 40
0.0
 40
0.0
 40
0.0
 40
1.0
 40
1.0
 40
1.0
 40
2.0
 40
2.0
 40
2.0
 40
3.0
 40
3.0
 40
3.0
 40
4.0
 40
4.0
 40
4.0
 40
4.0
 10
105.9036132547741
 20
-153.9592501785241
 30
0.0
 10
105.9036132547741
 20
-153.9592501785241
 30
0.0
 10
105.6514322652538
 20
-153.9592501785241
 30
0.0
 10
105.6514322652538
 20
-153.9592501785241
 30
0.0
 10
105.6514322652538
 20
-153.9592501785241
 30
0.0
 10
105.6514322652538
 20
-153.7074136985523
 30
0.0
 10
105.6514322652538
 20
-153.7074136985523
 30
0.0
 10
105.6514322652538
 20
-153.7074136985523
 30
0.0
 10
105.9036132547741
 20
-153.7074136985523
 30
0.0
 10
105.9036132547741
 20
-153.7074136985523
 30
0.0
 10
105.9036132547741
 20
-153.7074136985523
 30
0.0
 10
105.9036132547741
 20
-153.9592501785241
 30
0.0
 10
105.9036132547741
 20
-153.9592501785241
 30
0.0
  0
HATCH
  5
BA
330
B2
100
AcDbEntity
  8
レイヤー 1
 62
    18
420
        0
440
 33554687
100
AcDbHatch
 10
0.0
 20
0.0
 30
0.0
210
0.0
220
0.0
230
1.0
  2
SOLID
 70
     1
 71
     1
 91
        1
 92
        1
 93
        1
 72
     4
 94
        3
 73
     0
 74
     0
 95
       17
 96
       13
 40
0.0
 40
0.0
 40
0.0
 40
0.0
 40
1.0
 40
1.0
 40
1.0
 40
2.0
 40
2.0
 40
2.0
 40
3.0
 40
3.0
 40
3.0
 40
4.0
 40
4.0
 40
4.0
 40
4.0
 10
105.9036132547741
 20
-153.9592501785241
 10
105.9036132547741
 20
-153.9592501785241
 10
105.6514322652538
 20
-153.9592501785241
 10
105.6514322652538
 20
-153.9592501785241
 10
105.6514322652538
 20
-153.9592501785241
 10
105.6514322652538
 20
-153.7074136985523
 10
105.6514322652538
 20
-153.7074136985523
 10
105.6514322652538
 20
-153.7074136985523
 10
105.9036132547741
 20
-153.7074136985523
 10
105.9036132547741
 20
-153.7074136985523
 10
105.9036132547741
 20
-153.7074136985523
 10
105.9036132547741
 20
-153.9592501785241
 10
105.9036132547741
 20
-153.9592501785241
 97
        0
 97
        1
330
B9
 75
     2
 76
     1
 98
        1
 10
0.0
 20
0.0
450
        0
451
        0
460
0.0
461
0.0
452
        0
462
0.0
453
        0
470

  0
SPLINE
  5
BB
330
B2
100
AcDbEntity
  8
レイヤー 1
100
AcDbSpline
210
0.0
220
0.0
230
1.0
 70
     9
 71
     3
 72
    53
 73
    49
 74
     0
 42
0.0000000001
 43
0.0000000001
 40
0.0
 40
0.0
 40
0.0
 40
0.0
 40
1.0
 40
1.0
 40
1.0
 40
2.0
 40
2.0
 40
2.0
 40
3.0
 40
3.0
 40
3.0
 40
4.0
 40
4.0
 40
4.0
 40
5.0
 40
5.0
 40
5.0
 40
6.0
 40
6.0
 40
6.0
 40
7.0
 40
7.0
 40
7.0
 40
8.0
 40
8.0
 40
8.0
 40
9.0
 40
9.0
 40
9.0
 40
10.0
 40
10.0
 40
10.0
 40
11.0
 40
11.0
 40
11.0
 40
12.0
 40
12.0
 40
12.0
 40
13.0
 40
13.0
 40
13.0
 40
14.0
 40
14.0
 40
14.0
 40
15.0
 40
15.0
 40
15.0
 40
16.0
 40
16.0
 40
16.0
 40
16.0
 10
105.9539116488587
 20
-152.9901448185233
 30
0.0
 10
105.9539116488587
 20
-153.0683484860384
 30
0.0
 10
105.9373751905295
 20
-153.1699788028533
 30
0.0
 10
105.8739854336009
 20
-153.2716091196682
 30
0.0
 10
105.7637423780729
 20
-153.4448974225762
 30
0.0
 10
105.6328287496334
 20
-153.4662570145848
 30
0.0
 10
105.5246527513966
 20
-153.4852050397537
 30
0.0
 10
105.5246527513966
 20
-153.4852050397537
 30
0.0
 10
105.5246527513966
 20
-153.2629963809551
 30
0.0
 10
105.5246527513966
 20
-153.2629963809551
 30
0.0
 10
105.723779270444
 20
-153.2082193627396
 30
0.0
 10
105.7534070916172
 20
-153.0810953393339
 30
0.0
 10
105.7534070916172
 20
-152.9880777612321
 30
0.0
 10
105.7534070916172
 20
-152.8485513940795
 30
0.0
 10
105.6534993225449
 20
-152.6962781736315
 30
0.0
 10
105.4211276320648
 20
-152.6962781736315
 30
0.0
 10
105.1651570375108
 20
-152.6962781736315
 30
0.0
 10
105.0952215991602
 20
-152.8761121579615
 30
0.0
 10
105.0952215991602
 20
-152.9966904999453
 30
0.0
 10
105.0952215991602
 20
-153.0283853784096
 30
0.0
 10
105.0952215991602
 20
-153.1699788028533
 30
0.0
 10
105.2244126798571
 20
-153.2588622663728
 30
0.0
 10
105.2244126798571
 20
-153.2588622663728
 30
0.0
 10
105.2054646546882
 20
-153.4345621361205
 30
0.0
 10
105.2054646546882
 20
-153.4345621361205
 30
0.0
 10
105.2054646546882
 20
-153.4345621361205
 30
0.0
 10
104.3590046939623
 20
-153.3139837941368
 30
0.0
 10
104.3590046939623
 20
-153.3139837941368
 30
0.0
 10
104.3590046939623
 20
-153.3139837941368
 30
0.0
 10
104.3590046939623
 20
-152.5353922144703
 30
0.0
 10
104.3590046939623
 20
-152.5353922144703
 30
0.0
 10
104.3590046939623
 20
-152.5353922144703
 30
0.0
 10
104.5536525888789
 20
-152.5353922144703
 30
0.0
 10
104.5536525888789
 20
-152.5353922144703
 30
0.0
 10
104.5536525888789
 20
-152.5353922144703
 30
0.0
 10
104.5536525888789
 20
-153.1510307776845
 30
0.0
 10
104.5536525888789
 20
-153.1510307776845
 30
0.0
 10
104.5536525888789
 20
-153.1510307776845
 30
0.0
 10
104.9767103144676
 20
-153.2164875919042
 30
0.0
 10
104.9767103144676
 20
-153.2164875919042
 30
0.0
 10
104.9429483787122
 20
-153.1551648922668
 30
0.0
 10
104.9026407615347
 20
-153.0728271101693
 30
0.0
 10
104.9026407615347
 20
-152.9543158254767
 30
0.0
 10
104.9026407615347
 20
-152.7004122882138
 30
0.0
 10
105.0890204272868
 20
-152.4633897188286
 30
0.0
 10
105.402179606896
 20
-152.4633897188286
 30
0.0
 10
105.7196451558617
 20
-152.4633897188286
 30
0.0
 10
105.9539116488587
 20
-152.6876654349183
 30
0.0
 10
105.9539116488587
 20
-152.9901448185233
 30
0.0
  0
HATCH
  5
BC
330
B2
100
AcDbEntity
  8
レイヤー 1
 62
    18
420
        0
440
 33554687
100
AcDbHatch
 10
0.0
 20
0.0
 30
0.0
210
0.0
220
0.0
230
1.0
  2
SOLID
 70
     1
 71
     1
 91
        1
 92
        1
 93
        1
 72
     4
 94
        3
 73
     0
 74
     0
 95
       53
 96
       49
 40
0.0
 40
0.0
 40
0.0
 40
0.0
 40
1.0
 40
1.0
 40
1.0
 40
2.0
 40
2.0
 40
2.0
 40
3.0
 40
3.0
 40
3.0
 40
4.0
 40
4.0
 40
4.0
 40
5.0
 40
5.0
 40
5.0
 40
6.0
 40
6.0
 40
6.0
 40
7.0
 40
7.0
 40
7.0
 40
8.0
 40
8.0
 40
8.0
 40
9.0
 40
9.0
 40
9.0
 40
10.0
 40
10.0
 40
10.0
 40
11.0
 40
11.0
 40
11.0
 40
12.0
 40
12.0
 40
12.0
 40
13.0
 40
13.0
 40
13.0
 40
14.0
 40
14.0
 40
14.0
 40
15.0
 40
15.0
 40
15.0
 40
16.0
 40
16.0
 40
16.0
 40
16.0
 10
105.9539116488587
 20
-152.9901448185233
 10
105.9539116488587
 20
-153.0683484860384
 10
105.9373751905295
 20
-153.1699788028533
 10
105.8739854336009
 20
-153.2716091196682
 10
105.7637423780729
 20
-153.4448974225762
 10
105.6328287496334
 20
-153.4662570145848
 10
105.5246527513966
 20
-153.4852050397537
 10
105.5246527513966
 20
-153.4852050397537
 10
105.5246527513966
 20
-153.2629963809551
 10
105.5246527513966
 20
-153.2629963809551
 10
105.723779270444
 20
-153.2082193627396
 10
105.7534070916172
 20
-153.0810953393339
 10
105.7534070916172
 20
-152.9880777612321
 10
105.7534070916172
 20
-152.8485513940795
 10
105.6534993225449
 20
-152.6962781736315
 10
105.4211276320648
 20
-152.6962781736315
 10
105.1651570375108
 20
-152.6962781736315
 10
105.0952215991602
 20
-152.8761121579615
 10
105.0952215991602
 20
-152.9966904999453
 10
105.0952215991602
 20
-153.0283853784096
 10
105.0952215991602
 20
-153.1699788028533
 10
105.2244126798571
 20
-153.2588622663728
 10
105.2244126798571
 20
-153.2588622663728
 10
105.2054646546882
 20
-153.4345621361205
 10
105.2054646546882
 20
-153.4345621361205
 10
105.2054646546882
 20
-153.4345621361205
 10
104.3590046939623
 20
-153.3139837941368
 10
104.3590046939623
 20
-153.3139837941368
 10
104.3590046939623
 20
-153.3139837941368
 10
104.3590046939623
 20
-152.5353922144703
 10
104.3590046939623
 20
-152.5353922144703
 10
104.3590046939623
 20
-152.5353922144703
 10
104.5536525888789
 20
-152.5353922144703
 10
104.5536525888789
 20
-152.5353922144703
 10
104.5536525888789
 20
-152.5353922144703
 10
104.5536525888789
 20
-153.1510307776845
 10
104.5536525888789
 20
-153.1510307776845
 10
104.5536525888789
 20
-153.1510307776845
 10
104.9767103144676
 20
-153.2164875919042
 10
104.9767103144676
 20
-153.2164875919042
 10
104.9429483787122
 20
-153.1551648922668
 10
104.9026407615347
 20
-153.0728271101693
 10
104.9026407615347
 20
-152.9543158254767
 10
104.9026407615347
 20
-152.7004122882138
 10
105.0890204272868
 20
-152.4633897188286
 10
105.402179606896
 20
-152.4633897188286
 10
105.7196451558617
 20
-152.4633897188286
 10
105.9539116488587
 20
-152.6876654349183
 10
105.9539116488587
 20
-152.9901448185233
 97
        0
 97
        1
330
BB
 75
     2
 76
     1
 98
        1
 10
0.0
 20
0.0
450
        0
451
        0
460
0.0
461
0.0
452
        0
462
0.0
453
        0
470

  0
ENDBLK
  5
B5
330
B2
100
AcDbEntity
  8
0
100
AcDbBlockEnd
  0
BLOCK
  5
C2
330
C0
100
AcDbEntity
  8
0
100
AcDbBlockBegin
  2
Block_5
 70
     0
 10
0.0
 20
0.0
 30
0.0
  3
Block_5
  1

  0
INSERT
  5
C5
330
C0
100
AcDbEntity
  8
レイヤー 1
100
AcDbBlockReference
  2
Block_6
 10
0.0
 20
0.0
 30
0.0
  0
ENDBLK
  5
C3
330
C0
100
AcDbEntity
  8
0
100
AcDbBlockEnd
  0
BLOCK
  5
C6
330
C4
100
AcDbEntity
  8
0
100
AcDbBlockBegin
  2
Block_6
 70
     0
 10
0.0
 20
0.0
 30
0.0
  3
Block_6
  1

  0
SPLINE
  5
C8
330
C4
100
AcDbEntity
  8
レイヤー 1
100
AcDbSpline
210
0.0
220
0.0
230
1.0
 70
    11
 71
     3
 72
    26
 73
    22
 74
     0
 42
0.0000000001
 43
0.0000000001
 40
0.0
 40
0.0
 40
0.0
 40
0.0
 40
1.0
 40
1.0
 40
1.0
 40
2.0
 40
2.0
 40
2.0
 40
3.0
 40
3.0
 40
3.0
 40
4.0
 40
4.0
 40
4.0
 40
5.0
 40
5.0
 40
5.0
 40
6.0
 40
6.0
 40
6.0
 40
7.0
 40
7.0
 40
7.0
 40
7.0
 10
97.61798635797397
 20
-160.4818494607476
 30
0.0
 10
97.61798635797397
 20
-160.4818494607476
 30
0.0
 10
97.61798635797397
 20
-159.377696357725
 30
0.0
 10
97.61798635797397
 20
-159.377696357725
 30
0.0
 10
97.61798635797397
 20
-159.377696357725
 30
0.0
 10
97.28794621048706
 20
-159.377696357725
 30
0.0
 10
97.28794621048706
 20
-159.377696357725
 30
0.0
 10
97.28794621048706
 20
-159.377696357725
 30
0.0
 10
97.28794621048706
 20
-159.2295572518593
 30
0.0
 10
97.28794621048706
 20
-159.2295572518593
 30
0.0
 10
97.62005341526514
 20
-159.2147433412727
 30
0.0
 10
97.66656220431601
 20
-159.0517903248204
 30
0.0
 10
97.69619002548914
 20
-158.9374131547101
 30
0.0
 10
97.69619002548914
 20
-158.9374131547101
 30
0.0
 10
97.84226207406375
 20
-158.9374131547101
 30
0.0
 10
97.84226207406375
 20
-158.9374131547101
 30
0.0
 10
97.84226207406375
 20
-158.9374131547101
 30
0.0
 10
97.84226207406375
 20
-160.4818494607476
 30
0.0
 10
97.84226207406375
 20
-160.4818494607476
 30
0.0
 10
97.84226207406375
 20
-160.4818494607476
 30
0.0
 10
97.61798635797397
 20
-160.4818494607476
 30
0.0
 10
97.61798635797397
 20
-160.4818494607476
 30
0.0
  0
HATCH
  5
C9
330
C4
100
AcDbEntity
  8
レイヤー 1
 62
    18
420
        0
440
 33554687
100
AcDbHatch
 10
0.0
 20
0.0
 30
0.0
210
0.0
220
0.0
230
1.0
  2
SOLID
 70
     1
 71
     1
 91
        1
 92
        1
 93
        1
 72
     4
 94
        3
 73
     0
 74
     0
 95
       26
 96
       22
 40
0.0
 40
0.0
 40
0.0
 40
0.0
 40
1.0
 40
1.0
 40
1.0
 40
2.0
 40
2.0
 40
2.0
 40
3.0
 40
3.0
 40
3.0
 40
4.0
 40
4.0
 40
4.0
 40
5.0
 40
5.0
 40
5.0
 40
6.0
 40
6.0
 40
6.0
 40
7.0
 40
7.0
 40
7.0
 40
7.0
 10
97.61798635797397
 20
-160.4818494607476
 10
97.61798635797397
 20
-160.4818494607476
 10
97.61798635797397
 20
-159.377696357725
 10
97.61798635797397
 20
-159.377696357725
 10
97.61798635797397
 20
-159.377696357725
 10
97.28794621048706
 20
-159.377696357725
 10
97.28794621048706
 20
-159.377696357725
 10
97.28794621048706
 20
-159.377696357725
 10
97.28794621048706
 20
-159.2295572518593
 10
97.28794621048706
 20
-159.2295572518593
 10
97.62005341526514
 20
-159.2147433412727
 10
97.66656220431601
 20
-159.0517903248204
 10
97.69619002548914
 20
-158.9374131547101
 10
97.69619002548914
 20
-158.9374131547101
 10
97.84226207406375
 20
-158.9374131547101
 10
97.84226207406375
 20
-158.9374131547101
 10
97.84226207406375
 20
-158.9374131547101
 10
97.84226207406375
 20
-160.4818494607476
 10
97.84226207406375
 20
-160.4818494607476
 10
97.84226207406375
 20
-160.4818494607476
 10
97.61798635797397
 20
-160.4818494607476
 10
97.61798635797397
 20
-160.4818494607476
 97
        0
 97
        1
330
C8
 75
     2
 76
     1
 98
        1
 10
0.0
 20
0.0
450
        0
451
        0
460
0.0
461
0.0
452
        0
462
0.0
453
        0
470

  0
SPLINE
  5
CA
330
C4
100
AcDbEntity
  8
レイヤー 1
100
AcDbSpline
210
0.0
220
0.0
230
1.0
 70
     9
 71
     3
 72
    17
 73
    13
 74
     0
 42
0.0000000001
 43
0.0000000001
 40
0.0
 40
0.0
 40
0.0
 40
0.0
 40
1.0
 40
1.0
 40
1.0
 40
2.0
 40
2.0
 40
2.0
 40
3.0
 40
3.0
 40
3.0
 40
4.0
 40
4.0
 40
4.0
 40
4.0
 10
98.84340682207735
 20
-159.0814181459935
 30
0.0
 10
98.593809654171
 20
-159.0814181459935
 30
0.0
 10
98.54730086512013
 20
-159.3649495044296
 30
0.0
 10
98.54730086512013
 20
-159.7098035625031
 30
0.0
 10
98.54730086512013
 20
-160.0291639139858
 30
0.0
 10
98.58330211294099
 20
-160.3378444694641
 30
0.0
 10
98.84340682207735
 20
-160.3378444694641
 30
0.0
 10
99.09093693269255
 20
-160.3378444694641
 30
0.0
 10
99.13968503380884
 20
-160.0567246778678
 30
0.0
 10
99.13968503380884
 20
-159.7098035625031
 30
0.0
 10
99.13968503380884
 20
-159.3900987014719
 30
0.0
 10
99.10144447392255
 20
-159.0814181459935
 30
0.0
 10
98.84340682207735
 20
-159.0814181459935
 30
0.0
  0
SPLINE
  5
CB
330
C4
100
AcDbEntity
  8
レイヤー 1
100
AcDbSpline
210
0.0
220
0.0
230
1.0
 70
     9
 71
     3
 72
    29
 73
    25
 74
     0
 42
0.0000000001
 43
0.0000000001
 40
0.0
 40
0.0
 40
0.0
 40
0.0
 40
1.0
 40
1.0
 40
1.0
 40
2.0
 40
2.0
 40
2.0
 40
3.0
 40
3.0
 40
3.0
 40
4.0
 40
4.0
 40
4.0
 40
5.0
 40
5.0
 40
5.0
 40
6.0
 40
6.0
 40
6.0
 40
7.0
 40
7.0
 40
7.0
 40
8.0
 40
8.0
 40
8.0
 40
8.0
 10
99.24114309584943
 20
-160.3040825337087
 30
0.0
 10
99.13331160716111
 20
-160.5135443392119
 30
0.0
 10
98.95985104947879
 20
-160.5324923643808
 30
0.0
 10
98.84340682207735
 20
-160.5324923643808
 30
0.0
 10
98.68269311769045
 20
-160.5324923643808
 30
0.0
 10
98.54092743847241
 20
-160.4859835753299
 30
0.0
 10
98.44567054830527
 20
-160.3040825337087
 30
0.0
 10
98.34214542897349
 20
-160.1094346387921
 30
0.0
 10
98.32302514903036
 20
-159.8724120694069
 30
0.0
 10
98.32302514903036
 20
-159.7098035625031
 30
0.0
 10
98.32302514903036
 20
-159.5657985712196
 30
0.0
 10
98.33990611690808
 20
-159.3139620912479
 30
0.0
 10
98.44567054830527
 20
-159.115180081749
 30
0.0
 10
98.55367429176784
 20
-158.9122639576677
 30
0.0
 10
98.71438799615475
 20
-158.888837308368
 30
0.0
 10
98.84340682207735
 20
-158.888837308368
 30
0.0
 10
99.0020534691731
 20
-158.888837308368
 30
0.0
 10
99.14588620568229
 20
-158.9332790401278
 30
0.0
 10
99.24114309584943
 20
-159.115180081749
 30
0.0
 10
99.3405341005989
 20
-159.3077609193744
 30
0.0
 10
99.36378849512434
 20
-159.5361707500465
 30
0.0
 10
99.36378849512434
 20
-159.7098035625031
 30
0.0
 10
99.36378849512434
 20
-159.88102480812
 30
0.0
 10
99.34277341266431
 20
-160.1115016960832
 30
0.0
 10
99.24114309584943
 20
-160.3040825337087
 30
0.0
  0
HATCH
  5
CC
330
C4
100
AcDbEntity
  8
レイヤー 1
 62
    18
420
        0
440
 33554687
100
AcDbHatch
 10
0.0
 20
0.0
 30
0.0
210
0.0
220
0.0
230
1.0
  2
SOLID
 70
     1
 71
     1
 91
        2
 92
        1
 93
        1
 72
     4
 94
        3
 73
     0
 74
     0
 95
       17
 96
       13
 40
0.0
 40
0.0
 40
0.0
 40
0.0
 40
1.0
 40
1.0
 40
1.0
 40
2.0
 40
2.0
 40
2.0
 40
3.0
 40
3.0
 40
3.0
 40
4.0
 40
4.0
 40
4.0
 40
4.0
 10
98.84340682207735
 20
-159.0814181459935
 10
98.593809654171
 20
-159.0814181459935
 10
98.54730086512013
 20
-159.3649495044296
 10
98.54730086512013
 20
-159.7098035625031
 10
98.54730086512013
 20
-160.0291639139858
 10
98.58330211294099
 20
-160.3378444694641
 10
98.84340682207735
 20
-160.3378444694641
 10
99.09093693269255
 20
-160.3378444694641
 10
99.13968503380884
 20
-160.0567246778678
 10
99.13968503380884
 20
-159.7098035625031
 10
99.13968503380884
 20
-159.3900987014719
 10
99.10144447392255
 20
-159.0814181459935
 10
98.84340682207735
 20
-159.0814181459935
 97
        0
 97
        1
330
CA
 92
        1
 93
        1
 72
     4
 94
        3
 73
     0
 74
     0
 95
       29
 96
       25
 40
0.0
 40
0.0
 40
0.0
 40
0.0
 40
1.0
 40
1.0
 40
1.0
 40
2.0
 40
2.0
 40
2.0
 40
3.0
 40
3.0
 40
3.0
 40
4.0
 40
4.0
 40
4.0
 40
5.0
 40
5.0
 40
5.0
 40
6.0
 40
6.0
 40
6.0
 40
7.0
 40
7.0
 40
7.0
 40
8.0
 40
8.0
 40
8.0
 40
8.0
 10
99.24114309584943
 20
-160.3040825337087
 10
99.13331160716111
 20
-160.5135443392119
 10
98.95985104947879
 20
-160.5324923643808
 10
98.84340682207735
 20
-160.5324923643808
 10
98.68269311769045
 20
-160.5324923643808
 10
98.54092743847241
 20
-160.4859835753299
 10
98.44567054830527
 20
-160.3040825337087
 10
98.34214542897349
 20
-160.1094346387921
 10
98.32302514903036
 20
-159.8724120694069
 10
98.32302514903036
 20
-159.7098035625031
 10
98.32302514903036
 20
-159.5657985712196
 10
98.33990611690808
 20
-159.3139620912479
 10
98.44567054830527
 20
-159.115180081749
 10
98.55367429176784
 20
-158.9122639576677
 10
98.71438799615475
 20
-158.888837308368
 10
98.84340682207735
 20
-158.888837308368
 10
99.0020534691731
 20
-158.888837308368
 10
99.14588620568229
 20
-158.9332790401278
 10
99.24114309584943
 20
-159.115180081749
 10
99.3405341005989
 20
-159.3077609193744
 10
99.36378849512434
 20
-159.5361707500465
 10
99.36378849512434
 20
-159.7098035625031
 10
99.36378849512434
 20
-159.88102480812
 10
99.34277341266431
 20
-160.1115016960832
 10
99.24114309584943
 20
-160.3040825337087
 97
        0
 97
        1
330
CB
 75
     2
 76
     1
 98
        1
 10
0.0
 20
0.0
450
        0
451
        0
460
0.0
461
0.0
452
        0
462
0.0
453
        0
470

  0
ENDBLK
  5
C7
330
C4
100
AcDbEntity
  8
0
100
AcDbBlockEnd
  0
BLOCK
  5
D1
330
CF
100
AcDbEntity
  8
0
100
AcDbBlockBegin
  2
Block_7
 70
     0
 10
0.0
 20
0.0
 30
0.0
  3
Block_7
  1

  0
SPLINE
  5
D3
330
CF
100
AcDbEntity
  8
レイヤー 1
100
AcDbSpline
210
0.0
220
0.0
230
1.0
 70
     9
 71
     3
 72
    17
 73
    13
 74
     0
 42
0.0000000001
 43
0.0000000001
 40
0.0
 40
0.0
 40
0.0
 40
0.0
 40
1.0
 40
1.0
 40
1.0
 40
2.0
 40
2.0
 40
2.0
 40
3.0
 40
3.0
 40
3.0
 40
4.0
 40
4.0
 40
4.0
 40
4.0
 10
90.26150171354574
 20
-159.673630059908
 30
0.0
 10
89.99915769234396
 20
-159.673630059908
 30
0.0
 10
89.96108938723194
 20
-159.8851589227023
 30
0.0
 10
89.96108938723194
 20
-160.0016031501037
 30
0.0
 10
89.96108938723194
 20
-160.1773030198515
 30
0.0
 10
90.05634627739912
 20
-160.3402560363038
 30
0.0
 10
90.24031437631146
 20
-160.3402560363038
 30
0.0
 10
90.36089271829521
 20
-160.3402560363038
 30
0.0
 10
90.53659258804293
 20
-160.2810003939575
 30
0.0
 10
90.53659258804293
 20
-159.9954019782303
 30
0.0
 10
90.53659258804293
 20
-159.7711262621406
 30
0.0
 10
90.39689396611604
 20
-159.673630059908
 30
0.0
 10
90.26150171354574
 20
-159.673630059908
 30
0.0
  0
SPLINE
  5
D4
330
CF
100
AcDbEntity
  8
レイヤー 1
100
AcDbSpline
210
0.0
220
0.0
230
1.0
 70
     9
 71
     3
 72
    32
 73
    28
 74
     0
 42
0.0000000001
 43
0.0000000001
 40
0.0
 40
0.0
 40
0.0
 40
0.0
 40
1.0
 40
1.0
 40
1.0
 40
2.0
 40
2.0
 40
2.0
 40
3.0
 40
3.0
 40
3.0
 40
4.0
 40
4.0
 40
4.0
 40
5.0
 40
5.0
 40
5.0
 40
6.0
 40
6.0
 40
6.0
 40
7.0
 40
7.0
 40
7.0
 40
8.0
 40
8.0
 40
8.0
 40
9.0
 40
9.0
 40
9.0
 40
9.0
 10
90.24462074566802
 20
-160.5324923643808
 30
0.0
 10
89.72837318720333
 20
-160.5324923643808
 30
0.0
 10
89.71993270326446
 20
-159.9785210103526
 30
0.0
 10
89.71993270326446
 20
-159.7645805807186
 30
0.0
 10
89.71993270326446
 20
-159.5341036927553
 30
0.0
 10
89.7390529832076
 20
-158.8867702510769
 30
0.0
 10
90.28268905078002
 20
-158.8867702510769
 30
0.0
 10
90.45614960846235
 20
-158.8867702510769
 30
0.0
 10
90.70161266178642
 20
-158.9567056894275
 30
0.0
 10
90.73968096689842
 20
-159.2888128942056
 30
0.0
 10
90.73968096689842
 20
-159.2888128942056
 30
0.0
 10
90.52591279203866
 20
-159.2888128942056
 30
0.0
 10
90.52591279203866
 20
-159.2888128942056
 30
0.0
 10
90.51540525080865
 20
-159.2316243091504
 30
0.0
 10
90.48371037234435
 20
-159.0834852032847
 30
0.0
 10
90.28062199348887
 20
-159.0834852032847
 30
0.0
 10
89.98865015111396
 20
-159.0834852032847
 30
0.0
 10
89.94834253393653
 20
-159.4114582934805
 30
0.0
 10
89.93576793541537
 20
-159.6164414748528
 30
0.0
 10
90.02878551351711
 20
-159.5382378073377
 30
0.0
 10
90.09648163980228
 20
-159.4789821649914
 30
0.0
 10
90.27838268142346
 20
-159.4789821649914
 30
0.0
 10
90.45821666575351
 20
-159.4789821649914
 30
0.0
 10
90.76069604935844
 20
-159.5871581632282
 30
0.0
 10
90.76069604935844
 20
-159.9933349209391
 30
0.0
 10
90.76069604935844
 20
-160.3126952724218
 30
0.0
 10
90.56191403985954
 20
-160.5324923643808
 30
0.0
 10
90.24462074566802
 20
-160.5324923643808
 30
0.0
  0
HATCH
  5
D5
330
CF
100
AcDbEntity
  8
レイヤー 1
 62
    18
420
        0
440
 33554687
100
AcDbHatch
 10
0.0
 20
0.0
 30
0.0
210
0.0
220
0.0
230
1.0
  2
SOLID
 70
     1
 71
     1
 91
        2
 92
        1
 93
        1
 72
     4
 94
        3
 73
     0
 74
     0
 95
       17
 96
       13
 40
0.0
 40
0.0
 40
0.0
 40
0.0
 40
1.0
 40
1.0
 40
1.0
 40
2.0
 40
2.0
 40
2.0
 40
3.0
 40
3.0
 40
3.0
 40
4.0
 40
4.0
 40
4.0
 40
4.0
 10
90.26150171354574
 20
-159.673630059908
 10
89.99915769234396
 20
-159.673630059908
 10
89.96108938723194
 20
-159.8851589227023
 10
89.96108938723194
 20
-160.0016031501037
 10
89.96108938723194
 20
-160.1773030198515
 10
90.05634627739912
 20
-160.3402560363038
 10
90.24031437631146
 20
-160.3402560363038
 10
90.36089271829521
 20
-160.3402560363038
 10
90.53659258804293
 20
-160.2810003939575
 10
90.53659258804293
 20
-159.9954019782303
 10
90.53659258804293
 20
-159.7711262621406
 10
90.39689396611604
 20
-159.673630059908
 10
90.26150171354574
 20
-159.673630059908
 97
        0
 97
        1
330
D3
 92
        1
 93
        1
 72
     4
 94
        3
 73
     0
 74
     0
 95
       32
 96
       28
 40
0.0
 40
0.0
 40
0.0
 40
0.0
 40
1.0
 40
1.0
 40
1.0
 40
2.0
 40
2.0
 40
2.0
 40
3.0
 40
3.0
 40
3.0
 40
4.0
 40
4.0
 40
4.0
 40
5.0
 40
5.0
 40
5.0
 40
6.0
 40
6.0
 40
6.0
 40
7.0
 40
7.0
 40
7.0
 40
8.0
 40
8.0
 40
8.0
 40
9.0
 40
9.0
 40
9.0
 40
9.0
 10
90.24462074566802
 20
-160.5324923643808
 10
89.72837318720333
 20
-160.5324923643808
 10
89.71993270326446
 20
-159.9785210103526
 10
89.71993270326446
 20
-159.7645805807186
 10
89.71993270326446
 20
-159.5341036927553
 10
89.7390529832076
 20
-158.8867702510769
 10
90.28268905078002
 20
-158.8867702510769
 10
90.45614960846235
 20
-158.8867702510769
 10
90.70161266178642
 20
-158.9567056894275
 10
90.73968096689842
 20
-159.2888128942056
 10
90.73968096689842
 20
-159.2888128942056
 10
90.52591279203866
 20
-159.2888128942056
 10
90.52591279203866
 20
-159.2888128942056
 10
90.51540525080865
 20
-159.2316243091504
 10
90.48371037234435
 20
-159.0834852032847
 10
90.28062199348887
 20
-159.0834852032847
 10
89.98865015111396
 20
-159.0834852032847
 10
89.94834253393653
 20
-159.4114582934805
 10
89.93576793541537
 20
-159.6164414748528
 10
90.02878551351711
 20
-159.5382378073377
 10
90.09648163980228
 20
-159.4789821649914
 10
90.27838268142346
 20
-159.4789821649914
 10
90.45821666575351
 20
-159.4789821649914
 10
90.76069604935844
 20
-159.5871581632282
 10
90.76069604935844
 20
-159.9933349209391
 10
90.76069604935844
 20
-160.3126952724218
 10
90.56191403985954
 20
-160.5324923643808
 10
90.24462074566802
 20
-160.5324923643808
 97
        0
 97
        1
330
D4
 75
     2
 76
     1
 98
        1
 10
0.0
 20
0.0
450
        0
451
        0
460
0.0
461
0.0
452
        0
462
0.0
453
        0
470

  0
ENDBLK
  5
D2
330
CF
100
AcDbEntity
  8
0
100
AcDbBlockEnd
  0
BLOCK
  5
DB
330
D9
100
AcDbEntity
  8
0
100
AcDbBlockBegin
  2
Block_8
 70
     0
 10
0.0
 20
0.0
 30
0.0
  3
Block_8
  1

  0
INSERT
  5
DE
330
D9
100
AcDbEntity
  8
レイヤー 1
100
AcDbBlockReference
  2
Block_9
 10
0.0
 20
0.0
 30
0.0
  0
ENDBLK
  5
DC
330
D9
100
AcDbEntity
  8
0
100
AcDbBlockEnd
  0
BLOCK
  5
DF
330
DD
100
AcDbEntity
  8
0
100
AcDbBlockBegin
  2
Block_9
 70
     0
 10
0.0
 20
0.0
 30
0.0
  3
Block_9
  1

  0
SPLINE
  5
E1
330
DD
100
AcDbEntity
  8
レイヤー 1
100
AcDbSpline
210
0.0
220
0.0
230
1.0
 70
    11
 71
     3
 72
    26
 73
    22
 74
     0
 42
0.0000000001
 43
0.0000000001
 40
0.0
 40
0.0
 40
0.0
 40
0.0
 40
1.0
 40
1.0
 40
1.0
 40
2.0
 40
2.0
 40
2.0
 40
3.0
 40
3.0
 40
3.0
 40
4.0
 40
4.0
 40
4.0
 40
5.0
 40
5.0
 40
5.0
 40
6.0
 40
6.0
 40
6.0
 40
7.0
 40
7.0
 40
7.0
 40
7.0
 10
120.9042480166489
 20
-150.5830566029792
 30
0.0
 10
120.9042480166489
 20
-150.5830566029792
 30
0.0
 10
119.7997504040778
 20
-150.5830566029792
 30
0.0
 10
119.7997504040778
 20
-150.5830566029792
 30
0.0
 10
119.7997504040778
 20
-150.5830566029792
 30
0.0
 10
119.7997504040778
 20
-150.9130967504662
 30
0.0
 10
119.7997504040778
 20
-150.9130967504662
 30
0.0
 10
119.7997504040778
 20
-150.9130967504662
 30
0.0
 10
119.6516112982121
 20
-150.9130967504662
 30
0.0
 10
119.6516112982121
 20
-150.9130967504662
 30
0.0
 10
119.637141897174
 20
-150.5809895456881
 30
0.0
 10
119.4738443711732
 20
-150.5344807566372
 30
0.0
 10
119.3594672010629
 20
-150.504852935464
 30
0.0
 10
119.3594672010629
 20
-150.504852935464
 30
0.0
 10
119.3594672010629
 20
-150.3587808868895
 30
0.0
 10
119.3594672010629
 20
-150.3587808868895
 30
0.0
 10
119.3594672010629
 20
-150.3587808868895
 30
0.0
 10
120.9042480166489
 20
-150.3587808868895
 30
0.0
 10
120.9042480166489
 20
-150.3587808868895
 30
0.0
 10
120.9042480166489
 20
-150.3587808868895
 30
0.0
 10
120.9042480166489
 20
-150.5830566029792
 30
0.0
 10
120.9042480166489
 20
-150.5830566029792
 30
0.0
  0
HATCH
  5
E2
330
DD
100
AcDbEntity
  8
レイヤー 1
 62
    18
420
        0
440
 33554687
100
AcDbHatch
 10
0.0
 20
0.0
 30
0.0
210
0.0
220
0.0
230
1.0
  2
SOLID
 70
     1
 71
     1
 91
        1
 92
        1
 93
        1
 72
     4
 94
        3
 73
     0
 74
     0
 95
       26
 96
       22
 40
0.0
 40
0.0
 40
0.0
 40
0.0
 40
1.0
 40
1.0
 40
1.0
 40
2.0
 40
2.0
 40
2.0
 40
3.0
 40
3.0
 40
3.0
 40
4.0
 40
4.0
 40
4.0
 40
5.0
 40
5.0
 40
5.0
 40
6.0
 40
6.0
 40
6.0
 40
7.0
 40
7.0
 40
7.0
 40
7.0
 10
120.9042480166489
 20
-150.5830566029792
 10
120.9042480166489
 20
-150.5830566029792
 10
119.7997504040778
 20
-150.5830566029792
 10
119.7997504040778
 20
-150.5830566029792
 10
119.7997504040778
 20
-150.5830566029792
 10
119.7997504040778
 20
-150.9130967504662
 10
119.7997504040778
 20
-150.9130967504662
 10
119.7997504040778
 20
-150.9130967504662
 10
119.6516112982121
 20
-150.9130967504662
 10
119.6516112982121
 20
-150.9130967504662
 10
119.637141897174
 20
-150.5809895456881
 10
119.4738443711732
 20
-150.5344807566372
 10
119.3594672010629
 20
-150.504852935464
 10
119.3594672010629
 20
-150.504852935464
 10
119.3594672010629
 20
-150.3587808868895
 10
119.3594672010629
 20
-150.3587808868895
 10
119.3594672010629
 20
-150.3587808868895
 10
120.9042480166489
 20
-150.3587808868895
 10
120.9042480166489
 20
-150.3587808868895
 10
120.9042480166489
 20
-150.3587808868895
 10
120.9042480166489
 20
-150.5830566029792
 10
120.9042480166489
 20
-150.5830566029792
 97
        0
 97
        1
330
E1
 75
     2
 76
     1
 98
        1
 10
0.0
 20
0.0
450
        0
451
        0
460
0.0
461
0.0
452
        0
462
0.0
453
        0
470

  0
SPLINE
  5
E3
330
DD
100
AcDbEntity
  8
レイヤー 1
100
AcDbSpline
210
0.0
220
0.0
230
1.0
 70
     9
 71
     3
 72
    53
 73
    49
 74
     0
 42
0.0000000001
 43
0.0000000001
 40
0.0
 40
0.0
 40
0.0
 40
0.0
 40
1.0
 40
1.0
 40
1.0
 40
2.0
 40
2.0
 40
2.0
 40
3.0
 40
3.0
 40
3.0
 40
4.0
 40
4.0
 40
4.0
 40
5.0
 40
5.0
 40
5.0
 40
6.0
 40
6.0
 40
6.0
 40
7.0
 40
7.0
 40
7.0
 40
8.0
 40
8.0
 40
8.0
 40
9.0
 40
9.0
 40
9.0
 40
10.0
 40
10.0
 40
10.0
 40
11.0
 40
11.0
 40
11.0
 40
12.0
 40
12.0
 40
12.0
 40
13.0
 40
13.0
 40
13.0
 40
14.0
 40
14.0
 40
14.0
 40
15.0
 40
15.0
 40
15.0
 40
16.0
 40
16.0
 40
16.0
 40
16.0
 10
120.9545464107335
 20
-149.3765841640447
 30
0.0
 10
120.9545464107335
 20
-149.4547878315599
 30
0.0
 10
120.9380099524044
 20
-149.5564181483748
 30
0.0
 10
120.8746201954758
 20
-149.6580484651896
 30
0.0
 10
120.7643771399478
 20
-149.8313367680977
 30
0.0
 10
120.6334635115083
 20
-149.8526963601062
 30
0.0
 10
120.5252875132714
 20
-149.8716443852751
 30
0.0
 10
120.5252875132714
 20
-149.8716443852751
 30
0.0
 10
120.5252875132714
 20
-149.6494357264765
 30
0.0
 10
120.5252875132714
 20
-149.6494357264765
 30
0.0
 10
120.7244140323189
 20
-149.594658708261
 30
0.0
 10
120.754041853492
 20
-149.4675346848553
 30
0.0
 10
120.754041853492
 20
-149.3745171067535
 30
0.0
 10
120.754041853492
 20
-149.2349907396009
 30
0.0
 10
120.6541340844198
 20
-149.0827175191529
 30
0.0
 10
120.421934648714
 20
-149.0827175191529
 30
0.0
 10
120.1656195446114
 20
-149.0827175191529
 30
0.0
 10
120.0960286158093
 20
-149.262551503483
 30
0.0
 10
120.0960286158093
 20
-149.3831298454667
 30
0.0
 10
120.0960286158093
 20
-149.414824723931
 30
0.0
 10
120.0960286158093
 20
-149.5564181483748
 30
0.0
 10
120.2248751869577
 20
-149.6453016118942
 30
0.0
 10
120.2248751869577
 20
-149.6453016118942
 30
0.0
 10
120.2062716713373
 20
-149.821001481642
 30
0.0
 10
120.2062716713373
 20
-149.821001481642
 30
0.0
 10
120.2062716713373
 20
-149.821001481642
 30
0.0
 10
119.3594672010629
 20
-149.7004231396582
 30
0.0
 10
119.3594672010629
 20
-149.7004231396582
 30
0.0
 10
119.3594672010629
 20
-149.7004231396582
 30
0.0
 10
119.3594672010629
 20
-148.9218315599917
 30
0.0
 10
119.3594672010629
 20
-148.9218315599917
 30
0.0
 10
119.3594672010629
 20
-148.9218315599917
 30
0.0
 10
119.554459605528
 20
-148.9218315599917
 30
0.0
 10
119.554459605528
 20
-148.9218315599917
 30
0.0
 10
119.554459605528
 20
-148.9218315599917
 30
0.0
 10
119.554459605528
 20
-149.5374701232059
 30
0.0
 10
119.554459605528
 20
-149.5374701232059
 30
0.0
 10
119.554459605528
 20
-149.5374701232059
 30
0.0
 10
119.9775173311167
 20
-149.6029269374256
 30
0.0
 10
119.9775173311167
 20
-149.6029269374256
 30
0.0
 10
119.9437553953613
 20
-149.5416042377882
 30
0.0
 10
119.9031032686353
 20
-149.4592664556907
 30
0.0
 10
119.9031032686353
 20
-149.3407551709981
 30
0.0
 10
119.9031032686353
 20
-149.0868516337352
 30
0.0
 10
120.0898274439359
 20
-148.84982906435
 30
0.0
 10
120.4026421139965
 20
-148.84982906435
 30
0.0
 10
120.7202799177366
 20
-148.84982906435
 30
0.0
 10
120.9545464107335
 20
-149.0741047804398
 30
0.0
 10
120.9545464107335
 20
-149.3765841640447
 30
0.0
  0
HATCH
  5
E4
330
DD
100
AcDbEntity
  8
レイヤー 1
 62
    18
420
        0
440
 33554687
100
AcDbHatch
 10
0.0
 20
0.0
 30
0.0
210
0.0
220
0.0
230
1.0
  2
SOLID
 70
     1
 71
     1
 91
        1
 92
        1
 93
        1
 72
     4
 94
        3
 73
     0
 74
     0
 95
       53
 96
       49
 40
0.0
 40
0.0
 40
0.0
 40
0.0
 40
1.0
 40
1.0
 40
1.0
 40
2.0
 40
2.0
 40
2.0
 40
3.0
 40
3.0
 40
3.0
 40
4.0
 40
4.0
 40
4.0
 40
5.0
 40
5.0
 40
5.0
 40
6.0
 40
6.0
 40
6.0
 40
7.0
 40
7.0
 40
7.0
 40
8.0
 40
8.0
 40
8.0
 40
9.0
 40
9.0
 40
9.0
 40
10.0
 40
10.0
 40
10.0
 40
11.0
 40
11.0
 40
11.0
 40
12.0
 40
12.0
 40
12.0
 40
13.0
 40
13.0
 40
13.0
 40
14.0
 40
14.0
 40
14.0
 40
15.0
 40
15.0
 40
15.0
 40
16.0
 40
16.0
 40
16.0
 40
16.0
 10
120.9545464107335
 20
-149.3765841640447
 10
120.9545464107335
 20
-149.4547878315599
 10
120.9380099524044
 20
-149.5564181483748
 10
120.8746201954758
 20
-149.6580484651896
 10
120.7643771399478
 20
-149.8313367680977
 10
120.6334635115083
 20
-149.8526963601062
 10
120.5252875132714
 20
-149.8716443852751
 10
120.5252875132714
 20
-149.8716443852751
 10
120.5252875132714
 20
-149.6494357264765
 10
120.5252875132714
 20
-149.6494357264765
 10
120.7244140323189
 20
-149.594658708261
 10
120.754041853492
 20
-149.4675346848553
 10
120.754041853492
 20
-149.3745171067535
 10
120.754041853492
 20
-149.2349907396009
 10
120.6541340844198
 20
-149.0827175191529
 10
120.421934648714
 20
-149.0827175191529
 10
120.1656195446114
 20
-149.0827175191529
 10
120.0960286158093
 20
-149.262551503483
 10
120.0960286158093
 20
-149.3831298454667
 10
120.0960286158093
 20
-149.414824723931
 10
120.0960286158093
 20
-149.5564181483748
 10
120.2248751869577
 20
-149.6453016118942
 10
120.2248751869577
 20
-149.6453016118942
 10
120.2062716713373
 20
-149.821001481642
 10
120.2062716713373
 20
-149.821001481642
 10
120.2062716713373
 20
-149.821001481642
 10
119.3594672010629
 20
-149.7004231396582
 10
119.3594672010629
 20
-149.7004231396582
 10
119.3594672010629
 20
-149.7004231396582
 10
119.3594672010629
 20
-148.9218315599917
 10
119.3594672010629
 20
-148.9218315599917
 10
119.3594672010629
 20
-148.9218315599917
 10
119.554459605528
 20
-148.9218315599917
 10
119.554459605528
 20
-148.9218315599917
 10
119.554459605528
 20
-148.9218315599917
 10
119.554459605528
 20
-149.5374701232059
 10
119.554459605528
 20
-149.5374701232059
 10
119.554459605528
 20
-149.5374701232059
 10
119.9775173311167
 20
-149.6029269374256
 10
119.9775173311167
 20
-149.6029269374256
 10
119.9437553953613
 20
-149.5416042377882
 10
119.9031032686353
 20
-149.4592664556907
 10
119.9031032686353
 20
-149.3407551709981
 10
119.9031032686353
 20
-149.0868516337352
 10
120.0898274439359
 20
-148.84982906435
 10
120.4026421139965
 20
-148.84982906435
 10
120.7202799177366
 20
-148.84982906435
 10
120.9545464107335
 20
-149.0741047804398
 10
120.9545464107335
 20
-149.3765841640447
 97
        0
 97
        1
330
E3
 75
     2
 76
     1
 98
        1
 10
0.0
 20
0.0
450
        0
451
        0
460
0.0
461
0.0
452
        0
462
0.0
453
        0
470

  0
SPLINE
  5
E5
330
DD
100
AcDbEntity
  8
レイヤー 1
100
AcDbSpline
210
0.0
220
0.0
230
1.0
 70
    11
 71
     3
 72
    17
 73
    13
 74
     0
 42
0.0000000001
 43
0.0000000001
 40
0.0
 40
0.0
 40
0.0
 40
0.0
 40
1.0
 40
1.0
 40
1.0
 40
2.0
 40
2.0
 40
2.0
 40
3.0
 40
3.0
 40
3.0
 40
4.0
 40
4.0
 40
4.0
 40
4.0
 10
120.9042480166489
 20
-148.6207302145809
 30
0.0
 10
120.9042480166489
 20
-148.6207302145809
 30
0.0
 10
120.6520670271286
 20
-148.6207302145809
 30
0.0
 10
120.6520670271286
 20
-148.6207302145809
 30
0.0
 10
120.6520670271286
 20
-148.6207302145809
 30
0.0
 10
120.6520670271286
 20
-148.3688937346092
 30
0.0
 10
120.6520670271286
 20
-148.3688937346092
 30
0.0
 10
120.6520670271286
 20
-148.3688937346092
 30
0.0
 10
120.9042480166489
 20
-148.3688937346092
 30
0.0
 10
120.9042480166489
 20
-148.3688937346092
 30
0.0
 10
120.9042480166489
 20
-148.3688937346092
 30
0.0
 10
120.9042480166489
 20
-148.6207302145809
 30
0.0
 10
120.9042480166489
 20
-148.6207302145809
 30
0.0
  0
HATCH
  5
E6
330
DD
100
AcDbEntity
  8
レイヤー 1
 62
    18
420
        0
440
 33554687
100
AcDbHatch
 10
0.0
 20
0.0
 30
0.0
210
0.0
220
0.0
230
1.0
  2
SOLID
 70
     1
 71
     1
 91
        1
 92
        1
 93
        1
 72
     4
 94
        3
 73
     0
 74
     0
 95
       17
 96
       13
 40
0.0
 40
0.0
 40
0.0
 40
0.0
 40
1.0
 40
1.0
 40
1.0
 40
2.0
 40
2.0
 40
2.0
 40
3.0
 40
3.0
 40
3.0
 40
4.0
 40
4.0
 40
4.0
 40
4.0
 10
120.9042480166489
 20
-148.6207302145809
 10
120.9042480166489
 20
-148.6207302145809
 10
120.6520670271286
 20
-148.6207302145809
 10
120.6520670271286
 20
-148.6207302145809
 10
120.6520670271286
 20
-148.6207302145809
 10
120.6520670271286
 20
-148.3688937346092
 10
120.6520670271286
 20
-148.3688937346092
 10
120.6520670271286
 20
-148.3688937346092
 10
120.9042480166489
 20
-148.3688937346092
 10
120.9042480166489
 20
-148.3688937346092
 10
120.9042480166489
 20
-148.3688937346092
 10
120.9042480166489
 20
-148.6207302145809
 10
120.9042480166489
 20
-148.6207302145809
 97
        0
 97
        1
330
E5
 75
     2
 76
     1
 98
        1
 10
0.0
 20
0.0
450
        0
451
        0
460
0.0
461
0.0
452
        0
462
0.0
453
        0
470

  0
SPLINE
  5
E7
330
DD
100
AcDbEntity
  8
レイヤー 1
100
AcDbSpline
210
0.0
220
0.0
230
1.0
 70
     9
 71
     3
 72
    53
 73
    49
 74
     0
 42
0.0000000001
 43
0.0000000001
 40
0.0
 40
0.0
 40
0.0
 40
0.0
 40
1.0
 40
1.0
 40
1.0
 40
2.0
 40
2.0
 40
2.0
 40
3.0
 40
3.0
 40
3.0
 40
4.0
 40
4.0
 40
4.0
 40
5.0
 40
5.0
 40
5.0
 40
6.0
 40
6.0
 40
6.0
 40
7.0
 40
7.0
 40
7.0
 40
8.0
 40
8.0
 40
8.0
 40
9.0
 40
9.0
 40
9.0
 40
10.0
 40
10.0
 40
10.0
 40
11.0
 40
11.0
 40
11.0
 40
12.0
 40
12.0
 40
12.0
 40
13.0
 40
13.0
 40
13.0
 40
14.0
 40
14.0
 40
14.0
 40
15.0
 40
15.0
 40
15.0
 40
16.0
 40
16.0
 40
16.0
 40
16.0
 10
120.9545464107335
 20
-147.6516248545801
 30
0.0
 10
120.9545464107335
 20
-147.7298285220953
 30
0.0
 10
120.9380099524044
 20
-147.8314588389102
 30
0.0
 10
120.8746201954758
 20
-147.933089155725
 30
0.0
 10
120.7643771399478
 20
-148.1063774586331
 30
0.0
 10
120.6334635115083
 20
-148.1277370506417
 30
0.0
 10
120.5252875132714
 20
-148.1466850758105
 30
0.0
 10
120.5252875132714
 20
-148.1466850758105
 30
0.0
 10
120.5252875132714
 20
-147.9244764170119
 30
0.0
 10
120.5252875132714
 20
-147.9244764170119
 30
0.0
 10
120.7244140323189
 20
-147.8696993987965
 30
0.0
 10
120.754041853492
 20
-147.7425753753907
 30
0.0
 10
120.754041853492
 20
-147.649557797289
 30
0.0
 10
120.754041853492
 20
-147.5100314301364
 30
0.0
 10
120.6541340844198
 20
-147.3577582096883
 30
0.0
 10
120.421934648714
 20
-147.3577582096883
 30
0.0
 10
120.1656195446114
 20
-147.3577582096883
 30
0.0
 10
120.0960286158093
 20
-147.5375921940184
 30
0.0
 10
120.0960286158093
 20
-147.6581705360021
 30
0.0
 10
120.0960286158093
 20
-147.6898654144664
 30
0.0
 10
120.0960286158093
 20
-147.8314588389102
 30
0.0
 10
120.2248751869577
 20
-147.9203423024296
 30
0.0
 10
120.2248751869577
 20
-147.9203423024296
 30
0.0
 10
120.2062716713373
 20
-148.0960421721774
 30
0.0
 10
120.2062716713373
 20
-148.0960421721774
 30
0.0
 10
120.2062716713373
 20
-148.0960421721774
 30
0.0
 10
119.3594672010629
 20
-147.9754638301936
 30
0.0
 10
119.3594672010629
 20
-147.9754638301936
 30
0.0
 10
119.3594672010629
 20
-147.9754638301936
 30
0.0
 10
119.3594672010629
 20
-147.1968722505271
 30
0.0
 10
119.3594672010629
 20
-147.1968722505271
 30
0.0
 10
119.3594672010629
 20
-147.1968722505271
 30
0.0
 10
119.554459605528
 20
-147.1968722505271
 30
0.0
 10
119.554459605528
 20
-147.1968722505271
 30
0.0
 10
119.554459605528
 20
-147.1968722505271
 30
0.0
 10
119.554459605528
 20
-147.8125108137413
 30
0.0
 10
119.554459605528
 20
-147.8125108137413
 30
0.0
 10
119.554459605528
 20
-147.8125108137413
 30
0.0
 10
119.9775173311167
 20
-147.8779676279611
 30
0.0
 10
119.9775173311167
 20
-147.8779676279611
 30
0.0
 10
119.9437553953613
 20
-147.8166449283236
 30
0.0
 10
119.9031032686353
 20
-147.7343071462261
 30
0.0
 10
119.9031032686353
 20
-147.6157958615335
 30
0.0
 10
119.9031032686353
 20
-147.3618923242706
 30
0.0
 10
120.0898274439359
 20
-147.1248697548854
 30
0.0
 10
120.4026421139965
 20
-147.1248697548854
 30
0.0
 10
120.7202799177366
 20
-147.1248697548854
 30
0.0
 10
120.9545464107335
 20
-147.3491454709752
 30
0.0
 10
120.9545464107335
 20
-147.6516248545801
 30
0.0
  0
HATCH
  5
E8
330
DD
100
AcDbEntity
  8
レイヤー 1
 62
    18
420
        0
440
 33554687
100
AcDbHatch
 10
0.0
 20
0.0
 30
0.0
210
0.0
220
0.0
230
1.0
  2
SOLID
 70
     1
 71
     1
 91
        1
 92
        1
 93
        1
 72
     4
 94
        3
 73
     0
 74
     0
 95
       53
 96
       49
 40
0.0
 40
0.0
 40
0.0
 40
0.0
 40
1.0
 40
1.0
 40
1.0
 40
2.0
 40
2.0
 40
2.0
 40
3.0
 40
3.0
 40
3.0
 40
4.0
 40
4.0
 40
4.0
 40
5.0
 40
5.0
 40
5.0
 40
6.0
 40
6.0
 40
6.0
 40
7.0
 40
7.0
 40
7.0
 40
8.0
 40
8.0
 40
8.0
 40
9.0
 40
9.0
 40
9.0
 40
10.0
 40
10.0
 40
10.0
 40
11.0
 40
11.0
 40
11.0
 40
12.0
 40
12.0
 40
12.0
 40
13.0
 40
13.0
 40
13.0
 40
14.0
 40
14.0
 40
14.0
 40
15.0
 40
15.0
 40
15.0
 40
16.0
 40
16.0
 40
16.0
 40
16.0
 10
120.9545464107335
 20
-147.6516248545801
 10
120.9545464107335
 20
-147.7298285220953
 10
120.9380099524044
 20
-147.8314588389102
 10
120.8746201954758
 20
-147.933089155725
 10
120.7643771399478
 20
-148.1063774586331
 10
120.6334635115083
 20
-148.1277370506417
 10
120.5252875132714
 20
-148.1466850758105
 10
120.5252875132714
 20
-148.1466850758105
 10
120.5252875132714
 20
-147.9244764170119
 10
120.5252875132714
 20
-147.9244764170119
 10
120.7244140323189
 20
-147.8696993987965
 10
120.754041853492
 20
-147.7425753753907
 10
120.754041853492
 20
-147.649557797289
 10
120.754041853492
 20
-147.5100314301364
 10
120.6541340844198
 20
-147.3577582096883
 10
120.421934648714
 20
-147.3577582096883
 10
120.1656195446114
 20
-147.3577582096883
 10
120.0960286158093
 20
-147.5375921940184
 10
120.0960286158093
 20
-147.6581705360021
 10
120.0960286158093
 20
-147.6898654144664
 10
120.0960286158093
 20
-147.8314588389102
 10
120.2248751869577
 20
-147.9203423024296
 10
120.2248751869577
 20
-147.9203423024296
 10
120.2062716713373
 20
-148.0960421721774
 10
120.2062716713373
 20
-148.0960421721774
 10
120.2062716713373
 20
-148.0960421721774
 10
119.3594672010629
 20
-147.9754638301936
 10
119.3594672010629
 20
-147.9754638301936
 10
119.3594672010629
 20
-147.9754638301936
 10
119.3594672010629
 20
-147.1968722505271
 10
119.3594672010629
 20
-147.1968722505271
 10
119.3594672010629
 20
-147.1968722505271
 10
119.554459605528
 20
-147.1968722505271
 10
119.554459605528
 20
-147.1968722505271
 10
119.554459605528
 20
-147.1968722505271
 10
119.554459605528
 20
-147.8125108137413
 10
119.554459605528
 20
-147.8125108137413
 10
119.554459605528
 20
-147.8125108137413
 10
119.9775173311167
 20
-147.8779676279611
 10
119.9775173311167
 20
-147.8779676279611
 10
119.9437553953613
 20
-147.8166449283236
 10
119.9031032686353
 20
-147.7343071462261
 10
119.9031032686353
 20
-147.6157958615335
 10
119.9031032686353
 20
-147.3618923242706
 10
120.0898274439359
 20
-147.1248697548854
 10
120.4026421139965
 20
-147.1248697548854
 10
120.7202799177366
 20
-147.1248697548854
 10
120.9545464107335
 20
-147.3491454709752
 10
120.9545464107335
 20
-147.6516248545801
 97
        0
 97
        1
330
E7
 75
     2
 76
     1
 98
        1
 10
0.0
 20
0.0
450
        0
451
        0
460
0.0
461
0.0
452
        0
462
0.0
453
        0
470

  0
ENDBLK
  5
E0
330
DD
100
AcDbEntity
  8
0
100
AcDbBlockEnd
  0
BLOCK
  5
EC
330
EA
100
AcDbEntity
  8
0
100
AcDbBlockBegin
  2
Block_10
 70
     0
 10
0.0
 20
0.0
 30
0.0
  3
Block_10
  1

  0
INSERT
  5
EF
330
EA
100
AcDbEntity
  8
レイヤー 1
100
AcDbBlockReference
  2
Block_11
 10
0.0
 20
0.0
 30
0.0
  0
ENDBLK
  5
ED
330
EA
100
AcDbEntity
  8
0
100
AcDbBlockEnd
  0
BLOCK
  5
F0
330
EE
100
AcDbEntity
  8
0
100
AcDbBlockBegin
  2
Block_11
 70
     0
 10
0.0
 20
0.0
 30
0.0
  3
Block_11
  1

  0
SPLINE
  5
F2
330
EE
100
AcDbEntity
  8
レイヤー 1
100
AcDbSpline
210
0.0
220
0.0
230
1.0
 70
     9
 71
     3
 72
    59
 73
    55
 74
     0
 42
0.0000000001
 43
0.0000000001
 40
0.0
 40
0.0
 40
0.0
 40
0.0
 40
1.0
 40
1.0
 40
1.0
 40
2.0
 40
2.0
 40
2.0
 40
3.0
 40
3.0
 40
3.0
 40
4.0
 40
4.0
 40
4.0
 40
5.0
 40
5.0
 40
5.0
 40
6.0
 40
6.0
 40
6.0
 40
7.0
 40
7.0
 40
7.0
 40
8.0
 40
8.0
 40
8.0
 40
9.0
 40
9.0
 40
9.0
 40
10.0
 40
10.0
 40
10.0
 40
11.0
 40
11.0
 40
11.0
 40
12.0
 40
12.0
 40
12.0
 40
13.0
 40
13.0
 40
13.0
 40
14.0
 40
14.0
 40
14.0
 40
15.0
 40
15.0
 40
15.0
 40
16.0
 40
16.0
 40
16.0
 40
17.0
 40
17.0
 40
17.0
 40
18.0
 40
18.0
 40
18.0
 40
18.0
 10
107.7188340659522
 20
-161.8295708145773
 30
0.0
 10
107.5517469349176
 20
-162.3163628066431
 30
0.0
 10
107.3023220217855
 20
-162.838639282207
 30
0.0
 10
106.7035644264491
 20
-163.1559325763985
 30
0.0
 10
106.7035644264491
 20
-163.1559325763985
 30
0.0
 10
106.5151177034059
 20
-163.0036593559504
 30
0.0
 10
106.5151177034059
 20
-163.0036593559504
 30
0.0
 10
106.6760036625671
 20
-162.9340684271484
 30
0.0
 10
106.9212944611169
 20
-162.8238253716204
 30
0.0
 10
107.1731309410886
 20
-162.4937852241335
 30
0.0
 10
107.4101535104738
 20
-162.1809705540728
 30
0.0
 10
107.467342095529
 20
-161.9249999595187
 30
0.0
 10
107.4945583498625
 20
-161.797875936113
 30
0.0
 10
107.4945583498625
 20
-161.797875936113
 30
0.0
 10
106.847224908184
 20
-161.797875936113
 30
0.0
 10
106.847224908184
 20
-161.797875936113
 30
0.0
 10
106.743527534078
 20
-161.9587618952742
 30
0.0
 10
106.6229491920942
 20
-162.1258490263088
 30
0.0
 10
106.4307128640173
 20
-162.2970702719257
 30
0.0
 10
106.4307128640173
 20
-162.2970702719257
 30
0.0
 10
106.2570800515607
 20
-162.1744248726508
 30
0.0
 10
106.2570800515607
 20
-162.1744248726508
 30
0.0
 10
106.316335693907
 20
-162.1279160836
 30
0.0
 10
106.4644747997727
 20
-162.0159504803293
 30
0.0
 10
106.6294948735162
 20
-161.7661810576487
 30
0.0
 10
106.7056314837402
 20
-161.6476697729561
 30
0.0
 10
106.8093288578463
 20
-161.4785155846304
 30
0.0
 10
106.8348225644371
 20
-161.3558701853555
 30
0.0
 10
106.8348225644371
 20
-161.3558701853555
 30
0.0
 10
107.0652994524003
 20
-161.4571559926218
 30
0.0
 10
107.0652994524003
 20
-161.4571559926218
 30
0.0
 10
107.0801133629869
 20
-161.4637016740438
 30
0.0
 10
107.0949272735735
 20
-161.4719699032084
 30
0.0
 10
107.0949272735735
 20
-161.4867838137949
 30
0.0
 10
107.0949272735735
 20
-161.5081434058035
 30
0.0
 10
107.0694335669826
 20
-161.5208902590989
 30
0.0
 10
107.061165337818
 20
-161.5229573163901
 30
0.0
 10
107.033604573936
 20
-161.5312255455547
 30
0.0
 10
107.0249918352229
 20
-161.5291584882635
 30
0.0
 10
106.9998426381806
 20
-161.5546521948544
 30
0.0
 10
106.9743489315897
 20
-161.5801459014452
 30
0.0
 10
106.9764159888809
 20
-161.5884141306098
 30
0.0
 10
106.9447211104166
 20
-161.6414686010827
 30
0.0
 10
106.9447211104166
 20
-161.6414686010827
 30
0.0
 10
107.2788953724858
 20
-161.6414686010827
 30
0.0
 10
107.2788953724858
 20
-161.6414686010827
 30
0.0
 10
107.5348659670399
 20
-161.6414686010827
 30
0.0
 10
107.5665608455042
 20
-161.6287217477872
 30
0.0
 10
107.6237494305593
 20
-161.5990939266141
 30
0.0
 10
107.6237494305593
 20
-161.5990939266141
 30
0.0
 10
107.7801567655897
 20
-161.7641140003575
 30
0.0
 10
107.7801567655897
 20
-161.7641140003575
 30
0.0
 10
107.7463948298342
 20
-161.7999429934042
 30
0.0
 10
107.7443277725431
 20
-161.8020100506953
 30
0.0
 10
107.7188340659522
 20
-161.8295708145773
 30
0.0
  0
HATCH
  5
F3
330
EE
100
AcDbEntity
  8
レイヤー 1
 62
    18
420
        0
440
 33554687
100
AcDbHatch
 10
0.0
 20
0.0
 30
0.0
210
0.0
220
0.0
230
1.0
  2
SOLID
 70
     1
 71
     1
 91
        1
 92
        1
 93
        1
 72
     4
 94
        3
 73
     0
 74
     0
 95
       59
 96
       55
 40
0.0
 40
0.0
 40
0.0
 40
0.0
 40
1.0
 40
1.0
 40
1.0
 40
2.0
 40
2.0
 40
2.0
 40
3.0
 40
3.0
 40
3.0
 40
4.0
 40
4.0
 40
4.0
 40
5.0
 40
5.0
 40
5.0
 40
6.0
 40
6.0
 40
6.0
 40
7.0
 40
7.0
 40
7.0
 40
8.0
 40
8.0
 40
8.0
 40
9.0
 40
9.0
 40
9.0
 40
10.0
 40
10.0
 40
10.0
 40
11.0
 40
11.0
 40
11.0
 40
12.0
 40
12.0
 40
12.0
 40
13.0
 40
13.0
 40
13.0
 40
14.0
 40
14.0
 40
14.0
 40
15.0
 40
15.0
 40
15.0
 40
16.0
 40
16.0
 40
16.0
 40
17.0
 40
17.0
 40
17.0
 40
18.0
 40
18.0
 40
18.0
 40
18.0
 10
107.7188340659522
 20
-161.8295708145773
 10
107.5517469349176
 20
-162.3163628066431
 10
107.3023220217855
 20
-162.838639282207
 10
106.7035644264491
 20
-163.1559325763985
 10
106.7035644264491
 20
-163.1559325763985
 10
106.5151177034059
 20
-163.0036593559504
 10
106.5151177034059
 20
-163.0036593559504
 10
106.6760036625671
 20
-162.9340684271484
 10
106.9212944611169
 20
-162.8238253716204
 10
107.1731309410886
 20
-162.4937852241335
 10
107.4101535104738
 20
-162.1809705540728
 10
107.467342095529
 20
-161.9249999595187
 10
107.4945583498625
 20
-161.797875936113
 10
107.4945583498625
 20
-161.797875936113
 10
106.847224908184
 20
-161.797875936113
 10
106.847224908184
 20
-161.797875936113
 10
106.743527534078
 20
-161.9587618952742
 10
106.6229491920942
 20
-162.1258490263088
 10
106.4307128640173
 20
-162.2970702719257
 10
106.4307128640173
 20
-162.2970702719257
 10
106.2570800515607
 20
-162.1744248726508
 10
106.2570800515607
 20
-162.1744248726508
 10
106.316335693907
 20
-162.1279160836
 10
106.4644747997727
 20
-162.0159504803293
 10
106.6294948735162
 20
-161.7661810576487
 10
106.7056314837402
 20
-161.6476697729561
 10
106.8093288578463
 20
-161.4785155846304
 10
106.8348225644371
 20
-161.3558701853555
 10
106.8348225644371
 20
-161.3558701853555
 10
107.0652994524003
 20
-161.4571559926218
 10
107.0652994524003
 20
-161.4571559926218
 10
107.0801133629869
 20
-161.4637016740438
 10
107.0949272735735
 20
-161.4719699032084
 10
107.0949272735735
 20
-161.4867838137949
 10
107.0949272735735
 20
-161.5081434058035
 10
107.0694335669826
 20
-161.5208902590989
 10
107.061165337818
 20
-161.5229573163901
 10
107.033604573936
 20
-161.5312255455547
 10
107.0249918352229
 20
-161.5291584882635
 10
106.9998426381806
 20
-161.5546521948544
 10
106.9743489315897
 20
-161.5801459014452
 10
106.9764159888809
 20
-161.5884141306098
 10
106.9447211104166
 20
-161.6414686010827
 10
106.9447211104166
 20
-161.6414686010827
 10
107.2788953724858
 20
-161.6414686010827
 10
107.2788953724858
 20
-161.6414686010827
 10
107.5348659670399
 20
-161.6414686010827
 10
107.5665608455042
 20
-161.6287217477872
 10
107.6237494305593
 20
-161.5990939266141
 10
107.6237494305593
 20
-161.5990939266141
 10
107.7801567655897
 20
-161.7641140003575
 10
107.7801567655897
 20
-161.7641140003575
 10
107.7463948298342
 20
-161.7999429934042
 10
107.7443277725431
 20
-161.8020100506953
 10
107.7188340659522
 20
-161.8295708145773
 97
        0
 97
        1
330
F2
 75
     2
 76
     1
 98
        1
 10
0.0
 20
0.0
450
        0
451
        0
460
0.0
461
0.0
452
        0
462
0.0
453
        0
470

  0
SPLINE
  5
F4
330
EE
100
AcDbEntity
  8
レイヤー 1
100
AcDbSpline
210
0.0
220
0.0
230
1.0
 70
    11
 71
     3
 72
    17
 73
    13
 74
     0
 42
0.0000000001
 43
0.0000000001
 40
0.0
 40
0.0
 40
0.0
 40
0.0
 40
1.0
 40
1.0
 40
1.0
 40
2.0
 40
2.0
 40
2.0
 40
3.0
 40
3.0
 40
3.0
 40
4.0
 40
4.0
 40
4.0
 40
4.0
 10
109.3614555933193
 20
-161.7386202937667
 30
0.0
 10
109.3614555933193
 20
-161.7386202937667
 30
0.0
 10
108.3206922472254
 20
-161.7386202937667
 30
0.0
 10
108.3206922472254
 20
-161.7386202937667
 30
0.0
 10
108.3206922472254
 20
-161.7386202937667
 30
0.0
 10
108.3206922472254
 20
-162.6271104194126
 30
0.0
 10
108.3206922472254
 20
-162.6271104194126
 30
0.0
 10
108.3206922472254
 20
-162.6271104194126
 30
0.0
 10
109.3614555933193
 20
-162.6271104194126
 30
0.0
 10
109.3614555933193
 20
-162.6271104194126
 30
0.0
 10
109.3614555933193
 20
-162.6271104194126
 30
0.0
 10
109.3614555933193
 20
-161.7386202937667
 30
0.0
 10
109.3614555933193
 20
-161.7386202937667
 30
0.0
  0
SPLINE
  5
F5
330
EE
100
AcDbEntity
  8
レイヤー 1
100
AcDbSpline
210
0.0
220
0.0
230
1.0
 70
     9
 71
     3
 72
    53
 73
    49
 74
     0
 42
0.0000000001
 43
0.0000000001
 40
0.0
 40
0.0
 40
0.0
 40
0.0
 40
1.0
 40
1.0
 40
1.0
 40
2.0
 40
2.0
 40
2.0
 40
3.0
 40
3.0
 40
3.0
 40
4.0
 40
4.0
 40
4.0
 40
5.0
 40
5.0
 40
5.0
 40
6.0
 40
6.0
 40
6.0
 40
7.0
 40
7.0
 40
7.0
 40
8.0
 40
8.0
 40
8.0
 40
9.0
 40
9.0
 40
9.0
 40
10.0
 40
10.0
 40
10.0
 40
11.0
 40
11.0
 40
11.0
 40
12.0
 40
12.0
 40
12.0
 40
13.0
 40
13.0
 40
13.0
 40
14.0
 40
14.0
 40
14.0
 40
15.0
 40
15.0
 40
15.0
 40
16.0
 40
16.0
 40
16.0
 40
16.0
 10
109.3383734535682
 20
-162.942336656313
 30
0.0
 10
109.3466416827328
 20
-162.8978949245533
 30
0.0
 10
109.3466416827328
 20
-162.8896266953887
 30
0.0
 10
109.3531873641547
 20
-162.8155571424558
 30
0.0
 10
109.3531873641547
 20
-162.8155571424558
 30
0.0
 10
108.3227593045165
 20
-162.8155571424558
 30
0.0
 10
108.3227593045165
 20
-162.8155571424558
 30
0.0
 10
108.3227593045165
 20
-162.8472520209201
 30
0.0
 10
108.3227593045165
 20
-162.9023735486841
 30
0.0
 10
108.3272379286473
 20
-162.9382025417307
 30
0.0
 10
108.3272379286473
 20
-162.9382025417307
 30
0.0
 10
108.0860812446799
 20
-162.9382025417307
 30
0.0
 10
108.0860812446799
 20
-162.9382025417307
 30
0.0
 10
108.0922824165533
 20
-162.8830810139667
 30
0.0
 10
108.1029622125576
 20
-162.7921304931561
 30
0.0
 10
108.1029622125576
 20
-162.6632839220078
 30
0.0
 10
108.1050292698487
 20
-162.4579562310869
 30
0.0
 10
108.1050292698487
 20
-162.4345295817872
 30
0.0
 10
108.1050292698487
 20
-162.411447442036
 30
0.0
 10
108.1050292698487
 20
-162.411447442036
 30
0.0
 10
108.1050292698487
 20
-161.9715087485696
 30
0.0
 10
108.1050292698487
 20
-161.9715087485696
 30
0.0
 10
108.1050292698487
 20
-161.9057074248013
 30
0.0
 10
108.0984835884267
 20
-161.5822129587364
 30
0.0
 10
108.0943494738445
 20
-161.5270914309724
 30
0.0
 10
108.2190619304105
 20
-161.5398382842678
 30
0.0
 10
108.4836452636777
 20
-161.5439723988501
 30
0.0
 10
108.6149034016657
 20
-161.5439723988501
 30
0.0
 10
108.6149034016657
 20
-161.5439723988501
 30
0.0
 10
109.0696560057187
 20
-161.5439723988501
 30
0.0
 10
109.0696560057187
 20
-161.5439723988501
 30
0.0
 10
109.2198621688756
 20
-161.5439723988501
 30
0.0
 10
109.4441378849653
 20
-161.541905341559
 30
0.0
 10
109.5902099335399
 20
-161.5336371123944
 30
0.0
 10
109.5815971948268
 20
-161.6435356583738
 30
0.0
 10
109.5774630802445
 20
-161.8929605715059
 30
0.0
 10
109.5774630802445
 20
-162.0114718561985
 30
0.0
 10
109.5774630802445
 20
-162.0114718561985
 30
0.0
 10
109.5774630802445
 20
-162.4303954672049
 30
0.0
 10
109.5774630802445
 20
-162.4303954672049
 30
0.0
 10
109.5774630802445
 20
-162.4727701416735
 30
0.0
 10
109.583664252118
 20
-162.6546711832947
 30
0.0
 10
109.583664252118
 20
-162.6929117431809
 30
0.0
 10
109.5857313094091
 20
-162.8431179063378
 30
0.0
 10
109.5943440481222
 20
-162.893760809971
 30
0.0
 10
109.6026122772868
 20
-162.942336656313
 30
0.0
 10
109.6026122772868
 20
-162.942336656313
 30
0.0
 10
109.3383734535682
 20
-162.942336656313
 30
0.0
 10
109.3383734535682
 20
-162.942336656313
 30
0.0
  0
HATCH
  5
F6
330
EE
100
AcDbEntity
  8
レイヤー 1
 62
    18
420
        0
440
 33554687
100
AcDbHatch
 10
0.0
 20
0.0
 30
0.0
210
0.0
220
0.0
230
1.0
  2
SOLID
 70
     1
 71
     1
 91
        2
 92
        1
 93
        1
 72
     4
 94
        3
 73
     0
 74
     0
 95
       17
 96
       13
 40
0.0
 40
0.0
 40
0.0
 40
0.0
 40
1.0
 40
1.0
 40
1.0
 40
2.0
 40
2.0
 40
2.0
 40
3.0
 40
3.0
 40
3.0
 40
4.0
 40
4.0
 40
4.0
 40
4.0
 10
109.3614555933193
 20
-161.7386202937667
 10
109.3614555933193
 20
-161.7386202937667
 10
108.3206922472254
 20
-161.7386202937667
 10
108.3206922472254
 20
-161.7386202937667
 10
108.3206922472254
 20
-161.7386202937667
 10
108.3206922472254
 20
-162.6271104194126
 10
108.3206922472254
 20
-162.6271104194126
 10
108.3206922472254
 20
-162.6271104194126
 10
109.3614555933193
 20
-162.6271104194126
 10
109.3614555933193
 20
-162.6271104194126
 10
109.3614555933193
 20
-162.6271104194126
 10
109.3614555933193
 20
-161.7386202937667
 10
109.3614555933193
 20
-161.7386202937667
 97
        0
 97
        1
330
F4
 92
        1
 93
        1
 72
     4
 94
        3
 73
     0
 74
     0
 95
       53
 96
       49
 40
0.0
 40
0.0
 40
0.0
 40
0.0
 40
1.0
 40
1.0
 40
1.0
 40
2.0
 40
2.0
 40
2.0
 40
3.0
 40
3.0
 40
3.0
 40
4.0
 40
4.0
 40
4.0
 40
5.0
 40
5.0
 40
5.0
 40
6.0
 40
6.0
 40
6.0
 40
7.0
 40
7.0
 40
7.0
 40
8.0
 40
8.0
 40
8.0
 40
9.0
 40
9.0
 40
9.0
 40
10.0
 40
10.0
 40
10.0
 40
11.0
 40
11.0
 40
11.0
 40
12.0
 40
12.0
 40
12.0
 40
13.0
 40
13.0
 40
13.0
 40
14.0
 40
14.0
 40
14.0
 40
15.0
 40
15.0
 40
15.0
 40
16.0
 40
16.0
 40
16.0
 40
16.0
 10
109.3383734535682
 20
-162.942336656313
 10
109.3466416827328
 20
-162.8978949245533
 10
109.3466416827328
 20
-162.8896266953887
 10
109.3531873641547
 20
-162.8155571424558
 10
109.3531873641547
 20
-162.8155571424558
 10
108.3227593045165
 20
-162.8155571424558
 10
108.3227593045165
 20
-162.8155571424558
 10
108.3227593045165
 20
-162.8472520209201
 10
108.3227593045165
 20
-162.9023735486841
 10
108.3272379286473
 20
-162.9382025417307
 10
108.3272379286473
 20
-162.9382025417307
 10
108.0860812446799
 20
-162.9382025417307
 10
108.0860812446799
 20
-162.9382025417307
 10
108.0922824165533
 20
-162.8830810139667
 10
108.1029622125576
 20
-162.7921304931561
 10
108.1029622125576
 20
-162.6632839220078
 10
108.1050292698487
 20
-162.4579562310869
 10
108.1050292698487
 20
-162.4345295817872
 10
108.1050292698487
 20
-162.411447442036
 10
108.1050292698487
 20
-162.411447442036
 10
108.1050292698487
 20
-161.9715087485696
 10
108.1050292698487
 20
-161.9715087485696
 10
108.1050292698487
 20
-161.9057074248013
 10
108.0984835884267
 20
-161.5822129587364
 10
108.0943494738445
 20
-161.5270914309724
 10
108.2190619304105
 20
-161.5398382842678
 10
108.4836452636777
 20
-161.5439723988501
 10
108.6149034016657
 20
-161.5439723988501
 10
108.6149034016657
 20
-161.5439723988501
 10
109.0696560057187
 20
-161.5439723988501
 10
109.0696560057187
 20
-161.5439723988501
 10
109.2198621688756
 20
-161.5439723988501
 10
109.4441378849653
 20
-161.541905341559
 10
109.5902099335399
 20
-161.5336371123944
 10
109.5815971948268
 20
-161.6435356583738
 10
109.5774630802445
 20
-161.8929605715059
 10
109.5774630802445
 20
-162.0114718561985
 10
109.5774630802445
 20
-162.0114718561985
 10
109.5774630802445
 20
-162.4303954672049
 10
109.5774630802445
 20
-162.4303954672049
 10
109.5774630802445
 20
-162.4727701416735
 10
109.583664252118
 20
-162.6546711832947
 10
109.583664252118
 20
-162.6929117431809
 10
109.5857313094091
 20
-162.8431179063378
 10
109.5943440481222
 20
-162.893760809971
 10
109.6026122772868
 20
-162.942336656313
 10
109.6026122772868
 20
-162.942336656313
 10
109.3383734535682
 20
-162.942336656313
 10
109.3383734535682
 20
-162.942336656313
 97
        0
 97
        1
330
F5
 75
     2
 76
     1
 98
        1
 10
0.0
 20
0.0
450
        0
451
        0
460
0.0
461
0.0
452
        0
462
0.0
453
        0
470

  0
SPLINE
  5
F7
330
EE
100
AcDbEntity
  8
レイヤー 1
100
AcDbSpline
210
0.0
220
0.0
230
1.0
 70
     9
 71
     3
 72
    56
 73
    52
 74
     0
 42
0.0000000001
 43
0.0000000001
 40
0.0
 40
0.0
 40
0.0
 40
0.0
 40
1.0
 40
1.0
 40
1.0
 40
2.0
 40
2.0
 40
2.0
 40
3.0
 40
3.0
 40
3.0
 40
4.0
 40
4.0
 40
4.0
 40
5.0
 40
5.0
 40
5.0
 40
6.0
 40
6.0
 40
6.0
 40
7.0
 40
7.0
 40
7.0
 40
8.0
 40
8.0
 40
8.0
 40
9.0
 40
9.0
 40
9.0
 40
10.0
 40
10.0
 40
10.0
 40
11.0
 40
11.0
 40
11.0
 40
12.0
 40
12.0
 40
12.0
 40
13.0
 40
13.0
 40
13.0
 40
14.0
 40
14.0
 40
14.0
 40
15.0
 40
15.0
 40
15.0
 40
16.0
 40
16.0
 40
16.0
 40
17.0
 40
17.0
 40
17.0
 40
17.0
 10
111.3492756883085
 20
-163.0081379800813
 30
0.0
 10
111.156694850683
 20
-162.6991129150544
 30
0.0
 10
110.8986571988378
 20
-162.4937852241335
 30
0.0
 10
110.8077066780272
 20
-162.4283284099137
 30
0.0
 10
110.5134955235869
 20
-162.7669812961138
 30
0.0
 10
110.2237629932774
 20
-162.9192545165618
 30
0.0
 10
110.0249809837785
 20
-163.0122720946636
 30
0.0
 10
110.0249809837785
 20
-163.0122720946636
 30
0.0
 10
109.8661620819084
 20
-162.8238253716204
 30
0.0
 10
109.8661620819084
 20
-162.8238253716204
 30
0.0
 10
109.9698594560145
 20
-162.7879963785738
 30
0.0
 10
110.1834553760999
 20
-162.7118597683498
 30
0.0
 10
110.4163438309028
 20
-162.5258246121463
 30
0.0
 10
110.6805826546215
 20
-162.3139512398034
 30
0.0
 10
110.8669623203735
 20
-162.0262857667851
 30
0.0
 10
110.9896077196484
 20
-161.7134710967244
 30
0.0
 10
110.9896077196484
 20
-161.7134710967244
 30
0.0
 10
110.6130587831106
 20
-161.7134710967244
 30
0.0
 10
110.6130587831106
 20
-161.7134710967244
 30
0.0
 10
110.4607855626626
 20
-161.7134710967244
 30
0.0
 10
110.2513237571594
 20
-161.7176052113067
 30
0.0
 10
110.1011175940025
 20
-161.7365532364756
 30
0.0
 10
110.1011175940025
 20
-161.7365532364756
 30
0.0
 10
110.1011175940025
 20
-161.5250243736812
 30
0.0
 10
110.1011175940025
 20
-161.5250243736812
 30
0.0
 10
110.1686414655134
 20
-161.5312255455547
 30
0.0
 10
110.4290906841983
 20
-161.541905341559
 30
0.0
 10
110.515562580878
 20
-161.541905341559
 30
0.0
 10
110.515562580878
 20
-161.541905341559
 30
0.0
 10
110.8266547031961
 20
-161.541905341559
 30
0.0
 10
110.8266547031961
 20
-161.541905341559
 30
0.0
 10
111.0340494514082
 20
-161.541905341559
 30
0.0
 10
111.0571315911593
 20
-161.5357041696855
 30
0.0
 10
111.080558240459
 20
-161.5312255455547
 30
0.0
 10
111.1249999722187
 20
-161.5250243736812
 30
0.0
 10
111.1628960225565
 20
-161.4995306670904
 30
0.0
 10
111.184255614565
 20
-161.4826496992127
 30
0.0
 10
111.184255614565
 20
-161.4826496992127
 30
0.0
 10
111.3406629495954
 20
-161.6562825116693
 30
0.0
 10
111.3406629495954
 20
-161.6562825116693
 30
0.0
 10
111.3006998419665
 20
-161.6838432755512
 30
0.0
 10
111.287952988671
 20
-161.694178562007
 30
0.0
 10
111.2390326327805
 20
-161.7303520646021
 30
0.0
 10
111.1101860616322
 20
-161.9777099204431
 30
0.0
 10
111.0299153368258
 20
-162.1279160836
 30
0.0
 10
110.9262179627198
 20
-162.2739881321745
 30
0.0
 10
111.2390326327805
 20
-162.4917181668423
 30
0.0
 10
111.4677869730011
 20
-162.7773165825695
 30
0.0
 10
111.5204969339254
 20
-162.8555202500847
 30
0.0
 10
111.5204969339254
 20
-162.8555202500847
 30
0.0
 10
111.3492756883085
 20
-163.0081379800813
 30
0.0
 10
111.3492756883085
 20
-163.0081379800813
 30
0.0
  0
HATCH
  5
F8
330
EE
100
AcDbEntity
  8
レイヤー 1
 62
    18
420
        0
440
 33554687
100
AcDbHatch
 10
0.0
 20
0.0
 30
0.0
210
0.0
220
0.0
230
1.0
  2
SOLID
 70
     1
 71
     1
 91
        1
 92
        1
 93
        1
 72
     4
 94
        3
 73
     0
 74
     0
 95
       56
 96
       52
 40
0.0
 40
0.0
 40
0.0
 40
0.0
 40
1.0
 40
1.0
 40
1.0
 40
2.0
 40
2.0
 40
2.0
 40
3.0
 40
3.0
 40
3.0
 40
4.0
 40
4.0
 40
4.0
 40
5.0
 40
5.0
 40
5.0
 40
6.0
 40
6.0
 40
6.0
 40
7.0
 40
7.0
 40
7.0
 40
8.0
 40
8.0
 40
8.0
 40
9.0
 40
9.0
 40
9.0
 40
10.0
 40
10.0
 40
10.0
 40
11.0
 40
11.0
 40
11.0
 40
12.0
 40
12.0
 40
12.0
 40
13.0
 40
13.0
 40
13.0
 40
14.0
 40
14.0
 40
14.0
 40
15.0
 40
15.0
 40
15.0
 40
16.0
 40
16.0
 40
16.0
 40
17.0
 40
17.0
 40
17.0
 40
17.0
 10
111.3492756883085
 20
-163.0081379800813
 10
111.156694850683
 20
-162.6991129150544
 10
110.8986571988378
 20
-162.4937852241335
 10
110.8077066780272
 20
-162.4283284099137
 10
110.5134955235869
 20
-162.7669812961138
 10
110.2237629932774
 20
-162.9192545165618
 10
110.0249809837785
 20
-163.0122720946636
 10
110.0249809837785
 20
-163.0122720946636
 10
109.8661620819084
 20
-162.8238253716204
 10
109.8661620819084
 20
-162.8238253716204
 10
109.9698594560145
 20
-162.7879963785738
 10
110.1834553760999
 20
-162.7118597683498
 10
110.4163438309028
 20
-162.5258246121463
 10
110.6805826546215
 20
-162.3139512398034
 10
110.8669623203735
 20
-162.0262857667851
 10
110.9896077196484
 20
-161.7134710967244
 10
110.9896077196484
 20
-161.7134710967244
 10
110.6130587831106
 20
-161.7134710967244
 10
110.6130587831106
 20
-161.7134710967244
 10
110.4607855626626
 20
-161.7134710967244
 10
110.2513237571594
 20
-161.7176052113067
 10
110.1011175940025
 20
-161.7365532364756
 10
110.1011175940025
 20
-161.7365532364756
 10
110.1011175940025
 20
-161.5250243736812
 10
110.1011175940025
 20
-161.5250243736812
 10
110.1686414655134
 20
-161.5312255455547
 10
110.4290906841983
 20
-161.541905341559
 10
110.515562580878
 20
-161.541905341559
 10
110.515562580878
 20
-161.541905341559
 10
110.8266547031961
 20
-161.541905341559
 10
110.8266547031961
 20
-161.541905341559
 10
111.0340494514082
 20
-161.541905341559
 10
111.0571315911593
 20
-161.5357041696855
 10
111.080558240459
 20
-161.5312255455547
 10
111.1249999722187
 20
-161.5250243736812
 10
111.1628960225565
 20
-161.4995306670904
 10
111.184255614565
 20
-161.4826496992127
 10
111.184255614565
 20
-161.4826496992127
 10
111.3406629495954
 20
-161.6562825116693
 10
111.3406629495954
 20
-161.6562825116693
 10
111.3006998419665
 20
-161.6838432755512
 10
111.287952988671
 20
-161.694178562007
 10
111.2390326327805
 20
-161.7303520646021
 10
111.1101860616322
 20
-161.9777099204431
 10
111.0299153368258
 20
-162.1279160836
 10
110.9262179627198
 20
-162.2739881321745
 10
111.2390326327805
 20
-162.4917181668423
 10
111.4677869730011
 20
-162.7773165825695
 10
111.5204969339254
 20
-162.8555202500847
 10
111.5204969339254
 20
-162.8555202500847
 10
111.3492756883085
 20
-163.0081379800813
 10
111.3492756883085
 20
-163.0081379800813
 97
        0
 97
        1
330
F7
 75
     2
 76
     1
 98
        1
 10
0.0
 20
0.0
450
        0
451
        0
460
0.0
461
0.0
452
        0
462
0.0
453
        0
470

  0
SPLINE
  5
F9
330
EE
100
AcDbEntity
  8
レイヤー 1
100
AcDbSpline
210
0.0
220
0.0
230
1.0
 70
    11
 71
     3
 72
    17
 73
    13
 74
     0
 42
0.0000000001
 43
0.0000000001
 40
0.0
 40
0.0
 40
0.0
 40
0.0
 40
1.0
 40
1.0
 40
1.0
 40
2.0
 40
2.0
 40
2.0
 40
3.0
 40
3.0
 40
3.0
 40
4.0
 40
4.0
 40
4.0
 40
4.0
 10
113.2309868423519
 20
-162.0307643909159
 30
0.0
 10
113.2309868423519
 20
-162.0307643909159
 30
0.0
 10
112.7717556141681
 20
-162.0307643909159
 30
0.0
 10
112.7717556141681
 20
-162.0307643909159
 30
0.0
 10
112.7717556141681
 20
-162.0307643909159
 30
0.0
 10
112.7717556141681
 20
-162.3394449463943
 30
0.0
 10
112.7717556141681
 20
-162.3394449463943
 30
0.0
 10
112.7717556141681
 20
-162.3394449463943
 30
0.0
 10
113.2309868423519
 20
-162.3394449463943
 30
0.0
 10
113.2309868423519
 20
-162.3394449463943
 30
0.0
 10
113.2309868423519
 20
-162.3394449463943
 30
0.0
 10
113.2309868423519
 20
-162.0307643909159
 30
0.0
 10
113.2309868423519
 20
-162.0307643909159
 30
0.0
  0
SPLINE
  5
FA
330
EE
100
AcDbEntity
  8
レイヤー 1
100
AcDbSpline
210
0.0
220
0.0
230
1.0
 70
    11
 71
     3
 72
    17
 73
    13
 74
     0
 42
0.0000000001
 43
0.0000000001
 40
0.0
 40
0.0
 40
0.0
 40
0.0
 40
1.0
 40
1.0
 40
1.0
 40
2.0
 40
2.0
 40
2.0
 40
3.0
 40
3.0
 40
3.0
 40
4.0
 40
4.0
 40
4.0
 40
4.0
 10
113.2309868423519
 20
-161.5587863094367
 30
0.0
 10
113.2309868423519
 20
-161.5587863094367
 30
0.0
 10
112.7717556141681
 20
-161.5587863094367
 30
0.0
 10
112.7717556141681
 20
-161.5587863094367
 30
0.0
 10
112.7717556141681
 20
-161.5587863094367
 30
0.0
 10
112.7717556141681
 20
-161.8633327503328
 30
0.0
 10
112.7717556141681
 20
-161.8633327503328
 30
0.0
 10
112.7717556141681
 20
-161.8633327503328
 30
0.0
 10
113.2309868423519
 20
-161.8633327503328
 30
0.0
 10
113.2309868423519
 20
-161.8633327503328
 30
0.0
 10
113.2309868423519
 20
-161.8633327503328
 30
0.0
 10
113.2309868423519
 20
-161.5587863094367
 30
0.0
 10
113.2309868423519
 20
-161.5587863094367
 30
0.0
  0
SPLINE
  5
FB
330
EE
100
AcDbEntity
  8
レイヤー 1
100
AcDbSpline
210
0.0
220
0.0
230
1.0
 70
    11
 71
     3
 72
    17
 73
    13
 74
     0
 42
0.0000000001
 43
0.0000000001
 40
0.0
 40
0.0
 40
0.0
 40
0.0
 40
1.0
 40
1.0
 40
1.0
 40
2.0
 40
2.0
 40
2.0
 40
3.0
 40
3.0
 40
3.0
 40
4.0
 40
4.0
 40
4.0
 40
4.0
 10
112.5815863433824
 20
-162.0307643909159
 30
0.0
 10
112.5815863433824
 20
-162.0307643909159
 30
0.0
 10
112.1437147072071
 20
-162.0307643909159
 30
0.0
 10
112.1437147072071
 20
-162.0307643909159
 30
0.0
 10
112.1437147072071
 20
-162.0307643909159
 30
0.0
 10
112.1437147072071
 20
-162.3394449463943
 30
0.0
 10
112.1437147072071
 20
-162.3394449463943
 30
0.0
 10
112.1437147072071
 20
-162.3394449463943
 30
0.0
 10
112.5815863433824
 20
-162.3394449463943
 30
0.0
 10
112.5815863433824
 20
-162.3394449463943
 30
0.0
 10
112.5815863433824
 20
-162.3394449463943
 30
0.0
 10
112.5815863433824
 20
-162.0307643909159
 30
0.0
 10
112.5815863433824
 20
-162.0307643909159
 30
0.0
  0
SPLINE
  5
FC
330
EE
100
AcDbEntity
  8
レイヤー 1
100
AcDbSpline
210
0.0
220
0.0
230
1.0
 70
    11
 71
     3
 72
    17
 73
    13
 74
     0
 42
0.0000000001
 43
0.0000000001
 40
0.0
 40
0.0
 40
0.0
 40
0.0
 40
1.0
 40
1.0
 40
1.0
 40
2.0
 40
2.0
 40
2.0
 40
3.0
 40
3.0
 40
3.0
 40
4.0
 40
4.0
 40
4.0
 40
4.0
 10
112.5815863433824
 20
-161.5587863094367
 30
0.0
 10
112.5815863433824
 20
-161.5587863094367
 30
0.0
 10
112.1437147072071
 20
-161.5587863094367
 30
0.0
 10
112.1437147072071
 20
-161.5587863094367
 30
0.0
 10
112.1437147072071
 20
-161.5587863094367
 30
0.0
 10
112.1437147072071
 20
-161.8633327503328
 30
0.0
 10
112.1437147072071
 20
-161.8633327503328
 30
0.0
 10
112.1437147072071
 20
-161.8633327503328
 30
0.0
 10
112.5815863433824
 20
-161.8633327503328
 30
0.0
 10
112.5815863433824
 20
-161.8633327503328
 30
0.0
 10
112.5815863433824
 20
-161.8633327503328
 30
0.0
 10
112.5815863433824
 20
-161.5587863094367
 30
0.0
 10
112.5815863433824
 20
-161.5587863094367
 30
0.0
  0
SPLINE
  5
FD
330
EE
100
AcDbEntity
  8
レイヤー 1
100
AcDbSpline
210
0.0
220
0.0
230
1.0
 70
     9
 71
     3
 72
    77
 73
    73
 74
     0
 42
0.0000000001
 43
0.0000000001
 40
0.0
 40
0.0
 40
0.0
 40
0.0
 40
1.0
 40
1.0
 40
1.0
 40
2.0
 40
2.0
 40
2.0
 40
3.0
 40
3.0
 40
3.0
 40
4.0
 40
4.0
 40
4.0
 40
5.0
 40
5.0
 40
5.0
 40
6.0
 40
6.0
 40
6.0
 40
7.0
 40
7.0
 40
7.0
 40
8.0
 40
8.0
 40
8.0
 40
9.0
 40
9.0
 40
9.0
 40
10.0
 40
10.0
 40
10.0
 40
11.0
 40
11.0
 40
11.0
 40
12.0
 40
12.0
 40
12.0
 40
13.0
 40
13.0
 40
13.0
 40
14.0
 40
14.0
 40
14.0
 40
15.0
 40
15.0
 40
15.0
 40
16.0
 40
16.0
 40
16.0
 40
17.0
 40
17.0
 40
17.0
 40
18.0
 40
18.0
 40
18.0
 40
19.0
 40
19.0
 40
19.0
 40
20.0
 40
20.0
 40
20.0
 40
21.0
 40
21.0
 40
21.0
 40
22.0
 40
22.0
 40
22.0
 40
23.0
 40
23.0
 40
23.0
 40
24.0
 40
24.0
 40
24.0
 40
24.0
 10
113.3663790949223
 20
-163.1455972899428
 30
0.0
 10
113.3198703058714
 20
-163.1707464869851
 30
0.0
 10
113.1951578493054
 20
-163.1834933402805
 30
0.0
 10
113.1166096722417
 20
-163.1834933402805
 30
0.0
 10
113.1042073284947
 20
-163.1834933402805
 30
0.0
 10
113.0787136219039
 20
-163.1834933402805
 30
0.0
 10
113.0449516861485
 20
-163.1793592256982
 30
0.0
 10
113.0449516861485
 20
-163.1793592256982
 30
0.0
 10
112.9474554839159
 20
-162.9530164523173
 30
0.0
 10
112.9474554839159
 20
-162.9530164523173
 30
0.0
 10
112.977083305089
 20
-162.9592176241907
 30
0.0
 10
113.0342718901442
 20
-162.9678303629039
 30
0.0
 10
113.1507161175456
 20
-162.9678303629039
 30
0.0
 10
113.2289197850608
 20
-162.9678303629039
 30
0.0
 10
113.2309868423519
 20
-162.9254556884353
 30
0.0
 10
113.2309868423519
 20
-162.8682671033801
 30
0.0
 10
113.2309868423519
 20
-162.8682671033801
 30
0.0
 10
113.2309868423519
 20
-162.5192789307243
 30
0.0
 10
113.2309868423519
 20
-162.5192789307243
 30
0.0
 10
113.2309868423519
 20
-162.5192789307243
 30
0.0
 10
112.7717556141681
 20
-162.5192789307243
 30
0.0
 10
112.7717556141681
 20
-162.5192789307243
 30
0.0
 10
112.7741671810078
 20
-162.6567382405858
 30
0.0
 10
112.776234238299
 20
-162.8555202500847
 30
0.0
 10
112.7824354101724
 20
-162.9888454453639
 30
0.0
 10
112.7845024674636
 20
-163.0164062092459
 30
0.0
 10
112.7845024674636
 20
-163.0608479410056
 30
0.0
 10
112.797249320759
 20
-163.122170640643
 30
0.0
 10
112.797249320759
 20
-163.122170640643
 30
0.0
 10
112.5560926367915
 20
-163.122170640643
 30
0.0
 10
112.5560926367915
 20
-163.122170640643
 30
0.0
 10
112.5815863433824
 20
-162.997458184077
 30
0.0
 10
112.5815863433824
 20
-162.6567382405858
 30
0.0
 10
112.5815863433824
 20
-162.5192789307243
 30
0.0
 10
112.5815863433824
 20
-162.5192789307243
 30
0.0
 10
112.1392360830763
 20
-162.5192789307243
 30
0.0
 10
112.1392360830763
 20
-162.5192789307243
 30
0.0
 10
112.1161539433251
 20
-162.7266736789364
 30
0.0
 10
112.0506971291054
 20
-162.9953911267858
 30
0.0
 10
111.8536376673491
 20
-163.1793592256982
 30
0.0
 10
111.8536376673491
 20
-163.1793592256982
 30
0.0
 10
111.6655354538544
 20
-163.0567138264233
 30
0.0
 10
111.6655354538544
 20
-163.0567138264233
 30
0.0
 10
111.9194389911174
 20
-162.8365722249158
 30
0.0
 10
111.9511338695816
 20
-162.5044650201378
 30
0.0
 10
111.9511338695816
 20
-162.1723578153597
 30
0.0
 10
111.9511338695816
 20
-162.1723578153597
 30
0.0
 10
111.9511338695816
 20
-161.7365532364756
 30
0.0
 10
111.9511338695816
 20
-161.7365532364756
 30
0.0
 10
111.9511338695816
 20
-161.700724243429
 30
0.0
 10
111.9490668122905
 20
-161.4678357886261
 30
0.0
 10
111.9404540735774
 20
-161.3662054718112
 30
0.0
 10
112.07998044073
 20
-161.3768852678155
 30
0.0
 10
112.321481634246
 20
-161.3768852678155
 30
0.0
 10
112.4651421159809
 20
-161.3768852678155
 30
0.0
 10
112.4651421159809
 20
-161.3768852678155
 30
0.0
 10
112.9243733441647
 20
-161.3768852678155
 30
0.0
 10
112.9243733441647
 20
-161.3768852678155
 30
0.0
 10
112.9391872547513
 20
-161.3768852678155
 30
0.0
 10
113.2881754274071
 20
-161.3768852678155
 30
0.0
 10
113.4466498197286
 20
-161.3662054718112
 30
0.0
 10
113.4445827624374
 20
-161.4192599422841
 30
0.0
 10
113.438381590564
 20
-161.5801459014452
 30
0.0
 10
113.438381590564
 20
-161.6307888050784
 30
0.0
 10
113.438381590564
 20
-161.6307888050784
 30
0.0
 10
113.438381590564
 20
-162.2378146295794
 30
0.0
 10
113.438381590564
 20
-162.2378146295794
 30
0.0
 10
113.438381590564
 20
-162.2571071642968
 30
0.0
 10
113.4487168770198
 20
-162.8283039957513
 30
0.0
 10
113.4487168770198
 20
-162.9402695990219
 30
0.0
 10
113.4487168770198
 20
-162.997458184077
 30
0.0
 10
113.4487168770198
 20
-163.0990885008919
 30
0.0
 10
113.3663790949223
 20
-163.1455972899428
 30
0.0
  0
HATCH
  5
FE
330
EE
100
AcDbEntity
  8
レイヤー 1
 62
    18
420
        0
440
 33554687
100
AcDbHatch
 10
0.0
 20
0.0
 30
0.0
210
0.0
220
0.0
230
1.0
  2
SOLID
 70
     1
 71
     1
 91
        5
 92
        1
 93
        1
 72
     4
 94
        3
 73
     0
 74
     0
 95
       17
 96
       13
 40
0.0
 40
0.0
 40
0.0
 40
0.0
 40
1.0
 40
1.0
 40
1.0
 40
2.0
 40
2.0
 40
2.0
 40
3.0
 40
3.0
 40
3.0
 40
4.0
 40
4.0
 40
4.0
 40
4.0
 10
113.2309868423519
 20
-162.0307643909159
 10
113.2309868423519
 20
-162.0307643909159
 10
112.7717556141681
 20
-162.0307643909159
 10
112.7717556141681
 20
-162.0307643909159
 10
112.7717556141681
 20
-162.0307643909159
 10
112.7717556141681
 20
-162.3394449463943
 10
112.7717556141681
 20
-162.3394449463943
 10
112.7717556141681
 20
-162.3394449463943
 10
113.2309868423519
 20
-162.3394449463943
 10
113.2309868423519
 20
-162.3394449463943
 10
113.2309868423519
 20
-162.3394449463943
 10
113.2309868423519
 20
-162.0307643909159
 10
113.2309868423519
 20
-162.0307643909159
 97
        0
 97
        1
330
F9
 92
        1
 93
        1
 72
     4
 94
        3
 73
     0
 74
     0
 95
       17
 96
       13
 40
0.0
 40
0.0
 40
0.0
 40
0.0
 40
1.0
 40
1.0
 40
1.0
 40
2.0
 40
2.0
 40
2.0
 40
3.0
 40
3.0
 40
3.0
 40
4.0
 40
4.0
 40
4.0
 40
4.0
 10
113.2309868423519
 20
-161.5587863094367
 10
113.2309868423519
 20
-161.5587863094367
 10
112.7717556141681
 20
-161.5587863094367
 10
112.7717556141681
 20
-161.5587863094367
 10
112.7717556141681
 20
-161.5587863094367
 10
112.7717556141681
 20
-161.8633327503328
 10
112.7717556141681
 20
-161.8633327503328
 10
112.7717556141681
 20
-161.8633327503328
 10
113.2309868423519
 20
-161.8633327503328
 10
113.2309868423519
 20
-161.8633327503328
 10
113.2309868423519
 20
-161.8633327503328
 10
113.2309868423519
 20
-161.5587863094367
 10
113.2309868423519
 20
-161.5587863094367
 97
        0
 97
        1
330
FA
 92
        1
 93
        1
 72
     4
 94
        3
 73
     0
 74
     0
 95
       17
 96
       13
 40
0.0
 40
0.0
 40
0.0
 40
0.0
 40
1.0
 40
1.0
 40
1.0
 40
2.0
 40
2.0
 40
2.0
 40
3.0
 40
3.0
 40
3.0
 40
4.0
 40
4.0
 40
4.0
 40
4.0
 10
112.5815863433824
 20
-162.0307643909159
 10
112.5815863433824
 20
-162.0307643909159
 10
112.1437147072071
 20
-162.0307643909159
 10
112.1437147072071
 20
-162.0307643909159
 10
112.1437147072071
 20
-162.0307643909159
 10
112.1437147072071
 20
-162.3394449463943
 10
112.1437147072071
 20
-162.3394449463943
 10
112.1437147072071
 20
-162.3394449463943
 10
112.5815863433824
 20
-162.3394449463943
 10
112.5815863433824
 20
-162.3394449463943
 10
112.5815863433824
 20
-162.3394449463943
 10
112.5815863433824
 20
-162.0307643909159
 10
112.5815863433824
 20
-162.0307643909159
 97
        0
 97
        1
330
FB
 92
        1
 93
        1
 72
     4
 94
        3
 73
     0
 74
     0
 95
       17
 96
       13
 40
0.0
 40
0.0
 40
0.0
 40
0.0
 40
1.0
 40
1.0
 40
1.0
 40
2.0
 40
2.0
 40
2.0
 40
3.0
 40
3.0
 40
3.0
 40
4.0
 40
4.0
 40
4.0
 40
4.0
 10
112.5815863433824
 20
-161.5587863094367
 10
112.5815863433824
 20
-161.5587863094367
 10
112.1437147072071
 20
-161.5587863094367
 10
112.1437147072071
 20
-161.5587863094367
 10
112.1437147072071
 20
-161.5587863094367
 10
112.1437147072071
 20
-161.8633327503328
 10
112.1437147072071
 20
-161.8633327503328
 10
112.1437147072071
 20
-161.8633327503328
 10
112.5815863433824
 20
-161.8633327503328
 10
112.5815863433824
 20
-161.8633327503328
 10
112.5815863433824
 20
-161.8633327503328
 10
112.5815863433824
 20
-161.5587863094367
 10
112.5815863433824
 20
-161.5587863094367
 97
        0
 97
        1
330
FC
 92
        1
 93
        1
 72
     4
 94
        3
 73
     0
 74
     0
 95
       77
 96
       73
 40
0.0
 40
0.0
 40
0.0
 40
0.0
 40
1.0
 40
1.0
 40
1.0
 40
2.0
 40
2.0
 40
2.0
 40
3.0
 40
3.0
 40
3.0
 40
4.0
 40
4.0
 40
4.0
 40
5.0
 40
5.0
 40
5.0
 40
6.0
 40
6.0
 40
6.0
 40
7.0
 40
7.0
 40
7.0
 40
8.0
 40
8.0
 40
8.0
 40
9.0
 40
9.0
 40
9.0
 40
10.0
 40
10.0
 40
10.0
 40
11.0
 40
11.0
 40
11.0
 40
12.0
 40
12.0
 40
12.0
 40
13.0
 40
13.0
 40
13.0
 40
14.0
 40
14.0
 40
14.0
 40
15.0
 40
15.0
 40
15.0
 40
16.0
 40
16.0
 40
16.0
 40
17.0
 40
17.0
 40
17.0
 40
18.0
 40
18.0
 40
18.0
 40
19.0
 40
19.0
 40
19.0
 40
20.0
 40
20.0
 40
20.0
 40
21.0
 40
21.0
 40
21.0
 40
22.0
 40
22.0
 40
22.0
 40
23.0
 40
23.0
 40
23.0
 40
24.0
 40
24.0
 40
24.0
 40
24.0
 10
113.3663790949223
 20
-163.1455972899428
 10
113.3198703058714
 20
-163.1707464869851
 10
113.1951578493054
 20
-163.1834933402805
 10
113.1166096722417
 20
-163.1834933402805
 10
113.1042073284947
 20
-163.1834933402805
 10
113.0787136219039
 20
-163.1834933402805
 10
113.0449516861485
 20
-163.1793592256982
 10
113.0449516861485
 20
-163.1793592256982
 10
112.9474554839159
 20
-162.9530164523173
 10
112.9474554839159
 20
-162.9530164523173
 10
112.977083305089
 20
-162.9592176241907
 10
113.0342718901442
 20
-162.9678303629039
 10
113.1507161175456
 20
-162.9678303629039
 10
113.2289197850608
 20
-162.9678303629039
 10
113.2309868423519
 20
-162.9254556884353
 10
113.2309868423519
 20
-162.8682671033801
 10
113.2309868423519
 20
-162.8682671033801
 10
113.2309868423519
 20
-162.5192789307243
 10
113.2309868423519
 20
-162.5192789307243
 10
113.2309868423519
 20
-162.5192789307243
 10
112.7717556141681
 20
-162.5192789307243
 10
112.7717556141681
 20
-162.5192789307243
 10
112.7741671810078
 20
-162.6567382405858
 10
112.776234238299
 20
-162.8555202500847
 10
112.7824354101724
 20
-162.9888454453639
 10
112.7845024674636
 20
-163.0164062092459
 10
112.7845024674636
 20
-163.0608479410056
 10
112.797249320759
 20
-163.122170640643
 10
112.797249320759
 20
-163.122170640643
 10
112.5560926367915
 20
-163.122170640643
 10
112.5560926367915
 20
-163.122170640643
 10
112.5815863433824
 20
-162.997458184077
 10
112.5815863433824
 20
-162.6567382405858
 10
112.5815863433824
 20
-162.5192789307243
 10
112.5815863433824
 20
-162.5192789307243
 10
112.1392360830763
 20
-162.5192789307243
 10
112.1392360830763
 20
-162.5192789307243
 10
112.1161539433251
 20
-162.7266736789364
 10
112.0506971291054
 20
-162.9953911267858
 10
111.8536376673491
 20
-163.1793592256982
 10
111.8536376673491
 20
-163.1793592256982
 10
111.6655354538544
 20
-163.0567138264233
 10
111.6655354538544
 20
-163.0567138264233
 10
111.9194389911174
 20
-162.8365722249158
 10
111.9511338695816
 20
-162.5044650201378
 10
111.9511338695816
 20
-162.1723578153597
 10
111.9511338695816
 20
-162.1723578153597
 10
111.9511338695816
 20
-161.7365532364756
 10
111.9511338695816
 20
-161.7365532364756
 10
111.9511338695816
 20
-161.700724243429
 10
111.9490668122905
 20
-161.4678357886261
 10
111.9404540735774
 20
-161.3662054718112
 10
112.07998044073
 20
-161.3768852678155
 10
112.321481634246
 20
-161.3768852678155
 10
112.4651421159809
 20
-161.3768852678155
 10
112.4651421159809
 20
-161.3768852678155
 10
112.9243733441647
 20
-161.3768852678155
 10
112.9243733441647
 20
-161.3768852678155
 10
112.9391872547513
 20
-161.3768852678155
 10
113.2881754274071
 20
-161.3768852678155
 10
113.4466498197286
 20
-161.3662054718112
 10
113.4445827624374
 20
-161.4192599422841
 10
113.438381590564
 20
-161.5801459014452
 10
113.438381590564
 20
-161.6307888050784
 10
113.438381590564
 20
-161.6307888050784
 10
113.438381590564
 20
-162.2378146295794
 10
113.438381590564
 20
-162.2378146295794
 10
113.438381590564
 20
-162.2571071642968
 10
113.4487168770198
 20
-162.8283039957513
 10
113.4487168770198
 20
-162.9402695990219
 10
113.4487168770198
 20
-162.997458184077
 10
113.4487168770198
 20
-163.0990885008919
 10
113.3663790949223
 20
-163.1455972899428
 97
        0
 97
        1
330
FD
 75
     2
 76
     1
 98
        1
 10
0.0
 20
0.0
450
        0
451
        0
460
0.0
461
0.0
452
        0
462
0.0
453
        0
470

  0
SPLINE
  5
FF
330
EE
100
AcDbEntity
  8
レイヤー 1
100
AcDbSpline
210
0.0
220
0.0
230
1.0
 70
     9
 71
     3
 72
    17
 73
    13
 74
     0
 42
0.0000000001
 43
0.0000000001
 40
0.0
 40
0.0
 40
0.0
 40
0.0
 40
1.0
 40
1.0
 40
1.0
 40
2.0
 40
2.0
 40
2.0
 40
3.0
 40
3.0
 40
3.0
 40
4.0
 40
4.0
 40
4.0
 40
4.0
 10
107.9114149035777
 20
-163.9062743730859
 30
0.0
 10
107.8566378853622
 20
-163.9062743730859
 30
0.0
 10
107.8121961536025
 20
-163.9507161048456
 30
0.0
 10
107.8121961536025
 20
-164.0058376326096
 30
0.0
 10
107.8121961536025
 20
-164.0630262176648
 30
0.0
 10
107.8566378853622
 20
-164.1116020640068
 30
0.0
 10
107.91554901816
 20
-164.1116020640068
 30
0.0
 10
107.9748046605063
 20
-164.1116020640068
 30
0.0
 10
108.0151122776837
 20
-164.0609591603736
 30
0.0
 10
108.0151122776837
 20
-164.0079046899008
 30
0.0
 10
108.0151122776837
 20
-163.9507161048456
 30
0.0
 10
107.9686034886328
 20
-163.9062743730859
 30
0.0
 10
107.9114149035777
 20
-163.9062743730859
 30
0.0
  0
SPLINE
  5
100
330
EE
100
AcDbEntity
  8
レイヤー 1
100
AcDbSpline
210
0.0
220
0.0
230
1.0
 70
     9
 71
     3
 72
    17
 73
    13
 74
     0
 42
0.0000000001
 43
0.0000000001
 40
0.0
 40
0.0
 40
0.0
 40
0.0
 40
1.0
 40
1.0
 40
1.0
 40
2.0
 40
2.0
 40
2.0
 40
3.0
 40
3.0
 40
3.0
 40
4.0
 40
4.0
 40
4.0
 40
4.0
 10
107.9134819608688
 20
-164.2363145205728
 30
0.0
 10
107.7867024470116
 20
-164.2363145205728
 30
0.0
 10
107.6850721301968
 20
-164.1350287133065
 30
0.0
 10
107.6850721301968
 20
-164.0079046899008
 30
0.0
 10
107.6850721301968
 20
-163.8811251760436
 30
0.0
 10
107.7867024470116
 20
-163.7774278019376
 30
0.0
 10
107.9134819608688
 20
-163.7774278019376
 30
0.0
 10
108.0406059842746
 20
-163.7774278019376
 30
0.0
 10
108.1443033583806
 20
-163.8811251760436
 30
0.0
 10
108.1443033583806
 20
-164.0079046899008
 30
0.0
 10
108.1443033583806
 20
-164.1350287133065
 30
0.0
 10
108.0406059842746
 20
-164.2363145205728
 30
0.0
 10
107.9134819608688
 20
-164.2363145205728
 30
0.0
  0
SPLINE
  5
101
330
EE
100
AcDbEntity
  8
レイヤー 1
100
AcDbSpline
210
0.0
220
0.0
230
1.0
 70
     9
 71
     3
 72
    44
 73
    40
 74
     0
 42
0.0000000001
 43
0.0000000001
 40
0.0
 40
0.0
 40
0.0
 40
0.0
 40
1.0
 40
1.0
 40
1.0
 40
2.0
 40
2.0
 40
2.0
 40
3.0
 40
3.0
 40
3.0
 40
4.0
 40
4.0
 40
4.0
 40
5.0
 40
5.0
 40
5.0
 40
6.0
 40
6.0
 40
6.0
 40
7.0
 40
7.0
 40
7.0
 40
8.0
 40
8.0
 40
8.0
 40
9.0
 40
9.0
 40
9.0
 40
10.0
 40
10.0
 40
10.0
 40
11.0
 40
11.0
 40
11.0
 40
12.0
 40
12.0
 40
12.0
 40
13.0
 40
13.0
 40
13.0
 40
13.0
 10
107.7040201553656
 20
-164.4354410396203
 30
0.0
 10
107.592054552095
 20
-164.803377237445
 30
0.0
 10
107.5414116484618
 20
-164.962196139315
 30
0.0
 10
107.3446966962541
 20
-165.2116210524471
 30
0.0
 10
107.1603840877932
 20
-165.4424424499588
 30
0.0
 10
106.9237060279565
 20
-165.6284776061623
 30
0.0
 10
106.6443087841028
 20
-165.7214951842641
 30
0.0
 10
106.6443087841028
 20
-165.7214951842641
 30
0.0
 10
106.4517279464773
 20
-165.541661199934
 30
0.0
 10
106.4517279464773
 20
-165.541661199934
 30
0.0
 10
107.0928602162823
 20
-165.389387979486
 30
0.0
 10
107.4229003637692
 20
-164.8330050586181
 30
0.0
 10
107.4862901206979
 20
-164.3930663651517
 30
0.0
 10
107.4862901206979
 20
-164.3930663651517
 30
0.0
 10
106.7204453943268
 20
-164.3930663651517
 30
0.0
 10
106.7204453943268
 20
-164.3930663651517
 30
0.0
 10
106.6274278162251
 20
-164.3930663651517
 30
0.0
 10
106.4434597173127
 20
-164.397200479734
 30
0.0
 10
106.2867078727339
 20
-164.4161485049029
 30
0.0
 10
106.2867078727339
 20
-164.4161485049029
 30
0.0
 10
106.2867078727339
 20
-164.196351412944
 30
0.0
 10
106.2867078727339
 20
-164.196351412944
 30
0.0
 10
106.3735242789622
 20
-164.217366495404
 30
0.0
 10
106.6253607589339
 20
-164.217366495404
 30
0.0
 10
106.7245795089091
 20
-164.217366495404
 30
0.0
 10
106.7245795089091
 20
-164.217366495404
 30
0.0
 10
107.1562499732109
 20
-164.217366495404
 30
0.0
 10
107.1562499732109
 20
-164.217366495404
 30
0.0
 10
107.1986246476795
 20
-164.217366495404
 30
0.0
 10
107.433235650225
 20
-164.2152994381128
 30
0.0
 10
107.4714762101113
 20
-164.2090982662394
 30
0.0
 10
107.5138508845798
 20
-164.2025525848174
 30
0.0
 10
107.515917941871
 20
-164.2004855275262
 30
0.0
 10
107.5772406415084
 20
-164.1601779103488
 30
0.0
 10
107.5772406415084
 20
-164.1601779103488
 30
0.0
 10
107.7653428550031
 20
-164.3148626976365
 30
0.0
 10
107.7653428550031
 20
-164.3148626976365
 30
0.0
 10
107.7360595433785
 20
-164.3444905188097
 30
0.0
 10
107.7212456327919
 20
-164.376185397274
 30
0.0
 10
107.7040201553656
 20
-164.4354410396203
 30
0.0
  0
HATCH
  5
102
330
EE
100
AcDbEntity
  8
レイヤー 1
 62
    18
420
        0
440
 33554687
100
AcDbHatch
 10
0.0
 20
0.0
 30
0.0
210
0.0
220
0.0
230
1.0
  2
SOLID
 70
     1
 71
     1
 91
        3
 92
        1
 93
        1
 72
     4
 94
        3
 73
     0
 74
     0
 95
       17
 96
       13
 40
0.0
 40
0.0
 40
0.0
 40
0.0
 40
1.0
 40
1.0
 40
1.0
 40
2.0
 40
2.0
 40
2.0
 40
3.0
 40
3.0
 40
3.0
 40
4.0
 40
4.0
 40
4.0
 40
4.0
 10
107.9114149035777
 20
-163.9062743730859
 10
107.8566378853622
 20
-163.9062743730859
 10
107.8121961536025
 20
-163.9507161048456
 10
107.8121961536025
 20
-164.0058376326096
 10
107.8121961536025
 20
-164.0630262176648
 10
107.8566378853622
 20
-164.1116020640068
 10
107.91554901816
 20
-164.1116020640068
 10
107.9748046605063
 20
-164.1116020640068
 10
108.0151122776837
 20
-164.0609591603736
 10
108.0151122776837
 20
-164.0079046899008
 10
108.0151122776837
 20
-163.9507161048456
 10
107.9686034886328
 20
-163.9062743730859
 10
107.9114149035777
 20
-163.9062743730859
 97
        0
 97
        1
330
FF
 92
        1
 93
        1
 72
     4
 94
        3
 73
     0
 74
     0
 95
       17
 96
       13
 40
0.0
 40
0.0
 40
0.0
 40
0.0
 40
1.0
 40
1.0
 40
1.0
 40
2.0
 40
2.0
 40
2.0
 40
3.0
 40
3.0
 40
3.0
 40
4.0
 40
4.0
 40
4.0
 40
4.0
 10
107.9134819608688
 20
-164.2363145205728
 10
107.7867024470116
 20
-164.2363145205728
 10
107.6850721301968
 20
-164.1350287133065
 10
107.6850721301968
 20
-164.0079046899008
 10
107.6850721301968
 20
-163.8811251760436
 10
107.7867024470116
 20
-163.7774278019376
 10
107.9134819608688
 20
-163.7774278019376
 10
108.0406059842746
 20
-163.7774278019376
 10
108.1443033583806
 20
-163.8811251760436
 10
108.1443033583806
 20
-164.0079046899008
 10
108.1443033583806
 20
-164.1350287133065
 10
108.0406059842746
 20
-164.2363145205728
 10
107.9134819608688
 20
-164.2363145205728
 97
        0
 97
        1
330
100
 92
        1
 93
        1
 72
     4
 94
        3
 73
     0
 74
     0
 95
       44
 96
       40
 40
0.0
 40
0.0
 40
0.0
 40
0.0
 40
1.0
 40
1.0
 40
1.0
 40
2.0
 40
2.0
 40
2.0
 40
3.0
 40
3.0
 40
3.0
 40
4.0
 40
4.0
 40
4.0
 40
5.0
 40
5.0
 40
5.0
 40
6.0
 40
6.0
 40
6.0
 40
7.0
 40
7.0
 40
7.0
 40
8.0
 40
8.0
 40
8.0
 40
9.0
 40
9.0
 40
9.0
 40
10.0
 40
10.0
 40
10.0
 40
11.0
 40
11.0
 40
11.0
 40
12.0
 40
12.0
 40
12.0
 40
13.0
 40
13.0
 40
13.0
 40
13.0
 10
107.7040201553656
 20
-164.4354410396203
 10
107.592054552095
 20
-164.803377237445
 10
107.5414116484618
 20
-164.962196139315
 10
107.3446966962541
 20
-165.2116210524471
 10
107.1603840877932
 20
-165.4424424499588
 10
106.9237060279565
 20
-165.6284776061623
 10
106.6443087841028
 20
-165.7214951842641
 10
106.6443087841028
 20
-165.7214951842641
 10
106.4517279464773
 20
-165.541661199934
 10
106.4517279464773
 20
-165.541661199934
 10
107.0928602162823
 20
-165.389387979486
 10
107.4229003637692
 20
-164.8330050586181
 10
107.4862901206979
 20
-164.3930663651517
 10
107.4862901206979
 20
-164.3930663651517
 10
106.7204453943268
 20
-164.3930663651517
 10
106.7204453943268
 20
-164.3930663651517
 10
106.6274278162251
 20
-164.3930663651517
 10
106.4434597173127
 20
-164.397200479734
 10
106.2867078727339
 20
-164.4161485049029
 10
106.2867078727339
 20
-164.4161485049029
 10
106.2867078727339
 20
-164.196351412944
 10
106.2867078727339
 20
-164.196351412944
 10
106.3735242789622
 20
-164.217366495404
 10
106.6253607589339
 20
-164.217366495404
 10
106.7245795089091
 20
-164.217366495404
 10
106.7245795089091
 20
-164.217366495404
 10
107.1562499732109
 20
-164.217366495404
 10
107.1562499732109
 20
-164.217366495404
 10
107.1986246476795
 20
-164.217366495404
 10
107.433235650225
 20
-164.2152994381128
 10
107.4714762101113
 20
-164.2090982662394
 10
107.5138508845798
 20
-164.2025525848174
 10
107.515917941871
 20
-164.2004855275262
 10
107.5772406415084
 20
-164.1601779103488
 10
107.5772406415084
 20
-164.1601779103488
 10
107.7653428550031
 20
-164.3148626976365
 10
107.7653428550031
 20
-164.3148626976365
 10
107.7360595433785
 20
-164.3444905188097
 10
107.7212456327919
 20
-164.376185397274
 10
107.7040201553656
 20
-164.4354410396203
 97
        0
 97
        1
330
101
 75
     2
 76
     1
 98
        1
 10
0.0
 20
0.0
450
        0
451
        0
460
0.0
461
0.0
452
        0
462
0.0
453
        0
470

  0
SPLINE
  5
103
330
EE
100
AcDbEntity
  8
レイヤー 1
100
AcDbSpline
210
0.0
220
0.0
230
1.0
 70
     9
 71
     3
 72
    29
 73
    25
 74
     0
 42
0.0000000001
 43
0.0000000001
 40
0.0
 40
0.0
 40
0.0
 40
0.0
 40
1.0
 40
1.0
 40
1.0
 40
2.0
 40
2.0
 40
2.0
 40
3.0
 40
3.0
 40
3.0
 40
4.0
 40
4.0
 40
4.0
 40
5.0
 40
5.0
 40
5.0
 40
6.0
 40
6.0
 40
6.0
 40
7.0
 40
7.0
 40
7.0
 40
8.0
 40
8.0
 40
8.0
 40
8.0
 10
109.2157280542933
 20
-164.1181477454288
 30
0.0
 10
109.2157280542933
 20
-164.1181477454288
 30
0.0
 10
108.8750081108021
 20
-164.1181477454288
 30
0.0
 10
108.8750081108021
 20
-164.1181477454288
 30
0.0
 10
108.7609754502403
 20
-164.1181477454288
 30
0.0
 10
108.6445312228389
 20
-164.1222818600111
 30
0.0
 10
108.5301540527286
 20
-164.1370957705977
 30
0.0
 10
108.5301540527286
 20
-164.1370957705977
 30
0.0
 10
108.5301540527286
 20
-163.9276339650945
 30
0.0
 10
108.5301540527286
 20
-163.9276339650945
 30
0.0
 10
108.6486653374212
 20
-163.942447875681
 30
0.0
 10
108.8222981498777
 20
-163.9465819902633
 30
0.0
 10
108.8750081108021
 20
-163.9465819902633
 30
0.0
 10
108.8750081108021
 20
-163.9465819902633
 30
0.0
 10
109.2157280542933
 20
-163.9465819902633
 30
0.0
 10
109.2157280542933
 20
-163.9465819902633
 30
0.0
 10
109.3321722816947
 20
-163.9465819902633
 30
0.0
 10
109.4482719995476
 20
-163.942447875681
 30
0.0
 10
109.5647162269491
 20
-163.9276339650945
 30
0.0
 10
109.5647162269491
 20
-163.9276339650945
 30
0.0
 10
109.5647162269491
 20
-164.1370957705977
 30
0.0
 10
109.5647162269491
 20
-164.1370957705977
 30
0.0
 10
109.4145100637922
 20
-164.1181477454288
 30
0.0
 10
109.2305419648798
 20
-164.1181477454288
 30
0.0
 10
109.2157280542933
 20
-164.1181477454288
 30
0.0
  0
SPLINE
  5
104
330
EE
100
AcDbEntity
  8
レイヤー 1
100
AcDbSpline
210
0.0
220
0.0
230
1.0
 70
     9
 71
     3
 72
    50
 73
    46
 74
     0
 42
0.0000000001
 43
0.0000000001
 40
0.0
 40
0.0
 40
0.0
 40
0.0
 40
1.0
 40
1.0
 40
1.0
 40
2.0
 40
2.0
 40
2.0
 40
3.0
 40
3.0
 40
3.0
 40
4.0
 40
4.0
 40
4.0
 40
5.0
 40
5.0
 40
5.0
 40
6.0
 40
6.0
 40
6.0
 40
7.0
 40
7.0
 40
7.0
 40
8.0
 40
8.0
 40
8.0
 40
9.0
 40
9.0
 40
9.0
 40
10.0
 40
10.0
 40
10.0
 40
11.0
 40
11.0
 40
11.0
 40
12.0
 40
12.0
 40
12.0
 40
13.0
 40
13.0
 40
13.0
 40
14.0
 40
14.0
 40
14.0
 40
15.0
 40
15.0
 40
15.0
 40
15.0
 10
109.7087212182325
 20
-164.7441215950987
 30
0.0
 10
109.6301730411688
 20
-164.9218885221376
 30
0.0
 10
109.4947807885985
 20
-165.1292832703496
 30
0.0
 10
109.357321478737
 20
-165.2688096375022
 30
0.0
 10
109.1881672904113
 20
-165.4400308831191
 30
0.0
 10
109.025214273959
 20
-165.5289143466386
 30
0.0
 10
108.7058539224763
 20
-165.6708522806309
 30
0.0
 10
108.7058539224763
 20
-165.6708522806309
 30
0.0
 10
108.5366997341505
 20
-165.4824055575877
 30
0.0
 10
108.5366997341505
 20
-165.4824055575877
 30
0.0
 10
108.722734890354
 20
-165.4593234178365
 30
0.0
 10
108.8939561359709
 20
-165.3725070116082
 30
0.0
 10
109.0465738659675
 20
-165.2667425802111
 30
0.0
 10
109.308745632395
 20
-165.0848415385899
 30
0.0
 10
109.4992594127293
 20
-164.7716823589807
 30
0.0
 10
109.5478352590713
 20
-164.5897813173595
 30
0.0
 10
109.5478352590713
 20
-164.5897813173595
 30
0.0
 10
108.8770751680932
 20
-164.5897813173595
 30
0.0
 10
108.8770751680932
 20
-164.5897813173595
 30
0.0
 10
108.7186007757717
 20
-164.5897813173595
 30
0.0
 10
108.4264566786225
 20
-164.5980495465241
 30
0.0
 10
108.2741834581745
 20
-164.6152750239503
 30
0.0
 10
108.2741834581745
 20
-164.6152750239503
 30
0.0
 10
108.2741834581745
 20
-164.3865206837297
 30
0.0
 10
108.2741834581745
 20
-164.3865206837297
 30
0.0
 10
108.3082899034785
 20
-164.3930663651517
 30
0.0
 10
108.3334391005208
 20
-164.3992675370252
 30
0.0
 10
108.3864935709936
 20
-164.4034016516075
 30
0.0
 10
108.48777937826
 20
-164.4099473330294
 30
0.0
 10
108.6848388400163
 20
-164.4120143903206
 30
0.0
 10
108.7692436794049
 20
-164.4120143903206
 30
0.0
 10
108.7692436794049
 20
-164.4120143903206
 30
0.0
 10
109.2749836966396
 20
-164.4120143903206
 30
0.0
 10
109.2749836966396
 20
-164.4120143903206
 30
0.0
 10
109.3425075681505
 20
-164.4120143903206
 30
0.0
 10
109.488579616725
 20
-164.4078802757383
 30
0.0
 10
109.5499023163625
 20
-164.4013345943163
 30
0.0
 10
109.6219048120042
 20
-164.3930663651517
 30
0.0
 10
109.6494655758862
 20
-164.3782524545651
 30
0.0
 10
109.6832275116417
 20
-164.3548258052654
 30
0.0
 10
109.6832275116417
 20
-164.3548258052654
 30
0.0
 10
109.8482475853851
 20
-164.5219129363001
 30
0.0
 10
109.8482475853851
 20
-164.5219129363001
 30
0.0
 10
109.7783121470346
 20
-164.5897813173595
 30
0.0
 10
109.7318033579837
 20
-164.6934786914655
 30
0.0
 10
109.7087212182325
 20
-164.7441215950987
 30
0.0
  0
HATCH
  5
105
330
EE
100
AcDbEntity
  8
レイヤー 1
 62
    18
420
        0
440
 33554687
100
AcDbHatch
 10
0.0
 20
0.0
 30
0.0
210
0.0
220
0.0
230
1.0
  2
SOLID
 70
     1
 71
     1
 91
        2
 92
        1
 93
        1
 72
     4
 94
        3
 73
     0
 74
     0
 95
       29
 96
       25
 40
0.0
 40
0.0
 40
0.0
 40
0.0
 40
1.0
 40
1.0
 40
1.0
 40
2.0
 40
2.0
 40
2.0
 40
3.0
 40
3.0
 40
3.0
 40
4.0
 40
4.0
 40
4.0
 40
5.0
 40
5.0
 40
5.0
 40
6.0
 40
6.0
 40
6.0
 40
7.0
 40
7.0
 40
7.0
 40
8.0
 40
8.0
 40
8.0
 40
8.0
 10
109.2157280542933
 20
-164.1181477454288
 10
109.2157280542933
 20
-164.1181477454288
 10
108.8750081108021
 20
-164.1181477454288
 10
108.8750081108021
 20
-164.1181477454288
 10
108.7609754502403
 20
-164.1181477454288
 10
108.6445312228389
 20
-164.1222818600111
 10
108.5301540527286
 20
-164.1370957705977
 10
108.5301540527286
 20
-164.1370957705977
 10
108.5301540527286
 20
-163.9276339650945
 10
108.5301540527286
 20
-163.9276339650945
 10
108.6486653374212
 20
-163.942447875681
 10
108.8222981498777
 20
-163.9465819902633
 10
108.8750081108021
 20
-163.9465819902633
 10
108.8750081108021
 20
-163.9465819902633
 10
109.2157280542933
 20
-163.9465819902633
 10
109.2157280542933
 20
-163.9465819902633
 10
109.3321722816947
 20
-163.9465819902633
 10
109.4482719995476
 20
-163.942447875681
 10
109.5647162269491
 20
-163.9276339650945
 10
109.5647162269491
 20
-163.9276339650945
 10
109.5647162269491
 20
-164.1370957705977
 10
109.5647162269491
 20
-164.1370957705977
 10
109.4145100637922
 20
-164.1181477454288
 10
109.2305419648798
 20
-164.1181477454288
 10
109.2157280542933
 20
-164.1181477454288
 97
        0
 97
        1
330
103
 92
        1
 93
        1
 72
     4
 94
        3
 73
     0
 74
     0
 95
       50
 96
       46
 40
0.0
 40
0.0
 40
0.0
 40
0.0
 40
1.0
 40
1.0
 40
1.0
 40
2.0
 40
2.0
 40
2.0
 40
3.0
 40
3.0
 40
3.0
 40
4.0
 40
4.0
 40
4.0
 40
5.0
 40
5.0
 40
5.0
 40
6.0
 40
6.0
 40
6.0
 40
7.0
 40
7.0
 40
7.0
 40
8.0
 40
8.0
 40
8.0
 40
9.0
 40
9.0
 40
9.0
 40
10.0
 40
10.0
 40
10.0
 40
11.0
 40
11.0
 40
11.0
 40
12.0
 40
12.0
 40
12.0
 40
13.0
 40
13.0
 40
13.0
 40
14.0
 40
14.0
 40
14.0
 40
15.0
 40
15.0
 40
15.0
 40
15.0
 10
109.7087212182325
 20
-164.7441215950987
 10
109.6301730411688
 20
-164.9218885221376
 10
109.4947807885985
 20
-165.1292832703496
 10
109.357321478737
 20
-165.2688096375022
 10
109.1881672904113
 20
-165.4400308831191
 10
109.025214273959
 20
-165.5289143466386
 10
108.7058539224763
 20
-165.6708522806309
 10
108.7058539224763
 20
-165.6708522806309
 10
108.5366997341505
 20
-165.4824055575877
 10
108.5366997341505
 20
-165.4824055575877
 10
108.722734890354
 20
-165.4593234178365
 10
108.8939561359709
 20
-165.3725070116082
 10
109.0465738659675
 20
-165.2667425802111
 10
109.308745632395
 20
-165.0848415385899
 10
109.4992594127293
 20
-164.7716823589807
 10
109.5478352590713
 20
-164.5897813173595
 10
109.5478352590713
 20
-164.5897813173595
 10
108.8770751680932
 20
-164.5897813173595
 10
108.8770751680932
 20
-164.5897813173595
 10
108.7186007757717
 20
-164.5897813173595
 10
108.4264566786225
 20
-164.5980495465241
 10
108.2741834581745
 20
-164.6152750239503
 10
108.2741834581745
 20
-164.6152750239503
 10
108.2741834581745
 20
-164.3865206837297
 10
108.2741834581745
 20
-164.3865206837297
 10
108.3082899034785
 20
-164.3930663651517
 10
108.3334391005208
 20
-164.3992675370252
 10
108.3864935709936
 20
-164.4034016516075
 10
108.48777937826
 20
-164.4099473330294
 10
108.6848388400163
 20
-164.4120143903206
 10
108.7692436794049
 20
-164.4120143903206
 10
108.7692436794049
 20
-164.4120143903206
 10
109.2749836966396
 20
-164.4120143903206
 10
109.2749836966396
 20
-164.4120143903206
 10
109.3425075681505
 20
-164.4120143903206
 10
109.488579616725
 20
-164.4078802757383
 10
109.5499023163625
 20
-164.4013345943163
 10
109.6219048120042
 20
-164.3930663651517
 10
109.6494655758862
 20
-164.3782524545651
 10
109.6832275116417
 20
-164.3548258052654
 10
109.6832275116417
 20
-164.3548258052654
 10
109.8482475853851
 20
-164.5219129363001
 10
109.8482475853851
 20
-164.5219129363001
 10
109.7783121470346
 20
-164.5897813173595
 10
109.7318033579837
 20
-164.6934786914655
 10
109.7087212182325
 20
-164.7441215950987
 97
        0
 97
        1
330
104
 75
     2
 76
     1
 98
        1
 10
0.0
 20
0.0
450
        0
451
        0
460
0.0
461
0.0
452
        0
462
0.0
453
        0
470

  0
SPLINE
  5
106
330
EE
100
AcDbEntity
  8
レイヤー 1
100
AcDbSpline
210
0.0
220
0.0
230
1.0
 70
     9
 71
     3
 72
    50
 73
    46
 74
     0
 42
0.0000000001
 43
0.0000000001
 40
0.0
 40
0.0
 40
0.0
 40
0.0
 40
1.0
 40
1.0
 40
1.0
 40
2.0
 40
2.0
 40
2.0
 40
3.0
 40
3.0
 40
3.0
 40
4.0
 40
4.0
 40
4.0
 40
5.0
 40
5.0
 40
5.0
 40
6.0
 40
6.0
 40
6.0
 40
7.0
 40
7.0
 40
7.0
 40
8.0
 40
8.0
 40
8.0
 40
9.0
 40
9.0
 40
9.0
 40
10.0
 40
10.0
 40
10.0
 40
11.0
 40
11.0
 40
11.0
 40
12.0
 40
12.0
 40
12.0
 40
13.0
 40
13.0
 40
13.0
 40
14.0
 40
14.0
 40
14.0
 40
15.0
 40
15.0
 40
15.0
 40
15.0
 10
111.4188666171106
 20
-164.1033338348422
 30
0.0
 10
111.2094048116073
 20
-164.3169297549277
 30
0.0
 10
111.1377468255142
 20
-164.3889322505694
 30
0.0
 10
110.9958088915219
 20
-164.5070990257135
 30
0.0
 10
110.9958088915219
 20
-164.5070990257135
 30
0.0
 10
110.9958088915219
 20
-165.0741617425856
 30
0.0
 10
110.9958088915219
 20
-165.0741617425856
 30
0.0
 10
110.9958088915219
 20
-165.2243679057425
 30
0.0
 10
111.0023545729438
 20
-165.2433159309114
 30
0.0
 10
111.0064886875261
 20
-165.4210828579503
 30
0.0
 10
111.0085557448173
 20
-165.5523409959383
 30
0.0
 10
111.0147569166907
 20
-165.6009168422803
 30
0.0
 10
111.0213025981127
 20
-165.6601724846266
 30
0.0
 10
111.0213025981127
 20
-165.6601724846266
 30
0.0
 10
110.7949598247318
 20
-165.6601724846266
 30
0.0
 10
110.7949598247318
 20
-165.6601724846266
 30
0.0
 10
110.7990939393141
 20
-165.6157307528669
 30
0.0
 10
110.8032280538964
 20
-165.569221963816
 30
0.0
 10
110.8032280538964
 20
-165.5606092251029
 30
0.0
 10
110.8032280538964
 20
-165.4803385002966
 30
0.0
 10
110.8077066780272
 20
-165.1292832703496
 30
0.0
 10
110.8077066780272
 20
-165.0572807747079
 30
0.0
 10
110.8077066780272
 20
-165.0572807747079
 30
0.0
 10
110.8077066780272
 20
-164.6511040169969
 30
0.0
 10
110.8077066780272
 20
-164.6511040169969
 30
0.0
 10
110.625805636406
 20
-164.775816473563
 30
0.0
 10
110.4311577414894
 20
-164.886059529091
 30
0.0
 10
110.2278971078597
 20
-164.9725314257707
 30
0.0
 10
110.2278971078597
 20
-164.9725314257707
 30
0.0
 10
110.0249809837785
 20
-164.8095784093184
 30
0.0
 10
110.0249809837785
 20
-164.8095784093184
 30
0.0
 10
110.1476263830533
 20
-164.7737494162718
 30
0.0
 10
110.4035969776074
 20
-164.699679863339
 30
0.0
 10
110.7484510356809
 20
-164.4437092687849
 30
0.0
 10
110.9641140130576
 20
-164.2852348764634
 30
0.0
 10
111.156694850683
 20
-164.0967881534202
 30
0.0
 10
111.3089680711311
 20
-163.8766465519128
 30
0.0
 10
111.3089680711311
 20
-163.8766465519128
 30
0.0
 10
111.5015489087565
 20
-164.0206515431962
 30
0.0
 10
111.5015489087565
 20
-164.0206515431962
 30
0.0
 10
111.514295762052
 20
-164.0313313392005
 30
0.0
 10
111.5225639912166
 20
-164.0461452497871
 30
0.0
 10
111.5225639912166
 20
-164.0588921030825
 30
0.0
 10
111.5225639912166
 20
-164.0988552107114
 30
0.0
 10
111.4846679408788
 20
-164.0988552107114
 30
0.0
 10
111.4188666171106
 20
-164.1033338348422
 30
0.0
  0
HATCH
  5
107
330
EE
100
AcDbEntity
  8
レイヤー 1
 62
    18
420
        0
440
 33554687
100
AcDbHatch
 10
0.0
 20
0.0
 30
0.0
210
0.0
220
0.0
230
1.0
  2
SOLID
 70
     1
 71
     1
 91
        1
 92
        1
 93
        1
 72
     4
 94
        3
 73
     0
 74
     0
 95
       50
 96
       46
 40
0.0
 40
0.0
 40
0.0
 40
0.0
 40
1.0
 40
1.0
 40
1.0
 40
2.0
 40
2.0
 40
2.0
 40
3.0
 40
3.0
 40
3.0
 40
4.0
 40
4.0
 40
4.0
 40
5.0
 40
5.0
 40
5.0
 40
6.0
 40
6.0
 40
6.0
 40
7.0
 40
7.0
 40
7.0
 40
8.0
 40
8.0
 40
8.0
 40
9.0
 40
9.0
 40
9.0
 40
10.0
 40
10.0
 40
10.0
 40
11.0
 40
11.0
 40
11.0
 40
12.0
 40
12.0
 40
12.0
 40
13.0
 40
13.0
 40
13.0
 40
14.0
 40
14.0
 40
14.0
 40
15.0
 40
15.0
 40
15.0
 40
15.0
 10
111.4188666171106
 20
-164.1033338348422
 10
111.2094048116073
 20
-164.3169297549277
 10
111.1377468255142
 20
-164.3889322505694
 10
110.9958088915219
 20
-164.5070990257135
 10
110.9958088915219
 20
-164.5070990257135
 10
110.9958088915219
 20
-165.0741617425856
 10
110.9958088915219
 20
-165.0741617425856
 10
110.9958088915219
 20
-165.2243679057425
 10
111.0023545729438
 20
-165.2433159309114
 10
111.0064886875261
 20
-165.4210828579503
 10
111.0085557448173
 20
-165.5523409959383
 10
111.0147569166907
 20
-165.6009168422803
 10
111.0213025981127
 20
-165.6601724846266
 10
111.0213025981127
 20
-165.6601724846266
 10
110.7949598247318
 20
-165.6601724846266
 10
110.7949598247318
 20
-165.6601724846266
 10
110.7990939393141
 20
-165.6157307528669
 10
110.8032280538964
 20
-165.569221963816
 10
110.8032280538964
 20
-165.5606092251029
 10
110.8032280538964
 20
-165.4803385002966
 10
110.8077066780272
 20
-165.1292832703496
 10
110.8077066780272
 20
-165.0572807747079
 10
110.8077066780272
 20
-165.0572807747079
 10
110.8077066780272
 20
-164.6511040169969
 10
110.8077066780272
 20
-164.6511040169969
 10
110.625805636406
 20
-164.775816473563
 10
110.4311577414894
 20
-164.886059529091
 10
110.2278971078597
 20
-164.9725314257707
 10
110.2278971078597
 20
-164.9725314257707
 10
110.0249809837785
 20
-164.8095784093184
 10
110.0249809837785
 20
-164.8095784093184
 10
110.1476263830533
 20
-164.7737494162718
 10
110.4035969776074
 20
-164.699679863339
 10
110.7484510356809
 20
-164.4437092687849
 10
110.9641140130576
 20
-164.2852348764634
 10
111.156694850683
 20
-164.0967881534202
 10
111.3089680711311
 20
-163.8766465519128
 10
111.3089680711311
 20
-163.8766465519128
 10
111.5015489087565
 20
-164.0206515431962
 10
111.5015489087565
 20
-164.0206515431962
 10
111.514295762052
 20
-164.0313313392005
 10
111.5225639912166
 20
-164.0461452497871
 10
111.5225639912166
 20
-164.0588921030825
 10
111.5225639912166
 20
-164.0988552107114
 10
111.4846679408788
 20
-164.0988552107114
 10
111.4188666171106
 20
-164.1033338348422
 97
        0
 97
        1
330
106
 75
     2
 76
     1
 98
        1
 10
0.0
 20
0.0
450
        0
451
        0
460
0.0
461
0.0
452
        0
462
0.0
453
        0
470

  0
SPLINE
  5
108
330
EE
100
AcDbEntity
  8
レイヤー 1
100
AcDbSpline
210
0.0
220
0.0
230
1.0
 70
     9
 71
     3
 72
    50
 73
    46
 74
     0
 42
0.0000000001
 43
0.0000000001
 40
0.0
 40
0.0
 40
0.0
 40
0.0
 40
1.0
 40
1.0
 40
1.0
 40
2.0
 40
2.0
 40
2.0
 40
3.0
 40
3.0
 40
3.0
 40
4.0
 40
4.0
 40
4.0
 40
5.0
 40
5.0
 40
5.0
 40
6.0
 40
6.0
 40
6.0
 40
7.0
 40
7.0
 40
7.0
 40
8.0
 40
8.0
 40
8.0
 40
9.0
 40
9.0
 40
9.0
 40
10.0
 40
10.0
 40
10.0
 40
11.0
 40
11.0
 40
11.0
 40
12.0
 40
12.0
 40
12.0
 40
13.0
 40
13.0
 40
13.0
 40
14.0
 40
14.0
 40
14.0
 40
15.0
 40
15.0
 40
15.0
 40
15.0
 10
113.1272894682459
 20
-164.6300889345369
 30
0.0
 10
113.0659667686085
 20
-164.7017469206301
 30
0.0
 10
112.8055175499236
 20
-165.0190402148216
 30
0.0
 10
112.748673474417
 20
-165.0827744812987
 30
0.0
 10
112.8330783138056
 20
-165.1799261739828
 30
0.0
 10
112.8840657269873
 20
-165.2433159309114
 30
0.0
 10
112.949522541207
 20
-165.334266451722
 30
0.0
 10
112.949522541207
 20
-165.334266451722
 30
0.0
 10
112.7655544422947
 20
-165.472070271132
 30
0.0
 10
112.7655544422947
 20
-165.472070271132
 30
0.0
 10
112.6301621897244
 20
-165.2601968987891
 30
0.0
 10
112.4585964345589
 20
-165.0362656922479
 30
0.0
 10
112.1647297896671
 20
-164.8371391732004
 30
0.0
 10
112.1647297896671
 20
-164.8371391732004
 30
0.0
 10
112.3128688955329
 20
-164.6827988954612
 30
0.0
 10
112.3128688955329
 20
-164.6827988954612
 30
0.0
 10
112.4227674415123
 20
-164.7630696202675
 30
0.0
 10
112.5264648156184
 20
-164.851953083787
 30
0.0
 10
112.6236165083024
 20
-164.9473822287284
 30
0.0
 10
112.6914848893618
 20
-164.8712456185044
 30
0.0
 10
112.8944010134431
 20
-164.6276773676972
 30
0.0
 10
113.0277262087222
 20
-164.3992675370252
 30
0.0
 10
113.0277262087222
 20
-164.3992675370252
 30
0.0
 10
112.3548990604529
 20
-164.3992675370252
 30
0.0
 10
112.3548990604529
 20
-164.3992675370252
 30
0.0
 10
112.2301866038869
 20
-164.3992675370252
 30
0.0
 10
111.9783501239151
 20
-164.4078802757383
 30
0.0
 10
111.7688883184119
 20
-164.418215562194
 30
0.0
 10
111.7688883184119
 20
-164.418215562194
 30
0.0
 10
111.7688883184119
 20
-164.1984184702351
 30
0.0
 10
111.7688883184119
 20
-164.1984184702351
 30
0.0
 10
111.9532009268728
 20
-164.217366495404
 30
0.0
 10
112.1581841082452
 20
-164.2215006099863
 30
0.0
 10
112.3466308312883
 20
-164.2215006099863
 30
0.0
 10
112.3466308312883
 20
-164.2215006099863
 30
0.0
 10
112.8499592816833
 20
-164.2215006099863
 30
0.0
 10
112.8499592816833
 20
-164.2215006099863
 30
0.0
 10
113.1886121678834
 20
-164.2215006099863
 30
0.0
 10
113.2330538996431
 20
-164.2066866993997
 30
0.0
 10
113.3153916817406
 20
-164.1667235917708
 30
0.0
 10
113.3153916817406
 20
-164.1667235917708
 30
0.0
 10
113.4824788127752
 20
-164.3251979840923
 30
0.0
 10
113.4824788127752
 20
-164.3251979840923
 30
0.0
 10
113.3302055923272
 20
-164.397200479734
 30
0.0
 10
113.1865451105922
 20
-164.5601534961863
 30
0.0
 10
113.1272894682459
 20
-164.6300889345369
 30
0.0
  0
HATCH
  5
109
330
EE
100
AcDbEntity
  8
レイヤー 1
 62
    18
420
        0
440
 33554687
100
AcDbHatch
 10
0.0
 20
0.0
 30
0.0
210
0.0
220
0.0
230
1.0
  2
SOLID
 70
     1
 71
     1
 91
        1
 92
        1
 93
        1
 72
     4
 94
        3
 73
     0
 74
     0
 95
       50
 96
       46
 40
0.0
 40
0.0
 40
0.0
 40
0.0
 40
1.0
 40
1.0
 40
1.0
 40
2.0
 40
2.0
 40
2.0
 40
3.0
 40
3.0
 40
3.0
 40
4.0
 40
4.0
 40
4.0
 40
5.0
 40
5.0
 40
5.0
 40
6.0
 40
6.0
 40
6.0
 40
7.0
 40
7.0
 40
7.0
 40
8.0
 40
8.0
 40
8.0
 40
9.0
 40
9.0
 40
9.0
 40
10.0
 40
10.0
 40
10.0
 40
11.0
 40
11.0
 40
11.0
 40
12.0
 40
12.0
 40
12.0
 40
13.0
 40
13.0
 40
13.0
 40
14.0
 40
14.0
 40
14.0
 40
15.0
 40
15.0
 40
15.0
 40
15.0
 10
113.1272894682459
 20
-164.6300889345369
 10
113.0659667686085
 20
-164.7017469206301
 10
112.8055175499236
 20
-165.0190402148216
 10
112.748673474417
 20
-165.0827744812987
 10
112.8330783138056
 20
-165.1799261739828
 10
112.8840657269873
 20
-165.2433159309114
 10
112.949522541207
 20
-165.334266451722
 10
112.949522541207
 20
-165.334266451722
 10
112.7655544422947
 20
-165.472070271132
 10
112.7655544422947
 20
-165.472070271132
 10
112.6301621897244
 20
-165.2601968987891
 10
112.4585964345589
 20
-165.0362656922479
 10
112.1647297896671
 20
-164.8371391732004
 10
112.1647297896671
 20
-164.8371391732004
 10
112.3128688955329
 20
-164.6827988954612
 10
112.3128688955329
 20
-164.6827988954612
 10
112.4227674415123
 20
-164.7630696202675
 10
112.5264648156184
 20
-164.851953083787
 10
112.6236165083024
 20
-164.9473822287284
 10
112.6914848893618
 20
-164.8712456185044
 10
112.8944010134431
 20
-164.6276773676972
 10
113.0277262087222
 20
-164.3992675370252
 10
113.0277262087222
 20
-164.3992675370252
 10
112.3548990604529
 20
-164.3992675370252
 10
112.3548990604529
 20
-164.3992675370252
 10
112.2301866038869
 20
-164.3992675370252
 10
111.9783501239151
 20
-164.4078802757383
 10
111.7688883184119
 20
-164.418215562194
 10
111.7688883184119
 20
-164.418215562194
 10
111.7688883184119
 20
-164.1984184702351
 10
111.7688883184119
 20
-164.1984184702351
 10
111.9532009268728
 20
-164.217366495404
 10
112.1581841082452
 20
-164.2215006099863
 10
112.3466308312883
 20
-164.2215006099863
 10
112.3466308312883
 20
-164.2215006099863
 10
112.8499592816833
 20
-164.2215006099863
 10
112.8499592816833
 20
-164.2215006099863
 10
113.1886121678834
 20
-164.2215006099863
 10
113.2330538996431
 20
-164.2066866993997
 10
113.3153916817406
 20
-164.1667235917708
 10
113.3153916817406
 20
-164.1667235917708
 10
113.4824788127752
 20
-164.3251979840923
 10
113.4824788127752
 20
-164.3251979840923
 10
113.3302055923272
 20
-164.397200479734
 10
113.1865451105922
 20
-164.5601534961863
 10
113.1272894682459
 20
-164.6300889345369
 97
        0
 97
        1
330
108
 75
     2
 76
     1
 98
        1
 10
0.0
 20
0.0
450
        0
451
        0
460
0.0
461
0.0
452
        0
462
0.0
453
        0
470

  0
SPLINE
  5
10A
330
EE
100
AcDbEntity
  8
レイヤー 1
100
AcDbSpline
210
0.0
220
0.0
230
1.0
 70
     9
 71
     3
 72
    29
 73
    25
 74
     0
 42
0.0000000001
 43
0.0000000001
 40
0.0
 40
0.0
 40
0.0
 40
0.0
 40
1.0
 40
1.0
 40
1.0
 40
2.0
 40
2.0
 40
2.0
 40
3.0
 40
3.0
 40
3.0
 40
4.0
 40
4.0
 40
4.0
 40
5.0
 40
5.0
 40
5.0
 40
6.0
 40
6.0
 40
6.0
 40
7.0
 40
7.0
 40
7.0
 40
8.0
 40
8.0
 40
8.0
 40
8.0
 10
114.7509629704442
 20
-164.8733126757955
 30
0.0
 10
114.7509629704442
 20
-164.8733126757955
 30
0.0
 10
114.2665825452181
 20
-164.8733126757955
 30
0.0
 10
114.2665825452181
 20
-164.8733126757955
 30
0.0
 10
114.239021781336
 20
-164.8733126757955
 30
0.0
 10
113.9217284871445
 20
-164.8733126757955
 30
0.0
 10
113.7101996243502
 20
-164.8984618728379
 30
0.0
 10
113.7101996243502
 20
-164.8984618728379
 30
0.0
 10
113.7101996243502
 20
-164.6679849848746
 30
0.0
 10
113.7101996243502
 20
-164.6679849848746
 30
0.0
 10
113.8686740166717
 20
-164.6914116341744
 30
0.0
 10
114.059187797006
 20
-164.6934786914655
 30
0.0
 10
114.2665825452181
 20
-164.6934786914655
 30
0.0
 10
114.2665825452181
 20
-164.6934786914655
 30
0.0
 10
114.7509629704442
 20
-164.6934786914655
 30
0.0
 10
114.7509629704442
 20
-164.6934786914655
 30
0.0
 10
114.9369981266477
 20
-164.6934786914655
 30
0.0
 10
115.1233777923997
 20
-164.6914116341744
 30
0.0
 10
115.307345891312
 20
-164.6679849848746
 30
0.0
 10
115.307345891312
 20
-164.6679849848746
 30
0.0
 10
115.307345891312
 20
-164.8984618728379
 30
0.0
 10
115.307345891312
 20
-164.8984618728379
 30
0.0
 10
115.1233777923997
 20
-164.8753797330867
 30
0.0
 10
114.8756754270102
 20
-164.8733126757955
 30
0.0
 10
114.7509629704442
 20
-164.8733126757955
 30
0.0
  0
HATCH
  5
10B
330
EE
100
AcDbEntity
  8
レイヤー 1
 62
    18
420
        0
440
 33554687
100
AcDbHatch
 10
0.0
 20
0.0
 30
0.0
210
0.0
220
0.0
230
1.0
  2
SOLID
 70
     1
 71
     1
 91
        1
 92
        1
 93
        1
 72
     4
 94
        3
 73
     0
 74
     0
 95
       29
 96
       25
 40
0.0
 40
0.0
 40
0.0
 40
0.0
 40
1.0
 40
1.0
 40
1.0
 40
2.0
 40
2.0
 40
2.0
 40
3.0
 40
3.0
 40
3.0
 40
4.0
 40
4.0
 40
4.0
 40
5.0
 40
5.0
 40
5.0
 40
6.0
 40
6.0
 40
6.0
 40
7.0
 40
7.0
 40
7.0
 40
8.0
 40
8.0
 40
8.0
 40
8.0
 10
114.7509629704442
 20
-164.8733126757955
 10
114.7509629704442
 20
-164.8733126757955
 10
114.2665825452181
 20
-164.8733126757955
 10
114.2665825452181
 20
-164.8733126757955
 10
114.239021781336
 20
-164.8733126757955
 10
113.9217284871445
 20
-164.8733126757955
 10
113.7101996243502
 20
-164.8984618728379
 10
113.7101996243502
 20
-164.8984618728379
 10
113.7101996243502
 20
-164.6679849848746
 10
113.7101996243502
 20
-164.6679849848746
 10
113.8686740166717
 20
-164.6914116341744
 10
114.059187797006
 20
-164.6934786914655
 10
114.2665825452181
 20
-164.6934786914655
 10
114.2665825452181
 20
-164.6934786914655
 10
114.7509629704442
 20
-164.6934786914655
 10
114.7509629704442
 20
-164.6934786914655
 10
114.9369981266477
 20
-164.6934786914655
 10
115.1233777923997
 20
-164.6914116341744
 10
115.307345891312
 20
-164.6679849848746
 10
115.307345891312
 20
-164.6679849848746
 10
115.307345891312
 20
-164.8984618728379
 10
115.307345891312
 20
-164.8984618728379
 10
115.1233777923997
 20
-164.8753797330867
 10
114.8756754270102
 20
-164.8733126757955
 10
114.7509629704442
 20
-164.8733126757955
 97
        0
 97
        1
330
10A
 75
     2
 76
     1
 98
        1
 10
0.0
 20
0.0
450
        0
451
        0
460
0.0
461
0.0
452
        0
462
0.0
453
        0
470

  0
ENDBLK
  5
F1
330
EE
100
AcDbEntity
  8
0
100
AcDbBlockEnd
  0
ENDSEC
  0
SECTION
  2
ENTITIES
  0
LINE
  5
79
330
70
100
AcDbEntity
  8
レイヤー 1
 62
    18
420
        0
370
    25
100
AcDbLine
 10
87.16623443827907
 20
-140.3333028938833
 30
0.0
 11
94.25540971428423
 21
-140.3333028938833
 31
0.0
  0
LINE
  5
7A
330
70
100
AcDbEntity
  8
レイヤー 1
 62
    18
420
        0
370
    25
100
AcDbLine
 10
118.2553040706137
 20
-140.3333028938833
 30
0.0
 11
118.2553040706137
 21
-141.3330750905995
 31
0.0
  0
LINE
  5
7B
330
70
100
AcDbEntity
  8
レイヤー 1
 62
    18
420
        0
370
    25
100
AcDbLine
 10
96.25527165822891
 20
-141.3330750905995
 30
0.0
 11
118.2553040706137
 21
-141.3330750905995
 31
0.0
  0
LINE
  5
7C
330
70
100
AcDbEntity
  8
レイヤー 1
 62
    18
420
        0
370
    25
100
AcDbLine
 10
87.16623443827907
 20
-140.3333028938833
 30
0.0
 11
87.16623443827907
 21
-141.3337806461371
 31
0.0
  0
LINE
  5
7D
330
70
100
AcDbEntity
  8
レイヤー 1
 62
    18
420
        0
370
    25
100
AcDbLine
 10
93.25528471453457
 20
-141.3337806461371
 30
0.0
 11
93.25528471453457
 21
-157.8330205029842
 31
0.0
  0
LINE
  5
7E
330
70
100
AcDbEntity
  8
レイヤー 1
 62
    18
420
        0
370
    25
100
AcDbLine
 10
103.2553705453679
 20
-156.8332483062683
 30
0.0
 11
103.2553705453679
 21
-157.3327816268574
 31
0.0
  0
LINE
  5
7F
330
70
100
AcDbEntity
  8
レイヤー 1
 62
    18
420
        0
370
    25
100
AcDbLine
 10
96.25527165822891
 20
-156.8332483062683
 30
0.0
 11
103.2553705453679
 21
-156.8332483062683
 31
0.0
  0
LINE
  5
80
330
70
100
AcDbEntity
  8
レイヤー 1
 62
    18
420
        0
370
    25
100
AcDbLine
 10
95.25514665847925
 20
-140.3333028938833
 30
0.0
 11
118.2553040706137
 21
-140.3333028938833
 31
0.0
  0
LINE
  5
81
330
70
100
AcDbEntity
  8
レイヤー 1
 62
    18
420
        0
370
    25
100
AcDbLine
 10
87.16623443827907
 20
-141.3337806461371
 30
0.0
 11
93.25528471453457
 21
-141.3337806461371
 31
0.0
  0
LINE
  5
82
330
70
100
AcDbEntity
  8
レイヤー 1
 62
    18
420
        0
370
    25
100
AcDbLine
 10
94.25540971428423
 20
-140.3333028938833
 30
0.0
 11
94.25540971428423
 21
-156.8332483062683
 31
0.0
  0
LINE
  5
83
330
70
100
AcDbEntity
  8
レイヤー 1
 62
    18
420
        0
370
    25
100
AcDbLine
 10
95.25514665847925
 20
-140.3333028938833
 30
0.0
 11
95.25514665847925
 21
-156.8332483062683
 31
0.0
  0
LINE
  5
84
330
70
100
AcDbEntity
  8
レイヤー 1
 62
    18
420
        0
370
    25
100
AcDbLine
 10
96.25527165822891
 20
-141.3330750905995
 30
0.0
 11
96.25527165822891
 21
-156.8332483062683
 31
0.0
  0
LINE
  5
85
330
70
100
AcDbEntity
  8
レイヤー 1
 62
    18
420
        0
370
    25
100
AcDbLine
 10
94.25540971428423
 20
-156.8332483062683
 30
0.0
 11
95.25514665847925
 21
-156.8332483062683
 31
0.0
  0
LINE
  5
86
330
70
100
AcDbEntity
  8
レイヤー 1
 62
    18
420
        0
370
    25
100
AcDbLine
 10
93.25528471453457
 20
-157.8330205029842
 30
0.0
 11
103.2553705453679
 21
-157.3327816268574
 31
0.0
  0
SPLINE
  5
87
330
70
100
AcDbEntity
  8
レイヤー 1
 62
    18
420
        0
370
     9
100
AcDbSpline
210
0.0
220
0.0
230
1.0
 70
     9
 71
     3
 72
    17
 73
    13
 74
     0
 42
0.0000000001
 43
0.0000000001
 40
0.0
 40
0.0
 40
0.0
 40
0.0
 40
1.0
 40
1.0
 40
1.0
 40
2.0
 40
2.0
 40
2.0
 40
3.0
 40
3.0
 40
3.0
 40
4.0
 40
4.0
 40
4.0
 40
4.0
 10
118.3486843460092
 20
-136.3335438292593
 30
0.0
 10
118.3486843460092
 20
-136.2777343862386
 30
0.0
 10
118.3038815693744
 20
-136.2329668873808
 30
0.0
 10
118.2487776818913
 20
-136.2329668873808
 30
0.0
 10
118.1936385166314
 20
-136.2329668873808
 30
0.0
 10
118.1488710177735
 20
-136.2777343862386
 30
0.0
 10
118.1488710177735
 20
-136.3335438292593
 30
0.0
 10
118.1488710177735
 20
-136.3886829945192
 30
0.0
 10
118.1936385166314
 20
-136.4334504933771
 30
0.0
 10
118.2487776818913
 20
-136.4334504933771
 30
0.0
 10
118.3038815693744
 20
-136.4334504933771
 30
0.0
 10
118.3486843460092
 20
-136.3886829945192
 30
0.0
 10
118.3486843460092
 20
-136.3335438292593
 30
0.0
  0
SPLINE
  5
88
330
70
100
AcDbEntity
  8
レイヤー 1
 62
    18
420
        0
370
     9
100
AcDbSpline
210
0.0
220
0.0
230
1.0
 70
     9
 71
     3
 72
    17
 73
    13
 74
     0
 42
0.0000000001
 43
0.0000000001
 40
0.0
 40
0.0
 40
0.0
 40
0.0
 40
1.0
 40
1.0
 40
1.0
 40
2.0
 40
2.0
 40
2.0
 40
3.0
 40
3.0
 40
3.0
 40
4.0
 40
4.0
 40
4.0
 40
4.0
 10
122.3553225771246
 20
-140.3333028938833
 30
0.0
 10
122.3553225771246
 20
-140.277493450863
 30
0.0
 10
122.3105198004899
 20
-140.2333962297658
 30
0.0
 10
122.2554172072842
 20
-140.2333962297658
 30
0.0
 10
122.1999592477549
 20
-140.2333962297658
 30
0.0
 10
122.1551564711202
 20
-140.277493450863
 30
0.0
 10
122.1551564711202
 20
-140.3333028938833
 30
0.0
 10
122.1551564711202
 20
-140.3884420591435
 30
0.0
 10
122.1999592477549
 20
-140.4332095580014
 30
0.0
 10
122.2554172072842
 20
-140.4332095580014
 30
0.0
 10
122.3105198004899
 20
-140.4332095580014
 30
0.0
 10
122.3553225771246
 20
-140.3884420591435
 30
0.0
 10
122.3553225771246
 20
-140.3333028938833
 30
0.0
  0
SPLINE
  5
89
330
70
100
AcDbEntity
  8
レイヤー 1
 62
    18
420
        0
370
     9
100
AcDbSpline
210
0.0
220
0.0
230
1.0
 70
     9
 71
     3
 72
    17
 73
    13
 74
     0
 42
0.0000000001
 43
0.0000000001
 40
0.0
 40
0.0
 40
0.0
 40
0.0
 40
1.0
 40
1.0
 40
1.0
 40
2.0
 40
2.0
 40
2.0
 40
3.0
 40
3.0
 40
3.0
 40
4.0
 40
4.0
 40
4.0
 40
4.0
 10
122.3553225771246
 20
-141.3330750905995
 30
0.0
 10
122.3553225771246
 20
-141.2779712031164
 30
0.0
 10
122.3105198004899
 20
-141.2331684264817
 30
0.0
 10
122.2554172072842
 20
-141.2331684264817
 30
0.0
 10
122.1999592477549
 20
-141.2331684264817
 30
0.0
 10
122.1551564711202
 20
-141.2779712031164
 30
0.0
 10
122.1551564711202
 20
-141.3330750905995
 30
0.0
 10
122.1551564711202
 20
-141.3882142558595
 30
0.0
 10
122.1999592477549
 20
-141.4329817547173
 30
0.0
 10
122.2554172072842
 20
-141.4329817547173
 30
0.0
 10
122.3105198004899
 20
-141.4329817547173
 30
0.0
 10
122.3553225771246
 20
-141.3882142558595
 30
0.0
 10
122.3553225771246
 20
-141.3330750905995
 30
0.0
  0
SPLINE
  5
8A
330
70
100
AcDbEntity
  8
レイヤー 1
 62
    18
420
        0
370
     9
100
AcDbSpline
210
0.0
220
0.0
230
1.0
 70
     9
 71
     3
 72
    17
 73
    13
 74
     0
 42
0.0000000001
 43
0.0000000001
 40
0.0
 40
0.0
 40
0.0
 40
0.0
 40
1.0
 40
1.0
 40
1.0
 40
2.0
 40
2.0
 40
2.0
 40
3.0
 40
3.0
 40
3.0
 40
4.0
 40
4.0
 40
4.0
 40
4.0
 10
87.30646360491038
 20
-136.3335438292593
 30
0.0
 10
87.30646360491038
 20
-136.2777343862386
 30
0.0
 10
87.26169610492213
 20
-136.2329668873808
 30
0.0
 10
87.20655693826875
 20
-136.2329668873808
 30
0.0
 10
87.15145304939415
 20
-136.2329668873808
 30
0.0
 10
87.10665027162709
 20
-136.2777343862386
 30
0.0
 10
87.10665027162709
 20
-136.3335438292593
 30
0.0
 10
87.10665027162709
 20
-136.3886829945192
 30
0.0
 10
87.15145304939415
 20
-136.4334504933771
 30
0.0
 10
87.20655693826875
 20
-136.4334504933771
 30
0.0
 10
87.26169610492213
 20
-136.4334504933771
 30
0.0
 10
87.30646360491038
 20
-136.3886829945192
 30
0.0
 10
87.30646360491038
 20
-136.3335438292593
 30
0.0
  0
SPLINE
  5
8B
330
70
100
AcDbEntity
  8
レイヤー 1
 62
    18
420
        0
370
     9
100
AcDbSpline
210
0.0
220
0.0
230
1.0
 70
     9
 71
     3
 72
    17
 73
    13
 74
     0
 42
0.0000000001
 43
0.0000000001
 40
0.0
 40
0.0
 40
0.0
 40
0.0
 40
1.0
 40
1.0
 40
1.0
 40
2.0
 40
2.0
 40
2.0
 40
3.0
 40
3.0
 40
3.0
 40
4.0
 40
4.0
 40
4.0
 40
4.0
 10
103.3552772120098
 20
-161.8334490438011
 30
0.0
 10
103.3552772120098
 20
-161.7776395993706
 30
0.0
 10
103.3104744342428
 20
-161.7328720993821
 30
0.0
 10
103.2553705453679
 20
-161.7328720993821
 30
0.0
 10
103.2002313787148
 20
-161.7328720993821
 30
0.0
 10
103.1554638787262
 20
-161.7776395993706
 30
0.0
 10
103.1554638787262
 20
-161.8334490438011
 30
0.0
 10
103.1554638787262
 20
-161.8885882104541
 30
0.0
 10
103.2002313787148
 20
-161.9333557104427
 30
0.0
 10
103.2553705453679
 20
-161.9333557104427
 30
0.0
 10
103.3104744342428
 20
-161.9333557104427
 30
0.0
 10
103.3552772120098
 20
-161.8885882104541
 30
0.0
 10
103.3552772120098
 20
-161.8334490438011
 30
0.0
  0
SPLINE
  5
8C
330
70
100
AcDbEntity
  8
レイヤー 1
 62
    18
420
        0
370
     9
100
AcDbSpline
210
0.0
220
0.0
230
1.0
 70
     9
 71
     3
 72
    17
 73
    13
 74
     0
 42
0.0000000001
 43
0.0000000001
 40
0.0
 40
0.0
 40
0.0
 40
0.0
 40
1.0
 40
1.0
 40
1.0
 40
2.0
 40
2.0
 40
2.0
 40
3.0
 40
3.0
 40
3.0
 40
4.0
 40
4.0
 40
4.0
 40
4.0
 10
93.3551913811762
 20
-161.8334490438011
 30
0.0
 10
93.3551913811762
 20
-161.7776395993706
 30
0.0
 10
93.31042388118701
 20
-161.7328720993821
 30
0.0
 10
93.25528471453457
 20
-161.7328720993821
 30
0.0
 10
93.19982804788123
 20
-161.7328720993821
 30
0.0
 10
93.15502527011515
 20
-161.7776395993706
 30
0.0
 10
93.15502527011515
 20
-161.8334490438011
 30
0.0
 10
93.15502527011515
 20
-161.8885882104541
 30
0.0
 10
93.19982804788123
 20
-161.9333557104427
 30
0.0
 10
93.25528471453457
 20
-161.9333557104427
 30
0.0
 10
93.31042388118701
 20
-161.9333557104427
 30
0.0
 10
93.3551913811762
 20
-161.8885882104541
 30
0.0
 10
93.3551913811762
 20
-161.8334490438011
 30
0.0
  0
SPLINE
  5
8D
330
70
100
AcDbEntity
  8
レイヤー 1
 62
    18
420
        0
370
     9
100
AcDbSpline
210
0.0
220
0.0
230
1.0
 70
     9
 71
     3
 72
    17
 73
    13
 74
     0
 42
0.0000000001
 43
0.0000000001
 40
0.0
 40
0.0
 40
0.0
 40
0.0
 40
1.0
 40
1.0
 40
1.0
 40
2.0
 40
2.0
 40
2.0
 40
3.0
 40
3.0
 40
3.0
 40
4.0
 40
4.0
 40
4.0
 40
4.0
 10
87.30611082713327
 20
-161.8334490438011
 30
0.0
 10
87.30611082713327
 20
-161.7776395993706
 30
0.0
 10
87.26134332714407
 20
-161.7328720993821
 30
0.0
 10
87.20620416049099
 20
-161.7328720993821
 30
0.0
 10
87.15110027161605
 20
-161.7328720993821
 30
0.0
 10
87.10629749384933
 20
-161.7776395993706
 30
0.0
 10
87.10629749384933
 20
-161.8334490438011
 30
0.0
 10
87.10629749384933
 20
-161.8885882104541
 30
0.0
 10
87.15110027161605
 20
-161.9333557104427
 30
0.0
 10
87.20620416049099
 20
-161.9333557104427
 30
0.0
 10
87.26134332714407
 20
-161.9333557104427
 30
0.0
 10
87.30611082713327
 20
-161.8885882104541
 30
0.0
 10
87.30611082713327
 20
-161.8334490438011
 30
0.0
  0
CIRCLE
  5
8E
330
70
100
AcDbEntity
  8
レイヤー 1
 62
    18
420
        0
370
     9
100
AcDbCircle
 10
107.255128795696
 20
-156.8332480749282
 30
0.0
 40
0.0999065484484161
  0
CIRCLE
  5
8F
330
70
100
AcDbEntity
  8
レイヤー 1
 62
    18
420
        0
370
     9
100
AcDbCircle
 10
107.255128795696
 20
-157.3321113490967
 30
0.0
 40
0.0999066641178353
  0
SPLINE
  5
90
330
70
100
AcDbEntity
  8
レイヤー 1
 62
    18
420
        0
370
     9
100
AcDbSpline
210
0.0
220
0.0
230
1.0
 70
     9
 71
     3
 72
    17
 73
    13
 74
     0
 42
0.0000000001
 43
0.0000000001
 40
0.0
 40
0.0
 40
0.0
 40
0.0
 40
1.0
 40
1.0
 40
1.0
 40
2.0
 40
2.0
 40
2.0
 40
3.0
 40
3.0
 40
3.0
 40
4.0
 40
4.0
 40
4.0
 40
4.0
 10
122.3553225771246
 20
-156.8332483062683
 30
0.0
 10
122.3553225771246
 20
-156.7781444187852
 30
0.0
 10
122.3105198004899
 20
-156.7333416421504
 30
0.0
 10
122.2554172072842
 20
-156.7333416421504
 30
0.0
 10
122.1999592477549
 20
-156.7333416421504
 30
0.0
 10
122.1551564711202
 20
-156.7781444187852
 30
0.0
 10
122.1551564711202
 20
-156.8332483062683
 30
0.0
 10
122.1551564711202
 20
-156.8883874715282
 30
0.0
 10
122.1999592477549
 20
-156.9331540450259
 30
0.0
 10
122.2554172072842
 20
-156.9331540450259
 30
0.0
 10
122.3105198004899
 20
-156.9331540450259
 30
0.0
 10
122.3553225771246
 20
-156.8883874715282
 30
0.0
 10
122.3553225771246
 20
-156.8332483062683
 30
0.0
  0
LINE
  5
91
330
70
100
AcDbEntity
  8
レイヤー 1
 62
    18
420
        0
370
     9
100
AcDbLine
 10
122.2554172072842
 20
-140.3333028938833
 30
0.0
 11
122.2554172072842
 21
-136.5629904900723
 31
0.0
  0
LINE
  5
92
330
70
100
AcDbEntity
  8
レイヤー 1
 62
    18
420
        0
370
     9
100
AcDbLine
 10
122.2554172072842
 20
-140.3333028938833
 30
0.0
 11
122.2554172072842
 21
-141.3330750905995
 31
0.0
  0
LINE
  5
93
330
70
100
AcDbEntity
  8
レイヤー 1
 62
    18
420
        0
370
     9
100
AcDbLine
 10
120.7953745613667
 20
-140.3333028938833
 30
0.0
 11
123.2551894292568
 21
-140.3333028938833
 31
0.0
  0
LINE
  5
94
330
70
100
AcDbEntity
  8
レイヤー 1
 62
    18
420
        0
370
     9
100
AcDbLine
 10
120.7953745613667
 20
-141.3330750905995
 30
0.0
 11
123.2551894292568
 21
-141.3330750905995
 31
0.0
  0
INSERT
  5
96
330
70
100
AcDbEntity
  8
レイヤー 1
100
AcDbBlockReference
  2
Block_0
 10
0.0
 20
0.0
 30
0.0
  0
LINE
  5
9B
330
70
100
AcDbEntity
  8
レイヤー 1
 62
    18
420
        0
370
     9
100
AcDbLine
 10
118.2063737940842
 20
-136.3335438292593
 30
0.0
 11
87.20655693826875
 21
-136.3335438292593
 31
0.0
  0
LINE
  5
9C
330
70
100
AcDbEntity
  8
レイヤー 1
 62
    18
420
        0
370
     9
100
AcDbLine
 10
118.2487776818913
 20
-137.7929149031387
 30
0.0
 11
118.2487776818913
 21
-135.3331013547827
 31
0.0
  0
LINE
  5
9D
330
70
100
AcDbEntity
  8
レイヤー 1
 62
    18
420
        0
370
     9
100
AcDbLine
 10
87.20655693826875
 20
-137.7929149031387
 30
0.0
 11
87.20655693826875
 21
-135.3331013547827
 31
0.0
  0
INSERT
  5
9F
330
70
100
AcDbEntity
  8
レイヤー 1
100
AcDbBlockReference
  2
Block_1
 10
0.0
 20
0.0
 30
0.0
  0
LINE
  5
AA
330
70
100
AcDbEntity
  8
レイヤー 1
 62
    18
420
        0
370
     9
100
AcDbLine
 10
107.255128795696
 20
-156.8332483062683
 30
0.0
 11
107.255128795696
 21
-151.5753426070753
 31
0.0
  0
LINE
  5
AB
330
70
100
AcDbEntity
  8
レイヤー 1
 62
    18
420
        0
370
     9
100
AcDbLine
 10
107.255128795696
 20
-156.8332483062683
 30
0.0
 11
107.255128795696
 21
-158.332552933565
 31
0.0
  0
LINE
  5
AC
330
70
100
AcDbEntity
  8
レイヤー 1
 62
    18
420
        0
370
     9
100
AcDbLine
 10
105.795088322511
 20
-156.8332483062683
 30
0.0
 11
108.2552184924038
 21
-156.8332483062683
 31
0.0
  0
LINE
  5
AD
330
70
100
AcDbEntity
  8
レイヤー 1
 62
    18
420
        0
370
     9
100
AcDbLine
 10
105.795088322511
 20
-157.3321113490967
 30
0.0
 11
108.2552184924038
 21
-157.3321113490967
 31
0.0
  0
INSERT
  5
AF
330
70
100
AcDbEntity
  8
レイヤー 1
100
AcDbBlockReference
  2
Block_3
 10
0.0
 20
0.0
 30
0.0
  0
LINE
  5
BD
330
70
100
AcDbEntity
  8
レイヤー 1
 62
    18
420
        0
370
     9
100
AcDbLine
 10
93.25528471453457
 20
-161.8334490438011
 30
0.0
 11
103.2553705453679
 21
-161.8334490438011
 31
0.0
  0
LINE
  5
BE
330
70
100
AcDbEntity
  8
レイヤー 1
 62
    18
420
        0
370
     9
100
AcDbLine
 10
93.25528471453457
 20
-160.3734429330549
 30
0.0
 11
93.25528471453457
 21
-162.8332212657736
 31
0.0
  0
LINE
  5
BF
330
70
100
AcDbEntity
  8
レイヤー 1
 62
    18
420
        0
370
     9
100
AcDbLine
 10
103.2553705453679
 20
-159.6733907110079
 30
0.0
 11
103.2553705453679
 21
-162.8332212657736
 31
0.0
  0
INSERT
  5
C1
330
70
100
AcDbEntity
  8
レイヤー 1
100
AcDbBlockReference
  2
Block_5
 10
0.0
 20
0.0
 30
0.0
  0
LINE
  5
CD
330
70
100
AcDbEntity
  8
レイヤー 1
 62
    18
420
        0
370
     9
100
AcDbLine
 10
87.25548721603411
 20
-161.8334490438011
 30
0.0
 11
93.25528471453457
 21
-161.8334490438011
 31
0.0
  0
LINE
  5
CE
330
70
100
AcDbEntity
  8
レイヤー 1
 62
    18
420
        0
370
     9
100
AcDbLine
 10
87.20620416049099
 20
-144.3730316797104
 30
0.0
 11
87.20620416049099
 21
-162.8332212657736
 31
0.0
  0
INSERT
  5
D0
330
70
100
AcDbEntity
  8
レイヤー 1
100
AcDbBlockReference
  2
Block_7
 10
0.0
 20
0.0
 30
0.0
  0
LINE
  5
D6
330
70
100
AcDbEntity
  8
レイヤー 1
 62
    18
420
        0
370
     9
100
AcDbLine
 10
122.2554172072842
 20
-141.3330750905995
 30
0.0
 11
122.2554172072842
 21
-156.8332483062683
 31
0.0
  0
LINE
  5
D7
330
70
100
AcDbEntity
  8
レイヤー 1
 62
    18
420
        0
370
     9
100
AcDbLine
 10
120.7953745613667
 20
-141.3330750905995
 30
0.0
 11
123.2551894292568
 21
-141.3330750905995
 31
0.0
  0
LINE
  5
D8
330
70
100
AcDbEntity
  8
レイヤー 1
 62
    18
420
        0
370
     9
100
AcDbLine
 10
105.795088322511
 20
-156.8332483062683
 30
0.0
 11
123.2551894292568
 21
-156.8332483062683
 31
0.0
  0
INSERT
  5
DA
330
70
100
AcDbEntity
  8
レイヤー 1
100
AcDbBlockReference
  2
Block_8
 10
0.0
 20
0.0
 30
0.0
  0
LINE
  5
E9
330
70
100
AcDbEntity
  8
レイヤー 1
 62
    18
420
        0
370
     9
100
AcDbLine
 10
103.2553705453679
 20
-157.8088905035998
 30
0.0
 11
106.9126874155435
 21
-160.8571365440452
 31
0.0
  0
INSERT
  5
EB
330
70
100
AcDbEntity
  8
レイヤー 1
100
AcDbBlockReference
  2
Block_10
 10
0.0
 20
0.0
 30
0.0
  0
LWPOLYLINE
  5
10C
330
70
100
AcDbEntity
  8
レイヤー 1
  6
AI-Linetype-0
 62
   154
420
    23468
370
    25
100
AcDbPolyline
 90
        4
 70
     0
 43
0.0
 10
87.16623443827907
 20
-141.8339842444869
 10
92.75539860354797
 20
-141.8339842444869
 10
92.75539860354797
 20
-158.332552933565
 10
103.2553705453679
 20
-157.8088905035998
  0
ENDSEC
  0
SECTION
  2
OBJECTS
  0
DICTIONARY
  5
C
330
0
100
AcDbDictionary
281
     1
  3
ACAD_COLOR
350
63
  3
ACAD_DETAILVIEWSTYLE
350
6A
  3
ACAD_GROUP
350
D
  3
ACAD_LAYOUT
350
62
  3
ACAD_MATERIAL
350
10
  3
ACAD_MLEADERSTYLE
350
66
  3
ACAD_MLINESTYLE
350
5F
  3
ACAD_PLOTSETTINGS
350
61
  3
ACAD_PLOTSTYLENAME
350
E
  3
ACAD_SCALELIST
350
42
  3
ACAD_SECTIONVIEWSTYLE
350
68
  3
ACAD_TABLESTYLE
350
64
  3
ACAD_VISUALSTYLE
350
29
  3
ACDB_RECOMPOSE_DATA
350
116
  3
AcDbVariableDictionary
350
10E
  0
DICTIONARY
  5
63
102
{ACAD_REACTORS
330
C
102
}
330
C
100
AcDbDictionary
281
     1
  0
DICTIONARY
  5
6A
102
{ACAD_REACTORS
330
C
102
}
330
C
100
AcDbDictionary
281
     1
  3
Imperial24
350
6B
  0
DICTIONARY
  5
D
102
{ACAD_REACTORS
330
C
102
}
330
C
100
AcDbDictionary
281
     1
  0
DICTIONARY
  5
62
102
{ACAD_REACTORS
330
C
102
}
330
C
100
AcDbDictionary
281
     1
  3
Layout1
350
6F
  3
Layout2
350
77
  3
Model
350
73
  0
DICTIONARY
  5
10
102
{ACAD_REACTORS
330
C
102
}
330
C
100
AcDbDictionary
281
     1
  3
ByBlock
350
19
  3
ByLayer
350
11
  3
Global
350
21
  0
DICTIONARY
  5
66
102
{ACAD_REACTORS
330
C
102
}
330
C
100
AcDbDictionary
281
     1
  3
Standard
350
67
  0
DICTIONARY
  5
5F
102
{ACAD_REACTORS
330
C
102
}
330
C
100
AcDbDictionary
281
     1
  3
Standard
350
60
  0
DICTIONARY
  5
61
102
{ACAD_REACTORS
330
C
102
}
330
C
100
AcDbDictionary
281
     1
  0
ACDBDICTIONARYWDFLT
  5
E
102
{ACAD_REACTORS
330
C
102
}
330
C
100
AcDbDictionary
281
     1
  3
Normal
350
F
100
AcDbDictionaryWithDefault
340
F
  0
DICTIONARY
  5
42
102
{ACAD_REACTORS
330
C
102
}
330
C
100
AcDbDictionary
281
     1
  3
A0
350
43
  3
A1
350
44
  3
A2
350
45
  3
A3
350
46
  3
A4
350
47
  3
A5
350
48
  3
A6
350
49
  3
A7
350
4A
  3
A8
350
4B
  3
A9
350
4C
  3
B0
350
4D
  3
B1
350
4E
  3
B2
350
4F
  3
B3
350
50
  3
B4
350
51
  3
B5
350
52
  3
B6
350
53
  0
DICTIONARY
  5
68
102
{ACAD_REACTORS
330
C
102
}
330
C
100
AcDbDictionary
281
     1
  3
Imperial24
350
69
  0
DICTIONARY
  5
64
102
{ACAD_REACTORS
330
C
102
}
330
C
100
AcDbDictionary
281
     1
  3
Standard
350
65
  0
DICTIONARY
  5
29
102
{ACAD_REACTORS
330
C
102
}
330
C
100
AcDbDictionary
281
     1
  3
2dWireframe
350
2F
  3
Basic
350
2E
  3
Brighten
350
35
  3
ColorChange
350
39
  3
Conceptual
350
32
  3
Dim
350
34
  3
EdgeColorOff
350
41
  3
Facepattern
350
38
  3
Flat
350
2A
  3
FlatWithEdges
350
2B
  3
Gouraud
350
2C
  3
GouraudWithEdges
350
2D
  3
Hidden
350
31
  3
JitterOff
350
3F
  3
Linepattern
350
37
  3
OverhangOff
350
40
  3
Realistic
350
33
  3
Shaded
350
3E
  3
Shaded with edges
350
3D
  3
Shades of Gray
350
3A
  3
Sketchy
350
3B
  3
Thicken
350
36
  3
Wireframe
350
30
  3
X-Ray
350
3C
  0
XRECORD
  5
116
102
{ACAD_REACTORS
330
C
102
}
330
C
100
AcDbXrecord
280
     1
 90
        1
330
65
  0
DICTIONARY
  5
10E
102
{ACAD_REACTORS
330
C
102
}
330
C
100
AcDbDictionary
281
     1
  3
CANNOSCALE
350
113
  3
CMLEADERSTYLE
350
110
  3
CTABLESTYLE
350
10F
  3
CVIEWDETAILSTYLE
350
111
  3
CVIEWSECTIONSTYLE
350
112
  0
ACDBDETAILVIEWSTYLE
  5
6B
102
{ACAD_XDICTIONARY
360
14B
102
}
102
{ACAD_REACTORS
330
6A
102
}
330
6A
100
AcDbModelDocViewStyle
 70
     0
  3
Imperial24
290
     0
100
AcDbDetailViewStyle
 70
     0
 71
     0
 90
        3
 71
     1
340
55
 62
   256
 40
0.24
340
0
 62
   256
 40
0.24
300

 40
0.36
280
     3
 71
     2
340
5D
 90
       25
 62
   256
 71
     3
340
55
 62
   256
 40
0.24
 90
        1
 40
0.75
 90
        1
300
%<\AcVar ViewType \f "%tc1">% %<\AcVar ViewDetailId>%\PSCALE %<\AcVar ViewScale \f "%sn">%
 71
     4
340
5D
 90
       25
 62
   256
340
5D
 90
       25
 62
   256
280
     0
  0
LAYOUT
  5
6F
102
{ACAD_REACTORS
330
62
102
}
330
62
100
AcDbPlotSettings
  1

  2

  4

  6

 40
0.0
 41
0.0
 42
0.0
 43
0.0
 44
0.0
 45
0.0
 46
0.0
 47
0.0
 48
0.0
 49
0.0
140
0.0
141
0.0
142
1.0
143
1.0
 70
   688
 72
     0
 73
     0
 74
     5
  7

 75
    16
147
1.0
 76
     0
 77
     2
 78
   300
148
0.0
149
0.0
100
AcDbLayout
  1
Layout1
 70
     1
 71
     1
 10
0.0
 20
0.0
 11
12.0
 21
9.0
 12
0.0
 22
0.0
 32
0.0
 14
0.0
 24
0.0
 34
0.0
 15
0.0
 25
0.0
 35
0.0
146
0.0
 13
0.0
 23
0.0
 33
0.0
 16
1.0
 26
0.0
 36
0.0
 17
0.0
 27
1.0
 37
0.0
 76
     0
330
6C
  0
LAYOUT
  5
77
102
{ACAD_REACTORS
330
62
102
}
330
62
100
AcDbPlotSettings
  1

  2

  4

  6

 40
0.0
 41
0.0
 42
0.0
 43
0.0
 44
0.0
 45
0.0
 46
0.0
 47
0.0
 48
0.0
 49
0.0
140
0.0
141
0.0
142
1.0
143
1.0
 70
   688
 72
     0
 73
     0
 74
     5
  7

 75
    16
147
1.0
 76
     0
 77
     2
 78
   300
148
0.0
149
0.0
100
AcDbLayout
  1
Layout2
 70
     1
 71
     2
 10
0.0
 20
0.0
 11
12.0
 21
9.0
 12
0.0
 22
0.0
 32
0.0
 14
0.0
 24
0.0
 34
0.0
 15
0.0
 25
0.0
 35
0.0
146
0.0
 13
0.0
 23
0.0
 33
0.0
 16
1.0
 26
0.0
 36
0.0
 17
0.0
 27
1.0
 37
0.0
 76
     0
330
74
  0
LAYOUT
  5
73
102
{ACAD_REACTORS
330
62
102
}
330
62
100
AcDbPlotSettings
  1

  2

  4

  6

 40
0.0
 41
0.0
 42
0.0
 43
0.0
 44
0.0
 45
0.0
 46
0.0
 47
0.0
 48
0.0
 49
0.0
140
0.0
141
0.0
142
1.0
143
1.0
 70
  1712
 72
     0
 73
     0
 74
     0
  7

 75
     0
147
1.0
 76
     0
 77
     2
 78
   300
148
0.0
149
0.0
100
AcDbLayout
  1
Model
 70
     1
 71
     0
 10
0.0
 20
0.0
 11
12.0
 21
9.0
 12
0.0
 22
0.0
 32
0.0
 14
0.0
 24
0.0
 34
0.0
 15
0.0
 25
0.0
 35
0.0
146
0.0
 13
0.0
 23
0.0
 33
0.0
 16
1.0
 26
0.0
 36
0.0
 17
0.0
 27
1.0
 37
0.0
 76
     0
330
70
  0
MATERIAL
  5
19
102
{ACAD_XDICTIONARY
360
1A
102
}
102
{ACAD_REACTORS
330
10
102
}
330
10
100
AcDbMaterial
  1
ByBlock
 72
     0
 43
0.0208333333333333
 43
0.0
 43
0.0
 43
0.0
 43
0.0
 43
0.0208333333333333
 43
0.0
 43
0.0
 43
0.0
 43
0.0
 43
1.0
 43
0.0
 43
0.0
 43
0.0
 43
0.0
 43
1.0
 77
     0
 47
0.0208333333333333
 47
0.0
 47
0.0
 47
0.0
 47
0.0
 47
0.0208333333333333
 47
0.0
 47
0.0
 47
0.0
 47
0.0
 47
1.0
 47
0.0
 47
0.0
 47
0.0
 47
0.0
 47
1.0
171
     0
 49
0.0208333333333333
 49
0.0
 49
0.0
 49
0.0
 49
0.0
 49
0.0208333333333333
 49
0.0
 49
0.0
 49
0.0
 49
0.0
 49
1.0
 49
0.0
 49
0.0
 49
0.0
 49
0.0
 49
1.0
175
     0
142
0.0208333333333333
142
0.0
142
0.0
142
0.0
142
0.0
142
0.0208333333333333
142
0.0
142
0.0
142
0.0
142
0.0
142
1.0
142
0.0
142
0.0
142
0.0
142
0.0
142
1.0
179
     0
144
0.0208333333333333
144
0.0
144
0.0
144
0.0
144
0.0
144
0.0208333333333333
144
0.0
144
0.0
144
0.0
144
0.0
144
1.0
144
0.0
144
0.0
144
0.0
144
0.0
144
1.0
147
0.0208333333333333
147
0.0
147
0.0
147
0.0
147
0.0
147
0.0208333333333333
147
0.0
147
0.0
147
0.0
147
0.0
147
1.0
147
0.0
147
0.0
147
0.0
147
0.0
147
1.0
  0
MATERIAL
  5
11
102
{ACAD_XDICTIONARY
360
12
102
}
102
{ACAD_REACTORS
330
10
102
}
330
10
100
AcDbMaterial
  1
ByLayer
 72
     0
 43
0.0208333333333333
 43
0.0
 43
0.0
 43
0.0
 43
0.0
 43
0.0208333333333333
 43
0.0
 43
0.0
 43
0.0
 43
0.0
 43
1.0
 43
0.0
 43
0.0
 43
0.0
 43
0.0
 43
1.0
 77
     0
 47
0.0208333333333333
 47
0.0
 47
0.0
 47
0.0
 47
0.0
 47
0.0208333333333333
 47
0.0
 47
0.0
 47
0.0
 47
0.0
 47
1.0
 47
0.0
 47
0.0
 47
0.0
 47
0.0
 47
1.0
171
     0
 49
0.0208333333333333
 49
0.0
 49
0.0
 49
0.0
 49
0.0
 49
0.0208333333333333
 49
0.0
 49
0.0
 49
0.0
 49
0.0
 49
1.0
 49
0.0
 49
0.0
 49
0.0
 49
0.0
 49
1.0
175
     0
142
0.0208333333333333
142
0.0
142
0.0
142
0.0
142
0.0
142
0.0208333333333333
142
0.0
142
0.0
142
0.0
142
0.0
142
1.0
142
0.0
142
0.0
142
0.0
142
0.0
142
1.0
179
     0
144
0.0208333333333333
144
0.0
144
0.0
144
0.0
144
0.0
144
0.0208333333333333
144
0.0
144
0.0
144
0.0
144
0.0
144
1.0
144
0.0
144
0.0
144
0.0
144
0.0
144
1.0
147
0.0208333333333333
147
0.0
147
0.0
147
0.0
147
0.0
147
0.0208333333333333
147
0.0
147
0.0
147
0.0
147
0.0
147
1.0
147
0.0
147
0.0
147
0.0
147
0.0
147
1.0
  0
MATERIAL
  5
21
102
{ACAD_XDICTIONARY
360
22
102
}
102
{ACAD_REACTORS
330
10
102
}
330
10
100
AcDbMaterial
  1
Global
 72
     0
 43
0.0208333333333333
 43
0.0
 43
0.0
 43
0.0
 43
0.0
 43
0.0208333333333333
 43
0.0
 43
0.0
 43
0.0
 43
0.0
 43
1.0
 43
0.0
 43
0.0
 43
0.0
 43
0.0
 43
1.0
 77
     0
 47
0.0208333333333333
 47
0.0
 47
0.0
 47
0.0
 47
0.0
 47
0.0208333333333333
 47
0.0
 47
0.0
 47
0.0
 47
0.0
 47
1.0
 47
0.0
 47
0.0
 47
0.0
 47
0.0
 47
1.0
171
     0
 49
0.0208333333333333
 49
0.0
 49
0.0
 49
0.0
 49
0.0
 49
0.0208333333333333
 49
0.0
 49
0.0
 49
0.0
 49
0.0
 49
1.0
 49
0.0
 49
0.0
 49
0.0
 49
0.0
 49
1.0
175
     0
142
0.0208333333333333
142
0.0
142
0.0
142
0.0
142
0.0
142
0.0208333333333333
142
0.0
142
0.0
142
0.0
142
0.0
142
1.0
142
0.0
142
0.0
142
0.0
142
0.0
142
1.0
179
     0
144
0.0208333333333333
144
0.0
144
0.0
144
0.0
144
0.0
144
0.0208333333333333
144
0.0
144
0.0
144
0.0
144
0.0
144
1.0
144
0.0
144
0.0
144
0.0
144
0.0
144
1.0
147
0.0208333333333333
147
0.0
147
0.0
147
0.0
147
0.0
147
0.0208333333333333
147
0.0
147
0.0
147
0.0
147
0.0
147
1.0
147
0.0
147
0.0
147
0.0
147
0.0
147
1.0
  0
MLEADERSTYLE
  5
67
102
{ACAD_XDICTIONARY
360
147
102
}
102
{ACAD_REACTORS
330
66
102
}
330
66
100
AcDbMLeaderStyle
179
     2
170
     2
171
     1
172
     0
 90
        2
 40
0.0
 41
0.0
173
     1
 91
-1056964608
340
5B
 92
       -2
290
     1
 42
0.09
291
     1
 43
0.36
  3
Standard
 44
0.18
300

342
55
174
     1
178
     6
175
     1
176
     0
 93
-1056964608
 45
0.18
292
     0
297
     0
 46
0.18
 94
-1056964608
 47
1.0
 49
1.0
140
1.0
293
     1
141
0.0
294
     1
177
     0
142
1.0
295
     0
296
     0
143
0.125
271
     0
272
     9
273
     9
  0
MLINESTYLE
  5
60
102
{ACAD_REACTORS
330
5F
102
}
330
5F
100
AcDbMlineStyle
  2
STANDARD
 70
     0
  3

 62
   256
 51
90.0
 52
90.0
 71
     2
 49
0.5
 62
   256
  6
BYLAYER
 49
-0.5
 62
   256
  6
BYLAYER
  0
ACDBPLACEHOLDER
  5
F
102
{ACAD_REACTORS
330
E
102
}
330
E
  0
SCALE
  5
43
102
{ACAD_REACTORS
330
42
102
}
330
42
100
AcDbScale
 70
     0
300
1:1
140
1.0
141
1.0
290
     1
  0
SCALE
  5
44
102
{ACAD_REACTORS
330
42
102
}
330
42
100
AcDbScale
 70
     0
300
1/128" = 1'-0"
140
0.0078125
141
12.0
290
     0
  0
SCALE
  5
45
102
{ACAD_REACTORS
330
42
102
}
330
42
100
AcDbScale
 70
     0
300
1/64" = 1'-0"
140
0.015625
141
12.0
290
     0
  0
SCALE
  5
46
102
{ACAD_REACTORS
330
42
102
}
330
42
100
AcDbScale
 70
     0
300
1/32" = 1'-0"
140
0.03125
141
12.0
290
     0
  0
SCALE
  5
47
102
{ACAD_REACTORS
330
42
102
}
330
42
100
AcDbScale
 70
     0
300
1/16" = 1'-0"
140
0.0625
141
12.0
290
     0
  0
SCALE
  5
48
102
{ACAD_REACTORS
330
42
102
}
330
42
100
AcDbScale
 70
     0
300
3/32" = 1'-0"
140
0.09375
141
12.0
290
     0
  0
SCALE
  5
49
102
{ACAD_REACTORS
330
42
102
}
330
42
100
AcDbScale
 70
     0
300
1/8" = 1'-0"
140
0.125
141
12.0
290
     0
  0
SCALE
  5
4A
102
{ACAD_REACTORS
330
42
102
}
330
42
100
AcDbScale
 70
     0
300
3/16" = 1'-0"
140
0.1875
141
12.0
290
     0
  0
SCALE
  5
4B
102
{ACAD_REACTORS
330
42
102
}
330
42
100
AcDbScale
 70
     0
300
1/4" = 1'-0"
140
0.25
141
12.0
290
     0
  0
SCALE
  5
4C
102
{ACAD_REACTORS
330
42
102
}
330
42
100
AcDbScale
 70
     0
300
3/8" = 1'-0"
140
0.375
141
12.0
290
     0
  0
SCALE
  5
4D
102
{ACAD_REACTORS
330
42
102
}
330
42
100
AcDbScale
 70
     0
300
1/2" = 1'-0"
140
0.5
141
12.0
290
     0
  0
SCALE
  5
4E
102
{ACAD_REACTORS
330
42
102
}
330
42
100
AcDbScale
 70
     0
300
3/4" = 1'-0"
140
0.75
141
12.0
290
     0
  0
SCALE
  5
4F
102
{ACAD_REACTORS
330
42
102
}
330
42
100
AcDbScale
 70
     0
300
1" = 1'-0"
140
1.0
141
12.0
290
     0
  0
SCALE
  5
50
102
{ACAD_REACTORS
330
42
102
}
330
42
100
AcDbScale
 70
     0
300
1-1/2" = 1'-0"
140
1.5
141
12.0
290
     0
  0
SCALE
  5
51
102
{ACAD_REACTORS
330
42
102
}
330
42
100
AcDbScale
 70
     0
300
3" = 1'-0"
140
3.0
141
12.0
290
     0
  0
SCALE
  5
52
102
{ACAD_REACTORS
330
42
102
}
330
42
100
AcDbScale
 70
     0
300
6" = 1'-0"
140
6.0
141
12.0
290
     0
  0
SCALE
  5
53
102
{ACAD_REACTORS
330
42
102
}
330
42
100
AcDbScale
 70
     0
300
1'-0" = 1'-0"
140
12.0
141
12.0
290
     0
  0
ACDBSECTIONVIEWSTYLE
  5
69
102
{ACAD_XDICTIONARY
360
149
102
}
102
{ACAD_REACTORS
330
68
102
}
330
68
100
AcDbModelDocViewStyle
 70
     0
  3
Imperial24
290
     0
100
AcDbSectionViewStyle
 70
     0
 71
     0
 90
       78
 71
     1
340
55
 62
   256
 40
0.24
340
0
340
0
 62
   256
 40
0.24
300
I, O, Q, S, X, Z
 40
0.48
 90
        3
 40
0.18
 90
        1
 71
     2
340
5D
 90
       25
 62
   256
340
5D
 90
       50
 62
   256
 40
0.24
 40
0.0
 40
0.24
 71
     3
340
55
 62
   256
 40
0.24
 90
        1
 40
0.75
 90
        1
300
%<\AcVar ViewType \f "%tc1">% %<\AcVar ViewSectionStartId>%-%<\AcVar ViewSectionEndId>%\PSCALE %<\AcVar ViewScale \f "%sn">%
 71
     4
 62
   256
 62
   257
300
ANSI31
 40
1.0
 90
        0
290
     0
290
     0
 90
        6
 40
0.0
 40
1.570796326794896
 40
0.2617993877991494
 40
1.308996938995747
 40
-0.2617993877991494
 40
1.832595714594046
  0
TABLESTYLE
  5
65
102
{ACAD_XDICTIONARY
360
114
102
}
102
{ACAD_REACTORS
330
64
102
}
330
64
100
AcDbTableStyle
280
     0
  3
Standard
 70
     0
 71
     0
 40
0.06
 41
0.06
280
     0
281
     0
  7
Standard
140
0.18
170
     2
 62
     0
 63
     7
283
     0
 90
      512
 91
        0
  1

274
    -2
284
     1
 64
     0
275
    -2
285
     1
 65
     0
276
    -2
286
     1
 66
     0
277
    -2
287
     1
 67
     0
278
    -2
288
     1
 68
     0
279
    -2
289
     1
 69
     0
  7
Standard
140
0.25
170
     5
 62
     0
 63
     7
283
     0
 90
      512
 91
        0
  1

274
    -2
284
     1
 64
     0
275
    -2
285
     1
 65
     0
276
    -2
286
     1
 66
     0
277
    -2
287
     1
 67
     0
278
    -2
288
     1
 68
     0
279
    -2
289
     1
 69
     0
  7
Standard
140
0.18
170
     5
 62
     0
 63
     7
283
     0
 90
      512
 91
        0
  1

274
    -2
284
     1
 64
     0
275
    -2
285
     1
 65
     0
276
    -2
286
     1
 66
     0
277
    -2
287
     1
 67
     0
278
    -2
288
     1
 68
     0
279
    -2
289
     1
 69
     0
  0
VISUALSTYLE
  5
2F
102
{ACAD_XDICTIONARY
360
121
102
}
102
{ACAD_REACTORS
330
29
102
}
330
29
100
AcDbVisualStyle
  2
2dWireframe
 70
     4
177
     2
291
     0
 71
     0
176
     1
 72
     2
176
     1
 73
     0
176
     1
 90
        0
176
     1
 40
0.6
176
     1
 41
30.0
176
     1
 63
     7
421
 16777215
176
     1
 74
     1
176
     1
 91
        4
176
     1
 64
     7
176
     1
 65
   257
176
     1
 75
     1
176
     1
175
     1
176
     1
 42
1.0
176
     1
 92
        0
176
     1
 66
   257
176
     1
 43
1.0
176
     1
 76
     1
176
     1
 77
     6
176
     1
 78
     2
176
     1
 67
     7
176
     1
 79
     5
176
     1
170
     0
176
     1
171
     0
176
     1
290
     0
176
     1
 93
        1
176
     1
 44
0.0
176
     1
173
     0
176
     1
1001
ACAD
1000
AcDbSavedByObjectVersion
1070
     0
  0
VISUALSTYLE
  5
2E
102
{ACAD_XDICTIONARY
360
11F
102
}
102
{ACAD_REACTORS
330
29
102
}
330
29
100
AcDbVisualStyle
  2
Basic
 70
     7
177
     2
291
     1
 71
     1
176
     1
 72
     0
176
     1
 73
     1
176
     1
 90
        0
176
     1
 40
0.6
176
     1
 41
30.0
176
     1
 63
     7
421
 16777215
176
     1
 74
     0
176
     1
 91
        4
176
     1
 64
     7
176
     1
 65
   257
176
     1
 75
     1
176
     1
175
     1
176
     1
 42
1.0
176
     1
 92
        8
176
     1
 66
     7
176
     1
 43
1.0
176
     1
 76
     1
176
     1
 77
     6
176
     1
 78
     2
176
     1
 67
     7
176
     1
 79
     5
176
     1
170
     0
176
     1
171
     0
176
     1
290
     0
176
     1
 93
        1
176
     1
 44
0.0
176
     1
173
     0
176
     1
1001
ACAD
1000
AcDbSavedByObjectVersion
1070
     0
  0
VISUALSTYLE
  5
35
102
{ACAD_XDICTIONARY
360
12D
102
}
102
{ACAD_REACTORS
330
29
102
}
330
29
100
AcDbVisualStyle
  2
Brighten
 70
    12
177
     2
291
     1
 71
     2
176
     1
 72
     2
176
     1
 73
     0
176
     1
 90
        0
176
     1
 40
0.6
176
     1
 41
30.0
176
     1
 63
     7
421
 16777215
176
     1
 74
     1
176
     1
 91
        4
176
     1
 64
     7
176
     1
 65
   257
176
     1
 75
     1
176
     1
175
     1
176
     1
 42
1.0
176
     1
 92
        8
176
     1
 66
     7
176
     1
 43
1.0
176
     1
 76
     1
176
     1
 77
     6
176
     1
 78
     2
176
     1
 67
     7
176
     1
 79
     5
176
     1
170
     0
176
     1
171
     0
176
     1
290
     0
176
     1
 93
        1
176
     1
 44
50.0
176
     1
173
     0
176
     1
1001
ACAD
1000
AcDbSavedByObjectVersion
1070
     0
  0
VISUALSTYLE
  5
39
102
{ACAD_XDICTIONARY
360
135
102
}
102
{ACAD_REACTORS
330
29
102
}
330
29
100
AcDbVisualStyle
  2
ColorChange
 70
    16
177
     2
291
     1
 71
     2
176
     1
 72
     2
176
     1
 73
     3
176
     1
 90
        0
176
     1
 40
0.6
176
     1
 41
30.0
176
     1
 63
     8
421
  8421504
176
     1
 74
     1
176
     1
 91
        4
176
     1
 64
     7
176
     1
 65
   257
176
     1
 75
     1
176
     1
175
     1
176
     1
 42
1.0
176
     1
 92
        8
176
     1
 66
     8
424
  8421504
176
     1
 43
1.0
176
     1
 76
     1
176
     1
 77
     6
176
     1
 78
     2
176
     1
 67
     7
176
     1
 79
     5
176
     1
170
     0
176
     1
171
     0
176
     1
290
     0
176
     1
 93
        1
176
     1
 44
0.0
176
     1
173
     0
176
     1
1001
ACAD
1000
AcDbSavedByObjectVersion
1070
     0
  0
VISUALSTYLE
  5
32
102
{ACAD_XDICTIONARY
360
127
102
}
102
{ACAD_REACTORS
330
29
102
}
330
29
100
AcDbVisualStyle
  2
Conceptual
 70
     9
177
     2
291
     0
 71
     3
176
     1
 72
     2
176
     1
 73
     0
176
     1
 90
        0
176
     1
 40
0.6
176
     1
 41
30.0
176
     1
 63
     7
421
 16777215
176
     1
 74
     2
176
     1
 91
        2
176
     1
 64
     7
176
     1
 65
   257
176
     1
 75
     1
176
     1
175
     1
176
     1
 42
179.0
176
     1
 92
        8
176
     1
 66
     7
176
     1
 43
1.0
176
     1
 76
     1
176
     1
 77
     6
176
     1
 78
     2
176
     1
 67
     7
176
     1
 79
     3
176
     1
170
     0
176
     1
171
     0
176
     1
290
     0
176
     1
 93
        1
176
     1
 44
0.0
176
     1
173
     0
176
     1
1001
ACAD
1000
AcDbSavedByObjectVersion
1070
     0
  0
VISUALSTYLE
  5
34
102
{ACAD_XDICTIONARY
360
12B
102
}
102
{ACAD_REACTORS
330
29
102
}
330
29
100
AcDbVisualStyle
  2
Dim
 70
    11
177
     2
291
     1
 71
     2
176
     1
 72
     2
176
     1
 73
     0
176
     1
 90
        0
176
     1
 40
0.6
176
     1
 41
30.0
176
     1
 63
     7
421
 16777215
176
     1
 74
     1
176
     1
 91
        4
176
     1
 64
     7
176
     1
 65
   257
176
     1
 75
     1
176
     1
175
     1
176
     1
 42
1.0
176
     1
 92
        8
176
     1
 66
     7
176
     1
 43
1.0
176
     1
 76
     1
176
     1
 77
     6
176
     1
 78
     2
176
     1
 67
     7
176
     1
 79
     5
176
     1
170
     0
176
     1
171
     0
176
     1
290
     0
176
     1
 93
        1
176
     1
 44
-50.0
176
     1
173
     0
176
     1
1001
ACAD
1000
AcDbSavedByObjectVersion
1070
     0
  0
VISUALSTYLE
  5
41
102
{ACAD_XDICTIONARY
360
145
102
}
102
{ACAD_REACTORS
330
29
102
}
330
29
100
AcDbVisualStyle
  2
EdgeColorOff
 70
    22
177
     2
291
     1
 71
     2
176
     0
 72
     2
176
     0
 73
     0
176
     0
 90
        0
176
     0
 40
0.6
176
     0
 41
30.0
176
     0
 63
     7
421
 16777215
176
     0
 74
     1
176
     0
 91
        4
176
     0
 64
     7
176
     0
 65
   257
176
     0
 75
     1
176
     0
175
     1
176
     0
 42
1.0
176
     0
 92
        8
176
     2
 66
     7
176
     0
 43
1.0
176
     0
 76
     1
176
     0
 77
     6
176
     0
 78
     2
176
     0
 67
     7
176
     0
 79
     5
176
     0
170
     0
176
     0
171
     0
176
     0
290
     0
176
     0
 93
        1
176
     0
 44
0.0
176
     0
173
     0
176
     0
1001
ACAD
1000
AcDbSavedByObjectVersion
1070
     0
  0
VISUALSTYLE
  5
38
102
{ACAD_XDICTIONARY
360
133
102
}
102
{ACAD_REACTORS
330
29
102
}
330
29
100
AcDbVisualStyle
  2
Facepattern
 70
    15
177
     2
291
     1
 71
     2
176
     1
 72
     2
176
     1
 73
     0
176
     1
 90
        0
176
     1
 40
0.6
176
     1
 41
30.0
176
     1
 63
     7
421
 16777215
176
     1
 74
     1
176
     1
 91
        4
176
     1
 64
     7
176
     1
 65
   257
176
     1
 75
     1
176
     1
175
     1
176
     1
 42
1.0
176
     1
 92
        8
176
     1
 66
     7
176
     1
 43
1.0
176
     1
 76
     1
176
     1
 77
     6
176
     1
 78
     2
176
     1
 67
     7
176
     1
 79
     5
176
     1
170
     0
176
     1
171
     0
176
     1
290
     0
176
     1
 93
        1
176
     1
 44
0.0
176
     1
173
     0
176
     1
1001
ACAD
1000
AcDbSavedByObjectVersion
1070
     0
  0
VISUALSTYLE
  5
2A
102
{ACAD_XDICTIONARY
360
117
102
}
102
{ACAD_REACTORS
330
29
102
}
330
29
100
AcDbVisualStyle
  2
Flat
 70
     0
177
     2
291
     1
 71
     2
176
     1
 72
     1
176
     1
 73
     1
176
     1
 90
        2
176
     1
 40
0.6
176
     1
 41
30.0
176
     1
 63
     7
421
 16777215
176
     1
 74
     0
176
     1
 91
        0
176
     1
 64
     7
176
     1
 65
   257
176
     1
 75
     1
176
     1
175
     1
176
     1
 42
1.0
176
     1
 92
        8
176
     1
 66
     7
176
     1
 43
1.0
176
     1
 76
     1
176
     1
 77
     6
176
     1
 78
     2
176
     1
 67
     7
176
     1
 79
     5
176
     1
170
     0
176
     1
171
     0
176
     1
290
     0
176
     1
 93
       13
176
     1
 44
0.0
176
     1
173
     0
176
     1
1001
ACAD
1000
AcDbSavedByObjectVersion
1070
     0
  0
VISUALSTYLE
  5
2B
102
{ACAD_XDICTIONARY
360
119
102
}
102
{ACAD_REACTORS
330
29
102
}
330
29
100
AcDbVisualStyle
  2
FlatWithEdges
 70
     1
177
     2
291
     1
 71
     2
176
     1
 72
     1
176
     1
 73
     1
176
     1
 90
        2
176
     1
 40
0.6
176
     1
 41
30.0
176
     1
 63
     7
421
 16777215
176
     1
 74
     1
176
     1
 91
        0
176
     1
 64
     7
176
     1
 65
   257
176
     1
 75
     1
176
     1
175
     1
176
     1
 42
1.0
176
     1
 92
        0
176
     1
 66
   257
176
     1
 43
1.0
176
     1
 76
     1
176
     1
 77
     6
176
     1
 78
     2
176
     1
 67
     7
176
     1
 79
     5
176
     1
170
     0
176
     1
171
     0
176
     1
290
     0
176
     1
 93
       13
176
     1
 44
0.0
176
     1
173
     0
176
     1
1001
ACAD
1000
AcDbSavedByObjectVersion
1070
     0
  0
VISUALSTYLE
  5
2C
102
{ACAD_XDICTIONARY
360
11B
102
}
102
{ACAD_REACTORS
330
29
102
}
330
29
100
AcDbVisualStyle
  2
Gouraud
 70
     2
177
     2
291
     1
 71
     2
176
     1
 72
     2
176
     1
 73
     1
176
     1
 90
        2
176
     1
 40
0.6
176
     1
 41
30.0
176
     1
 63
     7
421
 16777215
176
     1
 74
     0
176
     1
 91
        0
176
     1
 64
     7
176
     1
 65
   257
176
     1
 75
     1
176
     1
175
     1
176
     1
 42
1.0
176
     1
 92
        0
176
     1
 66
     7
176
     1
 43
1.0
176
     1
 76
     1
176
     1
 77
     6
176
     1
 78
     2
176
     1
 67
     7
176
     1
 79
     5
176
     1
170
     0
176
     1
171
     0
176
     1
290
     0
176
     1
 93
       13
176
     1
 44
0.0
176
     1
173
     0
176
     1
1001
ACAD
1000
AcDbSavedByObjectVersion
1070
     0
  0
VISUALSTYLE
  5
2D
102
{ACAD_XDICTIONARY
360
11D
102
}
102
{ACAD_REACTORS
330
29
102
}
330
29
100
AcDbVisualStyle
  2
GouraudWithEdges
 70
     3
177
     2
291
     1
 71
     2
176
     1
 72
     2
176
     1
 73
     1
176
     1
 90
        2
176
     1
 40
0.6
176
     1
 41
30.0
176
     1
 63
     7
421
 16777215
176
     1
 74
     1
176
     1
 91
        0
176
     1
 64
     7
176
     1
 65
   257
176
     1
 75
     1
176
     1
175
     1
176
     1
 42
1.0
176
     1
 92
        0
176
     1
 66
   257
176
     1
 43
1.0
176
     1
 76
     1
176
     1
 77
     6
176
     1
 78
     2
176
     1
 67
     7
176
     1
 79
     5
176
     1
170
     0
176
     1
171
     0
176
     1
290
     0
176
     1
 93
       13
176
     1
 44
0.0
176
     1
173
     0
176
     1
1001
ACAD
1000
AcDbSavedByObjectVersion
1070
     0
  0
VISUALSTYLE
  5
31
102
{ACAD_XDICTIONARY
360
125
102
}
102
{ACAD_REACTORS
330
29
102
}
330
29
100
AcDbVisualStyle
  2
Hidden
 70
     6
177
     2
291
     0
 71
     1
176
     1
 72
     2
176
     1
 73
     2
176
     1
 90
        0
176
     1
 40
0.6
176
     1
 41
30.0
176
     1
 63
     7
421
 16777215
176
     1
 74
     2
176
     1
 91
        2
176
     1
 64
     7
176
     1
 65
   257
176
     1
 75
     2
176
     1
175
     1
176
     1
 42
40.0
176
     1
 92
        0
176
     1
 66
   257
176
     1
 43
1.0
176
     1
 76
     1
176
     1
 77
     6
176
     1
 78
     2
176
     1
 67
     7
176
     1
 79
     3
176
     1
170
     0
176
     1
171
     0
176
     1
290
     0
176
     1
 93
        1
176
     1
 44
0.0
176
     1
173
     0
176
     1
1001
ACAD
1000
AcDbSavedByObjectVersion
1070
     0
  0
VISUALSTYLE
  5
3F
102
{ACAD_XDICTIONARY
360
141
102
}
102
{ACAD_REACTORS
330
29
102
}
330
29
100
AcDbVisualStyle
  2
JitterOff
 70
    20
177
     2
291
     1
 71
     2
176
     0
 72
     2
176
     0
 73
     0
176
     0
 90
        0
176
     0
 40
0.6
176
     0
 41
30.0
176
     0
 63
     7
421
 16777215
176
     0
 74
     1
176
     0
 91
        4
176
     0
 64
     7
176
     0
 65
   257
176
     0
 75
     1
176
     0
175
     1
176
     0
 42
1.0
176
     0
 92
       10
176
     2
 66
     7
176
     0
 43
1.0
176
     0
 76
     1
176
     0
 77
     6
176
     0
 78
     2
176
     0
 67
     7
176
     0
 79
     5
176
     0
170
     0
176
     0
171
     0
176
     0
290
     0
176
     0
 93
        1
176
     0
 44
0.0
176
     0
173
     0
176
     0
1001
ACAD
1000
AcDbSavedByObjectVersion
1070
     0
  0
VISUALSTYLE
  5
37
102
{ACAD_XDICTIONARY
360
131
102
}
102
{ACAD_REACTORS
330
29
102
}
330
29
100
AcDbVisualStyle
  2
Linepattern
 70
    14
177
     2
291
     1
 71
     2
176
     1
 72
     2
176
     1
 73
     0
176
     1
 90
        0
176
     1
 40
0.6
176
     1
 41
30.0
176
     1
 63
     7
421
 16777215
176
     1
 74
     1
176
     1
 91
        4
176
     1
 64
     7
176
     1
 65
   257
176
     1
 75
     7
176
     1
175
     7
176
     1
 42
1.0
176
     1
 92
        8
176
     1
 66
     7
176
     1
 43
1.0
176
     1
 76
     1
176
     1
 77
     6
176
     1
 78
     2
176
     1
 67
     7
176
     1
 79
     5
176
     1
170
     0
176
     1
171
     0
176
     1
290
     0
176
     1
 93
        1
176
     1
 44
0.0
176
     1
173
     0
176
     1
1001
ACAD
1000
AcDbSavedByObjectVersion
1070
     0
  0
VISUALSTYLE
  5
40
102
{ACAD_XDICTIONARY
360
143
102
}
102
{ACAD_REACTORS
330
29
102
}
330
29
100
AcDbVisualStyle
  2
OverhangOff
 70
    21
177
     2
291
     1
 71
     2
176
     0
 72
     2
176
     0
 73
     0
176
     0
 90
        0
176
     0
 40
0.6
176
     0
 41
30.0
176
     0
 63
     7
421
 16777215
176
     0
 74
     1
176
     0
 91
        4
176
     0
 64
     7
176
     0
 65
   257
176
     0
 75
     1
176
     0
175
     1
176
     0
 42
1.0
176
     0
 92
        9
176
     2
 66
     7
176
     0
 43
1.0
176
     0
 76
     1
176
     0
 77
     6
176
     0
 78
     2
176
     0
 67
     7
176
     0
 79
     5
176
     0
170
     0
176
     0
171
     0
176
     0
290
     0
176
     0
 93
        1
176
     0
 44
0.0
176
     0
173
     0
176
     0
1001
ACAD
1000
AcDbSavedByObjectVersion
1070
     0
  0
VISUALSTYLE
  5
33
102
{ACAD_XDICTIONARY
360
129
102
}
102
{ACAD_REACTORS
330
29
102
}
330
29
100
AcDbVisualStyle
  2
Realistic
 70
     8
177
     2
291
     0
 71
     2
176
     1
 72
     3
176
     1
 73
     0
176
     1
 90
        2
176
     1
 40
0.6
176
     1
 41
30.0
176
     1
 63
     7
421
 16777215
176
     1
 74
     0
176
     1
 91
        0
176
     1
 64
     7
176
     1
 65
   257
176
     1
 75
     1
176
     1
175
     1
176
     1
 42
1.0
176
     1
 92
        8
176
     1
 66
   257
176
     1
 43
1.0
176
     1
 76
     1
176
     1
 77
     6
176
     1
 78
     2
176
     1
 67
     7
176
     1
 79
     3
176
     1
170
     0
176
     1
171
     0
176
     1
290
     0
176
     1
 93
       13
176
     1
 44
0.0
176
     1
173
     0
176
     1
1001
ACAD
1000
AcDbSavedByObjectVersion
1070
     0
  0
VISUALSTYLE
  5
3E
102
{ACAD_XDICTIONARY
360
13F
102
}
102
{ACAD_REACTORS
330
29
102
}
330
29
100
AcDbVisualStyle
  2
Shaded
 70
    27
177
     2
291
     0
 71
     2
176
     1
 72
     2
176
     1
 73
     1
176
     1
 90
        2
176
     1
 40
0.6
176
     1
 41
30.0
176
     1
 63
     7
421
 16777215
176
     1
 74
     0
176
     1
 91
        4
176
     1
 64
     7
176
     1
 65
   257
176
     1
 75
     1
176
     1
175
     1
176
     1
 42
1.0
176
     1
 92
        8
176
     1
 66
   257
176
     1
 43
1.0
176
     1
 76
     1
176
     1
 77
     6
176
     1
 78
     2
176
     1
 67
     8
425
  7895160
176
     1
 79
     3
176
     1
170
     0
176
     1
171
     0
176
     1
290
     0
176
     1
 93
        5
176
     1
 44
0.0
176
     1
173
     0
176
     1
1001
ACAD
1000
AcDbSavedByObjectVersion
1070
     0
  0
VISUALSTYLE
  5
3D
102
{ACAD_XDICTIONARY
360
13D
102
}
102
{ACAD_REACTORS
330
29
102
}
330
29
100
AcDbVisualStyle
  2
Shaded with edges
 70
    26
177
     2
291
     0
 71
     2
176
     1
 72
     2
176
     1
 73
     1
176
     1
 90
        2
176
     1
 40
0.6
176
     1
 41
30.0
176
     1
 63
     7
421
 16777215
176
     1
 74
     1
176
     1
 91
        2
176
     1
 64
     7
176
     1
 65
   257
176
     1
 75
     2
176
     1
175
     1
176
     1
 42
1.0
176
     1
 92
        8
176
     1
 66
   257
176
     1
 43
1.0
176
     1
 76
     1
176
     1
 77
     6
176
     1
 78
     2
176
     1
 67
     7
176
     1
 79
     3
176
     1
170
     0
176
     1
171
     0
176
     1
290
     0
176
     1
 93
        5
176
     1
 44
0.0
176
     1
173
     0
176
     1
1001
ACAD
1000
AcDbSavedByObjectVersion
1070
     0
  0
VISUALSTYLE
  5
3A
102
{ACAD_XDICTIONARY
360
137
102
}
102
{ACAD_REACTORS
330
29
102
}
330
29
100
AcDbVisualStyle
  2
Shades of Gray
 70
    23
177
     2
291
     0
 71
     2
176
     1
 72
     2
176
     1
 73
     3
176
     1
 90
        0
176
     1
 40
0.6
176
     1
 41
30.0
176
     1
 63
     7
421
 16777215
176
     1
 74
     2
176
     1
 91
        2
176
     1
 64
     7
176
     1
 65
     7
176
     1
 75
     1
176
     1
175
     1
176
     1
 42
40.0
176
     1
 92
        8
176
     1
 66
     7
176
     1
 43
1.0
176
     1
 76
     1
176
     1
 77
     6
176
     1
 78
     2
176
     1
 67
     7
176
     1
 79
     3
176
     1
170
     0
176
     1
171
     0
176
     1
290
     0
176
     1
 93
        1
176
     1
 44
0.0
176
     1
173
     0
176
     1
1001
ACAD
1000
AcDbSavedByObjectVersion
1070
     0
  0
VISUALSTYLE
  5
3B
102
{ACAD_XDICTIONARY
360
139
102
}
102
{ACAD_REACTORS
330
29
102
}
330
29
100
AcDbVisualStyle
  2
Sketchy
 70
    24
177
     2
291
     0
 71
     1
176
     1
 72
     2
176
     1
 73
     2
176
     1
 90
        0
176
     1
 40
0.6
176
     1
 41
30.0
176
     1
 63
     7
421
 16777215
176
     1
 74
     2
176
     1
 91
        2
176
     1
 64
     7
176
     1
 65
     7
176
     1
 75
     1
176
     1
175
     1
176
     1
 42
40.0
176
     1
 92
       11
176
     1
 66
     7
176
     1
 43
1.0
176
     1
 76
     1
176
     1
 77
     6
176
     1
 78
     2
176
     1
 67
     7
176
     1
 79
     6
176
     1
170
     0
176
     1
171
     0
176
     1
290
     0
176
     1
 93
        1
176
     1
 44
0.0
176
     1
173
     0
176
     1
1001
ACAD
1000
AcDbSavedByObjectVersion
1070
     0
  0
VISUALSTYLE
  5
36
102
{ACAD_XDICTIONARY
360
12F
102
}
102
{ACAD_REACTORS
330
29
102
}
330
29
100
AcDbVisualStyle
  2
Thicken
 70
    13
177
     2
291
     1
 71
     2
176
     1
 72
     2
176
     1
 73
     0
176
     1
 90
        0
176
     1
 40
0.6
176
     1
 41
30.0
176
     1
 63
     7
421
 16777215
176
     1
 74
     1
176
     1
 91
        4
176
     1
 64
     7
176
     1
 65
   257
176
     1
 75
     1
176
     1
175
     1
176
     1
 42
1.0
176
     1
 92
       12
176
     1
 66
     7
176
     1
 43
1.0
176
     1
 76
     1
176
     1
 77
     6
176
     1
 78
     2
176
     1
 67
     7
176
     1
 79
     5
176
     1
170
     0
176
     1
171
     0
176
     1
290
     0
176
     1
 93
        1
176
     1
 44
0.0
176
     1
173
     0
176
     1
1001
ACAD
1000
AcDbSavedByObjectVersion
1070
     0
  0
VISUALSTYLE
  5
30
102
{ACAD_XDICTIONARY
360
123
102
}
102
{ACAD_REACTORS
330
29
102
}
330
29
100
AcDbVisualStyle
  2
Wireframe
 70
     5
177
     2
291
     0
 71
     0
176
     1
 72
     2
176
     1
 73
     0
176
     1
 90
        0
176
     1
 40
0.6
176
     1
 41
30.0
176
     1
 63
     7
421
 16777215
176
     1
 74
     1
176
     1
 91
        4
176
     1
 64
     7
176
     1
 65
   257
176
     1
 75
     1
176
     1
175
     1
176
     1
 42
1.0
176
     1
 92
        0
176
     1
 66
   257
176
     1
 43
1.0
176
     1
 76
     1
176
     1
 77
     6
176
     1
 78
     2
176
     1
 67
     7
176
     1
 79
     3
176
     1
170
     0
176
     1
171
     0
176
     1
290
     0
176
     1
 93
        1
176
     1
 44
0.0
176
     1
173
     0
176
     1
1001
ACAD
1000
AcDbSavedByObjectVersion
1070
     0
  0
VISUALSTYLE
  5
3C
102
{ACAD_XDICTIONARY
360
13B
102
}
102
{ACAD_REACTORS
330
29
102
}
330
29
100
AcDbVisualStyle
  2
X-Ray
 70
    25
177
     2
291
     0
 71
     2
176
     1
 72
     2
176
     1
 73
     1
176
     1
 90
        1
176
     1
 40
0.5
176
     1
 41
30.0
176
     1
 63
     7
421
 16777215
176
     1
 74
     1
176
     1
 91
        0
176
     1
 64
     7
176
     1
 65
   257
176
     1
 75
     1
176
     1
175
     1
176
     1
 42
1.0
176
     1
 92
        8
176
     1
 66
     7
176
     1
 43
1.0
176
     1
 76
     1
176
     1
 77
     6
176
     1
 78
     2
176
     1
 67
     7
176
     1
 79
     3
176
     1
170
     0
176
     1
171
     0
176
     1
290
     0
176
     1
 93
       13
176
     1
 44
0.0
176
     1
173
     0
176
     1
1001
ACAD
1000
AcDbSavedByObjectVersion
1070
     0
  0
DICTIONARYVAR
  5
113
102
{ACAD_REACTORS
330
10E
102
}
330
10E
100
DictionaryVariables
280
     0
  1
1:1
  0
DICTIONARYVAR
  5
110
102
{ACAD_REACTORS
330
10E
102
}
330
10E
100
DictionaryVariables
280
     0
  1
STANDARD
  0
DICTIONARYVAR
  5
10F
102
{ACAD_REACTORS
330
10E
102
}
330
10E
100
DictionaryVariables
280
     0
  1
STANDARD
  0
DICTIONARYVAR
  5
111
102
{ACAD_REACTORS
330
10E
102
}
330
10E
100
DictionaryVariables
280
     0
  1
Imperial24
  0
DICTIONARYVAR
  5
112
102
{ACAD_REACTORS
330
10E
102
}
330
10E
100
DictionaryVariables
280
     0
  1
Imperial24
  0
DICTIONARY
  5
14B
330
6B
100
AcDbDictionary
280
     1
281
     1
  3
ACAD_XREC_ROUNDTRIP
360
14C
  0
DICTIONARY
  5
1A
330
19
100
AcDbDictionary
280
     1
281
     1
  3
BUMPTILE
360
1C
  3
DIFFUSETILE
360
1B
  3
OPACITYTILE
360
1F
  3
REFLECTIONTILE
360
1E
  3
REFRACTIONTILE
360
20
  3
SPECULARTILE
360
1D
  0
DICTIONARY
  5
12
330
11
100
AcDbDictionary
280
     1
281
     1
  3
BUMPTILE
360
14
  3
DIFFUSETILE
360
13
  3
OPACITYTILE
360
17
  3
REFLECTIONTILE
360
16
  3
REFRACTIONTILE
360
18
  3
SPECULARTILE
360
15
  0
DICTIONARY
  5
22
330
21
100
AcDbDictionary
280
     1
281
     1
  3
BUMPTILE
360
24
  3
DIFFUSETILE
360
23
  3
OPACITYTILE
360
27
  3
REFLECTIONTILE
360
26
  3
REFRACTIONTILE
360
28
  3
SPECULARTILE
360
25
  0
DICTIONARY
  5
147
330
67
100
AcDbDictionary
280
     1
281
     1
  3
ACAD_XREC_ROUNDTRIP
360
148
  0
DICTIONARY
  5
149
330
69
100
AcDbDictionary
280
     1
281
     1
  3
ACAD_XREC_ROUNDTRIP
360
14A
  0
DICTIONARY
  5
114
330
65
100
AcDbDictionary
280
     1
281
     1
  3
ACAD_ROUNDTRIP_2008_TABLESTYLE_CELLSTYLEMAP
360
115
  0
DICTIONARY
  5
121
330
2F
100
AcDbDictionary
280
     1
281
     1
  3
ACAD_XREC_ROUNDTRIP
360
122
  0
DICTIONARY
  5
11F
330
2E
100
AcDbDictionary
280
     1
281
     1
  3
ACAD_XREC_ROUNDTRIP
360
120
  0
DICTIONARY
  5
12D
330
35
100
AcDbDictionary
280
     1
281
     1
  3
ACAD_XREC_ROUNDTRIP
360
12E
  0
DICTIONARY
  5
135
330
39
100
AcDbDictionary
280
     1
281
     1
  3
ACAD_XREC_ROUNDTRIP
360
136
  0
DICTIONARY
  5
127
330
32
100
AcDbDictionary
280
     1
281
     1
  3
ACAD_XREC_ROUNDTRIP
360
128
  0
DICTIONARY
  5
12B
330
34
100
AcDbDictionary
280
     1
281
     1
  3
ACAD_XREC_ROUNDTRIP
360
12C
  0
DICTIONARY
  5
145
330
41
100
AcDbDictionary
280
     1
281
     1
  3
ACAD_XREC_ROUNDTRIP
360
146
  0
DICTIONARY
  5
133
330
38
100
AcDbDictionary
280
     1
281
     1
  3
ACAD_XREC_ROUNDTRIP
360
134
  0
DICTIONARY
  5
117
330
2A
100
AcDbDictionary
280
     1
281
     1
  3
ACAD_XREC_ROUNDTRIP
360
118
  0
DICTIONARY
  5
119
330
2B
100
AcDbDictionary
280
     1
281
     1
  3
ACAD_XREC_ROUNDTRIP
360
11A
  0
DICTIONARY
  5
11B
330
2C
100
AcDbDictionary
280
     1
281
     1
  3
ACAD_XREC_ROUNDTRIP
360
11C
  0
DICTIONARY
  5
11D
330
2D
100
AcDbDictionary
280
     1
281
     1
  3
ACAD_XREC_ROUNDTRIP
360
11E
  0
DICTIONARY
  5
125
330
31
100
AcDbDictionary
280
     1
281
     1
  3
ACAD_XREC_ROUNDTRIP
360
126
  0
DICTIONARY
  5
141
330
3F
100
AcDbDictionary
280
     1
281
     1
  3
ACAD_XREC_ROUNDTRIP
360
142
  0
DICTIONARY
  5
131
330
37
100
AcDbDictionary
280
     1
281
     1
  3
ACAD_XREC_ROUNDTRIP
360
132
  0
DICTIONARY
  5
143
330
40
100
AcDbDictionary
280
     1
281
     1
  3
ACAD_XREC_ROUNDTRIP
360
144
  0
DICTIONARY
  5
129
330
33
100
AcDbDictionary
280
     1
281
     1
  3
ACAD_XREC_ROUNDTRIP
360
12A
  0
DICTIONARY
  5
13F
330
3E
100
AcDbDictionary
280
     1
281
     1
  3
ACAD_XREC_ROUNDTRIP
360
140
  0
DICTIONARY
  5
13D
330
3D
100
AcDbDictionary
280
     1
281
     1
  3
ACAD_XREC_ROUNDTRIP
360
13E
  0
DICTIONARY
  5
137
330
3A
100
AcDbDictionary
280
     1
281
     1
  3
ACAD_XREC_ROUNDTRIP
360
138
  0
DICTIONARY
  5
139
330
3B
100
AcDbDictionary
280
     1
281
     1
  3
ACAD_XREC_ROUNDTRIP
360
13A
  0
DICTIONARY
  5
12F
330
36
100
AcDbDictionary
280
     1
281
     1
  3
ACAD_XREC_ROUNDTRIP
360
130
  0
DICTIONARY
  5
123
330
30
100
AcDbDictionary
280
     1
281
     1
  3
ACAD_XREC_ROUNDTRIP
360
124
  0
DICTIONARY
  5
13B
330
3C
100
AcDbDictionary
280
     1
281
     1
  3
ACAD_XREC_ROUNDTRIP
360
13C
  0
XRECORD
  5
14C
102
{ACAD_REACTORS
330
14B
102
}
330
14B
100
AcDbXrecord
280
     1
102
DISPLAYNAME
  1
Imperial24
102
FLAGS
 90
        0
  0
XRECORD
  5
1C
102
{ACAD_REACTORS
330
1A
102
}
330
1A
100
AcDbXrecord
280
     1
270
     1
271
     1
  0
XRECORD
  5
1B
102
{ACAD_REACTORS
330
1A
102
}
330
1A
100
AcDbXrecord
280
     1
270
     1
271
     1
  0
XRECORD
  5
1F
102
{ACAD_REACTORS
330
1A
102
}
330
1A
100
AcDbXrecord
280
     1
270
     1
271
     1
  0
XRECORD
  5
1E
102
{ACAD_REACTORS
330
1A
102
}
330
1A
100
AcDbXrecord
280
     1
270
     1
271
     1
  0
XRECORD
  5
20
102
{ACAD_REACTORS
330
1A
102
}
330
1A
100
AcDbXrecord
280
     1
270
     1
271
     1
  0
XRECORD
  5
1D
102
{ACAD_REACTORS
330
1A
102
}
330
1A
100
AcDbXrecord
280
     1
270
     1
271
     1
  0
XRECORD
  5
14
102
{ACAD_REACTORS
330
12
102
}
330
12
100
AcDbXrecord
280
     1
270
     1
271
     1
  0
XRECORD
  5
13
102
{ACAD_REACTORS
330
12
102
}
330
12
100
AcDbXrecord
280
     1
270
     1
271
     1
  0
XRECORD
  5
17
102
{ACAD_REACTORS
330
12
102
}
330
12
100
AcDbXrecord
280
     1
270
     1
271
     1
  0
XRECORD
  5
16
102
{ACAD_REACTORS
330
12
102
}
330
12
100
AcDbXrecord
280
     1
270
     1
271
     1
  0
XRECORD
  5
18
102
{ACAD_REACTORS
330
12
102
}
330
12
100
AcDbXrecord
280
     1
270
     1
271
     1
  0
XRECORD
  5
15
102
{ACAD_REACTORS
330
12
102
}
330
12
100
AcDbXrecord
280
     1
270
     1
271
     1
  0
XRECORD
  5
24
102
{ACAD_REACTORS
330
22
102
}
330
22
100
AcDbXrecord
280
     1
270
     1
271
     1
  0
XRECORD
  5
23
102
{ACAD_REACTORS
330
22
102
}
330
22
100
AcDbXrecord
280
     1
270
     1
271
     1
  0
XRECORD
  5
27
102
{ACAD_REACTORS
330
22
102
}
330
22
100
AcDbXrecord
280
     1
270
     1
271
     1
  0
XRECORD
  5
26
102
{ACAD_REACTORS
330
22
102
}
330
22
100
AcDbXrecord
280
     1
270
     1
271
     1
  0
XRECORD
  5
28
102
{ACAD_REACTORS
330
22
102
}
330
22
100
AcDbXrecord
280
     1
270
     1
271
     1
  0
XRECORD
  5
25
102
{ACAD_REACTORS
330
22
102
}
330
22
100
AcDbXrecord
280
     1
270
     1
271
     1
  0
XRECORD
  5
148
102
{ACAD_REACTORS
330
147
102
}
330
147
100
AcDbXrecord
280
     1
102
ACAD_ROUNDTRIP_2012_MLEADER_STYLE
298
     1
  0
XRECORD
  5
14A
102
{ACAD_REACTORS
330
149
102
}
330
149
100
AcDbXrecord
280
     1
102
DISPLAYNAME
  1
Imperial24
102
FLAGS
 90
        0
  0
CELLSTYLEMAP
  5
115
102
{ACAD_REACTORS
330
114
102
}
330
114
100
AcDbCellStyleMap
 90
        3
300
CELLSTYLE
  1
TABLEFORMAT_BEGIN
 90
        5
170
     1
 91
        0
 92
    32768
 62
   257
 93
        1
300
CONTENTFORMAT
  1
CONTENTFORMAT_BEGIN
 90
        0
 91
        0
 92
      512
 93
        0
300

 40
0.0
140
1.0
 94
        5
 62
     0
340
55
144
0.25
309
CONTENTFORMAT_END
171
     0
 94
        0
309
TABLEFORMAT_END
  1
CELLSTYLE_BEGIN
 90
        1
 91
        1
300
_TITLE
309
CELLSTYLE_END
300
CELLSTYLE
  1
TABLEFORMAT_BEGIN
 90
        5
170
     1
 91
        0
 92
        0
 62
   257
 93
        1
300
CONTENTFORMAT
  1
CONTENTFORMAT_BEGIN
 90
        0
 91
        0
 92
      512
 93
        0
300

 40
0.0
140
1.0
 94
        5
 62
     0
340
55
144
0.18
309
CONTENTFORMAT_END
171
     0
 94
        0
309
TABLEFORMAT_END
  1
CELLSTYLE_BEGIN
 90
        2
 91
        1
300
_HEADER
309
CELLSTYLE_END
300
CELLSTYLE
  1
TABLEFORMAT_BEGIN
 90
        5
170
     1
 91
        0
 92
        0
 62
   257
 93
        1
300
CONTENTFORMAT
  1
CONTENTFORMAT_BEGIN
 90
        0
 91
        0
 92
      512
 93
        0
300

 40
0.0
140
1.0
 94
        2
 62
     0
340
55
144
0.18
309
CONTENTFORMAT_END
171
     0
 94
        0
309
TABLEFORMAT_END
  1
CELLSTYLE_BEGIN
 90
        3
 91
        2
300
_DATA
309
CELLSTYLE_END
  0
XRECORD
  5
122
102
{ACAD_REACTORS
330
121
102
}
330
121
100
AcDbXrecord
280
     1
102
RTVSPost2010Prop28
280
     1
102
RTVSPost2010PropOp28
 70
     1
102
RTVSPost2010Prop29
280
     1
102
RTVSPost2010PropOp29
 70
     1
102
RTVSPost2010Prop30
280
     0
102
RTVSPost2010PropOp30
 70
     1
102
RTVSPost2010Prop31
280
     0
102
RTVSPost2010PropOp31
 70
     1
102
RTVSPost2010Prop32
280
     0
102
RTVSPost2010PropOp32
 70
     1
102
RTVSPost2010Prop33
280
     0
102
RTVSPost2010PropOp33
 70
     1
102
RTVSPost2010Prop34
280
     0
102
RTVSPost2010PropOp34
 70
     1
102
RTVSPost2010Prop35
280
     0
102
RTVSPost2010PropOp35
 70
     1
102
RTVSPost2010Prop36
280
     0
102
RTVSPost2010PropOp36
 70
     1
102
RTVSPost2010Prop37
 90
       50
102
RTVSPost2010PropOp37
 70
     1
102
RTVSPost2010Prop38
140
0.0
102
RTVSPost2010PropOp38
 70
     1
102
RTVSPost2010Prop39
140
1.0
102
RTVSPost2010PropOp39
 70
     1
102
RTVSPost2010Prop40
 90
        0
102
RTVSPost2010PropOp40
 70
     1
102
RTVSPost2010Prop41ColorIndex
 90
       18
102
RTVSPost2010Prop41ColorRGB
 90
        0
102
RTVSPost2010PropOp41
 70
     1
102
RTVSPost2010Prop42
 90
       50
102
RTVSPost2010PropOp42
 70
     1
102
RTVSPost2010Prop43
 90
        3
102
RTVSPost2010PropOp43
 70
     1
102
RTVSPost2010Prop44ColorIndex
 90
        5
102
RTVSPost2010Prop44ColorRGB
 90
      255
102
RTVSPost2010PropOp44
 70
     1
102
RTVSPost2010Prop45
280
     0
102
RTVSPost2010PropOp45
 70
     1
102
RTVSPost2010Prop46
 90
       50
102
RTVSPost2010PropOp46
 70
     1
102
RTVSPost2010Prop47
 90
       50
102
RTVSPost2010PropOp47
 70
     1
102
RTVSPost2010Prop48
 90
       50
102
RTVSPost2010PropOp48
 70
     1
102
RTVSPost2010Prop49
280
     0
102
RTVSPost2010PropOp49
 70
     1
102
RTVSPost2010Prop50
 90
       50
102
RTVSPost2010PropOp50
 70
     1
102
RTVSPost2010Prop51ColorIndex
 90
      256
102
RTVSPost2010Prop51ColorRGB
 90
-16777216
102
RTVSPost2010PropOp51
 70
     0
102
RTVSPost2010Prop52
140
1.0
102
RTVSPost2010PropOp52
 70
     0
102
RTVSPost2010Prop53
 90
        2
102
RTVSPost2010PropOp53
 70
     1
102
RTVSPost2010Prop54
  1
strokes_ogs.tif
102
RTVSPost2010PropOp54
 70
     1
102
RTVSPost2010Prop55
280
     0
102
RTVSPost2010PropOp55
 70
     1
102
RTVSPost2010Prop56
140
1.0
102
RTVSPost2010PropOp56
 70
     1
102
RTVSPost2010Prop57
140
1.0
102
RTVSPost2010PropOp57
 70
     1
  0
XRECORD
  5
120
102
{ACAD_REACTORS
330
11F
102
}
330
11F
100
AcDbXrecord
280
     1
102
RTVSPost2010Prop28
280
     0
102
RTVSPost2010PropOp28
 70
     1
102
RTVSPost2010Prop29
280
     1
102
RTVSPost2010PropOp29
 70
     1
102
RTVSPost2010Prop30
280
     1
102
RTVSPost2010PropOp30
 70
     1
102
RTVSPost2010Prop31
280
     0
102
RTVSPost2010PropOp31
 70
     1
102
RTVSPost2010Prop32
280
     0
102
RTVSPost2010PropOp32
 70
     1
102
RTVSPost2010Prop33
280
     0
102
RTVSPost2010PropOp33
 70
     1
102
RTVSPost2010Prop34
280
     0
102
RTVSPost2010PropOp34
 70
     1
102
RTVSPost2010Prop35
280
     0
102
RTVSPost2010PropOp35
 70
     1
102
RTVSPost2010Prop36
280
     0
102
RTVSPost2010PropOp36
 70
     1
102
RTVSPost2010Prop37
 90
       50
102
RTVSPost2010PropOp37
 70
     1
102
RTVSPost2010Prop38
140
0.0
102
RTVSPost2010PropOp38
 70
     1
102
RTVSPost2010Prop39
140
1.0
102
RTVSPost2010PropOp39
 70
     1
102
RTVSPost2010Prop40
 90
        0
102
RTVSPost2010PropOp40
 70
     1
102
RTVSPost2010Prop41ColorIndex
 90
       18
102
RTVSPost2010Prop41ColorRGB
 90
        0
102
RTVSPost2010PropOp41
 70
     1
102
RTVSPost2010Prop42
 90
       50
102
RTVSPost2010PropOp42
 70
     1
102
RTVSPost2010Prop43
 90
        3
102
RTVSPost2010PropOp43
 70
     1
102
RTVSPost2010Prop44ColorIndex
 90
        5
102
RTVSPost2010Prop44ColorRGB
 90
      255
102
RTVSPost2010PropOp44
 70
     1
102
RTVSPost2010Prop45
280
     0
102
RTVSPost2010PropOp45
 70
     1
102
RTVSPost2010Prop46
 90
       50
102
RTVSPost2010PropOp46
 70
     1
102
RTVSPost2010Prop47
 90
       50
102
RTVSPost2010PropOp47
 70
     1
102
RTVSPost2010Prop48
 90
       50
102
RTVSPost2010PropOp48
 70
     1
102
RTVSPost2010Prop49
280
     0
102
RTVSPost2010PropOp49
 70
     1
102
RTVSPost2010Prop50
 90
       50
102
RTVSPost2010PropOp50
 70
     1
102
RTVSPost2010Prop51ColorIndex
 90
      256
102
RTVSPost2010Prop51ColorRGB
 90
-16777216
102
RTVSPost2010PropOp51
 70
     0
102
RTVSPost2010Prop52
140
1.0
102
RTVSPost2010PropOp52
 70
     0
102
RTVSPost2010Prop53
 90
        2
102
RTVSPost2010PropOp53
 70
     1
102
RTVSPost2010Prop54
  1
strokes_ogs.tif
102
RTVSPost2010PropOp54
 70
     1
102
RTVSPost2010Prop55
280
     0
102
RTVSPost2010PropOp55
 70
     1
102
RTVSPost2010Prop56
140
1.0
102
RTVSPost2010PropOp56
 70
     1
102
RTVSPost2010Prop57
140
1.0
102
RTVSPost2010PropOp57
 70
     1
  0
XRECORD
  5
12E
102
{ACAD_REACTORS
330
12D
102
}
330
12D
100
AcDbXrecord
280
     1
102
RTVSPost2010Prop28
280
     0
102
RTVSPost2010PropOp28
 70
     1
102
RTVSPost2010Prop29
280
     1
102
RTVSPost2010PropOp29
 70
     1
102
RTVSPost2010Prop30
280
     1
102
RTVSPost2010PropOp30
 70
     1
102
RTVSPost2010Prop31
280
     0
102
RTVSPost2010PropOp31
 70
     1
102
RTVSPost2010Prop32
280
     0
102
RTVSPost2010PropOp32
 70
     1
102
RTVSPost2010Prop33
280
     0
102
RTVSPost2010PropOp33
 70
     1
102
RTVSPost2010Prop34
280
     0
102
RTVSPost2010PropOp34
 70
     1
102
RTVSPost2010Prop35
280
     0
102
RTVSPost2010PropOp35
 70
     1
102
RTVSPost2010Prop36
280
     0
102
RTVSPost2010PropOp36
 70
     1
102
RTVSPost2010Prop37
 90
       50
102
RTVSPost2010PropOp37
 70
     1
102
RTVSPost2010Prop38
140
0.0
102
RTVSPost2010PropOp38
 70
     1
102
RTVSPost2010Prop39
140
1.0
102
RTVSPost2010PropOp39
 70
     1
102
RTVSPost2010Prop40
 90
        0
102
RTVSPost2010PropOp40
 70
     1
102
RTVSPost2010Prop41ColorIndex
 90
       18
102
RTVSPost2010Prop41ColorRGB
 90
        0
102
RTVSPost2010PropOp41
 70
     1
102
RTVSPost2010Prop42
 90
       50
102
RTVSPost2010PropOp42
 70
     1
102
RTVSPost2010Prop43
 90
        3
102
RTVSPost2010PropOp43
 70
     1
102
RTVSPost2010Prop44ColorIndex
 90
        5
102
RTVSPost2010Prop44ColorRGB
 90
      255
102
RTVSPost2010PropOp44
 70
     1
102
RTVSPost2010Prop45
280
     0
102
RTVSPost2010PropOp45
 70
     1
102
RTVSPost2010Prop46
 90
       50
102
RTVSPost2010PropOp46
 70
     1
102
RTVSPost2010Prop47
 90
       50
102
RTVSPost2010PropOp47
 70
     1
102
RTVSPost2010Prop48
 90
       50
102
RTVSPost2010PropOp48
 70
     1
102
RTVSPost2010Prop49
280
     0
102
RTVSPost2010PropOp49
 70
     1
102
RTVSPost2010Prop50
 90
       50
102
RTVSPost2010PropOp50
 70
     1
102
RTVSPost2010Prop51ColorIndex
 90
      256
102
RTVSPost2010Prop51ColorRGB
 90
-16777216
102
RTVSPost2010PropOp51
 70
     0
102
RTVSPost2010Prop52
140
1.0
102
RTVSPost2010PropOp52
 70
     0
102
RTVSPost2010Prop53
 90
        2
102
RTVSPost2010PropOp53
 70
     1
102
RTVSPost2010Prop54
  1
strokes_ogs.tif
102
RTVSPost2010PropOp54
 70
     1
102
RTVSPost2010Prop55
280
     0
102
RTVSPost2010PropOp55
 70
     1
102
RTVSPost2010Prop56
140
1.0
102
RTVSPost2010PropOp56
 70
     1
102
RTVSPost2010Prop57
140
1.0
102
RTVSPost2010PropOp57
 70
     1
  0
XRECORD
  5
136
102
{ACAD_REACTORS
330
135
102
}
330
135
100
AcDbXrecord
280
     1
102
RTVSPost2010Prop28
280
     0
102
RTVSPost2010PropOp28
 70
     1
102
RTVSPost2010Prop29
280
     1
102
RTVSPost2010PropOp29
 70
     1
102
RTVSPost2010Prop30
280
     1
102
RTVSPost2010PropOp30
 70
     1
102
RTVSPost2010Prop31
280
     0
102
RTVSPost2010PropOp31
 70
     1
102
RTVSPost2010Prop32
280
     0
102
RTVSPost2010PropOp32
 70
     1
102
RTVSPost2010Prop33
280
     0
102
RTVSPost2010PropOp33
 70
     1
102
RTVSPost2010Prop34
280
     0
102
RTVSPost2010PropOp34
 70
     1
102
RTVSPost2010Prop35
280
     0
102
RTVSPost2010PropOp35
 70
     1
102
RTVSPost2010Prop36
280
     0
102
RTVSPost2010PropOp36
 70
     1
102
RTVSPost2010Prop37
 90
       50
102
RTVSPost2010PropOp37
 70
     1
102
RTVSPost2010Prop38
140
0.0
102
RTVSPost2010PropOp38
 70
     1
102
RTVSPost2010Prop39
140
1.0
102
RTVSPost2010PropOp39
 70
     1
102
RTVSPost2010Prop40
 90
        0
102
RTVSPost2010PropOp40
 70
     1
102
RTVSPost2010Prop41ColorIndex
 90
       18
102
RTVSPost2010Prop41ColorRGB
 90
        0
102
RTVSPost2010PropOp41
 70
     1
102
RTVSPost2010Prop42
 90
       50
102
RTVSPost2010PropOp42
 70
     1
102
RTVSPost2010Prop43
 90
        3
102
RTVSPost2010PropOp43
 70
     1
102
RTVSPost2010Prop44ColorIndex
 90
        5
102
RTVSPost2010Prop44ColorRGB
 90
      255
102
RTVSPost2010PropOp44
 70
     1
102
RTVSPost2010Prop45
280
     0
102
RTVSPost2010PropOp45
 70
     1
102
RTVSPost2010Prop46
 90
       50
102
RTVSPost2010PropOp46
 70
     1
102
RTVSPost2010Prop47
 90
       50
102
RTVSPost2010PropOp47
 70
     1
102
RTVSPost2010Prop48
 90
       50
102
RTVSPost2010PropOp48
 70
     1
102
RTVSPost2010Prop49
280
     0
102
RTVSPost2010PropOp49
 70
     1
102
RTVSPost2010Prop50
 90
       50
102
RTVSPost2010PropOp50
 70
     1
102
RTVSPost2010Prop51ColorIndex
 90
      256
102
RTVSPost2010Prop51ColorRGB
 90
-16777216
102
RTVSPost2010PropOp51
 70
     0
102
RTVSPost2010Prop52
140
1.0
102
RTVSPost2010PropOp52
 70
     0
102
RTVSPost2010Prop53
 90
        2
102
RTVSPost2010PropOp53
 70
     1
102
RTVSPost2010Prop54
  1
strokes_ogs.tif
102
RTVSPost2010PropOp54
 70
     1
102
RTVSPost2010Prop55
280
     0
102
RTVSPost2010PropOp55
 70
     1
102
RTVSPost2010Prop56
140
1.0
102
RTVSPost2010PropOp56
 70
     1
102
RTVSPost2010Prop57
140
1.0
102
RTVSPost2010PropOp57
 70
     1
  0
XRECORD
  5
128
102
{ACAD_REACTORS
330
127
102
}
330
127
100
AcDbXrecord
280
     1
102
RTVSPost2010Prop28
280
     0
102
RTVSPost2010PropOp28
 70
     1
102
RTVSPost2010Prop29
280
     1
102
RTVSPost2010PropOp29
 70
     1
102
RTVSPost2010Prop30
280
     1
102
RTVSPost2010PropOp30
 70
     1
102
RTVSPost2010Prop31
280
     0
102
RTVSPost2010PropOp31
 70
     1
102
RTVSPost2010Prop32
280
     0
102
RTVSPost2010PropOp32
 70
     1
102
RTVSPost2010Prop33
280
     0
102
RTVSPost2010PropOp33
 70
     1
102
RTVSPost2010Prop34
280
     0
102
RTVSPost2010PropOp34
 70
     1
102
RTVSPost2010Prop35
280
     0
102
RTVSPost2010PropOp35
 70
     1
102
RTVSPost2010Prop36
280
     0
102
RTVSPost2010PropOp36
 70
     1
102
RTVSPost2010Prop37
 90
       50
102
RTVSPost2010PropOp37
 70
     1
102
RTVSPost2010Prop38
140
0.0
102
RTVSPost2010PropOp38
 70
     1
102
RTVSPost2010Prop39
140
1.0
102
RTVSPost2010PropOp39
 70
     1
102
RTVSPost2010Prop40
 90
        0
102
RTVSPost2010PropOp40
 70
     1
102
RTVSPost2010Prop41ColorIndex
 90
       18
102
RTVSPost2010Prop41ColorRGB
 90
        0
102
RTVSPost2010PropOp41
 70
     1
102
RTVSPost2010Prop42
 90
       50
102
RTVSPost2010PropOp42
 70
     1
102
RTVSPost2010Prop43
 90
        3
102
RTVSPost2010PropOp43
 70
     1
102
RTVSPost2010Prop44ColorIndex
 90
        5
102
RTVSPost2010Prop44ColorRGB
 90
      255
102
RTVSPost2010PropOp44
 70
     1
102
RTVSPost2010Prop45
280
     0
102
RTVSPost2010PropOp45
 70
     1
102
RTVSPost2010Prop46
 90
       50
102
RTVSPost2010PropOp46
 70
     1
102
RTVSPost2010Prop47
 90
       50
102
RTVSPost2010PropOp47
 70
     1
102
RTVSPost2010Prop48
 90
       50
102
RTVSPost2010PropOp48
 70
     1
102
RTVSPost2010Prop49
280
     0
102
RTVSPost2010PropOp49
 70
     1
102
RTVSPost2010Prop50
 90
       50
102
RTVSPost2010PropOp50
 70
     1
102
RTVSPost2010Prop51ColorIndex
 90
      256
102
RTVSPost2010Prop51ColorRGB
 90
-16777216
102
RTVSPost2010PropOp51
 70
     0
102
RTVSPost2010Prop52
140
1.0
102
RTVSPost2010PropOp52
 70
     0
102
RTVSPost2010Prop53
 90
        2
102
RTVSPost2010PropOp53
 70
     1
102
RTVSPost2010Prop54
  1
strokes_ogs.tif
102
RTVSPost2010PropOp54
 70
     1
102
RTVSPost2010Prop55
280
     0
102
RTVSPost2010PropOp55
 70
     1
102
RTVSPost2010Prop56
140
1.0
102
RTVSPost2010PropOp56
 70
     1
102
RTVSPost2010Prop57
140
1.0
102
RTVSPost2010PropOp57
 70
     1
  0
XRECORD
  5
12C
102
{ACAD_REACTORS
330
12B
102
}
330
12B
100
AcDbXrecord
280
     1
102
RTVSPost2010Prop28
280
     0
102
RTVSPost2010PropOp28
 70
     1
102
RTVSPost2010Prop29
280
     1
102
RTVSPost2010PropOp29
 70
     1
102
RTVSPost2010Prop30
280
     1
102
RTVSPost2010PropOp30
 70
     1
102
RTVSPost2010Prop31
280
     0
102
RTVSPost2010PropOp31
 70
     1
102
RTVSPost2010Prop32
280
     0
102
RTVSPost2010PropOp32
 70
     1
102
RTVSPost2010Prop33
280
     0
102
RTVSPost2010PropOp33
 70
     1
102
RTVSPost2010Prop34
280
     0
102
RTVSPost2010PropOp34
 70
     1
102
RTVSPost2010Prop35
280
     0
102
RTVSPost2010PropOp35
 70
     1
102
RTVSPost2010Prop36
280
     0
102
RTVSPost2010PropOp36
 70
     1
102
RTVSPost2010Prop37
 90
       50
102
RTVSPost2010PropOp37
 70
     1
102
RTVSPost2010Prop38
140
0.0
102
RTVSPost2010PropOp38
 70
     1
102
RTVSPost2010Prop39
140
1.0
102
RTVSPost2010PropOp39
 70
     1
102
RTVSPost2010Prop40
 90
        0
102
RTVSPost2010PropOp40
 70
     1
102
RTVSPost2010Prop41ColorIndex
 90
       18
102
RTVSPost2010Prop41ColorRGB
 90
        0
102
RTVSPost2010PropOp41
 70
     1
102
RTVSPost2010Prop42
 90
       50
102
RTVSPost2010PropOp42
 70
     1
102
RTVSPost2010Prop43
 90
        3
102
RTVSPost2010PropOp43
 70
     1
102
RTVSPost2010Prop44ColorIndex
 90
        5
102
RTVSPost2010Prop44ColorRGB
 90
      255
102
RTVSPost2010PropOp44
 70
     1
102
RTVSPost2010Prop45
280
     0
102
RTVSPost2010PropOp45
 70
     1
102
RTVSPost2010Prop46
 90
       50
102
RTVSPost2010PropOp46
 70
     1
102
RTVSPost2010Prop47
 90
       50
102
RTVSPost2010PropOp47
 70
     1
102
RTVSPost2010Prop48
 90
       50
102
RTVSPost2010PropOp48
 70
     1
102
RTVSPost2010Prop49
280
     0
102
RTVSPost2010PropOp49
 70
     1
102
RTVSPost2010Prop50
 90
       50
102
RTVSPost2010PropOp50
 70
     1
102
RTVSPost2010Prop51ColorIndex
 90
      256
102
RTVSPost2010Prop51ColorRGB
 90
-16777216
102
RTVSPost2010PropOp51
 70
     0
102
RTVSPost2010Prop52
140
1.0
102
RTVSPost2010PropOp52
 70
     0
102
RTVSPost2010Prop53
 90
        2
102
RTVSPost2010PropOp53
 70
     1
102
RTVSPost2010Prop54
  1
strokes_ogs.tif
102
RTVSPost2010PropOp54
 70
     1
102
RTVSPost2010Prop55
280
     0
102
RTVSPost2010PropOp55
 70
     1
102
RTVSPost2010Prop56
140
1.0
102
RTVSPost2010PropOp56
 70
     1
102
RTVSPost2010Prop57
140
1.0
102
RTVSPost2010PropOp57
 70
     1
  0
XRECORD
  5
146
102
{ACAD_REACTORS
330
145
102
}
330
145
100
AcDbXrecord
280
     1
102
RTVSPost2010Prop28
280
     0
102
RTVSPost2010PropOp28
 70
     0
102
RTVSPost2010Prop29
280
     1
102
RTVSPost2010PropOp29
 70
     0
102
RTVSPost2010Prop30
280
     1
102
RTVSPost2010PropOp30
 70
     0
102
RTVSPost2010Prop31
280
     0
102
RTVSPost2010PropOp31
 70
     0
102
RTVSPost2010Prop32
280
     0
102
RTVSPost2010PropOp32
 70
     0
102
RTVSPost2010Prop33
280
     0
102
RTVSPost2010PropOp33
 70
     0
102
RTVSPost2010Prop34
280
     0
102
RTVSPost2010PropOp34
 70
     0
102
RTVSPost2010Prop35
280
     0
102
RTVSPost2010PropOp35
 70
     0
102
RTVSPost2010Prop36
280
     0
102
RTVSPost2010PropOp36
 70
     0
102
RTVSPost2010Prop37
 90
       50
102
RTVSPost2010PropOp37
 70
     0
102
RTVSPost2010Prop38
140
0.0
102
RTVSPost2010PropOp38
 70
     0
102
RTVSPost2010Prop39
140
1.0
102
RTVSPost2010PropOp39
 70
     0
102
RTVSPost2010Prop40
 90
        0
102
RTVSPost2010PropOp40
 70
     0
102
RTVSPost2010Prop41ColorIndex
 90
       18
102
RTVSPost2010Prop41ColorRGB
 90
        0
102
RTVSPost2010PropOp41
 70
     0
102
RTVSPost2010Prop42
 90
       50
102
RTVSPost2010PropOp42
 70
     0
102
RTVSPost2010Prop43
 90
        3
102
RTVSPost2010PropOp43
 70
     0
102
RTVSPost2010Prop44ColorIndex
 90
        5
102
RTVSPost2010Prop44ColorRGB
 90
      255
102
RTVSPost2010PropOp44
 70
     0
102
RTVSPost2010Prop45
280
     0
102
RTVSPost2010PropOp45
 70
     0
102
RTVSPost2010Prop46
 90
       50
102
RTVSPost2010PropOp46
 70
     0
102
RTVSPost2010Prop47
 90
       50
102
RTVSPost2010PropOp47
 70
     0
102
RTVSPost2010Prop48
 90
       50
102
RTVSPost2010PropOp48
 70
     0
102
RTVSPost2010Prop49
280
     0
102
RTVSPost2010PropOp49
 70
     0
102
RTVSPost2010Prop50
 90
       50
102
RTVSPost2010PropOp50
 70
     0
102
RTVSPost2010Prop51ColorIndex
 90
      256
102
RTVSPost2010Prop51ColorRGB
 90
-16777216
102
RTVSPost2010PropOp51
 70
     0
102
RTVSPost2010Prop52
140
1.0
102
RTVSPost2010PropOp52
 70
     0
102
RTVSPost2010Prop53
 90
        2
102
RTVSPost2010PropOp53
 70
     0
102
RTVSPost2010Prop54
  1
strokes_ogs.tif
102
RTVSPost2010PropOp54
 70
     0
102
RTVSPost2010Prop55
280
     0
102
RTVSPost2010PropOp55
 70
     0
102
RTVSPost2010Prop56
140
1.0
102
RTVSPost2010PropOp56
 70
     0
102
RTVSPost2010Prop57
140
1.0
102
RTVSPost2010PropOp57
 70
     0
  0
XRECORD
  5
134
102
{ACAD_REACTORS
330
133
102
}
330
133
100
AcDbXrecord
280
     1
102
RTVSPost2010Prop28
280
     0
102
RTVSPost2010PropOp28
 70
     1
102
RTVSPost2010Prop29
280
     1
102
RTVSPost2010PropOp29
 70
     1
102
RTVSPost2010Prop30
280
     1
102
RTVSPost2010PropOp30
 70
     1
102
RTVSPost2010Prop31
280
     0
102
RTVSPost2010PropOp31
 70
     1
102
RTVSPost2010Prop32
280
     0
102
RTVSPost2010PropOp32
 70
     1
102
RTVSPost2010Prop33
280
     0
102
RTVSPost2010PropOp33
 70
     1
102
RTVSPost2010Prop34
280
     0
102
RTVSPost2010PropOp34
 70
     1
102
RTVSPost2010Prop35
280
     0
102
RTVSPost2010PropOp35
 70
     1
102
RTVSPost2010Prop36
280
     0
102
RTVSPost2010PropOp36
 70
     1
102
RTVSPost2010Prop37
 90
       50
102
RTVSPost2010PropOp37
 70
     1
102
RTVSPost2010Prop38
140
0.0
102
RTVSPost2010PropOp38
 70
     1
102
RTVSPost2010Prop39
140
1.0
102
RTVSPost2010PropOp39
 70
     1
102
RTVSPost2010Prop40
 90
        0
102
RTVSPost2010PropOp40
 70
     1
102
RTVSPost2010Prop41ColorIndex
 90
       18
102
RTVSPost2010Prop41ColorRGB
 90
        0
102
RTVSPost2010PropOp41
 70
     1
102
RTVSPost2010Prop42
 90
       50
102
RTVSPost2010PropOp42
 70
     1
102
RTVSPost2010Prop43
 90
        3
102
RTVSPost2010PropOp43
 70
     1
102
RTVSPost2010Prop44ColorIndex
 90
        5
102
RTVSPost2010Prop44ColorRGB
 90
      255
102
RTVSPost2010PropOp44
 70
     1
102
RTVSPost2010Prop45
280
     0
102
RTVSPost2010PropOp45
 70
     1
102
RTVSPost2010Prop46
 90
       50
102
RTVSPost2010PropOp46
 70
     1
102
RTVSPost2010Prop47
 90
       50
102
RTVSPost2010PropOp47
 70
     1
102
RTVSPost2010Prop48
 90
       50
102
RTVSPost2010PropOp48
 70
     1
102
RTVSPost2010Prop49
280
     0
102
RTVSPost2010PropOp49
 70
     1
102
RTVSPost2010Prop50
 90
       50
102
RTVSPost2010PropOp50
 70
     1
102
RTVSPost2010Prop51ColorIndex
 90
      256
102
RTVSPost2010Prop51ColorRGB
 90
-16777216
102
RTVSPost2010PropOp51
 70
     0
102
RTVSPost2010Prop52
140
1.0
102
RTVSPost2010PropOp52
 70
     0
102
RTVSPost2010Prop53
 90
        2
102
RTVSPost2010PropOp53
 70
     1
102
RTVSPost2010Prop54
  1
strokes_ogs.tif
102
RTVSPost2010PropOp54
 70
     1
102
RTVSPost2010Prop55
280
     0
102
RTVSPost2010PropOp55
 70
     1
102
RTVSPost2010Prop56
140
1.0
102
RTVSPost2010PropOp56
 70
     1
102
RTVSPost2010Prop57
140
1.0
102
RTVSPost2010PropOp57
 70
     1
  0
XRECORD
  5
118
102
{ACAD_REACTORS
330
117
102
}
330
117
100
AcDbXrecord
280
     1
102
RTVSPost2010Prop28
280
     0
102
RTVSPost2010PropOp28
 70
     1
102
RTVSPost2010Prop29
280
     1
102
RTVSPost2010PropOp29
 70
     1
102
RTVSPost2010Prop30
280
     1
102
RTVSPost2010PropOp30
 70
     1
102
RTVSPost2010Prop31
280
     0
102
RTVSPost2010PropOp31
 70
     1
102
RTVSPost2010Prop32
280
     0
102
RTVSPost2010PropOp32
 70
     1
102
RTVSPost2010Prop33
280
     0
102
RTVSPost2010PropOp33
 70
     1
102
RTVSPost2010Prop34
280
     0
102
RTVSPost2010PropOp34
 70
     1
102
RTVSPost2010Prop35
280
     0
102
RTVSPost2010PropOp35
 70
     1
102
RTVSPost2010Prop36
280
     0
102
RTVSPost2010PropOp36
 70
     1
102
RTVSPost2010Prop37
 90
       50
102
RTVSPost2010PropOp37
 70
     1
102
RTVSPost2010Prop38
140
0.0
102
RTVSPost2010PropOp38
 70
     1
102
RTVSPost2010Prop39
140
1.0
102
RTVSPost2010PropOp39
 70
     1
102
RTVSPost2010Prop40
 90
        0
102
RTVSPost2010PropOp40
 70
     1
102
RTVSPost2010Prop41ColorIndex
 90
       18
102
RTVSPost2010Prop41ColorRGB
 90
        0
102
RTVSPost2010PropOp41
 70
     1
102
RTVSPost2010Prop42
 90
       50
102
RTVSPost2010PropOp42
 70
     1
102
RTVSPost2010Prop43
 90
        3
102
RTVSPost2010PropOp43
 70
     1
102
RTVSPost2010Prop44ColorIndex
 90
        5
102
RTVSPost2010Prop44ColorRGB
 90
      255
102
RTVSPost2010PropOp44
 70
     1
102
RTVSPost2010Prop45
280
     0
102
RTVSPost2010PropOp45
 70
     1
102
RTVSPost2010Prop46
 90
       50
102
RTVSPost2010PropOp46
 70
     1
102
RTVSPost2010Prop47
 90
       50
102
RTVSPost2010PropOp47
 70
     1
102
RTVSPost2010Prop48
 90
       50
102
RTVSPost2010PropOp48
 70
     1
102
RTVSPost2010Prop49
280
     0
102
RTVSPost2010PropOp49
 70
     1
102
RTVSPost2010Prop50
 90
       50
102
RTVSPost2010PropOp50
 70
     1
102
RTVSPost2010Prop51ColorIndex
 90
      256
102
RTVSPost2010Prop51ColorRGB
 90
-16777216
102
RTVSPost2010PropOp51
 70
     0
102
RTVSPost2010Prop52
140
1.0
102
RTVSPost2010PropOp52
 70
     0
102
RTVSPost2010Prop53
 90
        2
102
RTVSPost2010PropOp53
 70
     1
102
RTVSPost2010Prop54
  1
strokes_ogs.tif
102
RTVSPost2010PropOp54
 70
     1
102
RTVSPost2010Prop55
280
     0
102
RTVSPost2010PropOp55
 70
     1
102
RTVSPost2010Prop56
140
1.0
102
RTVSPost2010PropOp56
 70
     1
102
RTVSPost2010Prop57
140
1.0
102
RTVSPost2010PropOp57
 70
     1
  0
XRECORD
  5
11A
102
{ACAD_REACTORS
330
119
102
}
330
119
100
AcDbXrecord
280
     1
102
RTVSPost2010Prop28
280
     0
102
RTVSPost2010PropOp28
 70
     1
102
RTVSPost2010Prop29
280
     1
102
RTVSPost2010PropOp29
 70
     1
102
RTVSPost2010Prop30
280
     1
102
RTVSPost2010PropOp30
 70
     1
102
RTVSPost2010Prop31
280
     0
102
RTVSPost2010PropOp31
 70
     1
102
RTVSPost2010Prop32
280
     0
102
RTVSPost2010PropOp32
 70
     1
102
RTVSPost2010Prop33
280
     0
102
RTVSPost2010PropOp33
 70
     1
102
RTVSPost2010Prop34
280
     0
102
RTVSPost2010PropOp34
 70
     1
102
RTVSPost2010Prop35
280
     0
102
RTVSPost2010PropOp35
 70
     1
102
RTVSPost2010Prop36
280
     0
102
RTVSPost2010PropOp36
 70
     1
102
RTVSPost2010Prop37
 90
       50
102
RTVSPost2010PropOp37
 70
     1
102
RTVSPost2010Prop38
140
0.0
102
RTVSPost2010PropOp38
 70
     1
102
RTVSPost2010Prop39
140
1.0
102
RTVSPost2010PropOp39
 70
     1
102
RTVSPost2010Prop40
 90
        0
102
RTVSPost2010PropOp40
 70
     1
102
RTVSPost2010Prop41ColorIndex
 90
       18
102
RTVSPost2010Prop41ColorRGB
 90
        0
102
RTVSPost2010PropOp41
 70
     1
102
RTVSPost2010Prop42
 90
       50
102
RTVSPost2010PropOp42
 70
     1
102
RTVSPost2010Prop43
 90
        3
102
RTVSPost2010PropOp43
 70
     1
102
RTVSPost2010Prop44ColorIndex
 90
        5
102
RTVSPost2010Prop44ColorRGB
 90
      255
102
RTVSPost2010PropOp44
 70
     1
102
RTVSPost2010Prop45
280
     0
102
RTVSPost2010PropOp45
 70
     1
102
RTVSPost2010Prop46
 90
       50
102
RTVSPost2010PropOp46
 70
     1
102
RTVSPost2010Prop47
 90
       50
102
RTVSPost2010PropOp47
 70
     1
102
RTVSPost2010Prop48
 90
       50
102
RTVSPost2010PropOp48
 70
     1
102
RTVSPost2010Prop49
280
     0
102
RTVSPost2010PropOp49
 70
     1
102
RTVSPost2010Prop50
 90
       50
102
RTVSPost2010PropOp50
 70
     1
102
RTVSPost2010Prop51ColorIndex
 90
      256
102
RTVSPost2010Prop51ColorRGB
 90
-16777216
102
RTVSPost2010PropOp51
 70
     0
102
RTVSPost2010Prop52
140
1.0
102
RTVSPost2010PropOp52
 70
     0
102
RTVSPost2010Prop53
 90
        2
102
RTVSPost2010PropOp53
 70
     1
102
RTVSPost2010Prop54
  1
strokes_ogs.tif
102
RTVSPost2010PropOp54
 70
     1
102
RTVSPost2010Prop55
280
     0
102
RTVSPost2010PropOp55
 70
     1
102
RTVSPost2010Prop56
140
1.0
102
RTVSPost2010PropOp56
 70
     1
102
RTVSPost2010Prop57
140
1.0
102
RTVSPost2010PropOp57
 70
     1
  0
XRECORD
  5
11C
102
{ACAD_REACTORS
330
11B
102
}
330
11B
100
AcDbXrecord
280
     1
102
RTVSPost2010Prop28
280
     0
102
RTVSPost2010PropOp28
 70
     1
102
RTVSPost2010Prop29
280
     1
102
RTVSPost2010PropOp29
 70
     1
102
RTVSPost2010Prop30
280
     1
102
RTVSPost2010PropOp30
 70
     1
102
RTVSPost2010Prop31
280
     0
102
RTVSPost2010PropOp31
 70
     1
102
RTVSPost2010Prop32
280
     0
102
RTVSPost2010PropOp32
 70
     1
102
RTVSPost2010Prop33
280
     0
102
RTVSPost2010PropOp33
 70
     1
102
RTVSPost2010Prop34
280
     0
102
RTVSPost2010PropOp34
 70
     1
102
RTVSPost2010Prop35
280
     0
102
RTVSPost2010PropOp35
 70
     1
102
RTVSPost2010Prop36
280
     0
102
RTVSPost2010PropOp36
 70
     1
102
RTVSPost2010Prop37
 90
       50
102
RTVSPost2010PropOp37
 70
     1
102
RTVSPost2010Prop38
140
0.0
102
RTVSPost2010PropOp38
 70
     1
102
RTVSPost2010Prop39
140
1.0
102
RTVSPost2010PropOp39
 70
     1
102
RTVSPost2010Prop40
 90
        0
102
RTVSPost2010PropOp40
 70
     1
102
RTVSPost2010Prop41ColorIndex
 90
       18
102
RTVSPost2010Prop41ColorRGB
 90
        0
102
RTVSPost2010PropOp41
 70
     1
102
RTVSPost2010Prop42
 90
       50
102
RTVSPost2010PropOp42
 70
     1
102
RTVSPost2010Prop43
 90
        3
102
RTVSPost2010PropOp43
 70
     1
102
RTVSPost2010Prop44ColorIndex
 90
        5
102
RTVSPost2010Prop44ColorRGB
 90
      255
102
RTVSPost2010PropOp44
 70
     1
102
RTVSPost2010Prop45
280
     0
102
RTVSPost2010PropOp45
 70
     1
102
RTVSPost2010Prop46
 90
       50
102
RTVSPost2010PropOp46
 70
     1
102
RTVSPost2010Prop47
 90
       50
102
RTVSPost2010PropOp47
 70
     1
102
RTVSPost2010Prop48
 90
       50
102
RTVSPost2010PropOp48
 70
     1
102
RTVSPost2010Prop49
280
     0
102
RTVSPost2010PropOp49
 70
     1
102
RTVSPost2010Prop50
 90
       50
102
RTVSPost2010PropOp50
 70
     1
102
RTVSPost2010Prop51ColorIndex
 90
      256
102
RTVSPost2010Prop51ColorRGB
 90
-16777216
102
RTVSPost2010PropOp51
 70
     0
102
RTVSPost2010Prop52
140
1.0
102
RTVSPost2010PropOp52
 70
     0
102
RTVSPost2010Prop53
 90
        2
102
RTVSPost2010PropOp53
 70
     1
102
RTVSPost2010Prop54
  1
strokes_ogs.tif
102
RTVSPost2010PropOp54
 70
     1
102
RTVSPost2010Prop55
280
     0
102
RTVSPost2010PropOp55
 70
     1
102
RTVSPost2010Prop56
140
1.0
102
RTVSPost2010PropOp56
 70
     1
102
RTVSPost2010Prop57
140
1.0
102
RTVSPost2010PropOp57
 70
     1
  0
XRECORD
  5
11E
102
{ACAD_REACTORS
330
11D
102
}
330
11D
100
AcDbXrecord
280
     1
102
RTVSPost2010Prop28
280
     0
102
RTVSPost2010PropOp28
 70
     1
102
RTVSPost2010Prop29
280
     1
102
RTVSPost2010PropOp29
 70
     1
102
RTVSPost2010Prop30
280
     1
102
RTVSPost2010PropOp30
 70
     1
102
RTVSPost2010Prop31
280
     0
102
RTVSPost2010PropOp31
 70
     1
102
RTVSPost2010Prop32
280
     0
102
RTVSPost2010PropOp32
 70
     1
102
RTVSPost2010Prop33
280
     0
102
RTVSPost2010PropOp33
 70
     1
102
RTVSPost2010Prop34
280
     0
102
RTVSPost2010PropOp34
 70
     1
102
RTVSPost2010Prop35
280
     0
102
RTVSPost2010PropOp35
 70
     1
102
RTVSPost2010Prop36
280
     0
102
RTVSPost2010PropOp36
 70
     1
102
RTVSPost2010Prop37
 90
       50
102
RTVSPost2010PropOp37
 70
     1
102
RTVSPost2010Prop38
140
0.0
102
RTVSPost2010PropOp38
 70
     1
102
RTVSPost2010Prop39
140
1.0
102
RTVSPost2010PropOp39
 70
     1
102
RTVSPost2010Prop40
 90
        0
102
RTVSPost2010PropOp40
 70
     1
102
RTVSPost2010Prop41ColorIndex
 90
       18
102
RTVSPost2010Prop41ColorRGB
 90
        0
102
RTVSPost2010PropOp41
 70
     1
102
RTVSPost2010Prop42
 90
       50
102
RTVSPost2010PropOp42
 70
     1
102
RTVSPost2010Prop43
 90
        3
102
RTVSPost2010PropOp43
 70
     1
102
RTVSPost2010Prop44ColorIndex
 90
        5
102
RTVSPost2010Prop44ColorRGB
 90
      255
102
RTVSPost2010PropOp44
 70
     1
102
RTVSPost2010Prop45
280
     0
102
RTVSPost2010PropOp45
 70
     1
102
RTVSPost2010Prop46
 90
       50
102
RTVSPost2010PropOp46
 70
     1
102
RTVSPost2010Prop47
 90
       50
102
RTVSPost2010PropOp47
 70
     1
102
RTVSPost2010Prop48
 90
       50
102
RTVSPost2010PropOp48
 70
     1
102
RTVSPost2010Prop49
280
     0
102
RTVSPost2010PropOp49
 70
     1
102
RTVSPost2010Prop50
 90
       50
102
RTVSPost2010PropOp50
 70
     1
102
RTVSPost2010Prop51ColorIndex
 90
      256
102
RTVSPost2010Prop51ColorRGB
 90
-16777216
102
RTVSPost2010PropOp51
 70
     0
102
RTVSPost2010Prop52
140
1.0
102
RTVSPost2010PropOp52
 70
     0
102
RTVSPost2010Prop53
 90
        2
102
RTVSPost2010PropOp53
 70
     1
102
RTVSPost2010Prop54
  1
strokes_ogs.tif
102
RTVSPost2010PropOp54
 70
     1
102
RTVSPost2010Prop55
280
     0
102
RTVSPost2010PropOp55
 70
     1
102
RTVSPost2010Prop56
140
1.0
102
RTVSPost2010PropOp56
 70
     1
102
RTVSPost2010Prop57
140
1.0
102
RTVSPost2010PropOp57
 70
     1
  0
XRECORD
  5
126
102
{ACAD_REACTORS
330
125
102
}
330
125
100
AcDbXrecord
280
     1
102
RTVSPost2010Prop28
280
     0
102
RTVSPost2010PropOp28
 70
     1
102
RTVSPost2010Prop29
280
     1
102
RTVSPost2010PropOp29
 70
     1
102
RTVSPost2010Prop30
280
     1
102
RTVSPost2010PropOp30
 70
     1
102
RTVSPost2010Prop31
280
     0
102
RTVSPost2010PropOp31
 70
     1
102
RTVSPost2010Prop32
280
     0
102
RTVSPost2010PropOp32
 70
     1
102
RTVSPost2010Prop33
280
     0
102
RTVSPost2010PropOp33
 70
     1
102
RTVSPost2010Prop34
280
     0
102
RTVSPost2010PropOp34
 70
     1
102
RTVSPost2010Prop35
280
     0
102
RTVSPost2010PropOp35
 70
     1
102
RTVSPost2010Prop36
280
     0
102
RTVSPost2010PropOp36
 70
     1
102
RTVSPost2010Prop37
 90
       50
102
RTVSPost2010PropOp37
 70
     1
102
RTVSPost2010Prop38
140
0.0
102
RTVSPost2010PropOp38
 70
     1
102
RTVSPost2010Prop39
140
1.0
102
RTVSPost2010PropOp39
 70
     1
102
RTVSPost2010Prop40
 90
        0
102
RTVSPost2010PropOp40
 70
     1
102
RTVSPost2010Prop41ColorIndex
 90
       18
102
RTVSPost2010Prop41ColorRGB
 90
        0
102
RTVSPost2010PropOp41
 70
     1
102
RTVSPost2010Prop42
 90
       50
102
RTVSPost2010PropOp42
 70
     1
102
RTVSPost2010Prop43
 90
        3
102
RTVSPost2010PropOp43
 70
     1
102
RTVSPost2010Prop44ColorIndex
 90
        5
102
RTVSPost2010Prop44ColorRGB
 90
      255
102
RTVSPost2010PropOp44
 70
     1
102
RTVSPost2010Prop45
280
     0
102
RTVSPost2010PropOp45
 70
     1
102
RTVSPost2010Prop46
 90
       50
102
RTVSPost2010PropOp46
 70
     1
102
RTVSPost2010Prop47
 90
       50
102
RTVSPost2010PropOp47
 70
     1
102
RTVSPost2010Prop48
 90
       50
102
RTVSPost2010PropOp48
 70
     1
102
RTVSPost2010Prop49
280
     0
102
RTVSPost2010PropOp49
 70
     1
102
RTVSPost2010Prop50
 90
       50
102
RTVSPost2010PropOp50
 70
     1
102
RTVSPost2010Prop51ColorIndex
 90
      256
102
RTVSPost2010Prop51ColorRGB
 90
-16777216
102
RTVSPost2010PropOp51
 70
     0
102
RTVSPost2010Prop52
140
1.0
102
RTVSPost2010PropOp52
 70
     0
102
RTVSPost2010Prop53
 90
        2
102
RTVSPost2010PropOp53
 70
     1
102
RTVSPost2010Prop54
  1
strokes_ogs.tif
102
RTVSPost2010PropOp54
 70
     1
102
RTVSPost2010Prop55
280
     0
102
RTVSPost2010PropOp55
 70
     1
102
RTVSPost2010Prop56
140
1.0
102
RTVSPost2010PropOp56
 70
     1
102
RTVSPost2010Prop57
140
1.0
102
RTVSPost2010PropOp57
 70
     1
  0
XRECORD
  5
142
102
{ACAD_REACTORS
330
141
102
}
330
141
100
AcDbXrecord
280
     1
102
RTVSPost2010Prop28
280
     0
102
RTVSPost2010PropOp28
 70
     0
102
RTVSPost2010Prop29
280
     1
102
RTVSPost2010PropOp29
 70
     0
102
RTVSPost2010Prop30
280
     1
102
RTVSPost2010PropOp30
 70
     0
102
RTVSPost2010Prop31
280
     0
102
RTVSPost2010PropOp31
 70
     0
102
RTVSPost2010Prop32
280
     0
102
RTVSPost2010PropOp32
 70
     0
102
RTVSPost2010Prop33
280
     0
102
RTVSPost2010PropOp33
 70
     0
102
RTVSPost2010Prop34
280
     0
102
RTVSPost2010PropOp34
 70
     0
102
RTVSPost2010Prop35
280
     0
102
RTVSPost2010PropOp35
 70
     0
102
RTVSPost2010Prop36
280
     0
102
RTVSPost2010PropOp36
 70
     0
102
RTVSPost2010Prop37
 90
       50
102
RTVSPost2010PropOp37
 70
     0
102
RTVSPost2010Prop38
140
0.0
102
RTVSPost2010PropOp38
 70
     0
102
RTVSPost2010Prop39
140
1.0
102
RTVSPost2010PropOp39
 70
     0
102
RTVSPost2010Prop40
 90
        0
102
RTVSPost2010PropOp40
 70
     0
102
RTVSPost2010Prop41ColorIndex
 90
       18
102
RTVSPost2010Prop41ColorRGB
 90
        0
102
RTVSPost2010PropOp41
 70
     0
102
RTVSPost2010Prop42
 90
       50
102
RTVSPost2010PropOp42
 70
     0
102
RTVSPost2010Prop43
 90
        3
102
RTVSPost2010PropOp43
 70
     0
102
RTVSPost2010Prop44ColorIndex
 90
        5
102
RTVSPost2010Prop44ColorRGB
 90
      255
102
RTVSPost2010PropOp44
 70
     0
102
RTVSPost2010Prop45
280
     0
102
RTVSPost2010PropOp45
 70
     0
102
RTVSPost2010Prop46
 90
       50
102
RTVSPost2010PropOp46
 70
     0
102
RTVSPost2010Prop47
 90
       50
102
RTVSPost2010PropOp47
 70
     0
102
RTVSPost2010Prop48
 90
       50
102
RTVSPost2010PropOp48
 70
     0
102
RTVSPost2010Prop49
280
     0
102
RTVSPost2010PropOp49
 70
     0
102
RTVSPost2010Prop50
 90
       50
102
RTVSPost2010PropOp50
 70
     0
102
RTVSPost2010Prop51ColorIndex
 90
      256
102
RTVSPost2010Prop51ColorRGB
 90
-16777216
102
RTVSPost2010PropOp51
 70
     0
102
RTVSPost2010Prop52
140
1.0
102
RTVSPost2010PropOp52
 70
     0
102
RTVSPost2010Prop53
 90
        2
102
RTVSPost2010PropOp53
 70
     0
102
RTVSPost2010Prop54
  1
strokes_ogs.tif
102
RTVSPost2010PropOp54
 70
     0
102
RTVSPost2010Prop55
280
     0
102
RTVSPost2010PropOp55
 70
     0
102
RTVSPost2010Prop56
140
1.0
102
RTVSPost2010PropOp56
 70
     0
102
RTVSPost2010Prop57
140
1.0
102
RTVSPost2010PropOp57
 70
     0
  0
XRECORD
  5
132
102
{ACAD_REACTORS
330
131
102
}
330
131
100
AcDbXrecord
280
     1
102
RTVSPost2010Prop28
280
     0
102
RTVSPost2010PropOp28
 70
     1
102
RTVSPost2010Prop29
280
     1
102
RTVSPost2010PropOp29
 70
     1
102
RTVSPost2010Prop30
280
     1
102
RTVSPost2010PropOp30
 70
     1
102
RTVSPost2010Prop31
280
     0
102
RTVSPost2010PropOp31
 70
     1
102
RTVSPost2010Prop32
280
     0
102
RTVSPost2010PropOp32
 70
     1
102
RTVSPost2010Prop33
280
     0
102
RTVSPost2010PropOp33
 70
     1
102
RTVSPost2010Prop34
280
     0
102
RTVSPost2010PropOp34
 70
     1
102
RTVSPost2010Prop35
280
     0
102
RTVSPost2010PropOp35
 70
     1
102
RTVSPost2010Prop36
280
     0
102
RTVSPost2010PropOp36
 70
     1
102
RTVSPost2010Prop37
 90
       50
102
RTVSPost2010PropOp37
 70
     1
102
RTVSPost2010Prop38
140
0.0
102
RTVSPost2010PropOp38
 70
     1
102
RTVSPost2010Prop39
140
1.0
102
RTVSPost2010PropOp39
 70
     1
102
RTVSPost2010Prop40
 90
        0
102
RTVSPost2010PropOp40
 70
     1
102
RTVSPost2010Prop41ColorIndex
 90
       18
102
RTVSPost2010Prop41ColorRGB
 90
        0
102
RTVSPost2010PropOp41
 70
     1
102
RTVSPost2010Prop42
 90
       50
102
RTVSPost2010PropOp42
 70
     1
102
RTVSPost2010Prop43
 90
        3
102
RTVSPost2010PropOp43
 70
     1
102
RTVSPost2010Prop44ColorIndex
 90
        5
102
RTVSPost2010Prop44ColorRGB
 90
      255
102
RTVSPost2010PropOp44
 70
     1
102
RTVSPost2010Prop45
280
     0
102
RTVSPost2010PropOp45
 70
     1
102
RTVSPost2010Prop46
 90
       50
102
RTVSPost2010PropOp46
 70
     1
102
RTVSPost2010Prop47
 90
       50
102
RTVSPost2010PropOp47
 70
     1
102
RTVSPost2010Prop48
 90
       50
102
RTVSPost2010PropOp48
 70
     1
102
RTVSPost2010Prop49
280
     0
102
RTVSPost2010PropOp49
 70
     1
102
RTVSPost2010Prop50
 90
       50
102
RTVSPost2010PropOp50
 70
     1
102
RTVSPost2010Prop51ColorIndex
 90
      256
102
RTVSPost2010Prop51ColorRGB
 90
-16777216
102
RTVSPost2010PropOp51
 70
     0
102
RTVSPost2010Prop52
140
1.0
102
RTVSPost2010PropOp52
 70
     0
102
RTVSPost2010Prop53
 90
        2
102
RTVSPost2010PropOp53
 70
     1
102
RTVSPost2010Prop54
  1
strokes_ogs.tif
102
RTVSPost2010PropOp54
 70
     1
102
RTVSPost2010Prop55
280
     0
102
RTVSPost2010PropOp55
 70
     1
102
RTVSPost2010Prop56
140
1.0
102
RTVSPost2010PropOp56
 70
     1
102
RTVSPost2010Prop57
140
1.0
102
RTVSPost2010PropOp57
 70
     1
  0
XRECORD
  5
144
102
{ACAD_REACTORS
330
143
102
}
330
143
100
AcDbXrecord
280
     1
102
RTVSPost2010Prop28
280
     0
102
RTVSPost2010PropOp28
 70
     0
102
RTVSPost2010Prop29
280
     1
102
RTVSPost2010PropOp29
 70
     0
102
RTVSPost2010Prop30
280
     1
102
RTVSPost2010PropOp30
 70
     0
102
RTVSPost2010Prop31
280
     0
102
RTVSPost2010PropOp31
 70
     0
102
RTVSPost2010Prop32
280
     0
102
RTVSPost2010PropOp32
 70
     0
102
RTVSPost2010Prop33
280
     0
102
RTVSPost2010PropOp33
 70
     0
102
RTVSPost2010Prop34
280
     0
102
RTVSPost2010PropOp34
 70
     0
102
RTVSPost2010Prop35
280
     0
102
RTVSPost2010PropOp35
 70
     0
102
RTVSPost2010Prop36
280
     0
102
RTVSPost2010PropOp36
 70
     0
102
RTVSPost2010Prop37
 90
       50
102
RTVSPost2010PropOp37
 70
     0
102
RTVSPost2010Prop38
140
0.0
102
RTVSPost2010PropOp38
 70
     0
102
RTVSPost2010Prop39
140
1.0
102
RTVSPost2010PropOp39
 70
     0
102
RTVSPost2010Prop40
 90
        0
102
RTVSPost2010PropOp40
 70
     0
102
RTVSPost2010Prop41ColorIndex
 90
       18
102
RTVSPost2010Prop41ColorRGB
 90
        0
102
RTVSPost2010PropOp41
 70
     0
102
RTVSPost2010Prop42
 90
       50
102
RTVSPost2010PropOp42
 70
     0
102
RTVSPost2010Prop43
 90
        3
102
RTVSPost2010PropOp43
 70
     0
102
RTVSPost2010Prop44ColorIndex
 90
        5
102
RTVSPost2010Prop44ColorRGB
 90
      255
102
RTVSPost2010PropOp44
 70
     0
102
RTVSPost2010Prop45
280
     0
102
RTVSPost2010PropOp45
 70
     0
102
RTVSPost2010Prop46
 90
       50
102
RTVSPost2010PropOp46
 70
     0
102
RTVSPost2010Prop47
 90
       50
102
RTVSPost2010PropOp47
 70
     0
102
RTVSPost2010Prop48
 90
       50
102
RTVSPost2010PropOp48
 70
     0
102
RTVSPost2010Prop49
280
     0
102
RTVSPost2010PropOp49
 70
     0
102
RTVSPost2010Prop50
 90
       50
102
RTVSPost2010PropOp50
 70
     0
102
RTVSPost2010Prop51ColorIndex
 90
      256
102
RTVSPost2010Prop51ColorRGB
 90
-16777216
102
RTVSPost2010PropOp51
 70
     0
102
RTVSPost2010Prop52
140
1.0
102
RTVSPost2010PropOp52
 70
     0
102
RTVSPost2010Prop53
 90
        2
102
RTVSPost2010PropOp53
 70
     0
102
RTVSPost2010Prop54
  1
strokes_ogs.tif
102
RTVSPost2010PropOp54
 70
     0
102
RTVSPost2010Prop55
280
     0
102
RTVSPost2010PropOp55
 70
     0
102
RTVSPost2010Prop56
140
1.0
102
RTVSPost2010PropOp56
 70
     0
102
RTVSPost2010Prop57
140
1.0
102
RTVSPost2010PropOp57
 70
     0
  0
XRECORD
  5
12A
102
{ACAD_REACTORS
330
129
102
}
330
129
100
AcDbXrecord
280
     1
102
RTVSPost2010Prop28
280
     0
102
RTVSPost2010PropOp28
 70
     1
102
RTVSPost2010Prop29
280
     1
102
RTVSPost2010PropOp29
 70
     1
102
RTVSPost2010Prop30
280
     1
102
RTVSPost2010PropOp30
 70
     1
102
RTVSPost2010Prop31
280
     0
102
RTVSPost2010PropOp31
 70
     1
102
RTVSPost2010Prop32
280
     0
102
RTVSPost2010PropOp32
 70
     1
102
RTVSPost2010Prop33
280
     0
102
RTVSPost2010PropOp33
 70
     1
102
RTVSPost2010Prop34
280
     0
102
RTVSPost2010PropOp34
 70
     1
102
RTVSPost2010Prop35
280
     0
102
RTVSPost2010PropOp35
 70
     1
102
RTVSPost2010Prop36
280
     0
102
RTVSPost2010PropOp36
 70
     1
102
RTVSPost2010Prop37
 90
       50
102
RTVSPost2010PropOp37
 70
     1
102
RTVSPost2010Prop38
140
0.0
102
RTVSPost2010PropOp38
 70
     1
102
RTVSPost2010Prop39
140
1.0
102
RTVSPost2010PropOp39
 70
     1
102
RTVSPost2010Prop40
 90
        0
102
RTVSPost2010PropOp40
 70
     1
102
RTVSPost2010Prop41ColorIndex
 90
       18
102
RTVSPost2010Prop41ColorRGB
 90
        0
102
RTVSPost2010PropOp41
 70
     1
102
RTVSPost2010Prop42
 90
       50
102
RTVSPost2010PropOp42
 70
     1
102
RTVSPost2010Prop43
 90
        3
102
RTVSPost2010PropOp43
 70
     1
102
RTVSPost2010Prop44ColorIndex
 90
        5
102
RTVSPost2010Prop44ColorRGB
 90
      255
102
RTVSPost2010PropOp44
 70
     1
102
RTVSPost2010Prop45
280
     0
102
RTVSPost2010PropOp45
 70
     1
102
RTVSPost2010Prop46
 90
       50
102
RTVSPost2010PropOp46
 70
     1
102
RTVSPost2010Prop47
 90
       50
102
RTVSPost2010PropOp47
 70
     1
102
RTVSPost2010Prop48
 90
       50
102
RTVSPost2010PropOp48
 70
     1
102
RTVSPost2010Prop49
280
     0
102
RTVSPost2010PropOp49
 70
     1
102
RTVSPost2010Prop50
 90
       50
102
RTVSPost2010PropOp50
 70
     1
102
RTVSPost2010Prop51ColorIndex
 90
      256
102
RTVSPost2010Prop51ColorRGB
 90
-16777216
102
RTVSPost2010PropOp51
 70
     0
102
RTVSPost2010Prop52
140
1.0
102
RTVSPost2010PropOp52
 70
     0
102
RTVSPost2010Prop53
 90
        2
102
RTVSPost2010PropOp53
 70
     1
102
RTVSPost2010Prop54
  1
strokes_ogs.tif
102
RTVSPost2010PropOp54
 70
     1
102
RTVSPost2010Prop55
280
     0
102
RTVSPost2010PropOp55
 70
     1
102
RTVSPost2010Prop56
140
1.0
102
RTVSPost2010PropOp56
 70
     1
102
RTVSPost2010Prop57
140
1.0
102
RTVSPost2010PropOp57
 70
     1
  0
XRECORD
  5
140
102
{ACAD_REACTORS
330
13F
102
}
330
13F
100
AcDbXrecord
280
     1
102
RTVSPost2010Prop28
280
     0
102
RTVSPost2010PropOp28
 70
     1
102
RTVSPost2010Prop29
280
     1
102
RTVSPost2010PropOp29
 70
     1
102
RTVSPost2010Prop30
280
     1
102
RTVSPost2010PropOp30
 70
     1
102
RTVSPost2010Prop31
280
     0
102
RTVSPost2010PropOp31
 70
     1
102
RTVSPost2010Prop32
280
     0
102
RTVSPost2010PropOp32
 70
     1
102
RTVSPost2010Prop33
280
     0
102
RTVSPost2010PropOp33
 70
     1
102
RTVSPost2010Prop34
280
     0
102
RTVSPost2010PropOp34
 70
     1
102
RTVSPost2010Prop35
280
     0
102
RTVSPost2010PropOp35
 70
     1
102
RTVSPost2010Prop36
280
     0
102
RTVSPost2010PropOp36
 70
     1
102
RTVSPost2010Prop37
 90
       50
102
RTVSPost2010PropOp37
 70
     1
102
RTVSPost2010Prop38
140
0.0
102
RTVSPost2010PropOp38
 70
     1
102
RTVSPost2010Prop39
140
1.0
102
RTVSPost2010PropOp39
 70
     1
102
RTVSPost2010Prop40
 90
        0
102
RTVSPost2010PropOp40
 70
     1
102
RTVSPost2010Prop41ColorIndex
 90
       18
102
RTVSPost2010Prop41ColorRGB
 90
        0
102
RTVSPost2010PropOp41
 70
     1
102
RTVSPost2010Prop42
 90
       50
102
RTVSPost2010PropOp42
 70
     1
102
RTVSPost2010Prop43
 90
        3
102
RTVSPost2010PropOp43
 70
     1
102
RTVSPost2010Prop44ColorIndex
 90
        5
102
RTVSPost2010Prop44ColorRGB
 90
      255
102
RTVSPost2010PropOp44
 70
     1
102
RTVSPost2010Prop45
280
     0
102
RTVSPost2010PropOp45
 70
     1
102
RTVSPost2010Prop46
 90
       50
102
RTVSPost2010PropOp46
 70
     1
102
RTVSPost2010Prop47
 90
       50
102
RTVSPost2010PropOp47
 70
     1
102
RTVSPost2010Prop48
 90
       50
102
RTVSPost2010PropOp48
 70
     1
102
RTVSPost2010Prop49
280
     0
102
RTVSPost2010PropOp49
 70
     1
102
RTVSPost2010Prop50
 90
       50
102
RTVSPost2010PropOp50
 70
     1
102
RTVSPost2010Prop51ColorIndex
 90
      256
102
RTVSPost2010Prop51ColorRGB
 90
-16777216
102
RTVSPost2010PropOp51
 70
     0
102
RTVSPost2010Prop52
140
1.0
102
RTVSPost2010PropOp52
 70
     0
102
RTVSPost2010Prop53
 90
        2
102
RTVSPost2010PropOp53
 70
     1
102
RTVSPost2010Prop54
  1
strokes_ogs.tif
102
RTVSPost2010PropOp54
 70
     1
102
RTVSPost2010Prop55
280
     0
102
RTVSPost2010PropOp55
 70
     1
102
RTVSPost2010Prop56
140
1.0
102
RTVSPost2010PropOp56
 70
     1
102
RTVSPost2010Prop57
140
1.0
102
RTVSPost2010PropOp57
 70
     1
  0
XRECORD
  5
13E
102
{ACAD_REACTORS
330
13D
102
}
330
13D
100
AcDbXrecord
280
     1
102
RTVSPost2010Prop28
280
     0
102
RTVSPost2010PropOp28
 70
     1
102
RTVSPost2010Prop29
280
     1
102
RTVSPost2010PropOp29
 70
     1
102
RTVSPost2010Prop30
280
     1
102
RTVSPost2010PropOp30
 70
     1
102
RTVSPost2010Prop31
280
     0
102
RTVSPost2010PropOp31
 70
     1
102
RTVSPost2010Prop32
280
     0
102
RTVSPost2010PropOp32
 70
     1
102
RTVSPost2010Prop33
280
     0
102
RTVSPost2010PropOp33
 70
     1
102
RTVSPost2010Prop34
280
     0
102
RTVSPost2010PropOp34
 70
     1
102
RTVSPost2010Prop35
280
     0
102
RTVSPost2010PropOp35
 70
     1
102
RTVSPost2010Prop36
280
     0
102
RTVSPost2010PropOp36
 70
     1
102
RTVSPost2010Prop37
 90
       50
102
RTVSPost2010PropOp37
 70
     1
102
RTVSPost2010Prop38
140
0.0
102
RTVSPost2010PropOp38
 70
     1
102
RTVSPost2010Prop39
140
1.0
102
RTVSPost2010PropOp39
 70
     1
102
RTVSPost2010Prop40
 90
        0
102
RTVSPost2010PropOp40
 70
     1
102
RTVSPost2010Prop41ColorIndex
 90
       18
102
RTVSPost2010Prop41ColorRGB
 90
        0
102
RTVSPost2010PropOp41
 70
     1
102
RTVSPost2010Prop42
 90
       50
102
RTVSPost2010PropOp42
 70
     1
102
RTVSPost2010Prop43
 90
        3
102
RTVSPost2010PropOp43
 70
     1
102
RTVSPost2010Prop44ColorIndex
 90
        5
102
RTVSPost2010Prop44ColorRGB
 90
      255
102
RTVSPost2010PropOp44
 70
     1
102
RTVSPost2010Prop45
280
     0
102
RTVSPost2010PropOp45
 70
     1
102
RTVSPost2010Prop46
 90
       50
102
RTVSPost2010PropOp46
 70
     1
102
RTVSPost2010Prop47
 90
       50
102
RTVSPost2010PropOp47
 70
     1
102
RTVSPost2010Prop48
 90
       50
102
RTVSPost2010PropOp48
 70
     1
102
RTVSPost2010Prop49
280
     0
102
RTVSPost2010PropOp49
 70
     1
102
RTVSPost2010Prop50
 90
       50
102
RTVSPost2010PropOp50
 70
     1
102
RTVSPost2010Prop51ColorIndex
 90
      256
102
RTVSPost2010Prop51ColorRGB
 90
-16777216
102
RTVSPost2010PropOp51
 70
     0
102
RTVSPost2010Prop52
140
1.0
102
RTVSPost2010PropOp52
 70
     0
102
RTVSPost2010Prop53
 90
        2
102
RTVSPost2010PropOp53
 70
     1
102
RTVSPost2010Prop54
  1
strokes_ogs.tif
102
RTVSPost2010PropOp54
 70
     1
102
RTVSPost2010Prop55
280
     0
102
RTVSPost2010PropOp55
 70
     1
102
RTVSPost2010Prop56
140
1.0
102
RTVSPost2010PropOp56
 70
     1
102
RTVSPost2010Prop57
140
1.0
102
RTVSPost2010PropOp57
 70
     1
  0
XRECORD
  5
138
102
{ACAD_REACTORS
330
137
102
}
330
137
100
AcDbXrecord
280
     1
102
RTVSPost2010Prop28
280
     0
102
RTVSPost2010PropOp28
 70
     1
102
RTVSPost2010Prop29
280
     1
102
RTVSPost2010PropOp29
 70
     1
102
RTVSPost2010Prop30
280
     1
102
RTVSPost2010PropOp30
 70
     1
102
RTVSPost2010Prop31
280
     0
102
RTVSPost2010PropOp31
 70
     1
102
RTVSPost2010Prop32
280
     0
102
RTVSPost2010PropOp32
 70
     1
102
RTVSPost2010Prop33
280
     0
102
RTVSPost2010PropOp33
 70
     1
102
RTVSPost2010Prop34
280
     0
102
RTVSPost2010PropOp34
 70
     1
102
RTVSPost2010Prop35
280
     0
102
RTVSPost2010PropOp35
 70
     1
102
RTVSPost2010Prop36
280
     0
102
RTVSPost2010PropOp36
 70
     1
102
RTVSPost2010Prop37
 90
       50
102
RTVSPost2010PropOp37
 70
     1
102
RTVSPost2010Prop38
140
0.0
102
RTVSPost2010PropOp38
 70
     1
102
RTVSPost2010Prop39
140
1.0
102
RTVSPost2010PropOp39
 70
     1
102
RTVSPost2010Prop40
 90
        0
102
RTVSPost2010PropOp40
 70
     1
102
RTVSPost2010Prop41ColorIndex
 90
       18
102
RTVSPost2010Prop41ColorRGB
 90
        0
102
RTVSPost2010PropOp41
 70
     1
102
RTVSPost2010Prop42
 90
       50
102
RTVSPost2010PropOp42
 70
     1
102
RTVSPost2010Prop43
 90
        3
102
RTVSPost2010PropOp43
 70
     1
102
RTVSPost2010Prop44ColorIndex
 90
        5
102
RTVSPost2010Prop44ColorRGB
 90
      255
102
RTVSPost2010PropOp44
 70
     1
102
RTVSPost2010Prop45
280
     0
102
RTVSPost2010PropOp45
 70
     1
102
RTVSPost2010Prop46
 90
       50
102
RTVSPost2010PropOp46
 70
     1
102
RTVSPost2010Prop47
 90
       50
102
RTVSPost2010PropOp47
 70
     1
102
RTVSPost2010Prop48
 90
       50
102
RTVSPost2010PropOp48
 70
     1
102
RTVSPost2010Prop49
280
     0
102
RTVSPost2010PropOp49
 70
     1
102
RTVSPost2010Prop50
 90
       50
102
RTVSPost2010PropOp50
 70
     1
102
RTVSPost2010Prop51ColorIndex
 90
      256
102
RTVSPost2010Prop51ColorRGB
 90
-16777216
102
RTVSPost2010PropOp51
 70
     0
102
RTVSPost2010Prop52
140
1.0
102
RTVSPost2010PropOp52
 70
     0
102
RTVSPost2010Prop53
 90
        2
102
RTVSPost2010PropOp53
 70
     1
102
RTVSPost2010Prop54
  1
strokes_ogs.tif
102
RTVSPost2010PropOp54
 70
     1
102
RTVSPost2010Prop55
280
     0
102
RTVSPost2010PropOp55
 70
     1
102
RTVSPost2010Prop56
140
1.0
102
RTVSPost2010PropOp56
 70
     1
102
RTVSPost2010Prop57
140
1.0
102
RTVSPost2010PropOp57
 70
     1
  0
XRECORD
  5
13A
102
{ACAD_REACTORS
330
139
102
}
330
139
100
AcDbXrecord
280
     1
102
RTVSPost2010Prop28
280
     0
102
RTVSPost2010PropOp28
 70
     1
102
RTVSPost2010Prop29
280
     1
102
RTVSPost2010PropOp29
 70
     1
102
RTVSPost2010Prop30
280
     1
102
RTVSPost2010PropOp30
 70
     1
102
RTVSPost2010Prop31
280
     0
102
RTVSPost2010PropOp31
 70
     1
102
RTVSPost2010Prop32
280
     0
102
RTVSPost2010PropOp32
 70
     1
102
RTVSPost2010Prop33
280
     0
102
RTVSPost2010PropOp33
 70
     1
102
RTVSPost2010Prop34
280
     0
102
RTVSPost2010PropOp34
 70
     1
102
RTVSPost2010Prop35
280
     0
102
RTVSPost2010PropOp35
 70
     1
102
RTVSPost2010Prop36
280
     0
102
RTVSPost2010PropOp36
 70
     1
102
RTVSPost2010Prop37
 90
       50
102
RTVSPost2010PropOp37
 70
     1
102
RTVSPost2010Prop38
140
0.0
102
RTVSPost2010PropOp38
 70
     1
102
RTVSPost2010Prop39
140
1.0
102
RTVSPost2010PropOp39
 70
     1
102
RTVSPost2010Prop40
 90
        0
102
RTVSPost2010PropOp40
 70
     1
102
RTVSPost2010Prop41ColorIndex
 90
       18
102
RTVSPost2010Prop41ColorRGB
 90
        0
102
RTVSPost2010PropOp41
 70
     1
102
RTVSPost2010Prop42
 90
       50
102
RTVSPost2010PropOp42
 70
     1
102
RTVSPost2010Prop43
 90
        3
102
RTVSPost2010PropOp43
 70
     1
102
RTVSPost2010Prop44ColorIndex
 90
        5
102
RTVSPost2010Prop44ColorRGB
 90
      255
102
RTVSPost2010PropOp44
 70
     1
102
RTVSPost2010Prop45
280
     0
102
RTVSPost2010PropOp45
 70
     1
102
RTVSPost2010Prop46
 90
       50
102
RTVSPost2010PropOp46
 70
     1
102
RTVSPost2010Prop47
 90
       50
102
RTVSPost2010PropOp47
 70
     1
102
RTVSPost2010Prop48
 90
       50
102
RTVSPost2010PropOp48
 70
     1
102
RTVSPost2010Prop49
280
     0
102
RTVSPost2010PropOp49
 70
     1
102
RTVSPost2010Prop50
 90
       50
102
RTVSPost2010PropOp50
 70
     1
102
RTVSPost2010Prop51ColorIndex
 90
      256
102
RTVSPost2010Prop51ColorRGB
 90
-16777216
102
RTVSPost2010PropOp51
 70
     0
102
RTVSPost2010Prop52
140
1.0
102
RTVSPost2010PropOp52
 70
     0
102
RTVSPost2010Prop53
 90
        2
102
RTVSPost2010PropOp53
 70
     1
102
RTVSPost2010Prop54
  1
strokes_ogs.tif
102
RTVSPost2010PropOp54
 70
     1
102
RTVSPost2010Prop55
280
     0
102
RTVSPost2010PropOp55
 70
     1
102
RTVSPost2010Prop56
140
1.0
102
RTVSPost2010PropOp56
 70
     1
102
RTVSPost2010Prop57
140
1.0
102
RTVSPost2010PropOp57
 70
     1
  0
XRECORD
  5
130
102
{ACAD_REACTORS
330
12F
102
}
330
12F
100
AcDbXrecord
280
     1
102
RTVSPost2010Prop28
280
     0
102
RTVSPost2010PropOp28
 70
     1
102
RTVSPost2010Prop29
280
     1
102
RTVSPost2010PropOp29
 70
     1
102
RTVSPost2010Prop30
280
     1
102
RTVSPost2010PropOp30
 70
     1
102
RTVSPost2010Prop31
280
     0
102
RTVSPost2010PropOp31
 70
     1
102
RTVSPost2010Prop32
280
     0
102
RTVSPost2010PropOp32
 70
     1
102
RTVSPost2010Prop33
280
     0
102
RTVSPost2010PropOp33
 70
     1
102
RTVSPost2010Prop34
280
     0
102
RTVSPost2010PropOp34
 70
     1
102
RTVSPost2010Prop35
280
     0
102
RTVSPost2010PropOp35
 70
     1
102
RTVSPost2010Prop36
280
     0
102
RTVSPost2010PropOp36
 70
     1
102
RTVSPost2010Prop37
 90
       50
102
RTVSPost2010PropOp37
 70
     1
102
RTVSPost2010Prop38
140
0.0
102
RTVSPost2010PropOp38
 70
     1
102
RTVSPost2010Prop39
140
1.0
102
RTVSPost2010PropOp39
 70
     1
102
RTVSPost2010Prop40
 90
        0
102
RTVSPost2010PropOp40
 70
     1
102
RTVSPost2010Prop41ColorIndex
 90
       18
102
RTVSPost2010Prop41ColorRGB
 90
        0
102
RTVSPost2010PropOp41
 70
     1
102
RTVSPost2010Prop42
 90
       50
102
RTVSPost2010PropOp42
 70
     1
102
RTVSPost2010Prop43
 90
        3
102
RTVSPost2010PropOp43
 70
     1
102
RTVSPost2010Prop44ColorIndex
 90
        5
102
RTVSPost2010Prop44ColorRGB
 90
      255
102
RTVSPost2010PropOp44
 70
     1
102
RTVSPost2010Prop45
280
     0
102
RTVSPost2010PropOp45
 70
     1
102
RTVSPost2010Prop46
 90
       50
102
RTVSPost2010PropOp46
 70
     1
102
RTVSPost2010Prop47
 90
       50
102
RTVSPost2010PropOp47
 70
     1
102
RTVSPost2010Prop48
 90
       50
102
RTVSPost2010PropOp48
 70
     1
102
RTVSPost2010Prop49
280
     0
102
RTVSPost2010PropOp49
 70
     1
102
RTVSPost2010Prop50
 90
       50
102
RTVSPost2010PropOp50
 70
     1
102
RTVSPost2010Prop51ColorIndex
 90
      256
102
RTVSPost2010Prop51ColorRGB
 90
-16777216
102
RTVSPost2010PropOp51
 70
     0
102
RTVSPost2010Prop52
140
1.0
102
RTVSPost2010PropOp52
 70
     0
102
RTVSPost2010Prop53
 90
        2
102
RTVSPost2010PropOp53
 70
     1
102
RTVSPost2010Prop54
  1
strokes_ogs.tif
102
RTVSPost2010PropOp54
 70
     1
102
RTVSPost2010Prop55
280
     0
102
RTVSPost2010PropOp55
 70
     1
102
RTVSPost2010Prop56
140
1.0
102
RTVSPost2010PropOp56
 70
     1
102
RTVSPost2010Prop57
140
1.0
102
RTVSPost2010PropOp57
 70
     1
  0
XRECORD
  5
124
102
{ACAD_REACTORS
330
123
102
}
330
123
100
AcDbXrecord
280
     1
102
RTVSPost2010Prop28
280
     0
102
RTVSPost2010PropOp28
 70
     1
102
RTVSPost2010Prop29
280
     1
102
RTVSPost2010PropOp29
 70
     1
102
RTVSPost2010Prop30
280
     1
102
RTVSPost2010PropOp30
 70
     1
102
RTVSPost2010Prop31
280
     0
102
RTVSPost2010PropOp31
 70
     1
102
RTVSPost2010Prop32
280
     0
102
RTVSPost2010PropOp32
 70
     1
102
RTVSPost2010Prop33
280
     0
102
RTVSPost2010PropOp33
 70
     1
102
RTVSPost2010Prop34
280
     0
102
RTVSPost2010PropOp34
 70
     1
102
RTVSPost2010Prop35
280
     0
102
RTVSPost2010PropOp35
 70
     1
102
RTVSPost2010Prop36
280
     0
102
RTVSPost2010PropOp36
 70
     1
102
RTVSPost2010Prop37
 90
       50
102
RTVSPost2010PropOp37
 70
     1
102
RTVSPost2010Prop38
140
0.0
102
RTVSPost2010PropOp38
 70
     1
102
RTVSPost2010Prop39
140
1.0
102
RTVSPost2010PropOp39
 70
     1
102
RTVSPost2010Prop40
 90
        0
102
RTVSPost2010PropOp40
 70
     1
102
RTVSPost2010Prop41ColorIndex
 90
       18
102
RTVSPost2010Prop41ColorRGB
 90
        0
102
RTVSPost2010PropOp41
 70
     1
102
RTVSPost2010Prop42
 90
       50
102
RTVSPost2010PropOp42
 70
     1
102
RTVSPost2010Prop43
 90
        3
102
RTVSPost2010PropOp43
 70
     1
102
RTVSPost2010Prop44ColorIndex
 90
        5
102
RTVSPost2010Prop44ColorRGB
 90
      255
102
RTVSPost2010PropOp44
 70
     1
102
RTVSPost2010Prop45
280
     0
102
RTVSPost2010PropOp45
 70
     1
102
RTVSPost2010Prop46
 90
       50
102
RTVSPost2010PropOp46
 70
     1
102
RTVSPost2010Prop47
 90
       50
102
RTVSPost2010PropOp47
 70
     1
102
RTVSPost2010Prop48
 90
       50
102
RTVSPost2010PropOp48
 70
     1
102
RTVSPost2010Prop49
280
     0
102
RTVSPost2010PropOp49
 70
     1
102
RTVSPost2010Prop50
 90
       50
102
RTVSPost2010PropOp50
 70
     1
102
RTVSPost2010Prop51ColorIndex
 90
      256
102
RTVSPost2010Prop51ColorRGB
 90
-16777216
102
RTVSPost2010PropOp51
 70
     0
102
RTVSPost2010Prop52
140
1.0
102
RTVSPost2010PropOp52
 70
     0
102
RTVSPost2010Prop53
 90
        2
102
RTVSPost2010PropOp53
 70
     1
102
RTVSPost2010Prop54
  1
strokes_ogs.tif
102
RTVSPost2010PropOp54
 70
     1
102
RTVSPost2010Prop55
280
     0
102
RTVSPost2010PropOp55
 70
     1
102
RTVSPost2010Prop56
140
1.0
102
RTVSPost2010PropOp56
 70
     1
102
RTVSPost2010Prop57
140
1.0
102
RTVSPost2010PropOp57
 70
     1
  0
XRECORD
  5
13C
102
{ACAD_REACTORS
330
13B
102
}
330
13B
100
AcDbXrecord
280
     1
102
RTVSPost2010Prop28
280
     0
102
RTVSPost2010PropOp28
 70
     1
102
RTVSPost2010Prop29
280
     1
102
RTVSPost2010PropOp29
 70
     1
102
RTVSPost2010Prop30
280
     1
102
RTVSPost2010PropOp30
 70
     1
102
RTVSPost2010Prop31
280
     0
102
RTVSPost2010PropOp31
 70
     1
102
RTVSPost2010Prop32
280
     0
102
RTVSPost2010PropOp32
 70
     1
102
RTVSPost2010Prop33
280
     0
102
RTVSPost2010PropOp33
 70
     1
102
RTVSPost2010Prop34
280
     0
102
RTVSPost2010PropOp34
 70
     1
102
RTVSPost2010Prop35
280
     0
102
RTVSPost2010PropOp35
 70
     1
102
RTVSPost2010Prop36
280
     0
102
RTVSPost2010PropOp36
 70
     1
102
RTVSPost2010Prop37
 90
       50
102
RTVSPost2010PropOp37
 70
     1
102
RTVSPost2010Prop38
140
0.0
102
RTVSPost2010PropOp38
 70
     1
102
RTVSPost2010Prop39
140
1.0
102
RTVSPost2010PropOp39
 70
     1
102
RTVSPost2010Prop40
 90
        0
102
RTVSPost2010PropOp40
 70
     1
102
RTVSPost2010Prop41ColorIndex
 90
       18
102
RTVSPost2010Prop41ColorRGB
 90
        0
102
RTVSPost2010PropOp41
 70
     1
102
RTVSPost2010Prop42
 90
       50
102
RTVSPost2010PropOp42
 70
     1
102
RTVSPost2010Prop43
 90
        3
102
RTVSPost2010PropOp43
 70
     1
102
RTVSPost2010Prop44ColorIndex
 90
        5
102
RTVSPost2010Prop44ColorRGB
 90
      255
102
RTVSPost2010PropOp44
 70
     1
102
RTVSPost2010Prop45
280
     0
102
RTVSPost2010PropOp45
 70
     1
102
RTVSPost2010Prop46
 90
       50
102
RTVSPost2010PropOp46
 70
     1
102
RTVSPost2010Prop47
 90
       50
102
RTVSPost2010PropOp47
 70
     1
102
RTVSPost2010Prop48
 90
       50
102
RTVSPost2010PropOp48
 70
     1
102
RTVSPost2010Prop49
280
     0
102
RTVSPost2010PropOp49
 70
     1
102
RTVSPost2010Prop50
 90
       50
102
RTVSPost2010PropOp50
 70
     1
102
RTVSPost2010Prop51ColorIndex
 90
      256
102
RTVSPost2010Prop51ColorRGB
 90
-16777216
102
RTVSPost2010PropOp51
 70
     0
102
RTVSPost2010Prop52
140
1.0
102
RTVSPost2010PropOp52
 70
     0
102
RTVSPost2010Prop53
 90
        2
102
RTVSPost2010PropOp53
 70
     1
102
RTVSPost2010Prop54
  1
strokes_ogs.tif
102
RTVSPost2010PropOp54
 70
     1
102
RTVSPost2010Prop55
280
     0
102
RTVSPost2010PropOp55
 70
     1
102
RTVSPost2010Prop56
140
1.0
102
RTVSPost2010PropOp56
 70
     1
102
RTVSPost2010Prop57
140
1.0
102
RTVSPost2010PropOp57
 70
     1
  0
ENDSEC
  0
EOF
