  0
SECTION
  2
HEADER
  9
$ACADVER
  1
AC1024
  9
$ACADMAINTVER
 70
   226
  9
$DWGCODEPAGE
  3
ANSI_932
  9
$INSBASE
 10
0.0
 20
0.0
 30
0.0
  9
$EXTMIN
 10
1.000000000000000E+20
 20
1.000000000000000E+20
 30
1.000000000000000E+20
  9
$EXTMAX
 10
-1.000000000000000E+20
 20
-1.000000000000000E+20
 30
-1.000000000000000E+20
  9
$LIMMIN
 10
0.0
 20
0.0
  9
$LIMMAX
 10
12.0
 20
9.0
  9
$ORTHOMODE
 70
     0
  9
$REGENMODE
 70
     1
  9
$FILLMODE
 70
     1
  9
$QTEXTMODE
 70
     0
  9
$MIRRTEXT
 70
     0
  9
$LTSCALE
 40
1.0
  9
$ATTMODE
 70
     1
  9
$TEXTSIZE
 40
0.2
  9
$TRACEWID
 40
0.05
  9
$TEXTSTYLE
  7
Standard
  9
$CLAYER
  8
0
  9
$CELTYPE
  6
ByLayer
  9
$CECOLOR
 62
   256
  9
$CELTSCALE
 40
1.0
  9
$DISPSILH
 70
     0
  9
$DIMSCALE
 40
1.0
  9
$DIMASZ
 40
0.18
  9
$DIMEXO
 40
0.0625
  9
$DIMDLI
 40
0.38
  9
$DIMRND
 40
0.0
  9
$DIMDLE
 40
0.0
  9
$DIMEXE
 40
0.18
  9
$DIMTP
 40
0.0
  9
$DIMTM
 40
0.0
  9
$DIMTXT
 40
0.18
  9
$DIMCEN
 40
0.09
  9
$DIMTSZ
 40
0.0
  9
$DIMTOL
 70
     0
  9
$DIMLIM
 70
     0
  9
$DIMTIH
 70
     1
  9
$DIMTOH
 70
     1
  9
$DIMSE1
 70
     0
  9
$DIMSE2
 70
     0
  9
$DIMTAD
 70
     0
  9
$DIMZIN
 70
     0
  9
$DIMBLK
  1

  9
$DIMASO
 70
     1
  9
$DIMSHO
 70
     1
  9
$DIMPOST
  1

  9
$DIMAPOST
  1

  9
$DIMALT
 70
     0
  9
$DIMALTD
 70
     2
  9
$DIMALTF
 40
25.4
  9
$DIMLFAC
 40
1.0
  9
$DIMTOFL
 70
     0
  9
$DIMTVP
 40
0.0
  9
$DIMTIX
 70
     0
  9
$DIMSOXD
 70
     0
  9
$DIMSAH
 70
     0
  9
$DIMBLK1
  1

  9
$DIMBLK2
  1

  9
$DIMSTYLE
  2
Standard
  9
$DIMCLRD
 70
     0
  9
$DIMCLRE
 70
     0
  9
$DIMCLRT
 70
     0
  9
$DIMTFAC
 40
1.0
  9
$DIMGAP
 40
0.09
  9
$DIMJUST
 70
     0
  9
$DIMSD1
 70
     0
  9
$DIMSD2
 70
     0
  9
$DIMTOLJ
 70
     1
  9
$DIMTZIN
 70
     0
  9
$DIMALTZ
 70
     0
  9
$DIMALTTZ
 70
     0
  9
$DIMUPT
 70
     0
  9
$DIMDEC
 70
     4
  9
$DIMTDEC
 70
     4
  9
$DIMALTU
 70
     2
  9
$DIMALTTD
 70
     2
  9
$DIMTXSTY
  7
Standard
  9
$DIMAUNIT
 70
     0
  9
$DIMADEC
 70
     0
  9
$DIMALTRND
 40
0.0
  9
$DIMAZIN
 70
     0
  9
$DIMDSEP
 70
    46
  9
$DIMATFIT
 70
     3
  9
$DIMFRAC
 70
     0
  9
$DIMLDRBLK
  1

  9
$DIMLUNIT
 70
     2
  9
$DIMLWD
 70
    -2
  9
$DIMLWE
 70
    -2
  9
$DIMTMOVE
 70
     0
  9
$DIMFXL
 40
1.0
  9
$DIMFXLON
 70
     0
  9
$DIMJOGANG
 40
0.7853981633974483
  9
$DIMTFILL
 70
     0
  9
$DIMTFILLCLR
 70
     0
  9
$DIMARCSYM
 70
     0
  9
$DIMLTYPE
  6

  9
$DIMLTEX1
  6

  9
$DIMLTEX2
  6

  9
$DIMTXTDIRECTION
 70
     0
  9
$LUNITS
 70
     2
  9
$LUPREC
 70
     4
  9
$SKETCHINC
 40
0.1
  9
$FILLETRAD
 40
0.0
  9
$AUNITS
 70
     0
  9
$AUPREC
 70
     0
  9
$MENU
  1
.
  9
$ELEVATION
 40
0.0
  9
$PELEVATION
 40
0.0
  9
$THICKNESS
 40
0.0
  9
$LIMCHECK
 70
     0
  9
$CHAMFERA
 40
0.0
  9
$CHAMFERB
 40
0.0
  9
$CHAMFERC
 40
0.0
  9
$CHAMFERD
 40
0.0
  9
$SKPOLY
 70
     0
  9
$TDCREATE
 40
2459569.489965278
  9
$TDUCREATE
 40
2459569.114965278
  9
$TDUPDATE
 40
2459569.489965278
  9
$TDUUPDATE
 40
2459569.114965278
  9
$TDINDWG
 40
0.0000000000
  9
$TDUSRTIMER
 40
0.0000000000
  9
$USRTIMER
 70
     1
  9
$ANGBASE
 50
0.0
  9
$ANGDIR
 70
     0
  9
$PDMODE
 70
     0
  9
$PDSIZE
 40
0.0
  9
$PLINEWID
 40
0.0
  9
$SPLFRAME
 70
     0
  9
$SPLINETYPE
 70
     6
  9
$SPLINESEGS
 70
     8
  9
$HANDSEED
  5
148
  9
$SURFTAB1
 70
     6
  9
$SURFTAB2
 70
     6
  9
$SURFTYPE
 70
     6
  9
$SURFU
 70
     6
  9
$SURFV
 70
     6
  9
$UCSBASE
  2

  9
$UCSNAME
  2

  9
$UCSORG
 10
0.0
 20
0.0
 30
0.0
  9
$UCSXDIR
 10
1.0
 20
0.0
 30
0.0
  9
$UCSYDIR
 10
0.0
 20
1.0
 30
0.0
  9
$UCSORTHOREF
  2

  9
$UCSORTHOVIEW
 70
     0
  9
$UCSORGTOP
 10
0.0
 20
0.0
 30
0.0
  9
$UCSORGBOTTOM
 10
0.0
 20
0.0
 30
0.0
  9
$UCSORGLEFT
 10
0.0
 20
0.0
 30
0.0
  9
$UCSORGRIGHT
 10
0.0
 20
0.0
 30
0.0
  9
$UCSORGFRONT
 10
0.0
 20
0.0
 30
0.0
  9
$UCSORGBACK
 10
0.0
 20
0.0
 30
0.0
  9
$PUCSBASE
  2

  9
$PUCSNAME
  2

  9
$PUCSORG
 10
0.0
 20
0.0
 30
0.0
  9
$PUCSXDIR
 10
1.0
 20
0.0
 30
0.0
  9
$PUCSYDIR
 10
0.0
 20
1.0
 30
0.0
  9
$PUCSORTHOREF
  2

  9
$PUCSORTHOVIEW
 70
     0
  9
$PUCSORGTOP
 10
0.0
 20
0.0
 30
0.0
  9
$PUCSORGBOTTOM
 10
0.0
 20
0.0
 30
0.0
  9
$PUCSORGLEFT
 10
0.0
 20
0.0
 30
0.0
  9
$PUCSORGRIGHT
 10
0.0
 20
0.0
 30
0.0
  9
$PUCSORGFRONT
 10
0.0
 20
0.0
 30
0.0
  9
$PUCSORGBACK
 10
0.0
 20
0.0
 30
0.0
  9
$USERI1
 70
     0
  9
$USERI2
 70
     0
  9
$USERI3
 70
     0
  9
$USERI4
 70
     0
  9
$USERI5
 70
     0
  9
$USERR1
 40
0.0
  9
$USERR2
 40
0.0
  9
$USERR3
 40
0.0
  9
$USERR4
 40
0.0
  9
$USERR5
 40
0.0
  9
$WORLDVIEW
 70
     1
  9
$SHADEDGE
 70
     3
  9
$SHADEDIF
 70
    70
  9
$TILEMODE
 70
     1
  9
$MAXACTVP
 70
    64
  9
$PINSBASE
 10
0.0
 20
0.0
 30
0.0
  9
$PLIMCHECK
 70
     0
  9
$PEXTMIN
 10
1.000000000000000E+20
 20
1.000000000000000E+20
 30
1.000000000000000E+20
  9
$PEXTMAX
 10
-1.000000000000000E+20
 20
-1.000000000000000E+20
 30
-1.000000000000000E+20
  9
$PLIMMIN
 10
0.0
 20
0.0
  9
$PLIMMAX
 10
12.0
 20
9.0
  9
$UNITMODE
 70
     0
  9
$VISRETAIN
 70
     1
  9
$PLINEGEN
 70
     0
  9
$PSLTSCALE
 70
     1
  9
$TREEDEPTH
 70
  3020
  9
$CMLSTYLE
  2
Standard
  9
$CMLJUST
 70
     0
  9
$CMLSCALE
 40
1.0
  9
$PROXYGRAPHICS
 70
     1
  9
$MEASUREMENT
 70
     0
  9
$CELWEIGHT
370
    -1
  9
$ENDCAPS
280
     0
  9
$JOINSTYLE
280
     0
  9
$LWDISPLAY
290
     1
  9
$INSUNITS
 70
     4
  9
$HYPERLINKBASE
  1

  9
$STYLESHEET
  1

  9
$XEDIT
290
     1
  9
$CEPSNTYPE
380
     0
  9
$PSTYLEMODE
290
     1
  9
$FINGERPRINTGUID
  2
{AECFF751-63AC-414A-8633-DAF600566581}
  9
$VERSIONGUID
  2
{41F5D8A0-D9D5-B043-A2F9-6DF73942F843}
  9
$EXTNAMES
290
     1
  9
$PSVPSCALE
 40
0.0
  9
$OLESTARTUP
290
     0
  9
$SORTENTS
280
   127
  9
$INDEXCTL
280
     0
  9
$HIDETEXT
280
     1
  9
$XCLIPFRAME
280
     2
  9
$HALOGAP
280
     0
  9
$OBSCOLOR
 70
   257
  9
$OBSLTYPE
280
     0
  9
$INTERSECTIONDISPLAY
280
     0
  9
$INTERSECTIONCOLOR
 70
   257
  9
$DIMASSOC
280
     2
  9
$PROJECTNAME
  1

  9
$CAMERADISPLAY
290
     0
  9
$LENSLENGTH
 40
50.0
  9
$CAMERAHEIGHT
 40
0.0
  9
$STEPSPERSEC
 40
2.0
  9
$STEPSIZE
 40
6.0
  9
$3DDWFPREC
 40
2.0
  9
$PSOLWIDTH
 40
0.25
  9
$PSOLHEIGHT
 40
4.0
  9
$LOFTANG1
 40
1.570796326794896
  9
$LOFTANG2
 40
1.570796326794896
  9
$LOFTMAG1
 40
0.0
  9
$LOFTMAG2
 40
0.0
  9
$LOFTPARAM
 70
     7
  9
$LOFTNORMALS
280
     1
  9
$LATITUDE
 40
37.795
  9
$LONGITUDE
 40
-122.394
  9
$NORTHDIRECTION
 40
0.0
  9
$TIMEZONE
 70
 -8000
  9
$LIGHTGLYPHDISPLAY
280
     1
  9
$TILEMODELIGHTSYNCH
280
     1
  9
$CMATERIAL
347
11
  9
$SOLIDHIST
280
     0
  9
$SHOWHIST
280
     1
  9
$DWFFRAME
280
     2
  9
$DGNFRAME
280
     0
  9
$REALWORLDSCALE
290
     1
  9
$INTERFERECOLOR
 62
     1
  9
$INTERFEREOBJVS
345
33
  9
$INTERFEREVPVS
346
30
  9
$CSHADOW
280
     0
  9
$SHADOWPLANELOCATION
 40
0.0
  0
ENDSEC
  0
SECTION
  2
CLASSES
  0
CLASS
  1
ACDBDICTIONARYWDFLT
  2
AcDbDictionaryWithDefault
  3
ObjectDBX Classes
 90
        0
 91
        1
280
     0
281
     0
  0
CLASS
  1
MATERIAL
  2
AcDbMaterial
  3
ObjectDBX Classes
 90
     1153
 91
        3
280
     0
281
     0
  0
CLASS
  1
VISUALSTYLE
  2
AcDbVisualStyle
  3
ObjectDBX Classes
 90
     4095
 91
       24
280
     0
281
     0
  0
CLASS
  1
SCALE
  2
AcDbScale
  3
ObjectDBX Classes
 90
     1153
 91
       17
280
     0
281
     0
  0
CLASS
  1
TABLESTYLE
  2
AcDbTableStyle
  3
ObjectDBX Classes
 90
     4095
 91
        1
280
     0
281
     0
  0
CLASS
  1
MLEADERSTYLE
  2
AcDbMLeaderStyle
  3
ACDB_MLEADERSTYLE_CLASS
 90
     4095
 91
        1
280
     0
281
     0
  0
CLASS
  1
ACDBSECTIONVIEWSTYLE
  2
AcDbSectionViewStyle
  3
ObjectDBX Classes
 90
     1025
 91
        1
280
     0
281
     0
  0
CLASS
  1
ACDBDETAILVIEWSTYLE
  2
AcDbDetailViewStyle
  3
ObjectDBX Classes
 90
     1025
 91
        1
280
     0
281
     0
  0
CLASS
  1
DICTIONARYVAR
  2
AcDbDictionaryVar
  3
ObjectDBX Classes
 90
        0
 91
        5
280
     0
281
     0
  0
CLASS
  1
CELLSTYLEMAP
  2
AcDbCellStyleMap
  3
ObjectDBX Classes
 90
     1152
 91
        1
280
     0
281
     0
  0
ENDSEC
  0
SECTION
  2
TABLES
  0
TABLE
  2
VPORT
  5
8
330
0
100
AcDbSymbolTable
 70
     1
  0
VPORT
  5
57
330
8
100
AcDbSymbolTableRecord
100
AcDbViewportTableRecord
  2
*Active
 70
     0
 10
0.0
 20
0.0
 11
1.0
 21
1.0
 12
0.0
 22
0.0
 13
0.0
 23
0.0
 14
1.0
 24
1.0
 15
0.0
 25
0.0
 16
0.0
 26
0.0
 36
1.0
 17
104.9999999737534
 27
-148.4999999628701
 37
0.0
 40
302.939999924255
 41
0.7070707070707534
 42
50.0
 43
0.0
 44
0.0
 50
0.0
 51
0.0
 71
     0
 72
   100
 73
     1
 74
     0
 75
     1
 76
     0
 77
     0
 78
     0
281
     0
 65
     1
110
0.0
120
0.0
130
0.0
111
1.0
121
0.0
131
0.0
112
0.0
122
1.0
132
0.0
 79
     0
146
0.0
 60
     3
 61
     5
292
     1
282
     1
141
0.0
142
0.0
 63
   250
421
  3355443
  0
ENDTAB
  0
TABLE
  2
LTYPE
  5
5
330
0
100
AcDbSymbolTable
 70
     2
  0
LTYPE
  5
5B
330
5
100
AcDbSymbolTableRecord
100
AcDbLinetypeTableRecord
  2
ByBlock
 70
     0
  3

 72
    65
 73
     0
 40
0.0
  0
LTYPE
  5
5C
330
5
100
AcDbSymbolTableRecord
100
AcDbLinetypeTableRecord
  2
ByLayer
 70
     0
  3

 72
    65
 73
     0
 40
0.0
  0
LTYPE
  5
5D
330
5
100
AcDbSymbolTableRecord
100
AcDbLinetypeTableRecord
  2
Continuous
 70
     0
  3
Solid line
 72
    65
 73
     0
 40
0.0
  0
LTYPE
  5
108
330
5
100
AcDbSymbolTableRecord
100
AcDbLinetypeTableRecord
  2
AI-Linetype-0
 70
     0
  3
Adobe Illustrator Linetype No. 0
 72
    65
 73
     2
 40
1.411111110758333
 49
0.7055555553791667
 74
     0
 49
-0.7055555553791667
 74
     0
  0
ENDTAB
  0
TABLE
  2
LAYER
  5
2
330
0
100
AcDbSymbolTable
 70
     2
  0
LAYER
  5
54
330
2
100
AcDbSymbolTableRecord
100
AcDbLayerTableRecord
  2
0
 70
     0
 62
     7
  6
Continuous
370
    -3
390
F
347
21
  0
LAYER
  5
78
330
2
100
AcDbSymbolTableRecord
100
AcDbLayerTableRecord
  2
レイヤー 1
 70
     0
 62
     7
  6
Continuous
370
     0
390
F
347
21
  0
ENDTAB
  0
TABLE
  2
STYLE
  5
3
330
0
100
AcDbSymbolTable
 70
     2
  0
STYLE
  5
55
330
3
100
AcDbSymbolTableRecord
100
AcDbTextStyleTableRecord
  2
Standard
 70
     0
 40
0.0
 41
1.0
 50
0.0
 71
     0
 42
0.2
  3
txt
  4

  0
STYLE
  5
5A
330
3
100
AcDbSymbolTableRecord
100
AcDbTextStyleTableRecord
  2
Annotative
 70
     0
 40
0.0
 41
1.0
 50
0.0
 71
     0
 42
0.2
  3
txt
  4

1001
AcadAnnotative
1000
AnnotativeData
1002
{
1070
     1
1070
     1
1002
}
  0
ENDTAB
  0
TABLE
  2
VIEW
  5
6
330
0
100
AcDbSymbolTable
 70
     0
  0
ENDTAB
  0
TABLE
  2
UCS
  5
7
330
0
100
AcDbSymbolTable
 70
     0
  0
ENDTAB
  0
TABLE
  2
APPID
  5
9
330
0
100
AcDbSymbolTable
 70
     2
  0
APPID
  5
56
330
9
100
AcDbSymbolTableRecord
100
AcDbRegAppTableRecord
  2
ACAD
 70
     0
  0
APPID
  5
5E
330
9
100
AcDbSymbolTableRecord
100
AcDbRegAppTableRecord
  2
AcadAnnotative
 70
     0
  0
ENDTAB
  0
TABLE
  2
DIMSTYLE
  5
A
330
0
100
AcDbSymbolTable
 70
     2
100
AcDbDimStyleTable
 71
     0
  0
DIMSTYLE
105
58
330
A
100
AcDbSymbolTableRecord
100
AcDbDimStyleTableRecord
  2
Standard
 70
     0
340
55
  0
DIMSTYLE
105
59
330
A
100
AcDbSymbolTableRecord
100
AcDbDimStyleTableRecord
  2
Annotative
 70
     0
340
55
1001
AcadAnnotative
1000
AnnotativeData
1002
{
1070
     1
1070
     1
1002
}
  0
ENDTAB
  0
TABLE
  2
BLOCK_RECORD
  5
1
330
0
100
AcDbSymbolTable
 70
    13
  0
BLOCK_RECORD
  5
70
330
1
100
AcDbSymbolTableRecord
100
AcDbBlockTableRecord
  2
*Model_Space
340
73
 70
     0
280
     1
281
     0
  0
BLOCK_RECORD
  5
6C
330
1
100
AcDbSymbolTableRecord
100
AcDbBlockTableRecord
  2
*Paper_Space
340
6F
 70
     0
280
     1
281
     0
  0
BLOCK_RECORD
  5
74
330
1
100
AcDbSymbolTableRecord
100
AcDbBlockTableRecord
  2
*Paper_Space0
340
77
 70
     0
280
     1
281
     0
  0
BLOCK_RECORD
  5
95
330
1
100
AcDbSymbolTableRecord
100
AcDbBlockTableRecord
  2
Block_0
340
0
102
{BLKREFS
331
96
102
}
 70
     0
280
     1
281
     0
  0
BLOCK_RECORD
  5
9E
330
1
100
AcDbSymbolTableRecord
100
AcDbBlockTableRecord
  2
Block_1
340
0
102
{BLKREFS
331
9F
102
}
 70
     0
280
     1
281
     0
  0
BLOCK_RECORD
  5
A2
330
1
100
AcDbSymbolTableRecord
100
AcDbBlockTableRecord
  2
Block_2
340
0
102
{BLKREFS
331
A3
102
}
 70
     0
280
     1
281
     0
  0
BLOCK_RECORD
  5
AD
330
1
100
AcDbSymbolTableRecord
100
AcDbBlockTableRecord
  2
Block_3
340
0
102
{BLKREFS
331
AE
102
}
 70
     0
280
     1
281
     0
  0
BLOCK_RECORD
  5
B7
330
1
100
AcDbSymbolTableRecord
100
AcDbBlockTableRecord
  2
Block_4
340
0
102
{BLKREFS
331
B8
102
}
 70
     0
280
     1
281
     0
  0
BLOCK_RECORD
  5
BB
330
1
100
AcDbSymbolTableRecord
100
AcDbBlockTableRecord
  2
Block_5
340
0
102
{BLKREFS
331
BC
102
}
 70
     0
280
     1
281
     0
  0
BLOCK_RECORD
  5
C7
330
1
100
AcDbSymbolTableRecord
100
AcDbBlockTableRecord
  2
Block_6
340
0
102
{BLKREFS
331
C8
102
}
 70
     0
280
     1
281
     0
  0
BLOCK_RECORD
  5
CB
330
1
100
AcDbSymbolTableRecord
100
AcDbBlockTableRecord
  2
Block_7
340
0
102
{BLKREFS
331
CC
102
}
 70
     0
280
     1
281
     0
  0
BLOCK_RECORD
  5
D8
330
1
100
AcDbSymbolTableRecord
100
AcDbBlockTableRecord
  2
Block_8
340
0
102
{BLKREFS
331
D9
102
}
 70
     0
280
     1
281
     0
  0
BLOCK_RECORD
  5
DC
330
1
100
AcDbSymbolTableRecord
100
AcDbBlockTableRecord
  2
Block_9
340
0
102
{BLKREFS
331
DD
102
}
 70
     0
280
     1
281
     0
  0
BLOCK_RECORD
  5
E5
330
1
100
AcDbSymbolTableRecord
100
AcDbBlockTableRecord
  2
Block_10
340
0
102
{BLKREFS
331
E6
102
}
 70
     0
280
     1
281
     0
  0
BLOCK_RECORD
  5
E9
330
1
100
AcDbSymbolTableRecord
100
AcDbBlockTableRecord
  2
Block_11
340
0
102
{BLKREFS
331
EA
102
}
 70
     0
280
     1
281
     0
  0
ENDTAB
  0
ENDSEC
  0
SECTION
  2
BLOCKS
  0
BLOCK
  5
71
330
70
100
AcDbEntity
  8
0
100
AcDbBlockBegin
  2
*Model_Space
 70
     0
 10
0.0
 20
0.0
 30
0.0
  3
*Model_Space
  1

  0
ENDBLK
  5
72
330
70
100
AcDbEntity
  8
0
100
AcDbBlockEnd
  0
BLOCK
  5
6D
330
6C
100
AcDbEntity
 67
     1
  8
0
100
AcDbBlockBegin
  2
*Paper_Space
 70
     0
 10
0.0
 20
0.0
 30
0.0
  3
*Paper_Space
  1

  0
ENDBLK
  5
6E
330
6C
100
AcDbEntity
 67
     1
  8
0
100
AcDbBlockEnd
  0
BLOCK
  5
75
330
74
100
AcDbEntity
 67
     1
  8
0
100
AcDbBlockBegin
  2
*Paper_Space0
 70
     0
 10
0.0
 20
0.0
 30
0.0
  3
*Paper_Space0
  1

  0
ENDBLK
  5
76
330
74
100
AcDbEntity
 67
     1
  8
0
100
AcDbBlockEnd
  0
BLOCK
  5
97
330
95
100
AcDbEntity
  8
0
100
AcDbBlockBegin
  2
Block_0
 70
     0
 10
0.0
 20
0.0
 30
0.0
  3
Block_0
  1

  0
SPLINE
  5
99
330
95
100
AcDbEntity
  8
レイヤー 1
100
AcDbSpline
210
0.0
220
0.0
230
1.0
 70
    11
 71
     3
 72
    26
 73
    22
 74
     0
 42
0.0000000001
 43
0.0000000001
 40
0.0
 40
0.0
 40
0.0
 40
0.0
 40
1.0
 40
1.0
 40
1.0
 40
2.0
 40
2.0
 40
2.0
 40
3.0
 40
3.0
 40
3.0
 40
4.0
 40
4.0
 40
4.0
 40
5.0
 40
5.0
 40
5.0
 40
6.0
 40
6.0
 40
6.0
 40
7.0
 40
7.0
 40
7.0
 40
7.0
 10
120.6637803517785
 20
-137.7225151565416
 30
0.0
 10
120.6637803517785
 20
-137.7225151565416
 30
0.0
 10
119.5596272487559
 20
-137.7225151565416
 30
0.0
 10
119.5596272487559
 20
-137.7225151565416
 30
0.0
 10
119.5596272487559
 20
-137.7225151565416
 30
0.0
 10
119.5596272487559
 20
-138.0525553040285
 30
0.0
 10
119.5596272487559
 20
-138.0525553040285
 30
0.0
 10
119.5596272487559
 20
-138.0525553040285
 30
0.0
 10
119.4114881428902
 20
-138.0525553040285
 30
0.0
 10
119.4114881428902
 20
-138.0525553040285
 30
0.0
 10
119.3966742323036
 20
-137.7204480992504
 30
0.0
 10
119.2337212158513
 20
-137.6739393101996
 30
0.0
 10
119.119344045741
 20
-137.6443114890264
 30
0.0
 10
119.119344045741
 20
-137.6443114890264
 30
0.0
 10
119.119344045741
 20
-137.4982394404518
 30
0.0
 10
119.119344045741
 20
-137.4982394404518
 30
0.0
 10
119.119344045741
 20
-137.4982394404518
 30
0.0
 10
120.6637803517785
 20
-137.4982394404518
 30
0.0
 10
120.6637803517785
 20
-137.4982394404518
 30
0.0
 10
120.6637803517785
 20
-137.4982394404518
 30
0.0
 10
120.6637803517785
 20
-137.7225151565416
 30
0.0
 10
120.6637803517785
 20
-137.7225151565416
 30
0.0
  0
HATCH
  5
9A
330
95
100
AcDbEntity
  8
レイヤー 1
 62
    18
420
        0
440
 33554687
100
AcDbHatch
 10
0.0
 20
0.0
 30
0.0
210
0.0
220
0.0
230
1.0
  2
SOLID
 70
     1
 71
     1
 91
        1
 92
        1
 93
        1
 72
     4
 94
        3
 73
     0
 74
     0
 95
       26
 96
       22
 40
0.0
 40
0.0
 40
0.0
 40
0.0
 40
1.0
 40
1.0
 40
1.0
 40
2.0
 40
2.0
 40
2.0
 40
3.0
 40
3.0
 40
3.0
 40
4.0
 40
4.0
 40
4.0
 40
5.0
 40
5.0
 40
5.0
 40
6.0
 40
6.0
 40
6.0
 40
7.0
 40
7.0
 40
7.0
 40
7.0
 10
120.6637803517785
 20
-137.7225151565416
 10
120.6637803517785
 20
-137.7225151565416
 10
119.5596272487559
 20
-137.7225151565416
 10
119.5596272487559
 20
-137.7225151565416
 10
119.5596272487559
 20
-137.7225151565416
 10
119.5596272487559
 20
-138.0525553040285
 10
119.5596272487559
 20
-138.0525553040285
 10
119.5596272487559
 20
-138.0525553040285
 10
119.4114881428902
 20
-138.0525553040285
 10
119.4114881428902
 20
-138.0525553040285
 10
119.3966742323036
 20
-137.7204480992504
 10
119.2337212158513
 20
-137.6739393101996
 10
119.119344045741
 20
-137.6443114890264
 10
119.119344045741
 20
-137.6443114890264
 10
119.119344045741
 20
-137.4982394404518
 10
119.119344045741
 20
-137.4982394404518
 10
119.119344045741
 20
-137.4982394404518
 10
120.6637803517785
 20
-137.4982394404518
 10
120.6637803517785
 20
-137.4982394404518
 10
120.6637803517785
 20
-137.4982394404518
 10
120.6637803517785
 20
-137.7225151565416
 10
120.6637803517785
 20
-137.7225151565416
 97
        0
 97
        1
330
99
 75
     2
 76
     1
 98
        1
 10
0.0
 20
0.0
450
        0
451
        0
460
0.0
461
0.0
452
        0
462
0.0
453
        0
470

  0
ENDBLK
  5
98
330
95
100
AcDbEntity
  8
0
100
AcDbBlockEnd
  0
BLOCK
  5
A0
330
9E
100
AcDbEntity
  8
0
100
AcDbBlockBegin
  2
Block_1
 70
     0
 10
0.0
 20
0.0
 30
0.0
  3
Block_1
  1

  0
INSERT
  5
A3
330
9E
100
AcDbEntity
  8
レイヤー 1
100
AcDbBlockReference
  2
Block_2
 10
0.0
 20
0.0
 30
0.0
  0
ENDBLK
  5
A1
330
9E
100
AcDbEntity
  8
0
100
AcDbBlockEnd
  0
BLOCK
  5
A4
330
A2
100
AcDbEntity
  8
0
100
AcDbBlockBegin
  2
Block_2
 70
     0
 10
0.0
 20
0.0
 30
0.0
  3
Block_2
  1

  0
SPLINE
  5
A6
330
A2
100
AcDbEntity
  8
レイヤー 1
100
AcDbSpline
210
0.0
220
0.0
230
1.0
 70
    11
 71
     3
 72
    26
 73
    22
 74
     0
 42
0.0000000001
 43
0.0000000001
 40
0.0
 40
0.0
 40
0.0
 40
0.0
 40
1.0
 40
1.0
 40
1.0
 40
2.0
 40
2.0
 40
2.0
 40
3.0
 40
3.0
 40
3.0
 40
4.0
 40
4.0
 40
4.0
 40
5.0
 40
5.0
 40
5.0
 40
6.0
 40
6.0
 40
6.0
 40
7.0
 40
7.0
 40
7.0
 40
7.0
 10
97.25228947221472
 20
-158.3748290619688
 30
0.0
 10
97.25228947221472
 20
-158.3748290619688
 30
0.0
 10
97.25228947221472
 20
-157.2706759589462
 30
0.0
 10
97.25228947221472
 20
-157.2706759589462
 30
0.0
 10
97.25228947221472
 20
-157.2706759589462
 30
0.0
 10
96.92224932472777
 20
-157.2706759589462
 30
0.0
 10
96.92224932472777
 20
-157.2706759589462
 30
0.0
 10
96.92224932472777
 20
-157.2706759589462
 30
0.0
 10
96.92224932472777
 20
-157.1225368530805
 30
0.0
 10
96.92224932472777
 20
-157.1225368530805
 30
0.0
 10
97.25435652950586
 20
-157.1077229424939
 30
0.0
 10
97.30086531855674
 20
-156.9447699260416
 30
0.0
 10
97.33049313972989
 20
-156.8303927559313
 30
0.0
 10
97.33049313972989
 20
-156.8303927559313
 30
0.0
 10
97.47656518830448
 20
-156.8303927559313
 30
0.0
 10
97.47656518830448
 20
-156.8303927559313
 30
0.0
 10
97.47656518830448
 20
-156.8303927559313
 30
0.0
 10
97.47656518830448
 20
-158.3748290619688
 30
0.0
 10
97.47656518830448
 20
-158.3748290619688
 30
0.0
 10
97.47656518830448
 20
-158.3748290619688
 30
0.0
 10
97.25228947221472
 20
-158.3748290619688
 30
0.0
 10
97.25228947221472
 20
-158.3748290619688
 30
0.0
  0
HATCH
  5
A7
330
A2
100
AcDbEntity
  8
レイヤー 1
 62
    18
420
        0
440
 33554687
100
AcDbHatch
 10
0.0
 20
0.0
 30
0.0
210
0.0
220
0.0
230
1.0
  2
SOLID
 70
     1
 71
     1
 91
        1
 92
        1
 93
        1
 72
     4
 94
        3
 73
     0
 74
     0
 95
       26
 96
       22
 40
0.0
 40
0.0
 40
0.0
 40
0.0
 40
1.0
 40
1.0
 40
1.0
 40
2.0
 40
2.0
 40
2.0
 40
3.0
 40
3.0
 40
3.0
 40
4.0
 40
4.0
 40
4.0
 40
5.0
 40
5.0
 40
5.0
 40
6.0
 40
6.0
 40
6.0
 40
7.0
 40
7.0
 40
7.0
 40
7.0
 10
97.25228947221472
 20
-158.3748290619688
 10
97.25228947221472
 20
-158.3748290619688
 10
97.25228947221472
 20
-157.2706759589462
 10
97.25228947221472
 20
-157.2706759589462
 10
97.25228947221472
 20
-157.2706759589462
 10
96.92224932472777
 20
-157.2706759589462
 10
96.92224932472777
 20
-157.2706759589462
 10
96.92224932472777
 20
-157.2706759589462
 10
96.92224932472777
 20
-157.1225368530805
 10
96.92224932472777
 20
-157.1225368530805
 10
97.25435652950586
 20
-157.1077229424939
 10
97.30086531855674
 20
-156.9447699260416
 10
97.33049313972989
 20
-156.8303927559313
 10
97.33049313972989
 20
-156.8303927559313
 10
97.47656518830448
 20
-156.8303927559313
 10
97.47656518830448
 20
-156.8303927559313
 10
97.47656518830448
 20
-156.8303927559313
 10
97.47656518830448
 20
-158.3748290619688
 10
97.47656518830448
 20
-158.3748290619688
 10
97.47656518830448
 20
-158.3748290619688
 10
97.25228947221472
 20
-158.3748290619688
 10
97.25228947221472
 20
-158.3748290619688
 97
        0
 97
        1
330
A6
 75
     2
 76
     1
 98
        1
 10
0.0
 20
0.0
450
        0
451
        0
460
0.0
461
0.0
452
        0
462
0.0
453
        0
470

  0
SPLINE
  5
A8
330
A2
100
AcDbEntity
  8
レイヤー 1
100
AcDbSpline
210
0.0
220
0.0
230
1.0
 70
     9
 71
     3
 72
    17
 73
    13
 74
     0
 42
0.0000000001
 43
0.0000000001
 40
0.0
 40
0.0
 40
0.0
 40
0.0
 40
1.0
 40
1.0
 40
1.0
 40
2.0
 40
2.0
 40
2.0
 40
3.0
 40
3.0
 40
3.0
 40
4.0
 40
4.0
 40
4.0
 40
4.0
 10
98.47770993631808
 20
-156.9743977472147
 30
0.0
 10
98.22794051363747
 20
-156.9743977472147
 30
0.0
 10
98.18143172458659
 20
-157.2579291056508
 30
0.0
 10
98.18143172458659
 20
-157.6027831637243
 30
0.0
 10
98.18143172458659
 20
-157.922143515207
 30
0.0
 10
98.21760522718172
 20
-158.2308240706853
 30
0.0
 10
98.47770993631808
 20
-158.2308240706853
 30
0.0
 10
98.72541230170753
 20
-158.2308240706853
 30
0.0
 10
98.77398814804957
 20
-157.9497042790889
 30
0.0
 10
98.77398814804957
 20
-157.6027831637243
 30
0.0
 10
98.77398814804957
 20
-157.2830783026931
 30
0.0
 10
98.7357475881633
 20
-156.9743977472147
 30
0.0
 10
98.47770993631808
 20
-156.9743977472147
 30
0.0
  0
SPLINE
  5
A9
330
A2
100
AcDbEntity
  8
レイヤー 1
100
AcDbSpline
210
0.0
220
0.0
230
1.0
 70
     9
 71
     3
 72
    29
 73
    25
 74
     0
 42
0.0000000001
 43
0.0000000001
 40
0.0
 40
0.0
 40
0.0
 40
0.0
 40
1.0
 40
1.0
 40
1.0
 40
2.0
 40
2.0
 40
2.0
 40
3.0
 40
3.0
 40
3.0
 40
4.0
 40
4.0
 40
4.0
 40
5.0
 40
5.0
 40
5.0
 40
6.0
 40
6.0
 40
6.0
 40
7.0
 40
7.0
 40
7.0
 40
8.0
 40
8.0
 40
8.0
 40
8.0
 10
98.87561846486443
 20
-158.1970621349299
 30
0.0
 10
98.76744246662759
 20
-158.4065239404331
 30
0.0
 10
98.59415416371952
 20
-158.425471965602
 30
0.0
 10
98.47770993631808
 20
-158.425471965602
 30
0.0
 10
98.31682397715692
 20
-158.425471965602
 30
0.0
 10
98.17523055271315
 20
-158.3789631765511
 30
0.0
 10
98.08014591732025
 20
-158.1970621349299
 30
0.0
 10
97.97644854321424
 20
-158.0024142400133
 30
0.0
 10
97.95715600849682
 20
-157.7657361801766
 30
0.0
 10
97.95715600849682
 20
-157.6027831637243
 30
0.0
 10
97.95715600849682
 20
-157.4587781724408
 30
0.0
 10
97.97438148592307
 20
-157.2069416924691
 30
0.0
 10
98.08014591732025
 20
-157.0081596829702
 30
0.0
 10
98.18797740600857
 20
-156.805243558889
 30
0.0
 10
98.34886336516973
 20
-156.7818169095892
 30
0.0
 10
98.47770993631808
 20
-156.7818169095892
 30
0.0
 10
98.6365288381881
 20
-156.7818169095892
 30
0.0
 10
98.78018931992301
 20
-156.826258641349
 30
0.0
 10
98.87561846486443
 20
-157.0081596829702
 30
0.0
 10
98.97483721483963
 20
-157.2007405205956
 30
0.0
 10
98.99826386413934
 20
-157.4291503512677
 30
0.0
 10
98.99826386413934
 20
-157.6027831637243
 30
0.0
 10
98.99826386413934
 20
-157.7740044093412
 30
0.0
 10
98.97690427213078
 20
-158.0044812973044
 30
0.0
 10
98.87561846486443
 20
-158.1970621349299
 30
0.0
  0
HATCH
  5
AA
330
A2
100
AcDbEntity
  8
レイヤー 1
 62
    18
420
        0
440
 33554687
100
AcDbHatch
 10
0.0
 20
0.0
 30
0.0
210
0.0
220
0.0
230
1.0
  2
SOLID
 70
     1
 71
     1
 91
        2
 92
        1
 93
        1
 72
     4
 94
        3
 73
     0
 74
     0
 95
       17
 96
       13
 40
0.0
 40
0.0
 40
0.0
 40
0.0
 40
1.0
 40
1.0
 40
1.0
 40
2.0
 40
2.0
 40
2.0
 40
3.0
 40
3.0
 40
3.0
 40
4.0
 40
4.0
 40
4.0
 40
4.0
 10
98.47770993631808
 20
-156.9743977472147
 10
98.22794051363747
 20
-156.9743977472147
 10
98.18143172458659
 20
-157.2579291056508
 10
98.18143172458659
 20
-157.6027831637243
 10
98.18143172458659
 20
-157.922143515207
 10
98.21760522718172
 20
-158.2308240706853
 10
98.47770993631808
 20
-158.2308240706853
 10
98.72541230170753
 20
-158.2308240706853
 10
98.77398814804957
 20
-157.9497042790889
 10
98.77398814804957
 20
-157.6027831637243
 10
98.77398814804957
 20
-157.2830783026931
 10
98.7357475881633
 20
-156.9743977472147
 10
98.47770993631808
 20
-156.9743977472147
 97
        0
 97
        1
330
A8
 92
        1
 93
        1
 72
     4
 94
        3
 73
     0
 74
     0
 95
       29
 96
       25
 40
0.0
 40
0.0
 40
0.0
 40
0.0
 40
1.0
 40
1.0
 40
1.0
 40
2.0
 40
2.0
 40
2.0
 40
3.0
 40
3.0
 40
3.0
 40
4.0
 40
4.0
 40
4.0
 40
5.0
 40
5.0
 40
5.0
 40
6.0
 40
6.0
 40
6.0
 40
7.0
 40
7.0
 40
7.0
 40
8.0
 40
8.0
 40
8.0
 40
8.0
 10
98.87561846486443
 20
-158.1970621349299
 10
98.76744246662759
 20
-158.4065239404331
 10
98.59415416371952
 20
-158.425471965602
 10
98.47770993631808
 20
-158.425471965602
 10
98.31682397715692
 20
-158.425471965602
 10
98.17523055271315
 20
-158.3789631765511
 10
98.08014591732025
 20
-158.1970621349299
 10
97.97644854321424
 20
-158.0024142400133
 10
97.95715600849682
 20
-157.7657361801766
 10
97.95715600849682
 20
-157.6027831637243
 10
97.95715600849682
 20
-157.4587781724408
 10
97.97438148592307
 20
-157.2069416924691
 10
98.08014591732025
 20
-157.0081596829702
 10
98.18797740600857
 20
-156.805243558889
 10
98.34886336516973
 20
-156.7818169095892
 10
98.47770993631808
 20
-156.7818169095892
 10
98.6365288381881
 20
-156.7818169095892
 10
98.78018931992301
 20
-156.826258641349
 10
98.87561846486443
 20
-157.0081596829702
 10
98.97483721483963
 20
-157.2007405205956
 10
98.99826386413934
 20
-157.4291503512677
 10
98.99826386413934
 20
-157.6027831637243
 10
98.99826386413934
 20
-157.7740044093412
 10
98.97690427213078
 20
-158.0044812973044
 10
98.87561846486443
 20
-158.1970621349299
 97
        0
 97
        1
330
A9
 75
     2
 76
     1
 98
        1
 10
0.0
 20
0.0
450
        0
451
        0
460
0.0
461
0.0
452
        0
462
0.0
453
        0
470

  0
ENDBLK
  5
A5
330
A2
100
AcDbEntity
  8
0
100
AcDbBlockEnd
  0
BLOCK
  5
AF
330
AD
100
AcDbEntity
  8
0
100
AcDbBlockBegin
  2
Block_3
 70
     0
 10
0.0
 20
0.0
 30
0.0
  3
Block_3
  1

  0
SPLINE
  5
B1
330
AD
100
AcDbEntity
  8
レイヤー 1
100
AcDbSpline
210
0.0
220
0.0
230
1.0
 70
     9
 71
     3
 72
    17
 73
    13
 74
     0
 42
0.0000000001
 43
0.0000000001
 40
0.0
 40
0.0
 40
0.0
 40
0.0
 40
1.0
 40
1.0
 40
1.0
 40
2.0
 40
2.0
 40
2.0
 40
3.0
 40
3.0
 40
3.0
 40
4.0
 40
4.0
 40
4.0
 40
4.0
 10
89.98865015111396
 20
-157.5662651515806
 30
0.0
 10
89.72630612991217
 20
-157.5662651515806
 30
0.0
 10
89.68823782480017
 20
-157.777794014375
 30
0.0
 10
89.68823782480017
 20
-157.8942382417764
 30
0.0
 10
89.68823782480017
 20
-158.0699381115242
 30
0.0
 10
89.78349471496732
 20
-158.2328911279765
 30
0.0
 10
89.96746281387967
 20
-158.2328911279765
 30
0.0
 10
90.08804115586341
 20
-158.2328911279765
 30
0.0
 10
90.26374102561115
 20
-158.1736354856302
 30
0.0
 10
90.26374102561115
 20
-157.888037069903
 30
0.0
 10
90.26374102561115
 20
-157.6637613538132
 30
0.0
 10
90.12404240368427
 20
-157.5662651515806
 30
0.0
 10
89.98865015111396
 20
-157.5662651515806
 30
0.0
  0
SPLINE
  5
B2
330
AD
100
AcDbEntity
  8
レイヤー 1
100
AcDbSpline
210
0.0
220
0.0
230
1.0
 70
     9
 71
     3
 72
    32
 73
    28
 74
     0
 42
0.0000000001
 43
0.0000000001
 40
0.0
 40
0.0
 40
0.0
 40
0.0
 40
1.0
 40
1.0
 40
1.0
 40
2.0
 40
2.0
 40
2.0
 40
3.0
 40
3.0
 40
3.0
 40
4.0
 40
4.0
 40
4.0
 40
5.0
 40
5.0
 40
5.0
 40
6.0
 40
6.0
 40
6.0
 40
7.0
 40
7.0
 40
7.0
 40
8.0
 40
8.0
 40
8.0
 40
9.0
 40
9.0
 40
9.0
 40
9.0
 10
89.97176918323622
 20
-158.4251274560534
 30
0.0
 10
89.45552162477154
 20
-158.4251274560534
 30
0.0
 10
89.44708114083267
 20
-157.8711561020253
 30
0.0
 10
89.44708114083267
 20
-157.6572156723912
 30
0.0
 10
89.44708114083267
 20
-157.426738784428
 30
0.0
 10
89.46620142077582
 20
-156.7794053427496
 30
0.0
 10
90.00983748834824
 20
-156.7794053427496
 30
0.0
 10
90.18329804603057
 20
-156.7794053427496
 30
0.0
 10
90.42858884458036
 20
-156.8493407811001
 30
0.0
 10
90.46682940446663
 20
-157.1814479858782
 30
0.0
 10
90.46682940446663
 20
-157.1814479858782
 30
0.0
 10
90.25306122960687
 20
-157.1814479858782
 30
0.0
 10
90.25306122960687
 20
-157.1814479858782
 30
0.0
 10
90.24255368837685
 20
-157.1242594008231
 30
0.0
 10
90.21085880991256
 20
-156.9761202949573
 30
0.0
 10
90.00777043105708
 20
-156.9761202949573
 30
0.0
 10
89.71579858868215
 20
-156.9761202949573
 30
0.0
 10
89.67549097150474
 20
-157.3040933851531
 30
0.0
 10
89.66291637298358
 20
-157.5090765665255
 30
0.0
 10
89.75593395108532
 20
-157.4308728990103
 30
0.0
 10
89.82363007737047
 20
-157.371617256664
 30
0.0
 10
90.00553111899169
 20
-157.371617256664
 30
0.0
 10
90.18536510332172
 20
-157.371617256664
 30
0.0
 10
90.48784448692664
 20
-157.4797932549009
 30
0.0
 10
90.48784448692664
 20
-157.8859700126118
 30
0.0
 10
90.48784448692664
 20
-158.2053303640945
 30
0.0
 10
90.28906247742773
 20
-158.4251274560534
 30
0.0
 10
89.97176918323622
 20
-158.4251274560534
 30
0.0
  0
HATCH
  5
B3
330
AD
100
AcDbEntity
  8
レイヤー 1
 62
    18
420
        0
440
 33554687
100
AcDbHatch
 10
0.0
 20
0.0
 30
0.0
210
0.0
220
0.0
230
1.0
  2
SOLID
 70
     1
 71
     1
 91
        2
 92
        1
 93
        1
 72
     4
 94
        3
 73
     0
 74
     0
 95
       17
 96
       13
 40
0.0
 40
0.0
 40
0.0
 40
0.0
 40
1.0
 40
1.0
 40
1.0
 40
2.0
 40
2.0
 40
2.0
 40
3.0
 40
3.0
 40
3.0
 40
4.0
 40
4.0
 40
4.0
 40
4.0
 10
89.98865015111396
 20
-157.5662651515806
 10
89.72630612991217
 20
-157.5662651515806
 10
89.68823782480017
 20
-157.777794014375
 10
89.68823782480017
 20
-157.8942382417764
 10
89.68823782480017
 20
-158.0699381115242
 10
89.78349471496732
 20
-158.2328911279765
 10
89.96746281387967
 20
-158.2328911279765
 10
90.08804115586341
 20
-158.2328911279765
 10
90.26374102561115
 20
-158.1736354856302
 10
90.26374102561115
 20
-157.888037069903
 10
90.26374102561115
 20
-157.6637613538132
 10
90.12404240368427
 20
-157.5662651515806
 10
89.98865015111396
 20
-157.5662651515806
 97
        0
 97
        1
330
B1
 92
        1
 93
        1
 72
     4
 94
        3
 73
     0
 74
     0
 95
       32
 96
       28
 40
0.0
 40
0.0
 40
0.0
 40
0.0
 40
1.0
 40
1.0
 40
1.0
 40
2.0
 40
2.0
 40
2.0
 40
3.0
 40
3.0
 40
3.0
 40
4.0
 40
4.0
 40
4.0
 40
5.0
 40
5.0
 40
5.0
 40
6.0
 40
6.0
 40
6.0
 40
7.0
 40
7.0
 40
7.0
 40
8.0
 40
8.0
 40
8.0
 40
9.0
 40
9.0
 40
9.0
 40
9.0
 10
89.97176918323622
 20
-158.4251274560534
 10
89.45552162477154
 20
-158.4251274560534
 10
89.44708114083267
 20
-157.8711561020253
 10
89.44708114083267
 20
-157.6572156723912
 10
89.44708114083267
 20
-157.426738784428
 10
89.46620142077582
 20
-156.7794053427496
 10
90.00983748834824
 20
-156.7794053427496
 10
90.18329804603057
 20
-156.7794053427496
 10
90.42858884458036
 20
-156.8493407811001
 10
90.46682940446663
 20
-157.1814479858782
 10
90.46682940446663
 20
-157.1814479858782
 10
90.25306122960687
 20
-157.1814479858782
 10
90.25306122960687
 20
-157.1814479858782
 10
90.24255368837685
 20
-157.1242594008231
 10
90.21085880991256
 20
-156.9761202949573
 10
90.00777043105708
 20
-156.9761202949573
 10
89.71579858868215
 20
-156.9761202949573
 10
89.67549097150474
 20
-157.3040933851531
 10
89.66291637298358
 20
-157.5090765665255
 10
89.75593395108532
 20
-157.4308728990103
 10
89.82363007737047
 20
-157.371617256664
 10
90.00553111899169
 20
-157.371617256664
 10
90.18536510332172
 20
-157.371617256664
 10
90.48784448692664
 20
-157.4797932549009
 10
90.48784448692664
 20
-157.8859700126118
 10
90.48784448692664
 20
-158.2053303640945
 10
90.28906247742773
 20
-158.4251274560534
 10
89.97176918323622
 20
-158.4251274560534
 97
        0
 97
        1
330
B2
 75
     2
 76
     1
 98
        1
 10
0.0
 20
0.0
450
        0
451
        0
460
0.0
461
0.0
452
        0
462
0.0
453
        0
470

  0
ENDBLK
  5
B0
330
AD
100
AcDbEntity
  8
0
100
AcDbBlockEnd
  0
BLOCK
  5
B9
330
B7
100
AcDbEntity
  8
0
100
AcDbBlockBegin
  2
Block_4
 70
     0
 10
0.0
 20
0.0
 30
0.0
  3
Block_4
  1

  0
INSERT
  5
BC
330
B7
100
AcDbEntity
  8
レイヤー 1
100
AcDbBlockReference
  2
Block_5
 10
0.0
 20
0.0
 30
0.0
  0
ENDBLK
  5
BA
330
B7
100
AcDbEntity
  8
0
100
AcDbBlockEnd
  0
BLOCK
  5
BD
330
BB
100
AcDbEntity
  8
0
100
AcDbBlockBegin
  2
Block_5
 70
     0
 10
0.0
 20
0.0
 30
0.0
  3
Block_5
  1

  0
SPLINE
  5
BF
330
BB
100
AcDbEntity
  8
レイヤー 1
100
AcDbSpline
210
0.0
220
0.0
230
1.0
 70
     9
 71
     3
 72
    62
 73
    58
 74
     0
 42
0.0000000001
 43
0.0000000001
 40
0.0
 40
0.0
 40
0.0
 40
0.0
 40
1.0
 40
1.0
 40
1.0
 40
2.0
 40
2.0
 40
2.0
 40
3.0
 40
3.0
 40
3.0
 40
4.0
 40
4.0
 40
4.0
 40
5.0
 40
5.0
 40
5.0
 40
6.0
 40
6.0
 40
6.0
 40
7.0
 40
7.0
 40
7.0
 40
8.0
 40
8.0
 40
8.0
 40
9.0
 40
9.0
 40
9.0
 40
10.0
 40
10.0
 40
10.0
 40
11.0
 40
11.0
 40
11.0
 40
12.0
 40
12.0
 40
12.0
 40
13.0
 40
13.0
 40
13.0
 40
14.0
 40
14.0
 40
14.0
 40
15.0
 40
15.0
 40
15.0
 40
16.0
 40
16.0
 40
16.0
 40
17.0
 40
17.0
 40
17.0
 40
18.0
 40
18.0
 40
18.0
 40
19.0
 40
19.0
 40
19.0
 40
19.0
 10
101.7925808122254
 20
-135.4254977417512
 30
0.0
 10
101.697151667284
 20
-135.4254977417512
 30
0.0
 10
101.4794216326162
 20
-135.404310404517
 30
0.0
 10
101.3543646665017
 20
-135.2181029935392
 30
0.0
 10
101.2802951135688
 20
-135.1059651354943
 30
0.0
 10
101.2761609989865
 20
-135.0065741307449
 30
0.0
 10
101.2720268844042
 20
-134.921997036582
 30
0.0
 10
101.2720268844042
 20
-134.921997036582
 30
0.0
 10
101.4921684859117
 20
-134.921997036582
 30
0.0
 10
101.4921684859117
 20
-134.921997036582
 30
0.0
 10
101.4942355432028
 20
-134.9960665895148
 30
0.0
 10
101.5045708296586
 20
-135.2308498468346
 30
0.0
 10
101.7881021880946
 20
-135.2308498468346
 30
0.0
 10
101.9255614979561
 20
-135.2308498468346
 30
0.0
 10
102.0781792279527
 20
-135.1610866632583
 30
0.0
 10
102.0781792279527
 20
-134.932504577812
 30
0.0
 10
102.0781792279527
 20
-134.8162326051848
 30
0.0
 10
102.0399386680664
 20
-134.7674845040685
 30
0.0
 10
102.0082437896021
 20
-134.7357896256042
 30
0.0
 10
101.9341742366692
 20
-134.6617200726714
 30
0.0
 10
101.8177300092678
 20
-134.6491454741502
 30
0.0
 10
101.7629529910523
 20
-134.6491454741502
 30
0.0
 10
101.7436604563349
 20
-134.6491454741502
 30
0.0
 10
101.7078314632883
 20
-134.6512125314413
 30
0.0
 10
101.6802706994063
 20
-134.6553466460236
 30
0.0
 10
101.6802706994063
 20
-134.6553466460236
 30
0.0
 10
101.6802706994063
 20
-134.460698751107
 30
0.0
 10
101.6802706994063
 20
-134.460698751107
 30
0.0
 10
101.7185112592926
 20
-134.4670721777547
 30
0.0
 10
101.7605414242126
 20
-134.4693114898201
 30
0.0
 10
101.7670871056346
 20
-134.4693114898201
 30
0.0
 10
101.8325439198543
 20
-134.4693114898201
 30
0.0
 10
102.0313259293533
 20
-134.4481241525859
 30
0.0
 10
102.0313259293533
 20
-134.2111015832007
 30
0.0
 10
102.0313259293533
 20
-134.033506910936
 30
0.0
 10
101.9004123009138
 20
-133.9783853831721
 30
0.0
 10
101.7901692453858
 20
-133.9783853831721
 30
0.0
 10
101.5259304216671
 20
-133.9783853831721
 30
0.0
 10
101.517317682954
 20
-134.2111015832007
 30
0.0
 10
101.5131835683717
 20
-134.2831040788424
 30
0.0
 10
101.5131835683717
 20
-134.2831040788424
 30
0.0
 10
101.3099229347419
 20
-134.2831040788424
 30
0.0
 10
101.3099229347419
 20
-134.2831040788424
 30
0.0
 10
101.3185356734551
 20
-134.1582193675021
 30
0.0
 10
101.3460964373371
 20
-133.7816704309643
 30
0.0
 10
101.8029160986812
 20
-133.7816704309643
 30
0.0
 10
102.027191814771
 20
-133.7816704309643
 30
0.0
 10
102.2683484987384
 20
-133.9086221995957
 30
0.0
 10
102.2683484987384
 20
-134.204728156553
 30
0.0
 10
102.2683484987384
 20
-134.3909355675307
 30
0.0
 10
102.1732638633455
 20
-134.4734456044025
 30
0.0
 10
102.0737006038218
 20
-134.5347683040399
 30
0.0
 10
102.1350233034593
 20
-134.5623290679219
 30
0.0
 10
102.3169243450805
 20
-134.6427720475025
 30
0.0
 10
102.3169243450805
 20
-134.9199299792908
 30
0.0
 10
102.3169243450805
 20
-135.2584106107166
 30
0.0
 10
102.0695664892395
 20
-135.4254977417512
 30
0.0
 10
101.7925808122254
 20
-135.4254977417512
 30
0.0
  0
HATCH
  5
C0
330
BB
100
AcDbEntity
  8
レイヤー 1
 62
    18
420
        0
440
 33554687
100
AcDbHatch
 10
0.0
 20
0.0
 30
0.0
210
0.0
220
0.0
230
1.0
  2
SOLID
 70
     1
 71
     1
 91
        1
 92
        1
 93
        1
 72
     4
 94
        3
 73
     0
 74
     0
 95
       62
 96
       58
 40
0.0
 40
0.0
 40
0.0
 40
0.0
 40
1.0
 40
1.0
 40
1.0
 40
2.0
 40
2.0
 40
2.0
 40
3.0
 40
3.0
 40
3.0
 40
4.0
 40
4.0
 40
4.0
 40
5.0
 40
5.0
 40
5.0
 40
6.0
 40
6.0
 40
6.0
 40
7.0
 40
7.0
 40
7.0
 40
8.0
 40
8.0
 40
8.0
 40
9.0
 40
9.0
 40
9.0
 40
10.0
 40
10.0
 40
10.0
 40
11.0
 40
11.0
 40
11.0
 40
12.0
 40
12.0
 40
12.0
 40
13.0
 40
13.0
 40
13.0
 40
14.0
 40
14.0
 40
14.0
 40
15.0
 40
15.0
 40
15.0
 40
16.0
 40
16.0
 40
16.0
 40
17.0
 40
17.0
 40
17.0
 40
18.0
 40
18.0
 40
18.0
 40
19.0
 40
19.0
 40
19.0
 40
19.0
 10
101.7925808122254
 20
-135.4254977417512
 10
101.697151667284
 20
-135.4254977417512
 10
101.4794216326162
 20
-135.404310404517
 10
101.3543646665017
 20
-135.2181029935392
 10
101.2802951135688
 20
-135.1059651354943
 10
101.2761609989865
 20
-135.0065741307449
 10
101.2720268844042
 20
-134.921997036582
 10
101.2720268844042
 20
-134.921997036582
 10
101.4921684859117
 20
-134.921997036582
 10
101.4921684859117
 20
-134.921997036582
 10
101.4942355432028
 20
-134.9960665895148
 10
101.5045708296586
 20
-135.2308498468346
 10
101.7881021880946
 20
-135.2308498468346
 10
101.9255614979561
 20
-135.2308498468346
 10
102.0781792279527
 20
-135.1610866632583
 10
102.0781792279527
 20
-134.932504577812
 10
102.0781792279527
 20
-134.8162326051848
 10
102.0399386680664
 20
-134.7674845040685
 10
102.0082437896021
 20
-134.7357896256042
 10
101.9341742366692
 20
-134.6617200726714
 10
101.8177300092678
 20
-134.6491454741502
 10
101.7629529910523
 20
-134.6491454741502
 10
101.7436604563349
 20
-134.6491454741502
 10
101.7078314632883
 20
-134.6512125314413
 10
101.6802706994063
 20
-134.6553466460236
 10
101.6802706994063
 20
-134.6553466460236
 10
101.6802706994063
 20
-134.460698751107
 10
101.6802706994063
 20
-134.460698751107
 10
101.7185112592926
 20
-134.4670721777547
 10
101.7605414242126
 20
-134.4693114898201
 10
101.7670871056346
 20
-134.4693114898201
 10
101.8325439198543
 20
-134.4693114898201
 10
102.0313259293533
 20
-134.4481241525859
 10
102.0313259293533
 20
-134.2111015832007
 10
102.0313259293533
 20
-134.033506910936
 10
101.9004123009138
 20
-133.9783853831721
 10
101.7901692453858
 20
-133.9783853831721
 10
101.5259304216671
 20
-133.9783853831721
 10
101.517317682954
 20
-134.2111015832007
 10
101.5131835683717
 20
-134.2831040788424
 10
101.5131835683717
 20
-134.2831040788424
 10
101.3099229347419
 20
-134.2831040788424
 10
101.3099229347419
 20
-134.2831040788424
 10
101.3185356734551
 20
-134.1582193675021
 10
101.3460964373371
 20
-133.7816704309643
 10
101.8029160986812
 20
-133.7816704309643
 10
102.027191814771
 20
-133.7816704309643
 10
102.2683484987384
 20
-133.9086221995957
 10
102.2683484987384
 20
-134.204728156553
 10
102.2683484987384
 20
-134.3909355675307
 10
102.1732638633455
 20
-134.4734456044025
 10
102.0737006038218
 20
-134.5347683040399
 10
102.1350233034593
 20
-134.5623290679219
 10
102.3169243450805
 20
-134.6427720475025
 10
102.3169243450805
 20
-134.9199299792908
 10
102.3169243450805
 20
-135.2584106107166
 10
102.0695664892395
 20
-135.4254977417512
 10
101.7925808122254
 20
-135.4254977417512
 97
        0
 97
        1
330
BF
 75
     2
 76
     1
 98
        1
 10
0.0
 20
0.0
450
        0
451
        0
460
0.0
461
0.0
452
        0
462
0.0
453
        0
470

  0
SPLINE
  5
C1
330
BB
100
AcDbEntity
  8
レイヤー 1
100
AcDbSpline
210
0.0
220
0.0
230
1.0
 70
    11
 71
     3
 72
    26
 73
    22
 74
     0
 42
0.0000000001
 43
0.0000000001
 40
0.0
 40
0.0
 40
0.0
 40
0.0
 40
1.0
 40
1.0
 40
1.0
 40
2.0
 40
2.0
 40
2.0
 40
3.0
 40
3.0
 40
3.0
 40
4.0
 40
4.0
 40
4.0
 40
5.0
 40
5.0
 40
5.0
 40
6.0
 40
6.0
 40
6.0
 40
7.0
 40
7.0
 40
7.0
 40
7.0
 10
102.9291178128094
 20
-135.3746825833438
 30
0.0
 10
102.9291178128094
 20
-135.3746825833438
 30
0.0
 10
102.9291178128094
 20
-134.270357225547
 30
0.0
 10
102.9291178128094
 20
-134.270357225547
 30
0.0
 10
102.9291178128094
 20
-134.270357225547
 30
0.0
 10
102.5990776653224
 20
-134.270357225547
 30
0.0
 10
102.5990776653224
 20
-134.270357225547
 30
0.0
 10
102.5990776653224
 20
-134.270357225547
 30
0.0
 10
102.5990776653224
 20
-134.1223903744555
 30
0.0
 10
102.5990776653224
 20
-134.1223903744555
 30
0.0
 10
102.9311848701005
 20
-134.1075764638689
 30
0.0
 10
102.9776936591514
 20
-133.9446234474166
 30
0.0
 10
103.0073214803245
 20
-133.8304185320806
 30
0.0
 10
103.0073214803245
 20
-133.8304185320806
 30
0.0
 10
103.1533935288991
 20
-133.8304185320806
 30
0.0
 10
103.1533935288991
 20
-133.8304185320806
 30
0.0
 10
103.1533935288991
 20
-133.8304185320806
 30
0.0
 10
103.1533935288991
 20
-135.3746825833438
 30
0.0
 10
103.1533935288991
 20
-135.3746825833438
 30
0.0
 10
103.1533935288991
 20
-135.3746825833438
 30
0.0
 10
102.9291178128094
 20
-135.3746825833438
 30
0.0
 10
102.9291178128094
 20
-135.3746825833438
 30
0.0
  0
HATCH
  5
C2
330
BB
100
AcDbEntity
  8
レイヤー 1
 62
    18
420
        0
440
 33554687
100
AcDbHatch
 10
0.0
 20
0.0
 30
0.0
210
0.0
220
0.0
230
1.0
  2
SOLID
 70
     1
 71
     1
 91
        1
 92
        1
 93
        1
 72
     4
 94
        3
 73
     0
 74
     0
 95
       26
 96
       22
 40
0.0
 40
0.0
 40
0.0
 40
0.0
 40
1.0
 40
1.0
 40
1.0
 40
2.0
 40
2.0
 40
2.0
 40
3.0
 40
3.0
 40
3.0
 40
4.0
 40
4.0
 40
4.0
 40
5.0
 40
5.0
 40
5.0
 40
6.0
 40
6.0
 40
6.0
 40
7.0
 40
7.0
 40
7.0
 40
7.0
 10
102.9291178128094
 20
-135.3746825833438
 10
102.9291178128094
 20
-135.3746825833438
 10
102.9291178128094
 20
-134.270357225547
 10
102.9291178128094
 20
-134.270357225547
 10
102.9291178128094
 20
-134.270357225547
 10
102.5990776653224
 20
-134.270357225547
 10
102.5990776653224
 20
-134.270357225547
 10
102.5990776653224
 20
-134.270357225547
 10
102.5990776653224
 20
-134.1223903744555
 10
102.5990776653224
 20
-134.1223903744555
 10
102.9311848701005
 20
-134.1075764638689
 10
102.9776936591514
 20
-133.9446234474166
 10
103.0073214803245
 20
-133.8304185320806
 10
103.0073214803245
 20
-133.8304185320806
 10
103.1533935288991
 20
-133.8304185320806
 10
103.1533935288991
 20
-133.8304185320806
 10
103.1533935288991
 20
-133.8304185320806
 10
103.1533935288991
 20
-135.3746825833438
 10
103.1533935288991
 20
-135.3746825833438
 10
103.1533935288991
 20
-135.3746825833438
 10
102.9291178128094
 20
-135.3746825833438
 10
102.9291178128094
 20
-135.3746825833438
 97
        0
 97
        1
330
C1
 75
     2
 76
     1
 98
        1
 10
0.0
 20
0.0
450
        0
451
        0
460
0.0
461
0.0
452
        0
462
0.0
453
        0
470

  0
ENDBLK
  5
BE
330
BB
100
AcDbEntity
  8
0
100
AcDbBlockEnd
  0
BLOCK
  5
C9
330
C7
100
AcDbEntity
  8
0
100
AcDbBlockBegin
  2
Block_6
 70
     0
 10
0.0
 20
0.0
 30
0.0
  3
Block_6
  1

  0
INSERT
  5
CC
330
C7
100
AcDbEntity
  8
レイヤー 1
100
AcDbBlockReference
  2
Block_7
 10
0.0
 20
0.0
 30
0.0
  0
ENDBLK
  5
CA
330
C7
100
AcDbEntity
  8
0
100
AcDbBlockEnd
  0
BLOCK
  5
CD
330
CB
100
AcDbEntity
  8
0
100
AcDbBlockBegin
  2
Block_7
 70
     0
 10
0.0
 20
0.0
 30
0.0
  3
Block_7
  1

  0
SPLINE
  5
CF
330
CB
100
AcDbEntity
  8
レイヤー 1
100
AcDbSpline
210
0.0
220
0.0
230
1.0
 70
     9
 71
     3
 72
    17
 73
    13
 74
     0
 42
0.0000000001
 43
0.0000000001
 40
0.0
 40
0.0
 40
0.0
 40
0.0
 40
1.0
 40
1.0
 40
1.0
 40
2.0
 40
2.0
 40
2.0
 40
3.0
 40
3.0
 40
3.0
 40
4.0
 40
4.0
 40
4.0
 40
4.0
 10
104.2627142751496
 20
-152.4916395018076
 30
0.0
 10
104.2627142751496
 20
-152.7414089244882
 30
0.0
 10
104.5462456335856
 20
-152.7879177135391
 30
0.0
 10
104.8910996916591
 20
-152.7879177135391
 30
0.0
 10
105.2104600431418
 20
-152.7879177135391
 30
0.0
 10
105.5191405986202
 20
-152.751744210944
 30
0.0
 10
105.5191405986202
 20
-152.4916395018076
 30
0.0
 10
105.5191405986202
 20
-152.2439371364182
 30
0.0
 10
105.2380208070238
 20
-152.1953612900761
 30
0.0
 10
104.8910996916591
 20
-152.1953612900761
 30
0.0
 10
104.571394830628
 20
-152.1953612900761
 30
0.0
 10
104.2627142751496
 20
-152.2336018499624
 30
0.0
 10
104.2627142751496
 20
-152.4916395018076
 30
0.0
  0
SPLINE
  5
D0
330
CB
100
AcDbEntity
  8
レイヤー 1
100
AcDbSpline
210
0.0
220
0.0
230
1.0
 70
     9
 71
     3
 72
    29
 73
    25
 74
     0
 42
0.0000000001
 43
0.0000000001
 40
0.0
 40
0.0
 40
0.0
 40
0.0
 40
1.0
 40
1.0
 40
1.0
 40
2.0
 40
2.0
 40
2.0
 40
3.0
 40
3.0
 40
3.0
 40
4.0
 40
4.0
 40
4.0
 40
5.0
 40
5.0
 40
5.0
 40
6.0
 40
6.0
 40
6.0
 40
7.0
 40
7.0
 40
7.0
 40
8.0
 40
8.0
 40
8.0
 40
8.0
 10
105.4853786628648
 20
-152.0937309732613
 30
0.0
 10
105.6948404683679
 20
-152.2019069714981
 30
0.0
 10
105.7137884935368
 20
-152.3751952744062
 30
0.0
 10
105.7137884935368
 20
-152.4916395018076
 30
0.0
 10
105.7137884935368
 20
-152.6525254609688
 30
0.0
 10
105.6672797044859
 20
-152.7941188854126
 30
0.0
 10
105.4853786628648
 20
-152.8892035208055
 30
0.0
 10
105.2907307679481
 20
-152.9929008949115
 30
0.0
 10
105.0540527081115
 20
-153.0121934296289
 30
0.0
 10
104.8910996916591
 20
-153.0121934296289
 30
0.0
 10
104.7470947003757
 20
-153.0121934296289
 30
0.0
 10
104.4952582204039
 20
-152.9949679522026
 30
0.0
 10
104.296476210905
 20
-152.8892035208055
 30
0.0
 10
104.0935600868238
 20
-152.7813720321171
 30
0.0
 10
104.0701334375241
 20
-152.620486072956
 30
0.0
 10
104.0701334375241
 20
-152.4916395018076
 30
0.0
 10
104.0701334375241
 20
-152.3328205999376
 30
0.0
 10
104.1145751692838
 20
-152.1891601182027
 30
0.0
 10
104.296476210905
 20
-152.0937309732613
 30
0.0
 10
104.4890570485305
 20
-151.9945122232861
 30
0.0
 10
104.7174668792026
 20
-151.9710855739864
 30
0.0
 10
104.8910996916591
 20
-151.9710855739864
 30
0.0
 10
105.0623209372761
 20
-151.9710855739864
 30
0.0
 10
105.2927978252393
 20
-151.9924451659949
 30
0.0
 10
105.4853786628648
 20
-152.0937309732613
 30
0.0
  0
HATCH
  5
D1
330
CB
100
AcDbEntity
  8
レイヤー 1
 62
    18
420
        0
440
 33554687
100
AcDbHatch
 10
0.0
 20
0.0
 30
0.0
210
0.0
220
0.0
230
1.0
  2
SOLID
 70
     1
 71
     1
 91
        2
 92
        1
 93
        1
 72
     4
 94
        3
 73
     0
 74
     0
 95
       17
 96
       13
 40
0.0
 40
0.0
 40
0.0
 40
0.0
 40
1.0
 40
1.0
 40
1.0
 40
2.0
 40
2.0
 40
2.0
 40
3.0
 40
3.0
 40
3.0
 40
4.0
 40
4.0
 40
4.0
 40
4.0
 10
104.2627142751496
 20
-152.4916395018076
 10
104.2627142751496
 20
-152.7414089244882
 10
104.5462456335856
 20
-152.7879177135391
 10
104.8910996916591
 20
-152.7879177135391
 10
105.2104600431418
 20
-152.7879177135391
 10
105.5191405986202
 20
-152.751744210944
 10
105.5191405986202
 20
-152.4916395018076
 10
105.5191405986202
 20
-152.2439371364182
 10
105.2380208070238
 20
-152.1953612900761
 10
104.8910996916591
 20
-152.1953612900761
 10
104.571394830628
 20
-152.1953612900761
 10
104.2627142751496
 20
-152.2336018499624
 10
104.2627142751496
 20
-152.4916395018076
 97
        0
 97
        1
330
CF
 92
        1
 93
        1
 72
     4
 94
        3
 73
     0
 74
     0
 95
       29
 96
       25
 40
0.0
 40
0.0
 40
0.0
 40
0.0
 40
1.0
 40
1.0
 40
1.0
 40
2.0
 40
2.0
 40
2.0
 40
3.0
 40
3.0
 40
3.0
 40
4.0
 40
4.0
 40
4.0
 40
5.0
 40
5.0
 40
5.0
 40
6.0
 40
6.0
 40
6.0
 40
7.0
 40
7.0
 40
7.0
 40
8.0
 40
8.0
 40
8.0
 40
8.0
 10
105.4853786628648
 20
-152.0937309732613
 10
105.6948404683679
 20
-152.2019069714981
 10
105.7137884935368
 20
-152.3751952744062
 10
105.7137884935368
 20
-152.4916395018076
 10
105.7137884935368
 20
-152.6525254609688
 10
105.6672797044859
 20
-152.7941188854126
 10
105.4853786628648
 20
-152.8892035208055
 10
105.2907307679481
 20
-152.9929008949115
 10
105.0540527081115
 20
-153.0121934296289
 10
104.8910996916591
 20
-153.0121934296289
 10
104.7470947003757
 20
-153.0121934296289
 10
104.4952582204039
 20
-152.9949679522026
 10
104.296476210905
 20
-152.8892035208055
 10
104.0935600868238
 20
-152.7813720321171
 10
104.0701334375241
 20
-152.620486072956
 10
104.0701334375241
 20
-152.4916395018076
 10
104.0701334375241
 20
-152.3328205999376
 10
104.1145751692838
 20
-152.1891601182027
 10
104.296476210905
 20
-152.0937309732613
 10
104.4890570485305
 20
-151.9945122232861
 10
104.7174668792026
 20
-151.9710855739864
 10
104.8910996916591
 20
-151.9710855739864
 10
105.0623209372761
 20
-151.9710855739864
 10
105.2927978252393
 20
-151.9924451659949
 10
105.4853786628648
 20
-152.0937309732613
 97
        0
 97
        1
330
D0
 75
     2
 76
     1
 98
        1
 10
0.0
 20
0.0
450
        0
451
        0
460
0.0
461
0.0
452
        0
462
0.0
453
        0
470

  0
SPLINE
  5
D2
330
CB
100
AcDbEntity
  8
レイヤー 1
100
AcDbSpline
210
0.0
220
0.0
230
1.0
 70
    11
 71
     3
 72
    17
 73
    13
 74
     0
 42
0.0000000001
 43
0.0000000001
 40
0.0
 40
0.0
 40
0.0
 40
0.0
 40
1.0
 40
1.0
 40
1.0
 40
2.0
 40
2.0
 40
2.0
 40
3.0
 40
3.0
 40
3.0
 40
4.0
 40
4.0
 40
4.0
 40
4.0
 10
105.6631455899036
 20
-151.7547335775127
 30
0.0
 10
105.6631455899036
 20
-151.7547335775127
 30
0.0
 10
105.4113091099319
 20
-151.7547335775127
 30
0.0
 10
105.4113091099319
 20
-151.7547335775127
 30
0.0
 10
105.4113091099319
 20
-151.7547335775127
 30
0.0
 10
105.4113091099319
 20
-151.5028970975409
 30
0.0
 10
105.4113091099319
 20
-151.5028970975409
 30
0.0
 10
105.4113091099319
 20
-151.5028970975409
 30
0.0
 10
105.6631455899036
 20
-151.5028970975409
 30
0.0
 10
105.6631455899036
 20
-151.5028970975409
 30
0.0
 10
105.6631455899036
 20
-151.5028970975409
 30
0.0
 10
105.6631455899036
 20
-151.7547335775127
 30
0.0
 10
105.6631455899036
 20
-151.7547335775127
 30
0.0
  0
HATCH
  5
D3
330
CB
100
AcDbEntity
  8
レイヤー 1
 62
    18
420
        0
440
 33554687
100
AcDbHatch
 10
0.0
 20
0.0
 30
0.0
210
0.0
220
0.0
230
1.0
  2
SOLID
 70
     1
 71
     1
 91
        1
 92
        1
 93
        1
 72
     4
 94
        3
 73
     0
 74
     0
 95
       17
 96
       13
 40
0.0
 40
0.0
 40
0.0
 40
0.0
 40
1.0
 40
1.0
 40
1.0
 40
2.0
 40
2.0
 40
2.0
 40
3.0
 40
3.0
 40
3.0
 40
4.0
 40
4.0
 40
4.0
 40
4.0
 10
105.6631455899036
 20
-151.7547335775127
 10
105.6631455899036
 20
-151.7547335775127
 10
105.4113091099319
 20
-151.7547335775127
 10
105.4113091099319
 20
-151.7547335775127
 10
105.4113091099319
 20
-151.7547335775127
 10
105.4113091099319
 20
-151.5028970975409
 10
105.4113091099319
 20
-151.5028970975409
 10
105.4113091099319
 20
-151.5028970975409
 10
105.6631455899036
 20
-151.5028970975409
 10
105.6631455899036
 20
-151.5028970975409
 10
105.6631455899036
 20
-151.5028970975409
 10
105.6631455899036
 20
-151.7547335775127
 10
105.6631455899036
 20
-151.7547335775127
 97
        0
 97
        1
330
D2
 75
     2
 76
     1
 98
        1
 10
0.0
 20
0.0
450
        0
451
        0
460
0.0
461
0.0
452
        0
462
0.0
453
        0
470

  0
SPLINE
  5
D4
330
CB
100
AcDbEntity
  8
レイヤー 1
100
AcDbSpline
210
0.0
220
0.0
230
1.0
 70
     9
 71
     3
 72
    53
 73
    49
 74
     0
 42
0.0000000001
 43
0.0000000001
 40
0.0
 40
0.0
 40
0.0
 40
0.0
 40
1.0
 40
1.0
 40
1.0
 40
2.0
 40
2.0
 40
2.0
 40
3.0
 40
3.0
 40
3.0
 40
4.0
 40
4.0
 40
4.0
 40
5.0
 40
5.0
 40
5.0
 40
6.0
 40
6.0
 40
6.0
 40
7.0
 40
7.0
 40
7.0
 40
8.0
 40
8.0
 40
8.0
 40
9.0
 40
9.0
 40
9.0
 40
10.0
 40
10.0
 40
10.0
 40
11.0
 40
11.0
 40
11.0
 40
12.0
 40
12.0
 40
12.0
 40
13.0
 40
13.0
 40
13.0
 40
14.0
 40
14.0
 40
14.0
 40
15.0
 40
15.0
 40
15.0
 40
16.0
 40
16.0
 40
16.0
 40
16.0
 10
105.7137884935368
 20
-150.7856282175119
 30
0.0
 10
105.7137884935368
 20
-150.8638318850271
 30
0.0
 10
105.6969075256591
 20
-150.9654622018419
 30
0.0
 10
105.6335177687305
 20
-151.0670925186568
 30
0.0
 10
105.523619222751
 20
-151.2403808215649
 30
0.0
 10
105.392361084763
 20
-151.2617404135734
 30
0.0
 10
105.2845295960747
 20
-151.2806884387423
 30
0.0
 10
105.2845295960747
 20
-151.2806884387423
 30
0.0
 10
105.2845295960747
 20
-151.0584797799437
 30
0.0
 10
105.2845295960747
 20
-151.0584797799437
 30
0.0
 10
105.4833116055736
 20
-151.0037027617282
 30
0.0
 10
105.5129394267467
 20
-150.8765787383225
 30
0.0
 10
105.5129394267467
 20
-150.7835611602208
 30
0.0
 10
105.5129394267467
 20
-150.6440347930681
 30
0.0
 10
105.413376167223
 20
-150.4917615726201
 30
0.0
 10
105.1808322219687
 20
-150.4917615726201
 30
0.0
 10
104.9248616274146
 20
-150.4917615726201
 30
0.0
 10
104.854926189064
 20
-150.6715955569501
 30
0.0
 10
104.854926189064
 20
-150.7921738989339
 30
0.0
 10
104.854926189064
 20
-150.8238687773982
 30
0.0
 10
104.854926189064
 20
-150.9654622018419
 30
0.0
 10
104.9841172697609
 20
-151.0543456653614
 30
0.0
 10
104.9841172697609
 20
-151.0543456653614
 30
0.0
 10
104.965169244592
 20
-151.2300455351091
 30
0.0
 10
104.965169244592
 20
-151.2300455351091
 30
0.0
 10
104.965169244592
 20
-151.2300455351091
 30
0.0
 10
104.1187092838661
 20
-151.1094671931254
 30
0.0
 10
104.1187092838661
 20
-151.1094671931254
 30
0.0
 10
104.1187092838661
 20
-151.1094671931254
 30
0.0
 10
104.1187092838661
 20
-150.3308756134589
 30
0.0
 10
104.1187092838661
 20
-150.3308756134589
 30
0.0
 10
104.1187092838661
 20
-150.3308756134589
 30
0.0
 10
104.3133571787828
 20
-150.3308756134589
 30
0.0
 10
104.3133571787828
 20
-150.3308756134589
 30
0.0
 10
104.3133571787828
 20
-150.3308756134589
 30
0.0
 10
104.3133571787828
 20
-150.9465141766731
 30
0.0
 10
104.3133571787828
 20
-150.9465141766731
 30
0.0
 10
104.3133571787828
 20
-150.9465141766731
 30
0.0
 10
104.7364149043714
 20
-151.0119709908928
 30
0.0
 10
104.7364149043714
 20
-151.0119709908928
 30
0.0
 10
104.702652968616
 20
-150.9506482912554
 30
0.0
 10
104.6623453514386
 20
-150.8683105091579
 30
0.0
 10
104.6623453514386
 20
-150.7497992244653
 30
0.0
 10
104.6623453514386
 20
-150.4958956872024
 30
0.0
 10
104.8487250171906
 20
-150.2588731178172
 30
0.0
 10
105.1618841967998
 20
-150.2588731178172
 30
0.0
 10
105.4791774909913
 20
-150.2588731178172
 30
0.0
 10
105.7137884935368
 20
-150.483148833907
 30
0.0
 10
105.7137884935368
 20
-150.7856282175119
 30
0.0
  0
HATCH
  5
D5
330
CB
100
AcDbEntity
  8
レイヤー 1
 62
    18
420
        0
440
 33554687
100
AcDbHatch
 10
0.0
 20
0.0
 30
0.0
210
0.0
220
0.0
230
1.0
  2
SOLID
 70
     1
 71
     1
 91
        1
 92
        1
 93
        1
 72
     4
 94
        3
 73
     0
 74
     0
 95
       53
 96
       49
 40
0.0
 40
0.0
 40
0.0
 40
0.0
 40
1.0
 40
1.0
 40
1.0
 40
2.0
 40
2.0
 40
2.0
 40
3.0
 40
3.0
 40
3.0
 40
4.0
 40
4.0
 40
4.0
 40
5.0
 40
5.0
 40
5.0
 40
6.0
 40
6.0
 40
6.0
 40
7.0
 40
7.0
 40
7.0
 40
8.0
 40
8.0
 40
8.0
 40
9.0
 40
9.0
 40
9.0
 40
10.0
 40
10.0
 40
10.0
 40
11.0
 40
11.0
 40
11.0
 40
12.0
 40
12.0
 40
12.0
 40
13.0
 40
13.0
 40
13.0
 40
14.0
 40
14.0
 40
14.0
 40
15.0
 40
15.0
 40
15.0
 40
16.0
 40
16.0
 40
16.0
 40
16.0
 10
105.7137884935368
 20
-150.7856282175119
 10
105.7137884935368
 20
-150.8638318850271
 10
105.6969075256591
 20
-150.9654622018419
 10
105.6335177687305
 20
-151.0670925186568
 10
105.523619222751
 20
-151.2403808215649
 10
105.392361084763
 20
-151.2617404135734
 10
105.2845295960747
 20
-151.2806884387423
 10
105.2845295960747
 20
-151.2806884387423
 10
105.2845295960747
 20
-151.0584797799437
 10
105.2845295960747
 20
-151.0584797799437
 10
105.4833116055736
 20
-151.0037027617282
 10
105.5129394267467
 20
-150.8765787383225
 10
105.5129394267467
 20
-150.7835611602208
 10
105.5129394267467
 20
-150.6440347930681
 10
105.413376167223
 20
-150.4917615726201
 10
105.1808322219687
 20
-150.4917615726201
 10
104.9248616274146
 20
-150.4917615726201
 10
104.854926189064
 20
-150.6715955569501
 10
104.854926189064
 20
-150.7921738989339
 10
104.854926189064
 20
-150.8238687773982
 10
104.854926189064
 20
-150.9654622018419
 10
104.9841172697609
 20
-151.0543456653614
 10
104.9841172697609
 20
-151.0543456653614
 10
104.965169244592
 20
-151.2300455351091
 10
104.965169244592
 20
-151.2300455351091
 10
104.965169244592
 20
-151.2300455351091
 10
104.1187092838661
 20
-151.1094671931254
 10
104.1187092838661
 20
-151.1094671931254
 10
104.1187092838661
 20
-151.1094671931254
 10
104.1187092838661
 20
-150.3308756134589
 10
104.1187092838661
 20
-150.3308756134589
 10
104.1187092838661
 20
-150.3308756134589
 10
104.3133571787828
 20
-150.3308756134589
 10
104.3133571787828
 20
-150.3308756134589
 10
104.3133571787828
 20
-150.3308756134589
 10
104.3133571787828
 20
-150.9465141766731
 10
104.3133571787828
 20
-150.9465141766731
 10
104.3133571787828
 20
-150.9465141766731
 10
104.7364149043714
 20
-151.0119709908928
 10
104.7364149043714
 20
-151.0119709908928
 10
104.702652968616
 20
-150.9506482912554
 10
104.6623453514386
 20
-150.8683105091579
 10
104.6623453514386
 20
-150.7497992244653
 10
104.6623453514386
 20
-150.4958956872024
 10
104.8487250171906
 20
-150.2588731178172
 10
105.1618841967998
 20
-150.2588731178172
 10
105.4791774909913
 20
-150.2588731178172
 10
105.7137884935368
 20
-150.483148833907
 10
105.7137884935368
 20
-150.7856282175119
 97
        0
 97
        1
330
D4
 75
     2
 76
     1
 98
        1
 10
0.0
 20
0.0
450
        0
451
        0
460
0.0
461
0.0
452
        0
462
0.0
453
        0
470

  0
ENDBLK
  5
CE
330
CB
100
AcDbEntity
  8
0
100
AcDbBlockEnd
  0
BLOCK
  5
DA
330
D8
100
AcDbEntity
  8
0
100
AcDbBlockBegin
  2
Block_8
 70
     0
 10
0.0
 20
0.0
 30
0.0
  3
Block_8
  1

  0
INSERT
  5
DD
330
D8
100
AcDbEntity
  8
レイヤー 1
100
AcDbBlockReference
  2
Block_9
 10
0.0
 20
0.0
 30
0.0
  0
ENDBLK
  5
DB
330
D8
100
AcDbEntity
  8
0
100
AcDbBlockEnd
  0
BLOCK
  5
DE
330
DC
100
AcDbEntity
  8
0
100
AcDbBlockBegin
  2
Block_9
 70
     0
 10
0.0
 20
0.0
 30
0.0
  3
Block_9
  1

  0
SPLINE
  5
E0
330
DC
100
AcDbEntity
  8
レイヤー 1
100
AcDbSpline
210
0.0
220
0.0
230
1.0
 70
    11
 71
     3
 72
    26
 73
    22
 74
     0
 42
0.0000000001
 43
0.0000000001
 40
0.0
 40
0.0
 40
0.0
 40
0.0
 40
1.0
 40
1.0
 40
1.0
 40
2.0
 40
2.0
 40
2.0
 40
3.0
 40
3.0
 40
3.0
 40
4.0
 40
4.0
 40
4.0
 40
5.0
 40
5.0
 40
5.0
 40
6.0
 40
6.0
 40
6.0
 40
7.0
 40
7.0
 40
7.0
 40
7.0
 10
120.66343584223
 20
-148.8897921719789
 30
0.0
 10
120.66343584223
 20
-148.8897921719789
 30
0.0
 10
119.5592827392074
 20
-148.8897921719789
 30
0.0
 10
119.5592827392074
 20
-148.8897921719789
 30
0.0
 10
119.5592827392074
 20
-148.8897921719789
 30
0.0
 10
119.5592827392074
 20
-149.2198323194659
 30
0.0
 10
119.5592827392074
 20
-149.2198323194659
 30
0.0
 10
119.5592827392074
 20
-149.2198323194659
 30
0.0
 10
119.4111436333416
 20
-149.2198323194659
 30
0.0
 10
119.4111436333416
 20
-149.2198323194659
 30
0.0
 10
119.3963297227551
 20
-148.8877251146878
 30
0.0
 10
119.2333767063028
 20
-148.8412163256369
 30
0.0
 10
119.1189995361924
 20
-148.8115885044637
 30
0.0
 10
119.1189995361924
 20
-148.8115885044637
 30
0.0
 10
119.1189995361924
 20
-148.6655164558892
 30
0.0
 10
119.1189995361924
 20
-148.6655164558892
 30
0.0
 10
119.1189995361924
 20
-148.6655164558892
 30
0.0
 10
120.66343584223
 20
-148.6655164558892
 30
0.0
 10
120.66343584223
 20
-148.6655164558892
 30
0.0
 10
120.66343584223
 20
-148.6655164558892
 30
0.0
 10
120.66343584223
 20
-148.8897921719789
 30
0.0
 10
120.66343584223
 20
-148.8897921719789
 30
0.0
  0
HATCH
  5
E1
330
DC
100
AcDbEntity
  8
レイヤー 1
 62
    18
420
        0
440
 33554687
100
AcDbHatch
 10
0.0
 20
0.0
 30
0.0
210
0.0
220
0.0
230
1.0
  2
SOLID
 70
     1
 71
     1
 91
        1
 92
        1
 93
        1
 72
     4
 94
        3
 73
     0
 74
     0
 95
       26
 96
       22
 40
0.0
 40
0.0
 40
0.0
 40
0.0
 40
1.0
 40
1.0
 40
1.0
 40
2.0
 40
2.0
 40
2.0
 40
3.0
 40
3.0
 40
3.0
 40
4.0
 40
4.0
 40
4.0
 40
5.0
 40
5.0
 40
5.0
 40
6.0
 40
6.0
 40
6.0
 40
7.0
 40
7.0
 40
7.0
 40
7.0
 10
120.66343584223
 20
-148.8897921719789
 10
120.66343584223
 20
-148.8897921719789
 10
119.5592827392074
 20
-148.8897921719789
 10
119.5592827392074
 20
-148.8897921719789
 10
119.5592827392074
 20
-148.8897921719789
 10
119.5592827392074
 20
-149.2198323194659
 10
119.5592827392074
 20
-149.2198323194659
 10
119.5592827392074
 20
-149.2198323194659
 10
119.4111436333416
 20
-149.2198323194659
 10
119.4111436333416
 20
-149.2198323194659
 10
119.3963297227551
 20
-148.8877251146878
 10
119.2333767063028
 20
-148.8412163256369
 10
119.1189995361924
 20
-148.8115885044637
 10
119.1189995361924
 20
-148.8115885044637
 10
119.1189995361924
 20
-148.6655164558892
 10
119.1189995361924
 20
-148.6655164558892
 10
119.1189995361924
 20
-148.6655164558892
 10
120.66343584223
 20
-148.6655164558892
 10
120.66343584223
 20
-148.6655164558892
 10
120.66343584223
 20
-148.6655164558892
 10
120.66343584223
 20
-148.8897921719789
 10
120.66343584223
 20
-148.8897921719789
 97
        0
 97
        1
330
E0
 75
     2
 76
     1
 98
        1
 10
0.0
 20
0.0
450
        0
451
        0
460
0.0
461
0.0
452
        0
462
0.0
453
        0
470

  0
SPLINE
  5
E2
330
DC
100
AcDbEntity
  8
レイヤー 1
100
AcDbSpline
210
0.0
220
0.0
230
1.0
 70
     9
 71
     3
 72
    62
 73
    58
 74
     0
 42
0.0000000001
 43
0.0000000001
 40
0.0
 40
0.0
 40
0.0
 40
0.0
 40
1.0
 40
1.0
 40
1.0
 40
2.0
 40
2.0
 40
2.0
 40
3.0
 40
3.0
 40
3.0
 40
4.0
 40
4.0
 40
4.0
 40
5.0
 40
5.0
 40
5.0
 40
6.0
 40
6.0
 40
6.0
 40
7.0
 40
7.0
 40
7.0
 40
8.0
 40
8.0
 40
8.0
 40
9.0
 40
9.0
 40
9.0
 40
10.0
 40
10.0
 40
10.0
 40
11.0
 40
11.0
 40
11.0
 40
12.0
 40
12.0
 40
12.0
 40
13.0
 40
13.0
 40
13.0
 40
14.0
 40
14.0
 40
14.0
 40
15.0
 40
15.0
 40
15.0
 40
16.0
 40
16.0
 40
16.0
 40
17.0
 40
17.0
 40
17.0
 40
18.0
 40
18.0
 40
18.0
 40
19.0
 40
19.0
 40
19.0
 40
19.0
 10
120.7140787458631
 20
-147.6726399370402
 30
0.0
 10
120.7140787458631
 20
-147.7680690819816
 30
0.0
 10
120.6930636634031
 20
-147.9857991166494
 30
0.0
 10
120.5070285071996
 20
-148.110856082764
 30
0.0
 10
120.3947183943805
 20
-148.1849256356968
 30
0.0
 10
120.2954996444053
 20
-148.1890597502791
 30
0.0
 10
120.2107502954681
 20
-148.1931938648614
 30
0.0
 10
120.2107502954681
 20
-148.1931938648614
 30
0.0
 10
120.2107502954681
 20
-147.9730522633539
 30
0.0
 10
120.2107502954681
 20
-147.9730522633539
 30
0.0
 10
120.284819848401
 20
-147.9709852060628
 30
0.0
 10
120.5194308509465
 20
-147.9606499196071
 30
0.0
 10
120.5194308509465
 20
-147.677118561171
 30
0.0
 10
120.5194308509465
 20
-147.5396592513095
 30
0.0
 10
120.4498399221445
 20
-147.3870415213129
 30
0.0
 10
120.2214300914724
 20
-147.3870415213129
 30
0.0
 10
120.104985864071
 20
-147.3870415213129
 30
0.0
 10
120.0564100177289
 20
-147.4252820811992
 30
0.0
 10
120.0247151392646
 20
-147.4569769596635
 30
0.0
 10
119.9506455863318
 20
-147.5310465125964
 30
0.0
 10
119.9378987330363
 20
-147.6474907399978
 30
0.0
 10
119.9378987330363
 20
-147.7022677582133
 30
0.0
 10
119.9378987330363
 20
-147.7215602929307
 30
0.0
 10
119.9399657903275
 20
-147.7573892859773
 30
0.0
 10
119.9440999049098
 20
-147.7849500498593
 30
0.0
 10
119.9440999049098
 20
-147.7849500498593
 30
0.0
 10
119.7494520099932
 20
-147.7849500498593
 30
0.0
 10
119.7494520099932
 20
-147.7849500498593
 30
0.0
 10
119.7559976914152
 20
-147.746709489973
 30
0.0
 10
119.7580647487063
 20
-147.704679325053
 30
0.0
 10
119.7580647487063
 20
-147.698133643631
 30
0.0
 10
119.7580647487063
 20
-147.6326768294113
 30
0.0
 10
119.7367051566978
 20
-147.4338948199123
 30
0.0
 10
119.5000270968611
 20
-147.4338948199123
 30
0.0
 10
119.3222601698222
 20
-147.4338948199123
 30
0.0
 10
119.2671386420582
 20
-147.5648084483518
 30
0.0
 10
119.2671386420582
 20
-147.6750515038798
 30
0.0
 10
119.2671386420582
 20
-147.9392903275985
 30
0.0
 10
119.5000270968611
 20
-147.9479030663116
 30
0.0
 10
119.5716850829543
 20
-147.9520371808939
 30
0.0
 10
119.5716850829543
 20
-147.9520371808939
 30
0.0
 10
119.5716850829543
 20
-148.1552978145237
 30
0.0
 10
119.5716850829543
 20
-148.1552978145237
 30
0.0
 10
119.4469726263882
 20
-148.1466850758105
 30
0.0
 10
119.0704236898504
 20
-148.1191243119285
 30
0.0
 10
119.0704236898504
 20
-147.6623046505844
 30
0.0
 10
119.0704236898504
 20
-147.4380289344946
 30
0.0
 10
119.1975477132561
 20
-147.1968722505271
 30
0.0
 10
119.4934814154391
 20
-147.1968722505271
 30
0.0
 10
119.6798610811911
 20
-147.1968722505271
 30
0.0
 10
119.7621988632886
 20
-147.2919568859201
 30
0.0
 10
119.8235215629261
 20
-147.3915201454438
 30
0.0
 10
119.8510823268081
 20
-147.3301974458063
 30
0.0
 10
119.9313530516144
 20
-147.1482964041851
 30
0.0
 10
120.208683238177
 20
-147.1482964041851
 30
0.0
 10
120.5469916148285
 20
-147.1482964041851
 30
0.0
 10
120.7140787458631
 20
-147.3956542600261
 30
0.0
 10
120.7140787458631
 20
-147.6726399370402
 30
0.0
  0
HATCH
  5
E3
330
DC
100
AcDbEntity
  8
レイヤー 1
 62
    18
420
        0
440
 33554687
100
AcDbHatch
 10
0.0
 20
0.0
 30
0.0
210
0.0
220
0.0
230
1.0
  2
SOLID
 70
     1
 71
     1
 91
        1
 92
        1
 93
        1
 72
     4
 94
        3
 73
     0
 74
     0
 95
       62
 96
       58
 40
0.0
 40
0.0
 40
0.0
 40
0.0
 40
1.0
 40
1.0
 40
1.0
 40
2.0
 40
2.0
 40
2.0
 40
3.0
 40
3.0
 40
3.0
 40
4.0
 40
4.0
 40
4.0
 40
5.0
 40
5.0
 40
5.0
 40
6.0
 40
6.0
 40
6.0
 40
7.0
 40
7.0
 40
7.0
 40
8.0
 40
8.0
 40
8.0
 40
9.0
 40
9.0
 40
9.0
 40
10.0
 40
10.0
 40
10.0
 40
11.0
 40
11.0
 40
11.0
 40
12.0
 40
12.0
 40
12.0
 40
13.0
 40
13.0
 40
13.0
 40
14.0
 40
14.0
 40
14.0
 40
15.0
 40
15.0
 40
15.0
 40
16.0
 40
16.0
 40
16.0
 40
17.0
 40
17.0
 40
17.0
 40
18.0
 40
18.0
 40
18.0
 40
19.0
 40
19.0
 40
19.0
 40
19.0
 10
120.7140787458631
 20
-147.6726399370402
 10
120.7140787458631
 20
-147.7680690819816
 10
120.6930636634031
 20
-147.9857991166494
 10
120.5070285071996
 20
-148.110856082764
 10
120.3947183943805
 20
-148.1849256356968
 10
120.2954996444053
 20
-148.1890597502791
 10
120.2107502954681
 20
-148.1931938648614
 10
120.2107502954681
 20
-148.1931938648614
 10
120.2107502954681
 20
-147.9730522633539
 10
120.2107502954681
 20
-147.9730522633539
 10
120.284819848401
 20
-147.9709852060628
 10
120.5194308509465
 20
-147.9606499196071
 10
120.5194308509465
 20
-147.677118561171
 10
120.5194308509465
 20
-147.5396592513095
 10
120.4498399221445
 20
-147.3870415213129
 10
120.2214300914724
 20
-147.3870415213129
 10
120.104985864071
 20
-147.3870415213129
 10
120.0564100177289
 20
-147.4252820811992
 10
120.0247151392646
 20
-147.4569769596635
 10
119.9506455863318
 20
-147.5310465125964
 10
119.9378987330363
 20
-147.6474907399978
 10
119.9378987330363
 20
-147.7022677582133
 10
119.9378987330363
 20
-147.7215602929307
 10
119.9399657903275
 20
-147.7573892859773
 10
119.9440999049098
 20
-147.7849500498593
 10
119.9440999049098
 20
-147.7849500498593
 10
119.7494520099932
 20
-147.7849500498593
 10
119.7494520099932
 20
-147.7849500498593
 10
119.7559976914152
 20
-147.746709489973
 10
119.7580647487063
 20
-147.704679325053
 10
119.7580647487063
 20
-147.698133643631
 10
119.7580647487063
 20
-147.6326768294113
 10
119.7367051566978
 20
-147.4338948199123
 10
119.5000270968611
 20
-147.4338948199123
 10
119.3222601698222
 20
-147.4338948199123
 10
119.2671386420582
 20
-147.5648084483518
 10
119.2671386420582
 20
-147.6750515038798
 10
119.2671386420582
 20
-147.9392903275985
 10
119.5000270968611
 20
-147.9479030663116
 10
119.5716850829543
 20
-147.9520371808939
 10
119.5716850829543
 20
-147.9520371808939
 10
119.5716850829543
 20
-148.1552978145237
 10
119.5716850829543
 20
-148.1552978145237
 10
119.4469726263882
 20
-148.1466850758105
 10
119.0704236898504
 20
-148.1191243119285
 10
119.0704236898504
 20
-147.6623046505844
 10
119.0704236898504
 20
-147.4380289344946
 10
119.1975477132561
 20
-147.1968722505271
 10
119.4934814154391
 20
-147.1968722505271
 10
119.6798610811911
 20
-147.1968722505271
 10
119.7621988632886
 20
-147.2919568859201
 10
119.8235215629261
 20
-147.3915201454438
 10
119.8510823268081
 20
-147.3301974458063
 10
119.9313530516144
 20
-147.1482964041851
 10
120.208683238177
 20
-147.1482964041851
 10
120.5469916148285
 20
-147.1482964041851
 10
120.7140787458631
 20
-147.3956542600261
 10
120.7140787458631
 20
-147.6726399370402
 97
        0
 97
        1
330
E2
 75
     2
 76
     1
 98
        1
 10
0.0
 20
0.0
450
        0
451
        0
460
0.0
461
0.0
452
        0
462
0.0
453
        0
470

  0
ENDBLK
  5
DF
330
DC
100
AcDbEntity
  8
0
100
AcDbBlockEnd
  0
BLOCK
  5
E7
330
E5
100
AcDbEntity
  8
0
100
AcDbBlockBegin
  2
Block_10
 70
     0
 10
0.0
 20
0.0
 30
0.0
  3
Block_10
  1

  0
INSERT
  5
EA
330
E5
100
AcDbEntity
  8
レイヤー 1
100
AcDbBlockReference
  2
Block_11
 10
0.0
 20
0.0
 30
0.0
  0
ENDBLK
  5
E8
330
E5
100
AcDbEntity
  8
0
100
AcDbBlockEnd
  0
BLOCK
  5
EB
330
E9
100
AcDbEntity
  8
0
100
AcDbBlockBegin
  2
Block_11
 70
     0
 10
0.0
 20
0.0
 30
0.0
  3
Block_11
  1

  0
SPLINE
  5
ED
330
E9
100
AcDbEntity
  8
レイヤー 1
100
AcDbSpline
210
0.0
220
0.0
230
1.0
 70
     9
 71
     3
 72
    59
 73
    55
 74
     0
 42
0.0000000001
 43
0.0000000001
 40
0.0
 40
0.0
 40
0.0
 40
0.0
 40
1.0
 40
1.0
 40
1.0
 40
2.0
 40
2.0
 40
2.0
 40
3.0
 40
3.0
 40
3.0
 40
4.0
 40
4.0
 40
4.0
 40
5.0
 40
5.0
 40
5.0
 40
6.0
 40
6.0
 40
6.0
 40
7.0
 40
7.0
 40
7.0
 40
8.0
 40
8.0
 40
8.0
 40
9.0
 40
9.0
 40
9.0
 40
10.0
 40
10.0
 40
10.0
 40
11.0
 40
11.0
 40
11.0
 40
12.0
 40
12.0
 40
12.0
 40
13.0
 40
13.0
 40
13.0
 40
14.0
 40
14.0
 40
14.0
 40
15.0
 40
15.0
 40
15.0
 40
16.0
 40
16.0
 40
16.0
 40
17.0
 40
17.0
 40
17.0
 40
18.0
 40
18.0
 40
18.0
 40
18.0
 10
107.4291015356427
 20
-159.6729410408109
 30
0.0
 10
107.2620144046081
 20
-160.1597330328767
 30
0.0
 10
107.012589491476
 20
-160.6820095084406
 30
0.0
 10
106.4138318961396
 20
-160.9993028026321
 30
0.0
 10
106.4138318961396
 20
-160.9993028026321
 30
0.0
 10
106.2253851730964
 20
-160.8470295821841
 30
0.0
 10
106.2253851730964
 20
-160.8470295821841
 30
0.0
 10
106.3862711322576
 20
-160.777438653382
 30
0.0
 10
106.6315619308074
 20
-160.667195597854
 30
0.0
 10
106.8833984107791
 20
-160.3371554503671
 30
0.0
 10
107.1204209801643
 20
-160.0243407803064
 30
0.0
 10
107.1776095652195
 20
-159.7683701857523
 30
0.0
 10
107.2048258195529
 20
-159.6412461623466
 30
0.0
 10
107.2048258195529
 20
-159.6412461623466
 30
0.0
 10
106.5574923778745
 20
-159.6412461623466
 30
0.0
 10
106.5574923778745
 20
-159.6412461623466
 30
0.0
 10
106.4537950037685
 20
-159.8021321215078
 30
0.0
 10
106.3332166617847
 20
-159.9692192525424
 30
0.0
 10
106.1409803337078
 20
-160.1404404981593
 30
0.0
 10
106.1409803337078
 20
-160.1404404981593
 30
0.0
 10
105.9673475212512
 20
-160.0177950988844
 30
0.0
 10
105.9673475212512
 20
-160.0177950988844
 30
0.0
 10
106.0266031635975
 20
-159.9712863098335
 30
0.0
 10
106.1747422694632
 20
-159.8593207065629
 30
0.0
 10
106.3397623432067
 20
-159.6095512838823
 30
0.0
 10
106.4158989534307
 20
-159.4910399991897
 30
0.0
 10
106.5195963275368
 20
-159.321885810864
 30
0.0
 10
106.5450900341276
 20
-159.1992404115891
 30
0.0
 10
106.5450900341276
 20
-159.1992404115891
 30
0.0
 10
106.7755669220908
 20
-159.3005262188554
 30
0.0
 10
106.7755669220908
 20
-159.3005262188554
 30
0.0
 10
106.7903808326774
 20
-159.3070719002774
 30
0.0
 10
106.8051947432639
 20
-159.315340129442
 30
0.0
 10
106.8051947432639
 20
-159.3301540400286
 30
0.0
 10
106.8051947432639
 20
-159.3515136320371
 30
0.0
 10
106.7797010366731
 20
-159.3642604853325
 30
0.0
 10
106.7714328075085
 20
-159.3663275426237
 30
0.0
 10
106.7438720436265
 20
-159.3745957717883
 30
0.0
 10
106.7352593049134
 20
-159.3725287144971
 30
0.0
 10
106.7101101078711
 20
-159.398022421088
 30
0.0
 10
106.6846164012802
 20
-159.4235161276788
 30
0.0
 10
106.6866834585714
 20
-159.4317843568434
 30
0.0
 10
106.6549885801071
 20
-159.4848388273163
 30
0.0
 10
106.6549885801071
 20
-159.4848388273163
 30
0.0
 10
106.9891628421763
 20
-159.4848388273163
 30
0.0
 10
106.9891628421763
 20
-159.4848388273163
 30
0.0
 10
107.2451334367304
 20
-159.4848388273163
 30
0.0
 10
107.2768283151947
 20
-159.4720919740209
 30
0.0
 10
107.3340169002498
 20
-159.4424641528477
 30
0.0
 10
107.3340169002498
 20
-159.4424641528477
 30
0.0
 10
107.4904242352801
 20
-159.6074842265912
 30
0.0
 10
107.4904242352801
 20
-159.6074842265912
 30
0.0
 10
107.4566622995247
 20
-159.6433132196378
 30
0.0
 10
107.4545952422335
 20
-159.6453802769289
 30
0.0
 10
107.4291015356427
 20
-159.6729410408109
 30
0.0
  0
HATCH
  5
EE
330
E9
100
AcDbEntity
  8
レイヤー 1
 62
    18
420
        0
440
 33554687
100
AcDbHatch
 10
0.0
 20
0.0
 30
0.0
210
0.0
220
0.0
230
1.0
  2
SOLID
 70
     1
 71
     1
 91
        1
 92
        1
 93
        1
 72
     4
 94
        3
 73
     0
 74
     0
 95
       59
 96
       55
 40
0.0
 40
0.0
 40
0.0
 40
0.0
 40
1.0
 40
1.0
 40
1.0
 40
2.0
 40
2.0
 40
2.0
 40
3.0
 40
3.0
 40
3.0
 40
4.0
 40
4.0
 40
4.0
 40
5.0
 40
5.0
 40
5.0
 40
6.0
 40
6.0
 40
6.0
 40
7.0
 40
7.0
 40
7.0
 40
8.0
 40
8.0
 40
8.0
 40
9.0
 40
9.0
 40
9.0
 40
10.0
 40
10.0
 40
10.0
 40
11.0
 40
11.0
 40
11.0
 40
12.0
 40
12.0
 40
12.0
 40
13.0
 40
13.0
 40
13.0
 40
14.0
 40
14.0
 40
14.0
 40
15.0
 40
15.0
 40
15.0
 40
16.0
 40
16.0
 40
16.0
 40
17.0
 40
17.0
 40
17.0
 40
18.0
 40
18.0
 40
18.0
 40
18.0
 10
107.4291015356427
 20
-159.6729410408109
 10
107.2620144046081
 20
-160.1597330328767
 10
107.012589491476
 20
-160.6820095084406
 10
106.4138318961396
 20
-160.9993028026321
 10
106.4138318961396
 20
-160.9993028026321
 10
106.2253851730964
 20
-160.8470295821841
 10
106.2253851730964
 20
-160.8470295821841
 10
106.3862711322576
 20
-160.777438653382
 10
106.6315619308074
 20
-160.667195597854
 10
106.8833984107791
 20
-160.3371554503671
 10
107.1204209801643
 20
-160.0243407803064
 10
107.1776095652195
 20
-159.7683701857523
 10
107.2048258195529
 20
-159.6412461623466
 10
107.2048258195529
 20
-159.6412461623466
 10
106.5574923778745
 20
-159.6412461623466
 10
106.5574923778745
 20
-159.6412461623466
 10
106.4537950037685
 20
-159.8021321215078
 10
106.3332166617847
 20
-159.9692192525424
 10
106.1409803337078
 20
-160.1404404981593
 10
106.1409803337078
 20
-160.1404404981593
 10
105.9673475212512
 20
-160.0177950988844
 10
105.9673475212512
 20
-160.0177950988844
 10
106.0266031635975
 20
-159.9712863098335
 10
106.1747422694632
 20
-159.8593207065629
 10
106.3397623432067
 20
-159.6095512838823
 10
106.4158989534307
 20
-159.4910399991897
 10
106.5195963275368
 20
-159.321885810864
 10
106.5450900341276
 20
-159.1992404115891
 10
106.5450900341276
 20
-159.1992404115891
 10
106.7755669220908
 20
-159.3005262188554
 10
106.7755669220908
 20
-159.3005262188554
 10
106.7903808326774
 20
-159.3070719002774
 10
106.8051947432639
 20
-159.315340129442
 10
106.8051947432639
 20
-159.3301540400286
 10
106.8051947432639
 20
-159.3515136320371
 10
106.7797010366731
 20
-159.3642604853325
 10
106.7714328075085
 20
-159.3663275426237
 10
106.7438720436265
 20
-159.3745957717883
 10
106.7352593049134
 20
-159.3725287144971
 10
106.7101101078711
 20
-159.398022421088
 10
106.6846164012802
 20
-159.4235161276788
 10
106.6866834585714
 20
-159.4317843568434
 10
106.6549885801071
 20
-159.4848388273163
 10
106.6549885801071
 20
-159.4848388273163
 10
106.9891628421763
 20
-159.4848388273163
 10
106.9891628421763
 20
-159.4848388273163
 10
107.2451334367304
 20
-159.4848388273163
 10
107.2768283151947
 20
-159.4720919740209
 10
107.3340169002498
 20
-159.4424641528477
 10
107.3340169002498
 20
-159.4424641528477
 10
107.4904242352801
 20
-159.6074842265912
 10
107.4904242352801
 20
-159.6074842265912
 10
107.4566622995247
 20
-159.6433132196378
 10
107.4545952422335
 20
-159.6453802769289
 10
107.4291015356427
 20
-159.6729410408109
 97
        0
 97
        1
330
ED
 75
     2
 76
     1
 98
        1
 10
0.0
 20
0.0
450
        0
451
        0
460
0.0
461
0.0
452
        0
462
0.0
453
        0
470

  0
SPLINE
  5
EF
330
E9
100
AcDbEntity
  8
レイヤー 1
100
AcDbSpline
210
0.0
220
0.0
230
1.0
 70
    11
 71
     3
 72
    17
 73
    13
 74
     0
 42
0.0000000001
 43
0.0000000001
 40
0.0
 40
0.0
 40
0.0
 40
0.0
 40
1.0
 40
1.0
 40
1.0
 40
2.0
 40
2.0
 40
2.0
 40
3.0
 40
3.0
 40
3.0
 40
4.0
 40
4.0
 40
4.0
 40
4.0
 10
109.0717230630098
 20
-159.5819905200003
 30
0.0
 10
109.0717230630098
 20
-159.5819905200003
 30
0.0
 10
108.0309597169158
 20
-159.5819905200003
 30
0.0
 10
108.0309597169158
 20
-159.5819905200003
 30
0.0
 10
108.0309597169158
 20
-159.5819905200003
 30
0.0
 10
108.0309597169158
 20
-160.4704806456462
 30
0.0
 10
108.0309597169158
 20
-160.4704806456462
 30
0.0
 10
108.0309597169158
 20
-160.4704806456462
 30
0.0
 10
109.0717230630098
 20
-160.4704806456462
 30
0.0
 10
109.0717230630098
 20
-160.4704806456462
 30
0.0
 10
109.0717230630098
 20
-160.4704806456462
 30
0.0
 10
109.0717230630098
 20
-159.5819905200003
 30
0.0
 10
109.0717230630098
 20
-159.5819905200003
 30
0.0
  0
SPLINE
  5
F0
330
E9
100
AcDbEntity
  8
レイヤー 1
100
AcDbSpline
210
0.0
220
0.0
230
1.0
 70
     9
 71
     3
 72
    53
 73
    49
 74
     0
 42
0.0000000001
 43
0.0000000001
 40
0.0
 40
0.0
 40
0.0
 40
0.0
 40
1.0
 40
1.0
 40
1.0
 40
2.0
 40
2.0
 40
2.0
 40
3.0
 40
3.0
 40
3.0
 40
4.0
 40
4.0
 40
4.0
 40
5.0
 40
5.0
 40
5.0
 40
6.0
 40
6.0
 40
6.0
 40
7.0
 40
7.0
 40
7.0
 40
8.0
 40
8.0
 40
8.0
 40
9.0
 40
9.0
 40
9.0
 40
10.0
 40
10.0
 40
10.0
 40
11.0
 40
11.0
 40
11.0
 40
12.0
 40
12.0
 40
12.0
 40
13.0
 40
13.0
 40
13.0
 40
14.0
 40
14.0
 40
14.0
 40
15.0
 40
15.0
 40
15.0
 40
16.0
 40
16.0
 40
16.0
 40
16.0
 10
109.0486409232586
 20
-160.7857068825466
 30
0.0
 10
109.0569091524232
 20
-160.7412651507869
 30
0.0
 10
109.0569091524232
 20
-160.7329969216223
 30
0.0
 10
109.0634548338452
 20
-160.6589273686894
 30
0.0
 10
109.0634548338452
 20
-160.6589273686894
 30
0.0
 10
108.033026774207
 20
-160.6589273686894
 30
0.0
 10
108.033026774207
 20
-160.6589273686894
 30
0.0
 10
108.033026774207
 20
-160.6906222471537
 30
0.0
 10
108.033026774207
 20
-160.7457437749177
 30
0.0
 10
108.0375053983378
 20
-160.7815727679643
 30
0.0
 10
108.0375053983378
 20
-160.7815727679643
 30
0.0
 10
107.7963487143703
 20
-160.7815727679643
 30
0.0
 10
107.7963487143703
 20
-160.7815727679643
 30
0.0
 10
107.8025498862438
 20
-160.7264512402003
 30
0.0
 10
107.8132296822481
 20
-160.6355007193897
 30
0.0
 10
107.8132296822481
 20
-160.5066541482414
 30
0.0
 10
107.8152967395392
 20
-160.3013264573205
 30
0.0
 10
107.8152967395392
 20
-160.2778998080208
 30
0.0
 10
107.8152967395392
 20
-160.2548176682696
 30
0.0
 10
107.8152967395392
 20
-160.2548176682696
 30
0.0
 10
107.8152967395392
 20
-159.8148789748032
 30
0.0
 10
107.8152967395392
 20
-159.8148789748032
 30
0.0
 10
107.8152967395392
 20
-159.7490776510349
 30
0.0
 10
107.8087510581172
 20
-159.42558318497
 30
0.0
 10
107.8046169435349
 20
-159.370461657206
 30
0.0
 10
107.929329400101
 20
-159.3832085105014
 30
0.0
 10
108.1939127333682
 20
-159.3873426250837
 30
0.0
 10
108.3251708713562
 20
-159.3873426250837
 30
0.0
 10
108.3251708713562
 20
-159.3873426250837
 30
0.0
 10
108.7799234754092
 20
-159.3873426250837
 30
0.0
 10
108.7799234754092
 20
-159.3873426250837
 30
0.0
 10
108.9301296385661
 20
-159.3873426250837
 30
0.0
 10
109.1544053546558
 20
-159.3852755677926
 30
0.0
 10
109.3004774032304
 20
-159.377007338628
 30
0.0
 10
109.2918646645173
 20
-159.4869058846074
 30
0.0
 10
109.287730549935
 20
-159.7363307977395
 30
0.0
 10
109.287730549935
 20
-159.8548420824321
 30
0.0
 10
109.287730549935
 20
-159.8548420824321
 30
0.0
 10
109.287730549935
 20
-160.2737656934385
 30
0.0
 10
109.287730549935
 20
-160.2737656934385
 30
0.0
 10
109.287730549935
 20
-160.3161403679071
 30
0.0
 10
109.2939317218084
 20
-160.4980414095282
 30
0.0
 10
109.2939317218084
 20
-160.5362819694145
 30
0.0
 10
109.2959987790996
 20
-160.6864881325714
 30
0.0
 10
109.3046115178127
 20
-160.7371310362046
 30
0.0
 10
109.3128797469773
 20
-160.7857068825466
 30
0.0
 10
109.3128797469773
 20
-160.7857068825466
 30
0.0
 10
109.0486409232586
 20
-160.7857068825466
 30
0.0
 10
109.0486409232586
 20
-160.7857068825466
 30
0.0
  0
HATCH
  5
F1
330
E9
100
AcDbEntity
  8
レイヤー 1
 62
    18
420
        0
440
 33554687
100
AcDbHatch
 10
0.0
 20
0.0
 30
0.0
210
0.0
220
0.0
230
1.0
  2
SOLID
 70
     1
 71
     1
 91
        2
 92
        1
 93
        1
 72
     4
 94
        3
 73
     0
 74
     0
 95
       17
 96
       13
 40
0.0
 40
0.0
 40
0.0
 40
0.0
 40
1.0
 40
1.0
 40
1.0
 40
2.0
 40
2.0
 40
2.0
 40
3.0
 40
3.0
 40
3.0
 40
4.0
 40
4.0
 40
4.0
 40
4.0
 10
109.0717230630098
 20
-159.5819905200003
 10
109.0717230630098
 20
-159.5819905200003
 10
108.0309597169158
 20
-159.5819905200003
 10
108.0309597169158
 20
-159.5819905200003
 10
108.0309597169158
 20
-159.5819905200003
 10
108.0309597169158
 20
-160.4704806456462
 10
108.0309597169158
 20
-160.4704806456462
 10
108.0309597169158
 20
-160.4704806456462
 10
109.0717230630098
 20
-160.4704806456462
 10
109.0717230630098
 20
-160.4704806456462
 10
109.0717230630098
 20
-160.4704806456462
 10
109.0717230630098
 20
-159.5819905200003
 10
109.0717230630098
 20
-159.5819905200003
 97
        0
 97
        1
330
EF
 92
        1
 93
        1
 72
     4
 94
        3
 73
     0
 74
     0
 95
       53
 96
       49
 40
0.0
 40
0.0
 40
0.0
 40
0.0
 40
1.0
 40
1.0
 40
1.0
 40
2.0
 40
2.0
 40
2.0
 40
3.0
 40
3.0
 40
3.0
 40
4.0
 40
4.0
 40
4.0
 40
5.0
 40
5.0
 40
5.0
 40
6.0
 40
6.0
 40
6.0
 40
7.0
 40
7.0
 40
7.0
 40
8.0
 40
8.0
 40
8.0
 40
9.0
 40
9.0
 40
9.0
 40
10.0
 40
10.0
 40
10.0
 40
11.0
 40
11.0
 40
11.0
 40
12.0
 40
12.0
 40
12.0
 40
13.0
 40
13.0
 40
13.0
 40
14.0
 40
14.0
 40
14.0
 40
15.0
 40
15.0
 40
15.0
 40
16.0
 40
16.0
 40
16.0
 40
16.0
 10
109.0486409232586
 20
-160.7857068825466
 10
109.0569091524232
 20
-160.7412651507869
 10
109.0569091524232
 20
-160.7329969216223
 10
109.0634548338452
 20
-160.6589273686894
 10
109.0634548338452
 20
-160.6589273686894
 10
108.033026774207
 20
-160.6589273686894
 10
108.033026774207
 20
-160.6589273686894
 10
108.033026774207
 20
-160.6906222471537
 10
108.033026774207
 20
-160.7457437749177
 10
108.0375053983378
 20
-160.7815727679643
 10
108.0375053983378
 20
-160.7815727679643
 10
107.7963487143703
 20
-160.7815727679643
 10
107.7963487143703
 20
-160.7815727679643
 10
107.8025498862438
 20
-160.7264512402003
 10
107.8132296822481
 20
-160.6355007193897
 10
107.8132296822481
 20
-160.5066541482414
 10
107.8152967395392
 20
-160.3013264573205
 10
107.8152967395392
 20
-160.2778998080208
 10
107.8152967395392
 20
-160.2548176682696
 10
107.8152967395392
 20
-160.2548176682696
 10
107.8152967395392
 20
-159.8148789748032
 10
107.8152967395392
 20
-159.8148789748032
 10
107.8152967395392
 20
-159.7490776510349
 10
107.8087510581172
 20
-159.42558318497
 10
107.8046169435349
 20
-159.370461657206
 10
107.929329400101
 20
-159.3832085105014
 10
108.1939127333682
 20
-159.3873426250837
 10
108.3251708713562
 20
-159.3873426250837
 10
108.3251708713562
 20
-159.3873426250837
 10
108.7799234754092
 20
-159.3873426250837
 10
108.7799234754092
 20
-159.3873426250837
 10
108.9301296385661
 20
-159.3873426250837
 10
109.1544053546558
 20
-159.3852755677926
 10
109.3004774032304
 20
-159.377007338628
 10
109.2918646645173
 20
-159.4869058846074
 10
109.287730549935
 20
-159.7363307977395
 10
109.287730549935
 20
-159.8548420824321
 10
109.287730549935
 20
-159.8548420824321
 10
109.287730549935
 20
-160.2737656934385
 10
109.287730549935
 20
-160.2737656934385
 10
109.287730549935
 20
-160.3161403679071
 10
109.2939317218084
 20
-160.4980414095282
 10
109.2939317218084
 20
-160.5362819694145
 10
109.2959987790996
 20
-160.6864881325714
 10
109.3046115178127
 20
-160.7371310362046
 10
109.3128797469773
 20
-160.7857068825466
 10
109.3128797469773
 20
-160.7857068825466
 10
109.0486409232586
 20
-160.7857068825466
 10
109.0486409232586
 20
-160.7857068825466
 97
        0
 97
        1
330
F0
 75
     2
 76
     1
 98
        1
 10
0.0
 20
0.0
450
        0
451
        0
460
0.0
461
0.0
452
        0
462
0.0
453
        0
470

  0
SPLINE
  5
F2
330
E9
100
AcDbEntity
  8
レイヤー 1
100
AcDbSpline
210
0.0
220
0.0
230
1.0
 70
     9
 71
     3
 72
    56
 73
    52
 74
     0
 42
0.0000000001
 43
0.0000000001
 40
0.0
 40
0.0
 40
0.0
 40
0.0
 40
1.0
 40
1.0
 40
1.0
 40
2.0
 40
2.0
 40
2.0
 40
3.0
 40
3.0
 40
3.0
 40
4.0
 40
4.0
 40
4.0
 40
5.0
 40
5.0
 40
5.0
 40
6.0
 40
6.0
 40
6.0
 40
7.0
 40
7.0
 40
7.0
 40
8.0
 40
8.0
 40
8.0
 40
9.0
 40
9.0
 40
9.0
 40
10.0
 40
10.0
 40
10.0
 40
11.0
 40
11.0
 40
11.0
 40
12.0
 40
12.0
 40
12.0
 40
13.0
 40
13.0
 40
13.0
 40
14.0
 40
14.0
 40
14.0
 40
15.0
 40
15.0
 40
15.0
 40
16.0
 40
16.0
 40
16.0
 40
17.0
 40
17.0
 40
17.0
 40
17.0
 10
111.059543157999
 20
-160.8515082063149
 30
0.0
 10
110.8669623203735
 20
-160.542483141288
 30
0.0
 10
110.6089246685283
 20
-160.3371554503671
 30
0.0
 10
110.5179741477177
 20
-160.2716986361473
 30
0.0
 10
110.2237629932774
 20
-160.6103515223474
 30
0.0
 10
109.9340304629679
 20
-160.7626247427954
 30
0.0
 10
109.735248453469
 20
-160.8556423208972
 30
0.0
 10
109.735248453469
 20
-160.8556423208972
 30
0.0
 10
109.5764295515989
 20
-160.667195597854
 30
0.0
 10
109.5764295515989
 20
-160.667195597854
 30
0.0
 10
109.6801269257049
 20
-160.6313666048074
 30
0.0
 10
109.8937228457904
 20
-160.5552299945834
 30
0.0
 10
110.1266113005933
 20
-160.3691948383799
 30
0.0
 10
110.390850124312
 20
-160.157321466037
 30
0.0
 10
110.577229790064
 20
-159.8696559930187
 30
0.0
 10
110.6998751893389
 20
-159.556841322958
 30
0.0
 10
110.6998751893389
 20
-159.556841322958
 30
0.0
 10
110.3233262528011
 20
-159.556841322958
 30
0.0
 10
110.3233262528011
 20
-159.556841322958
 30
0.0
 10
110.1710530323531
 20
-159.556841322958
 30
0.0
 10
109.9615912268499
 20
-159.5609754375403
 30
0.0
 10
109.811385063693
 20
-159.5799234627092
 30
0.0
 10
109.811385063693
 20
-159.5799234627092
 30
0.0
 10
109.811385063693
 20
-159.3683945999148
 30
0.0
 10
109.811385063693
 20
-159.3683945999148
 30
0.0
 10
109.8789089352039
 20
-159.3745957717883
 30
0.0
 10
110.1393581538888
 20
-159.3852755677926
 30
0.0
 10
110.2258300505685
 20
-159.3852755677926
 30
0.0
 10
110.2258300505685
 20
-159.3852755677926
 30
0.0
 10
110.5369221728866
 20
-159.3852755677926
 30
0.0
 10
110.5369221728866
 20
-159.3852755677926
 30
0.0
 10
110.7443169210986
 20
-159.3852755677926
 30
0.0
 10
110.7673990608498
 20
-159.3790743959191
 30
0.0
 10
110.7908257101495
 20
-159.3745957717883
 30
0.0
 10
110.8352674419092
 20
-159.3683945999148
 30
0.0
 10
110.873163492247
 20
-159.342900893324
 30
0.0
 10
110.8945230842555
 20
-159.3260199254463
 30
0.0
 10
110.8945230842555
 20
-159.3260199254463
 30
0.0
 10
111.0509304192859
 20
-159.4996527379028
 30
0.0
 10
111.0509304192859
 20
-159.4996527379028
 30
0.0
 10
111.010967311657
 20
-159.5272135017848
 30
0.0
 10
110.9982204583615
 20
-159.5375487882406
 30
0.0
 10
110.949300102471
 20
-159.5737222908357
 30
0.0
 10
110.8204535313227
 20
-159.8210801466767
 30
0.0
 10
110.7401828065163
 20
-159.9712863098335
 30
0.0
 10
110.6364854324103
 20
-160.1173583584081
 30
0.0
 10
110.949300102471
 20
-160.3350883930759
 30
0.0
 10
111.1780544426916
 20
-160.6206868088031
 30
0.0
 10
111.2307644036159
 20
-160.6988904763183
 30
0.0
 10
111.2307644036159
 20
-160.6988904763183
 30
0.0
 10
111.059543157999
 20
-160.8515082063149
 30
0.0
 10
111.059543157999
 20
-160.8515082063149
 30
0.0
  0
HATCH
  5
F3
330
E9
100
AcDbEntity
  8
レイヤー 1
 62
    18
420
        0
440
 33554687
100
AcDbHatch
 10
0.0
 20
0.0
 30
0.0
210
0.0
220
0.0
230
1.0
  2
SOLID
 70
     1
 71
     1
 91
        1
 92
        1
 93
        1
 72
     4
 94
        3
 73
     0
 74
     0
 95
       56
 96
       52
 40
0.0
 40
0.0
 40
0.0
 40
0.0
 40
1.0
 40
1.0
 40
1.0
 40
2.0
 40
2.0
 40
2.0
 40
3.0
 40
3.0
 40
3.0
 40
4.0
 40
4.0
 40
4.0
 40
5.0
 40
5.0
 40
5.0
 40
6.0
 40
6.0
 40
6.0
 40
7.0
 40
7.0
 40
7.0
 40
8.0
 40
8.0
 40
8.0
 40
9.0
 40
9.0
 40
9.0
 40
10.0
 40
10.0
 40
10.0
 40
11.0
 40
11.0
 40
11.0
 40
12.0
 40
12.0
 40
12.0
 40
13.0
 40
13.0
 40
13.0
 40
14.0
 40
14.0
 40
14.0
 40
15.0
 40
15.0
 40
15.0
 40
16.0
 40
16.0
 40
16.0
 40
17.0
 40
17.0
 40
17.0
 40
17.0
 10
111.059543157999
 20
-160.8515082063149
 10
110.8669623203735
 20
-160.542483141288
 10
110.6089246685283
 20
-160.3371554503671
 10
110.5179741477177
 20
-160.2716986361473
 10
110.2237629932774
 20
-160.6103515223474
 10
109.9340304629679
 20
-160.7626247427954
 10
109.735248453469
 20
-160.8556423208972
 10
109.735248453469
 20
-160.8556423208972
 10
109.5764295515989
 20
-160.667195597854
 10
109.5764295515989
 20
-160.667195597854
 10
109.6801269257049
 20
-160.6313666048074
 10
109.8937228457904
 20
-160.5552299945834
 10
110.1266113005933
 20
-160.3691948383799
 10
110.390850124312
 20
-160.157321466037
 10
110.577229790064
 20
-159.8696559930187
 10
110.6998751893389
 20
-159.556841322958
 10
110.6998751893389
 20
-159.556841322958
 10
110.3233262528011
 20
-159.556841322958
 10
110.3233262528011
 20
-159.556841322958
 10
110.1710530323531
 20
-159.556841322958
 10
109.9615912268499
 20
-159.5609754375403
 10
109.811385063693
 20
-159.5799234627092
 10
109.811385063693
 20
-159.5799234627092
 10
109.811385063693
 20
-159.3683945999148
 10
109.811385063693
 20
-159.3683945999148
 10
109.8789089352039
 20
-159.3745957717883
 10
110.1393581538888
 20
-159.3852755677926
 10
110.2258300505685
 20
-159.3852755677926
 10
110.2258300505685
 20
-159.3852755677926
 10
110.5369221728866
 20
-159.3852755677926
 10
110.5369221728866
 20
-159.3852755677926
 10
110.7443169210986
 20
-159.3852755677926
 10
110.7673990608498
 20
-159.3790743959191
 10
110.7908257101495
 20
-159.3745957717883
 10
110.8352674419092
 20
-159.3683945999148
 10
110.873163492247
 20
-159.342900893324
 10
110.8945230842555
 20
-159.3260199254463
 10
110.8945230842555
 20
-159.3260199254463
 10
111.0509304192859
 20
-159.4996527379028
 10
111.0509304192859
 20
-159.4996527379028
 10
111.010967311657
 20
-159.5272135017848
 10
110.9982204583615
 20
-159.5375487882406
 10
110.949300102471
 20
-159.5737222908357
 10
110.8204535313227
 20
-159.8210801466767
 10
110.7401828065163
 20
-159.9712863098335
 10
110.6364854324103
 20
-160.1173583584081
 10
110.949300102471
 20
-160.3350883930759
 10
111.1780544426916
 20
-160.6206868088031
 10
111.2307644036159
 20
-160.6988904763183
 10
111.2307644036159
 20
-160.6988904763183
 10
111.059543157999
 20
-160.8515082063149
 10
111.059543157999
 20
-160.8515082063149
 97
        0
 97
        1
330
F2
 75
     2
 76
     1
 98
        1
 10
0.0
 20
0.0
450
        0
451
        0
460
0.0
461
0.0
452
        0
462
0.0
453
        0
470

  0
SPLINE
  5
F4
330
E9
100
AcDbEntity
  8
レイヤー 1
100
AcDbSpline
210
0.0
220
0.0
230
1.0
 70
    11
 71
     3
 72
    17
 73
    13
 74
     0
 42
0.0000000001
 43
0.0000000001
 40
0.0
 40
0.0
 40
0.0
 40
0.0
 40
1.0
 40
1.0
 40
1.0
 40
2.0
 40
2.0
 40
2.0
 40
3.0
 40
3.0
 40
3.0
 40
4.0
 40
4.0
 40
4.0
 40
4.0
 10
112.9412543120424
 20
-159.8741346171495
 30
0.0
 10
112.9412543120424
 20
-159.8741346171495
 30
0.0
 10
112.4820230838586
 20
-159.8741346171495
 30
0.0
 10
112.4820230838586
 20
-159.8741346171495
 30
0.0
 10
112.4820230838586
 20
-159.8741346171495
 30
0.0
 10
112.4820230838586
 20
-160.1828151726279
 30
0.0
 10
112.4820230838586
 20
-160.1828151726279
 30
0.0
 10
112.4820230838586
 20
-160.1828151726279
 30
0.0
 10
112.9412543120424
 20
-160.1828151726279
 30
0.0
 10
112.9412543120424
 20
-160.1828151726279
 30
0.0
 10
112.9412543120424
 20
-160.1828151726279
 30
0.0
 10
112.9412543120424
 20
-159.8741346171495
 30
0.0
 10
112.9412543120424
 20
-159.8741346171495
 30
0.0
  0
SPLINE
  5
F5
330
E9
100
AcDbEntity
  8
レイヤー 1
100
AcDbSpline
210
0.0
220
0.0
230
1.0
 70
    11
 71
     3
 72
    17
 73
    13
 74
     0
 42
0.0000000001
 43
0.0000000001
 40
0.0
 40
0.0
 40
0.0
 40
0.0
 40
1.0
 40
1.0
 40
1.0
 40
2.0
 40
2.0
 40
2.0
 40
3.0
 40
3.0
 40
3.0
 40
4.0
 40
4.0
 40
4.0
 40
4.0
 10
112.9412543120424
 20
-159.4021565356703
 30
0.0
 10
112.9412543120424
 20
-159.4021565356703
 30
0.0
 10
112.4820230838586
 20
-159.4021565356703
 30
0.0
 10
112.4820230838586
 20
-159.4021565356703
 30
0.0
 10
112.4820230838586
 20
-159.4021565356703
 30
0.0
 10
112.4820230838586
 20
-159.7067029765664
 30
0.0
 10
112.4820230838586
 20
-159.7067029765664
 30
0.0
 10
112.4820230838586
 20
-159.7067029765664
 30
0.0
 10
112.9412543120424
 20
-159.7067029765664
 30
0.0
 10
112.9412543120424
 20
-159.7067029765664
 30
0.0
 10
112.9412543120424
 20
-159.7067029765664
 30
0.0
 10
112.9412543120424
 20
-159.4021565356703
 30
0.0
 10
112.9412543120424
 20
-159.4021565356703
 30
0.0
  0
SPLINE
  5
F6
330
E9
100
AcDbEntity
  8
レイヤー 1
100
AcDbSpline
210
0.0
220
0.0
230
1.0
 70
    11
 71
     3
 72
    17
 73
    13
 74
     0
 42
0.0000000001
 43
0.0000000001
 40
0.0
 40
0.0
 40
0.0
 40
0.0
 40
1.0
 40
1.0
 40
1.0
 40
2.0
 40
2.0
 40
2.0
 40
3.0
 40
3.0
 40
3.0
 40
4.0
 40
4.0
 40
4.0
 40
4.0
 10
112.2918538130728
 20
-159.8741346171495
 30
0.0
 10
112.2918538130728
 20
-159.8741346171495
 30
0.0
 10
111.8539821768976
 20
-159.8741346171495
 30
0.0
 10
111.8539821768976
 20
-159.8741346171495
 30
0.0
 10
111.8539821768976
 20
-159.8741346171495
 30
0.0
 10
111.8539821768976
 20
-160.1828151726279
 30
0.0
 10
111.8539821768976
 20
-160.1828151726279
 30
0.0
 10
111.8539821768976
 20
-160.1828151726279
 30
0.0
 10
112.2918538130728
 20
-160.1828151726279
 30
0.0
 10
112.2918538130728
 20
-160.1828151726279
 30
0.0
 10
112.2918538130728
 20
-160.1828151726279
 30
0.0
 10
112.2918538130728
 20
-159.8741346171495
 30
0.0
 10
112.2918538130728
 20
-159.8741346171495
 30
0.0
  0
SPLINE
  5
F7
330
E9
100
AcDbEntity
  8
レイヤー 1
100
AcDbSpline
210
0.0
220
0.0
230
1.0
 70
    11
 71
     3
 72
    17
 73
    13
 74
     0
 42
0.0000000001
 43
0.0000000001
 40
0.0
 40
0.0
 40
0.0
 40
0.0
 40
1.0
 40
1.0
 40
1.0
 40
2.0
 40
2.0
 40
2.0
 40
3.0
 40
3.0
 40
3.0
 40
4.0
 40
4.0
 40
4.0
 40
4.0
 10
112.2918538130728
 20
-159.4021565356703
 30
0.0
 10
112.2918538130728
 20
-159.4021565356703
 30
0.0
 10
111.8539821768976
 20
-159.4021565356703
 30
0.0
 10
111.8539821768976
 20
-159.4021565356703
 30
0.0
 10
111.8539821768976
 20
-159.4021565356703
 30
0.0
 10
111.8539821768976
 20
-159.7067029765664
 30
0.0
 10
111.8539821768976
 20
-159.7067029765664
 30
0.0
 10
111.8539821768976
 20
-159.7067029765664
 30
0.0
 10
112.2918538130728
 20
-159.7067029765664
 30
0.0
 10
112.2918538130728
 20
-159.7067029765664
 30
0.0
 10
112.2918538130728
 20
-159.7067029765664
 30
0.0
 10
112.2918538130728
 20
-159.4021565356703
 30
0.0
 10
112.2918538130728
 20
-159.4021565356703
 30
0.0
  0
SPLINE
  5
F8
330
E9
100
AcDbEntity
  8
レイヤー 1
100
AcDbSpline
210
0.0
220
0.0
230
1.0
 70
     9
 71
     3
 72
    77
 73
    73
 74
     0
 42
0.0000000001
 43
0.0000000001
 40
0.0
 40
0.0
 40
0.0
 40
0.0
 40
1.0
 40
1.0
 40
1.0
 40
2.0
 40
2.0
 40
2.0
 40
3.0
 40
3.0
 40
3.0
 40
4.0
 40
4.0
 40
4.0
 40
5.0
 40
5.0
 40
5.0
 40
6.0
 40
6.0
 40
6.0
 40
7.0
 40
7.0
 40
7.0
 40
8.0
 40
8.0
 40
8.0
 40
9.0
 40
9.0
 40
9.0
 40
10.0
 40
10.0
 40
10.0
 40
11.0
 40
11.0
 40
11.0
 40
12.0
 40
12.0
 40
12.0
 40
13.0
 40
13.0
 40
13.0
 40
14.0
 40
14.0
 40
14.0
 40
15.0
 40
15.0
 40
15.0
 40
16.0
 40
16.0
 40
16.0
 40
17.0
 40
17.0
 40
17.0
 40
18.0
 40
18.0
 40
18.0
 40
19.0
 40
19.0
 40
19.0
 40
20.0
 40
20.0
 40
20.0
 40
21.0
 40
21.0
 40
21.0
 40
22.0
 40
22.0
 40
22.0
 40
23.0
 40
23.0
 40
23.0
 40
24.0
 40
24.0
 40
24.0
 40
24.0
 10
113.0766465646128
 20
-160.9889675161764
 30
0.0
 10
113.0301377755619
 20
-161.0141167132187
 30
0.0
 10
112.9054253189959
 20
-161.0268635665141
 30
0.0
 10
112.8268771419322
 20
-161.0268635665141
 30
0.0
 10
112.8144747981852
 20
-161.0268635665141
 30
0.0
 10
112.7889810915944
 20
-161.0268635665141
 30
0.0
 10
112.7552191558389
 20
-161.0227294519318
 30
0.0
 10
112.7552191558389
 20
-161.0227294519318
 30
0.0
 10
112.6577229536064
 20
-160.7963866785509
 30
0.0
 10
112.6577229536064
 20
-160.7963866785509
 30
0.0
 10
112.6873507747795
 20
-160.8025878504244
 30
0.0
 10
112.7445393598347
 20
-160.8112005891375
 30
0.0
 10
112.8609835872361
 20
-160.8112005891375
 30
0.0
 10
112.9391872547513
 20
-160.8112005891375
 30
0.0
 10
112.9412543120424
 20
-160.7688259146689
 30
0.0
 10
112.9412543120424
 20
-160.7116373296137
 30
0.0
 10
112.9412543120424
 20
-160.7116373296137
 30
0.0
 10
112.9412543120424
 20
-160.3626491569579
 30
0.0
 10
112.9412543120424
 20
-160.3626491569579
 30
0.0
 10
112.9412543120424
 20
-160.3626491569579
 30
0.0
 10
112.4820230838586
 20
-160.3626491569579
 30
0.0
 10
112.4820230838586
 20
-160.3626491569579
 30
0.0
 10
112.4844346506983
 20
-160.5001084668194
 30
0.0
 10
112.4865017079895
 20
-160.6988904763183
 30
0.0
 10
112.4927028798629
 20
-160.8322156715975
 30
0.0
 10
112.4947699371541
 20
-160.8597764354795
 30
0.0
 10
112.4947699371541
 20
-160.9042181672392
 30
0.0
 10
112.5075167904495
 20
-160.9655408668766
 30
0.0
 10
112.5075167904495
 20
-160.9655408668766
 30
0.0
 10
112.266360106482
 20
-160.9655408668766
 30
0.0
 10
112.266360106482
 20
-160.9655408668766
 30
0.0
 10
112.2918538130728
 20
-160.8408284103106
 30
0.0
 10
112.2918538130728
 20
-160.5001084668194
 30
0.0
 10
112.2918538130728
 20
-160.3626491569579
 30
0.0
 10
112.2918538130728
 20
-160.3626491569579
 30
0.0
 10
111.8495035527668
 20
-160.3626491569579
 30
0.0
 10
111.8495035527668
 20
-160.3626491569579
 30
0.0
 10
111.8264214130156
 20
-160.57004390517
 30
0.0
 10
111.7609645987958
 20
-160.8387613530195
 30
0.0
 10
111.5639051370395
 20
-161.0227294519318
 30
0.0
 10
111.5639051370395
 20
-161.0227294519318
 30
0.0
 10
111.3758029235449
 20
-160.9000840526569
 30
0.0
 10
111.3758029235449
 20
-160.9000840526569
 30
0.0
 10
111.6297064608078
 20
-160.6799424511494
 30
0.0
 10
111.6614013392721
 20
-160.3478352463713
 30
0.0
 10
111.6614013392721
 20
-160.0157280415933
 30
0.0
 10
111.6614013392721
 20
-160.0157280415933
 30
0.0
 10
111.6614013392721
 20
-159.5799234627092
 30
0.0
 10
111.6614013392721
 20
-159.5799234627092
 30
0.0
 10
111.6614013392721
 20
-159.5440944696625
 30
0.0
 10
111.659334281981
 20
-159.3112060148597
 30
0.0
 10
111.6507215432678
 20
-159.2095756980448
 30
0.0
 10
111.7902479104205
 20
-159.2202554940491
 30
0.0
 10
112.0317491039365
 20
-159.2202554940491
 30
0.0
 10
112.1754095856714
 20
-159.2202554940491
 30
0.0
 10
112.1754095856714
 20
-159.2202554940491
 30
0.0
 10
112.6346408138552
 20
-159.2202554940491
 30
0.0
 10
112.6346408138552
 20
-159.2202554940491
 30
0.0
 10
112.6494547244418
 20
-159.2202554940491
 30
0.0
 10
112.9984428970976
 20
-159.2202554940491
 30
0.0
 10
113.1569172894191
 20
-159.2095756980448
 30
0.0
 10
113.1548502321279
 20
-159.2626301685177
 30
0.0
 10
113.1486490602545
 20
-159.4235161276788
 30
0.0
 10
113.1486490602545
 20
-159.474159031312
 30
0.0
 10
113.1486490602545
 20
-159.474159031312
 30
0.0
 10
113.1486490602545
 20
-160.081184855813
 30
0.0
 10
113.1486490602545
 20
-160.081184855813
 30
0.0
 10
113.1486490602545
 20
-160.1004773905304
 30
0.0
 10
113.1589843467102
 20
-160.6716742219848
 30
0.0
 10
113.1589843467102
 20
-160.7836398252555
 30
0.0
 10
113.1589843467102
 20
-160.8408284103106
 30
0.0
 10
113.1589843467102
 20
-160.9424587271255
 30
0.0
 10
113.0766465646128
 20
-160.9889675161764
 30
0.0
  0
HATCH
  5
F9
330
E9
100
AcDbEntity
  8
レイヤー 1
 62
    18
420
        0
440
 33554687
100
AcDbHatch
 10
0.0
 20
0.0
 30
0.0
210
0.0
220
0.0
230
1.0
  2
SOLID
 70
     1
 71
     1
 91
        5
 92
        1
 93
        1
 72
     4
 94
        3
 73
     0
 74
     0
 95
       17
 96
       13
 40
0.0
 40
0.0
 40
0.0
 40
0.0
 40
1.0
 40
1.0
 40
1.0
 40
2.0
 40
2.0
 40
2.0
 40
3.0
 40
3.0
 40
3.0
 40
4.0
 40
4.0
 40
4.0
 40
4.0
 10
112.9412543120424
 20
-159.8741346171495
 10
112.9412543120424
 20
-159.8741346171495
 10
112.4820230838586
 20
-159.8741346171495
 10
112.4820230838586
 20
-159.8741346171495
 10
112.4820230838586
 20
-159.8741346171495
 10
112.4820230838586
 20
-160.1828151726279
 10
112.4820230838586
 20
-160.1828151726279
 10
112.4820230838586
 20
-160.1828151726279
 10
112.9412543120424
 20
-160.1828151726279
 10
112.9412543120424
 20
-160.1828151726279
 10
112.9412543120424
 20
-160.1828151726279
 10
112.9412543120424
 20
-159.8741346171495
 10
112.9412543120424
 20
-159.8741346171495
 97
        0
 97
        1
330
F4
 92
        1
 93
        1
 72
     4
 94
        3
 73
     0
 74
     0
 95
       17
 96
       13
 40
0.0
 40
0.0
 40
0.0
 40
0.0
 40
1.0
 40
1.0
 40
1.0
 40
2.0
 40
2.0
 40
2.0
 40
3.0
 40
3.0
 40
3.0
 40
4.0
 40
4.0
 40
4.0
 40
4.0
 10
112.9412543120424
 20
-159.4021565356703
 10
112.9412543120424
 20
-159.4021565356703
 10
112.4820230838586
 20
-159.4021565356703
 10
112.4820230838586
 20
-159.4021565356703
 10
112.4820230838586
 20
-159.4021565356703
 10
112.4820230838586
 20
-159.7067029765664
 10
112.4820230838586
 20
-159.7067029765664
 10
112.4820230838586
 20
-159.7067029765664
 10
112.9412543120424
 20
-159.7067029765664
 10
112.9412543120424
 20
-159.7067029765664
 10
112.9412543120424
 20
-159.7067029765664
 10
112.9412543120424
 20
-159.4021565356703
 10
112.9412543120424
 20
-159.4021565356703
 97
        0
 97
        1
330
F5
 92
        1
 93
        1
 72
     4
 94
        3
 73
     0
 74
     0
 95
       17
 96
       13
 40
0.0
 40
0.0
 40
0.0
 40
0.0
 40
1.0
 40
1.0
 40
1.0
 40
2.0
 40
2.0
 40
2.0
 40
3.0
 40
3.0
 40
3.0
 40
4.0
 40
4.0
 40
4.0
 40
4.0
 10
112.2918538130728
 20
-159.8741346171495
 10
112.2918538130728
 20
-159.8741346171495
 10
111.8539821768976
 20
-159.8741346171495
 10
111.8539821768976
 20
-159.8741346171495
 10
111.8539821768976
 20
-159.8741346171495
 10
111.8539821768976
 20
-160.1828151726279
 10
111.8539821768976
 20
-160.1828151726279
 10
111.8539821768976
 20
-160.1828151726279
 10
112.2918538130728
 20
-160.1828151726279
 10
112.2918538130728
 20
-160.1828151726279
 10
112.2918538130728
 20
-160.1828151726279
 10
112.2918538130728
 20
-159.8741346171495
 10
112.2918538130728
 20
-159.8741346171495
 97
        0
 97
        1
330
F6
 92
        1
 93
        1
 72
     4
 94
        3
 73
     0
 74
     0
 95
       17
 96
       13
 40
0.0
 40
0.0
 40
0.0
 40
0.0
 40
1.0
 40
1.0
 40
1.0
 40
2.0
 40
2.0
 40
2.0
 40
3.0
 40
3.0
 40
3.0
 40
4.0
 40
4.0
 40
4.0
 40
4.0
 10
112.2918538130728
 20
-159.4021565356703
 10
112.2918538130728
 20
-159.4021565356703
 10
111.8539821768976
 20
-159.4021565356703
 10
111.8539821768976
 20
-159.4021565356703
 10
111.8539821768976
 20
-159.4021565356703
 10
111.8539821768976
 20
-159.7067029765664
 10
111.8539821768976
 20
-159.7067029765664
 10
111.8539821768976
 20
-159.7067029765664
 10
112.2918538130728
 20
-159.7067029765664
 10
112.2918538130728
 20
-159.7067029765664
 10
112.2918538130728
 20
-159.7067029765664
 10
112.2918538130728
 20
-159.4021565356703
 10
112.2918538130728
 20
-159.4021565356703
 97
        0
 97
        1
330
F7
 92
        1
 93
        1
 72
     4
 94
        3
 73
     0
 74
     0
 95
       77
 96
       73
 40
0.0
 40
0.0
 40
0.0
 40
0.0
 40
1.0
 40
1.0
 40
1.0
 40
2.0
 40
2.0
 40
2.0
 40
3.0
 40
3.0
 40
3.0
 40
4.0
 40
4.0
 40
4.0
 40
5.0
 40
5.0
 40
5.0
 40
6.0
 40
6.0
 40
6.0
 40
7.0
 40
7.0
 40
7.0
 40
8.0
 40
8.0
 40
8.0
 40
9.0
 40
9.0
 40
9.0
 40
10.0
 40
10.0
 40
10.0
 40
11.0
 40
11.0
 40
11.0
 40
12.0
 40
12.0
 40
12.0
 40
13.0
 40
13.0
 40
13.0
 40
14.0
 40
14.0
 40
14.0
 40
15.0
 40
15.0
 40
15.0
 40
16.0
 40
16.0
 40
16.0
 40
17.0
 40
17.0
 40
17.0
 40
18.0
 40
18.0
 40
18.0
 40
19.0
 40
19.0
 40
19.0
 40
20.0
 40
20.0
 40
20.0
 40
21.0
 40
21.0
 40
21.0
 40
22.0
 40
22.0
 40
22.0
 40
23.0
 40
23.0
 40
23.0
 40
24.0
 40
24.0
 40
24.0
 40
24.0
 10
113.0766465646128
 20
-160.9889675161764
 10
113.0301377755619
 20
-161.0141167132187
 10
112.9054253189959
 20
-161.0268635665141
 10
112.8268771419322
 20
-161.0268635665141
 10
112.8144747981852
 20
-161.0268635665141
 10
112.7889810915944
 20
-161.0268635665141
 10
112.7552191558389
 20
-161.0227294519318
 10
112.7552191558389
 20
-161.0227294519318
 10
112.6577229536064
 20
-160.7963866785509
 10
112.6577229536064
 20
-160.7963866785509
 10
112.6873507747795
 20
-160.8025878504244
 10
112.7445393598347
 20
-160.8112005891375
 10
112.8609835872361
 20
-160.8112005891375
 10
112.9391872547513
 20
-160.8112005891375
 10
112.9412543120424
 20
-160.7688259146689
 10
112.9412543120424
 20
-160.7116373296137
 10
112.9412543120424
 20
-160.7116373296137
 10
112.9412543120424
 20
-160.3626491569579
 10
112.9412543120424
 20
-160.3626491569579
 10
112.9412543120424
 20
-160.3626491569579
 10
112.4820230838586
 20
-160.3626491569579
 10
112.4820230838586
 20
-160.3626491569579
 10
112.4844346506983
 20
-160.5001084668194
 10
112.4865017079895
 20
-160.6988904763183
 10
112.4927028798629
 20
-160.8322156715975
 10
112.4947699371541
 20
-160.8597764354795
 10
112.4947699371541
 20
-160.9042181672392
 10
112.5075167904495
 20
-160.9655408668766
 10
112.5075167904495
 20
-160.9655408668766
 10
112.266360106482
 20
-160.9655408668766
 10
112.266360106482
 20
-160.9655408668766
 10
112.2918538130728
 20
-160.8408284103106
 10
112.2918538130728
 20
-160.5001084668194
 10
112.2918538130728
 20
-160.3626491569579
 10
112.2918538130728
 20
-160.3626491569579
 10
111.8495035527668
 20
-160.3626491569579
 10
111.8495035527668
 20
-160.3626491569579
 10
111.8264214130156
 20
-160.57004390517
 10
111.7609645987958
 20
-160.8387613530195
 10
111.5639051370395
 20
-161.0227294519318
 10
111.5639051370395
 20
-161.0227294519318
 10
111.3758029235449
 20
-160.9000840526569
 10
111.3758029235449
 20
-160.9000840526569
 10
111.6297064608078
 20
-160.6799424511494
 10
111.6614013392721
 20
-160.3478352463713
 10
111.6614013392721
 20
-160.0157280415933
 10
111.6614013392721
 20
-160.0157280415933
 10
111.6614013392721
 20
-159.5799234627092
 10
111.6614013392721
 20
-159.5799234627092
 10
111.6614013392721
 20
-159.5440944696625
 10
111.659334281981
 20
-159.3112060148597
 10
111.6507215432678
 20
-159.2095756980448
 10
111.7902479104205
 20
-159.2202554940491
 10
112.0317491039365
 20
-159.2202554940491
 10
112.1754095856714
 20
-159.2202554940491
 10
112.1754095856714
 20
-159.2202554940491
 10
112.6346408138552
 20
-159.2202554940491
 10
112.6346408138552
 20
-159.2202554940491
 10
112.6494547244418
 20
-159.2202554940491
 10
112.9984428970976
 20
-159.2202554940491
 10
113.1569172894191
 20
-159.2095756980448
 10
113.1548502321279
 20
-159.2626301685177
 10
113.1486490602545
 20
-159.4235161276788
 10
113.1486490602545
 20
-159.474159031312
 10
113.1486490602545
 20
-159.474159031312
 10
113.1486490602545
 20
-160.081184855813
 10
113.1486490602545
 20
-160.081184855813
 10
113.1486490602545
 20
-160.1004773905304
 10
113.1589843467102
 20
-160.6716742219848
 10
113.1589843467102
 20
-160.7836398252555
 10
113.1589843467102
 20
-160.8408284103106
 10
113.1589843467102
 20
-160.9424587271255
 10
113.0766465646128
 20
-160.9889675161764
 97
        0
 97
        1
330
F8
 75
     2
 76
     1
 98
        1
 10
0.0
 20
0.0
450
        0
451
        0
460
0.0
461
0.0
452
        0
462
0.0
453
        0
470

  0
SPLINE
  5
FA
330
E9
100
AcDbEntity
  8
レイヤー 1
100
AcDbSpline
210
0.0
220
0.0
230
1.0
 70
     9
 71
     3
 72
    17
 73
    13
 74
     0
 42
0.0000000001
 43
0.0000000001
 40
0.0
 40
0.0
 40
0.0
 40
0.0
 40
1.0
 40
1.0
 40
1.0
 40
2.0
 40
2.0
 40
2.0
 40
3.0
 40
3.0
 40
3.0
 40
4.0
 40
4.0
 40
4.0
 40
4.0
 10
107.6216823732682
 20
-161.7496445993195
 30
0.0
 10
107.5669053550527
 20
-161.7496445993195
 30
0.0
 10
107.522463623293
 20
-161.7940863310792
 30
0.0
 10
107.522463623293
 20
-161.8492078588432
 30
0.0
 10
107.522463623293
 20
-161.9063964438984
 30
0.0
 10
107.5669053550527
 20
-161.9549722902404
 30
0.0
 10
107.6258164878505
 20
-161.9549722902404
 30
0.0
 10
107.6850721301968
 20
-161.9549722902404
 30
0.0
 10
107.7253797473742
 20
-161.9043293866072
 30
0.0
 10
107.7253797473742
 20
-161.8512749161344
 30
0.0
 10
107.7253797473742
 20
-161.7940863310792
 30
0.0
 10
107.6788709583233
 20
-161.7496445993195
 30
0.0
 10
107.6216823732682
 20
-161.7496445993195
 30
0.0
  0
SPLINE
  5
FB
330
E9
100
AcDbEntity
  8
レイヤー 1
100
AcDbSpline
210
0.0
220
0.0
230
1.0
 70
     9
 71
     3
 72
    17
 73
    13
 74
     0
 42
0.0000000001
 43
0.0000000001
 40
0.0
 40
0.0
 40
0.0
 40
0.0
 40
1.0
 40
1.0
 40
1.0
 40
2.0
 40
2.0
 40
2.0
 40
3.0
 40
3.0
 40
3.0
 40
4.0
 40
4.0
 40
4.0
 40
4.0
 10
107.6237494305593
 20
-162.0796847468064
 30
0.0
 10
107.4969699167021
 20
-162.0796847468064
 30
0.0
 10
107.3953395998872
 20
-161.9783989395401
 30
0.0
 10
107.3953395998872
 20
-161.8512749161344
 30
0.0
 10
107.3953395998872
 20
-161.7244954022772
 30
0.0
 10
107.4969699167021
 20
-161.6207980281712
 30
0.0
 10
107.6237494305593
 20
-161.6207980281712
 30
0.0
 10
107.7508734539651
 20
-161.6207980281712
 30
0.0
 10
107.8545708280711
 20
-161.7244954022772
 30
0.0
 10
107.8545708280711
 20
-161.8512749161344
 30
0.0
 10
107.8545708280711
 20
-161.9783989395401
 30
0.0
 10
107.7508734539651
 20
-162.0796847468064
 30
0.0
 10
107.6237494305593
 20
-162.0796847468064
 30
0.0
  0
SPLINE
  5
FC
330
E9
100
AcDbEntity
  8
レイヤー 1
100
AcDbSpline
210
0.0
220
0.0
230
1.0
 70
     9
 71
     3
 72
    44
 73
    40
 74
     0
 42
0.0000000001
 43
0.0000000001
 40
0.0
 40
0.0
 40
0.0
 40
0.0
 40
1.0
 40
1.0
 40
1.0
 40
2.0
 40
2.0
 40
2.0
 40
3.0
 40
3.0
 40
3.0
 40
4.0
 40
4.0
 40
4.0
 40
5.0
 40
5.0
 40
5.0
 40
6.0
 40
6.0
 40
6.0
 40
7.0
 40
7.0
 40
7.0
 40
8.0
 40
8.0
 40
8.0
 40
9.0
 40
9.0
 40
9.0
 40
10.0
 40
10.0
 40
10.0
 40
11.0
 40
11.0
 40
11.0
 40
12.0
 40
12.0
 40
12.0
 40
13.0
 40
13.0
 40
13.0
 40
13.0
 10
107.4142876250561
 20
-162.2788112658539
 30
0.0
 10
107.3023220217855
 20
-162.6467474636786
 30
0.0
 10
107.2516791181523
 20
-162.8055663655486
 30
0.0
 10
107.0549641659446
 20
-163.0549912786807
 30
0.0
 10
106.8706515574837
 20
-163.2858126761924
 30
0.0
 10
106.633973497647
 20
-163.4718478323959
 30
0.0
 10
106.3545762537933
 20
-163.5648654104977
 30
0.0
 10
106.3545762537933
 20
-163.5648654104977
 30
0.0
 10
106.1619954161678
 20
-163.3850314261676
 30
0.0
 10
106.1619954161678
 20
-163.3850314261676
 30
0.0
 10
106.8031276859728
 20
-163.2327582057196
 30
0.0
 10
107.1331678334597
 20
-162.6763752848517
 30
0.0
 10
107.1965575903883
 20
-162.2364365913853
 30
0.0
 10
107.1965575903883
 20
-162.2364365913853
 30
0.0
 10
106.4307128640173
 20
-162.2364365913853
 30
0.0
 10
106.4307128640173
 20
-162.2364365913853
 30
0.0
 10
106.3376952859156
 20
-162.2364365913853
 30
0.0
 10
106.1537271870032
 20
-162.2405707059676
 30
0.0
 10
105.9969753424244
 20
-162.2595187311365
 30
0.0
 10
105.9969753424244
 20
-162.2595187311365
 30
0.0
 10
105.9969753424244
 20
-162.0397216391775
 30
0.0
 10
105.9969753424244
 20
-162.0397216391775
 30
0.0
 10
106.0837917486527
 20
-162.0607367216376
 30
0.0
 10
106.3356282286244
 20
-162.0607367216376
 30
0.0
 10
106.4348469785996
 20
-162.0607367216376
 30
0.0
 10
106.4348469785996
 20
-162.0607367216376
 30
0.0
 10
106.8665174429014
 20
-162.0607367216376
 30
0.0
 10
106.8665174429014
 20
-162.0607367216376
 30
0.0
 10
106.90889211737
 20
-162.0607367216376
 30
0.0
 10
107.1435031199155
 20
-162.0586696643464
 30
0.0
 10
107.1817436798018
 20
-162.052468492473
 30
0.0
 10
107.2241183542703
 20
-162.045922811051
 30
0.0
 10
107.2261854115615
 20
-162.0438557537599
 30
0.0
 10
107.2875081111989
 20
-162.0035481365824
 30
0.0
 10
107.2875081111989
 20
-162.0035481365824
 30
0.0
 10
107.4756103246936
 20
-162.1582329238701
 30
0.0
 10
107.4756103246936
 20
-162.1582329238701
 30
0.0
 10
107.4463270130689
 20
-162.1878607450433
 30
0.0
 10
107.4315131024824
 20
-162.2195556235076
 30
0.0
 10
107.4142876250561
 20
-162.2788112658539
 30
0.0
  0
HATCH
  5
FD
330
E9
100
AcDbEntity
  8
レイヤー 1
 62
    18
420
        0
440
 33554687
100
AcDbHatch
 10
0.0
 20
0.0
 30
0.0
210
0.0
220
0.0
230
1.0
  2
SOLID
 70
     1
 71
     1
 91
        3
 92
        1
 93
        1
 72
     4
 94
        3
 73
     0
 74
     0
 95
       17
 96
       13
 40
0.0
 40
0.0
 40
0.0
 40
0.0
 40
1.0
 40
1.0
 40
1.0
 40
2.0
 40
2.0
 40
2.0
 40
3.0
 40
3.0
 40
3.0
 40
4.0
 40
4.0
 40
4.0
 40
4.0
 10
107.6216823732682
 20
-161.7496445993195
 10
107.5669053550527
 20
-161.7496445993195
 10
107.522463623293
 20
-161.7940863310792
 10
107.522463623293
 20
-161.8492078588432
 10
107.522463623293
 20
-161.9063964438984
 10
107.5669053550527
 20
-161.9549722902404
 10
107.6258164878505
 20
-161.9549722902404
 10
107.6850721301968
 20
-161.9549722902404
 10
107.7253797473742
 20
-161.9043293866072
 10
107.7253797473742
 20
-161.8512749161344
 10
107.7253797473742
 20
-161.7940863310792
 10
107.6788709583233
 20
-161.7496445993195
 10
107.6216823732682
 20
-161.7496445993195
 97
        0
 97
        1
330
FA
 92
        1
 93
        1
 72
     4
 94
        3
 73
     0
 74
     0
 95
       17
 96
       13
 40
0.0
 40
0.0
 40
0.0
 40
0.0
 40
1.0
 40
1.0
 40
1.0
 40
2.0
 40
2.0
 40
2.0
 40
3.0
 40
3.0
 40
3.0
 40
4.0
 40
4.0
 40
4.0
 40
4.0
 10
107.6237494305593
 20
-162.0796847468064
 10
107.4969699167021
 20
-162.0796847468064
 10
107.3953395998872
 20
-161.9783989395401
 10
107.3953395998872
 20
-161.8512749161344
 10
107.3953395998872
 20
-161.7244954022772
 10
107.4969699167021
 20
-161.6207980281712
 10
107.6237494305593
 20
-161.6207980281712
 10
107.7508734539651
 20
-161.6207980281712
 10
107.8545708280711
 20
-161.7244954022772
 10
107.8545708280711
 20
-161.8512749161344
 10
107.8545708280711
 20
-161.9783989395401
 10
107.7508734539651
 20
-162.0796847468064
 10
107.6237494305593
 20
-162.0796847468064
 97
        0
 97
        1
330
FB
 92
        1
 93
        1
 72
     4
 94
        3
 73
     0
 74
     0
 95
       44
 96
       40
 40
0.0
 40
0.0
 40
0.0
 40
0.0
 40
1.0
 40
1.0
 40
1.0
 40
2.0
 40
2.0
 40
2.0
 40
3.0
 40
3.0
 40
3.0
 40
4.0
 40
4.0
 40
4.0
 40
5.0
 40
5.0
 40
5.0
 40
6.0
 40
6.0
 40
6.0
 40
7.0
 40
7.0
 40
7.0
 40
8.0
 40
8.0
 40
8.0
 40
9.0
 40
9.0
 40
9.0
 40
10.0
 40
10.0
 40
10.0
 40
11.0
 40
11.0
 40
11.0
 40
12.0
 40
12.0
 40
12.0
 40
13.0
 40
13.0
 40
13.0
 40
13.0
 10
107.4142876250561
 20
-162.2788112658539
 10
107.3023220217855
 20
-162.6467474636786
 10
107.2516791181523
 20
-162.8055663655486
 10
107.0549641659446
 20
-163.0549912786807
 10
106.8706515574837
 20
-163.2858126761924
 10
106.633973497647
 20
-163.4718478323959
 10
106.3545762537933
 20
-163.5648654104977
 10
106.3545762537933
 20
-163.5648654104977
 10
106.1619954161678
 20
-163.3850314261676
 10
106.1619954161678
 20
-163.3850314261676
 10
106.8031276859728
 20
-163.2327582057196
 10
107.1331678334597
 20
-162.6763752848517
 10
107.1965575903883
 20
-162.2364365913853
 10
107.1965575903883
 20
-162.2364365913853
 10
106.4307128640173
 20
-162.2364365913853
 10
106.4307128640173
 20
-162.2364365913853
 10
106.3376952859156
 20
-162.2364365913853
 10
106.1537271870032
 20
-162.2405707059676
 10
105.9969753424244
 20
-162.2595187311365
 10
105.9969753424244
 20
-162.2595187311365
 10
105.9969753424244
 20
-162.0397216391775
 10
105.9969753424244
 20
-162.0397216391775
 10
106.0837917486527
 20
-162.0607367216376
 10
106.3356282286244
 20
-162.0607367216376
 10
106.4348469785996
 20
-162.0607367216376
 10
106.4348469785996
 20
-162.0607367216376
 10
106.8665174429014
 20
-162.0607367216376
 10
106.8665174429014
 20
-162.0607367216376
 10
106.90889211737
 20
-162.0607367216376
 10
107.1435031199155
 20
-162.0586696643464
 10
107.1817436798018
 20
-162.052468492473
 10
107.2241183542703
 20
-162.045922811051
 10
107.2261854115615
 20
-162.0438557537599
 10
107.2875081111989
 20
-162.0035481365824
 10
107.2875081111989
 20
-162.0035481365824
 10
107.4756103246936
 20
-162.1582329238701
 10
107.4756103246936
 20
-162.1582329238701
 10
107.4463270130689
 20
-162.1878607450433
 10
107.4315131024824
 20
-162.2195556235076
 10
107.4142876250561
 20
-162.2788112658539
 97
        0
 97
        1
330
FC
 75
     2
 76
     1
 98
        1
 10
0.0
 20
0.0
450
        0
451
        0
460
0.0
461
0.0
452
        0
462
0.0
453
        0
470

  0
SPLINE
  5
FE
330
E9
100
AcDbEntity
  8
レイヤー 1
100
AcDbSpline
210
0.0
220
0.0
230
1.0
 70
     9
 71
     3
 72
    29
 73
    25
 74
     0
 42
0.0000000001
 43
0.0000000001
 40
0.0
 40
0.0
 40
0.0
 40
0.0
 40
1.0
 40
1.0
 40
1.0
 40
2.0
 40
2.0
 40
2.0
 40
3.0
 40
3.0
 40
3.0
 40
4.0
 40
4.0
 40
4.0
 40
5.0
 40
5.0
 40
5.0
 40
6.0
 40
6.0
 40
6.0
 40
7.0
 40
7.0
 40
7.0
 40
8.0
 40
8.0
 40
8.0
 40
8.0
 10
108.9259955239838
 20
-161.9615179716624
 30
0.0
 10
108.9259955239838
 20
-161.9615179716624
 30
0.0
 10
108.5852755804926
 20
-161.9615179716624
 30
0.0
 10
108.5852755804926
 20
-161.9615179716624
 30
0.0
 10
108.4712429199308
 20
-161.9615179716624
 30
0.0
 10
108.3547986925293
 20
-161.9656520862447
 30
0.0
 10
108.240421522419
 20
-161.9804659968312
 30
0.0
 10
108.240421522419
 20
-161.9804659968312
 30
0.0
 10
108.240421522419
 20
-161.7710041913281
 30
0.0
 10
108.240421522419
 20
-161.7710041913281
 30
0.0
 10
108.3589328071116
 20
-161.7858181019146
 30
0.0
 10
108.5325656195682
 20
-161.7899522164969
 30
0.0
 10
108.5852755804926
 20
-161.7899522164969
 30
0.0
 10
108.5852755804926
 20
-161.7899522164969
 30
0.0
 10
108.9259955239838
 20
-161.7899522164969
 30
0.0
 10
108.9259955239838
 20
-161.7899522164969
 30
0.0
 10
109.0424397513852
 20
-161.7899522164969
 30
0.0
 10
109.1585394692381
 20
-161.7858181019146
 30
0.0
 10
109.2749836966396
 20
-161.7710041913281
 30
0.0
 10
109.2749836966396
 20
-161.7710041913281
 30
0.0
 10
109.2749836966396
 20
-161.9804659968312
 30
0.0
 10
109.2749836966396
 20
-161.9804659968312
 30
0.0
 10
109.1247775334827
 20
-161.9615179716624
 30
0.0
 10
108.9408094345703
 20
-161.9615179716624
 30
0.0
 10
108.9259955239838
 20
-161.9615179716624
 30
0.0
  0
SPLINE
  5
FF
330
E9
100
AcDbEntity
  8
レイヤー 1
100
AcDbSpline
210
0.0
220
0.0
230
1.0
 70
     9
 71
     3
 72
    50
 73
    46
 74
     0
 42
0.0000000001
 43
0.0000000001
 40
0.0
 40
0.0
 40
0.0
 40
0.0
 40
1.0
 40
1.0
 40
1.0
 40
2.0
 40
2.0
 40
2.0
 40
3.0
 40
3.0
 40
3.0
 40
4.0
 40
4.0
 40
4.0
 40
5.0
 40
5.0
 40
5.0
 40
6.0
 40
6.0
 40
6.0
 40
7.0
 40
7.0
 40
7.0
 40
8.0
 40
8.0
 40
8.0
 40
9.0
 40
9.0
 40
9.0
 40
10.0
 40
10.0
 40
10.0
 40
11.0
 40
11.0
 40
11.0
 40
12.0
 40
12.0
 40
12.0
 40
13.0
 40
13.0
 40
13.0
 40
14.0
 40
14.0
 40
14.0
 40
15.0
 40
15.0
 40
15.0
 40
15.0
 10
109.418988687923
 20
-162.5874918213323
 30
0.0
 10
109.3404405108593
 20
-162.7652587483712
 30
0.0
 10
109.205048258289
 20
-162.9726534965832
 30
0.0
 10
109.0675889484275
 20
-163.1121798637358
 30
0.0
 10
108.8984347601018
 20
-163.2834011093527
 30
0.0
 10
108.7354817436494
 20
-163.3722845728722
 30
0.0
 10
108.4161213921668
 20
-163.5142225068645
 30
0.0
 10
108.4161213921668
 20
-163.5142225068645
 30
0.0
 10
108.246967203841
 20
-163.3257757838213
 30
0.0
 10
108.246967203841
 20
-163.3257757838213
 30
0.0
 10
108.4330023600445
 20
-163.3026936440701
 30
0.0
 10
108.6042236056614
 20
-163.2158772378418
 30
0.0
 10
108.756841335658
 20
-163.1101128064447
 30
0.0
 10
109.0190131020855
 20
-162.9282117648235
 30
0.0
 10
109.2095268824198
 20
-162.6150525852143
 30
0.0
 10
109.2581027287618
 20
-162.4331515435931
 30
0.0
 10
109.2581027287618
 20
-162.4331515435931
 30
0.0
 10
108.5873426377837
 20
-162.4331515435931
 30
0.0
 10
108.5873426377837
 20
-162.4331515435931
 30
0.0
 10
108.4288682454622
 20
-162.4331515435931
 30
0.0
 10
108.136724148313
 20
-162.4414197727577
 30
0.0
 10
107.984450927865
 20
-162.4586452501839
 30
0.0
 10
107.984450927865
 20
-162.4586452501839
 30
0.0
 10
107.984450927865
 20
-162.2298909099633
 30
0.0
 10
107.984450927865
 20
-162.2298909099633
 30
0.0
 10
108.0185573731689
 20
-162.2364365913853
 30
0.0
 10
108.0437065702113
 20
-162.2426377632588
 30
0.0
 10
108.0967610406841
 20
-162.2467718778411
 30
0.0
 10
108.1980468479505
 20
-162.253317559263
 30
0.0
 10
108.3951063097068
 20
-162.2553846165542
 30
0.0
 10
108.4795111490954
 20
-162.2553846165542
 30
0.0
 10
108.4795111490954
 20
-162.2553846165542
 30
0.0
 10
108.9852511663301
 20
-162.2553846165542
 30
0.0
 10
108.9852511663301
 20
-162.2553846165542
 30
0.0
 10
109.0527750378409
 20
-162.2553846165542
 30
0.0
 10
109.1988470864155
 20
-162.2512505019719
 30
0.0
 10
109.260169786053
 20
-162.2447048205499
 30
0.0
 10
109.3321722816947
 20
-162.2364365913853
 30
0.0
 10
109.3597330455767
 20
-162.2216226807987
 30
0.0
 10
109.3934949813322
 20
-162.198196031499
 30
0.0
 10
109.3934949813322
 20
-162.198196031499
 30
0.0
 10
109.5585150550756
 20
-162.3652831625337
 30
0.0
 10
109.5585150550756
 20
-162.3652831625337
 30
0.0
 10
109.488579616725
 20
-162.4331515435931
 30
0.0
 10
109.4420708276742
 20
-162.5368489176991
 30
0.0
 10
109.418988687923
 20
-162.5874918213323
 30
0.0
  0
HATCH
  5
100
330
E9
100
AcDbEntity
  8
レイヤー 1
 62
    18
420
        0
440
 33554687
100
AcDbHatch
 10
0.0
 20
0.0
 30
0.0
210
0.0
220
0.0
230
1.0
  2
SOLID
 70
     1
 71
     1
 91
        2
 92
        1
 93
        1
 72
     4
 94
        3
 73
     0
 74
     0
 95
       29
 96
       25
 40
0.0
 40
0.0
 40
0.0
 40
0.0
 40
1.0
 40
1.0
 40
1.0
 40
2.0
 40
2.0
 40
2.0
 40
3.0
 40
3.0
 40
3.0
 40
4.0
 40
4.0
 40
4.0
 40
5.0
 40
5.0
 40
5.0
 40
6.0
 40
6.0
 40
6.0
 40
7.0
 40
7.0
 40
7.0
 40
8.0
 40
8.0
 40
8.0
 40
8.0
 10
108.9259955239838
 20
-161.9615179716624
 10
108.9259955239838
 20
-161.9615179716624
 10
108.5852755804926
 20
-161.9615179716624
 10
108.5852755804926
 20
-161.9615179716624
 10
108.4712429199308
 20
-161.9615179716624
 10
108.3547986925293
 20
-161.9656520862447
 10
108.240421522419
 20
-161.9804659968312
 10
108.240421522419
 20
-161.9804659968312
 10
108.240421522419
 20
-161.7710041913281
 10
108.240421522419
 20
-161.7710041913281
 10
108.3589328071116
 20
-161.7858181019146
 10
108.5325656195682
 20
-161.7899522164969
 10
108.5852755804926
 20
-161.7899522164969
 10
108.5852755804926
 20
-161.7899522164969
 10
108.9259955239838
 20
-161.7899522164969
 10
108.9259955239838
 20
-161.7899522164969
 10
109.0424397513852
 20
-161.7899522164969
 10
109.1585394692381
 20
-161.7858181019146
 10
109.2749836966396
 20
-161.7710041913281
 10
109.2749836966396
 20
-161.7710041913281
 10
109.2749836966396
 20
-161.9804659968312
 10
109.2749836966396
 20
-161.9804659968312
 10
109.1247775334827
 20
-161.9615179716624
 10
108.9408094345703
 20
-161.9615179716624
 10
108.9259955239838
 20
-161.9615179716624
 97
        0
 97
        1
330
FE
 92
        1
 93
        1
 72
     4
 94
        3
 73
     0
 74
     0
 95
       50
 96
       46
 40
0.0
 40
0.0
 40
0.0
 40
0.0
 40
1.0
 40
1.0
 40
1.0
 40
2.0
 40
2.0
 40
2.0
 40
3.0
 40
3.0
 40
3.0
 40
4.0
 40
4.0
 40
4.0
 40
5.0
 40
5.0
 40
5.0
 40
6.0
 40
6.0
 40
6.0
 40
7.0
 40
7.0
 40
7.0
 40
8.0
 40
8.0
 40
8.0
 40
9.0
 40
9.0
 40
9.0
 40
10.0
 40
10.0
 40
10.0
 40
11.0
 40
11.0
 40
11.0
 40
12.0
 40
12.0
 40
12.0
 40
13.0
 40
13.0
 40
13.0
 40
14.0
 40
14.0
 40
14.0
 40
15.0
 40
15.0
 40
15.0
 40
15.0
 10
109.418988687923
 20
-162.5874918213323
 10
109.3404405108593
 20
-162.7652587483712
 10
109.205048258289
 20
-162.9726534965832
 10
109.0675889484275
 20
-163.1121798637358
 10
108.8984347601018
 20
-163.2834011093527
 10
108.7354817436494
 20
-163.3722845728722
 10
108.4161213921668
 20
-163.5142225068645
 10
108.4161213921668
 20
-163.5142225068645
 10
108.246967203841
 20
-163.3257757838213
 10
108.246967203841
 20
-163.3257757838213
 10
108.4330023600445
 20
-163.3026936440701
 10
108.6042236056614
 20
-163.2158772378418
 10
108.756841335658
 20
-163.1101128064447
 10
109.0190131020855
 20
-162.9282117648235
 10
109.2095268824198
 20
-162.6150525852143
 10
109.2581027287618
 20
-162.4331515435931
 10
109.2581027287618
 20
-162.4331515435931
 10
108.5873426377837
 20
-162.4331515435931
 10
108.5873426377837
 20
-162.4331515435931
 10
108.4288682454622
 20
-162.4331515435931
 10
108.136724148313
 20
-162.4414197727577
 10
107.984450927865
 20
-162.4586452501839
 10
107.984450927865
 20
-162.4586452501839
 10
107.984450927865
 20
-162.2298909099633
 10
107.984450927865
 20
-162.2298909099633
 10
108.0185573731689
 20
-162.2364365913853
 10
108.0437065702113
 20
-162.2426377632588
 10
108.0967610406841
 20
-162.2467718778411
 10
108.1980468479505
 20
-162.253317559263
 10
108.3951063097068
 20
-162.2553846165542
 10
108.4795111490954
 20
-162.2553846165542
 10
108.4795111490954
 20
-162.2553846165542
 10
108.9852511663301
 20
-162.2553846165542
 10
108.9852511663301
 20
-162.2553846165542
 10
109.0527750378409
 20
-162.2553846165542
 10
109.1988470864155
 20
-162.2512505019719
 10
109.260169786053
 20
-162.2447048205499
 10
109.3321722816947
 20
-162.2364365913853
 10
109.3597330455767
 20
-162.2216226807987
 10
109.3934949813322
 20
-162.198196031499
 10
109.3934949813322
 20
-162.198196031499
 10
109.5585150550756
 20
-162.3652831625337
 10
109.5585150550756
 20
-162.3652831625337
 10
109.488579616725
 20
-162.4331515435931
 10
109.4420708276742
 20
-162.5368489176991
 10
109.418988687923
 20
-162.5874918213323
 97
        0
 97
        1
330
FF
 75
     2
 76
     1
 98
        1
 10
0.0
 20
0.0
450
        0
451
        0
460
0.0
461
0.0
452
        0
462
0.0
453
        0
470

  0
SPLINE
  5
101
330
E9
100
AcDbEntity
  8
レイヤー 1
100
AcDbSpline
210
0.0
220
0.0
230
1.0
 70
     9
 71
     3
 72
    50
 73
    46
 74
     0
 42
0.0000000001
 43
0.0000000001
 40
0.0
 40
0.0
 40
0.0
 40
0.0
 40
1.0
 40
1.0
 40
1.0
 40
2.0
 40
2.0
 40
2.0
 40
3.0
 40
3.0
 40
3.0
 40
4.0
 40
4.0
 40
4.0
 40
5.0
 40
5.0
 40
5.0
 40
6.0
 40
6.0
 40
6.0
 40
7.0
 40
7.0
 40
7.0
 40
8.0
 40
8.0
 40
8.0
 40
9.0
 40
9.0
 40
9.0
 40
10.0
 40
10.0
 40
10.0
 40
11.0
 40
11.0
 40
11.0
 40
12.0
 40
12.0
 40
12.0
 40
13.0
 40
13.0
 40
13.0
 40
14.0
 40
14.0
 40
14.0
 40
15.0
 40
15.0
 40
15.0
 40
15.0
 10
111.129134086801
 20
-161.9467040610758
 30
0.0
 10
110.9196722812978
 20
-162.1602999811613
 30
0.0
 10
110.8480142952046
 20
-162.232302476803
 30
0.0
 10
110.7060763612123
 20
-162.3504692519471
 30
0.0
 10
110.7060763612123
 20
-162.3504692519471
 30
0.0
 10
110.7060763612123
 20
-162.9175319688192
 30
0.0
 10
110.7060763612123
 20
-162.9175319688192
 30
0.0
 10
110.7060763612123
 20
-163.0677381319761
 30
0.0
 10
110.7126220426343
 20
-163.086686157145
 30
0.0
 10
110.7167561572166
 20
-163.2644530841839
 30
0.0
 10
110.7188232145078
 20
-163.3957112221719
 30
0.0
 10
110.7250243863812
 20
-163.4442870685139
 30
0.0
 10
110.7315700678032
 20
-163.5035427108602
 30
0.0
 10
110.7315700678032
 20
-163.5035427108602
 30
0.0
 10
110.5052272944223
 20
-163.5035427108602
 30
0.0
 10
110.5052272944223
 20
-163.5035427108602
 30
0.0
 10
110.5093614090046
 20
-163.4591009791005
 30
0.0
 10
110.5134955235869
 20
-163.4125921900496
 30
0.0
 10
110.5134955235869
 20
-163.4039794513365
 30
0.0
 10
110.5134955235869
 20
-163.3237087265302
 30
0.0
 10
110.5179741477177
 20
-162.9726534965832
 30
0.0
 10
110.5179741477177
 20
-162.9006510009415
 30
0.0
 10
110.5179741477177
 20
-162.9006510009415
 30
0.0
 10
110.5179741477177
 20
-162.4944742432305
 30
0.0
 10
110.5179741477177
 20
-162.4944742432305
 30
0.0
 10
110.3360731060965
 20
-162.6191866997966
 30
0.0
 10
110.1414252111799
 20
-162.7294297553246
 30
0.0
 10
109.9381645775502
 20
-162.8159016520043
 30
0.0
 10
109.9381645775502
 20
-162.8159016520043
 30
0.0
 10
109.735248453469
 20
-162.652948635552
 30
0.0
 10
109.735248453469
 20
-162.652948635552
 30
0.0
 10
109.8578938527438
 20
-162.6171196425054
 30
0.0
 10
110.1138644472979
 20
-162.5430500895725
 30
0.0
 10
110.4587185053714
 20
-162.2870794950185
 30
0.0
 10
110.6743814827481
 20
-162.128605102697
 30
0.0
 10
110.8669623203735
 20
-161.9401583796538
 30
0.0
 10
111.0192355408216
 20
-161.7200167781464
 30
0.0
 10
111.0192355408216
 20
-161.7200167781464
 30
0.0
 10
111.211816378447
 20
-161.8640217694298
 30
0.0
 10
111.211816378447
 20
-161.8640217694298
 30
0.0
 10
111.2245632317425
 20
-161.8747015654341
 30
0.0
 10
111.2328314609071
 20
-161.8895154760207
 30
0.0
 10
111.2328314609071
 20
-161.9022623293161
 30
0.0
 10
111.2328314609071
 20
-161.942225436945
 30
0.0
 10
111.1949354105693
 20
-161.942225436945
 30
0.0
 10
111.129134086801
 20
-161.9467040610758
 30
0.0
  0
HATCH
  5
102
330
E9
100
AcDbEntity
  8
レイヤー 1
 62
    18
420
        0
440
 33554687
100
AcDbHatch
 10
0.0
 20
0.0
 30
0.0
210
0.0
220
0.0
230
1.0
  2
SOLID
 70
     1
 71
     1
 91
        1
 92
        1
 93
        1
 72
     4
 94
        3
 73
     0
 74
     0
 95
       50
 96
       46
 40
0.0
 40
0.0
 40
0.0
 40
0.0
 40
1.0
 40
1.0
 40
1.0
 40
2.0
 40
2.0
 40
2.0
 40
3.0
 40
3.0
 40
3.0
 40
4.0
 40
4.0
 40
4.0
 40
5.0
 40
5.0
 40
5.0
 40
6.0
 40
6.0
 40
6.0
 40
7.0
 40
7.0
 40
7.0
 40
8.0
 40
8.0
 40
8.0
 40
9.0
 40
9.0
 40
9.0
 40
10.0
 40
10.0
 40
10.0
 40
11.0
 40
11.0
 40
11.0
 40
12.0
 40
12.0
 40
12.0
 40
13.0
 40
13.0
 40
13.0
 40
14.0
 40
14.0
 40
14.0
 40
15.0
 40
15.0
 40
15.0
 40
15.0
 10
111.129134086801
 20
-161.9467040610758
 10
110.9196722812978
 20
-162.1602999811613
 10
110.8480142952046
 20
-162.232302476803
 10
110.7060763612123
 20
-162.3504692519471
 10
110.7060763612123
 20
-162.3504692519471
 10
110.7060763612123
 20
-162.9175319688192
 10
110.7060763612123
 20
-162.9175319688192
 10
110.7060763612123
 20
-163.0677381319761
 10
110.7126220426343
 20
-163.086686157145
 10
110.7167561572166
 20
-163.2644530841839
 10
110.7188232145078
 20
-163.3957112221719
 10
110.7250243863812
 20
-163.4442870685139
 10
110.7315700678032
 20
-163.5035427108602
 10
110.7315700678032
 20
-163.5035427108602
 10
110.5052272944223
 20
-163.5035427108602
 10
110.5052272944223
 20
-163.5035427108602
 10
110.5093614090046
 20
-163.4591009791005
 10
110.5134955235869
 20
-163.4125921900496
 10
110.5134955235869
 20
-163.4039794513365
 10
110.5134955235869
 20
-163.3237087265302
 10
110.5179741477177
 20
-162.9726534965832
 10
110.5179741477177
 20
-162.9006510009415
 10
110.5179741477177
 20
-162.9006510009415
 10
110.5179741477177
 20
-162.4944742432305
 10
110.5179741477177
 20
-162.4944742432305
 10
110.3360731060965
 20
-162.6191866997966
 10
110.1414252111799
 20
-162.7294297553246
 10
109.9381645775502
 20
-162.8159016520043
 10
109.9381645775502
 20
-162.8159016520043
 10
109.735248453469
 20
-162.652948635552
 10
109.735248453469
 20
-162.652948635552
 10
109.8578938527438
 20
-162.6171196425054
 10
110.1138644472979
 20
-162.5430500895725
 10
110.4587185053714
 20
-162.2870794950185
 10
110.6743814827481
 20
-162.128605102697
 10
110.8669623203735
 20
-161.9401583796538
 10
111.0192355408216
 20
-161.7200167781464
 10
111.0192355408216
 20
-161.7200167781464
 10
111.211816378447
 20
-161.8640217694298
 10
111.211816378447
 20
-161.8640217694298
 10
111.2245632317425
 20
-161.8747015654341
 10
111.2328314609071
 20
-161.8895154760207
 10
111.2328314609071
 20
-161.9022623293161
 10
111.2328314609071
 20
-161.942225436945
 10
111.1949354105693
 20
-161.942225436945
 10
111.129134086801
 20
-161.9467040610758
 97
        0
 97
        1
330
101
 75
     2
 76
     1
 98
        1
 10
0.0
 20
0.0
450
        0
451
        0
460
0.0
461
0.0
452
        0
462
0.0
453
        0
470

  0
SPLINE
  5
103
330
E9
100
AcDbEntity
  8
レイヤー 1
100
AcDbSpline
210
0.0
220
0.0
230
1.0
 70
     9
 71
     3
 72
    50
 73
    46
 74
     0
 42
0.0000000001
 43
0.0000000001
 40
0.0
 40
0.0
 40
0.0
 40
0.0
 40
1.0
 40
1.0
 40
1.0
 40
2.0
 40
2.0
 40
2.0
 40
3.0
 40
3.0
 40
3.0
 40
4.0
 40
4.0
 40
4.0
 40
5.0
 40
5.0
 40
5.0
 40
6.0
 40
6.0
 40
6.0
 40
7.0
 40
7.0
 40
7.0
 40
8.0
 40
8.0
 40
8.0
 40
9.0
 40
9.0
 40
9.0
 40
10.0
 40
10.0
 40
10.0
 40
11.0
 40
11.0
 40
11.0
 40
12.0
 40
12.0
 40
12.0
 40
13.0
 40
13.0
 40
13.0
 40
14.0
 40
14.0
 40
14.0
 40
15.0
 40
15.0
 40
15.0
 40
15.0
 10
112.8375569379364
 20
-162.4734591607705
 30
0.0
 10
112.776234238299
 20
-162.5451171468637
 30
0.0
 10
112.5157850196141
 20
-162.8624104410552
 30
0.0
 10
112.4589409441075
 20
-162.9261447075323
 30
0.0
 10
112.5433457834961
 20
-163.0232964002164
 30
0.0
 10
112.5943331966778
 20
-163.086686157145
 30
0.0
 10
112.6597900108975
 20
-163.1776366779556
 30
0.0
 10
112.6597900108975
 20
-163.1776366779556
 30
0.0
 10
112.4758219119852
 20
-163.3154404973656
 30
0.0
 10
112.4758219119852
 20
-163.3154404973656
 30
0.0
 10
112.3404296594149
 20
-163.1035671250227
 30
0.0
 10
112.1688639042494
 20
-162.8796359184815
 30
0.0
 10
111.8749972593576
 20
-162.680509399434
 30
0.0
 10
111.8749972593576
 20
-162.680509399434
 30
0.0
 10
112.0231363652234
 20
-162.5261691216948
 30
0.0
 10
112.0231363652234
 20
-162.5261691216948
 30
0.0
 10
112.1330349112028
 20
-162.6064398465012
 30
0.0
 10
112.2367322853089
 20
-162.6953233100206
 30
0.0
 10
112.3338839779929
 20
-162.790752454962
 30
0.0
 10
112.4017523590523
 20
-162.714615844738
 30
0.0
 10
112.6046684831335
 20
-162.4710475939308
 30
0.0
 10
112.7379936784127
 20
-162.2426377632588
 30
0.0
 10
112.7379936784127
 20
-162.2426377632588
 30
0.0
 10
112.0651665301434
 20
-162.2426377632588
 30
0.0
 10
112.0651665301434
 20
-162.2426377632588
 30
0.0
 10
111.9404540735774
 20
-162.2426377632588
 30
0.0
 10
111.6886175936056
 20
-162.2512505019719
 30
0.0
 10
111.4791557881024
 20
-162.2615857884277
 30
0.0
 10
111.4791557881024
 20
-162.2615857884277
 30
0.0
 10
111.4791557881024
 20
-162.0417886964687
 30
0.0
 10
111.4791557881024
 20
-162.0417886964687
 30
0.0
 10
111.6634683965633
 20
-162.0607367216376
 30
0.0
 10
111.8684515779357
 20
-162.0648708362199
 30
0.0
 10
112.0568983009788
 20
-162.0648708362199
 30
0.0
 10
112.0568983009788
 20
-162.0648708362199
 30
0.0
 10
112.5602267513738
 20
-162.0648708362199
 30
0.0
 10
112.5602267513738
 20
-162.0648708362199
 30
0.0
 10
112.8988796375739
 20
-162.0648708362199
 30
0.0
 10
112.9433213693336
 20
-162.0500569256333
 30
0.0
 10
113.0256591514311
 20
-162.0100938180044
 30
0.0
 10
113.0256591514311
 20
-162.0100938180044
 30
0.0
 10
113.1927462824657
 20
-162.1685682103259
 30
0.0
 10
113.1927462824657
 20
-162.1685682103259
 30
0.0
 10
113.0404730620176
 20
-162.2405707059676
 30
0.0
 10
112.8968125802827
 20
-162.4035237224199
 30
0.0
 10
112.8375569379364
 20
-162.4734591607705
 30
0.0
  0
HATCH
  5
104
330
E9
100
AcDbEntity
  8
レイヤー 1
 62
    18
420
        0
440
 33554687
100
AcDbHatch
 10
0.0
 20
0.0
 30
0.0
210
0.0
220
0.0
230
1.0
  2
SOLID
 70
     1
 71
     1
 91
        1
 92
        1
 93
        1
 72
     4
 94
        3
 73
     0
 74
     0
 95
       50
 96
       46
 40
0.0
 40
0.0
 40
0.0
 40
0.0
 40
1.0
 40
1.0
 40
1.0
 40
2.0
 40
2.0
 40
2.0
 40
3.0
 40
3.0
 40
3.0
 40
4.0
 40
4.0
 40
4.0
 40
5.0
 40
5.0
 40
5.0
 40
6.0
 40
6.0
 40
6.0
 40
7.0
 40
7.0
 40
7.0
 40
8.0
 40
8.0
 40
8.0
 40
9.0
 40
9.0
 40
9.0
 40
10.0
 40
10.0
 40
10.0
 40
11.0
 40
11.0
 40
11.0
 40
12.0
 40
12.0
 40
12.0
 40
13.0
 40
13.0
 40
13.0
 40
14.0
 40
14.0
 40
14.0
 40
15.0
 40
15.0
 40
15.0
 40
15.0
 10
112.8375569379364
 20
-162.4734591607705
 10
112.776234238299
 20
-162.5451171468637
 10
112.5157850196141
 20
-162.8624104410552
 10
112.4589409441075
 20
-162.9261447075323
 10
112.5433457834961
 20
-163.0232964002164
 10
112.5943331966778
 20
-163.086686157145
 10
112.6597900108975
 20
-163.1776366779556
 10
112.6597900108975
 20
-163.1776366779556
 10
112.4758219119852
 20
-163.3154404973656
 10
112.4758219119852
 20
-163.3154404973656
 10
112.3404296594149
 20
-163.1035671250227
 10
112.1688639042494
 20
-162.8796359184815
 10
111.8749972593576
 20
-162.680509399434
 10
111.8749972593576
 20
-162.680509399434
 10
112.0231363652234
 20
-162.5261691216948
 10
112.0231363652234
 20
-162.5261691216948
 10
112.1330349112028
 20
-162.6064398465012
 10
112.2367322853089
 20
-162.6953233100206
 10
112.3338839779929
 20
-162.790752454962
 10
112.4017523590523
 20
-162.714615844738
 10
112.6046684831335
 20
-162.4710475939308
 10
112.7379936784127
 20
-162.2426377632588
 10
112.7379936784127
 20
-162.2426377632588
 10
112.0651665301434
 20
-162.2426377632588
 10
112.0651665301434
 20
-162.2426377632588
 10
111.9404540735774
 20
-162.2426377632588
 10
111.6886175936056
 20
-162.2512505019719
 10
111.4791557881024
 20
-162.2615857884277
 10
111.4791557881024
 20
-162.2615857884277
 10
111.4791557881024
 20
-162.0417886964687
 10
111.4791557881024
 20
-162.0417886964687
 10
111.6634683965633
 20
-162.0607367216376
 10
111.8684515779357
 20
-162.0648708362199
 10
112.0568983009788
 20
-162.0648708362199
 10
112.0568983009788
 20
-162.0648708362199
 10
112.5602267513738
 20
-162.0648708362199
 10
112.5602267513738
 20
-162.0648708362199
 10
112.8988796375739
 20
-162.0648708362199
 10
112.9433213693336
 20
-162.0500569256333
 10
113.0256591514311
 20
-162.0100938180044
 10
113.0256591514311
 20
-162.0100938180044
 10
113.1927462824657
 20
-162.1685682103259
 10
113.1927462824657
 20
-162.1685682103259
 10
113.0404730620176
 20
-162.2405707059676
 10
112.8968125802827
 20
-162.4035237224199
 10
112.8375569379364
 20
-162.4734591607705
 97
        0
 97
        1
330
103
 75
     2
 76
     1
 98
        1
 10
0.0
 20
0.0
450
        0
451
        0
460
0.0
461
0.0
452
        0
462
0.0
453
        0
470

  0
SPLINE
  5
105
330
E9
100
AcDbEntity
  8
レイヤー 1
100
AcDbSpline
210
0.0
220
0.0
230
1.0
 70
     9
 71
     3
 72
    29
 73
    25
 74
     0
 42
0.0000000001
 43
0.0000000001
 40
0.0
 40
0.0
 40
0.0
 40
0.0
 40
1.0
 40
1.0
 40
1.0
 40
2.0
 40
2.0
 40
2.0
 40
3.0
 40
3.0
 40
3.0
 40
4.0
 40
4.0
 40
4.0
 40
5.0
 40
5.0
 40
5.0
 40
6.0
 40
6.0
 40
6.0
 40
7.0
 40
7.0
 40
7.0
 40
8.0
 40
8.0
 40
8.0
 40
8.0
 10
114.4612304401347
 20
-162.7166829020291
 30
0.0
 10
114.4612304401347
 20
-162.7166829020291
 30
0.0
 10
113.9768500149085
 20
-162.7166829020291
 30
0.0
 10
113.9768500149085
 20
-162.7166829020291
 30
0.0
 10
113.9492892510265
 20
-162.7166829020291
 30
0.0
 10
113.631995956835
 20
-162.7166829020291
 30
0.0
 10
113.4204670940407
 20
-162.7418320990715
 30
0.0
 10
113.4204670940407
 20
-162.7418320990715
 30
0.0
 10
113.4204670940407
 20
-162.5113552111083
 30
0.0
 10
113.4204670940407
 20
-162.5113552111083
 30
0.0
 10
113.5789414863622
 20
-162.5347818604079
 30
0.0
 10
113.7694552666965
 20
-162.5368489176991
 30
0.0
 10
113.9768500149085
 20
-162.5368489176991
 30
0.0
 10
113.9768500149085
 20
-162.5368489176991
 30
0.0
 10
114.4612304401347
 20
-162.5368489176991
 30
0.0
 10
114.4612304401347
 20
-162.5368489176991
 30
0.0
 10
114.6472655963382
 20
-162.5368489176991
 30
0.0
 10
114.8336452620902
 20
-162.5347818604079
 30
0.0
 10
115.0176133610025
 20
-162.5113552111083
 30
0.0
 10
115.0176133610025
 20
-162.5113552111083
 30
0.0
 10
115.0176133610025
 20
-162.7418320990715
 30
0.0
 10
115.0176133610025
 20
-162.7418320990715
 30
0.0
 10
114.8336452620902
 20
-162.7187499593203
 30
0.0
 10
114.5859428967007
 20
-162.7166829020291
 30
0.0
 10
114.4612304401347
 20
-162.7166829020291
 30
0.0
  0
HATCH
  5
106
330
E9
100
AcDbEntity
  8
レイヤー 1
 62
    18
420
        0
440
 33554687
100
AcDbHatch
 10
0.0
 20
0.0
 30
0.0
210
0.0
220
0.0
230
1.0
  2
SOLID
 70
     1
 71
     1
 91
        1
 92
        1
 93
        1
 72
     4
 94
        3
 73
     0
 74
     0
 95
       29
 96
       25
 40
0.0
 40
0.0
 40
0.0
 40
0.0
 40
1.0
 40
1.0
 40
1.0
 40
2.0
 40
2.0
 40
2.0
 40
3.0
 40
3.0
 40
3.0
 40
4.0
 40
4.0
 40
4.0
 40
5.0
 40
5.0
 40
5.0
 40
6.0
 40
6.0
 40
6.0
 40
7.0
 40
7.0
 40
7.0
 40
8.0
 40
8.0
 40
8.0
 40
8.0
 10
114.4612304401347
 20
-162.7166829020291
 10
114.4612304401347
 20
-162.7166829020291
 10
113.9768500149085
 20
-162.7166829020291
 10
113.9768500149085
 20
-162.7166829020291
 10
113.9492892510265
 20
-162.7166829020291
 10
113.631995956835
 20
-162.7166829020291
 10
113.4204670940407
 20
-162.7418320990715
 10
113.4204670940407
 20
-162.7418320990715
 10
113.4204670940407
 20
-162.5113552111083
 10
113.4204670940407
 20
-162.5113552111083
 10
113.5789414863622
 20
-162.5347818604079
 10
113.7694552666965
 20
-162.5368489176991
 10
113.9768500149085
 20
-162.5368489176991
 10
113.9768500149085
 20
-162.5368489176991
 10
114.4612304401347
 20
-162.5368489176991
 10
114.4612304401347
 20
-162.5368489176991
 10
114.6472655963382
 20
-162.5368489176991
 10
114.8336452620902
 20
-162.5347818604079
 10
115.0176133610025
 20
-162.5113552111083
 10
115.0176133610025
 20
-162.5113552111083
 10
115.0176133610025
 20
-162.7418320990715
 10
115.0176133610025
 20
-162.7418320990715
 10
114.8336452620902
 20
-162.7187499593203
 10
114.5859428967007
 20
-162.7166829020291
 10
114.4612304401347
 20
-162.7166829020291
 97
        0
 97
        1
330
105
 75
     2
 76
     1
 98
        1
 10
0.0
 20
0.0
450
        0
451
        0
460
0.0
461
0.0
452
        0
462
0.0
453
        0
470

  0
ENDBLK
  5
EC
330
E9
100
AcDbEntity
  8
0
100
AcDbBlockEnd
  0
ENDSEC
  0
SECTION
  2
ENTITIES
  0
LINE
  5
79
330
70
100
AcDbEntity
  8
レイヤー 1
 62
    18
420
        0
370
    25
100
AcDbLine
 10
86.96563217510886
 20
-140.676425360963
 30
0.0
 11
93.96537810764158
 21
-140.676425360963
 31
0.0
  0
LINE
  5
7A
330
70
100
AcDbEntity
  8
レイヤー 1
 62
    18
420
        0
370
    25
100
AcDbLine
 10
117.9652730509088
 20
-140.676425360963
 30
0.0
 11
117.9652730509088
 21
-141.6761975576789
 31
0.0
  0
LINE
  5
7B
330
70
100
AcDbEntity
  8
レイヤー 1
 62
    18
420
        0
370
    25
100
AcDbLine
 10
95.96559277883407
 20
-141.6761975576789
 30
0.0
 11
117.9652730509088
 21
-141.6761975576789
 31
0.0
  0
LINE
  5
7C
330
70
100
AcDbEntity
  8
レイヤー 1
 62
    18
420
        0
370
    25
100
AcDbLine
 10
92.96560591092568
 20
-141.6761975576789
 30
0.0
 11
92.96560591092568
 21
-155.676359700505
 31
0.0
  0
LINE
  5
7D
330
70
100
AcDbEntity
  8
レイヤー 1
 62
    18
420
        0
370
    25
100
AcDbLine
 10
102.9653425171201
 20
-154.676587503789
 30
0.0
 11
102.9653425171201
 21
-155.1761208243783
 31
0.0
  0
LINE
  5
7E
330
70
100
AcDbEntity
  8
レイヤー 1
 62
    18
420
        0
370
    25
100
AcDbLine
 10
95.96559277883407
 20
-154.676587503789
 30
0.0
 11
102.9653425171201
 21
-154.676587503789
 31
0.0
  0
LINE
  5
7F
330
70
100
AcDbEntity
  8
レイヤー 1
 62
    18
420
        0
370
    25
100
AcDbLine
 10
94.96582058211817
 20
-140.676425360963
 30
0.0
 11
117.9652730509088
 21
-140.676425360963
 31
0.0
  0
LINE
  5
80
330
70
100
AcDbEntity
  8
レイヤー 1
 62
    18
420
        0
370
    25
100
AcDbLine
 10
93.96537810764158
 20
-140.676425360963
 30
0.0
 11
93.96537810764158
 21
-154.676587503789
 31
0.0
  0
LINE
  5
81
330
70
100
AcDbEntity
  8
レイヤー 1
 62
    18
420
        0
370
    25
100
AcDbLine
 10
94.96582058211817
 20
-140.676425360963
 30
0.0
 11
94.96582058211817
 21
-154.676587503789
 31
0.0
  0
LINE
  5
82
330
70
100
AcDbEntity
  8
レイヤー 1
 62
    18
420
        0
370
    25
100
AcDbLine
 10
95.96559277883407
 20
-141.6761975576789
 30
0.0
 11
95.96559277883407
 21
-154.676587503789
 31
0.0
  0
LINE
  5
83
330
70
100
AcDbEntity
  8
レイヤー 1
 62
    18
420
        0
370
    25
100
AcDbLine
 10
93.96537810764158
 20
-154.676587503789
 30
0.0
 11
94.96582058211817
 21
-154.676587503789
 31
0.0
  0
LINE
  5
84
330
70
100
AcDbEntity
  8
レイヤー 1
 62
    18
420
        0
370
    25
100
AcDbLine
 10
86.96563217510886
 20
-140.676425360963
 30
0.0
 11
86.96563217510886
 21
-141.6761975576789
 31
0.0
  0
LINE
  5
85
330
70
100
AcDbEntity
  8
レイヤー 1
 62
    18
420
        0
370
    25
100
AcDbLine
 10
86.96563217510886
 20
-141.6761975576789
 30
0.0
 11
92.96560591092568
 21
-141.6761975576789
 31
0.0
  0
LINE
  5
86
330
70
100
AcDbEntity
  8
レイヤー 1
 62
    18
420
        0
370
    25
100
AcDbLine
 10
92.96560591092568
 20
-155.676359700505
 30
0.0
 11
102.9653425171201
 21
-155.1761208243783
 31
0.0
  0
SPLINE
  5
87
330
70
100
AcDbEntity
  8
レイヤー 1
 62
    18
420
        0
370
     9
100
AcDbSpline
210
0.0
220
0.0
230
1.0
 70
     9
 71
     3
 72
    17
 73
    13
 74
     0
 42
0.0000000001
 43
0.0000000001
 40
0.0
 40
0.0
 40
0.0
 40
0.0
 40
1.0
 40
1.0
 40
1.0
 40
2.0
 40
2.0
 40
2.0
 40
3.0
 40
3.0
 40
3.0
 40
4.0
 40
4.0
 40
4.0
 40
4.0
 10
118.0652149928035
 20
-136.6766662963386
 30
0.0
 10
118.0652149928035
 20
-136.620856853318
 30
0.0
 10
118.0204122161687
 20
-136.5760540766832
 30
0.0
 10
117.9652730509088
 20
-136.5760540766832
 30
0.0
 10
117.9101691634257
 20
-136.5760540766832
 30
0.0
 10
117.865366386791
 20
-136.620856853318
 30
0.0
 10
117.865366386791
 20
-136.6766662963386
 30
0.0
 10
117.865366386791
 20
-136.7317701838217
 30
0.0
 10
117.9101691634257
 20
-136.7765729604565
 30
0.0
 10
117.9652730509088
 20
-136.7765729604565
 30
0.0
 10
118.0204122161687
 20
-136.7765729604565
 30
0.0
 10
118.0652149928035
 20
-136.7317701838217
 30
0.0
 10
118.0652149928035
 20
-136.6766662963386
 30
0.0
  0
SPLINE
  5
88
330
70
100
AcDbEntity
  8
レイヤー 1
 62
    18
420
        0
370
     9
100
AcDbSpline
210
0.0
220
0.0
230
1.0
 70
     9
 71
     3
 72
    17
 73
    13
 74
     0
 42
0.0000000001
 43
0.0000000001
 40
0.0
 40
0.0
 40
0.0
 40
0.0
 40
1.0
 40
1.0
 40
1.0
 40
2.0
 40
2.0
 40
2.0
 40
3.0
 40
3.0
 40
3.0
 40
4.0
 40
4.0
 40
4.0
 40
4.0
 10
122.0656443351885
 20
-140.676425360963
 30
0.0
 10
122.0656443351885
 20
-140.621286195703
 30
0.0
 10
122.0208415585537
 20
-140.5765186968451
 30
0.0
 10
121.9657376710707
 20
-140.5765186968451
 30
0.0
 10
121.90992822805
 20
-140.5765186968451
 30
0.0
 10
121.8651254514153
 20
-140.621286195703
 30
0.0
 10
121.8651254514153
 20
-140.676425360963
 30
0.0
 10
121.8651254514153
 20
-140.7315265700324
 30
0.0
 10
121.90992822805
 20
-140.7763293477988
 30
0.0
 10
121.9657376710707
 20
-140.7763293477988
 30
0.0
 10
122.0208415585537
 20
-140.7763293477988
 30
0.0
 10
122.0656443351885
 20
-140.7315265700324
 30
0.0
 10
122.0656443351885
 20
-140.676425360963
 30
0.0
  0
SPLINE
  5
89
330
70
100
AcDbEntity
  8
レイヤー 1
 62
    18
420
        0
370
     9
100
AcDbSpline
210
0.0
220
0.0
230
1.0
 70
     9
 71
     3
 72
    17
 73
    13
 74
     0
 42
0.0000000001
 43
0.0000000001
 40
0.0
 40
0.0
 40
0.0
 40
0.0
 40
1.0
 40
1.0
 40
1.0
 40
2.0
 40
2.0
 40
2.0
 40
3.0
 40
3.0
 40
3.0
 40
4.0
 40
4.0
 40
4.0
 40
4.0
 10
122.0656443351885
 20
-141.6761975576789
 30
0.0
 10
122.0656443351885
 20
-141.6210583924192
 30
0.0
 10
122.0208415585537
 20
-141.576290893561
 30
0.0
 10
121.9657376710707
 20
-141.576290893561
 30
0.0
 10
121.90992822805
 20
-141.576290893561
 30
0.0
 10
121.8651254514153
 20
-141.6210583924192
 30
0.0
 10
121.8651254514153
 20
-141.6761975576789
 30
0.0
 10
121.8651254514153
 20
-141.731298792004
 30
0.0
 10
121.90992822805
 20
-141.7761015697707
 30
0.0
 10
121.9657376710707
 20
-141.7761015697707
 30
0.0
 10
122.0208415585537
 20
-141.7761015697707
 30
0.0
 10
122.0656443351885
 20
-141.731298792004
 30
0.0
 10
122.0656443351885
 20
-141.6761975576789
 30
0.0
  0
SPLINE
  5
8A
330
70
100
AcDbEntity
  8
レイヤー 1
 62
    18
420
        0
370
     9
100
AcDbSpline
210
0.0
220
0.0
230
1.0
 70
     9
 71
     3
 72
    17
 73
    13
 74
     0
 42
0.0000000001
 43
0.0000000001
 40
0.0
 40
0.0
 40
0.0
 40
0.0
 40
1.0
 40
1.0
 40
1.0
 40
2.0
 40
2.0
 40
2.0
 40
3.0
 40
3.0
 40
3.0
 40
4.0
 40
4.0
 40
4.0
 40
4.0
 10
103.0652453754846
 20
-159.6761187651293
 30
0.0
 10
103.0652453754846
 20
-159.6210126764209
 30
0.0
 10
103.0204778766267
 20
-159.5762098986541
 30
0.0
 10
102.9653425171201
 20
-159.5762098986541
 30
0.0
 10
102.9102348238837
 20
-159.5762098986541
 30
0.0
 10
102.8654320472493
 20
-159.6210126764209
 30
0.0
 10
102.8654320472493
 20
-159.6761187651293
 30
0.0
 10
102.8654320472493
 20
-159.7312579303892
 30
0.0
 10
102.9102348238837
 20
-159.7760254292471
 30
0.0
 10
102.9653425171201
 20
-159.7760254292471
 30
0.0
 10
103.0204778766267
 20
-159.7760254292471
 30
0.0
 10
103.0652453754846
 20
-159.7312579303892
 30
0.0
 10
103.0652453754846
 20
-159.6761187651293
 30
0.0
  0
SPLINE
  5
8B
330
70
100
AcDbEntity
  8
レイヤー 1
 62
    18
420
        0
370
     9
100
AcDbSpline
210
0.0
220
0.0
230
1.0
 70
     9
 71
     3
 72
    17
 73
    13
 74
     0
 42
0.0000000001
 43
0.0000000001
 40
0.0
 40
0.0
 40
0.0
 40
0.0
 40
1.0
 40
1.0
 40
1.0
 40
2.0
 40
2.0
 40
2.0
 40
3.0
 40
3.0
 40
3.0
 40
4.0
 40
4.0
 40
4.0
 40
4.0
 10
93.0655125750435
 20
-159.6761187651293
 30
0.0
 10
93.0655125750435
 20
-159.6210126764209
 30
0.0
 10
93.02074507618563
 20
-159.5762098986541
 30
0.0
 10
92.96560591092568
 20
-159.5762098986541
 30
0.0
 10
92.9105020234426
 20
-159.5762098986541
 30
0.0
 10
92.86569924680783
 20
-159.6210126764209
 30
0.0
 10
92.86569924680783
 20
-159.6761187651293
 30
0.0
 10
92.86569924680783
 20
-159.7312579303892
 30
0.0
 10
92.9105020234426
 20
-159.7760254292471
 30
0.0
 10
92.96560591092568
 20
-159.7760254292471
 30
0.0
 10
93.02074507618563
 20
-159.7760254292471
 30
0.0
 10
93.0655125750435
 20
-159.7312579303892
 30
0.0
 10
93.0655125750435
 20
-159.6761187651293
 30
0.0
  0
SPLINE
  5
8C
330
70
100
AcDbEntity
  8
レイヤー 1
 62
    18
420
        0
370
     9
100
AcDbSpline
210
0.0
220
0.0
230
1.0
 70
     9
 71
     3
 72
    17
 73
    13
 74
     0
 42
0.0000000001
 43
0.0000000001
 40
0.0
 40
0.0
 40
0.0
 40
0.0
 40
1.0
 40
1.0
 40
1.0
 40
2.0
 40
2.0
 40
2.0
 40
3.0
 40
3.0
 40
3.0
 40
4.0
 40
4.0
 40
4.0
 40
4.0
 10
107.0650044401089
 20
-154.676587503789
 30
0.0
 10
107.0650044401089
 20
-154.6207780607684
 30
0.0
 10
107.020236941251
 20
-154.5760105619106
 30
0.0
 10
106.9650977759911
 20
-154.5760105619106
 30
0.0
 10
106.909993888508
 20
-154.5760105619106
 30
0.0
 10
106.8651911118732
 20
-154.6207780607684
 30
0.0
 10
106.8651911118732
 20
-154.676587503789
 30
0.0
 10
106.8651911118732
 20
-154.731726669049
 30
0.0
 10
106.909993888508
 20
-154.7764941679069
 30
0.0
 10
106.9650977759911
 20
-154.7764941679069
 30
0.0
 10
107.020236941251
 20
-154.7764941679069
 30
0.0
 10
107.0650044401089
 20
-154.731726669049
 30
0.0
 10
107.0650044401089
 20
-154.676587503789
 30
0.0
  0
SPLINE
  5
8D
330
70
100
AcDbEntity
  8
レイヤー 1
 62
    18
420
        0
370
     9
100
AcDbSpline
210
0.0
220
0.0
230
1.0
 70
     9
 71
     3
 72
    17
 73
    13
 74
     0
 42
0.0000000001
 43
0.0000000001
 40
0.0
 40
0.0
 40
0.0
 40
0.0
 40
1.0
 40
1.0
 40
1.0
 40
2.0
 40
2.0
 40
2.0
 40
3.0
 40
3.0
 40
3.0
 40
4.0
 40
4.0
 40
4.0
 40
4.0
 10
122.0656443351885
 20
-154.676587503789
 30
0.0
 10
122.0656443351885
 20
-154.6207780607684
 30
0.0
 10
122.0208415585537
 20
-154.5760105619106
 30
0.0
 10
121.9657376710707
 20
-154.5760105619106
 30
0.0
 10
121.90992822805
 20
-154.5760105619106
 30
0.0
 10
121.8651254514153
 20
-154.6207780607684
 30
0.0
 10
121.8651254514153
 20
-154.676587503789
 30
0.0
 10
121.8651254514153
 20
-154.731726669049
 30
0.0
 10
121.90992822805
 20
-154.7764941679069
 30
0.0
 10
121.9657376710707
 20
-154.7764941679069
 30
0.0
 10
122.0208415585537
 20
-154.7764941679069
 30
0.0
 10
122.0656443351885
 20
-154.731726669049
 30
0.0
 10
122.0656443351885
 20
-154.676587503789
 30
0.0
  0
CIRCLE
  5
8E
330
70
100
AcDbEntity
  8
レイヤー 1
 62
    18
420
        0
370
     9
100
AcDbCircle
 10
106.9650977759911
 20
-155.1761208243783
 30
0.0
 40
0.0999066641178353
  0
SPLINE
  5
8F
330
70
100
AcDbEntity
  8
レイヤー 1
 62
    18
420
        0
370
     9
100
AcDbSpline
210
0.0
220
0.0
230
1.0
 70
     9
 71
     3
 72
    17
 73
    13
 74
     0
 42
0.0000000001
 43
0.0000000001
 40
0.0
 40
0.0
 40
0.0
 40
0.0
 40
1.0
 40
1.0
 40
1.0
 40
2.0
 40
2.0
 40
2.0
 40
3.0
 40
3.0
 40
3.0
 40
4.0
 40
4.0
 40
4.0
 40
4.0
 10
87.06553883922671
 20
-136.6766662963386
 30
0.0
 10
87.06553883922671
 20
-136.620856853318
 30
0.0
 10
87.02077134036882
 20
-136.5760540766832
 30
0.0
 10
86.96563217510886
 20
-136.5760540766832
 30
0.0
 10
86.91052828762579
 20
-136.5760540766832
 30
0.0
 10
86.86572551099104
 20
-136.620856853318
 30
0.0
 10
86.86572551099104
 20
-136.6766662963386
 30
0.0
 10
86.86572551099104
 20
-136.7317701838217
 30
0.0
 10
86.91052828762579
 20
-136.7765729604565
 30
0.0
 10
86.96563217510886
 20
-136.7765729604565
 30
0.0
 10
87.02077134036882
 20
-136.7765729604565
 30
0.0
 10
87.06553883922671
 20
-136.7317701838217
 30
0.0
 10
87.06553883922671
 20
-136.6766662963386
 30
0.0
  0
SPLINE
  5
90
330
70
100
AcDbEntity
  8
レイヤー 1
 62
    18
420
        0
370
     9
100
AcDbSpline
210
0.0
220
0.0
230
1.0
 70
     9
 71
     3
 72
    17
 73
    13
 74
     0
 42
0.0000000001
 43
0.0000000001
 40
0.0
 40
0.0
 40
0.0
 40
0.0
 40
1.0
 40
1.0
 40
1.0
 40
2.0
 40
2.0
 40
2.0
 40
3.0
 40
3.0
 40
3.0
 40
4.0
 40
4.0
 40
4.0
 40
4.0
 10
87.06553883922671
 20
-159.6761187651293
 30
0.0
 10
87.06553883922671
 20
-159.6210126764209
 30
0.0
 10
87.02077134036882
 20
-159.5762098986541
 30
0.0
 10
86.96563217510886
 20
-159.5762098986541
 30
0.0
 10
86.91052828762579
 20
-159.5762098986541
 30
0.0
 10
86.86572551099104
 20
-159.6210126764209
 30
0.0
 10
86.86572551099104
 20
-159.6761187651293
 30
0.0
 10
86.86572551099104
 20
-159.7312579303892
 30
0.0
 10
86.91052828762579
 20
-159.7760254292471
 30
0.0
 10
86.96563217510886
 20
-159.7760254292471
 30
0.0
 10
87.02077134036882
 20
-159.7760254292471
 30
0.0
 10
87.06553883922671
 20
-159.7312579303892
 30
0.0
 10
87.06553883922671
 20
-159.6761187651293
 30
0.0
  0
LINE
  5
91
330
70
100
AcDbEntity
  8
レイヤー 1
 62
    18
420
        0
370
     9
100
AcDbLine
 10
121.9657376710707
 20
-140.676425360963
 30
0.0
 11
121.9657376710707
 21
-136.9061129571516
 31
0.0
  0
LINE
  5
92
330
70
100
AcDbEntity
  8
レイヤー 1
 62
    18
420
        0
370
     9
100
AcDbLine
 10
121.9657376710707
 20
-140.676425360963
 30
0.0
 11
121.9657376710707
 21
-141.6761975576789
 31
0.0
  0
LINE
  5
93
330
70
100
AcDbEntity
  8
レイヤー 1
 62
    18
420
        0
370
     9
100
AcDbLine
 10
120.5056963194305
 20
-140.676425360963
 30
0.0
 11
122.9655098677866
 21
-140.676425360963
 31
0.0
  0
LINE
  5
94
330
70
100
AcDbEntity
  8
レイヤー 1
 62
    18
420
        0
370
     9
100
AcDbLine
 10
120.5056963194305
 20
-141.6761975576789
 30
0.0
 11
122.9655098677866
 21
-141.6761975576789
 31
0.0
  0
INSERT
  5
96
330
70
100
AcDbEntity
  8
レイヤー 1
100
AcDbBlockReference
  2
Block_0
 10
0.0
 20
0.0
 30
0.0
  0
LINE
  5
9B
330
70
100
AcDbEntity
  8
レイヤー 1
 62
    18
420
        0
370
     9
100
AcDbLine
 10
92.96560591092568
 20
-159.6761187651293
 30
0.0
 11
102.9653425171201
 21
-159.6761187651293
 31
0.0
  0
LINE
  5
9C
330
70
100
AcDbEntity
  8
レイヤー 1
 62
    18
420
        0
370
     9
100
AcDbLine
 10
92.96560591092568
 20
-158.2160774134891
 30
0.0
 11
92.96560591092568
 21
-160.6765612396059
 31
0.0
  0
LINE
  5
9D
330
70
100
AcDbEntity
  8
レイヤー 1
 62
    18
420
        0
370
     9
100
AcDbLine
 10
102.9653425171201
 20
-157.5160604869036
 30
0.0
 11
102.9653425171201
 21
-160.6765612396059
 31
0.0
  0
INSERT
  5
9F
330
70
100
AcDbEntity
  8
レイヤー 1
100
AcDbBlockReference
  2
Block_1
 10
0.0
 20
0.0
 30
0.0
  0
LINE
  5
AB
330
70
100
AcDbEntity
  8
レイヤー 1
 62
    18
420
        0
370
     9
100
AcDbLine
 10
86.96563217510886
 20
-159.6761187651293
 30
0.0
 11
92.96560591092568
 21
-159.6761187651293
 31
0.0
  0
LINE
  5
AC
330
70
100
AcDbEntity
  8
レイヤー 1
 62
    18
420
        0
370
     9
100
AcDbLine
 10
86.96563217510886
 20
-144.2165855484237
 30
0.0
 11
86.96563217510886
 21
-160.6765612396059
 31
0.0
  0
INSERT
  5
AE
330
70
100
AcDbEntity
  8
レイヤー 1
100
AcDbBlockReference
  2
Block_3
 10
0.0
 20
0.0
 30
0.0
  0
LINE
  5
B4
330
70
100
AcDbEntity
  8
レイヤー 1
 62
    18
420
        0
370
     9
100
AcDbLine
 10
117.9652730509088
 20
-136.6766662963386
 30
0.0
 11
86.96563217510886
 21
-136.6766662963386
 31
0.0
  0
LINE
  5
B5
330
70
100
AcDbEntity
  8
レイヤー 1
 62
    18
420
        0
370
     9
100
AcDbLine
 10
117.9652730509088
 20
-138.1360020924415
 30
0.0
 11
117.9652730509088
 21
-135.6762210157404
 31
0.0
  0
LINE
  5
B6
330
70
100
AcDbEntity
  8
レイヤー 1
 62
    18
420
        0
370
     9
100
AcDbLine
 10
86.96563217510886
 20
-138.1360020924415
 30
0.0
 11
86.96563217510886
 21
-135.6762210157404
 31
0.0
  0
INSERT
  5
B8
330
70
100
AcDbEntity
  8
レイヤー 1
100
AcDbBlockReference
  2
Block_4
 10
0.0
 20
0.0
 30
0.0
  0
LINE
  5
C3
330
70
100
AcDbEntity
  8
レイヤー 1
 62
    18
420
        0
370
     9
100
AcDbLine
 10
106.9650977759911
 20
-154.676587503789
 30
0.0
 11
106.9650977759911
 21
-149.4186793456381
 31
0.0
  0
LINE
  5
C4
330
70
100
AcDbEntity
  8
レイヤー 1
 62
    18
420
        0
370
     9
100
AcDbLine
 10
106.9650977759911
 20
-154.676587503789
 30
0.0
 11
106.9650977759911
 21
-156.1765985766317
 31
0.0
  0
LINE
  5
C5
330
70
100
AcDbEntity
  8
レイヤー 1
 62
    18
420
        0
370
     9
100
AcDbLine
 10
105.5050564243509
 20
-154.676587503789
 30
0.0
 11
107.9655402504677
 21
-154.676587503789
 31
0.0
  0
LINE
  5
C6
330
70
100
AcDbEntity
  8
レイヤー 1
 62
    18
420
        0
370
     9
100
AcDbLine
 10
105.5050564243509
 20
-155.1761208243783
 30
0.0
 11
107.9655402504677
 21
-155.1761208243783
 31
0.0
  0
INSERT
  5
C8
330
70
100
AcDbEntity
  8
レイヤー 1
100
AcDbBlockReference
  2
Block_6
 10
0.0
 20
0.0
 30
0.0
  0
LINE
  5
D6
330
70
100
AcDbEntity
  8
レイヤー 1
 62
    18
420
        0
370
     9
100
AcDbLine
 10
121.9657376710707
 20
-141.6761975576789
 30
0.0
 11
121.9657376710707
 21
-154.676587503789
 31
0.0
  0
LINE
  5
D7
330
70
100
AcDbEntity
  8
レイヤー 1
 62
    18
420
        0
370
     9
100
AcDbLine
 10
105.5050564243509
 20
-154.676587503789
 30
0.0
 11
122.9655098677866
 21
-154.676587503789
 31
0.0
  0
INSERT
  5
D9
330
70
100
AcDbEntity
  8
レイヤー 1
100
AcDbBlockReference
  2
Block_8
 10
0.0
 20
0.0
 30
0.0
  0
LINE
  5
E4
330
70
100
AcDbEntity
  8
レイヤー 1
 62
    18
420
        0
370
     9
100
AcDbLine
 10
102.9653425171201
 20
-155.652262677413
 30
0.0
 11
106.6226563958386
 21
-158.7004765677978
 31
0.0
  0
INSERT
  5
E6
330
70
100
AcDbEntity
  8
レイヤー 1
100
AcDbBlockReference
  2
Block_10
 10
0.0
 20
0.0
 30
0.0
  0
LWPOLYLINE
  5
107
330
70
100
AcDbEntity
  8
レイヤー 1
  6
AI-Linetype-0
 62
   154
420
    23468
370
    25
100
AcDbPolyline
 90
        4
 70
     0
 43
0.0
 10
86.96563217510886
 20
-142.1764011560287
 10
92.46536703479895
 20
-142.1764011560287
 10
92.46536703479895
 20
-156.1765985766317
 10
102.9653425171201
 20
-155.652262677413
  0
ENDSEC
  0
SECTION
  2
OBJECTS
  0
DICTIONARY
  5
C
330
0
100
AcDbDictionary
281
     1
  3
ACAD_COLOR
350
63
  3
ACAD_DETAILVIEWSTYLE
350
6A
  3
ACAD_GROUP
350
D
  3
ACAD_LAYOUT
350
62
  3
ACAD_MATERIAL
350
10
  3
ACAD_MLEADERSTYLE
350
66
  3
ACAD_MLINESTYLE
350
5F
  3
ACAD_PLOTSETTINGS
350
61
  3
ACAD_PLOTSTYLENAME
350
E
  3
ACAD_SCALELIST
350
42
  3
ACAD_SECTIONVIEWSTYLE
350
68
  3
ACAD_TABLESTYLE
350
64
  3
ACAD_VISUALSTYLE
350
29
  3
ACDB_RECOMPOSE_DATA
350
111
  3
AcDbVariableDictionary
350
109
  0
DICTIONARY
  5
63
102
{ACAD_REACTORS
330
C
102
}
330
C
100
AcDbDictionary
281
     1
  0
DICTIONARY
  5
6A
102
{ACAD_REACTORS
330
C
102
}
330
C
100
AcDbDictionary
281
     1
  3
Imperial24
350
6B
  0
DICTIONARY
  5
D
102
{ACAD_REACTORS
330
C
102
}
330
C
100
AcDbDictionary
281
     1
  0
DICTIONARY
  5
62
102
{ACAD_REACTORS
330
C
102
}
330
C
100
AcDbDictionary
281
     1
  3
Layout1
350
6F
  3
Layout2
350
77
  3
Model
350
73
  0
DICTIONARY
  5
10
102
{ACAD_REACTORS
330
C
102
}
330
C
100
AcDbDictionary
281
     1
  3
ByBlock
350
19
  3
ByLayer
350
11
  3
Global
350
21
  0
DICTIONARY
  5
66
102
{ACAD_REACTORS
330
C
102
}
330
C
100
AcDbDictionary
281
     1
  3
Standard
350
67
  0
DICTIONARY
  5
5F
102
{ACAD_REACTORS
330
C
102
}
330
C
100
AcDbDictionary
281
     1
  3
Standard
350
60
  0
DICTIONARY
  5
61
102
{ACAD_REACTORS
330
C
102
}
330
C
100
AcDbDictionary
281
     1
  0
ACDBDICTIONARYWDFLT
  5
E
102
{ACAD_REACTORS
330
C
102
}
330
C
100
AcDbDictionary
281
     1
  3
Normal
350
F
100
AcDbDictionaryWithDefault
340
F
  0
DICTIONARY
  5
42
102
{ACAD_REACTORS
330
C
102
}
330
C
100
AcDbDictionary
281
     1
  3
A0
350
43
  3
A1
350
44
  3
A2
350
45
  3
A3
350
46
  3
A4
350
47
  3
A5
350
48
  3
A6
350
49
  3
A7
350
4A
  3
A8
350
4B
  3
A9
350
4C
  3
B0
350
4D
  3
B1
350
4E
  3
B2
350
4F
  3
B3
350
50
  3
B4
350
51
  3
B5
350
52
  3
B6
350
53
  0
DICTIONARY
  5
68
102
{ACAD_REACTORS
330
C
102
}
330
C
100
AcDbDictionary
281
     1
  3
Imperial24
350
69
  0
DICTIONARY
  5
64
102
{ACAD_REACTORS
330
C
102
}
330
C
100
AcDbDictionary
281
     1
  3
Standard
350
65
  0
DICTIONARY
  5
29
102
{ACAD_REACTORS
330
C
102
}
330
C
100
AcDbDictionary
281
     1
  3
2dWireframe
350
2F
  3
Basic
350
2E
  3
Brighten
350
35
  3
ColorChange
350
39
  3
Conceptual
350
32
  3
Dim
350
34
  3
EdgeColorOff
350
41
  3
Facepattern
350
38
  3
Flat
350
2A
  3
FlatWithEdges
350
2B
  3
Gouraud
350
2C
  3
GouraudWithEdges
350
2D
  3
Hidden
350
31
  3
JitterOff
350
3F
  3
Linepattern
350
37
  3
OverhangOff
350
40
  3
Realistic
350
33
  3
Shaded
350
3E
  3
Shaded with edges
350
3D
  3
Shades of Gray
350
3A
  3
Sketchy
350
3B
  3
Thicken
350
36
  3
Wireframe
350
30
  3
X-Ray
350
3C
  0
XRECORD
  5
111
102
{ACAD_REACTORS
330
C
102
}
330
C
100
AcDbXrecord
280
     1
 90
        1
330
65
  0
DICTIONARY
  5
109
102
{ACAD_REACTORS
330
C
102
}
330
C
100
AcDbDictionary
281
     1
  3
CANNOSCALE
350
10E
  3
CMLEADERSTYLE
350
10B
  3
CTABLESTYLE
350
10A
  3
CVIEWDETAILSTYLE
350
10C
  3
CVIEWSECTIONSTYLE
350
10D
  0
ACDBDETAILVIEWSTYLE
  5
6B
102
{ACAD_XDICTIONARY
360
146
102
}
102
{ACAD_REACTORS
330
6A
102
}
330
6A
100
AcDbModelDocViewStyle
 70
     0
  3
Imperial24
290
     0
100
AcDbDetailViewStyle
 70
     0
 71
     0
 90
        3
 71
     1
340
55
 62
   256
 40
0.24
340
0
 62
   256
 40
0.24
300

 40
0.36
280
     3
 71
     2
340
5D
 90
       25
 62
   256
 71
     3
340
55
 62
   256
 40
0.24
 90
        1
 40
0.75
 90
        1
300
%<\AcVar ViewType \f "%tc1">% %<\AcVar ViewDetailId>%\PSCALE %<\AcVar ViewScale \f "%sn">%
 71
     4
340
5D
 90
       25
 62
   256
340
5D
 90
       25
 62
   256
280
     0
  0
LAYOUT
  5
6F
102
{ACAD_REACTORS
330
62
102
}
330
62
100
AcDbPlotSettings
  1

  2

  4

  6

 40
0.0
 41
0.0
 42
0.0
 43
0.0
 44
0.0
 45
0.0
 46
0.0
 47
0.0
 48
0.0
 49
0.0
140
0.0
141
0.0
142
1.0
143
1.0
 70
   688
 72
     0
 73
     0
 74
     5
  7

 75
    16
147
1.0
 76
     0
 77
     2
 78
   300
148
0.0
149
0.0
100
AcDbLayout
  1
Layout1
 70
     1
 71
     1
 10
0.0
 20
0.0
 11
12.0
 21
9.0
 12
0.0
 22
0.0
 32
0.0
 14
0.0
 24
0.0
 34
0.0
 15
0.0
 25
0.0
 35
0.0
146
0.0
 13
0.0
 23
0.0
 33
0.0
 16
1.0
 26
0.0
 36
0.0
 17
0.0
 27
1.0
 37
0.0
 76
     0
330
6C
  0
LAYOUT
  5
77
102
{ACAD_REACTORS
330
62
102
}
330
62
100
AcDbPlotSettings
  1

  2

  4

  6

 40
0.0
 41
0.0
 42
0.0
 43
0.0
 44
0.0
 45
0.0
 46
0.0
 47
0.0
 48
0.0
 49
0.0
140
0.0
141
0.0
142
1.0
143
1.0
 70
   688
 72
     0
 73
     0
 74
     5
  7

 75
    16
147
1.0
 76
     0
 77
     2
 78
   300
148
0.0
149
0.0
100
AcDbLayout
  1
Layout2
 70
     1
 71
     2
 10
0.0
 20
0.0
 11
12.0
 21
9.0
 12
0.0
 22
0.0
 32
0.0
 14
0.0
 24
0.0
 34
0.0
 15
0.0
 25
0.0
 35
0.0
146
0.0
 13
0.0
 23
0.0
 33
0.0
 16
1.0
 26
0.0
 36
0.0
 17
0.0
 27
1.0
 37
0.0
 76
     0
330
74
  0
LAYOUT
  5
73
102
{ACAD_REACTORS
330
62
102
}
330
62
100
AcDbPlotSettings
  1

  2

  4

  6

 40
0.0
 41
0.0
 42
0.0
 43
0.0
 44
0.0
 45
0.0
 46
0.0
 47
0.0
 48
0.0
 49
0.0
140
0.0
141
0.0
142
1.0
143
1.0
 70
  1712
 72
     0
 73
     0
 74
     0
  7

 75
     0
147
1.0
 76
     0
 77
     2
 78
   300
148
0.0
149
0.0
100
AcDbLayout
  1
Model
 70
     1
 71
     0
 10
0.0
 20
0.0
 11
12.0
 21
9.0
 12
0.0
 22
0.0
 32
0.0
 14
0.0
 24
0.0
 34
0.0
 15
0.0
 25
0.0
 35
0.0
146
0.0
 13
0.0
 23
0.0
 33
0.0
 16
1.0
 26
0.0
 36
0.0
 17
0.0
 27
1.0
 37
0.0
 76
     0
330
70
  0
MATERIAL
  5
19
102
{ACAD_XDICTIONARY
360
1A
102
}
102
{ACAD_REACTORS
330
10
102
}
330
10
100
AcDbMaterial
  1
ByBlock
 72
     0
 43
0.0208333333333333
 43
0.0
 43
0.0
 43
0.0
 43
0.0
 43
0.0208333333333333
 43
0.0
 43
0.0
 43
0.0
 43
0.0
 43
1.0
 43
0.0
 43
0.0
 43
0.0
 43
0.0
 43
1.0
 77
     0
 47
0.0208333333333333
 47
0.0
 47
0.0
 47
0.0
 47
0.0
 47
0.0208333333333333
 47
0.0
 47
0.0
 47
0.0
 47
0.0
 47
1.0
 47
0.0
 47
0.0
 47
0.0
 47
0.0
 47
1.0
171
     0
 49
0.0208333333333333
 49
0.0
 49
0.0
 49
0.0
 49
0.0
 49
0.0208333333333333
 49
0.0
 49
0.0
 49
0.0
 49
0.0
 49
1.0
 49
0.0
 49
0.0
 49
0.0
 49
0.0
 49
1.0
175
     0
142
0.0208333333333333
142
0.0
142
0.0
142
0.0
142
0.0
142
0.0208333333333333
142
0.0
142
0.0
142
0.0
142
0.0
142
1.0
142
0.0
142
0.0
142
0.0
142
0.0
142
1.0
179
     0
144
0.0208333333333333
144
0.0
144
0.0
144
0.0
144
0.0
144
0.0208333333333333
144
0.0
144
0.0
144
0.0
144
0.0
144
1.0
144
0.0
144
0.0
144
0.0
144
0.0
144
1.0
147
0.0208333333333333
147
0.0
147
0.0
147
0.0
147
0.0
147
0.0208333333333333
147
0.0
147
0.0
147
0.0
147
0.0
147
1.0
147
0.0
147
0.0
147
0.0
147
0.0
147
1.0
  0
MATERIAL
  5
11
102
{ACAD_XDICTIONARY
360
12
102
}
102
{ACAD_REACTORS
330
10
102
}
330
10
100
AcDbMaterial
  1
ByLayer
 72
     0
 43
0.0208333333333333
 43
0.0
 43
0.0
 43
0.0
 43
0.0
 43
0.0208333333333333
 43
0.0
 43
0.0
 43
0.0
 43
0.0
 43
1.0
 43
0.0
 43
0.0
 43
0.0
 43
0.0
 43
1.0
 77
     0
 47
0.0208333333333333
 47
0.0
 47
0.0
 47
0.0
 47
0.0
 47
0.0208333333333333
 47
0.0
 47
0.0
 47
0.0
 47
0.0
 47
1.0
 47
0.0
 47
0.0
 47
0.0
 47
0.0
 47
1.0
171
     0
 49
0.0208333333333333
 49
0.0
 49
0.0
 49
0.0
 49
0.0
 49
0.0208333333333333
 49
0.0
 49
0.0
 49
0.0
 49
0.0
 49
1.0
 49
0.0
 49
0.0
 49
0.0
 49
0.0
 49
1.0
175
     0
142
0.0208333333333333
142
0.0
142
0.0
142
0.0
142
0.0
142
0.0208333333333333
142
0.0
142
0.0
142
0.0
142
0.0
142
1.0
142
0.0
142
0.0
142
0.0
142
0.0
142
1.0
179
     0
144
0.0208333333333333
144
0.0
144
0.0
144
0.0
144
0.0
144
0.0208333333333333
144
0.0
144
0.0
144
0.0
144
0.0
144
1.0
144
0.0
144
0.0
144
0.0
144
0.0
144
1.0
147
0.0208333333333333
147
0.0
147
0.0
147
0.0
147
0.0
147
0.0208333333333333
147
0.0
147
0.0
147
0.0
147
0.0
147
1.0
147
0.0
147
0.0
147
0.0
147
0.0
147
1.0
  0
MATERIAL
  5
21
102
{ACAD_XDICTIONARY
360
22
102
}
102
{ACAD_REACTORS
330
10
102
}
330
10
100
AcDbMaterial
  1
Global
 72
     0
 43
0.0208333333333333
 43
0.0
 43
0.0
 43
0.0
 43
0.0
 43
0.0208333333333333
 43
0.0
 43
0.0
 43
0.0
 43
0.0
 43
1.0
 43
0.0
 43
0.0
 43
0.0
 43
0.0
 43
1.0
 77
     0
 47
0.0208333333333333
 47
0.0
 47
0.0
 47
0.0
 47
0.0
 47
0.0208333333333333
 47
0.0
 47
0.0
 47
0.0
 47
0.0
 47
1.0
 47
0.0
 47
0.0
 47
0.0
 47
0.0
 47
1.0
171
     0
 49
0.0208333333333333
 49
0.0
 49
0.0
 49
0.0
 49
0.0
 49
0.0208333333333333
 49
0.0
 49
0.0
 49
0.0
 49
0.0
 49
1.0
 49
0.0
 49
0.0
 49
0.0
 49
0.0
 49
1.0
175
     0
142
0.0208333333333333
142
0.0
142
0.0
142
0.0
142
0.0
142
0.0208333333333333
142
0.0
142
0.0
142
0.0
142
0.0
142
1.0
142
0.0
142
0.0
142
0.0
142
0.0
142
1.0
179
     0
144
0.0208333333333333
144
0.0
144
0.0
144
0.0
144
0.0
144
0.0208333333333333
144
0.0
144
0.0
144
0.0
144
0.0
144
1.0
144
0.0
144
0.0
144
0.0
144
0.0
144
1.0
147
0.0208333333333333
147
0.0
147
0.0
147
0.0
147
0.0
147
0.0208333333333333
147
0.0
147
0.0
147
0.0
147
0.0
147
1.0
147
0.0
147
0.0
147
0.0
147
0.0
147
1.0
  0
MLEADERSTYLE
  5
67
102
{ACAD_XDICTIONARY
360
142
102
}
102
{ACAD_REACTORS
330
66
102
}
330
66
100
AcDbMLeaderStyle
179
     2
170
     2
171
     1
172
     0
 90
        2
 40
0.0
 41
0.0
173
     1
 91
-1056964608
340
5B
 92
       -2
290
     1
 42
0.09
291
     1
 43
0.36
  3
Standard
 44
0.18
300

342
55
174
     1
178
     6
175
     1
176
     0
 93
-1056964608
 45
0.18
292
     0
297
     0
 46
0.18
 94
-1056964608
 47
1.0
 49
1.0
140
1.0
293
     1
141
0.0
294
     1
177
     0
142
1.0
295
     0
296
     0
143
0.125
271
     0
272
     9
273
     9
  0
MLINESTYLE
  5
60
102
{ACAD_REACTORS
330
5F
102
}
330
5F
100
AcDbMlineStyle
  2
STANDARD
 70
     0
  3

 62
   256
 51
90.0
 52
90.0
 71
     2
 49
0.5
 62
   256
  6
BYLAYER
 49
-0.5
 62
   256
  6
BYLAYER
  0
ACDBPLACEHOLDER
  5
F
102
{ACAD_REACTORS
330
E
102
}
330
E
  0
SCALE
  5
43
102
{ACAD_REACTORS
330
42
102
}
330
42
100
AcDbScale
 70
     0
300
1:1
140
1.0
141
1.0
290
     1
  0
SCALE
  5
44
102
{ACAD_REACTORS
330
42
102
}
330
42
100
AcDbScale
 70
     0
300
1/128" = 1'-0"
140
0.0078125
141
12.0
290
     0
  0
SCALE
  5
45
102
{ACAD_REACTORS
330
42
102
}
330
42
100
AcDbScale
 70
     0
300
1/64" = 1'-0"
140
0.015625
141
12.0
290
     0
  0
SCALE
  5
46
102
{ACAD_REACTORS
330
42
102
}
330
42
100
AcDbScale
 70
     0
300
1/32" = 1'-0"
140
0.03125
141
12.0
290
     0
  0
SCALE
  5
47
102
{ACAD_REACTORS
330
42
102
}
330
42
100
AcDbScale
 70
     0
300
1/16" = 1'-0"
140
0.0625
141
12.0
290
     0
  0
SCALE
  5
48
102
{ACAD_REACTORS
330
42
102
}
330
42
100
AcDbScale
 70
     0
300
3/32" = 1'-0"
140
0.09375
141
12.0
290
     0
  0
SCALE
  5
49
102
{ACAD_REACTORS
330
42
102
}
330
42
100
AcDbScale
 70
     0
300
1/8" = 1'-0"
140
0.125
141
12.0
290
     0
  0
SCALE
  5
4A
102
{ACAD_REACTORS
330
42
102
}
330
42
100
AcDbScale
 70
     0
300
3/16" = 1'-0"
140
0.1875
141
12.0
290
     0
  0
SCALE
  5
4B
102
{ACAD_REACTORS
330
42
102
}
330
42
100
AcDbScale
 70
     0
300
1/4" = 1'-0"
140
0.25
141
12.0
290
     0
  0
SCALE
  5
4C
102
{ACAD_REACTORS
330
42
102
}
330
42
100
AcDbScale
 70
     0
300
3/8" = 1'-0"
140
0.375
141
12.0
290
     0
  0
SCALE
  5
4D
102
{ACAD_REACTORS
330
42
102
}
330
42
100
AcDbScale
 70
     0
300
1/2" = 1'-0"
140
0.5
141
12.0
290
     0
  0
SCALE
  5
4E
102
{ACAD_REACTORS
330
42
102
}
330
42
100
AcDbScale
 70
     0
300
3/4" = 1'-0"
140
0.75
141
12.0
290
     0
  0
SCALE
  5
4F
102
{ACAD_REACTORS
330
42
102
}
330
42
100
AcDbScale
 70
     0
300
1" = 1'-0"
140
1.0
141
12.0
290
     0
  0
SCALE
  5
50
102
{ACAD_REACTORS
330
42
102
}
330
42
100
AcDbScale
 70
     0
300
1-1/2" = 1'-0"
140
1.5
141
12.0
290
     0
  0
SCALE
  5
51
102
{ACAD_REACTORS
330
42
102
}
330
42
100
AcDbScale
 70
     0
300
3" = 1'-0"
140
3.0
141
12.0
290
     0
  0
SCALE
  5
52
102
{ACAD_REACTORS
330
42
102
}
330
42
100
AcDbScale
 70
     0
300
6" = 1'-0"
140
6.0
141
12.0
290
     0
  0
SCALE
  5
53
102
{ACAD_REACTORS
330
42
102
}
330
42
100
AcDbScale
 70
     0
300
1'-0" = 1'-0"
140
12.0
141
12.0
290
     0
  0
ACDBSECTIONVIEWSTYLE
  5
69
102
{ACAD_XDICTIONARY
360
144
102
}
102
{ACAD_REACTORS
330
68
102
}
330
68
100
AcDbModelDocViewStyle
 70
     0
  3
Imperial24
290
     0
100
AcDbSectionViewStyle
 70
     0
 71
     0
 90
       78
 71
     1
340
55
 62
   256
 40
0.24
340
0
340
0
 62
   256
 40
0.24
300
I, O, Q, S, X, Z
 40
0.48
 90
        3
 40
0.18
 90
        1
 71
     2
340
5D
 90
       25
 62
   256
340
5D
 90
       50
 62
   256
 40
0.24
 40
0.0
 40
0.24
 71
     3
340
55
 62
   256
 40
0.24
 90
        1
 40
0.75
 90
        1
300
%<\AcVar ViewType \f "%tc1">% %<\AcVar ViewSectionStartId>%-%<\AcVar ViewSectionEndId>%\PSCALE %<\AcVar ViewScale \f "%sn">%
 71
     4
 62
   256
 62
   257
300
ANSI31
 40
1.0
 90
        0
290
     0
290
     0
 90
        6
 40
0.0
 40
1.570796326794896
 40
0.2617993877991494
 40
1.308996938995747
 40
-0.2617993877991494
 40
1.832595714594046
  0
TABLESTYLE
  5
65
102
{ACAD_XDICTIONARY
360
10F
102
}
102
{ACAD_REACTORS
330
64
102
}
330
64
100
AcDbTableStyle
280
     0
  3
Standard
 70
     0
 71
     0
 40
0.06
 41
0.06
280
     0
281
     0
  7
Standard
140
0.18
170
     2
 62
     0
 63
     7
283
     0
 90
      512
 91
        0
  1

274
    -2
284
     1
 64
     0
275
    -2
285
     1
 65
     0
276
    -2
286
     1
 66
     0
277
    -2
287
     1
 67
     0
278
    -2
288
     1
 68
     0
279
    -2
289
     1
 69
     0
  7
Standard
140
0.25
170
     5
 62
     0
 63
     7
283
     0
 90
      512
 91
        0
  1

274
    -2
284
     1
 64
     0
275
    -2
285
     1
 65
     0
276
    -2
286
     1
 66
     0
277
    -2
287
     1
 67
     0
278
    -2
288
     1
 68
     0
279
    -2
289
     1
 69
     0
  7
Standard
140
0.18
170
     5
 62
     0
 63
     7
283
     0
 90
      512
 91
        0
  1

274
    -2
284
     1
 64
     0
275
    -2
285
     1
 65
     0
276
    -2
286
     1
 66
     0
277
    -2
287
     1
 67
     0
278
    -2
288
     1
 68
     0
279
    -2
289
     1
 69
     0
  0
VISUALSTYLE
  5
2F
102
{ACAD_XDICTIONARY
360
11C
102
}
102
{ACAD_REACTORS
330
29
102
}
330
29
100
AcDbVisualStyle
  2
2dWireframe
 70
     4
177
     2
291
     0
 71
     0
176
     1
 72
     2
176
     1
 73
     0
176
     1
 90
        0
176
     1
 40
0.6
176
     1
 41
30.0
176
     1
 63
     7
421
 16777215
176
     1
 74
     1
176
     1
 91
        4
176
     1
 64
     7
176
     1
 65
   257
176
     1
 75
     1
176
     1
175
     1
176
     1
 42
1.0
176
     1
 92
        0
176
     1
 66
   257
176
     1
 43
1.0
176
     1
 76
     1
176
     1
 77
     6
176
     1
 78
     2
176
     1
 67
     7
176
     1
 79
     5
176
     1
170
     0
176
     1
171
     0
176
     1
290
     0
176
     1
 93
        1
176
     1
 44
0.0
176
     1
173
     0
176
     1
1001
ACAD
1000
AcDbSavedByObjectVersion
1070
     0
  0
VISUALSTYLE
  5
2E
102
{ACAD_XDICTIONARY
360
11A
102
}
102
{ACAD_REACTORS
330
29
102
}
330
29
100
AcDbVisualStyle
  2
Basic
 70
     7
177
     2
291
     1
 71
     1
176
     1
 72
     0
176
     1
 73
     1
176
     1
 90
        0
176
     1
 40
0.6
176
     1
 41
30.0
176
     1
 63
     7
421
 16777215
176
     1
 74
     0
176
     1
 91
        4
176
     1
 64
     7
176
     1
 65
   257
176
     1
 75
     1
176
     1
175
     1
176
     1
 42
1.0
176
     1
 92
        8
176
     1
 66
     7
176
     1
 43
1.0
176
     1
 76
     1
176
     1
 77
     6
176
     1
 78
     2
176
     1
 67
     7
176
     1
 79
     5
176
     1
170
     0
176
     1
171
     0
176
     1
290
     0
176
     1
 93
        1
176
     1
 44
0.0
176
     1
173
     0
176
     1
1001
ACAD
1000
AcDbSavedByObjectVersion
1070
     0
  0
VISUALSTYLE
  5
35
102
{ACAD_XDICTIONARY
360
128
102
}
102
{ACAD_REACTORS
330
29
102
}
330
29
100
AcDbVisualStyle
  2
Brighten
 70
    12
177
     2
291
     1
 71
     2
176
     1
 72
     2
176
     1
 73
     0
176
     1
 90
        0
176
     1
 40
0.6
176
     1
 41
30.0
176
     1
 63
     7
421
 16777215
176
     1
 74
     1
176
     1
 91
        4
176
     1
 64
     7
176
     1
 65
   257
176
     1
 75
     1
176
     1
175
     1
176
     1
 42
1.0
176
     1
 92
        8
176
     1
 66
     7
176
     1
 43
1.0
176
     1
 76
     1
176
     1
 77
     6
176
     1
 78
     2
176
     1
 67
     7
176
     1
 79
     5
176
     1
170
     0
176
     1
171
     0
176
     1
290
     0
176
     1
 93
        1
176
     1
 44
50.0
176
     1
173
     0
176
     1
1001
ACAD
1000
AcDbSavedByObjectVersion
1070
     0
  0
VISUALSTYLE
  5
39
102
{ACAD_XDICTIONARY
360
130
102
}
102
{ACAD_REACTORS
330
29
102
}
330
29
100
AcDbVisualStyle
  2
ColorChange
 70
    16
177
     2
291
     1
 71
     2
176
     1
 72
     2
176
     1
 73
     3
176
     1
 90
        0
176
     1
 40
0.6
176
     1
 41
30.0
176
     1
 63
     8
421
  8421504
176
     1
 74
     1
176
     1
 91
        4
176
     1
 64
     7
176
     1
 65
   257
176
     1
 75
     1
176
     1
175
     1
176
     1
 42
1.0
176
     1
 92
        8
176
     1
 66
     8
424
  8421504
176
     1
 43
1.0
176
     1
 76
     1
176
     1
 77
     6
176
     1
 78
     2
176
     1
 67
     7
176
     1
 79
     5
176
     1
170
     0
176
     1
171
     0
176
     1
290
     0
176
     1
 93
        1
176
     1
 44
0.0
176
     1
173
     0
176
     1
1001
ACAD
1000
AcDbSavedByObjectVersion
1070
     0
  0
VISUALSTYLE
  5
32
102
{ACAD_XDICTIONARY
360
122
102
}
102
{ACAD_REACTORS
330
29
102
}
330
29
100
AcDbVisualStyle
  2
Conceptual
 70
     9
177
     2
291
     0
 71
     3
176
     1
 72
     2
176
     1
 73
     0
176
     1
 90
        0
176
     1
 40
0.6
176
     1
 41
30.0
176
     1
 63
     7
421
 16777215
176
     1
 74
     2
176
     1
 91
        2
176
     1
 64
     7
176
     1
 65
   257
176
     1
 75
     1
176
     1
175
     1
176
     1
 42
179.0
176
     1
 92
        8
176
     1
 66
     7
176
     1
 43
1.0
176
     1
 76
     1
176
     1
 77
     6
176
     1
 78
     2
176
     1
 67
     7
176
     1
 79
     3
176
     1
170
     0
176
     1
171
     0
176
     1
290
     0
176
     1
 93
        1
176
     1
 44
0.0
176
     1
173
     0
176
     1
1001
ACAD
1000
AcDbSavedByObjectVersion
1070
     0
  0
VISUALSTYLE
  5
34
102
{ACAD_XDICTIONARY
360
126
102
}
102
{ACAD_REACTORS
330
29
102
}
330
29
100
AcDbVisualStyle
  2
Dim
 70
    11
177
     2
291
     1
 71
     2
176
     1
 72
     2
176
     1
 73
     0
176
     1
 90
        0
176
     1
 40
0.6
176
     1
 41
30.0
176
     1
 63
     7
421
 16777215
176
     1
 74
     1
176
     1
 91
        4
176
     1
 64
     7
176
     1
 65
   257
176
     1
 75
     1
176
     1
175
     1
176
     1
 42
1.0
176
     1
 92
        8
176
     1
 66
     7
176
     1
 43
1.0
176
     1
 76
     1
176
     1
 77
     6
176
     1
 78
     2
176
     1
 67
     7
176
     1
 79
     5
176
     1
170
     0
176
     1
171
     0
176
     1
290
     0
176
     1
 93
        1
176
     1
 44
-50.0
176
     1
173
     0
176
     1
1001
ACAD
1000
AcDbSavedByObjectVersion
1070
     0
  0
VISUALSTYLE
  5
41
102
{ACAD_XDICTIONARY
360
140
102
}
102
{ACAD_REACTORS
330
29
102
}
330
29
100
AcDbVisualStyle
  2
EdgeColorOff
 70
    22
177
     2
291
     1
 71
     2
176
     0
 72
     2
176
     0
 73
     0
176
     0
 90
        0
176
     0
 40
0.6
176
     0
 41
30.0
176
     0
 63
     7
421
 16777215
176
     0
 74
     1
176
     0
 91
        4
176
     0
 64
     7
176
     0
 65
   257
176
     0
 75
     1
176
     0
175
     1
176
     0
 42
1.0
176
     0
 92
        8
176
     2
 66
     7
176
     0
 43
1.0
176
     0
 76
     1
176
     0
 77
     6
176
     0
 78
     2
176
     0
 67
     7
176
     0
 79
     5
176
     0
170
     0
176
     0
171
     0
176
     0
290
     0
176
     0
 93
        1
176
     0
 44
0.0
176
     0
173
     0
176
     0
1001
ACAD
1000
AcDbSavedByObjectVersion
1070
     0
  0
VISUALSTYLE
  5
38
102
{ACAD_XDICTIONARY
360
12E
102
}
102
{ACAD_REACTORS
330
29
102
}
330
29
100
AcDbVisualStyle
  2
Facepattern
 70
    15
177
     2
291
     1
 71
     2
176
     1
 72
     2
176
     1
 73
     0
176
     1
 90
        0
176
     1
 40
0.6
176
     1
 41
30.0
176
     1
 63
     7
421
 16777215
176
     1
 74
     1
176
     1
 91
        4
176
     1
 64
     7
176
     1
 65
   257
176
     1
 75
     1
176
     1
175
     1
176
     1
 42
1.0
176
     1
 92
        8
176
     1
 66
     7
176
     1
 43
1.0
176
     1
 76
     1
176
     1
 77
     6
176
     1
 78
     2
176
     1
 67
     7
176
     1
 79
     5
176
     1
170
     0
176
     1
171
     0
176
     1
290
     0
176
     1
 93
        1
176
     1
 44
0.0
176
     1
173
     0
176
     1
1001
ACAD
1000
AcDbSavedByObjectVersion
1070
     0
  0
VISUALSTYLE
  5
2A
102
{ACAD_XDICTIONARY
360
112
102
}
102
{ACAD_REACTORS
330
29
102
}
330
29
100
AcDbVisualStyle
  2
Flat
 70
     0
177
     2
291
     1
 71
     2
176
     1
 72
     1
176
     1
 73
     1
176
     1
 90
        2
176
     1
 40
0.6
176
     1
 41
30.0
176
     1
 63
     7
421
 16777215
176
     1
 74
     0
176
     1
 91
        0
176
     1
 64
     7
176
     1
 65
   257
176
     1
 75
     1
176
     1
175
     1
176
     1
 42
1.0
176
     1
 92
        8
176
     1
 66
     7
176
     1
 43
1.0
176
     1
 76
     1
176
     1
 77
     6
176
     1
 78
     2
176
     1
 67
     7
176
     1
 79
     5
176
     1
170
     0
176
     1
171
     0
176
     1
290
     0
176
     1
 93
       13
176
     1
 44
0.0
176
     1
173
     0
176
     1
1001
ACAD
1000
AcDbSavedByObjectVersion
1070
     0
  0
VISUALSTYLE
  5
2B
102
{ACAD_XDICTIONARY
360
114
102
}
102
{ACAD_REACTORS
330
29
102
}
330
29
100
AcDbVisualStyle
  2
FlatWithEdges
 70
     1
177
     2
291
     1
 71
     2
176
     1
 72
     1
176
     1
 73
     1
176
     1
 90
        2
176
     1
 40
0.6
176
     1
 41
30.0
176
     1
 63
     7
421
 16777215
176
     1
 74
     1
176
     1
 91
        0
176
     1
 64
     7
176
     1
 65
   257
176
     1
 75
     1
176
     1
175
     1
176
     1
 42
1.0
176
     1
 92
        0
176
     1
 66
   257
176
     1
 43
1.0
176
     1
 76
     1
176
     1
 77
     6
176
     1
 78
     2
176
     1
 67
     7
176
     1
 79
     5
176
     1
170
     0
176
     1
171
     0
176
     1
290
     0
176
     1
 93
       13
176
     1
 44
0.0
176
     1
173
     0
176
     1
1001
ACAD
1000
AcDbSavedByObjectVersion
1070
     0
  0
VISUALSTYLE
  5
2C
102
{ACAD_XDICTIONARY
360
116
102
}
102
{ACAD_REACTORS
330
29
102
}
330
29
100
AcDbVisualStyle
  2
Gouraud
 70
     2
177
     2
291
     1
 71
     2
176
     1
 72
     2
176
     1
 73
     1
176
     1
 90
        2
176
     1
 40
0.6
176
     1
 41
30.0
176
     1
 63
     7
421
 16777215
176
     1
 74
     0
176
     1
 91
        0
176
     1
 64
     7
176
     1
 65
   257
176
     1
 75
     1
176
     1
175
     1
176
     1
 42
1.0
176
     1
 92
        0
176
     1
 66
     7
176
     1
 43
1.0
176
     1
 76
     1
176
     1
 77
     6
176
     1
 78
     2
176
     1
 67
     7
176
     1
 79
     5
176
     1
170
     0
176
     1
171
     0
176
     1
290
     0
176
     1
 93
       13
176
     1
 44
0.0
176
     1
173
     0
176
     1
1001
ACAD
1000
AcDbSavedByObjectVersion
1070
     0
  0
VISUALSTYLE
  5
2D
102
{ACAD_XDICTIONARY
360
118
102
}
102
{ACAD_REACTORS
330
29
102
}
330
29
100
AcDbVisualStyle
  2
GouraudWithEdges
 70
     3
177
     2
291
     1
 71
     2
176
     1
 72
     2
176
     1
 73
     1
176
     1
 90
        2
176
     1
 40
0.6
176
     1
 41
30.0
176
     1
 63
     7
421
 16777215
176
     1
 74
     1
176
     1
 91
        0
176
     1
 64
     7
176
     1
 65
   257
176
     1
 75
     1
176
     1
175
     1
176
     1
 42
1.0
176
     1
 92
        0
176
     1
 66
   257
176
     1
 43
1.0
176
     1
 76
     1
176
     1
 77
     6
176
     1
 78
     2
176
     1
 67
     7
176
     1
 79
     5
176
     1
170
     0
176
     1
171
     0
176
     1
290
     0
176
     1
 93
       13
176
     1
 44
0.0
176
     1
173
     0
176
     1
1001
ACAD
1000
AcDbSavedByObjectVersion
1070
     0
  0
VISUALSTYLE
  5
31
102
{ACAD_XDICTIONARY
360
120
102
}
102
{ACAD_REACTORS
330
29
102
}
330
29
100
AcDbVisualStyle
  2
Hidden
 70
     6
177
     2
291
     0
 71
     1
176
     1
 72
     2
176
     1
 73
     2
176
     1
 90
        0
176
     1
 40
0.6
176
     1
 41
30.0
176
     1
 63
     7
421
 16777215
176
     1
 74
     2
176
     1
 91
        2
176
     1
 64
     7
176
     1
 65
   257
176
     1
 75
     2
176
     1
175
     1
176
     1
 42
40.0
176
     1
 92
        0
176
     1
 66
   257
176
     1
 43
1.0
176
     1
 76
     1
176
     1
 77
     6
176
     1
 78
     2
176
     1
 67
     7
176
     1
 79
     3
176
     1
170
     0
176
     1
171
     0
176
     1
290
     0
176
     1
 93
        1
176
     1
 44
0.0
176
     1
173
     0
176
     1
1001
ACAD
1000
AcDbSavedByObjectVersion
1070
     0
  0
VISUALSTYLE
  5
3F
102
{ACAD_XDICTIONARY
360
13C
102
}
102
{ACAD_REACTORS
330
29
102
}
330
29
100
AcDbVisualStyle
  2
JitterOff
 70
    20
177
     2
291
     1
 71
     2
176
     0
 72
     2
176
     0
 73
     0
176
     0
 90
        0
176
     0
 40
0.6
176
     0
 41
30.0
176
     0
 63
     7
421
 16777215
176
     0
 74
     1
176
     0
 91
        4
176
     0
 64
     7
176
     0
 65
   257
176
     0
 75
     1
176
     0
175
     1
176
     0
 42
1.0
176
     0
 92
       10
176
     2
 66
     7
176
     0
 43
1.0
176
     0
 76
     1
176
     0
 77
     6
176
     0
 78
     2
176
     0
 67
     7
176
     0
 79
     5
176
     0
170
     0
176
     0
171
     0
176
     0
290
     0
176
     0
 93
        1
176
     0
 44
0.0
176
     0
173
     0
176
     0
1001
ACAD
1000
AcDbSavedByObjectVersion
1070
     0
  0
VISUALSTYLE
  5
37
102
{ACAD_XDICTIONARY
360
12C
102
}
102
{ACAD_REACTORS
330
29
102
}
330
29
100
AcDbVisualStyle
  2
Linepattern
 70
    14
177
     2
291
     1
 71
     2
176
     1
 72
     2
176
     1
 73
     0
176
     1
 90
        0
176
     1
 40
0.6
176
     1
 41
30.0
176
     1
 63
     7
421
 16777215
176
     1
 74
     1
176
     1
 91
        4
176
     1
 64
     7
176
     1
 65
   257
176
     1
 75
     7
176
     1
175
     7
176
     1
 42
1.0
176
     1
 92
        8
176
     1
 66
     7
176
     1
 43
1.0
176
     1
 76
     1
176
     1
 77
     6
176
     1
 78
     2
176
     1
 67
     7
176
     1
 79
     5
176
     1
170
     0
176
     1
171
     0
176
     1
290
     0
176
     1
 93
        1
176
     1
 44
0.0
176
     1
173
     0
176
     1
1001
ACAD
1000
AcDbSavedByObjectVersion
1070
     0
  0
VISUALSTYLE
  5
40
102
{ACAD_XDICTIONARY
360
13E
102
}
102
{ACAD_REACTORS
330
29
102
}
330
29
100
AcDbVisualStyle
  2
OverhangOff
 70
    21
177
     2
291
     1
 71
     2
176
     0
 72
     2
176
     0
 73
     0
176
     0
 90
        0
176
     0
 40
0.6
176
     0
 41
30.0
176
     0
 63
     7
421
 16777215
176
     0
 74
     1
176
     0
 91
        4
176
     0
 64
     7
176
     0
 65
   257
176
     0
 75
     1
176
     0
175
     1
176
     0
 42
1.0
176
     0
 92
        9
176
     2
 66
     7
176
     0
 43
1.0
176
     0
 76
     1
176
     0
 77
     6
176
     0
 78
     2
176
     0
 67
     7
176
     0
 79
     5
176
     0
170
     0
176
     0
171
     0
176
     0
290
     0
176
     0
 93
        1
176
     0
 44
0.0
176
     0
173
     0
176
     0
1001
ACAD
1000
AcDbSavedByObjectVersion
1070
     0
  0
VISUALSTYLE
  5
33
102
{ACAD_XDICTIONARY
360
124
102
}
102
{ACAD_REACTORS
330
29
102
}
330
29
100
AcDbVisualStyle
  2
Realistic
 70
     8
177
     2
291
     0
 71
     2
176
     1
 72
     3
176
     1
 73
     0
176
     1
 90
        2
176
     1
 40
0.6
176
     1
 41
30.0
176
     1
 63
     7
421
 16777215
176
     1
 74
     0
176
     1
 91
        0
176
     1
 64
     7
176
     1
 65
   257
176
     1
 75
     1
176
     1
175
     1
176
     1
 42
1.0
176
     1
 92
        8
176
     1
 66
   257
176
     1
 43
1.0
176
     1
 76
     1
176
     1
 77
     6
176
     1
 78
     2
176
     1
 67
     7
176
     1
 79
     3
176
     1
170
     0
176
     1
171
     0
176
     1
290
     0
176
     1
 93
       13
176
     1
 44
0.0
176
     1
173
     0
176
     1
1001
ACAD
1000
AcDbSavedByObjectVersion
1070
     0
  0
VISUALSTYLE
  5
3E
102
{ACAD_XDICTIONARY
360
13A
102
}
102
{ACAD_REACTORS
330
29
102
}
330
29
100
AcDbVisualStyle
  2
Shaded
 70
    27
177
     2
291
     0
 71
     2
176
     1
 72
     2
176
     1
 73
     1
176
     1
 90
        2
176
     1
 40
0.6
176
     1
 41
30.0
176
     1
 63
     7
421
 16777215
176
     1
 74
     0
176
     1
 91
        4
176
     1
 64
     7
176
     1
 65
   257
176
     1
 75
     1
176
     1
175
     1
176
     1
 42
1.0
176
     1
 92
        8
176
     1
 66
   257
176
     1
 43
1.0
176
     1
 76
     1
176
     1
 77
     6
176
     1
 78
     2
176
     1
 67
     8
425
  7895160
176
     1
 79
     3
176
     1
170
     0
176
     1
171
     0
176
     1
290
     0
176
     1
 93
        5
176
     1
 44
0.0
176
     1
173
     0
176
     1
1001
ACAD
1000
AcDbSavedByObjectVersion
1070
     0
  0
VISUALSTYLE
  5
3D
102
{ACAD_XDICTIONARY
360
138
102
}
102
{ACAD_REACTORS
330
29
102
}
330
29
100
AcDbVisualStyle
  2
Shaded with edges
 70
    26
177
     2
291
     0
 71
     2
176
     1
 72
     2
176
     1
 73
     1
176
     1
 90
        2
176
     1
 40
0.6
176
     1
 41
30.0
176
     1
 63
     7
421
 16777215
176
     1
 74
     1
176
     1
 91
        2
176
     1
 64
     7
176
     1
 65
   257
176
     1
 75
     2
176
     1
175
     1
176
     1
 42
1.0
176
     1
 92
        8
176
     1
 66
   257
176
     1
 43
1.0
176
     1
 76
     1
176
     1
 77
     6
176
     1
 78
     2
176
     1
 67
     7
176
     1
 79
     3
176
     1
170
     0
176
     1
171
     0
176
     1
290
     0
176
     1
 93
        5
176
     1
 44
0.0
176
     1
173
     0
176
     1
1001
ACAD
1000
AcDbSavedByObjectVersion
1070
     0
  0
VISUALSTYLE
  5
3A
102
{ACAD_XDICTIONARY
360
132
102
}
102
{ACAD_REACTORS
330
29
102
}
330
29
100
AcDbVisualStyle
  2
Shades of Gray
 70
    23
177
     2
291
     0
 71
     2
176
     1
 72
     2
176
     1
 73
     3
176
     1
 90
        0
176
     1
 40
0.6
176
     1
 41
30.0
176
     1
 63
     7
421
 16777215
176
     1
 74
     2
176
     1
 91
        2
176
     1
 64
     7
176
     1
 65
     7
176
     1
 75
     1
176
     1
175
     1
176
     1
 42
40.0
176
     1
 92
        8
176
     1
 66
     7
176
     1
 43
1.0
176
     1
 76
     1
176
     1
 77
     6
176
     1
 78
     2
176
     1
 67
     7
176
     1
 79
     3
176
     1
170
     0
176
     1
171
     0
176
     1
290
     0
176
     1
 93
        1
176
     1
 44
0.0
176
     1
173
     0
176
     1
1001
ACAD
1000
AcDbSavedByObjectVersion
1070
     0
  0
VISUALSTYLE
  5
3B
102
{ACAD_XDICTIONARY
360
134
102
}
102
{ACAD_REACTORS
330
29
102
}
330
29
100
AcDbVisualStyle
  2
Sketchy
 70
    24
177
     2
291
     0
 71
     1
176
     1
 72
     2
176
     1
 73
     2
176
     1
 90
        0
176
     1
 40
0.6
176
     1
 41
30.0
176
     1
 63
     7
421
 16777215
176
     1
 74
     2
176
     1
 91
        2
176
     1
 64
     7
176
     1
 65
     7
176
     1
 75
     1
176
     1
175
     1
176
     1
 42
40.0
176
     1
 92
       11
176
     1
 66
     7
176
     1
 43
1.0
176
     1
 76
     1
176
     1
 77
     6
176
     1
 78
     2
176
     1
 67
     7
176
     1
 79
     6
176
     1
170
     0
176
     1
171
     0
176
     1
290
     0
176
     1
 93
        1
176
     1
 44
0.0
176
     1
173
     0
176
     1
1001
ACAD
1000
AcDbSavedByObjectVersion
1070
     0
  0
VISUALSTYLE
  5
36
102
{ACAD_XDICTIONARY
360
12A
102
}
102
{ACAD_REACTORS
330
29
102
}
330
29
100
AcDbVisualStyle
  2
Thicken
 70
    13
177
     2
291
     1
 71
     2
176
     1
 72
     2
176
     1
 73
     0
176
     1
 90
        0
176
     1
 40
0.6
176
     1
 41
30.0
176
     1
 63
     7
421
 16777215
176
     1
 74
     1
176
     1
 91
        4
176
     1
 64
     7
176
     1
 65
   257
176
     1
 75
     1
176
     1
175
     1
176
     1
 42
1.0
176
     1
 92
       12
176
     1
 66
     7
176
     1
 43
1.0
176
     1
 76
     1
176
     1
 77
     6
176
     1
 78
     2
176
     1
 67
     7
176
     1
 79
     5
176
     1
170
     0
176
     1
171
     0
176
     1
290
     0
176
     1
 93
        1
176
     1
 44
0.0
176
     1
173
     0
176
     1
1001
ACAD
1000
AcDbSavedByObjectVersion
1070
     0
  0
VISUALSTYLE
  5
30
102
{ACAD_XDICTIONARY
360
11E
102
}
102
{ACAD_REACTORS
330
29
102
}
330
29
100
AcDbVisualStyle
  2
Wireframe
 70
     5
177
     2
291
     0
 71
     0
176
     1
 72
     2
176
     1
 73
     0
176
     1
 90
        0
176
     1
 40
0.6
176
     1
 41
30.0
176
     1
 63
     7
421
 16777215
176
     1
 74
     1
176
     1
 91
        4
176
     1
 64
     7
176
     1
 65
   257
176
     1
 75
     1
176
     1
175
     1
176
     1
 42
1.0
176
     1
 92
        0
176
     1
 66
   257
176
     1
 43
1.0
176
     1
 76
     1
176
     1
 77
     6
176
     1
 78
     2
176
     1
 67
     7
176
     1
 79
     3
176
     1
170
     0
176
     1
171
     0
176
     1
290
     0
176
     1
 93
        1
176
     1
 44
0.0
176
     1
173
     0
176
     1
1001
ACAD
1000
AcDbSavedByObjectVersion
1070
     0
  0
VISUALSTYLE
  5
3C
102
{ACAD_XDICTIONARY
360
136
102
}
102
{ACAD_REACTORS
330
29
102
}
330
29
100
AcDbVisualStyle
  2
X-Ray
 70
    25
177
     2
291
     0
 71
     2
176
     1
 72
     2
176
     1
 73
     1
176
     1
 90
        1
176
     1
 40
0.5
176
     1
 41
30.0
176
     1
 63
     7
421
 16777215
176
     1
 74
     1
176
     1
 91
        0
176
     1
 64
     7
176
     1
 65
   257
176
     1
 75
     1
176
     1
175
     1
176
     1
 42
1.0
176
     1
 92
        8
176
     1
 66
     7
176
     1
 43
1.0
176
     1
 76
     1
176
     1
 77
     6
176
     1
 78
     2
176
     1
 67
     7
176
     1
 79
     3
176
     1
170
     0
176
     1
171
     0
176
     1
290
     0
176
     1
 93
       13
176
     1
 44
0.0
176
     1
173
     0
176
     1
1001
ACAD
1000
AcDbSavedByObjectVersion
1070
     0
  0
DICTIONARYVAR
  5
10E
102
{ACAD_REACTORS
330
109
102
}
330
109
100
DictionaryVariables
280
     0
  1
1:1
  0
DICTIONARYVAR
  5
10B
102
{ACAD_REACTORS
330
109
102
}
330
109
100
DictionaryVariables
280
     0
  1
STANDARD
  0
DICTIONARYVAR
  5
10A
102
{ACAD_REACTORS
330
109
102
}
330
109
100
DictionaryVariables
280
     0
  1
STANDARD
  0
DICTIONARYVAR
  5
10C
102
{ACAD_REACTORS
330
109
102
}
330
109
100
DictionaryVariables
280
     0
  1
Imperial24
  0
DICTIONARYVAR
  5
10D
102
{ACAD_REACTORS
330
109
102
}
330
109
100
DictionaryVariables
280
     0
  1
Imperial24
  0
DICTIONARY
  5
146
330
6B
100
AcDbDictionary
280
     1
281
     1
  3
ACAD_XREC_ROUNDTRIP
360
147
  0
DICTIONARY
  5
1A
330
19
100
AcDbDictionary
280
     1
281
     1
  3
BUMPTILE
360
1C
  3
DIFFUSETILE
360
1B
  3
OPACITYTILE
360
1F
  3
REFLECTIONTILE
360
1E
  3
REFRACTIONTILE
360
20
  3
SPECULARTILE
360
1D
  0
DICTIONARY
  5
12
330
11
100
AcDbDictionary
280
     1
281
     1
  3
BUMPTILE
360
14
  3
DIFFUSETILE
360
13
  3
OPACITYTILE
360
17
  3
REFLECTIONTILE
360
16
  3
REFRACTIONTILE
360
18
  3
SPECULARTILE
360
15
  0
DICTIONARY
  5
22
330
21
100
AcDbDictionary
280
     1
281
     1
  3
BUMPTILE
360
24
  3
DIFFUSETILE
360
23
  3
OPACITYTILE
360
27
  3
REFLECTIONTILE
360
26
  3
REFRACTIONTILE
360
28
  3
SPECULARTILE
360
25
  0
DICTIONARY
  5
142
330
67
100
AcDbDictionary
280
     1
281
     1
  3
ACAD_XREC_ROUNDTRIP
360
143
  0
DICTIONARY
  5
144
330
69
100
AcDbDictionary
280
     1
281
     1
  3
ACAD_XREC_ROUNDTRIP
360
145
  0
DICTIONARY
  5
10F
330
65
100
AcDbDictionary
280
     1
281
     1
  3
ACAD_ROUNDTRIP_2008_TABLESTYLE_CELLSTYLEMAP
360
110
  0
DICTIONARY
  5
11C
330
2F
100
AcDbDictionary
280
     1
281
     1
  3
ACAD_XREC_ROUNDTRIP
360
11D
  0
DICTIONARY
  5
11A
330
2E
100
AcDbDictionary
280
     1
281
     1
  3
ACAD_XREC_ROUNDTRIP
360
11B
  0
DICTIONARY
  5
128
330
35
100
AcDbDictionary
280
     1
281
     1
  3
ACAD_XREC_ROUNDTRIP
360
129
  0
DICTIONARY
  5
130
330
39
100
AcDbDictionary
280
     1
281
     1
  3
ACAD_XREC_ROUNDTRIP
360
131
  0
DICTIONARY
  5
122
330
32
100
AcDbDictionary
280
     1
281
     1
  3
ACAD_XREC_ROUNDTRIP
360
123
  0
DICTIONARY
  5
126
330
34
100
AcDbDictionary
280
     1
281
     1
  3
ACAD_XREC_ROUNDTRIP
360
127
  0
DICTIONARY
  5
140
330
41
100
AcDbDictionary
280
     1
281
     1
  3
ACAD_XREC_ROUNDTRIP
360
141
  0
DICTIONARY
  5
12E
330
38
100
AcDbDictionary
280
     1
281
     1
  3
ACAD_XREC_ROUNDTRIP
360
12F
  0
DICTIONARY
  5
112
330
2A
100
AcDbDictionary
280
     1
281
     1
  3
ACAD_XREC_ROUNDTRIP
360
113
  0
DICTIONARY
  5
114
330
2B
100
AcDbDictionary
280
     1
281
     1
  3
ACAD_XREC_ROUNDTRIP
360
115
  0
DICTIONARY
  5
116
330
2C
100
AcDbDictionary
280
     1
281
     1
  3
ACAD_XREC_ROUNDTRIP
360
117
  0
DICTIONARY
  5
118
330
2D
100
AcDbDictionary
280
     1
281
     1
  3
ACAD_XREC_ROUNDTRIP
360
119
  0
DICTIONARY
  5
120
330
31
100
AcDbDictionary
280
     1
281
     1
  3
ACAD_XREC_ROUNDTRIP
360
121
  0
DICTIONARY
  5
13C
330
3F
100
AcDbDictionary
280
     1
281
     1
  3
ACAD_XREC_ROUNDTRIP
360
13D
  0
DICTIONARY
  5
12C
330
37
100
AcDbDictionary
280
     1
281
     1
  3
ACAD_XREC_ROUNDTRIP
360
12D
  0
DICTIONARY
  5
13E
330
40
100
AcDbDictionary
280
     1
281
     1
  3
ACAD_XREC_ROUNDTRIP
360
13F
  0
DICTIONARY
  5
124
330
33
100
AcDbDictionary
280
     1
281
     1
  3
ACAD_XREC_ROUNDTRIP
360
125
  0
DICTIONARY
  5
13A
330
3E
100
AcDbDictionary
280
     1
281
     1
  3
ACAD_XREC_ROUNDTRIP
360
13B
  0
DICTIONARY
  5
138
330
3D
100
AcDbDictionary
280
     1
281
     1
  3
ACAD_XREC_ROUNDTRIP
360
139
  0
DICTIONARY
  5
132
330
3A
100
AcDbDictionary
280
     1
281
     1
  3
ACAD_XREC_ROUNDTRIP
360
133
  0
DICTIONARY
  5
134
330
3B
100
AcDbDictionary
280
     1
281
     1
  3
ACAD_XREC_ROUNDTRIP
360
135
  0
DICTIONARY
  5
12A
330
36
100
AcDbDictionary
280
     1
281
     1
  3
ACAD_XREC_ROUNDTRIP
360
12B
  0
DICTIONARY
  5
11E
330
30
100
AcDbDictionary
280
     1
281
     1
  3
ACAD_XREC_ROUNDTRIP
360
11F
  0
DICTIONARY
  5
136
330
3C
100
AcDbDictionary
280
     1
281
     1
  3
ACAD_XREC_ROUNDTRIP
360
137
  0
XRECORD
  5
147
102
{ACAD_REACTORS
330
146
102
}
330
146
100
AcDbXrecord
280
     1
102
DISPLAYNAME
  1
Imperial24
102
FLAGS
 90
        0
  0
XRECORD
  5
1C
102
{ACAD_REACTORS
330
1A
102
}
330
1A
100
AcDbXrecord
280
     1
270
     1
271
     1
  0
XRECORD
  5
1B
102
{ACAD_REACTORS
330
1A
102
}
330
1A
100
AcDbXrecord
280
     1
270
     1
271
     1
  0
XRECORD
  5
1F
102
{ACAD_REACTORS
330
1A
102
}
330
1A
100
AcDbXrecord
280
     1
270
     1
271
     1
  0
XRECORD
  5
1E
102
{ACAD_REACTORS
330
1A
102
}
330
1A
100
AcDbXrecord
280
     1
270
     1
271
     1
  0
XRECORD
  5
20
102
{ACAD_REACTORS
330
1A
102
}
330
1A
100
AcDbXrecord
280
     1
270
     1
271
     1
  0
XRECORD
  5
1D
102
{ACAD_REACTORS
330
1A
102
}
330
1A
100
AcDbXrecord
280
     1
270
     1
271
     1
  0
XRECORD
  5
14
102
{ACAD_REACTORS
330
12
102
}
330
12
100
AcDbXrecord
280
     1
270
     1
271
     1
  0
XRECORD
  5
13
102
{ACAD_REACTORS
330
12
102
}
330
12
100
AcDbXrecord
280
     1
270
     1
271
     1
  0
XRECORD
  5
17
102
{ACAD_REACTORS
330
12
102
}
330
12
100
AcDbXrecord
280
     1
270
     1
271
     1
  0
XRECORD
  5
16
102
{ACAD_REACTORS
330
12
102
}
330
12
100
AcDbXrecord
280
     1
270
     1
271
     1
  0
XRECORD
  5
18
102
{ACAD_REACTORS
330
12
102
}
330
12
100
AcDbXrecord
280
     1
270
     1
271
     1
  0
XRECORD
  5
15
102
{ACAD_REACTORS
330
12
102
}
330
12
100
AcDbXrecord
280
     1
270
     1
271
     1
  0
XRECORD
  5
24
102
{ACAD_REACTORS
330
22
102
}
330
22
100
AcDbXrecord
280
     1
270
     1
271
     1
  0
XRECORD
  5
23
102
{ACAD_REACTORS
330
22
102
}
330
22
100
AcDbXrecord
280
     1
270
     1
271
     1
  0
XRECORD
  5
27
102
{ACAD_REACTORS
330
22
102
}
330
22
100
AcDbXrecord
280
     1
270
     1
271
     1
  0
XRECORD
  5
26
102
{ACAD_REACTORS
330
22
102
}
330
22
100
AcDbXrecord
280
     1
270
     1
271
     1
  0
XRECORD
  5
28
102
{ACAD_REACTORS
330
22
102
}
330
22
100
AcDbXrecord
280
     1
270
     1
271
     1
  0
XRECORD
  5
25
102
{ACAD_REACTORS
330
22
102
}
330
22
100
AcDbXrecord
280
     1
270
     1
271
     1
  0
XRECORD
  5
143
102
{ACAD_REACTORS
330
142
102
}
330
142
100
AcDbXrecord
280
     1
102
ACAD_ROUNDTRIP_2012_MLEADER_STYLE
298
     1
  0
XRECORD
  5
145
102
{ACAD_REACTORS
330
144
102
}
330
144
100
AcDbXrecord
280
     1
102
DISPLAYNAME
  1
Imperial24
102
FLAGS
 90
        0
  0
CELLSTYLEMAP
  5
110
102
{ACAD_REACTORS
330
10F
102
}
330
10F
100
AcDbCellStyleMap
 90
        3
300
CELLSTYLE
  1
TABLEFORMAT_BEGIN
 90
        5
170
     1
 91
        0
 92
    32768
 62
   257
 93
        1
300
CONTENTFORMAT
  1
CONTENTFORMAT_BEGIN
 90
        0
 91
        0
 92
      512
 93
        0
300

 40
0.0
140
1.0
 94
        5
 62
     0
340
55
144
0.25
309
CONTENTFORMAT_END
171
     0
 94
        0
309
TABLEFORMAT_END
  1
CELLSTYLE_BEGIN
 90
        1
 91
        1
300
_TITLE
309
CELLSTYLE_END
300
CELLSTYLE
  1
TABLEFORMAT_BEGIN
 90
        5
170
     1
 91
        0
 92
        0
 62
   257
 93
        1
300
CONTENTFORMAT
  1
CONTENTFORMAT_BEGIN
 90
        0
 91
        0
 92
      512
 93
        0
300

 40
0.0
140
1.0
 94
        5
 62
     0
340
55
144
0.18
309
CONTENTFORMAT_END
171
     0
 94
        0
309
TABLEFORMAT_END
  1
CELLSTYLE_BEGIN
 90
        2
 91
        1
300
_HEADER
309
CELLSTYLE_END
300
CELLSTYLE
  1
TABLEFORMAT_BEGIN
 90
        5
170
     1
 91
        0
 92
        0
 62
   257
 93
        1
300
CONTENTFORMAT
  1
CONTENTFORMAT_BEGIN
 90
        0
 91
        0
 92
      512
 93
        0
300

 40
0.0
140
1.0
 94
        2
 62
     0
340
55
144
0.18
309
CONTENTFORMAT_END
171
     0
 94
        0
309
TABLEFORMAT_END
  1
CELLSTYLE_BEGIN
 90
        3
 91
        2
300
_DATA
309
CELLSTYLE_END
  0
XRECORD
  5
11D
102
{ACAD_REACTORS
330
11C
102
}
330
11C
100
AcDbXrecord
280
     1
102
RTVSPost2010Prop28
280
     1
102
RTVSPost2010PropOp28
 70
     1
102
RTVSPost2010Prop29
280
     1
102
RTVSPost2010PropOp29
 70
     1
102
RTVSPost2010Prop30
280
     0
102
RTVSPost2010PropOp30
 70
     1
102
RTVSPost2010Prop31
280
     0
102
RTVSPost2010PropOp31
 70
     1
102
RTVSPost2010Prop32
280
     0
102
RTVSPost2010PropOp32
 70
     1
102
RTVSPost2010Prop33
280
     0
102
RTVSPost2010PropOp33
 70
     1
102
RTVSPost2010Prop34
280
     0
102
RTVSPost2010PropOp34
 70
     1
102
RTVSPost2010Prop35
280
     0
102
RTVSPost2010PropOp35
 70
     1
102
RTVSPost2010Prop36
280
     0
102
RTVSPost2010PropOp36
 70
     1
102
RTVSPost2010Prop37
 90
       50
102
RTVSPost2010PropOp37
 70
     1
102
RTVSPost2010Prop38
140
0.0
102
RTVSPost2010PropOp38
 70
     1
102
RTVSPost2010Prop39
140
1.0
102
RTVSPost2010PropOp39
 70
     1
102
RTVSPost2010Prop40
 90
        0
102
RTVSPost2010PropOp40
 70
     1
102
RTVSPost2010Prop41ColorIndex
 90
       18
102
RTVSPost2010Prop41ColorRGB
 90
        0
102
RTVSPost2010PropOp41
 70
     1
102
RTVSPost2010Prop42
 90
       50
102
RTVSPost2010PropOp42
 70
     1
102
RTVSPost2010Prop43
 90
        3
102
RTVSPost2010PropOp43
 70
     1
102
RTVSPost2010Prop44ColorIndex
 90
        5
102
RTVSPost2010Prop44ColorRGB
 90
      255
102
RTVSPost2010PropOp44
 70
     1
102
RTVSPost2010Prop45
280
     0
102
RTVSPost2010PropOp45
 70
     1
102
RTVSPost2010Prop46
 90
       50
102
RTVSPost2010PropOp46
 70
     1
102
RTVSPost2010Prop47
 90
       50
102
RTVSPost2010PropOp47
 70
     1
102
RTVSPost2010Prop48
 90
       50
102
RTVSPost2010PropOp48
 70
     1
102
RTVSPost2010Prop49
280
     0
102
RTVSPost2010PropOp49
 70
     1
102
RTVSPost2010Prop50
 90
       50
102
RTVSPost2010PropOp50
 70
     1
102
RTVSPost2010Prop51ColorIndex
 90
      256
102
RTVSPost2010Prop51ColorRGB
 90
-16777216
102
RTVSPost2010PropOp51
 70
     0
102
RTVSPost2010Prop52
140
1.0
102
RTVSPost2010PropOp52
 70
     0
102
RTVSPost2010Prop53
 90
        2
102
RTVSPost2010PropOp53
 70
     1
102
RTVSPost2010Prop54
  1
strokes_ogs.tif
102
RTVSPost2010PropOp54
 70
     1
102
RTVSPost2010Prop55
280
     0
102
RTVSPost2010PropOp55
 70
     1
102
RTVSPost2010Prop56
140
1.0
102
RTVSPost2010PropOp56
 70
     1
102
RTVSPost2010Prop57
140
1.0
102
RTVSPost2010PropOp57
 70
     1
  0
XRECORD
  5
11B
102
{ACAD_REACTORS
330
11A
102
}
330
11A
100
AcDbXrecord
280
     1
102
RTVSPost2010Prop28
280
     0
102
RTVSPost2010PropOp28
 70
     1
102
RTVSPost2010Prop29
280
     1
102
RTVSPost2010PropOp29
 70
     1
102
RTVSPost2010Prop30
280
     1
102
RTVSPost2010PropOp30
 70
     1
102
RTVSPost2010Prop31
280
     0
102
RTVSPost2010PropOp31
 70
     1
102
RTVSPost2010Prop32
280
     0
102
RTVSPost2010PropOp32
 70
     1
102
RTVSPost2010Prop33
280
     0
102
RTVSPost2010PropOp33
 70
     1
102
RTVSPost2010Prop34
280
     0
102
RTVSPost2010PropOp34
 70
     1
102
RTVSPost2010Prop35
280
     0
102
RTVSPost2010PropOp35
 70
     1
102
RTVSPost2010Prop36
280
     0
102
RTVSPost2010PropOp36
 70
     1
102
RTVSPost2010Prop37
 90
       50
102
RTVSPost2010PropOp37
 70
     1
102
RTVSPost2010Prop38
140
0.0
102
RTVSPost2010PropOp38
 70
     1
102
RTVSPost2010Prop39
140
1.0
102
RTVSPost2010PropOp39
 70
     1
102
RTVSPost2010Prop40
 90
        0
102
RTVSPost2010PropOp40
 70
     1
102
RTVSPost2010Prop41ColorIndex
 90
       18
102
RTVSPost2010Prop41ColorRGB
 90
        0
102
RTVSPost2010PropOp41
 70
     1
102
RTVSPost2010Prop42
 90
       50
102
RTVSPost2010PropOp42
 70
     1
102
RTVSPost2010Prop43
 90
        3
102
RTVSPost2010PropOp43
 70
     1
102
RTVSPost2010Prop44ColorIndex
 90
        5
102
RTVSPost2010Prop44ColorRGB
 90
      255
102
RTVSPost2010PropOp44
 70
     1
102
RTVSPost2010Prop45
280
     0
102
RTVSPost2010PropOp45
 70
     1
102
RTVSPost2010Prop46
 90
       50
102
RTVSPost2010PropOp46
 70
     1
102
RTVSPost2010Prop47
 90
       50
102
RTVSPost2010PropOp47
 70
     1
102
RTVSPost2010Prop48
 90
       50
102
RTVSPost2010PropOp48
 70
     1
102
RTVSPost2010Prop49
280
     0
102
RTVSPost2010PropOp49
 70
     1
102
RTVSPost2010Prop50
 90
       50
102
RTVSPost2010PropOp50
 70
     1
102
RTVSPost2010Prop51ColorIndex
 90
      256
102
RTVSPost2010Prop51ColorRGB
 90
-16777216
102
RTVSPost2010PropOp51
 70
     0
102
RTVSPost2010Prop52
140
1.0
102
RTVSPost2010PropOp52
 70
     0
102
RTVSPost2010Prop53
 90
        2
102
RTVSPost2010PropOp53
 70
     1
102
RTVSPost2010Prop54
  1
strokes_ogs.tif
102
RTVSPost2010PropOp54
 70
     1
102
RTVSPost2010Prop55
280
     0
102
RTVSPost2010PropOp55
 70
     1
102
RTVSPost2010Prop56
140
1.0
102
RTVSPost2010PropOp56
 70
     1
102
RTVSPost2010Prop57
140
1.0
102
RTVSPost2010PropOp57
 70
     1
  0
XRECORD
  5
129
102
{ACAD_REACTORS
330
128
102
}
330
128
100
AcDbXrecord
280
     1
102
RTVSPost2010Prop28
280
     0
102
RTVSPost2010PropOp28
 70
     1
102
RTVSPost2010Prop29
280
     1
102
RTVSPost2010PropOp29
 70
     1
102
RTVSPost2010Prop30
280
     1
102
RTVSPost2010PropOp30
 70
     1
102
RTVSPost2010Prop31
280
     0
102
RTVSPost2010PropOp31
 70
     1
102
RTVSPost2010Prop32
280
     0
102
RTVSPost2010PropOp32
 70
     1
102
RTVSPost2010Prop33
280
     0
102
RTVSPost2010PropOp33
 70
     1
102
RTVSPost2010Prop34
280
     0
102
RTVSPost2010PropOp34
 70
     1
102
RTVSPost2010Prop35
280
     0
102
RTVSPost2010PropOp35
 70
     1
102
RTVSPost2010Prop36
280
     0
102
RTVSPost2010PropOp36
 70
     1
102
RTVSPost2010Prop37
 90
       50
102
RTVSPost2010PropOp37
 70
     1
102
RTVSPost2010Prop38
140
0.0
102
RTVSPost2010PropOp38
 70
     1
102
RTVSPost2010Prop39
140
1.0
102
RTVSPost2010PropOp39
 70
     1
102
RTVSPost2010Prop40
 90
        0
102
RTVSPost2010PropOp40
 70
     1
102
RTVSPost2010Prop41ColorIndex
 90
       18
102
RTVSPost2010Prop41ColorRGB
 90
        0
102
RTVSPost2010PropOp41
 70
     1
102
RTVSPost2010Prop42
 90
       50
102
RTVSPost2010PropOp42
 70
     1
102
RTVSPost2010Prop43
 90
        3
102
RTVSPost2010PropOp43
 70
     1
102
RTVSPost2010Prop44ColorIndex
 90
        5
102
RTVSPost2010Prop44ColorRGB
 90
      255
102
RTVSPost2010PropOp44
 70
     1
102
RTVSPost2010Prop45
280
     0
102
RTVSPost2010PropOp45
 70
     1
102
RTVSPost2010Prop46
 90
       50
102
RTVSPost2010PropOp46
 70
     1
102
RTVSPost2010Prop47
 90
       50
102
RTVSPost2010PropOp47
 70
     1
102
RTVSPost2010Prop48
 90
       50
102
RTVSPost2010PropOp48
 70
     1
102
RTVSPost2010Prop49
280
     0
102
RTVSPost2010PropOp49
 70
     1
102
RTVSPost2010Prop50
 90
       50
102
RTVSPost2010PropOp50
 70
     1
102
RTVSPost2010Prop51ColorIndex
 90
      256
102
RTVSPost2010Prop51ColorRGB
 90
-16777216
102
RTVSPost2010PropOp51
 70
     0
102
RTVSPost2010Prop52
140
1.0
102
RTVSPost2010PropOp52
 70
     0
102
RTVSPost2010Prop53
 90
        2
102
RTVSPost2010PropOp53
 70
     1
102
RTVSPost2010Prop54
  1
strokes_ogs.tif
102
RTVSPost2010PropOp54
 70
     1
102
RTVSPost2010Prop55
280
     0
102
RTVSPost2010PropOp55
 70
     1
102
RTVSPost2010Prop56
140
1.0
102
RTVSPost2010PropOp56
 70
     1
102
RTVSPost2010Prop57
140
1.0
102
RTVSPost2010PropOp57
 70
     1
  0
XRECORD
  5
131
102
{ACAD_REACTORS
330
130
102
}
330
130
100
AcDbXrecord
280
     1
102
RTVSPost2010Prop28
280
     0
102
RTVSPost2010PropOp28
 70
     1
102
RTVSPost2010Prop29
280
     1
102
RTVSPost2010PropOp29
 70
     1
102
RTVSPost2010Prop30
280
     1
102
RTVSPost2010PropOp30
 70
     1
102
RTVSPost2010Prop31
280
     0
102
RTVSPost2010PropOp31
 70
     1
102
RTVSPost2010Prop32
280
     0
102
RTVSPost2010PropOp32
 70
     1
102
RTVSPost2010Prop33
280
     0
102
RTVSPost2010PropOp33
 70
     1
102
RTVSPost2010Prop34
280
     0
102
RTVSPost2010PropOp34
 70
     1
102
RTVSPost2010Prop35
280
     0
102
RTVSPost2010PropOp35
 70
     1
102
RTVSPost2010Prop36
280
     0
102
RTVSPost2010PropOp36
 70
     1
102
RTVSPost2010Prop37
 90
       50
102
RTVSPost2010PropOp37
 70
     1
102
RTVSPost2010Prop38
140
0.0
102
RTVSPost2010PropOp38
 70
     1
102
RTVSPost2010Prop39
140
1.0
102
RTVSPost2010PropOp39
 70
     1
102
RTVSPost2010Prop40
 90
        0
102
RTVSPost2010PropOp40
 70
     1
102
RTVSPost2010Prop41ColorIndex
 90
       18
102
RTVSPost2010Prop41ColorRGB
 90
        0
102
RTVSPost2010PropOp41
 70
     1
102
RTVSPost2010Prop42
 90
       50
102
RTVSPost2010PropOp42
 70
     1
102
RTVSPost2010Prop43
 90
        3
102
RTVSPost2010PropOp43
 70
     1
102
RTVSPost2010Prop44ColorIndex
 90
        5
102
RTVSPost2010Prop44ColorRGB
 90
      255
102
RTVSPost2010PropOp44
 70
     1
102
RTVSPost2010Prop45
280
     0
102
RTVSPost2010PropOp45
 70
     1
102
RTVSPost2010Prop46
 90
       50
102
RTVSPost2010PropOp46
 70
     1
102
RTVSPost2010Prop47
 90
       50
102
RTVSPost2010PropOp47
 70
     1
102
RTVSPost2010Prop48
 90
       50
102
RTVSPost2010PropOp48
 70
     1
102
RTVSPost2010Prop49
280
     0
102
RTVSPost2010PropOp49
 70
     1
102
RTVSPost2010Prop50
 90
       50
102
RTVSPost2010PropOp50
 70
     1
102
RTVSPost2010Prop51ColorIndex
 90
      256
102
RTVSPost2010Prop51ColorRGB
 90
-16777216
102
RTVSPost2010PropOp51
 70
     0
102
RTVSPost2010Prop52
140
1.0
102
RTVSPost2010PropOp52
 70
     0
102
RTVSPost2010Prop53
 90
        2
102
RTVSPost2010PropOp53
 70
     1
102
RTVSPost2010Prop54
  1
strokes_ogs.tif
102
RTVSPost2010PropOp54
 70
     1
102
RTVSPost2010Prop55
280
     0
102
RTVSPost2010PropOp55
 70
     1
102
RTVSPost2010Prop56
140
1.0
102
RTVSPost2010PropOp56
 70
     1
102
RTVSPost2010Prop57
140
1.0
102
RTVSPost2010PropOp57
 70
     1
  0
XRECORD
  5
123
102
{ACAD_REACTORS
330
122
102
}
330
122
100
AcDbXrecord
280
     1
102
RTVSPost2010Prop28
280
     0
102
RTVSPost2010PropOp28
 70
     1
102
RTVSPost2010Prop29
280
     1
102
RTVSPost2010PropOp29
 70
     1
102
RTVSPost2010Prop30
280
     1
102
RTVSPost2010PropOp30
 70
     1
102
RTVSPost2010Prop31
280
     0
102
RTVSPost2010PropOp31
 70
     1
102
RTVSPost2010Prop32
280
     0
102
RTVSPost2010PropOp32
 70
     1
102
RTVSPost2010Prop33
280
     0
102
RTVSPost2010PropOp33
 70
     1
102
RTVSPost2010Prop34
280
     0
102
RTVSPost2010PropOp34
 70
     1
102
RTVSPost2010Prop35
280
     0
102
RTVSPost2010PropOp35
 70
     1
102
RTVSPost2010Prop36
280
     0
102
RTVSPost2010PropOp36
 70
     1
102
RTVSPost2010Prop37
 90
       50
102
RTVSPost2010PropOp37
 70
     1
102
RTVSPost2010Prop38
140
0.0
102
RTVSPost2010PropOp38
 70
     1
102
RTVSPost2010Prop39
140
1.0
102
RTVSPost2010PropOp39
 70
     1
102
RTVSPost2010Prop40
 90
        0
102
RTVSPost2010PropOp40
 70
     1
102
RTVSPost2010Prop41ColorIndex
 90
       18
102
RTVSPost2010Prop41ColorRGB
 90
        0
102
RTVSPost2010PropOp41
 70
     1
102
RTVSPost2010Prop42
 90
       50
102
RTVSPost2010PropOp42
 70
     1
102
RTVSPost2010Prop43
 90
        3
102
RTVSPost2010PropOp43
 70
     1
102
RTVSPost2010Prop44ColorIndex
 90
        5
102
RTVSPost2010Prop44ColorRGB
 90
      255
102
RTVSPost2010PropOp44
 70
     1
102
RTVSPost2010Prop45
280
     0
102
RTVSPost2010PropOp45
 70
     1
102
RTVSPost2010Prop46
 90
       50
102
RTVSPost2010PropOp46
 70
     1
102
RTVSPost2010Prop47
 90
       50
102
RTVSPost2010PropOp47
 70
     1
102
RTVSPost2010Prop48
 90
       50
102
RTVSPost2010PropOp48
 70
     1
102
RTVSPost2010Prop49
280
     0
102
RTVSPost2010PropOp49
 70
     1
102
RTVSPost2010Prop50
 90
       50
102
RTVSPost2010PropOp50
 70
     1
102
RTVSPost2010Prop51ColorIndex
 90
      256
102
RTVSPost2010Prop51ColorRGB
 90
-16777216
102
RTVSPost2010PropOp51
 70
     0
102
RTVSPost2010Prop52
140
1.0
102
RTVSPost2010PropOp52
 70
     0
102
RTVSPost2010Prop53
 90
        2
102
RTVSPost2010PropOp53
 70
     1
102
RTVSPost2010Prop54
  1
strokes_ogs.tif
102
RTVSPost2010PropOp54
 70
     1
102
RTVSPost2010Prop55
280
     0
102
RTVSPost2010PropOp55
 70
     1
102
RTVSPost2010Prop56
140
1.0
102
RTVSPost2010PropOp56
 70
     1
102
RTVSPost2010Prop57
140
1.0
102
RTVSPost2010PropOp57
 70
     1
  0
XRECORD
  5
127
102
{ACAD_REACTORS
330
126
102
}
330
126
100
AcDbXrecord
280
     1
102
RTVSPost2010Prop28
280
     0
102
RTVSPost2010PropOp28
 70
     1
102
RTVSPost2010Prop29
280
     1
102
RTVSPost2010PropOp29
 70
     1
102
RTVSPost2010Prop30
280
     1
102
RTVSPost2010PropOp30
 70
     1
102
RTVSPost2010Prop31
280
     0
102
RTVSPost2010PropOp31
 70
     1
102
RTVSPost2010Prop32
280
     0
102
RTVSPost2010PropOp32
 70
     1
102
RTVSPost2010Prop33
280
     0
102
RTVSPost2010PropOp33
 70
     1
102
RTVSPost2010Prop34
280
     0
102
RTVSPost2010PropOp34
 70
     1
102
RTVSPost2010Prop35
280
     0
102
RTVSPost2010PropOp35
 70
     1
102
RTVSPost2010Prop36
280
     0
102
RTVSPost2010PropOp36
 70
     1
102
RTVSPost2010Prop37
 90
       50
102
RTVSPost2010PropOp37
 70
     1
102
RTVSPost2010Prop38
140
0.0
102
RTVSPost2010PropOp38
 70
     1
102
RTVSPost2010Prop39
140
1.0
102
RTVSPost2010PropOp39
 70
     1
102
RTVSPost2010Prop40
 90
        0
102
RTVSPost2010PropOp40
 70
     1
102
RTVSPost2010Prop41ColorIndex
 90
       18
102
RTVSPost2010Prop41ColorRGB
 90
        0
102
RTVSPost2010PropOp41
 70
     1
102
RTVSPost2010Prop42
 90
       50
102
RTVSPost2010PropOp42
 70
     1
102
RTVSPost2010Prop43
 90
        3
102
RTVSPost2010PropOp43
 70
     1
102
RTVSPost2010Prop44ColorIndex
 90
        5
102
RTVSPost2010Prop44ColorRGB
 90
      255
102
RTVSPost2010PropOp44
 70
     1
102
RTVSPost2010Prop45
280
     0
102
RTVSPost2010PropOp45
 70
     1
102
RTVSPost2010Prop46
 90
       50
102
RTVSPost2010PropOp46
 70
     1
102
RTVSPost2010Prop47
 90
       50
102
RTVSPost2010PropOp47
 70
     1
102
RTVSPost2010Prop48
 90
       50
102
RTVSPost2010PropOp48
 70
     1
102
RTVSPost2010Prop49
280
     0
102
RTVSPost2010PropOp49
 70
     1
102
RTVSPost2010Prop50
 90
       50
102
RTVSPost2010PropOp50
 70
     1
102
RTVSPost2010Prop51ColorIndex
 90
      256
102
RTVSPost2010Prop51ColorRGB
 90
-16777216
102
RTVSPost2010PropOp51
 70
     0
102
RTVSPost2010Prop52
140
1.0
102
RTVSPost2010PropOp52
 70
     0
102
RTVSPost2010Prop53
 90
        2
102
RTVSPost2010PropOp53
 70
     1
102
RTVSPost2010Prop54
  1
strokes_ogs.tif
102
RTVSPost2010PropOp54
 70
     1
102
RTVSPost2010Prop55
280
     0
102
RTVSPost2010PropOp55
 70
     1
102
RTVSPost2010Prop56
140
1.0
102
RTVSPost2010PropOp56
 70
     1
102
RTVSPost2010Prop57
140
1.0
102
RTVSPost2010PropOp57
 70
     1
  0
XRECORD
  5
141
102
{ACAD_REACTORS
330
140
102
}
330
140
100
AcDbXrecord
280
     1
102
RTVSPost2010Prop28
280
     0
102
RTVSPost2010PropOp28
 70
     0
102
RTVSPost2010Prop29
280
     1
102
RTVSPost2010PropOp29
 70
     0
102
RTVSPost2010Prop30
280
     1
102
RTVSPost2010PropOp30
 70
     0
102
RTVSPost2010Prop31
280
     0
102
RTVSPost2010PropOp31
 70
     0
102
RTVSPost2010Prop32
280
     0
102
RTVSPost2010PropOp32
 70
     0
102
RTVSPost2010Prop33
280
     0
102
RTVSPost2010PropOp33
 70
     0
102
RTVSPost2010Prop34
280
     0
102
RTVSPost2010PropOp34
 70
     0
102
RTVSPost2010Prop35
280
     0
102
RTVSPost2010PropOp35
 70
     0
102
RTVSPost2010Prop36
280
     0
102
RTVSPost2010PropOp36
 70
     0
102
RTVSPost2010Prop37
 90
       50
102
RTVSPost2010PropOp37
 70
     0
102
RTVSPost2010Prop38
140
0.0
102
RTVSPost2010PropOp38
 70
     0
102
RTVSPost2010Prop39
140
1.0
102
RTVSPost2010PropOp39
 70
     0
102
RTVSPost2010Prop40
 90
        0
102
RTVSPost2010PropOp40
 70
     0
102
RTVSPost2010Prop41ColorIndex
 90
       18
102
RTVSPost2010Prop41ColorRGB
 90
        0
102
RTVSPost2010PropOp41
 70
     0
102
RTVSPost2010Prop42
 90
       50
102
RTVSPost2010PropOp42
 70
     0
102
RTVSPost2010Prop43
 90
        3
102
RTVSPost2010PropOp43
 70
     0
102
RTVSPost2010Prop44ColorIndex
 90
        5
102
RTVSPost2010Prop44ColorRGB
 90
      255
102
RTVSPost2010PropOp44
 70
     0
102
RTVSPost2010Prop45
280
     0
102
RTVSPost2010PropOp45
 70
     0
102
RTVSPost2010Prop46
 90
       50
102
RTVSPost2010PropOp46
 70
     0
102
RTVSPost2010Prop47
 90
       50
102
RTVSPost2010PropOp47
 70
     0
102
RTVSPost2010Prop48
 90
       50
102
RTVSPost2010PropOp48
 70
     0
102
RTVSPost2010Prop49
280
     0
102
RTVSPost2010PropOp49
 70
     0
102
RTVSPost2010Prop50
 90
       50
102
RTVSPost2010PropOp50
 70
     0
102
RTVSPost2010Prop51ColorIndex
 90
      256
102
RTVSPost2010Prop51ColorRGB
 90
-16777216
102
RTVSPost2010PropOp51
 70
     0
102
RTVSPost2010Prop52
140
1.0
102
RTVSPost2010PropOp52
 70
     0
102
RTVSPost2010Prop53
 90
        2
102
RTVSPost2010PropOp53
 70
     0
102
RTVSPost2010Prop54
  1
strokes_ogs.tif
102
RTVSPost2010PropOp54
 70
     0
102
RTVSPost2010Prop55
280
     0
102
RTVSPost2010PropOp55
 70
     0
102
RTVSPost2010Prop56
140
1.0
102
RTVSPost2010PropOp56
 70
     0
102
RTVSPost2010Prop57
140
1.0
102
RTVSPost2010PropOp57
 70
     0
  0
XRECORD
  5
12F
102
{ACAD_REACTORS
330
12E
102
}
330
12E
100
AcDbXrecord
280
     1
102
RTVSPost2010Prop28
280
     0
102
RTVSPost2010PropOp28
 70
     1
102
RTVSPost2010Prop29
280
     1
102
RTVSPost2010PropOp29
 70
     1
102
RTVSPost2010Prop30
280
     1
102
RTVSPost2010PropOp30
 70
     1
102
RTVSPost2010Prop31
280
     0
102
RTVSPost2010PropOp31
 70
     1
102
RTVSPost2010Prop32
280
     0
102
RTVSPost2010PropOp32
 70
     1
102
RTVSPost2010Prop33
280
     0
102
RTVSPost2010PropOp33
 70
     1
102
RTVSPost2010Prop34
280
     0
102
RTVSPost2010PropOp34
 70
     1
102
RTVSPost2010Prop35
280
     0
102
RTVSPost2010PropOp35
 70
     1
102
RTVSPost2010Prop36
280
     0
102
RTVSPost2010PropOp36
 70
     1
102
RTVSPost2010Prop37
 90
       50
102
RTVSPost2010PropOp37
 70
     1
102
RTVSPost2010Prop38
140
0.0
102
RTVSPost2010PropOp38
 70
     1
102
RTVSPost2010Prop39
140
1.0
102
RTVSPost2010PropOp39
 70
     1
102
RTVSPost2010Prop40
 90
        0
102
RTVSPost2010PropOp40
 70
     1
102
RTVSPost2010Prop41ColorIndex
 90
       18
102
RTVSPost2010Prop41ColorRGB
 90
        0
102
RTVSPost2010PropOp41
 70
     1
102
RTVSPost2010Prop42
 90
       50
102
RTVSPost2010PropOp42
 70
     1
102
RTVSPost2010Prop43
 90
        3
102
RTVSPost2010PropOp43
 70
     1
102
RTVSPost2010Prop44ColorIndex
 90
        5
102
RTVSPost2010Prop44ColorRGB
 90
      255
102
RTVSPost2010PropOp44
 70
     1
102
RTVSPost2010Prop45
280
     0
102
RTVSPost2010PropOp45
 70
     1
102
RTVSPost2010Prop46
 90
       50
102
RTVSPost2010PropOp46
 70
     1
102
RTVSPost2010Prop47
 90
       50
102
RTVSPost2010PropOp47
 70
     1
102
RTVSPost2010Prop48
 90
       50
102
RTVSPost2010PropOp48
 70
     1
102
RTVSPost2010Prop49
280
     0
102
RTVSPost2010PropOp49
 70
     1
102
RTVSPost2010Prop50
 90
       50
102
RTVSPost2010PropOp50
 70
     1
102
RTVSPost2010Prop51ColorIndex
 90
      256
102
RTVSPost2010Prop51ColorRGB
 90
-16777216
102
RTVSPost2010PropOp51
 70
     0
102
RTVSPost2010Prop52
140
1.0
102
RTVSPost2010PropOp52
 70
     0
102
RTVSPost2010Prop53
 90
        2
102
RTVSPost2010PropOp53
 70
     1
102
RTVSPost2010Prop54
  1
strokes_ogs.tif
102
RTVSPost2010PropOp54
 70
     1
102
RTVSPost2010Prop55
280
     0
102
RTVSPost2010PropOp55
 70
     1
102
RTVSPost2010Prop56
140
1.0
102
RTVSPost2010PropOp56
 70
     1
102
RTVSPost2010Prop57
140
1.0
102
RTVSPost2010PropOp57
 70
     1
  0
XRECORD
  5
113
102
{ACAD_REACTORS
330
112
102
}
330
112
100
AcDbXrecord
280
     1
102
RTVSPost2010Prop28
280
     0
102
RTVSPost2010PropOp28
 70
     1
102
RTVSPost2010Prop29
280
     1
102
RTVSPost2010PropOp29
 70
     1
102
RTVSPost2010Prop30
280
     1
102
RTVSPost2010PropOp30
 70
     1
102
RTVSPost2010Prop31
280
     0
102
RTVSPost2010PropOp31
 70
     1
102
RTVSPost2010Prop32
280
     0
102
RTVSPost2010PropOp32
 70
     1
102
RTVSPost2010Prop33
280
     0
102
RTVSPost2010PropOp33
 70
     1
102
RTVSPost2010Prop34
280
     0
102
RTVSPost2010PropOp34
 70
     1
102
RTVSPost2010Prop35
280
     0
102
RTVSPost2010PropOp35
 70
     1
102
RTVSPost2010Prop36
280
     0
102
RTVSPost2010PropOp36
 70
     1
102
RTVSPost2010Prop37
 90
       50
102
RTVSPost2010PropOp37
 70
     1
102
RTVSPost2010Prop38
140
0.0
102
RTVSPost2010PropOp38
 70
     1
102
RTVSPost2010Prop39
140
1.0
102
RTVSPost2010PropOp39
 70
     1
102
RTVSPost2010Prop40
 90
        0
102
RTVSPost2010PropOp40
 70
     1
102
RTVSPost2010Prop41ColorIndex
 90
       18
102
RTVSPost2010Prop41ColorRGB
 90
        0
102
RTVSPost2010PropOp41
 70
     1
102
RTVSPost2010Prop42
 90
       50
102
RTVSPost2010PropOp42
 70
     1
102
RTVSPost2010Prop43
 90
        3
102
RTVSPost2010PropOp43
 70
     1
102
RTVSPost2010Prop44ColorIndex
 90
        5
102
RTVSPost2010Prop44ColorRGB
 90
      255
102
RTVSPost2010PropOp44
 70
     1
102
RTVSPost2010Prop45
280
     0
102
RTVSPost2010PropOp45
 70
     1
102
RTVSPost2010Prop46
 90
       50
102
RTVSPost2010PropOp46
 70
     1
102
RTVSPost2010Prop47
 90
       50
102
RTVSPost2010PropOp47
 70
     1
102
RTVSPost2010Prop48
 90
       50
102
RTVSPost2010PropOp48
 70
     1
102
RTVSPost2010Prop49
280
     0
102
RTVSPost2010PropOp49
 70
     1
102
RTVSPost2010Prop50
 90
       50
102
RTVSPost2010PropOp50
 70
     1
102
RTVSPost2010Prop51ColorIndex
 90
      256
102
RTVSPost2010Prop51ColorRGB
 90
-16777216
102
RTVSPost2010PropOp51
 70
     0
102
RTVSPost2010Prop52
140
1.0
102
RTVSPost2010PropOp52
 70
     0
102
RTVSPost2010Prop53
 90
        2
102
RTVSPost2010PropOp53
 70
     1
102
RTVSPost2010Prop54
  1
strokes_ogs.tif
102
RTVSPost2010PropOp54
 70
     1
102
RTVSPost2010Prop55
280
     0
102
RTVSPost2010PropOp55
 70
     1
102
RTVSPost2010Prop56
140
1.0
102
RTVSPost2010PropOp56
 70
     1
102
RTVSPost2010Prop57
140
1.0
102
RTVSPost2010PropOp57
 70
     1
  0
XRECORD
  5
115
102
{ACAD_REACTORS
330
114
102
}
330
114
100
AcDbXrecord
280
     1
102
RTVSPost2010Prop28
280
     0
102
RTVSPost2010PropOp28
 70
     1
102
RTVSPost2010Prop29
280
     1
102
RTVSPost2010PropOp29
 70
     1
102
RTVSPost2010Prop30
280
     1
102
RTVSPost2010PropOp30
 70
     1
102
RTVSPost2010Prop31
280
     0
102
RTVSPost2010PropOp31
 70
     1
102
RTVSPost2010Prop32
280
     0
102
RTVSPost2010PropOp32
 70
     1
102
RTVSPost2010Prop33
280
     0
102
RTVSPost2010PropOp33
 70
     1
102
RTVSPost2010Prop34
280
     0
102
RTVSPost2010PropOp34
 70
     1
102
RTVSPost2010Prop35
280
     0
102
RTVSPost2010PropOp35
 70
     1
102
RTVSPost2010Prop36
280
     0
102
RTVSPost2010PropOp36
 70
     1
102
RTVSPost2010Prop37
 90
       50
102
RTVSPost2010PropOp37
 70
     1
102
RTVSPost2010Prop38
140
0.0
102
RTVSPost2010PropOp38
 70
     1
102
RTVSPost2010Prop39
140
1.0
102
RTVSPost2010PropOp39
 70
     1
102
RTVSPost2010Prop40
 90
        0
102
RTVSPost2010PropOp40
 70
     1
102
RTVSPost2010Prop41ColorIndex
 90
       18
102
RTVSPost2010Prop41ColorRGB
 90
        0
102
RTVSPost2010PropOp41
 70
     1
102
RTVSPost2010Prop42
 90
       50
102
RTVSPost2010PropOp42
 70
     1
102
RTVSPost2010Prop43
 90
        3
102
RTVSPost2010PropOp43
 70
     1
102
RTVSPost2010Prop44ColorIndex
 90
        5
102
RTVSPost2010Prop44ColorRGB
 90
      255
102
RTVSPost2010PropOp44
 70
     1
102
RTVSPost2010Prop45
280
     0
102
RTVSPost2010PropOp45
 70
     1
102
RTVSPost2010Prop46
 90
       50
102
RTVSPost2010PropOp46
 70
     1
102
RTVSPost2010Prop47
 90
       50
102
RTVSPost2010PropOp47
 70
     1
102
RTVSPost2010Prop48
 90
       50
102
RTVSPost2010PropOp48
 70
     1
102
RTVSPost2010Prop49
280
     0
102
RTVSPost2010PropOp49
 70
     1
102
RTVSPost2010Prop50
 90
       50
102
RTVSPost2010PropOp50
 70
     1
102
RTVSPost2010Prop51ColorIndex
 90
      256
102
RTVSPost2010Prop51ColorRGB
 90
-16777216
102
RTVSPost2010PropOp51
 70
     0
102
RTVSPost2010Prop52
140
1.0
102
RTVSPost2010PropOp52
 70
     0
102
RTVSPost2010Prop53
 90
        2
102
RTVSPost2010PropOp53
 70
     1
102
RTVSPost2010Prop54
  1
strokes_ogs.tif
102
RTVSPost2010PropOp54
 70
     1
102
RTVSPost2010Prop55
280
     0
102
RTVSPost2010PropOp55
 70
     1
102
RTVSPost2010Prop56
140
1.0
102
RTVSPost2010PropOp56
 70
     1
102
RTVSPost2010Prop57
140
1.0
102
RTVSPost2010PropOp57
 70
     1
  0
XRECORD
  5
117
102
{ACAD_REACTORS
330
116
102
}
330
116
100
AcDbXrecord
280
     1
102
RTVSPost2010Prop28
280
     0
102
RTVSPost2010PropOp28
 70
     1
102
RTVSPost2010Prop29
280
     1
102
RTVSPost2010PropOp29
 70
     1
102
RTVSPost2010Prop30
280
     1
102
RTVSPost2010PropOp30
 70
     1
102
RTVSPost2010Prop31
280
     0
102
RTVSPost2010PropOp31
 70
     1
102
RTVSPost2010Prop32
280
     0
102
RTVSPost2010PropOp32
 70
     1
102
RTVSPost2010Prop33
280
     0
102
RTVSPost2010PropOp33
 70
     1
102
RTVSPost2010Prop34
280
     0
102
RTVSPost2010PropOp34
 70
     1
102
RTVSPost2010Prop35
280
     0
102
RTVSPost2010PropOp35
 70
     1
102
RTVSPost2010Prop36
280
     0
102
RTVSPost2010PropOp36
 70
     1
102
RTVSPost2010Prop37
 90
       50
102
RTVSPost2010PropOp37
 70
     1
102
RTVSPost2010Prop38
140
0.0
102
RTVSPost2010PropOp38
 70
     1
102
RTVSPost2010Prop39
140
1.0
102
RTVSPost2010PropOp39
 70
     1
102
RTVSPost2010Prop40
 90
        0
102
RTVSPost2010PropOp40
 70
     1
102
RTVSPost2010Prop41ColorIndex
 90
       18
102
RTVSPost2010Prop41ColorRGB
 90
        0
102
RTVSPost2010PropOp41
 70
     1
102
RTVSPost2010Prop42
 90
       50
102
RTVSPost2010PropOp42
 70
     1
102
RTVSPost2010Prop43
 90
        3
102
RTVSPost2010PropOp43
 70
     1
102
RTVSPost2010Prop44ColorIndex
 90
        5
102
RTVSPost2010Prop44ColorRGB
 90
      255
102
RTVSPost2010PropOp44
 70
     1
102
RTVSPost2010Prop45
280
     0
102
RTVSPost2010PropOp45
 70
     1
102
RTVSPost2010Prop46
 90
       50
102
RTVSPost2010PropOp46
 70
     1
102
RTVSPost2010Prop47
 90
       50
102
RTVSPost2010PropOp47
 70
     1
102
RTVSPost2010Prop48
 90
       50
102
RTVSPost2010PropOp48
 70
     1
102
RTVSPost2010Prop49
280
     0
102
RTVSPost2010PropOp49
 70
     1
102
RTVSPost2010Prop50
 90
       50
102
RTVSPost2010PropOp50
 70
     1
102
RTVSPost2010Prop51ColorIndex
 90
      256
102
RTVSPost2010Prop51ColorRGB
 90
-16777216
102
RTVSPost2010PropOp51
 70
     0
102
RTVSPost2010Prop52
140
1.0
102
RTVSPost2010PropOp52
 70
     0
102
RTVSPost2010Prop53
 90
        2
102
RTVSPost2010PropOp53
 70
     1
102
RTVSPost2010Prop54
  1
strokes_ogs.tif
102
RTVSPost2010PropOp54
 70
     1
102
RTVSPost2010Prop55
280
     0
102
RTVSPost2010PropOp55
 70
     1
102
RTVSPost2010Prop56
140
1.0
102
RTVSPost2010PropOp56
 70
     1
102
RTVSPost2010Prop57
140
1.0
102
RTVSPost2010PropOp57
 70
     1
  0
XRECORD
  5
119
102
{ACAD_REACTORS
330
118
102
}
330
118
100
AcDbXrecord
280
     1
102
RTVSPost2010Prop28
280
     0
102
RTVSPost2010PropOp28
 70
     1
102
RTVSPost2010Prop29
280
     1
102
RTVSPost2010PropOp29
 70
     1
102
RTVSPost2010Prop30
280
     1
102
RTVSPost2010PropOp30
 70
     1
102
RTVSPost2010Prop31
280
     0
102
RTVSPost2010PropOp31
 70
     1
102
RTVSPost2010Prop32
280
     0
102
RTVSPost2010PropOp32
 70
     1
102
RTVSPost2010Prop33
280
     0
102
RTVSPost2010PropOp33
 70
     1
102
RTVSPost2010Prop34
280
     0
102
RTVSPost2010PropOp34
 70
     1
102
RTVSPost2010Prop35
280
     0
102
RTVSPost2010PropOp35
 70
     1
102
RTVSPost2010Prop36
280
     0
102
RTVSPost2010PropOp36
 70
     1
102
RTVSPost2010Prop37
 90
       50
102
RTVSPost2010PropOp37
 70
     1
102
RTVSPost2010Prop38
140
0.0
102
RTVSPost2010PropOp38
 70
     1
102
RTVSPost2010Prop39
140
1.0
102
RTVSPost2010PropOp39
 70
     1
102
RTVSPost2010Prop40
 90
        0
102
RTVSPost2010PropOp40
 70
     1
102
RTVSPost2010Prop41ColorIndex
 90
       18
102
RTVSPost2010Prop41ColorRGB
 90
        0
102
RTVSPost2010PropOp41
 70
     1
102
RTVSPost2010Prop42
 90
       50
102
RTVSPost2010PropOp42
 70
     1
102
RTVSPost2010Prop43
 90
        3
102
RTVSPost2010PropOp43
 70
     1
102
RTVSPost2010Prop44ColorIndex
 90
        5
102
RTVSPost2010Prop44ColorRGB
 90
      255
102
RTVSPost2010PropOp44
 70
     1
102
RTVSPost2010Prop45
280
     0
102
RTVSPost2010PropOp45
 70
     1
102
RTVSPost2010Prop46
 90
       50
102
RTVSPost2010PropOp46
 70
     1
102
RTVSPost2010Prop47
 90
       50
102
RTVSPost2010PropOp47
 70
     1
102
RTVSPost2010Prop48
 90
       50
102
RTVSPost2010PropOp48
 70
     1
102
RTVSPost2010Prop49
280
     0
102
RTVSPost2010PropOp49
 70
     1
102
RTVSPost2010Prop50
 90
       50
102
RTVSPost2010PropOp50
 70
     1
102
RTVSPost2010Prop51ColorIndex
 90
      256
102
RTVSPost2010Prop51ColorRGB
 90
-16777216
102
RTVSPost2010PropOp51
 70
     0
102
RTVSPost2010Prop52
140
1.0
102
RTVSPost2010PropOp52
 70
     0
102
RTVSPost2010Prop53
 90
        2
102
RTVSPost2010PropOp53
 70
     1
102
RTVSPost2010Prop54
  1
strokes_ogs.tif
102
RTVSPost2010PropOp54
 70
     1
102
RTVSPost2010Prop55
280
     0
102
RTVSPost2010PropOp55
 70
     1
102
RTVSPost2010Prop56
140
1.0
102
RTVSPost2010PropOp56
 70
     1
102
RTVSPost2010Prop57
140
1.0
102
RTVSPost2010PropOp57
 70
     1
  0
XRECORD
  5
121
102
{ACAD_REACTORS
330
120
102
}
330
120
100
AcDbXrecord
280
     1
102
RTVSPost2010Prop28
280
     0
102
RTVSPost2010PropOp28
 70
     1
102
RTVSPost2010Prop29
280
     1
102
RTVSPost2010PropOp29
 70
     1
102
RTVSPost2010Prop30
280
     1
102
RTVSPost2010PropOp30
 70
     1
102
RTVSPost2010Prop31
280
     0
102
RTVSPost2010PropOp31
 70
     1
102
RTVSPost2010Prop32
280
     0
102
RTVSPost2010PropOp32
 70
     1
102
RTVSPost2010Prop33
280
     0
102
RTVSPost2010PropOp33
 70
     1
102
RTVSPost2010Prop34
280
     0
102
RTVSPost2010PropOp34
 70
     1
102
RTVSPost2010Prop35
280
     0
102
RTVSPost2010PropOp35
 70
     1
102
RTVSPost2010Prop36
280
     0
102
RTVSPost2010PropOp36
 70
     1
102
RTVSPost2010Prop37
 90
       50
102
RTVSPost2010PropOp37
 70
     1
102
RTVSPost2010Prop38
140
0.0
102
RTVSPost2010PropOp38
 70
     1
102
RTVSPost2010Prop39
140
1.0
102
RTVSPost2010PropOp39
 70
     1
102
RTVSPost2010Prop40
 90
        0
102
RTVSPost2010PropOp40
 70
     1
102
RTVSPost2010Prop41ColorIndex
 90
       18
102
RTVSPost2010Prop41ColorRGB
 90
        0
102
RTVSPost2010PropOp41
 70
     1
102
RTVSPost2010Prop42
 90
       50
102
RTVSPost2010PropOp42
 70
     1
102
RTVSPost2010Prop43
 90
        3
102
RTVSPost2010PropOp43
 70
     1
102
RTVSPost2010Prop44ColorIndex
 90
        5
102
RTVSPost2010Prop44ColorRGB
 90
      255
102
RTVSPost2010PropOp44
 70
     1
102
RTVSPost2010Prop45
280
     0
102
RTVSPost2010PropOp45
 70
     1
102
RTVSPost2010Prop46
 90
       50
102
RTVSPost2010PropOp46
 70
     1
102
RTVSPost2010Prop47
 90
       50
102
RTVSPost2010PropOp47
 70
     1
102
RTVSPost2010Prop48
 90
       50
102
RTVSPost2010PropOp48
 70
     1
102
RTVSPost2010Prop49
280
     0
102
RTVSPost2010PropOp49
 70
     1
102
RTVSPost2010Prop50
 90
       50
102
RTVSPost2010PropOp50
 70
     1
102
RTVSPost2010Prop51ColorIndex
 90
      256
102
RTVSPost2010Prop51ColorRGB
 90
-16777216
102
RTVSPost2010PropOp51
 70
     0
102
RTVSPost2010Prop52
140
1.0
102
RTVSPost2010PropOp52
 70
     0
102
RTVSPost2010Prop53
 90
        2
102
RTVSPost2010PropOp53
 70
     1
102
RTVSPost2010Prop54
  1
strokes_ogs.tif
102
RTVSPost2010PropOp54
 70
     1
102
RTVSPost2010Prop55
280
     0
102
RTVSPost2010PropOp55
 70
     1
102
RTVSPost2010Prop56
140
1.0
102
RTVSPost2010PropOp56
 70
     1
102
RTVSPost2010Prop57
140
1.0
102
RTVSPost2010PropOp57
 70
     1
  0
XRECORD
  5
13D
102
{ACAD_REACTORS
330
13C
102
}
330
13C
100
AcDbXrecord
280
     1
102
RTVSPost2010Prop28
280
     0
102
RTVSPost2010PropOp28
 70
     0
102
RTVSPost2010Prop29
280
     1
102
RTVSPost2010PropOp29
 70
     0
102
RTVSPost2010Prop30
280
     1
102
RTVSPost2010PropOp30
 70
     0
102
RTVSPost2010Prop31
280
     0
102
RTVSPost2010PropOp31
 70
     0
102
RTVSPost2010Prop32
280
     0
102
RTVSPost2010PropOp32
 70
     0
102
RTVSPost2010Prop33
280
     0
102
RTVSPost2010PropOp33
 70
     0
102
RTVSPost2010Prop34
280
     0
102
RTVSPost2010PropOp34
 70
     0
102
RTVSPost2010Prop35
280
     0
102
RTVSPost2010PropOp35
 70
     0
102
RTVSPost2010Prop36
280
     0
102
RTVSPost2010PropOp36
 70
     0
102
RTVSPost2010Prop37
 90
       50
102
RTVSPost2010PropOp37
 70
     0
102
RTVSPost2010Prop38
140
0.0
102
RTVSPost2010PropOp38
 70
     0
102
RTVSPost2010Prop39
140
1.0
102
RTVSPost2010PropOp39
 70
     0
102
RTVSPost2010Prop40
 90
        0
102
RTVSPost2010PropOp40
 70
     0
102
RTVSPost2010Prop41ColorIndex
 90
       18
102
RTVSPost2010Prop41ColorRGB
 90
        0
102
RTVSPost2010PropOp41
 70
     0
102
RTVSPost2010Prop42
 90
       50
102
RTVSPost2010PropOp42
 70
     0
102
RTVSPost2010Prop43
 90
        3
102
RTVSPost2010PropOp43
 70
     0
102
RTVSPost2010Prop44ColorIndex
 90
        5
102
RTVSPost2010Prop44ColorRGB
 90
      255
102
RTVSPost2010PropOp44
 70
     0
102
RTVSPost2010Prop45
280
     0
102
RTVSPost2010PropOp45
 70
     0
102
RTVSPost2010Prop46
 90
       50
102
RTVSPost2010PropOp46
 70
     0
102
RTVSPost2010Prop47
 90
       50
102
RTVSPost2010PropOp47
 70
     0
102
RTVSPost2010Prop48
 90
       50
102
RTVSPost2010PropOp48
 70
     0
102
RTVSPost2010Prop49
280
     0
102
RTVSPost2010PropOp49
 70
     0
102
RTVSPost2010Prop50
 90
       50
102
RTVSPost2010PropOp50
 70
     0
102
RTVSPost2010Prop51ColorIndex
 90
      256
102
RTVSPost2010Prop51ColorRGB
 90
-16777216
102
RTVSPost2010PropOp51
 70
     0
102
RTVSPost2010Prop52
140
1.0
102
RTVSPost2010PropOp52
 70
     0
102
RTVSPost2010Prop53
 90
        2
102
RTVSPost2010PropOp53
 70
     0
102
RTVSPost2010Prop54
  1
strokes_ogs.tif
102
RTVSPost2010PropOp54
 70
     0
102
RTVSPost2010Prop55
280
     0
102
RTVSPost2010PropOp55
 70
     0
102
RTVSPost2010Prop56
140
1.0
102
RTVSPost2010PropOp56
 70
     0
102
RTVSPost2010Prop57
140
1.0
102
RTVSPost2010PropOp57
 70
     0
  0
XRECORD
  5
12D
102
{ACAD_REACTORS
330
12C
102
}
330
12C
100
AcDbXrecord
280
     1
102
RTVSPost2010Prop28
280
     0
102
RTVSPost2010PropOp28
 70
     1
102
RTVSPost2010Prop29
280
     1
102
RTVSPost2010PropOp29
 70
     1
102
RTVSPost2010Prop30
280
     1
102
RTVSPost2010PropOp30
 70
     1
102
RTVSPost2010Prop31
280
     0
102
RTVSPost2010PropOp31
 70
     1
102
RTVSPost2010Prop32
280
     0
102
RTVSPost2010PropOp32
 70
     1
102
RTVSPost2010Prop33
280
     0
102
RTVSPost2010PropOp33
 70
     1
102
RTVSPost2010Prop34
280
     0
102
RTVSPost2010PropOp34
 70
     1
102
RTVSPost2010Prop35
280
     0
102
RTVSPost2010PropOp35
 70
     1
102
RTVSPost2010Prop36
280
     0
102
RTVSPost2010PropOp36
 70
     1
102
RTVSPost2010Prop37
 90
       50
102
RTVSPost2010PropOp37
 70
     1
102
RTVSPost2010Prop38
140
0.0
102
RTVSPost2010PropOp38
 70
     1
102
RTVSPost2010Prop39
140
1.0
102
RTVSPost2010PropOp39
 70
     1
102
RTVSPost2010Prop40
 90
        0
102
RTVSPost2010PropOp40
 70
     1
102
RTVSPost2010Prop41ColorIndex
 90
       18
102
RTVSPost2010Prop41ColorRGB
 90
        0
102
RTVSPost2010PropOp41
 70
     1
102
RTVSPost2010Prop42
 90
       50
102
RTVSPost2010PropOp42
 70
     1
102
RTVSPost2010Prop43
 90
        3
102
RTVSPost2010PropOp43
 70
     1
102
RTVSPost2010Prop44ColorIndex
 90
        5
102
RTVSPost2010Prop44ColorRGB
 90
      255
102
RTVSPost2010PropOp44
 70
     1
102
RTVSPost2010Prop45
280
     0
102
RTVSPost2010PropOp45
 70
     1
102
RTVSPost2010Prop46
 90
       50
102
RTVSPost2010PropOp46
 70
     1
102
RTVSPost2010Prop47
 90
       50
102
RTVSPost2010PropOp47
 70
     1
102
RTVSPost2010Prop48
 90
       50
102
RTVSPost2010PropOp48
 70
     1
102
RTVSPost2010Prop49
280
     0
102
RTVSPost2010PropOp49
 70
     1
102
RTVSPost2010Prop50
 90
       50
102
RTVSPost2010PropOp50
 70
     1
102
RTVSPost2010Prop51ColorIndex
 90
      256
102
RTVSPost2010Prop51ColorRGB
 90
-16777216
102
RTVSPost2010PropOp51
 70
     0
102
RTVSPost2010Prop52
140
1.0
102
RTVSPost2010PropOp52
 70
     0
102
RTVSPost2010Prop53
 90
        2
102
RTVSPost2010PropOp53
 70
     1
102
RTVSPost2010Prop54
  1
strokes_ogs.tif
102
RTVSPost2010PropOp54
 70
     1
102
RTVSPost2010Prop55
280
     0
102
RTVSPost2010PropOp55
 70
     1
102
RTVSPost2010Prop56
140
1.0
102
RTVSPost2010PropOp56
 70
     1
102
RTVSPost2010Prop57
140
1.0
102
RTVSPost2010PropOp57
 70
     1
  0
XRECORD
  5
13F
102
{ACAD_REACTORS
330
13E
102
}
330
13E
100
AcDbXrecord
280
     1
102
RTVSPost2010Prop28
280
     0
102
RTVSPost2010PropOp28
 70
     0
102
RTVSPost2010Prop29
280
     1
102
RTVSPost2010PropOp29
 70
     0
102
RTVSPost2010Prop30
280
     1
102
RTVSPost2010PropOp30
 70
     0
102
RTVSPost2010Prop31
280
     0
102
RTVSPost2010PropOp31
 70
     0
102
RTVSPost2010Prop32
280
     0
102
RTVSPost2010PropOp32
 70
     0
102
RTVSPost2010Prop33
280
     0
102
RTVSPost2010PropOp33
 70
     0
102
RTVSPost2010Prop34
280
     0
102
RTVSPost2010PropOp34
 70
     0
102
RTVSPost2010Prop35
280
     0
102
RTVSPost2010PropOp35
 70
     0
102
RTVSPost2010Prop36
280
     0
102
RTVSPost2010PropOp36
 70
     0
102
RTVSPost2010Prop37
 90
       50
102
RTVSPost2010PropOp37
 70
     0
102
RTVSPost2010Prop38
140
0.0
102
RTVSPost2010PropOp38
 70
     0
102
RTVSPost2010Prop39
140
1.0
102
RTVSPost2010PropOp39
 70
     0
102
RTVSPost2010Prop40
 90
        0
102
RTVSPost2010PropOp40
 70
     0
102
RTVSPost2010Prop41ColorIndex
 90
       18
102
RTVSPost2010Prop41ColorRGB
 90
        0
102
RTVSPost2010PropOp41
 70
     0
102
RTVSPost2010Prop42
 90
       50
102
RTVSPost2010PropOp42
 70
     0
102
RTVSPost2010Prop43
 90
        3
102
RTVSPost2010PropOp43
 70
     0
102
RTVSPost2010Prop44ColorIndex
 90
        5
102
RTVSPost2010Prop44ColorRGB
 90
      255
102
RTVSPost2010PropOp44
 70
     0
102
RTVSPost2010Prop45
280
     0
102
RTVSPost2010PropOp45
 70
     0
102
RTVSPost2010Prop46
 90
       50
102
RTVSPost2010PropOp46
 70
     0
102
RTVSPost2010Prop47
 90
       50
102
RTVSPost2010PropOp47
 70
     0
102
RTVSPost2010Prop48
 90
       50
102
RTVSPost2010PropOp48
 70
     0
102
RTVSPost2010Prop49
280
     0
102
RTVSPost2010PropOp49
 70
     0
102
RTVSPost2010Prop50
 90
       50
102
RTVSPost2010PropOp50
 70
     0
102
RTVSPost2010Prop51ColorIndex
 90
      256
102
RTVSPost2010Prop51ColorRGB
 90
-16777216
102
RTVSPost2010PropOp51
 70
     0
102
RTVSPost2010Prop52
140
1.0
102
RTVSPost2010PropOp52
 70
     0
102
RTVSPost2010Prop53
 90
        2
102
RTVSPost2010PropOp53
 70
     0
102
RTVSPost2010Prop54
  1
strokes_ogs.tif
102
RTVSPost2010PropOp54
 70
     0
102
RTVSPost2010Prop55
280
     0
102
RTVSPost2010PropOp55
 70
     0
102
RTVSPost2010Prop56
140
1.0
102
RTVSPost2010PropOp56
 70
     0
102
RTVSPost2010Prop57
140
1.0
102
RTVSPost2010PropOp57
 70
     0
  0
XRECORD
  5
125
102
{ACAD_REACTORS
330
124
102
}
330
124
100
AcDbXrecord
280
     1
102
RTVSPost2010Prop28
280
     0
102
RTVSPost2010PropOp28
 70
     1
102
RTVSPost2010Prop29
280
     1
102
RTVSPost2010PropOp29
 70
     1
102
RTVSPost2010Prop30
280
     1
102
RTVSPost2010PropOp30
 70
     1
102
RTVSPost2010Prop31
280
     0
102
RTVSPost2010PropOp31
 70
     1
102
RTVSPost2010Prop32
280
     0
102
RTVSPost2010PropOp32
 70
     1
102
RTVSPost2010Prop33
280
     0
102
RTVSPost2010PropOp33
 70
     1
102
RTVSPost2010Prop34
280
     0
102
RTVSPost2010PropOp34
 70
     1
102
RTVSPost2010Prop35
280
     0
102
RTVSPost2010PropOp35
 70
     1
102
RTVSPost2010Prop36
280
     0
102
RTVSPost2010PropOp36
 70
     1
102
RTVSPost2010Prop37
 90
       50
102
RTVSPost2010PropOp37
 70
     1
102
RTVSPost2010Prop38
140
0.0
102
RTVSPost2010PropOp38
 70
     1
102
RTVSPost2010Prop39
140
1.0
102
RTVSPost2010PropOp39
 70
     1
102
RTVSPost2010Prop40
 90
        0
102
RTVSPost2010PropOp40
 70
     1
102
RTVSPost2010Prop41ColorIndex
 90
       18
102
RTVSPost2010Prop41ColorRGB
 90
        0
102
RTVSPost2010PropOp41
 70
     1
102
RTVSPost2010Prop42
 90
       50
102
RTVSPost2010PropOp42
 70
     1
102
RTVSPost2010Prop43
 90
        3
102
RTVSPost2010PropOp43
 70
     1
102
RTVSPost2010Prop44ColorIndex
 90
        5
102
RTVSPost2010Prop44ColorRGB
 90
      255
102
RTVSPost2010PropOp44
 70
     1
102
RTVSPost2010Prop45
280
     0
102
RTVSPost2010PropOp45
 70
     1
102
RTVSPost2010Prop46
 90
       50
102
RTVSPost2010PropOp46
 70
     1
102
RTVSPost2010Prop47
 90
       50
102
RTVSPost2010PropOp47
 70
     1
102
RTVSPost2010Prop48
 90
       50
102
RTVSPost2010PropOp48
 70
     1
102
RTVSPost2010Prop49
280
     0
102
RTVSPost2010PropOp49
 70
     1
102
RTVSPost2010Prop50
 90
       50
102
RTVSPost2010PropOp50
 70
     1
102
RTVSPost2010Prop51ColorIndex
 90
      256
102
RTVSPost2010Prop51ColorRGB
 90
-16777216
102
RTVSPost2010PropOp51
 70
     0
102
RTVSPost2010Prop52
140
1.0
102
RTVSPost2010PropOp52
 70
     0
102
RTVSPost2010Prop53
 90
        2
102
RTVSPost2010PropOp53
 70
     1
102
RTVSPost2010Prop54
  1
strokes_ogs.tif
102
RTVSPost2010PropOp54
 70
     1
102
RTVSPost2010Prop55
280
     0
102
RTVSPost2010PropOp55
 70
     1
102
RTVSPost2010Prop56
140
1.0
102
RTVSPost2010PropOp56
 70
     1
102
RTVSPost2010Prop57
140
1.0
102
RTVSPost2010PropOp57
 70
     1
  0
XRECORD
  5
13B
102
{ACAD_REACTORS
330
13A
102
}
330
13A
100
AcDbXrecord
280
     1
102
RTVSPost2010Prop28
280
     0
102
RTVSPost2010PropOp28
 70
     1
102
RTVSPost2010Prop29
280
     1
102
RTVSPost2010PropOp29
 70
     1
102
RTVSPost2010Prop30
280
     1
102
RTVSPost2010PropOp30
 70
     1
102
RTVSPost2010Prop31
280
     0
102
RTVSPost2010PropOp31
 70
     1
102
RTVSPost2010Prop32
280
     0
102
RTVSPost2010PropOp32
 70
     1
102
RTVSPost2010Prop33
280
     0
102
RTVSPost2010PropOp33
 70
     1
102
RTVSPost2010Prop34
280
     0
102
RTVSPost2010PropOp34
 70
     1
102
RTVSPost2010Prop35
280
     0
102
RTVSPost2010PropOp35
 70
     1
102
RTVSPost2010Prop36
280
     0
102
RTVSPost2010PropOp36
 70
     1
102
RTVSPost2010Prop37
 90
       50
102
RTVSPost2010PropOp37
 70
     1
102
RTVSPost2010Prop38
140
0.0
102
RTVSPost2010PropOp38
 70
     1
102
RTVSPost2010Prop39
140
1.0
102
RTVSPost2010PropOp39
 70
     1
102
RTVSPost2010Prop40
 90
        0
102
RTVSPost2010PropOp40
 70
     1
102
RTVSPost2010Prop41ColorIndex
 90
       18
102
RTVSPost2010Prop41ColorRGB
 90
        0
102
RTVSPost2010PropOp41
 70
     1
102
RTVSPost2010Prop42
 90
       50
102
RTVSPost2010PropOp42
 70
     1
102
RTVSPost2010Prop43
 90
        3
102
RTVSPost2010PropOp43
 70
     1
102
RTVSPost2010Prop44ColorIndex
 90
        5
102
RTVSPost2010Prop44ColorRGB
 90
      255
102
RTVSPost2010PropOp44
 70
     1
102
RTVSPost2010Prop45
280
     0
102
RTVSPost2010PropOp45
 70
     1
102
RTVSPost2010Prop46
 90
       50
102
RTVSPost2010PropOp46
 70
     1
102
RTVSPost2010Prop47
 90
       50
102
RTVSPost2010PropOp47
 70
     1
102
RTVSPost2010Prop48
 90
       50
102
RTVSPost2010PropOp48
 70
     1
102
RTVSPost2010Prop49
280
     0
102
RTVSPost2010PropOp49
 70
     1
102
RTVSPost2010Prop50
 90
       50
102
RTVSPost2010PropOp50
 70
     1
102
RTVSPost2010Prop51ColorIndex
 90
      256
102
RTVSPost2010Prop51ColorRGB
 90
-16777216
102
RTVSPost2010PropOp51
 70
     0
102
RTVSPost2010Prop52
140
1.0
102
RTVSPost2010PropOp52
 70
     0
102
RTVSPost2010Prop53
 90
        2
102
RTVSPost2010PropOp53
 70
     1
102
RTVSPost2010Prop54
  1
strokes_ogs.tif
102
RTVSPost2010PropOp54
 70
     1
102
RTVSPost2010Prop55
280
     0
102
RTVSPost2010PropOp55
 70
     1
102
RTVSPost2010Prop56
140
1.0
102
RTVSPost2010PropOp56
 70
     1
102
RTVSPost2010Prop57
140
1.0
102
RTVSPost2010PropOp57
 70
     1
  0
XRECORD
  5
139
102
{ACAD_REACTORS
330
138
102
}
330
138
100
AcDbXrecord
280
     1
102
RTVSPost2010Prop28
280
     0
102
RTVSPost2010PropOp28
 70
     1
102
RTVSPost2010Prop29
280
     1
102
RTVSPost2010PropOp29
 70
     1
102
RTVSPost2010Prop30
280
     1
102
RTVSPost2010PropOp30
 70
     1
102
RTVSPost2010Prop31
280
     0
102
RTVSPost2010PropOp31
 70
     1
102
RTVSPost2010Prop32
280
     0
102
RTVSPost2010PropOp32
 70
     1
102
RTVSPost2010Prop33
280
     0
102
RTVSPost2010PropOp33
 70
     1
102
RTVSPost2010Prop34
280
     0
102
RTVSPost2010PropOp34
 70
     1
102
RTVSPost2010Prop35
280
     0
102
RTVSPost2010PropOp35
 70
     1
102
RTVSPost2010Prop36
280
     0
102
RTVSPost2010PropOp36
 70
     1
102
RTVSPost2010Prop37
 90
       50
102
RTVSPost2010PropOp37
 70
     1
102
RTVSPost2010Prop38
140
0.0
102
RTVSPost2010PropOp38
 70
     1
102
RTVSPost2010Prop39
140
1.0
102
RTVSPost2010PropOp39
 70
     1
102
RTVSPost2010Prop40
 90
        0
102
RTVSPost2010PropOp40
 70
     1
102
RTVSPost2010Prop41ColorIndex
 90
       18
102
RTVSPost2010Prop41ColorRGB
 90
        0
102
RTVSPost2010PropOp41
 70
     1
102
RTVSPost2010Prop42
 90
       50
102
RTVSPost2010PropOp42
 70
     1
102
RTVSPost2010Prop43
 90
        3
102
RTVSPost2010PropOp43
 70
     1
102
RTVSPost2010Prop44ColorIndex
 90
        5
102
RTVSPost2010Prop44ColorRGB
 90
      255
102
RTVSPost2010PropOp44
 70
     1
102
RTVSPost2010Prop45
280
     0
102
RTVSPost2010PropOp45
 70
     1
102
RTVSPost2010Prop46
 90
       50
102
RTVSPost2010PropOp46
 70
     1
102
RTVSPost2010Prop47
 90
       50
102
RTVSPost2010PropOp47
 70
     1
102
RTVSPost2010Prop48
 90
       50
102
RTVSPost2010PropOp48
 70
     1
102
RTVSPost2010Prop49
280
     0
102
RTVSPost2010PropOp49
 70
     1
102
RTVSPost2010Prop50
 90
       50
102
RTVSPost2010PropOp50
 70
     1
102
RTVSPost2010Prop51ColorIndex
 90
      256
102
RTVSPost2010Prop51ColorRGB
 90
-16777216
102
RTVSPost2010PropOp51
 70
     0
102
RTVSPost2010Prop52
140
1.0
102
RTVSPost2010PropOp52
 70
     0
102
RTVSPost2010Prop53
 90
        2
102
RTVSPost2010PropOp53
 70
     1
102
RTVSPost2010Prop54
  1
strokes_ogs.tif
102
RTVSPost2010PropOp54
 70
     1
102
RTVSPost2010Prop55
280
     0
102
RTVSPost2010PropOp55
 70
     1
102
RTVSPost2010Prop56
140
1.0
102
RTVSPost2010PropOp56
 70
     1
102
RTVSPost2010Prop57
140
1.0
102
RTVSPost2010PropOp57
 70
     1
  0
XRECORD
  5
133
102
{ACAD_REACTORS
330
132
102
}
330
132
100
AcDbXrecord
280
     1
102
RTVSPost2010Prop28
280
     0
102
RTVSPost2010PropOp28
 70
     1
102
RTVSPost2010Prop29
280
     1
102
RTVSPost2010PropOp29
 70
     1
102
RTVSPost2010Prop30
280
     1
102
RTVSPost2010PropOp30
 70
     1
102
RTVSPost2010Prop31
280
     0
102
RTVSPost2010PropOp31
 70
     1
102
RTVSPost2010Prop32
280
     0
102
RTVSPost2010PropOp32
 70
     1
102
RTVSPost2010Prop33
280
     0
102
RTVSPost2010PropOp33
 70
     1
102
RTVSPost2010Prop34
280
     0
102
RTVSPost2010PropOp34
 70
     1
102
RTVSPost2010Prop35
280
     0
102
RTVSPost2010PropOp35
 70
     1
102
RTVSPost2010Prop36
280
     0
102
RTVSPost2010PropOp36
 70
     1
102
RTVSPost2010Prop37
 90
       50
102
RTVSPost2010PropOp37
 70
     1
102
RTVSPost2010Prop38
140
0.0
102
RTVSPost2010PropOp38
 70
     1
102
RTVSPost2010Prop39
140
1.0
102
RTVSPost2010PropOp39
 70
     1
102
RTVSPost2010Prop40
 90
        0
102
RTVSPost2010PropOp40
 70
     1
102
RTVSPost2010Prop41ColorIndex
 90
       18
102
RTVSPost2010Prop41ColorRGB
 90
        0
102
RTVSPost2010PropOp41
 70
     1
102
RTVSPost2010Prop42
 90
       50
102
RTVSPost2010PropOp42
 70
     1
102
RTVSPost2010Prop43
 90
        3
102
RTVSPost2010PropOp43
 70
     1
102
RTVSPost2010Prop44ColorIndex
 90
        5
102
RTVSPost2010Prop44ColorRGB
 90
      255
102
RTVSPost2010PropOp44
 70
     1
102
RTVSPost2010Prop45
280
     0
102
RTVSPost2010PropOp45
 70
     1
102
RTVSPost2010Prop46
 90
       50
102
RTVSPost2010PropOp46
 70
     1
102
RTVSPost2010Prop47
 90
       50
102
RTVSPost2010PropOp47
 70
     1
102
RTVSPost2010Prop48
 90
       50
102
RTVSPost2010PropOp48
 70
     1
102
RTVSPost2010Prop49
280
     0
102
RTVSPost2010PropOp49
 70
     1
102
RTVSPost2010Prop50
 90
       50
102
RTVSPost2010PropOp50
 70
     1
102
RTVSPost2010Prop51ColorIndex
 90
      256
102
RTVSPost2010Prop51ColorRGB
 90
-16777216
102
RTVSPost2010PropOp51
 70
     0
102
RTVSPost2010Prop52
140
1.0
102
RTVSPost2010PropOp52
 70
     0
102
RTVSPost2010Prop53
 90
        2
102
RTVSPost2010PropOp53
 70
     1
102
RTVSPost2010Prop54
  1
strokes_ogs.tif
102
RTVSPost2010PropOp54
 70
     1
102
RTVSPost2010Prop55
280
     0
102
RTVSPost2010PropOp55
 70
     1
102
RTVSPost2010Prop56
140
1.0
102
RTVSPost2010PropOp56
 70
     1
102
RTVSPost2010Prop57
140
1.0
102
RTVSPost2010PropOp57
 70
     1
  0
XRECORD
  5
135
102
{ACAD_REACTORS
330
134
102
}
330
134
100
AcDbXrecord
280
     1
102
RTVSPost2010Prop28
280
     0
102
RTVSPost2010PropOp28
 70
     1
102
RTVSPost2010Prop29
280
     1
102
RTVSPost2010PropOp29
 70
     1
102
RTVSPost2010Prop30
280
     1
102
RTVSPost2010PropOp30
 70
     1
102
RTVSPost2010Prop31
280
     0
102
RTVSPost2010PropOp31
 70
     1
102
RTVSPost2010Prop32
280
     0
102
RTVSPost2010PropOp32
 70
     1
102
RTVSPost2010Prop33
280
     0
102
RTVSPost2010PropOp33
 70
     1
102
RTVSPost2010Prop34
280
     0
102
RTVSPost2010PropOp34
 70
     1
102
RTVSPost2010Prop35
280
     0
102
RTVSPost2010PropOp35
 70
     1
102
RTVSPost2010Prop36
280
     0
102
RTVSPost2010PropOp36
 70
     1
102
RTVSPost2010Prop37
 90
       50
102
RTVSPost2010PropOp37
 70
     1
102
RTVSPost2010Prop38
140
0.0
102
RTVSPost2010PropOp38
 70
     1
102
RTVSPost2010Prop39
140
1.0
102
RTVSPost2010PropOp39
 70
     1
102
RTVSPost2010Prop40
 90
        0
102
RTVSPost2010PropOp40
 70
     1
102
RTVSPost2010Prop41ColorIndex
 90
       18
102
RTVSPost2010Prop41ColorRGB
 90
        0
102
RTVSPost2010PropOp41
 70
     1
102
RTVSPost2010Prop42
 90
       50
102
RTVSPost2010PropOp42
 70
     1
102
RTVSPost2010Prop43
 90
        3
102
RTVSPost2010PropOp43
 70
     1
102
RTVSPost2010Prop44ColorIndex
 90
        5
102
RTVSPost2010Prop44ColorRGB
 90
      255
102
RTVSPost2010PropOp44
 70
     1
102
RTVSPost2010Prop45
280
     0
102
RTVSPost2010PropOp45
 70
     1
102
RTVSPost2010Prop46
 90
       50
102
RTVSPost2010PropOp46
 70
     1
102
RTVSPost2010Prop47
 90
       50
102
RTVSPost2010PropOp47
 70
     1
102
RTVSPost2010Prop48
 90
       50
102
RTVSPost2010PropOp48
 70
     1
102
RTVSPost2010Prop49
280
     0
102
RTVSPost2010PropOp49
 70
     1
102
RTVSPost2010Prop50
 90
       50
102
RTVSPost2010PropOp50
 70
     1
102
RTVSPost2010Prop51ColorIndex
 90
      256
102
RTVSPost2010Prop51ColorRGB
 90
-16777216
102
RTVSPost2010PropOp51
 70
     0
102
RTVSPost2010Prop52
140
1.0
102
RTVSPost2010PropOp52
 70
     0
102
RTVSPost2010Prop53
 90
        2
102
RTVSPost2010PropOp53
 70
     1
102
RTVSPost2010Prop54
  1
strokes_ogs.tif
102
RTVSPost2010PropOp54
 70
     1
102
RTVSPost2010Prop55
280
     0
102
RTVSPost2010PropOp55
 70
     1
102
RTVSPost2010Prop56
140
1.0
102
RTVSPost2010PropOp56
 70
     1
102
RTVSPost2010Prop57
140
1.0
102
RTVSPost2010PropOp57
 70
     1
  0
XRECORD
  5
12B
102
{ACAD_REACTORS
330
12A
102
}
330
12A
100
AcDbXrecord
280
     1
102
RTVSPost2010Prop28
280
     0
102
RTVSPost2010PropOp28
 70
     1
102
RTVSPost2010Prop29
280
     1
102
RTVSPost2010PropOp29
 70
     1
102
RTVSPost2010Prop30
280
     1
102
RTVSPost2010PropOp30
 70
     1
102
RTVSPost2010Prop31
280
     0
102
RTVSPost2010PropOp31
 70
     1
102
RTVSPost2010Prop32
280
     0
102
RTVSPost2010PropOp32
 70
     1
102
RTVSPost2010Prop33
280
     0
102
RTVSPost2010PropOp33
 70
     1
102
RTVSPost2010Prop34
280
     0
102
RTVSPost2010PropOp34
 70
     1
102
RTVSPost2010Prop35
280
     0
102
RTVSPost2010PropOp35
 70
     1
102
RTVSPost2010Prop36
280
     0
102
RTVSPost2010PropOp36
 70
     1
102
RTVSPost2010Prop37
 90
       50
102
RTVSPost2010PropOp37
 70
     1
102
RTVSPost2010Prop38
140
0.0
102
RTVSPost2010PropOp38
 70
     1
102
RTVSPost2010Prop39
140
1.0
102
RTVSPost2010PropOp39
 70
     1
102
RTVSPost2010Prop40
 90
        0
102
RTVSPost2010PropOp40
 70
     1
102
RTVSPost2010Prop41ColorIndex
 90
       18
102
RTVSPost2010Prop41ColorRGB
 90
        0
102
RTVSPost2010PropOp41
 70
     1
102
RTVSPost2010Prop42
 90
       50
102
RTVSPost2010PropOp42
 70
     1
102
RTVSPost2010Prop43
 90
        3
102
RTVSPost2010PropOp43
 70
     1
102
RTVSPost2010Prop44ColorIndex
 90
        5
102
RTVSPost2010Prop44ColorRGB
 90
      255
102
RTVSPost2010PropOp44
 70
     1
102
RTVSPost2010Prop45
280
     0
102
RTVSPost2010PropOp45
 70
     1
102
RTVSPost2010Prop46
 90
       50
102
RTVSPost2010PropOp46
 70
     1
102
RTVSPost2010Prop47
 90
       50
102
RTVSPost2010PropOp47
 70
     1
102
RTVSPost2010Prop48
 90
       50
102
RTVSPost2010PropOp48
 70
     1
102
RTVSPost2010Prop49
280
     0
102
RTVSPost2010PropOp49
 70
     1
102
RTVSPost2010Prop50
 90
       50
102
RTVSPost2010PropOp50
 70
     1
102
RTVSPost2010Prop51ColorIndex
 90
      256
102
RTVSPost2010Prop51ColorRGB
 90
-16777216
102
RTVSPost2010PropOp51
 70
     0
102
RTVSPost2010Prop52
140
1.0
102
RTVSPost2010PropOp52
 70
     0
102
RTVSPost2010Prop53
 90
        2
102
RTVSPost2010PropOp53
 70
     1
102
RTVSPost2010Prop54
  1
strokes_ogs.tif
102
RTVSPost2010PropOp54
 70
     1
102
RTVSPost2010Prop55
280
     0
102
RTVSPost2010PropOp55
 70
     1
102
RTVSPost2010Prop56
140
1.0
102
RTVSPost2010PropOp56
 70
     1
102
RTVSPost2010Prop57
140
1.0
102
RTVSPost2010PropOp57
 70
     1
  0
XRECORD
  5
11F
102
{ACAD_REACTORS
330
11E
102
}
330
11E
100
AcDbXrecord
280
     1
102
RTVSPost2010Prop28
280
     0
102
RTVSPost2010PropOp28
 70
     1
102
RTVSPost2010Prop29
280
     1
102
RTVSPost2010PropOp29
 70
     1
102
RTVSPost2010Prop30
280
     1
102
RTVSPost2010PropOp30
 70
     1
102
RTVSPost2010Prop31
280
     0
102
RTVSPost2010PropOp31
 70
     1
102
RTVSPost2010Prop32
280
     0
102
RTVSPost2010PropOp32
 70
     1
102
RTVSPost2010Prop33
280
     0
102
RTVSPost2010PropOp33
 70
     1
102
RTVSPost2010Prop34
280
     0
102
RTVSPost2010PropOp34
 70
     1
102
RTVSPost2010Prop35
280
     0
102
RTVSPost2010PropOp35
 70
     1
102
RTVSPost2010Prop36
280
     0
102
RTVSPost2010PropOp36
 70
     1
102
RTVSPost2010Prop37
 90
       50
102
RTVSPost2010PropOp37
 70
     1
102
RTVSPost2010Prop38
140
0.0
102
RTVSPost2010PropOp38
 70
     1
102
RTVSPost2010Prop39
140
1.0
102
RTVSPost2010PropOp39
 70
     1
102
RTVSPost2010Prop40
 90
        0
102
RTVSPost2010PropOp40
 70
     1
102
RTVSPost2010Prop41ColorIndex
 90
       18
102
RTVSPost2010Prop41ColorRGB
 90
        0
102
RTVSPost2010PropOp41
 70
     1
102
RTVSPost2010Prop42
 90
       50
102
RTVSPost2010PropOp42
 70
     1
102
RTVSPost2010Prop43
 90
        3
102
RTVSPost2010PropOp43
 70
     1
102
RTVSPost2010Prop44ColorIndex
 90
        5
102
RTVSPost2010Prop44ColorRGB
 90
      255
102
RTVSPost2010PropOp44
 70
     1
102
RTVSPost2010Prop45
280
     0
102
RTVSPost2010PropOp45
 70
     1
102
RTVSPost2010Prop46
 90
       50
102
RTVSPost2010PropOp46
 70
     1
102
RTVSPost2010Prop47
 90
       50
102
RTVSPost2010PropOp47
 70
     1
102
RTVSPost2010Prop48
 90
       50
102
RTVSPost2010PropOp48
 70
     1
102
RTVSPost2010Prop49
280
     0
102
RTVSPost2010PropOp49
 70
     1
102
RTVSPost2010Prop50
 90
       50
102
RTVSPost2010PropOp50
 70
     1
102
RTVSPost2010Prop51ColorIndex
 90
      256
102
RTVSPost2010Prop51ColorRGB
 90
-16777216
102
RTVSPost2010PropOp51
 70
     0
102
RTVSPost2010Prop52
140
1.0
102
RTVSPost2010PropOp52
 70
     0
102
RTVSPost2010Prop53
 90
        2
102
RTVSPost2010PropOp53
 70
     1
102
RTVSPost2010Prop54
  1
strokes_ogs.tif
102
RTVSPost2010PropOp54
 70
     1
102
RTVSPost2010Prop55
280
     0
102
RTVSPost2010PropOp55
 70
     1
102
RTVSPost2010Prop56
140
1.0
102
RTVSPost2010PropOp56
 70
     1
102
RTVSPost2010Prop57
140
1.0
102
RTVSPost2010PropOp57
 70
     1
  0
XRECORD
  5
137
102
{ACAD_REACTORS
330
136
102
}
330
136
100
AcDbXrecord
280
     1
102
RTVSPost2010Prop28
280
     0
102
RTVSPost2010PropOp28
 70
     1
102
RTVSPost2010Prop29
280
     1
102
RTVSPost2010PropOp29
 70
     1
102
RTVSPost2010Prop30
280
     1
102
RTVSPost2010PropOp30
 70
     1
102
RTVSPost2010Prop31
280
     0
102
RTVSPost2010PropOp31
 70
     1
102
RTVSPost2010Prop32
280
     0
102
RTVSPost2010PropOp32
 70
     1
102
RTVSPost2010Prop33
280
     0
102
RTVSPost2010PropOp33
 70
     1
102
RTVSPost2010Prop34
280
     0
102
RTVSPost2010PropOp34
 70
     1
102
RTVSPost2010Prop35
280
     0
102
RTVSPost2010PropOp35
 70
     1
102
RTVSPost2010Prop36
280
     0
102
RTVSPost2010PropOp36
 70
     1
102
RTVSPost2010Prop37
 90
       50
102
RTVSPost2010PropOp37
 70
     1
102
RTVSPost2010Prop38
140
0.0
102
RTVSPost2010PropOp38
 70
     1
102
RTVSPost2010Prop39
140
1.0
102
RTVSPost2010PropOp39
 70
     1
102
RTVSPost2010Prop40
 90
        0
102
RTVSPost2010PropOp40
 70
     1
102
RTVSPost2010Prop41ColorIndex
 90
       18
102
RTVSPost2010Prop41ColorRGB
 90
        0
102
RTVSPost2010PropOp41
 70
     1
102
RTVSPost2010Prop42
 90
       50
102
RTVSPost2010PropOp42
 70
     1
102
RTVSPost2010Prop43
 90
        3
102
RTVSPost2010PropOp43
 70
     1
102
RTVSPost2010Prop44ColorIndex
 90
        5
102
RTVSPost2010Prop44ColorRGB
 90
      255
102
RTVSPost2010PropOp44
 70
     1
102
RTVSPost2010Prop45
280
     0
102
RTVSPost2010PropOp45
 70
     1
102
RTVSPost2010Prop46
 90
       50
102
RTVSPost2010PropOp46
 70
     1
102
RTVSPost2010Prop47
 90
       50
102
RTVSPost2010PropOp47
 70
     1
102
RTVSPost2010Prop48
 90
       50
102
RTVSPost2010PropOp48
 70
     1
102
RTVSPost2010Prop49
280
     0
102
RTVSPost2010PropOp49
 70
     1
102
RTVSPost2010Prop50
 90
       50
102
RTVSPost2010PropOp50
 70
     1
102
RTVSPost2010Prop51ColorIndex
 90
      256
102
RTVSPost2010Prop51ColorRGB
 90
-16777216
102
RTVSPost2010PropOp51
 70
     0
102
RTVSPost2010Prop52
140
1.0
102
RTVSPost2010PropOp52
 70
     0
102
RTVSPost2010Prop53
 90
        2
102
RTVSPost2010PropOp53
 70
     1
102
RTVSPost2010Prop54
  1
strokes_ogs.tif
102
RTVSPost2010PropOp54
 70
     1
102
RTVSPost2010Prop55
280
     0
102
RTVSPost2010PropOp55
 70
     1
102
RTVSPost2010Prop56
140
1.0
102
RTVSPost2010PropOp56
 70
     1
102
RTVSPost2010Prop57
140
1.0
102
RTVSPost2010PropOp57
 70
     1
  0
ENDSEC
  0
EOF
