  0
SECTION
  2
HEADER
  9
$ACADVER
  1
AC1024
  9
$ACADMAINTVER
 70
   226
  9
$DWGCODEPAGE
  3
ANSI_932
  9
$INSBASE
 10
0.0
 20
0.0
 30
0.0
  9
$EXTMIN
 10
1.000000000000000E+20
 20
1.000000000000000E+20
 30
1.000000000000000E+20
  9
$EXTMAX
 10
-1.000000000000000E+20
 20
-1.000000000000000E+20
 30
-1.000000000000000E+20
  9
$LIMMIN
 10
0.0
 20
0.0
  9
$LIMMAX
 10
12.0
 20
9.0
  9
$ORTHOMODE
 70
     0
  9
$REGENMODE
 70
     1
  9
$FILLMODE
 70
     1
  9
$QTEXTMODE
 70
     0
  9
$MIRRTEXT
 70
     0
  9
$LTSCALE
 40
1.0
  9
$ATTMODE
 70
     1
  9
$TEXTSIZE
 40
0.2
  9
$TRACEWID
 40
0.05
  9
$TEXTSTYLE
  7
Standard
  9
$CLAYER
  8
0
  9
$CELTYPE
  6
ByLayer
  9
$CECOLOR
 62
   256
  9
$CELTSCALE
 40
1.0
  9
$DISPSILH
 70
     0
  9
$DIMSCALE
 40
1.0
  9
$DIMASZ
 40
0.18
  9
$DIMEXO
 40
0.0625
  9
$DIMDLI
 40
0.38
  9
$DIMRND
 40
0.0
  9
$DIMDLE
 40
0.0
  9
$DIMEXE
 40
0.18
  9
$DIMTP
 40
0.0
  9
$DIMTM
 40
0.0
  9
$DIMTXT
 40
0.18
  9
$DIMCEN
 40
0.09
  9
$DIMTSZ
 40
0.0
  9
$DIMTOL
 70
     0
  9
$DIMLIM
 70
     0
  9
$DIMTIH
 70
     1
  9
$DIMTOH
 70
     1
  9
$DIMSE1
 70
     0
  9
$DIMSE2
 70
     0
  9
$DIMTAD
 70
     0
  9
$DIMZIN
 70
     0
  9
$DIMBLK
  1

  9
$DIMASO
 70
     1
  9
$DIMSHO
 70
     1
  9
$DIMPOST
  1

  9
$DIMAPOST
  1

  9
$DIMALT
 70
     0
  9
$DIMALTD
 70
     2
  9
$DIMALTF
 40
25.4
  9
$DIMLFAC
 40
1.0
  9
$DIMTOFL
 70
     0
  9
$DIMTVP
 40
0.0
  9
$DIMTIX
 70
     0
  9
$DIMSOXD
 70
     0
  9
$DIMSAH
 70
     0
  9
$DIMBLK1
  1

  9
$DIMBLK2
  1

  9
$DIMSTYLE
  2
Standard
  9
$DIMCLRD
 70
     0
  9
$DIMCLRE
 70
     0
  9
$DIMCLRT
 70
     0
  9
$DIMTFAC
 40
1.0
  9
$DIMGAP
 40
0.09
  9
$DIMJUST
 70
     0
  9
$DIMSD1
 70
     0
  9
$DIMSD2
 70
     0
  9
$DIMTOLJ
 70
     1
  9
$DIMTZIN
 70
     0
  9
$DIMALTZ
 70
     0
  9
$DIMALTTZ
 70
     0
  9
$DIMUPT
 70
     0
  9
$DIMDEC
 70
     4
  9
$DIMTDEC
 70
     4
  9
$DIMALTU
 70
     2
  9
$DIMALTTD
 70
     2
  9
$DIMTXSTY
  7
Standard
  9
$DIMAUNIT
 70
     0
  9
$DIMADEC
 70
     0
  9
$DIMALTRND
 40
0.0
  9
$DIMAZIN
 70
     0
  9
$DIMDSEP
 70
    46
  9
$DIMATFIT
 70
     3
  9
$DIMFRAC
 70
     0
  9
$DIMLDRBLK
  1

  9
$DIMLUNIT
 70
     2
  9
$DIMLWD
 70
    -2
  9
$DIMLWE
 70
    -2
  9
$DIMTMOVE
 70
     0
  9
$DIMFXL
 40
1.0
  9
$DIMFXLON
 70
     0
  9
$DIMJOGANG
 40
0.7853981633974483
  9
$DIMTFILL
 70
     0
  9
$DIMTFILLCLR
 70
     0
  9
$DIMARCSYM
 70
     0
  9
$DIMLTYPE
  6

  9
$DIMLTEX1
  6

  9
$DIMLTEX2
  6

  9
$DIMTXTDIRECTION
 70
     0
  9
$LUNITS
 70
     2
  9
$LUPREC
 70
     4
  9
$SKETCHINC
 40
0.1
  9
$FILLETRAD
 40
0.0
  9
$AUNITS
 70
     0
  9
$AUPREC
 70
     0
  9
$MENU
  1
.
  9
$ELEVATION
 40
0.0
  9
$PELEVATION
 40
0.0
  9
$THICKNESS
 40
0.0
  9
$LIMCHECK
 70
     0
  9
$CHAMFERA
 40
0.0
  9
$CHAMFERB
 40
0.0
  9
$CHAMFERC
 40
0.0
  9
$CHAMFERD
 40
0.0
  9
$SKPOLY
 70
     0
  9
$TDCREATE
 40
2459569.489953704
  9
$TDUCREATE
 40
2459569.114953704
  9
$TDUPDATE
 40
2459569.489953704
  9
$TDUUPDATE
 40
2459569.114953704
  9
$TDINDWG
 40
0.0000000000
  9
$TDUSRTIMER
 40
0.0000000000
  9
$USRTIMER
 70
     1
  9
$ANGBASE
 50
0.0
  9
$ANGDIR
 70
     0
  9
$PDMODE
 70
     0
  9
$PDSIZE
 40
0.0
  9
$PLINEWID
 40
0.0
  9
$SPLFRAME
 70
     0
  9
$SPLINETYPE
 70
     6
  9
$SPLINESEGS
 70
     8
  9
$HANDSEED
  5
149
  9
$SURFTAB1
 70
     6
  9
$SURFTAB2
 70
     6
  9
$SURFTYPE
 70
     6
  9
$SURFU
 70
     6
  9
$SURFV
 70
     6
  9
$UCSBASE
  2

  9
$UCSNAME
  2

  9
$UCSORG
 10
0.0
 20
0.0
 30
0.0
  9
$UCSXDIR
 10
1.0
 20
0.0
 30
0.0
  9
$UCSYDIR
 10
0.0
 20
1.0
 30
0.0
  9
$UCSORTHOREF
  2

  9
$UCSORTHOVIEW
 70
     0
  9
$UCSORGTOP
 10
0.0
 20
0.0
 30
0.0
  9
$UCSORGBOTTOM
 10
0.0
 20
0.0
 30
0.0
  9
$UCSORGLEFT
 10
0.0
 20
0.0
 30
0.0
  9
$UCSORGRIGHT
 10
0.0
 20
0.0
 30
0.0
  9
$UCSORGFRONT
 10
0.0
 20
0.0
 30
0.0
  9
$UCSORGBACK
 10
0.0
 20
0.0
 30
0.0
  9
$PUCSBASE
  2

  9
$PUCSNAME
  2

  9
$PUCSORG
 10
0.0
 20
0.0
 30
0.0
  9
$PUCSXDIR
 10
1.0
 20
0.0
 30
0.0
  9
$PUCSYDIR
 10
0.0
 20
1.0
 30
0.0
  9
$PUCSORTHOREF
  2

  9
$PUCSORTHOVIEW
 70
     0
  9
$PUCSORGTOP
 10
0.0
 20
0.0
 30
0.0
  9
$PUCSORGBOTTOM
 10
0.0
 20
0.0
 30
0.0
  9
$PUCSORGLEFT
 10
0.0
 20
0.0
 30
0.0
  9
$PUCSORGRIGHT
 10
0.0
 20
0.0
 30
0.0
  9
$PUCSORGFRONT
 10
0.0
 20
0.0
 30
0.0
  9
$PUCSORGBACK
 10
0.0
 20
0.0
 30
0.0
  9
$USERI1
 70
     0
  9
$USERI2
 70
     0
  9
$USERI3
 70
     0
  9
$USERI4
 70
     0
  9
$USERI5
 70
     0
  9
$USERR1
 40
0.0
  9
$USERR2
 40
0.0
  9
$USERR3
 40
0.0
  9
$USERR4
 40
0.0
  9
$USERR5
 40
0.0
  9
$WORLDVIEW
 70
     1
  9
$SHADEDGE
 70
     3
  9
$SHADEDIF
 70
    70
  9
$TILEMODE
 70
     1
  9
$MAXACTVP
 70
    64
  9
$PINSBASE
 10
0.0
 20
0.0
 30
0.0
  9
$PLIMCHECK
 70
     0
  9
$PEXTMIN
 10
1.000000000000000E+20
 20
1.000000000000000E+20
 30
1.000000000000000E+20
  9
$PEXTMAX
 10
-1.000000000000000E+20
 20
-1.000000000000000E+20
 30
-1.000000000000000E+20
  9
$PLIMMIN
 10
0.0
 20
0.0
  9
$PLIMMAX
 10
12.0
 20
9.0
  9
$UNITMODE
 70
     0
  9
$VISRETAIN
 70
     1
  9
$PLINEGEN
 70
     0
  9
$PSLTSCALE
 70
     1
  9
$TREEDEPTH
 70
  3020
  9
$CMLSTYLE
  2
Standard
  9
$CMLJUST
 70
     0
  9
$CMLSCALE
 40
1.0
  9
$PROXYGRAPHICS
 70
     1
  9
$MEASUREMENT
 70
     0
  9
$CELWEIGHT
370
    -1
  9
$ENDCAPS
280
     0
  9
$JOINSTYLE
280
     0
  9
$LWDISPLAY
290
     1
  9
$INSUNITS
 70
     4
  9
$HYPERLINKBASE
  1

  9
$STYLESHEET
  1

  9
$XEDIT
290
     1
  9
$CEPSNTYPE
380
     0
  9
$PSTYLEMODE
290
     1
  9
$FINGERPRINTGUID
  2
{E6E89258-9503-0C4B-AF02-40B973610CD0}
  9
$VERSIONGUID
  2
{B31279E8-1321-1F46-9894-7E56C044362E}
  9
$EXTNAMES
290
     1
  9
$PSVPSCALE
 40
0.0
  9
$OLESTARTUP
290
     0
  9
$SORTENTS
280
   127
  9
$INDEXCTL
280
     0
  9
$HIDETEXT
280
     1
  9
$XCLIPFRAME
280
     2
  9
$HALOGAP
280
     0
  9
$OBSCOLOR
 70
   257
  9
$OBSLTYPE
280
     0
  9
$INTERSECTIONDISPLAY
280
     0
  9
$INTERSECTIONCOLOR
 70
   257
  9
$DIMASSOC
280
     2
  9
$PROJECTNAME
  1

  9
$CAMERADISPLAY
290
     0
  9
$LENSLENGTH
 40
50.0
  9
$CAMERAHEIGHT
 40
0.0
  9
$STEPSPERSEC
 40
2.0
  9
$STEPSIZE
 40
6.0
  9
$3DDWFPREC
 40
2.0
  9
$PSOLWIDTH
 40
0.25
  9
$PSOLHEIGHT
 40
4.0
  9
$LOFTANG1
 40
1.570796326794896
  9
$LOFTANG2
 40
1.570796326794896
  9
$LOFTMAG1
 40
0.0
  9
$LOFTMAG2
 40
0.0
  9
$LOFTPARAM
 70
     7
  9
$LOFTNORMALS
280
     1
  9
$LATITUDE
 40
37.795
  9
$LONGITUDE
 40
-122.394
  9
$NORTHDIRECTION
 40
0.0
  9
$TIMEZONE
 70
 -8000
  9
$LIGHTGLYPHDISPLAY
280
     1
  9
$TILEMODELIGHTSYNCH
280
     1
  9
$CMATERIAL
347
11
  9
$SOLIDHIST
280
     0
  9
$SHOWHIST
280
     1
  9
$DWFFRAME
280
     2
  9
$DGNFRAME
280
     0
  9
$REALWORLDSCALE
290
     1
  9
$INTERFERECOLOR
 62
     1
  9
$INTERFEREOBJVS
345
33
  9
$INTERFEREVPVS
346
30
  9
$CSHADOW
280
     0
  9
$SHADOWPLANELOCATION
 40
0.0
  0
ENDSEC
  0
SECTION
  2
CLASSES
  0
CLASS
  1
ACDBDICTIONARYWDFLT
  2
AcDbDictionaryWithDefault
  3
ObjectDBX Classes
 90
        0
 91
        1
280
     0
281
     0
  0
CLASS
  1
MATERIAL
  2
AcDbMaterial
  3
ObjectDBX Classes
 90
     1153
 91
        3
280
     0
281
     0
  0
CLASS
  1
VISUALSTYLE
  2
AcDbVisualStyle
  3
ObjectDBX Classes
 90
     4095
 91
       24
280
     0
281
     0
  0
CLASS
  1
SCALE
  2
AcDbScale
  3
ObjectDBX Classes
 90
     1153
 91
       17
280
     0
281
     0
  0
CLASS
  1
TABLESTYLE
  2
AcDbTableStyle
  3
ObjectDBX Classes
 90
     4095
 91
        1
280
     0
281
     0
  0
CLASS
  1
MLEADERSTYLE
  2
AcDbMLeaderStyle
  3
ACDB_MLEADERSTYLE_CLASS
 90
     4095
 91
        1
280
     0
281
     0
  0
CLASS
  1
ACDBSECTIONVIEWSTYLE
  2
AcDbSectionViewStyle
  3
ObjectDBX Classes
 90
     1025
 91
        1
280
     0
281
     0
  0
CLASS
  1
ACDBDETAILVIEWSTYLE
  2
AcDbDetailViewStyle
  3
ObjectDBX Classes
 90
     1025
 91
        1
280
     0
281
     0
  0
CLASS
  1
DICTIONARYVAR
  2
AcDbDictionaryVar
  3
ObjectDBX Classes
 90
        0
 91
        5
280
     0
281
     0
  0
CLASS
  1
CELLSTYLEMAP
  2
AcDbCellStyleMap
  3
ObjectDBX Classes
 90
     1152
 91
        1
280
     0
281
     0
  0
ENDSEC
  0
SECTION
  2
TABLES
  0
TABLE
  2
VPORT
  5
8
330
0
100
AcDbSymbolTable
 70
     1
  0
VPORT
  5
57
330
8
100
AcDbSymbolTableRecord
100
AcDbViewportTableRecord
  2
*Active
 70
     0
 10
0.0
 20
0.0
 11
1.0
 21
1.0
 12
0.0
 22
0.0
 13
0.0
 23
0.0
 14
1.0
 24
1.0
 15
0.0
 25
0.0
 16
0.0
 26
0.0
 36
1.0
 17
104.9999999737534
 27
-148.4999999628701
 37
0.0
 40
302.939999924255
 41
0.7070707070707534
 42
50.0
 43
0.0
 44
0.0
 50
0.0
 51
0.0
 71
     0
 72
   100
 73
     1
 74
     0
 75
     1
 76
     0
 77
     0
 78
     0
281
     0
 65
     1
110
0.0
120
0.0
130
0.0
111
1.0
121
0.0
131
0.0
112
0.0
122
1.0
132
0.0
 79
     0
146
0.0
 60
     3
 61
     5
292
     1
282
     1
141
0.0
142
0.0
 63
   250
421
  3355443
  0
ENDTAB
  0
TABLE
  2
LTYPE
  5
5
330
0
100
AcDbSymbolTable
 70
     2
  0
LTYPE
  5
5B
330
5
100
AcDbSymbolTableRecord
100
AcDbLinetypeTableRecord
  2
ByBlock
 70
     0
  3

 72
    65
 73
     0
 40
0.0
  0
LTYPE
  5
5C
330
5
100
AcDbSymbolTableRecord
100
AcDbLinetypeTableRecord
  2
ByLayer
 70
     0
  3

 72
    65
 73
     0
 40
0.0
  0
LTYPE
  5
5D
330
5
100
AcDbSymbolTableRecord
100
AcDbLinetypeTableRecord
  2
Continuous
 70
     0
  3
Solid line
 72
    65
 73
     0
 40
0.0
  0
LTYPE
  5
109
330
5
100
AcDbSymbolTableRecord
100
AcDbLinetypeTableRecord
  2
AI-Linetype-0
 70
     0
  3
Adobe Illustrator Linetype No. 0
 72
    65
 73
     2
 40
1.411111110758333
 49
0.7055555553791667
 74
     0
 49
-0.7055555553791667
 74
     0
  0
ENDTAB
  0
TABLE
  2
LAYER
  5
2
330
0
100
AcDbSymbolTable
 70
     2
  0
LAYER
  5
54
330
2
100
AcDbSymbolTableRecord
100
AcDbLayerTableRecord
  2
0
 70
     0
 62
     7
  6
Continuous
370
    -3
390
F
347
21
  0
LAYER
  5
78
330
2
100
AcDbSymbolTableRecord
100
AcDbLayerTableRecord
  2
レイヤー 1
 70
     0
 62
     7
  6
Continuous
370
     0
390
F
347
21
  0
ENDTAB
  0
TABLE
  2
STYLE
  5
3
330
0
100
AcDbSymbolTable
 70
     2
  0
STYLE
  5
55
330
3
100
AcDbSymbolTableRecord
100
AcDbTextStyleTableRecord
  2
Standard
 70
     0
 40
0.0
 41
1.0
 50
0.0
 71
     0
 42
0.2
  3
txt
  4

  0
STYLE
  5
5A
330
3
100
AcDbSymbolTableRecord
100
AcDbTextStyleTableRecord
  2
Annotative
 70
     0
 40
0.0
 41
1.0
 50
0.0
 71
     0
 42
0.2
  3
txt
  4

1001
AcadAnnotative
1000
AnnotativeData
1002
{
1070
     1
1070
     1
1002
}
  0
ENDTAB
  0
TABLE
  2
VIEW
  5
6
330
0
100
AcDbSymbolTable
 70
     0
  0
ENDTAB
  0
TABLE
  2
UCS
  5
7
330
0
100
AcDbSymbolTable
 70
     0
  0
ENDTAB
  0
TABLE
  2
APPID
  5
9
330
0
100
AcDbSymbolTable
 70
     2
  0
APPID
  5
56
330
9
100
AcDbSymbolTableRecord
100
AcDbRegAppTableRecord
  2
ACAD
 70
     0
  0
APPID
  5
5E
330
9
100
AcDbSymbolTableRecord
100
AcDbRegAppTableRecord
  2
AcadAnnotative
 70
     0
  0
ENDTAB
  0
TABLE
  2
DIMSTYLE
  5
A
330
0
100
AcDbSymbolTable
 70
     2
100
AcDbDimStyleTable
 71
     0
  0
DIMSTYLE
105
58
330
A
100
AcDbSymbolTableRecord
100
AcDbDimStyleTableRecord
  2
Standard
 70
     0
340
55
  0
DIMSTYLE
105
59
330
A
100
AcDbSymbolTableRecord
100
AcDbDimStyleTableRecord
  2
Annotative
 70
     0
340
55
1001
AcadAnnotative
1000
AnnotativeData
1002
{
1070
     1
1070
     1
1002
}
  0
ENDTAB
  0
TABLE
  2
BLOCK_RECORD
  5
1
330
0
100
AcDbSymbolTable
 70
    13
  0
BLOCK_RECORD
  5
70
330
1
100
AcDbSymbolTableRecord
100
AcDbBlockTableRecord
  2
*Model_Space
340
73
 70
     0
280
     1
281
     0
  0
BLOCK_RECORD
  5
6C
330
1
100
AcDbSymbolTableRecord
100
AcDbBlockTableRecord
  2
*Paper_Space
340
6F
 70
     0
280
     1
281
     0
  0
BLOCK_RECORD
  5
74
330
1
100
AcDbSymbolTableRecord
100
AcDbBlockTableRecord
  2
*Paper_Space0
340
77
 70
     0
280
     1
281
     0
  0
BLOCK_RECORD
  5
95
330
1
100
AcDbSymbolTableRecord
100
AcDbBlockTableRecord
  2
Block_0
340
0
102
{BLKREFS
331
96
102
}
 70
     0
280
     1
281
     0
  0
BLOCK_RECORD
  5
9D
330
1
100
AcDbSymbolTableRecord
100
AcDbBlockTableRecord
  2
Block_1
340
0
102
{BLKREFS
331
9E
102
}
 70
     0
280
     1
281
     0
  0
BLOCK_RECORD
  5
A1
330
1
100
AcDbSymbolTableRecord
100
AcDbBlockTableRecord
  2
Block_2
340
0
102
{BLKREFS
331
A2
102
}
 70
     0
280
     1
281
     0
  0
BLOCK_RECORD
  5
AD
330
1
100
AcDbSymbolTableRecord
100
AcDbBlockTableRecord
  2
Block_3
340
0
102
{BLKREFS
331
AE
102
}
 70
     0
280
     1
281
     0
  0
BLOCK_RECORD
  5
B1
330
1
100
AcDbSymbolTableRecord
100
AcDbBlockTableRecord
  2
Block_4
340
0
102
{BLKREFS
331
B2
102
}
 70
     0
280
     1
281
     0
  0
BLOCK_RECORD
  5
BC
330
1
100
AcDbSymbolTableRecord
100
AcDbBlockTableRecord
  2
Block_5
340
0
102
{BLKREFS
331
BD
102
}
 70
     0
280
     1
281
     0
  0
BLOCK_RECORD
  5
C6
330
1
100
AcDbSymbolTableRecord
100
AcDbBlockTableRecord
  2
Block_6
340
0
102
{BLKREFS
331
C7
102
}
 70
     0
280
     1
281
     0
  0
BLOCK_RECORD
  5
CA
330
1
100
AcDbSymbolTableRecord
100
AcDbBlockTableRecord
  2
Block_7
340
0
102
{BLKREFS
331
CB
102
}
 70
     0
280
     1
281
     0
  0
BLOCK_RECORD
  5
D6
330
1
100
AcDbSymbolTableRecord
100
AcDbBlockTableRecord
  2
Block_8
340
0
102
{BLKREFS
331
D7
102
}
 70
     0
280
     1
281
     0
  0
BLOCK_RECORD
  5
DA
330
1
100
AcDbSymbolTableRecord
100
AcDbBlockTableRecord
  2
Block_9
340
0
102
{BLKREFS
331
DB
102
}
 70
     0
280
     1
281
     0
  0
BLOCK_RECORD
  5
E6
330
1
100
AcDbSymbolTableRecord
100
AcDbBlockTableRecord
  2
Block_10
340
0
102
{BLKREFS
331
E7
102
}
 70
     0
280
     1
281
     0
  0
BLOCK_RECORD
  5
EA
330
1
100
AcDbSymbolTableRecord
100
AcDbBlockTableRecord
  2
Block_11
340
0
102
{BLKREFS
331
EB
102
}
 70
     0
280
     1
281
     0
  0
ENDTAB
  0
ENDSEC
  0
SECTION
  2
BLOCKS
  0
BLOCK
  5
71
330
70
100
AcDbEntity
  8
0
100
AcDbBlockBegin
  2
*Model_Space
 70
     0
 10
0.0
 20
0.0
 30
0.0
  3
*Model_Space
  1

  0
ENDBLK
  5
72
330
70
100
AcDbEntity
  8
0
100
AcDbBlockEnd
  0
BLOCK
  5
6D
330
6C
100
AcDbEntity
 67
     1
  8
0
100
AcDbBlockBegin
  2
*Paper_Space
 70
     0
 10
0.0
 20
0.0
 30
0.0
  3
*Paper_Space
  1

  0
ENDBLK
  5
6E
330
6C
100
AcDbEntity
 67
     1
  8
0
100
AcDbBlockEnd
  0
BLOCK
  5
75
330
74
100
AcDbEntity
 67
     1
  8
0
100
AcDbBlockBegin
  2
*Paper_Space0
 70
     0
 10
0.0
 20
0.0
 30
0.0
  3
*Paper_Space0
  1

  0
ENDBLK
  5
76
330
74
100
AcDbEntity
 67
     1
  8
0
100
AcDbBlockEnd
  0
BLOCK
  5
97
330
95
100
AcDbEntity
  8
0
100
AcDbBlockBegin
  2
Block_0
 70
     0
 10
0.0
 20
0.0
 30
0.0
  3
Block_0
  1

  0
SPLINE
  5
99
330
95
100
AcDbEntity
  8
レイヤー 1
100
AcDbSpline
210
0.0
220
0.0
230
1.0
 70
    11
 71
     3
 72
    26
 73
    22
 74
     0
 42
0.0000000001
 43
0.0000000001
 40
0.0
 40
0.0
 40
0.0
 40
0.0
 40
1.0
 40
1.0
 40
1.0
 40
2.0
 40
2.0
 40
2.0
 40
3.0
 40
3.0
 40
3.0
 40
4.0
 40
4.0
 40
4.0
 40
5.0
 40
5.0
 40
5.0
 40
6.0
 40
6.0
 40
6.0
 40
7.0
 40
7.0
 40
7.0
 40
7.0
 10
120.6637803517785
 20
-139.2225097308194
 30
0.0
 10
120.6637803517785
 20
-139.2225097308194
 30
0.0
 10
119.5596272487559
 20
-139.2225097308194
 30
0.0
 10
119.5596272487559
 20
-139.2225097308194
 30
0.0
 10
119.5596272487559
 20
-139.2225097308194
 30
0.0
 10
119.5596272487559
 20
-139.5525498783063
 30
0.0
 10
119.5596272487559
 20
-139.5525498783063
 30
0.0
 10
119.5596272487559
 20
-139.5525498783063
 30
0.0
 10
119.4114881428902
 20
-139.5525498783063
 30
0.0
 10
119.4114881428902
 20
-139.5525498783063
 30
0.0
 10
119.3966742323036
 20
-139.2204426735282
 30
0.0
 10
119.2337212158513
 20
-139.1739338844773
 30
0.0
 10
119.119344045741
 20
-139.1443060633042
 30
0.0
 10
119.119344045741
 20
-139.1443060633042
 30
0.0
 10
119.119344045741
 20
-138.9982340147296
 30
0.0
 10
119.119344045741
 20
-138.9982340147296
 30
0.0
 10
119.119344045741
 20
-138.9982340147296
 30
0.0
 10
120.6637803517785
 20
-138.9982340147296
 30
0.0
 10
120.6637803517785
 20
-138.9982340147296
 30
0.0
 10
120.6637803517785
 20
-138.9982340147296
 30
0.0
 10
120.6637803517785
 20
-139.2225097308194
 30
0.0
 10
120.6637803517785
 20
-139.2225097308194
 30
0.0
  0
HATCH
  5
9A
330
95
100
AcDbEntity
  8
レイヤー 1
 62
    18
420
        0
440
 33554687
100
AcDbHatch
 10
0.0
 20
0.0
 30
0.0
210
0.0
220
0.0
230
1.0
  2
SOLID
 70
     1
 71
     1
 91
        1
 92
        1
 93
        1
 72
     4
 94
        3
 73
     0
 74
     0
 95
       26
 96
       22
 40
0.0
 40
0.0
 40
0.0
 40
0.0
 40
1.0
 40
1.0
 40
1.0
 40
2.0
 40
2.0
 40
2.0
 40
3.0
 40
3.0
 40
3.0
 40
4.0
 40
4.0
 40
4.0
 40
5.0
 40
5.0
 40
5.0
 40
6.0
 40
6.0
 40
6.0
 40
7.0
 40
7.0
 40
7.0
 40
7.0
 10
120.6637803517785
 20
-139.2225097308194
 10
120.6637803517785
 20
-139.2225097308194
 10
119.5596272487559
 20
-139.2225097308194
 10
119.5596272487559
 20
-139.2225097308194
 10
119.5596272487559
 20
-139.2225097308194
 10
119.5596272487559
 20
-139.5525498783063
 10
119.5596272487559
 20
-139.5525498783063
 10
119.5596272487559
 20
-139.5525498783063
 10
119.4114881428902
 20
-139.5525498783063
 10
119.4114881428902
 20
-139.5525498783063
 10
119.3966742323036
 20
-139.2204426735282
 10
119.2337212158513
 20
-139.1739338844773
 10
119.119344045741
 20
-139.1443060633042
 10
119.119344045741
 20
-139.1443060633042
 10
119.119344045741
 20
-138.9982340147296
 10
119.119344045741
 20
-138.9982340147296
 10
119.119344045741
 20
-138.9982340147296
 10
120.6637803517785
 20
-138.9982340147296
 10
120.6637803517785
 20
-138.9982340147296
 10
120.6637803517785
 20
-138.9982340147296
 10
120.6637803517785
 20
-139.2225097308194
 10
120.6637803517785
 20
-139.2225097308194
 97
        0
 97
        1
330
99
 75
     2
 76
     1
 98
        1
 10
0.0
 20
0.0
450
        0
451
        0
460
0.0
461
0.0
452
        0
462
0.0
453
        0
470

  0
ENDBLK
  5
98
330
95
100
AcDbEntity
  8
0
100
AcDbBlockEnd
  0
BLOCK
  5
9F
330
9D
100
AcDbEntity
  8
0
100
AcDbBlockBegin
  2
Block_1
 70
     0
 10
0.0
 20
0.0
 30
0.0
  3
Block_1
  1

  0
INSERT
  5
A2
330
9D
100
AcDbEntity
  8
レイヤー 1
100
AcDbBlockReference
  2
Block_2
 10
0.0
 20
0.0
 30
0.0
  0
ENDBLK
  5
A0
330
9D
100
AcDbEntity
  8
0
100
AcDbBlockEnd
  0
BLOCK
  5
A3
330
A1
100
AcDbEntity
  8
0
100
AcDbBlockBegin
  2
Block_2
 70
     0
 10
0.0
 20
0.0
 30
0.0
  3
Block_2
  1

  0
SPLINE
  5
A5
330
A1
100
AcDbEntity
  8
レイヤー 1
100
AcDbSpline
210
0.0
220
0.0
230
1.0
 70
    11
 71
     3
 72
    26
 73
    22
 74
     0
 42
0.0000000001
 43
0.0000000001
 40
0.0
 40
0.0
 40
0.0
 40
0.0
 40
1.0
 40
1.0
 40
1.0
 40
2.0
 40
2.0
 40
2.0
 40
3.0
 40
3.0
 40
3.0
 40
4.0
 40
4.0
 40
4.0
 40
5.0
 40
5.0
 40
5.0
 40
6.0
 40
6.0
 40
6.0
 40
7.0
 40
7.0
 40
7.0
 40
7.0
 10
120.6637803517785
 20
-148.8901366815275
 30
0.0
 10
120.6637803517785
 20
-148.8901366815275
 30
0.0
 10
119.5596272487559
 20
-148.8901366815275
 30
0.0
 10
119.5596272487559
 20
-148.8901366815275
 30
0.0
 10
119.5596272487559
 20
-148.8901366815275
 30
0.0
 10
119.5596272487559
 20
-149.2201768290144
 30
0.0
 10
119.5596272487559
 20
-149.2201768290144
 30
0.0
 10
119.5596272487559
 20
-149.2201768290144
 30
0.0
 10
119.4114881428902
 20
-149.2201768290144
 30
0.0
 10
119.4114881428902
 20
-149.2201768290144
 30
0.0
 10
119.3966742323036
 20
-148.8880696242363
 30
0.0
 10
119.2337212158513
 20
-148.8415608351854
 30
0.0
 10
119.119344045741
 20
-148.8119330140123
 30
0.0
 10
119.119344045741
 20
-148.8119330140123
 30
0.0
 10
119.119344045741
 20
-148.6658609654377
 30
0.0
 10
119.119344045741
 20
-148.6658609654377
 30
0.0
 10
119.119344045741
 20
-148.6658609654377
 30
0.0
 10
120.6637803517785
 20
-148.6658609654377
 30
0.0
 10
120.6637803517785
 20
-148.6658609654377
 30
0.0
 10
120.6637803517785
 20
-148.6658609654377
 30
0.0
 10
120.6637803517785
 20
-148.8901366815275
 30
0.0
 10
120.6637803517785
 20
-148.8901366815275
 30
0.0
  0
HATCH
  5
A6
330
A1
100
AcDbEntity
  8
レイヤー 1
 62
    18
420
        0
440
 33554687
100
AcDbHatch
 10
0.0
 20
0.0
 30
0.0
210
0.0
220
0.0
230
1.0
  2
SOLID
 70
     1
 71
     1
 91
        1
 92
        1
 93
        1
 72
     4
 94
        3
 73
     0
 74
     0
 95
       26
 96
       22
 40
0.0
 40
0.0
 40
0.0
 40
0.0
 40
1.0
 40
1.0
 40
1.0
 40
2.0
 40
2.0
 40
2.0
 40
3.0
 40
3.0
 40
3.0
 40
4.0
 40
4.0
 40
4.0
 40
5.0
 40
5.0
 40
5.0
 40
6.0
 40
6.0
 40
6.0
 40
7.0
 40
7.0
 40
7.0
 40
7.0
 10
120.6637803517785
 20
-148.8901366815275
 10
120.6637803517785
 20
-148.8901366815275
 10
119.5596272487559
 20
-148.8901366815275
 10
119.5596272487559
 20
-148.8901366815275
 10
119.5596272487559
 20
-148.8901366815275
 10
119.5596272487559
 20
-149.2201768290144
 10
119.5596272487559
 20
-149.2201768290144
 10
119.5596272487559
 20
-149.2201768290144
 10
119.4114881428902
 20
-149.2201768290144
 10
119.4114881428902
 20
-149.2201768290144
 10
119.3966742323036
 20
-148.8880696242363
 10
119.2337212158513
 20
-148.8415608351854
 10
119.119344045741
 20
-148.8119330140123
 10
119.119344045741
 20
-148.8119330140123
 10
119.119344045741
 20
-148.6658609654377
 10
119.119344045741
 20
-148.6658609654377
 10
119.119344045741
 20
-148.6658609654377
 10
120.6637803517785
 20
-148.6658609654377
 10
120.6637803517785
 20
-148.6658609654377
 10
120.6637803517785
 20
-148.6658609654377
 10
120.6637803517785
 20
-148.8901366815275
 10
120.6637803517785
 20
-148.8901366815275
 97
        0
 97
        1
330
A5
 75
     2
 76
     1
 98
        1
 10
0.0
 20
0.0
450
        0
451
        0
460
0.0
461
0.0
452
        0
462
0.0
453
        0
470

  0
SPLINE
  5
A7
330
A1
100
AcDbEntity
  8
レイヤー 1
100
AcDbSpline
210
0.0
220
0.0
230
1.0
 70
     9
 71
     3
 72
    17
 73
    13
 74
     0
 42
0.0000000001
 43
0.0000000001
 40
0.0
 40
0.0
 40
0.0
 40
0.0
 40
1.0
 40
1.0
 40
1.0
 40
2.0
 40
2.0
 40
2.0
 40
3.0
 40
3.0
 40
3.0
 40
4.0
 40
4.0
 40
4.0
 40
4.0
 10
119.2633490370244
 20
-147.6647162174241
 30
0.0
 10
119.2633490370244
 20
-147.9141411305562
 30
0.0
 10
119.5468803954605
 20
-147.9609944291556
 30
0.0
 10
119.891734453534
 20
-147.9609944291556
 30
0.0
 10
120.2110948050167
 20
-147.9609944291556
 30
0.0
 10
120.519775360495
 20
-147.9248209265604
 30
0.0
 10
120.519775360495
 20
-147.6647162174241
 30
0.0
 10
120.519775360495
 20
-147.4170138520346
 30
0.0
 10
120.2386555688987
 20
-147.3684380056926
 30
0.0
 10
119.891734453534
 20
-147.3684380056926
 30
0.0
 10
119.5720295925028
 20
-147.3684380056926
 30
0.0
 10
119.2633490370244
 20
-147.4066785655789
 30
0.0
 10
119.2633490370244
 20
-147.6647162174241
 30
0.0
  0
SPLINE
  5
A8
330
A1
100
AcDbEntity
  8
レイヤー 1
100
AcDbSpline
210
0.0
220
0.0
230
1.0
 70
     9
 71
     3
 72
    29
 73
    25
 74
     0
 42
0.0000000001
 43
0.0000000001
 40
0.0
 40
0.0
 40
0.0
 40
0.0
 40
1.0
 40
1.0
 40
1.0
 40
2.0
 40
2.0
 40
2.0
 40
3.0
 40
3.0
 40
3.0
 40
4.0
 40
4.0
 40
4.0
 40
5.0
 40
5.0
 40
5.0
 40
6.0
 40
6.0
 40
6.0
 40
7.0
 40
7.0
 40
7.0
 40
8.0
 40
8.0
 40
8.0
 40
8.0
 10
120.4860134247396
 20
-147.2668076888777
 30
0.0
 10
120.6954752302428
 20
-147.3749836871146
 30
0.0
 10
120.7144232554117
 20
-147.5482719900226
 30
0.0
 10
120.7144232554117
 20
-147.6647162174241
 30
0.0
 10
120.7144232554117
 20
-147.8256021765853
 30
0.0
 10
120.6679144663608
 20
-147.967195601029
 30
0.0
 10
120.4860134247396
 20
-148.0622802364219
 30
0.0
 10
120.291365529823
 20
-148.1659776105279
 30
0.0
 10
120.0543429604378
 20
-148.1849256356968
 30
0.0
 10
119.891734453534
 20
-148.1849256356968
 30
0.0
 10
119.7477294622506
 20
-148.1849256356968
 30
0.0
 10
119.4958929822788
 20
-148.1680446678191
 30
0.0
 10
119.2971109727799
 20
-148.0622802364219
 30
0.0
 10
119.0941948486986
 20
-147.9544487477336
 30
0.0
 10
119.070768199399
 20
-147.7935627885724
 30
0.0
 10
119.070768199399
 20
-147.6647162174241
 30
0.0
 10
119.070768199399
 20
-147.505897315554
 30
0.0
 10
119.1152099311587
 20
-147.3622368338191
 30
0.0
 10
119.2971109727799
 20
-147.2668076888777
 30
0.0
 10
119.4896918104053
 20
-147.1675889389025
 30
0.0
 10
119.7181016410774
 20
-147.1441622896028
 30
0.0
 10
119.891734453534
 20
-147.1441622896028
 30
0.0
 10
120.0629556991509
 20
-147.1441622896028
 30
0.0
 10
120.2934325871141
 20
-147.1655218816114
 30
0.0
 10
120.4860134247396
 20
-147.2668076888777
 30
0.0
  0
HATCH
  5
A9
330
A1
100
AcDbEntity
  8
レイヤー 1
 62
    18
420
        0
440
 33554687
100
AcDbHatch
 10
0.0
 20
0.0
 30
0.0
210
0.0
220
0.0
230
1.0
  2
SOLID
 70
     1
 71
     1
 91
        2
 92
        1
 93
        1
 72
     4
 94
        3
 73
     0
 74
     0
 95
       17
 96
       13
 40
0.0
 40
0.0
 40
0.0
 40
0.0
 40
1.0
 40
1.0
 40
1.0
 40
2.0
 40
2.0
 40
2.0
 40
3.0
 40
3.0
 40
3.0
 40
4.0
 40
4.0
 40
4.0
 40
4.0
 10
119.2633490370244
 20
-147.6647162174241
 10
119.2633490370244
 20
-147.9141411305562
 10
119.5468803954605
 20
-147.9609944291556
 10
119.891734453534
 20
-147.9609944291556
 10
120.2110948050167
 20
-147.9609944291556
 10
120.519775360495
 20
-147.9248209265604
 10
120.519775360495
 20
-147.6647162174241
 10
120.519775360495
 20
-147.4170138520346
 10
120.2386555688987
 20
-147.3684380056926
 10
119.891734453534
 20
-147.3684380056926
 10
119.5720295925028
 20
-147.3684380056926
 10
119.2633490370244
 20
-147.4066785655789
 10
119.2633490370244
 20
-147.6647162174241
 97
        0
 97
        1
330
A7
 92
        1
 93
        1
 72
     4
 94
        3
 73
     0
 74
     0
 95
       29
 96
       25
 40
0.0
 40
0.0
 40
0.0
 40
0.0
 40
1.0
 40
1.0
 40
1.0
 40
2.0
 40
2.0
 40
2.0
 40
3.0
 40
3.0
 40
3.0
 40
4.0
 40
4.0
 40
4.0
 40
5.0
 40
5.0
 40
5.0
 40
6.0
 40
6.0
 40
6.0
 40
7.0
 40
7.0
 40
7.0
 40
8.0
 40
8.0
 40
8.0
 40
8.0
 10
120.4860134247396
 20
-147.2668076888777
 10
120.6954752302428
 20
-147.3749836871146
 10
120.7144232554117
 20
-147.5482719900226
 10
120.7144232554117
 20
-147.6647162174241
 10
120.7144232554117
 20
-147.8256021765853
 10
120.6679144663608
 20
-147.967195601029
 10
120.4860134247396
 20
-148.0622802364219
 10
120.291365529823
 20
-148.1659776105279
 10
120.0543429604378
 20
-148.1849256356968
 10
119.891734453534
 20
-148.1849256356968
 10
119.7477294622506
 20
-148.1849256356968
 10
119.4958929822788
 20
-148.1680446678191
 10
119.2971109727799
 20
-148.0622802364219
 10
119.0941948486986
 20
-147.9544487477336
 10
119.070768199399
 20
-147.7935627885724
 10
119.070768199399
 20
-147.6647162174241
 10
119.070768199399
 20
-147.505897315554
 10
119.1152099311587
 20
-147.3622368338191
 10
119.2971109727799
 20
-147.2668076888777
 10
119.4896918104053
 20
-147.1675889389025
 10
119.7181016410774
 20
-147.1441622896028
 10
119.891734453534
 20
-147.1441622896028
 10
120.0629556991509
 20
-147.1441622896028
 10
120.2934325871141
 20
-147.1655218816114
 10
120.4860134247396
 20
-147.2668076888777
 97
        0
 97
        1
330
A8
 75
     2
 76
     1
 98
        1
 10
0.0
 20
0.0
450
        0
451
        0
460
0.0
461
0.0
452
        0
462
0.0
453
        0
470

  0
ENDBLK
  5
A4
330
A1
100
AcDbEntity
  8
0
100
AcDbBlockEnd
  0
BLOCK
  5
AF
330
AD
100
AcDbEntity
  8
0
100
AcDbBlockBegin
  2
Block_3
 70
     0
 10
0.0
 20
0.0
 30
0.0
  3
Block_3
  1

  0
INSERT
  5
B2
330
AD
100
AcDbEntity
  8
レイヤー 1
100
AcDbBlockReference
  2
Block_4
 10
0.0
 20
0.0
 30
0.0
  0
ENDBLK
  5
B0
330
AD
100
AcDbEntity
  8
0
100
AcDbBlockEnd
  0
BLOCK
  5
B3
330
B1
100
AcDbEntity
  8
0
100
AcDbBlockBegin
  2
Block_4
 70
     0
 10
0.0
 20
0.0
 30
0.0
  3
Block_4
  1

  0
SPLINE
  5
B5
330
B1
100
AcDbEntity
  8
レイヤー 1
100
AcDbSpline
210
0.0
220
0.0
230
1.0
 70
    11
 71
     3
 72
    26
 73
    22
 74
     0
 42
0.0000000001
 43
0.0000000001
 40
0.0
 40
0.0
 40
0.0
 40
0.0
 40
1.0
 40
1.0
 40
1.0
 40
2.0
 40
2.0
 40
2.0
 40
3.0
 40
3.0
 40
3.0
 40
4.0
 40
4.0
 40
4.0
 40
5.0
 40
5.0
 40
5.0
 40
6.0
 40
6.0
 40
6.0
 40
7.0
 40
7.0
 40
7.0
 40
7.0
 10
97.25246172698897
 20
-156.874834487691
 30
0.0
 10
97.25246172698897
 20
-156.874834487691
 30
0.0
 10
97.25246172698897
 20
-155.7706813846684
 30
0.0
 10
97.25246172698897
 20
-155.7706813846684
 30
0.0
 10
97.25246172698897
 20
-155.7706813846684
 30
0.0
 10
96.92242157950204
 20
-155.7706813846684
 30
0.0
 10
96.92242157950204
 20
-155.7706813846684
 30
0.0
 10
96.92242157950204
 20
-155.7706813846684
 30
0.0
 10
96.92242157950204
 20
-155.6225422788027
 30
0.0
 10
96.92242157950204
 20
-155.6225422788027
 30
0.0
 10
97.25452878428013
 20
-155.6077283682161
 30
0.0
 10
97.301037573331
 20
-155.4447753517638
 30
0.0
 10
97.33066539450414
 20
-155.3303981816535
 30
0.0
 10
97.33066539450414
 20
-155.3303981816535
 30
0.0
 10
97.47673744307874
 20
-155.3303981816535
 30
0.0
 10
97.47673744307874
 20
-155.3303981816535
 30
0.0
 10
97.47673744307874
 20
-155.3303981816535
 30
0.0
 10
97.47673744307874
 20
-156.874834487691
 30
0.0
 10
97.47673744307874
 20
-156.874834487691
 30
0.0
 10
97.47673744307874
 20
-156.874834487691
 30
0.0
 10
97.25246172698897
 20
-156.874834487691
 30
0.0
 10
97.25246172698897
 20
-156.874834487691
 30
0.0
  0
HATCH
  5
B6
330
B1
100
AcDbEntity
  8
レイヤー 1
 62
    18
420
        0
440
 33554687
100
AcDbHatch
 10
0.0
 20
0.0
 30
0.0
210
0.0
220
0.0
230
1.0
  2
SOLID
 70
     1
 71
     1
 91
        1
 92
        1
 93
        1
 72
     4
 94
        3
 73
     0
 74
     0
 95
       26
 96
       22
 40
0.0
 40
0.0
 40
0.0
 40
0.0
 40
1.0
 40
1.0
 40
1.0
 40
2.0
 40
2.0
 40
2.0
 40
3.0
 40
3.0
 40
3.0
 40
4.0
 40
4.0
 40
4.0
 40
5.0
 40
5.0
 40
5.0
 40
6.0
 40
6.0
 40
6.0
 40
7.0
 40
7.0
 40
7.0
 40
7.0
 10
97.25246172698897
 20
-156.874834487691
 10
97.25246172698897
 20
-156.874834487691
 10
97.25246172698897
 20
-155.7706813846684
 10
97.25246172698897
 20
-155.7706813846684
 10
97.25246172698897
 20
-155.7706813846684
 10
96.92242157950204
 20
-155.7706813846684
 10
96.92242157950204
 20
-155.7706813846684
 10
96.92242157950204
 20
-155.7706813846684
 10
96.92242157950204
 20
-155.6225422788027
 10
96.92242157950204
 20
-155.6225422788027
 10
97.25452878428013
 20
-155.6077283682161
 10
97.301037573331
 20
-155.4447753517638
 10
97.33066539450414
 20
-155.3303981816535
 10
97.33066539450414
 20
-155.3303981816535
 10
97.47673744307874
 20
-155.3303981816535
 10
97.47673744307874
 20
-155.3303981816535
 10
97.47673744307874
 20
-155.3303981816535
 10
97.47673744307874
 20
-156.874834487691
 10
97.47673744307874
 20
-156.874834487691
 10
97.47673744307874
 20
-156.874834487691
 10
97.25246172698897
 20
-156.874834487691
 10
97.25246172698897
 20
-156.874834487691
 97
        0
 97
        1
330
B5
 75
     2
 76
     1
 98
        1
 10
0.0
 20
0.0
450
        0
451
        0
460
0.0
461
0.0
452
        0
462
0.0
453
        0
470

  0
SPLINE
  5
B7
330
B1
100
AcDbEntity
  8
レイヤー 1
100
AcDbSpline
210
0.0
220
0.0
230
1.0
 70
     9
 71
     3
 72
    17
 73
    13
 74
     0
 42
0.0000000001
 43
0.0000000001
 40
0.0
 40
0.0
 40
0.0
 40
0.0
 40
1.0
 40
1.0
 40
1.0
 40
2.0
 40
2.0
 40
2.0
 40
3.0
 40
3.0
 40
3.0
 40
4.0
 40
4.0
 40
4.0
 40
4.0
 10
98.47788219109233
 20
-155.4744031729369
 30
0.0
 10
98.22811276841171
 20
-155.4744031729369
 30
0.0
 10
98.18160397936086
 20
-155.757934531373
 30
0.0
 10
98.18160397936086
 20
-156.1027885894465
 30
0.0
 10
98.18160397936086
 20
-156.4221489409292
 30
0.0
 10
98.21777748195598
 20
-156.7308294964075
 30
0.0
 10
98.47788219109233
 20
-156.7308294964075
 30
0.0
 10
98.72558455648182
 20
-156.7308294964075
 30
0.0
 10
98.77416040282383
 20
-156.4497097048112
 30
0.0
 10
98.77416040282383
 20
-156.1027885894465
 30
0.0
 10
98.77416040282383
 20
-155.7830837284153
 30
0.0
 10
98.73591984293755
 20
-155.4744031729369
 30
0.0
 10
98.47788219109233
 20
-155.4744031729369
 30
0.0
  0
SPLINE
  5
B8
330
B1
100
AcDbEntity
  8
レイヤー 1
100
AcDbSpline
210
0.0
220
0.0
230
1.0
 70
     9
 71
     3
 72
    29
 73
    25
 74
     0
 42
0.0000000001
 43
0.0000000001
 40
0.0
 40
0.0
 40
0.0
 40
0.0
 40
1.0
 40
1.0
 40
1.0
 40
2.0
 40
2.0
 40
2.0
 40
3.0
 40
3.0
 40
3.0
 40
4.0
 40
4.0
 40
4.0
 40
5.0
 40
5.0
 40
5.0
 40
6.0
 40
6.0
 40
6.0
 40
7.0
 40
7.0
 40
7.0
 40
8.0
 40
8.0
 40
8.0
 40
8.0
 10
98.8757907196387
 20
-156.6970675606521
 30
0.0
 10
98.76761472140186
 20
-156.9065293661553
 30
0.0
 10
98.59432641849378
 20
-156.9254773913242
 30
0.0
 10
98.47788219109233
 20
-156.9254773913242
 30
0.0
 10
98.31699623193117
 20
-156.9254773913242
 30
0.0
 10
98.1754028074874
 20
-156.8789686022733
 30
0.0
 10
98.08031817209451
 20
-156.6970675606521
 30
0.0
 10
97.97662079798849
 20
-156.5024196657355
 30
0.0
 10
97.9573282632711
 20
-156.2657416058988
 30
0.0
 10
97.9573282632711
 20
-156.1027885894465
 30
0.0
 10
97.9573282632711
 20
-155.9587835981631
 30
0.0
 10
97.97455374069734
 20
-155.7069471181913
 30
0.0
 10
98.08031817209451
 20
-155.5081651086924
 30
0.0
 10
98.18814966078283
 20
-155.3052489846112
 30
0.0
 10
98.349035619944
 20
-155.2818223353115
 30
0.0
 10
98.47788219109233
 20
-155.2818223353115
 30
0.0
 10
98.63670109296236
 20
-155.2818223353115
 30
0.0
 10
98.78036157469729
 20
-155.3262640670712
 30
0.0
 10
98.8757907196387
 20
-155.5081651086924
 30
0.0
 10
98.9750094696139
 20
-155.7007459463179
 30
0.0
 10
98.99843611891359
 20
-155.9291557769899
 30
0.0
 10
98.99843611891359
 20
-156.1027885894465
 30
0.0
 10
98.99843611891359
 20
-156.2740098350634
 30
0.0
 10
98.97707652690504
 20
-156.5044867230267
 30
0.0
 10
98.8757907196387
 20
-156.6970675606521
 30
0.0
  0
HATCH
  5
B9
330
B1
100
AcDbEntity
  8
レイヤー 1
 62
    18
420
        0
440
 33554687
100
AcDbHatch
 10
0.0
 20
0.0
 30
0.0
210
0.0
220
0.0
230
1.0
  2
SOLID
 70
     1
 71
     1
 91
        2
 92
        1
 93
        1
 72
     4
 94
        3
 73
     0
 74
     0
 95
       17
 96
       13
 40
0.0
 40
0.0
 40
0.0
 40
0.0
 40
1.0
 40
1.0
 40
1.0
 40
2.0
 40
2.0
 40
2.0
 40
3.0
 40
3.0
 40
3.0
 40
4.0
 40
4.0
 40
4.0
 40
4.0
 10
98.47788219109233
 20
-155.4744031729369
 10
98.22811276841171
 20
-155.4744031729369
 10
98.18160397936086
 20
-155.757934531373
 10
98.18160397936086
 20
-156.1027885894465
 10
98.18160397936086
 20
-156.4221489409292
 10
98.21777748195598
 20
-156.7308294964075
 10
98.47788219109233
 20
-156.7308294964075
 10
98.72558455648182
 20
-156.7308294964075
 10
98.77416040282383
 20
-156.4497097048112
 10
98.77416040282383
 20
-156.1027885894465
 10
98.77416040282383
 20
-155.7830837284153
 10
98.73591984293755
 20
-155.4744031729369
 10
98.47788219109233
 20
-155.4744031729369
 97
        0
 97
        1
330
B7
 92
        1
 93
        1
 72
     4
 94
        3
 73
     0
 74
     0
 95
       29
 96
       25
 40
0.0
 40
0.0
 40
0.0
 40
0.0
 40
1.0
 40
1.0
 40
1.0
 40
2.0
 40
2.0
 40
2.0
 40
3.0
 40
3.0
 40
3.0
 40
4.0
 40
4.0
 40
4.0
 40
5.0
 40
5.0
 40
5.0
 40
6.0
 40
6.0
 40
6.0
 40
7.0
 40
7.0
 40
7.0
 40
8.0
 40
8.0
 40
8.0
 40
8.0
 10
98.8757907196387
 20
-156.6970675606521
 10
98.76761472140186
 20
-156.9065293661553
 10
98.59432641849378
 20
-156.9254773913242
 10
98.47788219109233
 20
-156.9254773913242
 10
98.31699623193117
 20
-156.9254773913242
 10
98.1754028074874
 20
-156.8789686022733
 10
98.08031817209451
 20
-156.6970675606521
 10
97.97662079798849
 20
-156.5024196657355
 10
97.9573282632711
 20
-156.2657416058988
 10
97.9573282632711
 20
-156.1027885894465
 10
97.9573282632711
 20
-155.9587835981631
 10
97.97455374069734
 20
-155.7069471181913
 10
98.08031817209451
 20
-155.5081651086924
 10
98.18814966078283
 20
-155.3052489846112
 10
98.349035619944
 20
-155.2818223353115
 10
98.47788219109233
 20
-155.2818223353115
 10
98.63670109296236
 20
-155.2818223353115
 10
98.78036157469729
 20
-155.3262640670712
 10
98.8757907196387
 20
-155.5081651086924
 10
98.9750094696139
 20
-155.7007459463179
 10
98.99843611891359
 20
-155.9291557769899
 10
98.99843611891359
 20
-156.1027885894465
 10
98.99843611891359
 20
-156.2740098350634
 10
98.97707652690504
 20
-156.5044867230267
 10
98.8757907196387
 20
-156.6970675606521
 97
        0
 97
        1
330
B8
 75
     2
 76
     1
 98
        1
 10
0.0
 20
0.0
450
        0
451
        0
460
0.0
461
0.0
452
        0
462
0.0
453
        0
470

  0
ENDBLK
  5
B4
330
B1
100
AcDbEntity
  8
0
100
AcDbBlockEnd
  0
BLOCK
  5
BE
330
BC
100
AcDbEntity
  8
0
100
AcDbBlockBegin
  2
Block_5
 70
     0
 10
0.0
 20
0.0
 30
0.0
  3
Block_5
  1

  0
SPLINE
  5
C0
330
BC
100
AcDbEntity
  8
レイヤー 1
100
AcDbSpline
210
0.0
220
0.0
230
1.0
 70
     9
 71
     3
 72
    17
 73
    13
 74
     0
 42
0.0000000001
 43
0.0000000001
 40
0.0
 40
0.0
 40
0.0
 40
0.0
 40
1.0
 40
1.0
 40
1.0
 40
2.0
 40
2.0
 40
2.0
 40
3.0
 40
3.0
 40
3.0
 40
4.0
 40
4.0
 40
4.0
 40
4.0
 10
89.98899466066248
 20
-156.0662705773028
 30
0.0
 10
89.7266506394607
 20
-156.0662705773028
 30
0.0
 10
89.6885823343487
 20
-156.2777994400972
 30
0.0
 10
89.6885823343487
 20
-156.3942436674986
 30
0.0
 10
89.6885823343487
 20
-156.5699435372464
 30
0.0
 10
89.78383922451584
 20
-156.7328965536987
 30
0.0
 10
89.96780732342818
 20
-156.7328965536987
 30
0.0
 10
90.08838566541193
 20
-156.7328965536987
 30
0.0
 10
90.26408553515969
 20
-156.6736409113524
 30
0.0
 10
90.26408553515969
 20
-156.3880424956252
 30
0.0
 10
90.26408553515969
 20
-156.1637667795354
 30
0.0
 10
90.1243869132328
 20
-156.0662705773028
 30
0.0
 10
89.98899466066248
 20
-156.0662705773028
 30
0.0
  0
SPLINE
  5
C1
330
BC
100
AcDbEntity
  8
レイヤー 1
100
AcDbSpline
210
0.0
220
0.0
230
1.0
 70
     9
 71
     3
 72
    32
 73
    28
 74
     0
 42
0.0000000001
 43
0.0000000001
 40
0.0
 40
0.0
 40
0.0
 40
0.0
 40
1.0
 40
1.0
 40
1.0
 40
2.0
 40
2.0
 40
2.0
 40
3.0
 40
3.0
 40
3.0
 40
4.0
 40
4.0
 40
4.0
 40
5.0
 40
5.0
 40
5.0
 40
6.0
 40
6.0
 40
6.0
 40
7.0
 40
7.0
 40
7.0
 40
8.0
 40
8.0
 40
8.0
 40
9.0
 40
9.0
 40
9.0
 40
9.0
 10
89.97211369278476
 20
-156.9251328817756
 30
0.0
 10
89.45586613432006
 20
-156.9251328817756
 30
0.0
 10
89.4474256503812
 20
-156.3711615277474
 30
0.0
 10
89.4474256503812
 20
-156.1572210981134
 30
0.0
 10
89.4474256503812
 20
-155.9267442101502
 30
0.0
 10
89.46654593032434
 20
-155.2794107684718
 30
0.0
 10
90.01018199789676
 20
-155.2794107684718
 30
0.0
 10
90.1836425555791
 20
-155.2794107684718
 30
0.0
 10
90.42893335412889
 20
-155.3493462068224
 30
0.0
 10
90.46717391401514
 20
-155.6814534116004
 30
0.0
 10
90.46717391401514
 20
-155.6814534116004
 30
0.0
 10
90.2534057391554
 20
-155.6814534116004
 30
0.0
 10
90.2534057391554
 20
-155.6814534116004
 30
0.0
 10
90.24289819792539
 20
-155.6242648265453
 30
0.0
 10
90.21120331946109
 20
-155.4761257206796
 30
0.0
 10
90.00811494060561
 20
-155.4761257206796
 30
0.0
 10
89.71614309823069
 20
-155.4761257206796
 30
0.0
 10
89.67583548105327
 20
-155.8040988108753
 30
0.0
 10
89.66326088253209
 20
-156.0090819922477
 30
0.0
 10
89.75627846063385
 20
-155.9308783247325
 30
0.0
 10
89.82397458691901
 20
-155.8716226823862
 30
0.0
 10
90.0058756285402
 20
-155.8716226823862
 30
0.0
 10
90.18570961287023
 20
-155.8716226823862
 30
0.0
 10
90.48818899647518
 20
-155.9797986806231
 30
0.0
 10
90.48818899647518
 20
-156.3859754383341
 30
0.0
 10
90.48818899647518
 20
-156.7053357898167
 30
0.0
 10
90.28940698697626
 20
-156.9251328817756
 30
0.0
 10
89.97211369278476
 20
-156.9251328817756
 30
0.0
  0
HATCH
  5
C2
330
BC
100
AcDbEntity
  8
レイヤー 1
 62
    18
420
        0
440
 33554687
100
AcDbHatch
 10
0.0
 20
0.0
 30
0.0
210
0.0
220
0.0
230
1.0
  2
SOLID
 70
     1
 71
     1
 91
        2
 92
        1
 93
        1
 72
     4
 94
        3
 73
     0
 74
     0
 95
       17
 96
       13
 40
0.0
 40
0.0
 40
0.0
 40
0.0
 40
1.0
 40
1.0
 40
1.0
 40
2.0
 40
2.0
 40
2.0
 40
3.0
 40
3.0
 40
3.0
 40
4.0
 40
4.0
 40
4.0
 40
4.0
 10
89.98899466066248
 20
-156.0662705773028
 10
89.7266506394607
 20
-156.0662705773028
 10
89.6885823343487
 20
-156.2777994400972
 10
89.6885823343487
 20
-156.3942436674986
 10
89.6885823343487
 20
-156.5699435372464
 10
89.78383922451584
 20
-156.7328965536987
 10
89.96780732342818
 20
-156.7328965536987
 10
90.08838566541193
 20
-156.7328965536987
 10
90.26408553515969
 20
-156.6736409113524
 10
90.26408553515969
 20
-156.3880424956252
 10
90.26408553515969
 20
-156.1637667795354
 10
90.1243869132328
 20
-156.0662705773028
 10
89.98899466066248
 20
-156.0662705773028
 97
        0
 97
        1
330
C0
 92
        1
 93
        1
 72
     4
 94
        3
 73
     0
 74
     0
 95
       32
 96
       28
 40
0.0
 40
0.0
 40
0.0
 40
0.0
 40
1.0
 40
1.0
 40
1.0
 40
2.0
 40
2.0
 40
2.0
 40
3.0
 40
3.0
 40
3.0
 40
4.0
 40
4.0
 40
4.0
 40
5.0
 40
5.0
 40
5.0
 40
6.0
 40
6.0
 40
6.0
 40
7.0
 40
7.0
 40
7.0
 40
8.0
 40
8.0
 40
8.0
 40
9.0
 40
9.0
 40
9.0
 40
9.0
 10
89.97211369278476
 20
-156.9251328817756
 10
89.45586613432006
 20
-156.9251328817756
 10
89.4474256503812
 20
-156.3711615277474
 10
89.4474256503812
 20
-156.1572210981134
 10
89.4474256503812
 20
-155.9267442101502
 10
89.46654593032434
 20
-155.2794107684718
 10
90.01018199789676
 20
-155.2794107684718
 10
90.1836425555791
 20
-155.2794107684718
 10
90.42893335412889
 20
-155.3493462068224
 10
90.46717391401514
 20
-155.6814534116004
 10
90.46717391401514
 20
-155.6814534116004
 10
90.2534057391554
 20
-155.6814534116004
 10
90.2534057391554
 20
-155.6814534116004
 10
90.24289819792539
 20
-155.6242648265453
 10
90.21120331946109
 20
-155.4761257206796
 10
90.00811494060561
 20
-155.4761257206796
 10
89.71614309823069
 20
-155.4761257206796
 10
89.67583548105327
 20
-155.8040988108753
 10
89.66326088253209
 20
-156.0090819922477
 10
89.75627846063385
 20
-155.9308783247325
 10
89.82397458691901
 20
-155.8716226823862
 10
90.0058756285402
 20
-155.8716226823862
 10
90.18570961287023
 20
-155.8716226823862
 10
90.48818899647518
 20
-155.9797986806231
 10
90.48818899647518
 20
-156.3859754383341
 10
90.48818899647518
 20
-156.7053357898167
 10
90.28940698697626
 20
-156.9251328817756
 10
89.97211369278476
 20
-156.9251328817756
 97
        0
 97
        1
330
C1
 75
     2
 76
     1
 98
        1
 10
0.0
 20
0.0
450
        0
451
        0
460
0.0
461
0.0
452
        0
462
0.0
453
        0
470

  0
ENDBLK
  5
BF
330
BC
100
AcDbEntity
  8
0
100
AcDbBlockEnd
  0
BLOCK
  5
C8
330
C6
100
AcDbEntity
  8
0
100
AcDbBlockBegin
  2
Block_6
 70
     0
 10
0.0
 20
0.0
 30
0.0
  3
Block_6
  1

  0
INSERT
  5
CB
330
C6
100
AcDbEntity
  8
レイヤー 1
100
AcDbBlockReference
  2
Block_7
 10
0.0
 20
0.0
 30
0.0
  0
ENDBLK
  5
C9
330
C6
100
AcDbEntity
  8
0
100
AcDbBlockEnd
  0
BLOCK
  5
CC
330
CA
100
AcDbEntity
  8
0
100
AcDbBlockBegin
  2
Block_7
 70
     0
 10
0.0
 20
0.0
 30
0.0
  3
Block_7
  1

  0
SPLINE
  5
CE
330
CA
100
AcDbEntity
  8
レイヤー 1
100
AcDbSpline
210
0.0
220
0.0
230
1.0
 70
     9
 71
     3
 72
    62
 73
    58
 74
     0
 42
0.0000000001
 43
0.0000000001
 40
0.0
 40
0.0
 40
0.0
 40
0.0
 40
1.0
 40
1.0
 40
1.0
 40
2.0
 40
2.0
 40
2.0
 40
3.0
 40
3.0
 40
3.0
 40
4.0
 40
4.0
 40
4.0
 40
5.0
 40
5.0
 40
5.0
 40
6.0
 40
6.0
 40
6.0
 40
7.0
 40
7.0
 40
7.0
 40
8.0
 40
8.0
 40
8.0
 40
9.0
 40
9.0
 40
9.0
 40
10.0
 40
10.0
 40
10.0
 40
11.0
 40
11.0
 40
11.0
 40
12.0
 40
12.0
 40
12.0
 40
13.0
 40
13.0
 40
13.0
 40
14.0
 40
14.0
 40
14.0
 40
15.0
 40
15.0
 40
15.0
 40
16.0
 40
16.0
 40
16.0
 40
17.0
 40
17.0
 40
17.0
 40
18.0
 40
18.0
 40
18.0
 40
19.0
 40
19.0
 40
19.0
 40
19.0
 10
101.7927530669997
 20
-136.9253200612547
 30
0.0
 10
101.6973239220583
 20
-136.9253200612547
 30
0.0
 10
101.4795938873905
 20
-136.9043049787947
 30
0.0
 10
101.3545369212759
 20
-136.718097567817
 30
0.0
 10
101.2804673683431
 20
-136.6059597097721
 30
0.0
 10
101.2763332537607
 20
-136.5065687050226
 30
0.0
 10
101.2721991391785
 20
-136.4219916108597
 30
0.0
 10
101.2721991391785
 20
-136.4219916108597
 30
0.0
 10
101.4923407406859
 20
-136.4219916108597
 30
0.0
 10
101.4923407406859
 20
-136.4219916108597
 30
0.0
 10
101.4944077979771
 20
-136.4960611637926
 30
0.0
 10
101.5047430844328
 20
-136.7308444211124
 30
0.0
 10
101.7882744428689
 20
-136.7308444211124
 30
0.0
 10
101.9257337527303
 20
-136.7308444211124
 30
0.0
 10
102.0783514827269
 20
-136.6610812375361
 30
0.0
 10
102.0783514827269
 20
-136.4324991520898
 30
0.0
 10
102.0783514827269
 20
-136.3162271794626
 30
0.0
 10
102.0401109228406
 20
-136.2674790783463
 30
0.0
 10
102.0084160443764
 20
-136.235784199882
 30
0.0
 10
101.9343464914435
 20
-136.1617146469491
 30
0.0
 10
101.817902264042
 20
-136.149140048428
 30
0.0
 10
101.7631252458266
 20
-136.149140048428
 30
0.0
 10
101.7438327111092
 20
-136.149140048428
 30
0.0
 10
101.7080037180626
 20
-136.1512071057191
 30
0.0
 10
101.6804429541806
 20
-136.1553412203014
 30
0.0
 10
101.6804429541806
 20
-136.1553412203014
 30
0.0
 10
101.6804429541806
 20
-135.9606933253848
 30
0.0
 10
101.6804429541806
 20
-135.9606933253848
 30
0.0
 10
101.7186835140668
 20
-135.9670667520325
 30
0.0
 10
101.7607136789869
 20
-135.9693060640979
 30
0.0
 10
101.7672593604089
 20
-135.9693060640979
 30
0.0
 10
101.8327161746286
 20
-135.9693060640979
 30
0.0
 10
102.0314981841275
 20
-135.9481187268636
 30
0.0
 10
102.0314981841275
 20
-135.7110961574785
 30
0.0
 10
102.0314981841275
 20
-135.5335014852138
 30
0.0
 10
101.900584555688
 20
-135.4783799574498
 30
0.0
 10
101.79034150016
 20
-135.4783799574498
 30
0.0
 10
101.5261026764414
 20
-135.4783799574498
 30
0.0
 10
101.5174899377282
 20
-135.7110961574785
 30
0.0
 10
101.513355823146
 20
-135.7830986531202
 30
0.0
 10
101.513355823146
 20
-135.7830986531202
 30
0.0
 10
101.3100951895162
 20
-135.7830986531202
 30
0.0
 10
101.3100951895162
 20
-135.7830986531202
 30
0.0
 10
101.3187079282293
 20
-135.6582139417799
 30
0.0
 10
101.3462686921113
 20
-135.2816650052421
 30
0.0
 10
101.8030883534555
 20
-135.2816650052421
 30
0.0
 10
102.0273640695452
 20
-135.2816650052421
 30
0.0
 10
102.2685207535127
 20
-135.4086167738735
 30
0.0
 10
102.2685207535127
 20
-135.7047227308308
 30
0.0
 10
102.2685207535127
 20
-135.8909301418085
 30
0.0
 10
102.1734361181198
 20
-135.9734401786802
 30
0.0
 10
102.0738728585961
 20
-136.0347628783177
 30
0.0
 10
102.1351955582335
 20
-136.0623236421997
 30
0.0
 10
102.3170965998547
 20
-136.1427666217803
 30
0.0
 10
102.3170965998547
 20
-136.4199245535686
 30
0.0
 10
102.3170965998547
 20
-136.7584051849944
 30
0.0
 10
102.0697387440138
 20
-136.9253200612547
 30
0.0
 10
101.7927530669997
 20
-136.9253200612547
 30
0.0
  0
HATCH
  5
CF
330
CA
100
AcDbEntity
  8
レイヤー 1
 62
    18
420
        0
440
 33554687
100
AcDbHatch
 10
0.0
 20
0.0
 30
0.0
210
0.0
220
0.0
230
1.0
  2
SOLID
 70
     1
 71
     1
 91
        1
 92
        1
 93
        1
 72
     4
 94
        3
 73
     0
 74
     0
 95
       62
 96
       58
 40
0.0
 40
0.0
 40
0.0
 40
0.0
 40
1.0
 40
1.0
 40
1.0
 40
2.0
 40
2.0
 40
2.0
 40
3.0
 40
3.0
 40
3.0
 40
4.0
 40
4.0
 40
4.0
 40
5.0
 40
5.0
 40
5.0
 40
6.0
 40
6.0
 40
6.0
 40
7.0
 40
7.0
 40
7.0
 40
8.0
 40
8.0
 40
8.0
 40
9.0
 40
9.0
 40
9.0
 40
10.0
 40
10.0
 40
10.0
 40
11.0
 40
11.0
 40
11.0
 40
12.0
 40
12.0
 40
12.0
 40
13.0
 40
13.0
 40
13.0
 40
14.0
 40
14.0
 40
14.0
 40
15.0
 40
15.0
 40
15.0
 40
16.0
 40
16.0
 40
16.0
 40
17.0
 40
17.0
 40
17.0
 40
18.0
 40
18.0
 40
18.0
 40
19.0
 40
19.0
 40
19.0
 40
19.0
 10
101.7927530669997
 20
-136.9253200612547
 10
101.6973239220583
 20
-136.9253200612547
 10
101.4795938873905
 20
-136.9043049787947
 10
101.3545369212759
 20
-136.718097567817
 10
101.2804673683431
 20
-136.6059597097721
 10
101.2763332537607
 20
-136.5065687050226
 10
101.2721991391785
 20
-136.4219916108597
 10
101.2721991391785
 20
-136.4219916108597
 10
101.4923407406859
 20
-136.4219916108597
 10
101.4923407406859
 20
-136.4219916108597
 10
101.4944077979771
 20
-136.4960611637926
 10
101.5047430844328
 20
-136.7308444211124
 10
101.7882744428689
 20
-136.7308444211124
 10
101.9257337527303
 20
-136.7308444211124
 10
102.0783514827269
 20
-136.6610812375361
 10
102.0783514827269
 20
-136.4324991520898
 10
102.0783514827269
 20
-136.3162271794626
 10
102.0401109228406
 20
-136.2674790783463
 10
102.0084160443764
 20
-136.235784199882
 10
101.9343464914435
 20
-136.1617146469491
 10
101.817902264042
 20
-136.149140048428
 10
101.7631252458266
 20
-136.149140048428
 10
101.7438327111092
 20
-136.149140048428
 10
101.7080037180626
 20
-136.1512071057191
 10
101.6804429541806
 20
-136.1553412203014
 10
101.6804429541806
 20
-136.1553412203014
 10
101.6804429541806
 20
-135.9606933253848
 10
101.6804429541806
 20
-135.9606933253848
 10
101.7186835140668
 20
-135.9670667520325
 10
101.7607136789869
 20
-135.9693060640979
 10
101.7672593604089
 20
-135.9693060640979
 10
101.8327161746286
 20
-135.9693060640979
 10
102.0314981841275
 20
-135.9481187268636
 10
102.0314981841275
 20
-135.7110961574785
 10
102.0314981841275
 20
-135.5335014852138
 10
101.900584555688
 20
-135.4783799574498
 10
101.79034150016
 20
-135.4783799574498
 10
101.5261026764414
 20
-135.4783799574498
 10
101.5174899377282
 20
-135.7110961574785
 10
101.513355823146
 20
-135.7830986531202
 10
101.513355823146
 20
-135.7830986531202
 10
101.3100951895162
 20
-135.7830986531202
 10
101.3100951895162
 20
-135.7830986531202
 10
101.3187079282293
 20
-135.6582139417799
 10
101.3462686921113
 20
-135.2816650052421
 10
101.8030883534555
 20
-135.2816650052421
 10
102.0273640695452
 20
-135.2816650052421
 10
102.2685207535127
 20
-135.4086167738735
 10
102.2685207535127
 20
-135.7047227308308
 10
102.2685207535127
 20
-135.8909301418085
 10
102.1734361181198
 20
-135.9734401786802
 10
102.0738728585961
 20
-136.0347628783177
 10
102.1351955582335
 20
-136.0623236421997
 10
102.3170965998547
 20
-136.1427666217803
 10
102.3170965998547
 20
-136.4199245535686
 10
102.3170965998547
 20
-136.7584051849944
 10
102.0697387440138
 20
-136.9253200612547
 10
101.7927530669997
 20
-136.9253200612547
 97
        0
 97
        1
330
CE
 75
     2
 76
     1
 98
        1
 10
0.0
 20
0.0
450
        0
451
        0
460
0.0
461
0.0
452
        0
462
0.0
453
        0
470

  0
SPLINE
  5
D0
330
CA
100
AcDbEntity
  8
レイヤー 1
100
AcDbSpline
210
0.0
220
0.0
230
1.0
 70
    11
 71
     3
 72
    26
 73
    22
 74
     0
 42
0.0000000001
 43
0.0000000001
 40
0.0
 40
0.0
 40
0.0
 40
0.0
 40
1.0
 40
1.0
 40
1.0
 40
2.0
 40
2.0
 40
2.0
 40
3.0
 40
3.0
 40
3.0
 40
4.0
 40
4.0
 40
4.0
 40
5.0
 40
5.0
 40
5.0
 40
6.0
 40
6.0
 40
6.0
 40
7.0
 40
7.0
 40
7.0
 40
7.0
 10
102.9292900675836
 20
-136.8746771576216
 30
0.0
 10
102.9292900675836
 20
-136.8746771576216
 30
0.0
 10
102.9292900675836
 20
-135.7703517998247
 30
0.0
 10
102.9292900675836
 20
-135.7703517998247
 30
0.0
 10
102.9292900675836
 20
-135.7703517998247
 30
0.0
 10
102.5992499200967
 20
-135.7703517998247
 30
0.0
 10
102.5992499200967
 20
-135.7703517998247
 30
0.0
 10
102.5992499200967
 20
-135.7703517998247
 30
0.0
 10
102.5992499200967
 20
-135.6223849487333
 30
0.0
 10
102.5992499200967
 20
-135.6223849487333
 30
0.0
 10
102.9313571248748
 20
-135.6075710381467
 30
0.0
 10
102.9778659139257
 20
-135.4446180216944
 30
0.0
 10
103.0074937350988
 20
-135.3304131063584
 30
0.0
 10
103.0074937350988
 20
-135.3304131063584
 30
0.0
 10
103.1535657836734
 20
-135.3304131063584
 30
0.0
 10
103.1535657836734
 20
-135.3304131063584
 30
0.0
 10
103.1535657836734
 20
-135.3304131063584
 30
0.0
 10
103.1535657836734
 20
-136.8746771576216
 30
0.0
 10
103.1535657836734
 20
-136.8746771576216
 30
0.0
 10
103.1535657836734
 20
-136.8746771576216
 30
0.0
 10
102.9292900675836
 20
-136.8746771576216
 30
0.0
 10
102.9292900675836
 20
-136.8746771576216
 30
0.0
  0
HATCH
  5
D1
330
CA
100
AcDbEntity
  8
レイヤー 1
 62
    18
420
        0
440
 33554687
100
AcDbHatch
 10
0.0
 20
0.0
 30
0.0
210
0.0
220
0.0
230
1.0
  2
SOLID
 70
     1
 71
     1
 91
        1
 92
        1
 93
        1
 72
     4
 94
        3
 73
     0
 74
     0
 95
       26
 96
       22
 40
0.0
 40
0.0
 40
0.0
 40
0.0
 40
1.0
 40
1.0
 40
1.0
 40
2.0
 40
2.0
 40
2.0
 40
3.0
 40
3.0
 40
3.0
 40
4.0
 40
4.0
 40
4.0
 40
5.0
 40
5.0
 40
5.0
 40
6.0
 40
6.0
 40
6.0
 40
7.0
 40
7.0
 40
7.0
 40
7.0
 10
102.9292900675836
 20
-136.8746771576216
 10
102.9292900675836
 20
-136.8746771576216
 10
102.9292900675836
 20
-135.7703517998247
 10
102.9292900675836
 20
-135.7703517998247
 10
102.9292900675836
 20
-135.7703517998247
 10
102.5992499200967
 20
-135.7703517998247
 10
102.5992499200967
 20
-135.7703517998247
 10
102.5992499200967
 20
-135.7703517998247
 10
102.5992499200967
 20
-135.6223849487333
 10
102.5992499200967
 20
-135.6223849487333
 10
102.9313571248748
 20
-135.6075710381467
 10
102.9778659139257
 20
-135.4446180216944
 10
103.0074937350988
 20
-135.3304131063584
 10
103.0074937350988
 20
-135.3304131063584
 10
103.1535657836734
 20
-135.3304131063584
 10
103.1535657836734
 20
-135.3304131063584
 10
103.1535657836734
 20
-135.3304131063584
 10
103.1535657836734
 20
-136.8746771576216
 10
103.1535657836734
 20
-136.8746771576216
 10
103.1535657836734
 20
-136.8746771576216
 10
102.9292900675836
 20
-136.8746771576216
 10
102.9292900675836
 20
-136.8746771576216
 97
        0
 97
        1
330
D0
 75
     2
 76
     1
 98
        1
 10
0.0
 20
0.0
450
        0
451
        0
460
0.0
461
0.0
452
        0
462
0.0
453
        0
470

  0
ENDBLK
  5
CD
330
CA
100
AcDbEntity
  8
0
100
AcDbBlockEnd
  0
BLOCK
  5
D8
330
D6
100
AcDbEntity
  8
0
100
AcDbBlockBegin
  2
Block_8
 70
     0
 10
0.0
 20
0.0
 30
0.0
  3
Block_8
  1

  0
INSERT
  5
DB
330
D6
100
AcDbEntity
  8
レイヤー 1
100
AcDbBlockReference
  2
Block_9
 10
0.0
 20
0.0
 30
0.0
  0
ENDBLK
  5
D9
330
D6
100
AcDbEntity
  8
0
100
AcDbBlockEnd
  0
BLOCK
  5
DC
330
DA
100
AcDbEntity
  8
0
100
AcDbBlockBegin
  2
Block_9
 70
     0
 10
0.0
 20
0.0
 30
0.0
  3
Block_9
  1

  0
SPLINE
  5
DE
330
DA
100
AcDbEntity
  8
レイヤー 1
100
AcDbSpline
210
0.0
220
0.0
230
1.0
 70
     9
 71
     3
 72
    17
 73
    13
 74
     0
 42
0.0000000001
 43
0.0000000001
 40
0.0
 40
0.0
 40
0.0
 40
0.0
 40
1.0
 40
1.0
 40
1.0
 40
2.0
 40
2.0
 40
2.0
 40
3.0
 40
3.0
 40
3.0
 40
4.0
 40
4.0
 40
4.0
 40
4.0
 10
104.2628865299238
 20
-150.9916449275299
 30
0.0
 10
104.2628865299238
 20
-151.2414143502105
 30
0.0
 10
104.5464178883599
 20
-151.2879231392613
 30
0.0
 10
104.8912719464334
 20
-151.2879231392613
 30
0.0
 10
105.2106322979161
 20
-151.2879231392613
 30
0.0
 10
105.5194851081687
 20
-151.2517496366662
 30
0.0
 10
105.5194851081687
 20
-150.9916449275299
 30
0.0
 10
105.5194851081687
 20
-150.7439425621404
 30
0.0
 10
105.2381930617981
 20
-150.6953667157984
 30
0.0
 10
104.8912719464334
 20
-150.6953667157984
 30
0.0
 10
104.5715670854022
 20
-150.6953667157984
 30
0.0
 10
104.2628865299238
 20
-150.7336072756846
 30
0.0
 10
104.2628865299238
 20
-150.9916449275299
 30
0.0
  0
SPLINE
  5
DF
330
DA
100
AcDbEntity
  8
レイヤー 1
100
AcDbSpline
210
0.0
220
0.0
230
1.0
 70
     9
 71
     3
 72
    29
 73
    25
 74
     0
 42
0.0000000001
 43
0.0000000001
 40
0.0
 40
0.0
 40
0.0
 40
0.0
 40
1.0
 40
1.0
 40
1.0
 40
2.0
 40
2.0
 40
2.0
 40
3.0
 40
3.0
 40
3.0
 40
4.0
 40
4.0
 40
4.0
 40
5.0
 40
5.0
 40
5.0
 40
6.0
 40
6.0
 40
6.0
 40
7.0
 40
7.0
 40
7.0
 40
8.0
 40
8.0
 40
8.0
 40
8.0
 10
105.4857231724133
 20
-150.5937363989835
 30
0.0
 10
105.6951849779165
 20
-150.7019123972203
 30
0.0
 10
105.7141330030853
 20
-150.8752007001284
 30
0.0
 10
105.7141330030853
 20
-150.9916449275299
 30
0.0
 10
105.7141330030853
 20
-151.152530886691
 30
0.0
 10
105.6676242140345
 20
-151.2941243111348
 30
0.0
 10
105.4857231724133
 20
-151.3892089465277
 30
0.0
 10
105.2909030227224
 20
-151.4929063206337
 30
0.0
 10
105.0542249628857
 20
-151.5121988553511
 30
0.0
 10
104.8912719464334
 20
-151.5121988553511
 30
0.0
 10
104.74726695515
 20
-151.5121988553511
 30
0.0
 10
104.4954304751782
 20
-151.4949733779249
 30
0.0
 10
104.2966484656793
 20
-151.3892089465277
 30
0.0
 10
104.0937323415981
 20
-151.2813774578394
 30
0.0
 10
104.0703056922984
 20
-151.1204914986782
 30
0.0
 10
104.0703056922984
 20
-150.9916449275299
 30
0.0
 10
104.0703056922984
 20
-150.8328260256599
 30
0.0
 10
104.1147474240581
 20
-150.6891655439249
 30
0.0
 10
104.2966484656793
 20
-150.5937363989835
 30
0.0
 10
104.4892293033047
 20
-150.4945176490083
 30
0.0
 10
104.7176391339768
 20
-150.4710909997086
 30
0.0
 10
104.8912719464334
 20
-150.4710909997086
 30
0.0
 10
105.0624931920503
 20
-150.4710909997086
 30
0.0
 10
105.2929700800135
 20
-150.4924505917171
 30
0.0
 10
105.4857231724133
 20
-150.5937363989835
 30
0.0
  0
HATCH
  5
E0
330
DA
100
AcDbEntity
  8
レイヤー 1
 62
    18
420
        0
440
 33554687
100
AcDbHatch
 10
0.0
 20
0.0
 30
0.0
210
0.0
220
0.0
230
1.0
  2
SOLID
 70
     1
 71
     1
 91
        2
 92
        1
 93
        1
 72
     4
 94
        3
 73
     0
 74
     0
 95
       17
 96
       13
 40
0.0
 40
0.0
 40
0.0
 40
0.0
 40
1.0
 40
1.0
 40
1.0
 40
2.0
 40
2.0
 40
2.0
 40
3.0
 40
3.0
 40
3.0
 40
4.0
 40
4.0
 40
4.0
 40
4.0
 10
104.2628865299238
 20
-150.9916449275299
 10
104.2628865299238
 20
-151.2414143502105
 10
104.5464178883599
 20
-151.2879231392613
 10
104.8912719464334
 20
-151.2879231392613
 10
105.2106322979161
 20
-151.2879231392613
 10
105.5194851081687
 20
-151.2517496366662
 10
105.5194851081687
 20
-150.9916449275299
 10
105.5194851081687
 20
-150.7439425621404
 10
105.2381930617981
 20
-150.6953667157984
 10
104.8912719464334
 20
-150.6953667157984
 10
104.5715670854022
 20
-150.6953667157984
 10
104.2628865299238
 20
-150.7336072756846
 10
104.2628865299238
 20
-150.9916449275299
 97
        0
 97
        1
330
DE
 92
        1
 93
        1
 72
     4
 94
        3
 73
     0
 74
     0
 95
       29
 96
       25
 40
0.0
 40
0.0
 40
0.0
 40
0.0
 40
1.0
 40
1.0
 40
1.0
 40
2.0
 40
2.0
 40
2.0
 40
3.0
 40
3.0
 40
3.0
 40
4.0
 40
4.0
 40
4.0
 40
5.0
 40
5.0
 40
5.0
 40
6.0
 40
6.0
 40
6.0
 40
7.0
 40
7.0
 40
7.0
 40
8.0
 40
8.0
 40
8.0
 40
8.0
 10
105.4857231724133
 20
-150.5937363989835
 10
105.6951849779165
 20
-150.7019123972203
 10
105.7141330030853
 20
-150.8752007001284
 10
105.7141330030853
 20
-150.9916449275299
 10
105.7141330030853
 20
-151.152530886691
 10
105.6676242140345
 20
-151.2941243111348
 10
105.4857231724133
 20
-151.3892089465277
 10
105.2909030227224
 20
-151.4929063206337
 10
105.0542249628857
 20
-151.5121988553511
 10
104.8912719464334
 20
-151.5121988553511
 10
104.74726695515
 20
-151.5121988553511
 10
104.4954304751782
 20
-151.4949733779249
 10
104.2966484656793
 20
-151.3892089465277
 10
104.0937323415981
 20
-151.2813774578394
 10
104.0703056922984
 20
-151.1204914986782
 10
104.0703056922984
 20
-150.9916449275299
 10
104.0703056922984
 20
-150.8328260256599
 10
104.1147474240581
 20
-150.6891655439249
 10
104.2966484656793
 20
-150.5937363989835
 10
104.4892293033047
 20
-150.4945176490083
 10
104.7176391339768
 20
-150.4710909997086
 10
104.8912719464334
 20
-150.4710909997086
 10
105.0624931920503
 20
-150.4710909997086
 10
105.2929700800135
 20
-150.4924505917171
 10
105.4857231724133
 20
-150.5937363989835
 97
        0
 97
        1
330
DF
 75
     2
 76
     1
 98
        1
 10
0.0
 20
0.0
450
        0
451
        0
460
0.0
461
0.0
452
        0
462
0.0
453
        0
470

  0
SPLINE
  5
E1
330
DA
100
AcDbEntity
  8
レイヤー 1
100
AcDbSpline
210
0.0
220
0.0
230
1.0
 70
    11
 71
     3
 72
    17
 73
    13
 74
     0
 42
0.0000000001
 43
0.0000000001
 40
0.0
 40
0.0
 40
0.0
 40
0.0
 40
1.0
 40
1.0
 40
1.0
 40
2.0
 40
2.0
 40
2.0
 40
3.0
 40
3.0
 40
3.0
 40
4.0
 40
4.0
 40
4.0
 40
4.0
 10
105.6634900994522
 20
-150.2547390032349
 30
0.0
 10
105.6634900994522
 20
-150.2547390032349
 30
0.0
 10
105.4114813647061
 20
-150.2547390032349
 30
0.0
 10
105.4114813647061
 20
-150.2547390032349
 30
0.0
 10
105.4114813647061
 20
-150.2547390032349
 30
0.0
 10
105.4114813647061
 20
-150.0029025232632
 30
0.0
 10
105.4114813647061
 20
-150.0029025232632
 30
0.0
 10
105.4114813647061
 20
-150.0029025232632
 30
0.0
 10
105.6634900994522
 20
-150.0029025232632
 30
0.0
 10
105.6634900994522
 20
-150.0029025232632
 30
0.0
 10
105.6634900994522
 20
-150.0029025232632
 30
0.0
 10
105.6634900994522
 20
-150.2547390032349
 30
0.0
 10
105.6634900994522
 20
-150.2547390032349
 30
0.0
  0
HATCH
  5
E2
330
DA
100
AcDbEntity
  8
レイヤー 1
 62
    18
420
        0
440
 33554687
100
AcDbHatch
 10
0.0
 20
0.0
 30
0.0
210
0.0
220
0.0
230
1.0
  2
SOLID
 70
     1
 71
     1
 91
        1
 92
        1
 93
        1
 72
     4
 94
        3
 73
     0
 74
     0
 95
       17
 96
       13
 40
0.0
 40
0.0
 40
0.0
 40
0.0
 40
1.0
 40
1.0
 40
1.0
 40
2.0
 40
2.0
 40
2.0
 40
3.0
 40
3.0
 40
3.0
 40
4.0
 40
4.0
 40
4.0
 40
4.0
 10
105.6634900994522
 20
-150.2547390032349
 10
105.6634900994522
 20
-150.2547390032349
 10
105.4114813647061
 20
-150.2547390032349
 10
105.4114813647061
 20
-150.2547390032349
 10
105.4114813647061
 20
-150.2547390032349
 10
105.4114813647061
 20
-150.0029025232632
 10
105.4114813647061
 20
-150.0029025232632
 10
105.4114813647061
 20
-150.0029025232632
 10
105.6634900994522
 20
-150.0029025232632
 10
105.6634900994522
 20
-150.0029025232632
 10
105.6634900994522
 20
-150.0029025232632
 10
105.6634900994522
 20
-150.2547390032349
 10
105.6634900994522
 20
-150.2547390032349
 97
        0
 97
        1
330
E1
 75
     2
 76
     1
 98
        1
 10
0.0
 20
0.0
450
        0
451
        0
460
0.0
461
0.0
452
        0
462
0.0
453
        0
470

  0
SPLINE
  5
E3
330
DA
100
AcDbEntity
  8
レイヤー 1
100
AcDbSpline
210
0.0
220
0.0
230
1.0
 70
     9
 71
     3
 72
    53
 73
    49
 74
     0
 42
0.0000000001
 43
0.0000000001
 40
0.0
 40
0.0
 40
0.0
 40
0.0
 40
1.0
 40
1.0
 40
1.0
 40
2.0
 40
2.0
 40
2.0
 40
3.0
 40
3.0
 40
3.0
 40
4.0
 40
4.0
 40
4.0
 40
5.0
 40
5.0
 40
5.0
 40
6.0
 40
6.0
 40
6.0
 40
7.0
 40
7.0
 40
7.0
 40
8.0
 40
8.0
 40
8.0
 40
9.0
 40
9.0
 40
9.0
 40
10.0
 40
10.0
 40
10.0
 40
11.0
 40
11.0
 40
11.0
 40
12.0
 40
12.0
 40
12.0
 40
13.0
 40
13.0
 40
13.0
 40
14.0
 40
14.0
 40
14.0
 40
15.0
 40
15.0
 40
15.0
 40
16.0
 40
16.0
 40
16.0
 40
16.0
 10
105.7141330030853
 20
-149.2856336432341
 30
0.0
 10
105.7141330030853
 20
-149.3638373107493
 30
0.0
 10
105.6972520352076
 20
-149.4654676275642
 30
0.0
 10
105.633862278279
 20
-149.5670979443791
 30
0.0
 10
105.5239637322995
 20
-149.7403862472871
 30
0.0
 10
105.3925333395373
 20
-149.7617458392957
 30
0.0
 10
105.2847018508489
 20
-149.7806938644645
 30
0.0
 10
105.2847018508489
 20
-149.7806938644645
 30
0.0
 10
105.2847018508489
 20
-149.5584852056659
 30
0.0
 10
105.2847018508489
 20
-149.5584852056659
 30
0.0
 10
105.4836561151221
 20
-149.5037081874504
 30
0.0
 10
105.5132839362953
 20
-149.3765841640447
 30
0.0
 10
105.5132839362953
 20
-149.283566585943
 30
0.0
 10
105.5132839362953
 20
-149.1440402187904
 30
0.0
 10
105.4135484219973
 20
-148.9917669983423
 30
0.0
 10
105.1810044767429
 20
-148.9917669983423
 30
0.0
 10
104.9250338821889
 20
-148.9917669983423
 30
0.0
 10
104.8550984438383
 20
-149.1716009826723
 30
0.0
 10
104.8550984438383
 20
-149.2921793246561
 30
0.0
 10
104.8550984438383
 20
-149.3238742031204
 30
0.0
 10
104.8550984438383
 20
-149.4654676275642
 30
0.0
 10
104.9842895245352
 20
-149.5543510910836
 30
0.0
 10
104.9842895245352
 20
-149.5543510910836
 30
0.0
 10
104.9653414993663
 20
-149.7300509608314
 30
0.0
 10
104.9653414993663
 20
-149.7300509608314
 30
0.0
 10
104.9653414993663
 20
-149.7300509608314
 30
0.0
 10
104.1188815386404
 20
-149.6094726188476
 30
0.0
 10
104.1188815386404
 20
-149.6094726188476
 30
0.0
 10
104.1188815386404
 20
-149.6094726188476
 30
0.0
 10
104.1188815386404
 20
-148.8308810391812
 30
0.0
 10
104.1188815386404
 20
-148.8308810391812
 30
0.0
 10
104.1188815386404
 20
-148.8308810391812
 30
0.0
 10
104.313529433557
 20
-148.8308810391812
 30
0.0
 10
104.313529433557
 20
-148.8308810391812
 30
0.0
 10
104.313529433557
 20
-148.8308810391812
 30
0.0
 10
104.313529433557
 20
-149.4465196023953
 30
0.0
 10
104.313529433557
 20
-149.4465196023953
 30
0.0
 10
104.313529433557
 20
-149.4465196023953
 30
0.0
 10
104.7365871591457
 20
-149.511976416615
 30
0.0
 10
104.7365871591457
 20
-149.511976416615
 30
0.0
 10
104.7028252233902
 20
-149.4506537169776
 30
0.0
 10
104.6625176062128
 20
-149.3683159348801
 30
0.0
 10
104.6625176062128
 20
-149.2498046501875
 30
0.0
 10
104.6625176062128
 20
-148.9959011129246
 30
0.0
 10
104.8488972719648
 20
-148.7588785435394
 30
0.0
 10
105.1620564515741
 20
-148.7588785435394
 30
0.0
 10
105.4793497457656
 20
-148.7588785435394
 30
0.0
 10
105.7141330030853
 20
-148.9831542596292
 30
0.0
 10
105.7141330030853
 20
-149.2856336432341
 30
0.0
  0
HATCH
  5
E4
330
DA
100
AcDbEntity
  8
レイヤー 1
 62
    18
420
        0
440
 33554687
100
AcDbHatch
 10
0.0
 20
0.0
 30
0.0
210
0.0
220
0.0
230
1.0
  2
SOLID
 70
     1
 71
     1
 91
        1
 92
        1
 93
        1
 72
     4
 94
        3
 73
     0
 74
     0
 95
       53
 96
       49
 40
0.0
 40
0.0
 40
0.0
 40
0.0
 40
1.0
 40
1.0
 40
1.0
 40
2.0
 40
2.0
 40
2.0
 40
3.0
 40
3.0
 40
3.0
 40
4.0
 40
4.0
 40
4.0
 40
5.0
 40
5.0
 40
5.0
 40
6.0
 40
6.0
 40
6.0
 40
7.0
 40
7.0
 40
7.0
 40
8.0
 40
8.0
 40
8.0
 40
9.0
 40
9.0
 40
9.0
 40
10.0
 40
10.0
 40
10.0
 40
11.0
 40
11.0
 40
11.0
 40
12.0
 40
12.0
 40
12.0
 40
13.0
 40
13.0
 40
13.0
 40
14.0
 40
14.0
 40
14.0
 40
15.0
 40
15.0
 40
15.0
 40
16.0
 40
16.0
 40
16.0
 40
16.0
 10
105.7141330030853
 20
-149.2856336432341
 10
105.7141330030853
 20
-149.3638373107493
 10
105.6972520352076
 20
-149.4654676275642
 10
105.633862278279
 20
-149.5670979443791
 10
105.5239637322995
 20
-149.7403862472871
 10
105.3925333395373
 20
-149.7617458392957
 10
105.2847018508489
 20
-149.7806938644645
 10
105.2847018508489
 20
-149.7806938644645
 10
105.2847018508489
 20
-149.5584852056659
 10
105.2847018508489
 20
-149.5584852056659
 10
105.4836561151221
 20
-149.5037081874504
 10
105.5132839362953
 20
-149.3765841640447
 10
105.5132839362953
 20
-149.283566585943
 10
105.5132839362953
 20
-149.1440402187904
 10
105.4135484219973
 20
-148.9917669983423
 10
105.1810044767429
 20
-148.9917669983423
 10
104.9250338821889
 20
-148.9917669983423
 10
104.8550984438383
 20
-149.1716009826723
 10
104.8550984438383
 20
-149.2921793246561
 10
104.8550984438383
 20
-149.3238742031204
 10
104.8550984438383
 20
-149.4654676275642
 10
104.9842895245352
 20
-149.5543510910836
 10
104.9842895245352
 20
-149.5543510910836
 10
104.9653414993663
 20
-149.7300509608314
 10
104.9653414993663
 20
-149.7300509608314
 10
104.9653414993663
 20
-149.7300509608314
 10
104.1188815386404
 20
-149.6094726188476
 10
104.1188815386404
 20
-149.6094726188476
 10
104.1188815386404
 20
-149.6094726188476
 10
104.1188815386404
 20
-148.8308810391812
 10
104.1188815386404
 20
-148.8308810391812
 10
104.1188815386404
 20
-148.8308810391812
 10
104.313529433557
 20
-148.8308810391812
 10
104.313529433557
 20
-148.8308810391812
 10
104.313529433557
 20
-148.8308810391812
 10
104.313529433557
 20
-149.4465196023953
 10
104.313529433557
 20
-149.4465196023953
 10
104.313529433557
 20
-149.4465196023953
 10
104.7365871591457
 20
-149.511976416615
 10
104.7365871591457
 20
-149.511976416615
 10
104.7028252233902
 20
-149.4506537169776
 10
104.6625176062128
 20
-149.3683159348801
 10
104.6625176062128
 20
-149.2498046501875
 10
104.6625176062128
 20
-148.9959011129246
 10
104.8488972719648
 20
-148.7588785435394
 10
105.1620564515741
 20
-148.7588785435394
 10
105.4793497457656
 20
-148.7588785435394
 10
105.7141330030853
 20
-148.9831542596292
 10
105.7141330030853
 20
-149.2856336432341
 97
        0
 97
        1
330
E3
 75
     2
 76
     1
 98
        1
 10
0.0
 20
0.0
450
        0
451
        0
460
0.0
461
0.0
452
        0
462
0.0
453
        0
470

  0
ENDBLK
  5
DD
330
DA
100
AcDbEntity
  8
0
100
AcDbBlockEnd
  0
BLOCK
  5
E8
330
E6
100
AcDbEntity
  8
0
100
AcDbBlockBegin
  2
Block_10
 70
     0
 10
0.0
 20
0.0
 30
0.0
  3
Block_10
  1

  0
INSERT
  5
EB
330
E6
100
AcDbEntity
  8
レイヤー 1
100
AcDbBlockReference
  2
Block_11
 10
0.0
 20
0.0
 30
0.0
  0
ENDBLK
  5
E9
330
E6
100
AcDbEntity
  8
0
100
AcDbBlockEnd
  0
BLOCK
  5
EC
330
EA
100
AcDbEntity
  8
0
100
AcDbBlockBegin
  2
Block_11
 70
     0
 10
0.0
 20
0.0
 30
0.0
  3
Block_11
  1

  0
SPLINE
  5
EE
330
EA
100
AcDbEntity
  8
レイヤー 1
100
AcDbSpline
210
0.0
220
0.0
230
1.0
 70
     9
 71
     3
 72
    59
 73
    55
 74
     0
 42
0.0000000001
 43
0.0000000001
 40
0.0
 40
0.0
 40
0.0
 40
0.0
 40
1.0
 40
1.0
 40
1.0
 40
2.0
 40
2.0
 40
2.0
 40
3.0
 40
3.0
 40
3.0
 40
4.0
 40
4.0
 40
4.0
 40
5.0
 40
5.0
 40
5.0
 40
6.0
 40
6.0
 40
6.0
 40
7.0
 40
7.0
 40
7.0
 40
8.0
 40
8.0
 40
8.0
 40
9.0
 40
9.0
 40
9.0
 40
10.0
 40
10.0
 40
10.0
 40
11.0
 40
11.0
 40
11.0
 40
12.0
 40
12.0
 40
12.0
 40
13.0
 40
13.0
 40
13.0
 40
14.0
 40
14.0
 40
14.0
 40
15.0
 40
15.0
 40
15.0
 40
16.0
 40
16.0
 40
16.0
 40
17.0
 40
17.0
 40
17.0
 40
18.0
 40
18.0
 40
18.0
 40
18.0
 10
107.4291015356427
 20
-158.1729464665331
 30
0.0
 10
107.2620144046081
 20
-158.6597384585989
 30
0.0
 10
107.012589491476
 20
-159.1820149341628
 30
0.0
 10
106.4138318961396
 20
-159.4993082283543
 30
0.0
 10
106.4138318961396
 20
-159.4993082283543
 30
0.0
 10
106.2253851730964
 20
-159.3470350079063
 30
0.0
 10
106.2253851730964
 20
-159.3470350079063
 30
0.0
 10
106.3862711322576
 20
-159.2774440791042
 30
0.0
 10
106.6315619308074
 20
-159.1672010235762
 30
0.0
 10
106.8833984107791
 20
-158.8371608760893
 30
0.0
 10
107.1204209801643
 20
-158.5243462060286
 30
0.0
 10
107.1776095652195
 20
-158.2683756114746
 30
0.0
 10
107.2048258195529
 20
-158.1412515880688
 30
0.0
 10
107.2048258195529
 20
-158.1412515880688
 30
0.0
 10
106.5574923778745
 20
-158.1412515880688
 30
0.0
 10
106.5574923778745
 20
-158.1412515880688
 30
0.0
 10
106.4537950037685
 20
-158.30213754723
 30
0.0
 10
106.3332166617847
 20
-158.4692246782646
 30
0.0
 10
106.1409803337078
 20
-158.6404459238815
 30
0.0
 10
106.1409803337078
 20
-158.6404459238815
 30
0.0
 10
105.9673475212512
 20
-158.5178005246066
 30
0.0
 10
105.9673475212512
 20
-158.5178005246066
 30
0.0
 10
106.0266031635975
 20
-158.4712917355558
 30
0.0
 10
106.1747422694632
 20
-158.3593261322851
 30
0.0
 10
106.3397623432067
 20
-158.1095567096045
 30
0.0
 10
106.4158989534307
 20
-157.9910454249119
 30
0.0
 10
106.5195963275368
 20
-157.8218912365862
 30
0.0
 10
106.5450900341276
 20
-157.6992458373113
 30
0.0
 10
106.5450900341276
 20
-157.6992458373113
 30
0.0
 10
106.7755669220908
 20
-157.8005316445776
 30
0.0
 10
106.7755669220908
 20
-157.8005316445776
 30
0.0
 10
106.7903808326774
 20
-157.8070773259996
 30
0.0
 10
106.8051947432639
 20
-157.8153455551642
 30
0.0
 10
106.8051947432639
 20
-157.8301594657508
 30
0.0
 10
106.8051947432639
 20
-157.8515190577593
 30
0.0
 10
106.7797010366731
 20
-157.8642659110547
 30
0.0
 10
106.7714328075085
 20
-157.8663329683459
 30
0.0
 10
106.7438720436265
 20
-157.8746011975105
 30
0.0
 10
106.7352593049134
 20
-157.8725341402194
 30
0.0
 10
106.7101101078711
 20
-157.8980278468102
 30
0.0
 10
106.6846164012802
 20
-157.923521553401
 30
0.0
 10
106.6866834585714
 20
-157.9317897825656
 30
0.0
 10
106.6549885801071
 20
-157.9848442530385
 30
0.0
 10
106.6549885801071
 20
-157.9848442530385
 30
0.0
 10
106.9891628421763
 20
-157.9848442530385
 30
0.0
 10
106.9891628421763
 20
-157.9848442530385
 30
0.0
 10
107.2451334367304
 20
-157.9848442530385
 30
0.0
 10
107.2768283151947
 20
-157.9720973997431
 30
0.0
 10
107.3340169002498
 20
-157.9424695785699
 30
0.0
 10
107.3340169002498
 20
-157.9424695785699
 30
0.0
 10
107.4904242352801
 20
-158.1074896523134
 30
0.0
 10
107.4904242352801
 20
-158.1074896523134
 30
0.0
 10
107.4566622995247
 20
-158.14331864536
 30
0.0
 10
107.4545952422335
 20
-158.1453857026511
 30
0.0
 10
107.4291015356427
 20
-158.1729464665331
 30
0.0
  0
HATCH
  5
EF
330
EA
100
AcDbEntity
  8
レイヤー 1
 62
    18
420
        0
440
 33554687
100
AcDbHatch
 10
0.0
 20
0.0
 30
0.0
210
0.0
220
0.0
230
1.0
  2
SOLID
 70
     1
 71
     1
 91
        1
 92
        1
 93
        1
 72
     4
 94
        3
 73
     0
 74
     0
 95
       59
 96
       55
 40
0.0
 40
0.0
 40
0.0
 40
0.0
 40
1.0
 40
1.0
 40
1.0
 40
2.0
 40
2.0
 40
2.0
 40
3.0
 40
3.0
 40
3.0
 40
4.0
 40
4.0
 40
4.0
 40
5.0
 40
5.0
 40
5.0
 40
6.0
 40
6.0
 40
6.0
 40
7.0
 40
7.0
 40
7.0
 40
8.0
 40
8.0
 40
8.0
 40
9.0
 40
9.0
 40
9.0
 40
10.0
 40
10.0
 40
10.0
 40
11.0
 40
11.0
 40
11.0
 40
12.0
 40
12.0
 40
12.0
 40
13.0
 40
13.0
 40
13.0
 40
14.0
 40
14.0
 40
14.0
 40
15.0
 40
15.0
 40
15.0
 40
16.0
 40
16.0
 40
16.0
 40
17.0
 40
17.0
 40
17.0
 40
18.0
 40
18.0
 40
18.0
 40
18.0
 10
107.4291015356427
 20
-158.1729464665331
 10
107.2620144046081
 20
-158.6597384585989
 10
107.012589491476
 20
-159.1820149341628
 10
106.4138318961396
 20
-159.4993082283543
 10
106.4138318961396
 20
-159.4993082283543
 10
106.2253851730964
 20
-159.3470350079063
 10
106.2253851730964
 20
-159.3470350079063
 10
106.3862711322576
 20
-159.2774440791042
 10
106.6315619308074
 20
-159.1672010235762
 10
106.8833984107791
 20
-158.8371608760893
 10
107.1204209801643
 20
-158.5243462060286
 10
107.1776095652195
 20
-158.2683756114746
 10
107.2048258195529
 20
-158.1412515880688
 10
107.2048258195529
 20
-158.1412515880688
 10
106.5574923778745
 20
-158.1412515880688
 10
106.5574923778745
 20
-158.1412515880688
 10
106.4537950037685
 20
-158.30213754723
 10
106.3332166617847
 20
-158.4692246782646
 10
106.1409803337078
 20
-158.6404459238815
 10
106.1409803337078
 20
-158.6404459238815
 10
105.9673475212512
 20
-158.5178005246066
 10
105.9673475212512
 20
-158.5178005246066
 10
106.0266031635975
 20
-158.4712917355558
 10
106.1747422694632
 20
-158.3593261322851
 10
106.3397623432067
 20
-158.1095567096045
 10
106.4158989534307
 20
-157.9910454249119
 10
106.5195963275368
 20
-157.8218912365862
 10
106.5450900341276
 20
-157.6992458373113
 10
106.5450900341276
 20
-157.6992458373113
 10
106.7755669220908
 20
-157.8005316445776
 10
106.7755669220908
 20
-157.8005316445776
 10
106.7903808326774
 20
-157.8070773259996
 10
106.8051947432639
 20
-157.8153455551642
 10
106.8051947432639
 20
-157.8301594657508
 10
106.8051947432639
 20
-157.8515190577593
 10
106.7797010366731
 20
-157.8642659110547
 10
106.7714328075085
 20
-157.8663329683459
 10
106.7438720436265
 20
-157.8746011975105
 10
106.7352593049134
 20
-157.8725341402194
 10
106.7101101078711
 20
-157.8980278468102
 10
106.6846164012802
 20
-157.923521553401
 10
106.6866834585714
 20
-157.9317897825656
 10
106.6549885801071
 20
-157.9848442530385
 10
106.6549885801071
 20
-157.9848442530385
 10
106.9891628421763
 20
-157.9848442530385
 10
106.9891628421763
 20
-157.9848442530385
 10
107.2451334367304
 20
-157.9848442530385
 10
107.2768283151947
 20
-157.9720973997431
 10
107.3340169002498
 20
-157.9424695785699
 10
107.3340169002498
 20
-157.9424695785699
 10
107.4904242352801
 20
-158.1074896523134
 10
107.4904242352801
 20
-158.1074896523134
 10
107.4566622995247
 20
-158.14331864536
 10
107.4545952422335
 20
-158.1453857026511
 10
107.4291015356427
 20
-158.1729464665331
 97
        0
 97
        1
330
EE
 75
     2
 76
     1
 98
        1
 10
0.0
 20
0.0
450
        0
451
        0
460
0.0
461
0.0
452
        0
462
0.0
453
        0
470

  0
SPLINE
  5
F0
330
EA
100
AcDbEntity
  8
レイヤー 1
100
AcDbSpline
210
0.0
220
0.0
230
1.0
 70
    11
 71
     3
 72
    17
 73
    13
 74
     0
 42
0.0000000001
 43
0.0000000001
 40
0.0
 40
0.0
 40
0.0
 40
0.0
 40
1.0
 40
1.0
 40
1.0
 40
2.0
 40
2.0
 40
2.0
 40
3.0
 40
3.0
 40
3.0
 40
4.0
 40
4.0
 40
4.0
 40
4.0
 10
109.0717230630098
 20
-158.0819959457225
 30
0.0
 10
109.0717230630098
 20
-158.0819959457225
 30
0.0
 10
108.0309597169158
 20
-158.0819959457225
 30
0.0
 10
108.0309597169158
 20
-158.0819959457225
 30
0.0
 10
108.0309597169158
 20
-158.0819959457225
 30
0.0
 10
108.0309597169158
 20
-158.9704860713685
 30
0.0
 10
108.0309597169158
 20
-158.9704860713685
 30
0.0
 10
108.0309597169158
 20
-158.9704860713685
 30
0.0
 10
109.0717230630098
 20
-158.9704860713685
 30
0.0
 10
109.0717230630098
 20
-158.9704860713685
 30
0.0
 10
109.0717230630098
 20
-158.9704860713685
 30
0.0
 10
109.0717230630098
 20
-158.0819959457225
 30
0.0
 10
109.0717230630098
 20
-158.0819959457225
 30
0.0
  0
SPLINE
  5
F1
330
EA
100
AcDbEntity
  8
レイヤー 1
100
AcDbSpline
210
0.0
220
0.0
230
1.0
 70
     9
 71
     3
 72
    53
 73
    49
 74
     0
 42
0.0000000001
 43
0.0000000001
 40
0.0
 40
0.0
 40
0.0
 40
0.0
 40
1.0
 40
1.0
 40
1.0
 40
2.0
 40
2.0
 40
2.0
 40
3.0
 40
3.0
 40
3.0
 40
4.0
 40
4.0
 40
4.0
 40
5.0
 40
5.0
 40
5.0
 40
6.0
 40
6.0
 40
6.0
 40
7.0
 40
7.0
 40
7.0
 40
8.0
 40
8.0
 40
8.0
 40
9.0
 40
9.0
 40
9.0
 40
10.0
 40
10.0
 40
10.0
 40
11.0
 40
11.0
 40
11.0
 40
12.0
 40
12.0
 40
12.0
 40
13.0
 40
13.0
 40
13.0
 40
14.0
 40
14.0
 40
14.0
 40
15.0
 40
15.0
 40
15.0
 40
16.0
 40
16.0
 40
16.0
 40
16.0
 10
109.0486409232586
 20
-159.2857123082688
 30
0.0
 10
109.0569091524232
 20
-159.2412705765091
 30
0.0
 10
109.0569091524232
 20
-159.2330023473445
 30
0.0
 10
109.0634548338452
 20
-159.1589327944116
 30
0.0
 10
109.0634548338452
 20
-159.1589327944116
 30
0.0
 10
108.033026774207
 20
-159.1589327944116
 30
0.0
 10
108.033026774207
 20
-159.1589327944116
 30
0.0
 10
108.033026774207
 20
-159.1906276728759
 30
0.0
 10
108.033026774207
 20
-159.2457492006399
 30
0.0
 10
108.0375053983378
 20
-159.2815781936865
 30
0.0
 10
108.0375053983378
 20
-159.2815781936865
 30
0.0
 10
107.7963487143703
 20
-159.2815781936865
 30
0.0
 10
107.7963487143703
 20
-159.2815781936865
 30
0.0
 10
107.8025498862438
 20
-159.2264566659225
 30
0.0
 10
107.8132296822481
 20
-159.135506145112
 30
0.0
 10
107.8132296822481
 20
-159.0066595739636
 30
0.0
 10
107.8152967395392
 20
-158.8013318830427
 30
0.0
 10
107.8152967395392
 20
-158.777905233743
 30
0.0
 10
107.8152967395392
 20
-158.7548230939918
 30
0.0
 10
107.8152967395392
 20
-158.7548230939918
 30
0.0
 10
107.8152967395392
 20
-158.3148844005254
 30
0.0
 10
107.8152967395392
 20
-158.3148844005254
 30
0.0
 10
107.8152967395392
 20
-158.2490830767572
 30
0.0
 10
107.8087510581172
 20
-157.9255886106922
 30
0.0
 10
107.8046169435349
 20
-157.8704670829282
 30
0.0
 10
107.929329400101
 20
-157.8832139362236
 30
0.0
 10
108.1939127333682
 20
-157.8873480508059
 30
0.0
 10
108.3251708713562
 20
-157.8873480508059
 30
0.0
 10
108.3251708713562
 20
-157.8873480508059
 30
0.0
 10
108.7799234754092
 20
-157.8873480508059
 30
0.0
 10
108.7799234754092
 20
-157.8873480508059
 30
0.0
 10
108.9301296385661
 20
-157.8873480508059
 30
0.0
 10
109.1544053546558
 20
-157.8852809935148
 30
0.0
 10
109.3004774032304
 20
-157.8770127643502
 30
0.0
 10
109.2918646645173
 20
-157.9869113103296
 30
0.0
 10
109.287730549935
 20
-158.2363362234617
 30
0.0
 10
109.287730549935
 20
-158.3548475081543
 30
0.0
 10
109.287730549935
 20
-158.3548475081543
 30
0.0
 10
109.287730549935
 20
-158.7737711191607
 30
0.0
 10
109.287730549935
 20
-158.7737711191607
 30
0.0
 10
109.287730549935
 20
-158.8161457936293
 30
0.0
 10
109.2939317218084
 20
-158.9980468352505
 30
0.0
 10
109.2939317218084
 20
-159.0362873951367
 30
0.0
 10
109.2959987790996
 20
-159.1864935582936
 30
0.0
 10
109.3046115178127
 20
-159.2371364619268
 30
0.0
 10
109.3128797469773
 20
-159.2857123082688
 30
0.0
 10
109.3128797469773
 20
-159.2857123082688
 30
0.0
 10
109.0486409232586
 20
-159.2857123082688
 30
0.0
 10
109.0486409232586
 20
-159.2857123082688
 30
0.0
  0
HATCH
  5
F2
330
EA
100
AcDbEntity
  8
レイヤー 1
 62
    18
420
        0
440
 33554687
100
AcDbHatch
 10
0.0
 20
0.0
 30
0.0
210
0.0
220
0.0
230
1.0
  2
SOLID
 70
     1
 71
     1
 91
        2
 92
        1
 93
        1
 72
     4
 94
        3
 73
     0
 74
     0
 95
       17
 96
       13
 40
0.0
 40
0.0
 40
0.0
 40
0.0
 40
1.0
 40
1.0
 40
1.0
 40
2.0
 40
2.0
 40
2.0
 40
3.0
 40
3.0
 40
3.0
 40
4.0
 40
4.0
 40
4.0
 40
4.0
 10
109.0717230630098
 20
-158.0819959457225
 10
109.0717230630098
 20
-158.0819959457225
 10
108.0309597169158
 20
-158.0819959457225
 10
108.0309597169158
 20
-158.0819959457225
 10
108.0309597169158
 20
-158.0819959457225
 10
108.0309597169158
 20
-158.9704860713685
 10
108.0309597169158
 20
-158.9704860713685
 10
108.0309597169158
 20
-158.9704860713685
 10
109.0717230630098
 20
-158.9704860713685
 10
109.0717230630098
 20
-158.9704860713685
 10
109.0717230630098
 20
-158.9704860713685
 10
109.0717230630098
 20
-158.0819959457225
 10
109.0717230630098
 20
-158.0819959457225
 97
        0
 97
        1
330
F0
 92
        1
 93
        1
 72
     4
 94
        3
 73
     0
 74
     0
 95
       53
 96
       49
 40
0.0
 40
0.0
 40
0.0
 40
0.0
 40
1.0
 40
1.0
 40
1.0
 40
2.0
 40
2.0
 40
2.0
 40
3.0
 40
3.0
 40
3.0
 40
4.0
 40
4.0
 40
4.0
 40
5.0
 40
5.0
 40
5.0
 40
6.0
 40
6.0
 40
6.0
 40
7.0
 40
7.0
 40
7.0
 40
8.0
 40
8.0
 40
8.0
 40
9.0
 40
9.0
 40
9.0
 40
10.0
 40
10.0
 40
10.0
 40
11.0
 40
11.0
 40
11.0
 40
12.0
 40
12.0
 40
12.0
 40
13.0
 40
13.0
 40
13.0
 40
14.0
 40
14.0
 40
14.0
 40
15.0
 40
15.0
 40
15.0
 40
16.0
 40
16.0
 40
16.0
 40
16.0
 10
109.0486409232586
 20
-159.2857123082688
 10
109.0569091524232
 20
-159.2412705765091
 10
109.0569091524232
 20
-159.2330023473445
 10
109.0634548338452
 20
-159.1589327944116
 10
109.0634548338452
 20
-159.1589327944116
 10
108.033026774207
 20
-159.1589327944116
 10
108.033026774207
 20
-159.1589327944116
 10
108.033026774207
 20
-159.1906276728759
 10
108.033026774207
 20
-159.2457492006399
 10
108.0375053983378
 20
-159.2815781936865
 10
108.0375053983378
 20
-159.2815781936865
 10
107.7963487143703
 20
-159.2815781936865
 10
107.7963487143703
 20
-159.2815781936865
 10
107.8025498862438
 20
-159.2264566659225
 10
107.8132296822481
 20
-159.135506145112
 10
107.8132296822481
 20
-159.0066595739636
 10
107.8152967395392
 20
-158.8013318830427
 10
107.8152967395392
 20
-158.777905233743
 10
107.8152967395392
 20
-158.7548230939918
 10
107.8152967395392
 20
-158.7548230939918
 10
107.8152967395392
 20
-158.3148844005254
 10
107.8152967395392
 20
-158.3148844005254
 10
107.8152967395392
 20
-158.2490830767572
 10
107.8087510581172
 20
-157.9255886106922
 10
107.8046169435349
 20
-157.8704670829282
 10
107.929329400101
 20
-157.8832139362236
 10
108.1939127333682
 20
-157.8873480508059
 10
108.3251708713562
 20
-157.8873480508059
 10
108.3251708713562
 20
-157.8873480508059
 10
108.7799234754092
 20
-157.8873480508059
 10
108.7799234754092
 20
-157.8873480508059
 10
108.9301296385661
 20
-157.8873480508059
 10
109.1544053546558
 20
-157.8852809935148
 10
109.3004774032304
 20
-157.8770127643502
 10
109.2918646645173
 20
-157.9869113103296
 10
109.287730549935
 20
-158.2363362234617
 10
109.287730549935
 20
-158.3548475081543
 10
109.287730549935
 20
-158.3548475081543
 10
109.287730549935
 20
-158.7737711191607
 10
109.287730549935
 20
-158.7737711191607
 10
109.287730549935
 20
-158.8161457936293
 10
109.2939317218084
 20
-158.9980468352505
 10
109.2939317218084
 20
-159.0362873951367
 10
109.2959987790996
 20
-159.1864935582936
 10
109.3046115178127
 20
-159.2371364619268
 10
109.3128797469773
 20
-159.2857123082688
 10
109.3128797469773
 20
-159.2857123082688
 10
109.0486409232586
 20
-159.2857123082688
 10
109.0486409232586
 20
-159.2857123082688
 97
        0
 97
        1
330
F1
 75
     2
 76
     1
 98
        1
 10
0.0
 20
0.0
450
        0
451
        0
460
0.0
461
0.0
452
        0
462
0.0
453
        0
470

  0
SPLINE
  5
F3
330
EA
100
AcDbEntity
  8
レイヤー 1
100
AcDbSpline
210
0.0
220
0.0
230
1.0
 70
     9
 71
     3
 72
    56
 73
    52
 74
     0
 42
0.0000000001
 43
0.0000000001
 40
0.0
 40
0.0
 40
0.0
 40
0.0
 40
1.0
 40
1.0
 40
1.0
 40
2.0
 40
2.0
 40
2.0
 40
3.0
 40
3.0
 40
3.0
 40
4.0
 40
4.0
 40
4.0
 40
5.0
 40
5.0
 40
5.0
 40
6.0
 40
6.0
 40
6.0
 40
7.0
 40
7.0
 40
7.0
 40
8.0
 40
8.0
 40
8.0
 40
9.0
 40
9.0
 40
9.0
 40
10.0
 40
10.0
 40
10.0
 40
11.0
 40
11.0
 40
11.0
 40
12.0
 40
12.0
 40
12.0
 40
13.0
 40
13.0
 40
13.0
 40
14.0
 40
14.0
 40
14.0
 40
15.0
 40
15.0
 40
15.0
 40
16.0
 40
16.0
 40
16.0
 40
17.0
 40
17.0
 40
17.0
 40
17.0
 10
111.059543157999
 20
-159.3515136320371
 30
0.0
 10
110.8669623203735
 20
-159.0424885670102
 30
0.0
 10
110.6089246685283
 20
-158.8371608760893
 30
0.0
 10
110.5179741477177
 20
-158.7717040618696
 30
0.0
 10
110.2237629932774
 20
-159.1103569480696
 30
0.0
 10
109.9340304629679
 20
-159.2626301685177
 30
0.0
 10
109.735248453469
 20
-159.3556477466194
 30
0.0
 10
109.735248453469
 20
-159.3556477466194
 30
0.0
 10
109.5764295515989
 20
-159.1672010235762
 30
0.0
 10
109.5764295515989
 20
-159.1672010235762
 30
0.0
 10
109.6801269257049
 20
-159.1313720305296
 30
0.0
 10
109.8937228457904
 20
-159.0552354203056
 30
0.0
 10
110.1266113005933
 20
-158.8692002641021
 30
0.0
 10
110.390850124312
 20
-158.6573268917593
 30
0.0
 10
110.577229790064
 20
-158.3696614187409
 30
0.0
 10
110.6998751893389
 20
-158.0568467486802
 30
0.0
 10
110.6998751893389
 20
-158.0568467486802
 30
0.0
 10
110.3233262528011
 20
-158.0568467486802
 30
0.0
 10
110.3233262528011
 20
-158.0568467486802
 30
0.0
 10
110.1710530323531
 20
-158.0568467486802
 30
0.0
 10
109.9615912268499
 20
-158.0609808632625
 30
0.0
 10
109.811385063693
 20
-158.0799288884314
 30
0.0
 10
109.811385063693
 20
-158.0799288884314
 30
0.0
 10
109.811385063693
 20
-157.868400025637
 30
0.0
 10
109.811385063693
 20
-157.868400025637
 30
0.0
 10
109.8789089352039
 20
-157.8746011975105
 30
0.0
 10
110.1393581538888
 20
-157.8852809935148
 30
0.0
 10
110.2258300505685
 20
-157.8852809935148
 30
0.0
 10
110.2258300505685
 20
-157.8852809935148
 30
0.0
 10
110.5369221728866
 20
-157.8852809935148
 30
0.0
 10
110.5369221728866
 20
-157.8852809935148
 30
0.0
 10
110.7443169210986
 20
-157.8852809935148
 30
0.0
 10
110.7673990608498
 20
-157.8790798216413
 30
0.0
 10
110.7908257101495
 20
-157.8746011975105
 30
0.0
 10
110.8352674419092
 20
-157.868400025637
 30
0.0
 10
110.873163492247
 20
-157.8429063190462
 30
0.0
 10
110.8945230842555
 20
-157.8260253511685
 30
0.0
 10
110.8945230842555
 20
-157.8260253511685
 30
0.0
 10
111.0509304192859
 20
-157.9996581636251
 30
0.0
 10
111.0509304192859
 20
-157.9996581636251
 30
0.0
 10
111.010967311657
 20
-158.0272189275071
 30
0.0
 10
110.9982204583615
 20
-158.0375542139628
 30
0.0
 10
110.949300102471
 20
-158.0737277165579
 30
0.0
 10
110.8204535313227
 20
-158.3210855723989
 30
0.0
 10
110.7401828065163
 20
-158.4712917355558
 30
0.0
 10
110.6364854324103
 20
-158.6173637841304
 30
0.0
 10
110.949300102471
 20
-158.8350938187982
 30
0.0
 10
111.1780544426916
 20
-159.1206922345254
 30
0.0
 10
111.2307644036159
 20
-159.1988959020405
 30
0.0
 10
111.2307644036159
 20
-159.1988959020405
 30
0.0
 10
111.059543157999
 20
-159.3515136320371
 30
0.0
 10
111.059543157999
 20
-159.3515136320371
 30
0.0
  0
HATCH
  5
F4
330
EA
100
AcDbEntity
  8
レイヤー 1
 62
    18
420
        0
440
 33554687
100
AcDbHatch
 10
0.0
 20
0.0
 30
0.0
210
0.0
220
0.0
230
1.0
  2
SOLID
 70
     1
 71
     1
 91
        1
 92
        1
 93
        1
 72
     4
 94
        3
 73
     0
 74
     0
 95
       56
 96
       52
 40
0.0
 40
0.0
 40
0.0
 40
0.0
 40
1.0
 40
1.0
 40
1.0
 40
2.0
 40
2.0
 40
2.0
 40
3.0
 40
3.0
 40
3.0
 40
4.0
 40
4.0
 40
4.0
 40
5.0
 40
5.0
 40
5.0
 40
6.0
 40
6.0
 40
6.0
 40
7.0
 40
7.0
 40
7.0
 40
8.0
 40
8.0
 40
8.0
 40
9.0
 40
9.0
 40
9.0
 40
10.0
 40
10.0
 40
10.0
 40
11.0
 40
11.0
 40
11.0
 40
12.0
 40
12.0
 40
12.0
 40
13.0
 40
13.0
 40
13.0
 40
14.0
 40
14.0
 40
14.0
 40
15.0
 40
15.0
 40
15.0
 40
16.0
 40
16.0
 40
16.0
 40
17.0
 40
17.0
 40
17.0
 40
17.0
 10
111.059543157999
 20
-159.3515136320371
 10
110.8669623203735
 20
-159.0424885670102
 10
110.6089246685283
 20
-158.8371608760893
 10
110.5179741477177
 20
-158.7717040618696
 10
110.2237629932774
 20
-159.1103569480696
 10
109.9340304629679
 20
-159.2626301685177
 10
109.735248453469
 20
-159.3556477466194
 10
109.735248453469
 20
-159.3556477466194
 10
109.5764295515989
 20
-159.1672010235762
 10
109.5764295515989
 20
-159.1672010235762
 10
109.6801269257049
 20
-159.1313720305296
 10
109.8937228457904
 20
-159.0552354203056
 10
110.1266113005933
 20
-158.8692002641021
 10
110.390850124312
 20
-158.6573268917593
 10
110.577229790064
 20
-158.3696614187409
 10
110.6998751893389
 20
-158.0568467486802
 10
110.6998751893389
 20
-158.0568467486802
 10
110.3233262528011
 20
-158.0568467486802
 10
110.3233262528011
 20
-158.0568467486802
 10
110.1710530323531
 20
-158.0568467486802
 10
109.9615912268499
 20
-158.0609808632625
 10
109.811385063693
 20
-158.0799288884314
 10
109.811385063693
 20
-158.0799288884314
 10
109.811385063693
 20
-157.868400025637
 10
109.811385063693
 20
-157.868400025637
 10
109.8789089352039
 20
-157.8746011975105
 10
110.1393581538888
 20
-157.8852809935148
 10
110.2258300505685
 20
-157.8852809935148
 10
110.2258300505685
 20
-157.8852809935148
 10
110.5369221728866
 20
-157.8852809935148
 10
110.5369221728866
 20
-157.8852809935148
 10
110.7443169210986
 20
-157.8852809935148
 10
110.7673990608498
 20
-157.8790798216413
 10
110.7908257101495
 20
-157.8746011975105
 10
110.8352674419092
 20
-157.868400025637
 10
110.873163492247
 20
-157.8429063190462
 10
110.8945230842555
 20
-157.8260253511685
 10
110.8945230842555
 20
-157.8260253511685
 10
111.0509304192859
 20
-157.9996581636251
 10
111.0509304192859
 20
-157.9996581636251
 10
111.010967311657
 20
-158.0272189275071
 10
110.9982204583615
 20
-158.0375542139628
 10
110.949300102471
 20
-158.0737277165579
 10
110.8204535313227
 20
-158.3210855723989
 10
110.7401828065163
 20
-158.4712917355558
 10
110.6364854324103
 20
-158.6173637841304
 10
110.949300102471
 20
-158.8350938187982
 10
111.1780544426916
 20
-159.1206922345254
 10
111.2307644036159
 20
-159.1988959020405
 10
111.2307644036159
 20
-159.1988959020405
 10
111.059543157999
 20
-159.3515136320371
 10
111.059543157999
 20
-159.3515136320371
 97
        0
 97
        1
330
F3
 75
     2
 76
     1
 98
        1
 10
0.0
 20
0.0
450
        0
451
        0
460
0.0
461
0.0
452
        0
462
0.0
453
        0
470

  0
SPLINE
  5
F5
330
EA
100
AcDbEntity
  8
レイヤー 1
100
AcDbSpline
210
0.0
220
0.0
230
1.0
 70
    11
 71
     3
 72
    17
 73
    13
 74
     0
 42
0.0000000001
 43
0.0000000001
 40
0.0
 40
0.0
 40
0.0
 40
0.0
 40
1.0
 40
1.0
 40
1.0
 40
2.0
 40
2.0
 40
2.0
 40
3.0
 40
3.0
 40
3.0
 40
4.0
 40
4.0
 40
4.0
 40
4.0
 10
112.9412543120424
 20
-158.3741400428717
 30
0.0
 10
112.9412543120424
 20
-158.3741400428717
 30
0.0
 10
112.4820230838586
 20
-158.3741400428717
 30
0.0
 10
112.4820230838586
 20
-158.3741400428717
 30
0.0
 10
112.4820230838586
 20
-158.3741400428717
 30
0.0
 10
112.4820230838586
 20
-158.6828205983501
 30
0.0
 10
112.4820230838586
 20
-158.6828205983501
 30
0.0
 10
112.4820230838586
 20
-158.6828205983501
 30
0.0
 10
112.9412543120424
 20
-158.6828205983501
 30
0.0
 10
112.9412543120424
 20
-158.6828205983501
 30
0.0
 10
112.9412543120424
 20
-158.6828205983501
 30
0.0
 10
112.9412543120424
 20
-158.3741400428717
 30
0.0
 10
112.9412543120424
 20
-158.3741400428717
 30
0.0
  0
SPLINE
  5
F6
330
EA
100
AcDbEntity
  8
レイヤー 1
100
AcDbSpline
210
0.0
220
0.0
230
1.0
 70
    11
 71
     3
 72
    17
 73
    13
 74
     0
 42
0.0000000001
 43
0.0000000001
 40
0.0
 40
0.0
 40
0.0
 40
0.0
 40
1.0
 40
1.0
 40
1.0
 40
2.0
 40
2.0
 40
2.0
 40
3.0
 40
3.0
 40
3.0
 40
4.0
 40
4.0
 40
4.0
 40
4.0
 10
112.9412543120424
 20
-157.9021619613925
 30
0.0
 10
112.9412543120424
 20
-157.9021619613925
 30
0.0
 10
112.4820230838586
 20
-157.9021619613925
 30
0.0
 10
112.4820230838586
 20
-157.9021619613925
 30
0.0
 10
112.4820230838586
 20
-157.9021619613925
 30
0.0
 10
112.4820230838586
 20
-158.2067084022886
 30
0.0
 10
112.4820230838586
 20
-158.2067084022886
 30
0.0
 10
112.4820230838586
 20
-158.2067084022886
 30
0.0
 10
112.9412543120424
 20
-158.2067084022886
 30
0.0
 10
112.9412543120424
 20
-158.2067084022886
 30
0.0
 10
112.9412543120424
 20
-158.2067084022886
 30
0.0
 10
112.9412543120424
 20
-157.9021619613925
 30
0.0
 10
112.9412543120424
 20
-157.9021619613925
 30
0.0
  0
SPLINE
  5
F7
330
EA
100
AcDbEntity
  8
レイヤー 1
100
AcDbSpline
210
0.0
220
0.0
230
1.0
 70
    11
 71
     3
 72
    17
 73
    13
 74
     0
 42
0.0000000001
 43
0.0000000001
 40
0.0
 40
0.0
 40
0.0
 40
0.0
 40
1.0
 40
1.0
 40
1.0
 40
2.0
 40
2.0
 40
2.0
 40
3.0
 40
3.0
 40
3.0
 40
4.0
 40
4.0
 40
4.0
 40
4.0
 10
112.2918538130728
 20
-158.3741400428717
 30
0.0
 10
112.2918538130728
 20
-158.3741400428717
 30
0.0
 10
111.8539821768976
 20
-158.3741400428717
 30
0.0
 10
111.8539821768976
 20
-158.3741400428717
 30
0.0
 10
111.8539821768976
 20
-158.3741400428717
 30
0.0
 10
111.8539821768976
 20
-158.6828205983501
 30
0.0
 10
111.8539821768976
 20
-158.6828205983501
 30
0.0
 10
111.8539821768976
 20
-158.6828205983501
 30
0.0
 10
112.2918538130728
 20
-158.6828205983501
 30
0.0
 10
112.2918538130728
 20
-158.6828205983501
 30
0.0
 10
112.2918538130728
 20
-158.6828205983501
 30
0.0
 10
112.2918538130728
 20
-158.3741400428717
 30
0.0
 10
112.2918538130728
 20
-158.3741400428717
 30
0.0
  0
SPLINE
  5
F8
330
EA
100
AcDbEntity
  8
レイヤー 1
100
AcDbSpline
210
0.0
220
0.0
230
1.0
 70
    11
 71
     3
 72
    17
 73
    13
 74
     0
 42
0.0000000001
 43
0.0000000001
 40
0.0
 40
0.0
 40
0.0
 40
0.0
 40
1.0
 40
1.0
 40
1.0
 40
2.0
 40
2.0
 40
2.0
 40
3.0
 40
3.0
 40
3.0
 40
4.0
 40
4.0
 40
4.0
 40
4.0
 10
112.2918538130728
 20
-157.9021619613925
 30
0.0
 10
112.2918538130728
 20
-157.9021619613925
 30
0.0
 10
111.8539821768976
 20
-157.9021619613925
 30
0.0
 10
111.8539821768976
 20
-157.9021619613925
 30
0.0
 10
111.8539821768976
 20
-157.9021619613925
 30
0.0
 10
111.8539821768976
 20
-158.2067084022886
 30
0.0
 10
111.8539821768976
 20
-158.2067084022886
 30
0.0
 10
111.8539821768976
 20
-158.2067084022886
 30
0.0
 10
112.2918538130728
 20
-158.2067084022886
 30
0.0
 10
112.2918538130728
 20
-158.2067084022886
 30
0.0
 10
112.2918538130728
 20
-158.2067084022886
 30
0.0
 10
112.2918538130728
 20
-157.9021619613925
 30
0.0
 10
112.2918538130728
 20
-157.9021619613925
 30
0.0
  0
SPLINE
  5
F9
330
EA
100
AcDbEntity
  8
レイヤー 1
100
AcDbSpline
210
0.0
220
0.0
230
1.0
 70
     9
 71
     3
 72
    77
 73
    73
 74
     0
 42
0.0000000001
 43
0.0000000001
 40
0.0
 40
0.0
 40
0.0
 40
0.0
 40
1.0
 40
1.0
 40
1.0
 40
2.0
 40
2.0
 40
2.0
 40
3.0
 40
3.0
 40
3.0
 40
4.0
 40
4.0
 40
4.0
 40
5.0
 40
5.0
 40
5.0
 40
6.0
 40
6.0
 40
6.0
 40
7.0
 40
7.0
 40
7.0
 40
8.0
 40
8.0
 40
8.0
 40
9.0
 40
9.0
 40
9.0
 40
10.0
 40
10.0
 40
10.0
 40
11.0
 40
11.0
 40
11.0
 40
12.0
 40
12.0
 40
12.0
 40
13.0
 40
13.0
 40
13.0
 40
14.0
 40
14.0
 40
14.0
 40
15.0
 40
15.0
 40
15.0
 40
16.0
 40
16.0
 40
16.0
 40
17.0
 40
17.0
 40
17.0
 40
18.0
 40
18.0
 40
18.0
 40
19.0
 40
19.0
 40
19.0
 40
20.0
 40
20.0
 40
20.0
 40
21.0
 40
21.0
 40
21.0
 40
22.0
 40
22.0
 40
22.0
 40
23.0
 40
23.0
 40
23.0
 40
24.0
 40
24.0
 40
24.0
 40
24.0
 10
113.0766465646128
 20
-159.4889729418986
 30
0.0
 10
113.0301377755619
 20
-159.5141221389409
 30
0.0
 10
112.9054253189959
 20
-159.5268689922363
 30
0.0
 10
112.8268771419322
 20
-159.5268689922363
 30
0.0
 10
112.8144747981852
 20
-159.5268689922363
 30
0.0
 10
112.7889810915944
 20
-159.5268689922363
 30
0.0
 10
112.7552191558389
 20
-159.522734877654
 30
0.0
 10
112.7552191558389
 20
-159.522734877654
 30
0.0
 10
112.6577229536064
 20
-159.2963921042731
 30
0.0
 10
112.6577229536064
 20
-159.2963921042731
 30
0.0
 10
112.6873507747795
 20
-159.3025932761466
 30
0.0
 10
112.7445393598347
 20
-159.3112060148597
 30
0.0
 10
112.8609835872361
 20
-159.3112060148597
 30
0.0
 10
112.9391872547513
 20
-159.3112060148597
 30
0.0
 10
112.9412543120424
 20
-159.2688313403911
 30
0.0
 10
112.9412543120424
 20
-159.211642755336
 30
0.0
 10
112.9412543120424
 20
-159.211642755336
 30
0.0
 10
112.9412543120424
 20
-158.8626545826801
 30
0.0
 10
112.9412543120424
 20
-158.8626545826801
 30
0.0
 10
112.9412543120424
 20
-158.8626545826801
 30
0.0
 10
112.4820230838586
 20
-158.8626545826801
 30
0.0
 10
112.4820230838586
 20
-158.8626545826801
 30
0.0
 10
112.4844346506983
 20
-159.0001138925416
 30
0.0
 10
112.4865017079895
 20
-159.1988959020405
 30
0.0
 10
112.4927028798629
 20
-159.3322210973197
 30
0.0
 10
112.4947699371541
 20
-159.3597818612017
 30
0.0
 10
112.4947699371541
 20
-159.4042235929614
 30
0.0
 10
112.5075167904495
 20
-159.4655462925989
 30
0.0
 10
112.5075167904495
 20
-159.4655462925989
 30
0.0
 10
112.266360106482
 20
-159.4655462925989
 30
0.0
 10
112.266360106482
 20
-159.4655462925989
 30
0.0
 10
112.2918538130728
 20
-159.3408338360328
 30
0.0
 10
112.2918538130728
 20
-159.0001138925416
 30
0.0
 10
112.2918538130728
 20
-158.8626545826801
 30
0.0
 10
112.2918538130728
 20
-158.8626545826801
 30
0.0
 10
111.8495035527668
 20
-158.8626545826801
 30
0.0
 10
111.8495035527668
 20
-158.8626545826801
 30
0.0
 10
111.8264214130156
 20
-159.0700493308922
 30
0.0
 10
111.7609645987958
 20
-159.3387667787417
 30
0.0
 10
111.5639051370395
 20
-159.522734877654
 30
0.0
 10
111.5639051370395
 20
-159.522734877654
 30
0.0
 10
111.3758029235449
 20
-159.4000894783791
 30
0.0
 10
111.3758029235449
 20
-159.4000894783791
 30
0.0
 10
111.6297064608078
 20
-159.1799478768717
 30
0.0
 10
111.6614013392721
 20
-158.8478406720936
 30
0.0
 10
111.6614013392721
 20
-158.5157334673155
 30
0.0
 10
111.6614013392721
 20
-158.5157334673155
 30
0.0
 10
111.6614013392721
 20
-158.0799288884314
 30
0.0
 10
111.6614013392721
 20
-158.0799288884314
 30
0.0
 10
111.6614013392721
 20
-158.0440998953848
 30
0.0
 10
111.659334281981
 20
-157.8112114405819
 30
0.0
 10
111.6507215432678
 20
-157.709581123767
 30
0.0
 10
111.7902479104205
 20
-157.7202609197713
 30
0.0
 10
112.0317491039365
 20
-157.7202609197713
 30
0.0
 10
112.1754095856714
 20
-157.7202609197713
 30
0.0
 10
112.1754095856714
 20
-157.7202609197713
 30
0.0
 10
112.6346408138552
 20
-157.7202609197713
 30
0.0
 10
112.6346408138552
 20
-157.7202609197713
 30
0.0
 10
112.6494547244418
 20
-157.7202609197713
 30
0.0
 10
112.9984428970976
 20
-157.7202609197713
 30
0.0
 10
113.1569172894191
 20
-157.709581123767
 30
0.0
 10
113.1548502321279
 20
-157.7626355942399
 30
0.0
 10
113.1486490602545
 20
-157.923521553401
 30
0.0
 10
113.1486490602545
 20
-157.9741644570342
 30
0.0
 10
113.1486490602545
 20
-157.9741644570342
 30
0.0
 10
113.1486490602545
 20
-158.5811902815352
 30
0.0
 10
113.1486490602545
 20
-158.5811902815352
 30
0.0
 10
113.1486490602545
 20
-158.6004828162526
 30
0.0
 10
113.1589843467102
 20
-159.1716796477071
 30
0.0
 10
113.1589843467102
 20
-159.2836452509777
 30
0.0
 10
113.1589843467102
 20
-159.3408338360328
 30
0.0
 10
113.1589843467102
 20
-159.4424641528477
 30
0.0
 10
113.0766465646128
 20
-159.4889729418986
 30
0.0
  0
HATCH
  5
FA
330
EA
100
AcDbEntity
  8
レイヤー 1
 62
    18
420
        0
440
 33554687
100
AcDbHatch
 10
0.0
 20
0.0
 30
0.0
210
0.0
220
0.0
230
1.0
  2
SOLID
 70
     1
 71
     1
 91
        5
 92
        1
 93
        1
 72
     4
 94
        3
 73
     0
 74
     0
 95
       17
 96
       13
 40
0.0
 40
0.0
 40
0.0
 40
0.0
 40
1.0
 40
1.0
 40
1.0
 40
2.0
 40
2.0
 40
2.0
 40
3.0
 40
3.0
 40
3.0
 40
4.0
 40
4.0
 40
4.0
 40
4.0
 10
112.9412543120424
 20
-158.3741400428717
 10
112.9412543120424
 20
-158.3741400428717
 10
112.4820230838586
 20
-158.3741400428717
 10
112.4820230838586
 20
-158.3741400428717
 10
112.4820230838586
 20
-158.3741400428717
 10
112.4820230838586
 20
-158.6828205983501
 10
112.4820230838586
 20
-158.6828205983501
 10
112.4820230838586
 20
-158.6828205983501
 10
112.9412543120424
 20
-158.6828205983501
 10
112.9412543120424
 20
-158.6828205983501
 10
112.9412543120424
 20
-158.6828205983501
 10
112.9412543120424
 20
-158.3741400428717
 10
112.9412543120424
 20
-158.3741400428717
 97
        0
 97
        1
330
F5
 92
        1
 93
        1
 72
     4
 94
        3
 73
     0
 74
     0
 95
       17
 96
       13
 40
0.0
 40
0.0
 40
0.0
 40
0.0
 40
1.0
 40
1.0
 40
1.0
 40
2.0
 40
2.0
 40
2.0
 40
3.0
 40
3.0
 40
3.0
 40
4.0
 40
4.0
 40
4.0
 40
4.0
 10
112.9412543120424
 20
-157.9021619613925
 10
112.9412543120424
 20
-157.9021619613925
 10
112.4820230838586
 20
-157.9021619613925
 10
112.4820230838586
 20
-157.9021619613925
 10
112.4820230838586
 20
-157.9021619613925
 10
112.4820230838586
 20
-158.2067084022886
 10
112.4820230838586
 20
-158.2067084022886
 10
112.4820230838586
 20
-158.2067084022886
 10
112.9412543120424
 20
-158.2067084022886
 10
112.9412543120424
 20
-158.2067084022886
 10
112.9412543120424
 20
-158.2067084022886
 10
112.9412543120424
 20
-157.9021619613925
 10
112.9412543120424
 20
-157.9021619613925
 97
        0
 97
        1
330
F6
 92
        1
 93
        1
 72
     4
 94
        3
 73
     0
 74
     0
 95
       17
 96
       13
 40
0.0
 40
0.0
 40
0.0
 40
0.0
 40
1.0
 40
1.0
 40
1.0
 40
2.0
 40
2.0
 40
2.0
 40
3.0
 40
3.0
 40
3.0
 40
4.0
 40
4.0
 40
4.0
 40
4.0
 10
112.2918538130728
 20
-158.3741400428717
 10
112.2918538130728
 20
-158.3741400428717
 10
111.8539821768976
 20
-158.3741400428717
 10
111.8539821768976
 20
-158.3741400428717
 10
111.8539821768976
 20
-158.3741400428717
 10
111.8539821768976
 20
-158.6828205983501
 10
111.8539821768976
 20
-158.6828205983501
 10
111.8539821768976
 20
-158.6828205983501
 10
112.2918538130728
 20
-158.6828205983501
 10
112.2918538130728
 20
-158.6828205983501
 10
112.2918538130728
 20
-158.6828205983501
 10
112.2918538130728
 20
-158.3741400428717
 10
112.2918538130728
 20
-158.3741400428717
 97
        0
 97
        1
330
F7
 92
        1
 93
        1
 72
     4
 94
        3
 73
     0
 74
     0
 95
       17
 96
       13
 40
0.0
 40
0.0
 40
0.0
 40
0.0
 40
1.0
 40
1.0
 40
1.0
 40
2.0
 40
2.0
 40
2.0
 40
3.0
 40
3.0
 40
3.0
 40
4.0
 40
4.0
 40
4.0
 40
4.0
 10
112.2918538130728
 20
-157.9021619613925
 10
112.2918538130728
 20
-157.9021619613925
 10
111.8539821768976
 20
-157.9021619613925
 10
111.8539821768976
 20
-157.9021619613925
 10
111.8539821768976
 20
-157.9021619613925
 10
111.8539821768976
 20
-158.2067084022886
 10
111.8539821768976
 20
-158.2067084022886
 10
111.8539821768976
 20
-158.2067084022886
 10
112.2918538130728
 20
-158.2067084022886
 10
112.2918538130728
 20
-158.2067084022886
 10
112.2918538130728
 20
-158.2067084022886
 10
112.2918538130728
 20
-157.9021619613925
 10
112.2918538130728
 20
-157.9021619613925
 97
        0
 97
        1
330
F8
 92
        1
 93
        1
 72
     4
 94
        3
 73
     0
 74
     0
 95
       77
 96
       73
 40
0.0
 40
0.0
 40
0.0
 40
0.0
 40
1.0
 40
1.0
 40
1.0
 40
2.0
 40
2.0
 40
2.0
 40
3.0
 40
3.0
 40
3.0
 40
4.0
 40
4.0
 40
4.0
 40
5.0
 40
5.0
 40
5.0
 40
6.0
 40
6.0
 40
6.0
 40
7.0
 40
7.0
 40
7.0
 40
8.0
 40
8.0
 40
8.0
 40
9.0
 40
9.0
 40
9.0
 40
10.0
 40
10.0
 40
10.0
 40
11.0
 40
11.0
 40
11.0
 40
12.0
 40
12.0
 40
12.0
 40
13.0
 40
13.0
 40
13.0
 40
14.0
 40
14.0
 40
14.0
 40
15.0
 40
15.0
 40
15.0
 40
16.0
 40
16.0
 40
16.0
 40
17.0
 40
17.0
 40
17.0
 40
18.0
 40
18.0
 40
18.0
 40
19.0
 40
19.0
 40
19.0
 40
20.0
 40
20.0
 40
20.0
 40
21.0
 40
21.0
 40
21.0
 40
22.0
 40
22.0
 40
22.0
 40
23.0
 40
23.0
 40
23.0
 40
24.0
 40
24.0
 40
24.0
 40
24.0
 10
113.0766465646128
 20
-159.4889729418986
 10
113.0301377755619
 20
-159.5141221389409
 10
112.9054253189959
 20
-159.5268689922363
 10
112.8268771419322
 20
-159.5268689922363
 10
112.8144747981852
 20
-159.5268689922363
 10
112.7889810915944
 20
-159.5268689922363
 10
112.7552191558389
 20
-159.522734877654
 10
112.7552191558389
 20
-159.522734877654
 10
112.6577229536064
 20
-159.2963921042731
 10
112.6577229536064
 20
-159.2963921042731
 10
112.6873507747795
 20
-159.3025932761466
 10
112.7445393598347
 20
-159.3112060148597
 10
112.8609835872361
 20
-159.3112060148597
 10
112.9391872547513
 20
-159.3112060148597
 10
112.9412543120424
 20
-159.2688313403911
 10
112.9412543120424
 20
-159.211642755336
 10
112.9412543120424
 20
-159.211642755336
 10
112.9412543120424
 20
-158.8626545826801
 10
112.9412543120424
 20
-158.8626545826801
 10
112.9412543120424
 20
-158.8626545826801
 10
112.4820230838586
 20
-158.8626545826801
 10
112.4820230838586
 20
-158.8626545826801
 10
112.4844346506983
 20
-159.0001138925416
 10
112.4865017079895
 20
-159.1988959020405
 10
112.4927028798629
 20
-159.3322210973197
 10
112.4947699371541
 20
-159.3597818612017
 10
112.4947699371541
 20
-159.4042235929614
 10
112.5075167904495
 20
-159.4655462925989
 10
112.5075167904495
 20
-159.4655462925989
 10
112.266360106482
 20
-159.4655462925989
 10
112.266360106482
 20
-159.4655462925989
 10
112.2918538130728
 20
-159.3408338360328
 10
112.2918538130728
 20
-159.0001138925416
 10
112.2918538130728
 20
-158.8626545826801
 10
112.2918538130728
 20
-158.8626545826801
 10
111.8495035527668
 20
-158.8626545826801
 10
111.8495035527668
 20
-158.8626545826801
 10
111.8264214130156
 20
-159.0700493308922
 10
111.7609645987958
 20
-159.3387667787417
 10
111.5639051370395
 20
-159.522734877654
 10
111.5639051370395
 20
-159.522734877654
 10
111.3758029235449
 20
-159.4000894783791
 10
111.3758029235449
 20
-159.4000894783791
 10
111.6297064608078
 20
-159.1799478768717
 10
111.6614013392721
 20
-158.8478406720936
 10
111.6614013392721
 20
-158.5157334673155
 10
111.6614013392721
 20
-158.5157334673155
 10
111.6614013392721
 20
-158.0799288884314
 10
111.6614013392721
 20
-158.0799288884314
 10
111.6614013392721
 20
-158.0440998953848
 10
111.659334281981
 20
-157.8112114405819
 10
111.6507215432678
 20
-157.709581123767
 10
111.7902479104205
 20
-157.7202609197713
 10
112.0317491039365
 20
-157.7202609197713
 10
112.1754095856714
 20
-157.7202609197713
 10
112.1754095856714
 20
-157.7202609197713
 10
112.6346408138552
 20
-157.7202609197713
 10
112.6346408138552
 20
-157.7202609197713
 10
112.6494547244418
 20
-157.7202609197713
 10
112.9984428970976
 20
-157.7202609197713
 10
113.1569172894191
 20
-157.709581123767
 10
113.1548502321279
 20
-157.7626355942399
 10
113.1486490602545
 20
-157.923521553401
 10
113.1486490602545
 20
-157.9741644570342
 10
113.1486490602545
 20
-157.9741644570342
 10
113.1486490602545
 20
-158.5811902815352
 10
113.1486490602545
 20
-158.5811902815352
 10
113.1486490602545
 20
-158.6004828162526
 10
113.1589843467102
 20
-159.1716796477071
 10
113.1589843467102
 20
-159.2836452509777
 10
113.1589843467102
 20
-159.3408338360328
 10
113.1589843467102
 20
-159.4424641528477
 10
113.0766465646128
 20
-159.4889729418986
 97
        0
 97
        1
330
F9
 75
     2
 76
     1
 98
        1
 10
0.0
 20
0.0
450
        0
451
        0
460
0.0
461
0.0
452
        0
462
0.0
453
        0
470

  0
SPLINE
  5
FB
330
EA
100
AcDbEntity
  8
レイヤー 1
100
AcDbSpline
210
0.0
220
0.0
230
1.0
 70
     9
 71
     3
 72
    17
 73
    13
 74
     0
 42
0.0000000001
 43
0.0000000001
 40
0.0
 40
0.0
 40
0.0
 40
0.0
 40
1.0
 40
1.0
 40
1.0
 40
2.0
 40
2.0
 40
2.0
 40
3.0
 40
3.0
 40
3.0
 40
4.0
 40
4.0
 40
4.0
 40
4.0
 10
107.6216823732682
 20
-160.2496500250417
 30
0.0
 10
107.5669053550527
 20
-160.2496500250417
 30
0.0
 10
107.522463623293
 20
-160.2940917568015
 30
0.0
 10
107.522463623293
 20
-160.3492132845655
 30
0.0
 10
107.522463623293
 20
-160.4064018696206
 30
0.0
 10
107.5669053550527
 20
-160.4549777159626
 30
0.0
 10
107.6258164878505
 20
-160.4549777159626
 30
0.0
 10
107.6850721301968
 20
-160.4549777159626
 30
0.0
 10
107.7253797473742
 20
-160.4043348123294
 30
0.0
 10
107.7253797473742
 20
-160.3512803418566
 30
0.0
 10
107.7253797473742
 20
-160.2940917568015
 30
0.0
 10
107.6788709583233
 20
-160.2496500250417
 30
0.0
 10
107.6216823732682
 20
-160.2496500250417
 30
0.0
  0
SPLINE
  5
FC
330
EA
100
AcDbEntity
  8
レイヤー 1
100
AcDbSpline
210
0.0
220
0.0
230
1.0
 70
     9
 71
     3
 72
    17
 73
    13
 74
     0
 42
0.0000000001
 43
0.0000000001
 40
0.0
 40
0.0
 40
0.0
 40
0.0
 40
1.0
 40
1.0
 40
1.0
 40
2.0
 40
2.0
 40
2.0
 40
3.0
 40
3.0
 40
3.0
 40
4.0
 40
4.0
 40
4.0
 40
4.0
 10
107.6237494305593
 20
-160.5796901725287
 30
0.0
 10
107.4969699167021
 20
-160.5796901725287
 30
0.0
 10
107.3953395998872
 20
-160.4784043652623
 30
0.0
 10
107.3953395998872
 20
-160.3512803418566
 30
0.0
 10
107.3953395998872
 20
-160.2245008279994
 30
0.0
 10
107.4969699167021
 20
-160.1208034538934
 30
0.0
 10
107.6237494305593
 20
-160.1208034538934
 30
0.0
 10
107.7508734539651
 20
-160.1208034538934
 30
0.0
 10
107.8545708280711
 20
-160.2245008279994
 30
0.0
 10
107.8545708280711
 20
-160.3512803418566
 30
0.0
 10
107.8545708280711
 20
-160.4784043652623
 30
0.0
 10
107.7508734539651
 20
-160.5796901725287
 30
0.0
 10
107.6237494305593
 20
-160.5796901725287
 30
0.0
  0
SPLINE
  5
FD
330
EA
100
AcDbEntity
  8
レイヤー 1
100
AcDbSpline
210
0.0
220
0.0
230
1.0
 70
     9
 71
     3
 72
    44
 73
    40
 74
     0
 42
0.0000000001
 43
0.0000000001
 40
0.0
 40
0.0
 40
0.0
 40
0.0
 40
1.0
 40
1.0
 40
1.0
 40
2.0
 40
2.0
 40
2.0
 40
3.0
 40
3.0
 40
3.0
 40
4.0
 40
4.0
 40
4.0
 40
5.0
 40
5.0
 40
5.0
 40
6.0
 40
6.0
 40
6.0
 40
7.0
 40
7.0
 40
7.0
 40
8.0
 40
8.0
 40
8.0
 40
9.0
 40
9.0
 40
9.0
 40
10.0
 40
10.0
 40
10.0
 40
11.0
 40
11.0
 40
11.0
 40
12.0
 40
12.0
 40
12.0
 40
13.0
 40
13.0
 40
13.0
 40
13.0
 10
107.4142876250561
 20
-160.7788166915761
 30
0.0
 10
107.3023220217855
 20
-161.1467528894008
 30
0.0
 10
107.2516791181523
 20
-161.3055717912708
 30
0.0
 10
107.0549641659446
 20
-161.5549967044029
 30
0.0
 10
106.8706515574837
 20
-161.7858181019146
 30
0.0
 10
106.633973497647
 20
-161.9718532581181
 30
0.0
 10
106.3545762537933
 20
-162.0648708362199
 30
0.0
 10
106.3545762537933
 20
-162.0648708362199
 30
0.0
 10
106.1619954161678
 20
-161.8850368518898
 30
0.0
 10
106.1619954161678
 20
-161.8850368518898
 30
0.0
 10
106.8031276859728
 20
-161.7327636314418
 30
0.0
 10
107.1331678334597
 20
-161.1763807105739
 30
0.0
 10
107.1965575903883
 20
-160.7364420171075
 30
0.0
 10
107.1965575903883
 20
-160.7364420171075
 30
0.0
 10
106.4307128640173
 20
-160.7364420171075
 30
0.0
 10
106.4307128640173
 20
-160.7364420171075
 30
0.0
 10
106.3376952859156
 20
-160.7364420171075
 30
0.0
 10
106.1537271870032
 20
-160.7405761316898
 30
0.0
 10
105.9969753424244
 20
-160.7595241568587
 30
0.0
 10
105.9969753424244
 20
-160.7595241568587
 30
0.0
 10
105.9969753424244
 20
-160.5397270648998
 30
0.0
 10
105.9969753424244
 20
-160.5397270648998
 30
0.0
 10
106.0837917486527
 20
-160.5607421473598
 30
0.0
 10
106.3356282286244
 20
-160.5607421473598
 30
0.0
 10
106.4348469785996
 20
-160.5607421473598
 30
0.0
 10
106.4348469785996
 20
-160.5607421473598
 30
0.0
 10
106.8665174429014
 20
-160.5607421473598
 30
0.0
 10
106.8665174429014
 20
-160.5607421473598
 30
0.0
 10
106.90889211737
 20
-160.5607421473598
 30
0.0
 10
107.1435031199155
 20
-160.5586750900686
 30
0.0
 10
107.1817436798018
 20
-160.5524739181952
 30
0.0
 10
107.2241183542703
 20
-160.5459282367732
 30
0.0
 10
107.2261854115615
 20
-160.5438611794821
 30
0.0
 10
107.2875081111989
 20
-160.5035535623047
 30
0.0
 10
107.2875081111989
 20
-160.5035535623047
 30
0.0
 10
107.4756103246936
 20
-160.6582383495924
 30
0.0
 10
107.4756103246936
 20
-160.6582383495924
 30
0.0
 10
107.4463270130689
 20
-160.6878661707655
 30
0.0
 10
107.4315131024824
 20
-160.7195610492298
 30
0.0
 10
107.4142876250561
 20
-160.7788166915761
 30
0.0
  0
HATCH
  5
FE
330
EA
100
AcDbEntity
  8
レイヤー 1
 62
    18
420
        0
440
 33554687
100
AcDbHatch
 10
0.0
 20
0.0
 30
0.0
210
0.0
220
0.0
230
1.0
  2
SOLID
 70
     1
 71
     1
 91
        3
 92
        1
 93
        1
 72
     4
 94
        3
 73
     0
 74
     0
 95
       17
 96
       13
 40
0.0
 40
0.0
 40
0.0
 40
0.0
 40
1.0
 40
1.0
 40
1.0
 40
2.0
 40
2.0
 40
2.0
 40
3.0
 40
3.0
 40
3.0
 40
4.0
 40
4.0
 40
4.0
 40
4.0
 10
107.6216823732682
 20
-160.2496500250417
 10
107.5669053550527
 20
-160.2496500250417
 10
107.522463623293
 20
-160.2940917568015
 10
107.522463623293
 20
-160.3492132845655
 10
107.522463623293
 20
-160.4064018696206
 10
107.5669053550527
 20
-160.4549777159626
 10
107.6258164878505
 20
-160.4549777159626
 10
107.6850721301968
 20
-160.4549777159626
 10
107.7253797473742
 20
-160.4043348123294
 10
107.7253797473742
 20
-160.3512803418566
 10
107.7253797473742
 20
-160.2940917568015
 10
107.6788709583233
 20
-160.2496500250417
 10
107.6216823732682
 20
-160.2496500250417
 97
        0
 97
        1
330
FB
 92
        1
 93
        1
 72
     4
 94
        3
 73
     0
 74
     0
 95
       17
 96
       13
 40
0.0
 40
0.0
 40
0.0
 40
0.0
 40
1.0
 40
1.0
 40
1.0
 40
2.0
 40
2.0
 40
2.0
 40
3.0
 40
3.0
 40
3.0
 40
4.0
 40
4.0
 40
4.0
 40
4.0
 10
107.6237494305593
 20
-160.5796901725287
 10
107.4969699167021
 20
-160.5796901725287
 10
107.3953395998872
 20
-160.4784043652623
 10
107.3953395998872
 20
-160.3512803418566
 10
107.3953395998872
 20
-160.2245008279994
 10
107.4969699167021
 20
-160.1208034538934
 10
107.6237494305593
 20
-160.1208034538934
 10
107.7508734539651
 20
-160.1208034538934
 10
107.8545708280711
 20
-160.2245008279994
 10
107.8545708280711
 20
-160.3512803418566
 10
107.8545708280711
 20
-160.4784043652623
 10
107.7508734539651
 20
-160.5796901725287
 10
107.6237494305593
 20
-160.5796901725287
 97
        0
 97
        1
330
FC
 92
        1
 93
        1
 72
     4
 94
        3
 73
     0
 74
     0
 95
       44
 96
       40
 40
0.0
 40
0.0
 40
0.0
 40
0.0
 40
1.0
 40
1.0
 40
1.0
 40
2.0
 40
2.0
 40
2.0
 40
3.0
 40
3.0
 40
3.0
 40
4.0
 40
4.0
 40
4.0
 40
5.0
 40
5.0
 40
5.0
 40
6.0
 40
6.0
 40
6.0
 40
7.0
 40
7.0
 40
7.0
 40
8.0
 40
8.0
 40
8.0
 40
9.0
 40
9.0
 40
9.0
 40
10.0
 40
10.0
 40
10.0
 40
11.0
 40
11.0
 40
11.0
 40
12.0
 40
12.0
 40
12.0
 40
13.0
 40
13.0
 40
13.0
 40
13.0
 10
107.4142876250561
 20
-160.7788166915761
 10
107.3023220217855
 20
-161.1467528894008
 10
107.2516791181523
 20
-161.3055717912708
 10
107.0549641659446
 20
-161.5549967044029
 10
106.8706515574837
 20
-161.7858181019146
 10
106.633973497647
 20
-161.9718532581181
 10
106.3545762537933
 20
-162.0648708362199
 10
106.3545762537933
 20
-162.0648708362199
 10
106.1619954161678
 20
-161.8850368518898
 10
106.1619954161678
 20
-161.8850368518898
 10
106.8031276859728
 20
-161.7327636314418
 10
107.1331678334597
 20
-161.1763807105739
 10
107.1965575903883
 20
-160.7364420171075
 10
107.1965575903883
 20
-160.7364420171075
 10
106.4307128640173
 20
-160.7364420171075
 10
106.4307128640173
 20
-160.7364420171075
 10
106.3376952859156
 20
-160.7364420171075
 10
106.1537271870032
 20
-160.7405761316898
 10
105.9969753424244
 20
-160.7595241568587
 10
105.9969753424244
 20
-160.7595241568587
 10
105.9969753424244
 20
-160.5397270648998
 10
105.9969753424244
 20
-160.5397270648998
 10
106.0837917486527
 20
-160.5607421473598
 10
106.3356282286244
 20
-160.5607421473598
 10
106.4348469785996
 20
-160.5607421473598
 10
106.4348469785996
 20
-160.5607421473598
 10
106.8665174429014
 20
-160.5607421473598
 10
106.8665174429014
 20
-160.5607421473598
 10
106.90889211737
 20
-160.5607421473598
 10
107.1435031199155
 20
-160.5586750900686
 10
107.1817436798018
 20
-160.5524739181952
 10
107.2241183542703
 20
-160.5459282367732
 10
107.2261854115615
 20
-160.5438611794821
 10
107.2875081111989
 20
-160.5035535623047
 10
107.2875081111989
 20
-160.5035535623047
 10
107.4756103246936
 20
-160.6582383495924
 10
107.4756103246936
 20
-160.6582383495924
 10
107.4463270130689
 20
-160.6878661707655
 10
107.4315131024824
 20
-160.7195610492298
 10
107.4142876250561
 20
-160.7788166915761
 97
        0
 97
        1
330
FD
 75
     2
 76
     1
 98
        1
 10
0.0
 20
0.0
450
        0
451
        0
460
0.0
461
0.0
452
        0
462
0.0
453
        0
470

  0
SPLINE
  5
FF
330
EA
100
AcDbEntity
  8
レイヤー 1
100
AcDbSpline
210
0.0
220
0.0
230
1.0
 70
     9
 71
     3
 72
    29
 73
    25
 74
     0
 42
0.0000000001
 43
0.0000000001
 40
0.0
 40
0.0
 40
0.0
 40
0.0
 40
1.0
 40
1.0
 40
1.0
 40
2.0
 40
2.0
 40
2.0
 40
3.0
 40
3.0
 40
3.0
 40
4.0
 40
4.0
 40
4.0
 40
5.0
 40
5.0
 40
5.0
 40
6.0
 40
6.0
 40
6.0
 40
7.0
 40
7.0
 40
7.0
 40
8.0
 40
8.0
 40
8.0
 40
8.0
 10
108.9259955239838
 20
-160.4615233973846
 30
0.0
 10
108.9259955239838
 20
-160.4615233973846
 30
0.0
 10
108.5852755804926
 20
-160.4615233973846
 30
0.0
 10
108.5852755804926
 20
-160.4615233973846
 30
0.0
 10
108.4712429199308
 20
-160.4615233973846
 30
0.0
 10
108.3547986925293
 20
-160.4656575119669
 30
0.0
 10
108.240421522419
 20
-160.4804714225535
 30
0.0
 10
108.240421522419
 20
-160.4804714225535
 30
0.0
 10
108.240421522419
 20
-160.2710096170503
 30
0.0
 10
108.240421522419
 20
-160.2710096170503
 30
0.0
 10
108.3589328071116
 20
-160.2858235276369
 30
0.0
 10
108.5325656195682
 20
-160.2899576422192
 30
0.0
 10
108.5852755804926
 20
-160.2899576422192
 30
0.0
 10
108.5852755804926
 20
-160.2899576422192
 30
0.0
 10
108.9259955239838
 20
-160.2899576422192
 30
0.0
 10
108.9259955239838
 20
-160.2899576422192
 30
0.0
 10
109.0424397513852
 20
-160.2899576422192
 30
0.0
 10
109.1585394692381
 20
-160.2858235276369
 30
0.0
 10
109.2749836966396
 20
-160.2710096170503
 30
0.0
 10
109.2749836966396
 20
-160.2710096170503
 30
0.0
 10
109.2749836966396
 20
-160.4804714225535
 30
0.0
 10
109.2749836966396
 20
-160.4804714225535
 30
0.0
 10
109.1247775334827
 20
-160.4615233973846
 30
0.0
 10
108.9408094345703
 20
-160.4615233973846
 30
0.0
 10
108.9259955239838
 20
-160.4615233973846
 30
0.0
  0
SPLINE
  5
100
330
EA
100
AcDbEntity
  8
レイヤー 1
100
AcDbSpline
210
0.0
220
0.0
230
1.0
 70
     9
 71
     3
 72
    50
 73
    46
 74
     0
 42
0.0000000001
 43
0.0000000001
 40
0.0
 40
0.0
 40
0.0
 40
0.0
 40
1.0
 40
1.0
 40
1.0
 40
2.0
 40
2.0
 40
2.0
 40
3.0
 40
3.0
 40
3.0
 40
4.0
 40
4.0
 40
4.0
 40
5.0
 40
5.0
 40
5.0
 40
6.0
 40
6.0
 40
6.0
 40
7.0
 40
7.0
 40
7.0
 40
8.0
 40
8.0
 40
8.0
 40
9.0
 40
9.0
 40
9.0
 40
10.0
 40
10.0
 40
10.0
 40
11.0
 40
11.0
 40
11.0
 40
12.0
 40
12.0
 40
12.0
 40
13.0
 40
13.0
 40
13.0
 40
14.0
 40
14.0
 40
14.0
 40
15.0
 40
15.0
 40
15.0
 40
15.0
 10
109.418988687923
 20
-161.0874972470545
 30
0.0
 10
109.3404405108593
 20
-161.2652641740934
 30
0.0
 10
109.205048258289
 20
-161.4726589223054
 30
0.0
 10
109.0675889484275
 20
-161.612185289458
 30
0.0
 10
108.8984347601018
 20
-161.783406535075
 30
0.0
 10
108.7354817436494
 20
-161.8722899985944
 30
0.0
 10
108.4161213921668
 20
-162.0142279325867
 30
0.0
 10
108.4161213921668
 20
-162.0142279325867
 30
0.0
 10
108.246967203841
 20
-161.8257812095435
 30
0.0
 10
108.246967203841
 20
-161.8257812095435
 30
0.0
 10
108.4330023600445
 20
-161.8026990697924
 30
0.0
 10
108.6042236056614
 20
-161.7158826635641
 30
0.0
 10
108.756841335658
 20
-161.6101182321669
 30
0.0
 10
109.0190131020855
 20
-161.4282171905457
 30
0.0
 10
109.2095268824198
 20
-161.1150580109365
 30
0.0
 10
109.2581027287618
 20
-160.9331569693153
 30
0.0
 10
109.2581027287618
 20
-160.9331569693153
 30
0.0
 10
108.5873426377837
 20
-160.9331569693153
 30
0.0
 10
108.5873426377837
 20
-160.9331569693153
 30
0.0
 10
108.4288682454622
 20
-160.9331569693153
 30
0.0
 10
108.136724148313
 20
-160.9414251984799
 30
0.0
 10
107.984450927865
 20
-160.9586506759062
 30
0.0
 10
107.984450927865
 20
-160.9586506759062
 30
0.0
 10
107.984450927865
 20
-160.7298963356856
 30
0.0
 10
107.984450927865
 20
-160.7298963356856
 30
0.0
 10
108.0185573731689
 20
-160.7364420171075
 30
0.0
 10
108.0437065702113
 20
-160.742643188981
 30
0.0
 10
108.0967610406841
 20
-160.7467773035633
 30
0.0
 10
108.1980468479505
 20
-160.7533229849853
 30
0.0
 10
108.3951063097068
 20
-160.7553900422764
 30
0.0
 10
108.4795111490954
 20
-160.7553900422764
 30
0.0
 10
108.4795111490954
 20
-160.7553900422764
 30
0.0
 10
108.9852511663301
 20
-160.7553900422764
 30
0.0
 10
108.9852511663301
 20
-160.7553900422764
 30
0.0
 10
109.0527750378409
 20
-160.7553900422764
 30
0.0
 10
109.1988470864155
 20
-160.7512559276941
 30
0.0
 10
109.260169786053
 20
-160.7447102462721
 30
0.0
 10
109.3321722816947
 20
-160.7364420171075
 30
0.0
 10
109.3597330455767
 20
-160.721628106521
 30
0.0
 10
109.3934949813322
 20
-160.6982014572213
 30
0.0
 10
109.3934949813322
 20
-160.6982014572213
 30
0.0
 10
109.5585150550756
 20
-160.8652885882559
 30
0.0
 10
109.5585150550756
 20
-160.8652885882559
 30
0.0
 10
109.488579616725
 20
-160.9331569693153
 30
0.0
 10
109.4420708276742
 20
-161.0368543434213
 30
0.0
 10
109.418988687923
 20
-161.0874972470545
 30
0.0
  0
HATCH
  5
101
330
EA
100
AcDbEntity
  8
レイヤー 1
 62
    18
420
        0
440
 33554687
100
AcDbHatch
 10
0.0
 20
0.0
 30
0.0
210
0.0
220
0.0
230
1.0
  2
SOLID
 70
     1
 71
     1
 91
        2
 92
        1
 93
        1
 72
     4
 94
        3
 73
     0
 74
     0
 95
       29
 96
       25
 40
0.0
 40
0.0
 40
0.0
 40
0.0
 40
1.0
 40
1.0
 40
1.0
 40
2.0
 40
2.0
 40
2.0
 40
3.0
 40
3.0
 40
3.0
 40
4.0
 40
4.0
 40
4.0
 40
5.0
 40
5.0
 40
5.0
 40
6.0
 40
6.0
 40
6.0
 40
7.0
 40
7.0
 40
7.0
 40
8.0
 40
8.0
 40
8.0
 40
8.0
 10
108.9259955239838
 20
-160.4615233973846
 10
108.9259955239838
 20
-160.4615233973846
 10
108.5852755804926
 20
-160.4615233973846
 10
108.5852755804926
 20
-160.4615233973846
 10
108.4712429199308
 20
-160.4615233973846
 10
108.3547986925293
 20
-160.4656575119669
 10
108.240421522419
 20
-160.4804714225535
 10
108.240421522419
 20
-160.4804714225535
 10
108.240421522419
 20
-160.2710096170503
 10
108.240421522419
 20
-160.2710096170503
 10
108.3589328071116
 20
-160.2858235276369
 10
108.5325656195682
 20
-160.2899576422192
 10
108.5852755804926
 20
-160.2899576422192
 10
108.5852755804926
 20
-160.2899576422192
 10
108.9259955239838
 20
-160.2899576422192
 10
108.9259955239838
 20
-160.2899576422192
 10
109.0424397513852
 20
-160.2899576422192
 10
109.1585394692381
 20
-160.2858235276369
 10
109.2749836966396
 20
-160.2710096170503
 10
109.2749836966396
 20
-160.2710096170503
 10
109.2749836966396
 20
-160.4804714225535
 10
109.2749836966396
 20
-160.4804714225535
 10
109.1247775334827
 20
-160.4615233973846
 10
108.9408094345703
 20
-160.4615233973846
 10
108.9259955239838
 20
-160.4615233973846
 97
        0
 97
        1
330
FF
 92
        1
 93
        1
 72
     4
 94
        3
 73
     0
 74
     0
 95
       50
 96
       46
 40
0.0
 40
0.0
 40
0.0
 40
0.0
 40
1.0
 40
1.0
 40
1.0
 40
2.0
 40
2.0
 40
2.0
 40
3.0
 40
3.0
 40
3.0
 40
4.0
 40
4.0
 40
4.0
 40
5.0
 40
5.0
 40
5.0
 40
6.0
 40
6.0
 40
6.0
 40
7.0
 40
7.0
 40
7.0
 40
8.0
 40
8.0
 40
8.0
 40
9.0
 40
9.0
 40
9.0
 40
10.0
 40
10.0
 40
10.0
 40
11.0
 40
11.0
 40
11.0
 40
12.0
 40
12.0
 40
12.0
 40
13.0
 40
13.0
 40
13.0
 40
14.0
 40
14.0
 40
14.0
 40
15.0
 40
15.0
 40
15.0
 40
15.0
 10
109.418988687923
 20
-161.0874972470545
 10
109.3404405108593
 20
-161.2652641740934
 10
109.205048258289
 20
-161.4726589223054
 10
109.0675889484275
 20
-161.612185289458
 10
108.8984347601018
 20
-161.783406535075
 10
108.7354817436494
 20
-161.8722899985944
 10
108.4161213921668
 20
-162.0142279325867
 10
108.4161213921668
 20
-162.0142279325867
 10
108.246967203841
 20
-161.8257812095435
 10
108.246967203841
 20
-161.8257812095435
 10
108.4330023600445
 20
-161.8026990697924
 10
108.6042236056614
 20
-161.7158826635641
 10
108.756841335658
 20
-161.6101182321669
 10
109.0190131020855
 20
-161.4282171905457
 10
109.2095268824198
 20
-161.1150580109365
 10
109.2581027287618
 20
-160.9331569693153
 10
109.2581027287618
 20
-160.9331569693153
 10
108.5873426377837
 20
-160.9331569693153
 10
108.5873426377837
 20
-160.9331569693153
 10
108.4288682454622
 20
-160.9331569693153
 10
108.136724148313
 20
-160.9414251984799
 10
107.984450927865
 20
-160.9586506759062
 10
107.984450927865
 20
-160.9586506759062
 10
107.984450927865
 20
-160.7298963356856
 10
107.984450927865
 20
-160.7298963356856
 10
108.0185573731689
 20
-160.7364420171075
 10
108.0437065702113
 20
-160.742643188981
 10
108.0967610406841
 20
-160.7467773035633
 10
108.1980468479505
 20
-160.7533229849853
 10
108.3951063097068
 20
-160.7553900422764
 10
108.4795111490954
 20
-160.7553900422764
 10
108.4795111490954
 20
-160.7553900422764
 10
108.9852511663301
 20
-160.7553900422764
 10
108.9852511663301
 20
-160.7553900422764
 10
109.0527750378409
 20
-160.7553900422764
 10
109.1988470864155
 20
-160.7512559276941
 10
109.260169786053
 20
-160.7447102462721
 10
109.3321722816947
 20
-160.7364420171075
 10
109.3597330455767
 20
-160.721628106521
 10
109.3934949813322
 20
-160.6982014572213
 10
109.3934949813322
 20
-160.6982014572213
 10
109.5585150550756
 20
-160.8652885882559
 10
109.5585150550756
 20
-160.8652885882559
 10
109.488579616725
 20
-160.9331569693153
 10
109.4420708276742
 20
-161.0368543434213
 10
109.418988687923
 20
-161.0874972470545
 97
        0
 97
        1
330
100
 75
     2
 76
     1
 98
        1
 10
0.0
 20
0.0
450
        0
451
        0
460
0.0
461
0.0
452
        0
462
0.0
453
        0
470

  0
SPLINE
  5
102
330
EA
100
AcDbEntity
  8
レイヤー 1
100
AcDbSpline
210
0.0
220
0.0
230
1.0
 70
     9
 71
     3
 72
    50
 73
    46
 74
     0
 42
0.0000000001
 43
0.0000000001
 40
0.0
 40
0.0
 40
0.0
 40
0.0
 40
1.0
 40
1.0
 40
1.0
 40
2.0
 40
2.0
 40
2.0
 40
3.0
 40
3.0
 40
3.0
 40
4.0
 40
4.0
 40
4.0
 40
5.0
 40
5.0
 40
5.0
 40
6.0
 40
6.0
 40
6.0
 40
7.0
 40
7.0
 40
7.0
 40
8.0
 40
8.0
 40
8.0
 40
9.0
 40
9.0
 40
9.0
 40
10.0
 40
10.0
 40
10.0
 40
11.0
 40
11.0
 40
11.0
 40
12.0
 40
12.0
 40
12.0
 40
13.0
 40
13.0
 40
13.0
 40
14.0
 40
14.0
 40
14.0
 40
15.0
 40
15.0
 40
15.0
 40
15.0
 10
111.129134086801
 20
-160.446709486798
 30
0.0
 10
110.9196722812978
 20
-160.6603054068835
 30
0.0
 10
110.8480142952046
 20
-160.7323079025252
 30
0.0
 10
110.7060763612123
 20
-160.8504746776693
 30
0.0
 10
110.7060763612123
 20
-160.8504746776693
 30
0.0
 10
110.7060763612123
 20
-161.4175373945414
 30
0.0
 10
110.7060763612123
 20
-161.4175373945414
 30
0.0
 10
110.7060763612123
 20
-161.5677435576983
 30
0.0
 10
110.7126220426343
 20
-161.5866915828672
 30
0.0
 10
110.7167561572166
 20
-161.7644585099061
 30
0.0
 10
110.7188232145078
 20
-161.8957166478941
 30
0.0
 10
110.7250243863812
 20
-161.9442924942361
 30
0.0
 10
110.7315700678032
 20
-162.0035481365824
 30
0.0
 10
110.7315700678032
 20
-162.0035481365824
 30
0.0
 10
110.5052272944223
 20
-162.0035481365824
 30
0.0
 10
110.5052272944223
 20
-162.0035481365824
 30
0.0
 10
110.5093614090046
 20
-161.9591064048227
 30
0.0
 10
110.5134955235869
 20
-161.9125976157718
 30
0.0
 10
110.5134955235869
 20
-161.9039848770587
 30
0.0
 10
110.5134955235869
 20
-161.8237141522524
 30
0.0
 10
110.5179741477177
 20
-161.4726589223054
 30
0.0
 10
110.5179741477177
 20
-161.4006564266637
 30
0.0
 10
110.5179741477177
 20
-161.4006564266637
 30
0.0
 10
110.5179741477177
 20
-160.9944796689527
 30
0.0
 10
110.5179741477177
 20
-160.9944796689527
 30
0.0
 10
110.3360731060965
 20
-161.1191921255188
 30
0.0
 10
110.1414252111799
 20
-161.2294351810468
 30
0.0
 10
109.9381645775502
 20
-161.3159070777266
 30
0.0
 10
109.9381645775502
 20
-161.3159070777266
 30
0.0
 10
109.735248453469
 20
-161.1529540612743
 30
0.0
 10
109.735248453469
 20
-161.1529540612743
 30
0.0
 10
109.8578938527438
 20
-161.1171250682276
 30
0.0
 10
110.1138644472979
 20
-161.0430555152948
 30
0.0
 10
110.4587185053714
 20
-160.7870849207407
 30
0.0
 10
110.6743814827481
 20
-160.6286105284192
 30
0.0
 10
110.8669623203735
 20
-160.440163805376
 30
0.0
 10
111.0192355408216
 20
-160.2200222038686
 30
0.0
 10
111.0192355408216
 20
-160.2200222038686
 30
0.0
 10
111.211816378447
 20
-160.364027195152
 30
0.0
 10
111.211816378447
 20
-160.364027195152
 30
0.0
 10
111.2245632317425
 20
-160.3747069911563
 30
0.0
 10
111.2328314609071
 20
-160.3895209017429
 30
0.0
 10
111.2328314609071
 20
-160.4022677550383
 30
0.0
 10
111.2328314609071
 20
-160.4422308626672
 30
0.0
 10
111.1949354105693
 20
-160.4422308626672
 30
0.0
 10
111.129134086801
 20
-160.446709486798
 30
0.0
  0
HATCH
  5
103
330
EA
100
AcDbEntity
  8
レイヤー 1
 62
    18
420
        0
440
 33554687
100
AcDbHatch
 10
0.0
 20
0.0
 30
0.0
210
0.0
220
0.0
230
1.0
  2
SOLID
 70
     1
 71
     1
 91
        1
 92
        1
 93
        1
 72
     4
 94
        3
 73
     0
 74
     0
 95
       50
 96
       46
 40
0.0
 40
0.0
 40
0.0
 40
0.0
 40
1.0
 40
1.0
 40
1.0
 40
2.0
 40
2.0
 40
2.0
 40
3.0
 40
3.0
 40
3.0
 40
4.0
 40
4.0
 40
4.0
 40
5.0
 40
5.0
 40
5.0
 40
6.0
 40
6.0
 40
6.0
 40
7.0
 40
7.0
 40
7.0
 40
8.0
 40
8.0
 40
8.0
 40
9.0
 40
9.0
 40
9.0
 40
10.0
 40
10.0
 40
10.0
 40
11.0
 40
11.0
 40
11.0
 40
12.0
 40
12.0
 40
12.0
 40
13.0
 40
13.0
 40
13.0
 40
14.0
 40
14.0
 40
14.0
 40
15.0
 40
15.0
 40
15.0
 40
15.0
 10
111.129134086801
 20
-160.446709486798
 10
110.9196722812978
 20
-160.6603054068835
 10
110.8480142952046
 20
-160.7323079025252
 10
110.7060763612123
 20
-160.8504746776693
 10
110.7060763612123
 20
-160.8504746776693
 10
110.7060763612123
 20
-161.4175373945414
 10
110.7060763612123
 20
-161.4175373945414
 10
110.7060763612123
 20
-161.5677435576983
 10
110.7126220426343
 20
-161.5866915828672
 10
110.7167561572166
 20
-161.7644585099061
 10
110.7188232145078
 20
-161.8957166478941
 10
110.7250243863812
 20
-161.9442924942361
 10
110.7315700678032
 20
-162.0035481365824
 10
110.7315700678032
 20
-162.0035481365824
 10
110.5052272944223
 20
-162.0035481365824
 10
110.5052272944223
 20
-162.0035481365824
 10
110.5093614090046
 20
-161.9591064048227
 10
110.5134955235869
 20
-161.9125976157718
 10
110.5134955235869
 20
-161.9039848770587
 10
110.5134955235869
 20
-161.8237141522524
 10
110.5179741477177
 20
-161.4726589223054
 10
110.5179741477177
 20
-161.4006564266637
 10
110.5179741477177
 20
-161.4006564266637
 10
110.5179741477177
 20
-160.9944796689527
 10
110.5179741477177
 20
-160.9944796689527
 10
110.3360731060965
 20
-161.1191921255188
 10
110.1414252111799
 20
-161.2294351810468
 10
109.9381645775502
 20
-161.3159070777266
 10
109.9381645775502
 20
-161.3159070777266
 10
109.735248453469
 20
-161.1529540612743
 10
109.735248453469
 20
-161.1529540612743
 10
109.8578938527438
 20
-161.1171250682276
 10
110.1138644472979
 20
-161.0430555152948
 10
110.4587185053714
 20
-160.7870849207407
 10
110.6743814827481
 20
-160.6286105284192
 10
110.8669623203735
 20
-160.440163805376
 10
111.0192355408216
 20
-160.2200222038686
 10
111.0192355408216
 20
-160.2200222038686
 10
111.211816378447
 20
-160.364027195152
 10
111.211816378447
 20
-160.364027195152
 10
111.2245632317425
 20
-160.3747069911563
 10
111.2328314609071
 20
-160.3895209017429
 10
111.2328314609071
 20
-160.4022677550383
 10
111.2328314609071
 20
-160.4422308626672
 10
111.1949354105693
 20
-160.4422308626672
 10
111.129134086801
 20
-160.446709486798
 97
        0
 97
        1
330
102
 75
     2
 76
     1
 98
        1
 10
0.0
 20
0.0
450
        0
451
        0
460
0.0
461
0.0
452
        0
462
0.0
453
        0
470

  0
SPLINE
  5
104
330
EA
100
AcDbEntity
  8
レイヤー 1
100
AcDbSpline
210
0.0
220
0.0
230
1.0
 70
     9
 71
     3
 72
    50
 73
    46
 74
     0
 42
0.0000000001
 43
0.0000000001
 40
0.0
 40
0.0
 40
0.0
 40
0.0
 40
1.0
 40
1.0
 40
1.0
 40
2.0
 40
2.0
 40
2.0
 40
3.0
 40
3.0
 40
3.0
 40
4.0
 40
4.0
 40
4.0
 40
5.0
 40
5.0
 40
5.0
 40
6.0
 40
6.0
 40
6.0
 40
7.0
 40
7.0
 40
7.0
 40
8.0
 40
8.0
 40
8.0
 40
9.0
 40
9.0
 40
9.0
 40
10.0
 40
10.0
 40
10.0
 40
11.0
 40
11.0
 40
11.0
 40
12.0
 40
12.0
 40
12.0
 40
13.0
 40
13.0
 40
13.0
 40
14.0
 40
14.0
 40
14.0
 40
15.0
 40
15.0
 40
15.0
 40
15.0
 10
112.8375569379364
 20
-160.9734645864927
 30
0.0
 10
112.776234238299
 20
-161.0451225725859
 30
0.0
 10
112.5157850196141
 20
-161.3624158667774
 30
0.0
 10
112.4589409441075
 20
-161.4261501332546
 30
0.0
 10
112.5433457834961
 20
-161.5233018259386
 30
0.0
 10
112.5943331966778
 20
-161.5866915828672
 30
0.0
 10
112.6597900108975
 20
-161.6776421036778
 30
0.0
 10
112.6597900108975
 20
-161.6776421036778
 30
0.0
 10
112.4758219119852
 20
-161.8154459230878
 30
0.0
 10
112.4758219119852
 20
-161.8154459230878
 30
0.0
 10
112.3404296594149
 20
-161.6035725507449
 30
0.0
 10
112.1688639042494
 20
-161.3796413442037
 30
0.0
 10
111.8749972593576
 20
-161.1805148251562
 30
0.0
 10
111.8749972593576
 20
-161.1805148251562
 30
0.0
 10
112.0231363652234
 20
-161.026174547417
 30
0.0
 10
112.0231363652234
 20
-161.026174547417
 30
0.0
 10
112.1330349112028
 20
-161.1064452722234
 30
0.0
 10
112.2367322853089
 20
-161.1953287357428
 30
0.0
 10
112.3338839779929
 20
-161.2907578806842
 30
0.0
 10
112.4017523590523
 20
-161.2146212704602
 30
0.0
 10
112.6046684831335
 20
-160.9710530196531
 30
0.0
 10
112.7379936784127
 20
-160.742643188981
 30
0.0
 10
112.7379936784127
 20
-160.742643188981
 30
0.0
 10
112.0651665301434
 20
-160.742643188981
 30
0.0
 10
112.0651665301434
 20
-160.742643188981
 30
0.0
 10
111.9404540735774
 20
-160.742643188981
 30
0.0
 10
111.6886175936056
 20
-160.7512559276941
 30
0.0
 10
111.4791557881024
 20
-160.7615912141499
 30
0.0
 10
111.4791557881024
 20
-160.7615912141499
 30
0.0
 10
111.4791557881024
 20
-160.5417941221909
 30
0.0
 10
111.4791557881024
 20
-160.5417941221909
 30
0.0
 10
111.6634683965633
 20
-160.5607421473598
 30
0.0
 10
111.8684515779357
 20
-160.5648762619421
 30
0.0
 10
112.0568983009788
 20
-160.5648762619421
 30
0.0
 10
112.0568983009788
 20
-160.5648762619421
 30
0.0
 10
112.5602267513738
 20
-160.5648762619421
 30
0.0
 10
112.5602267513738
 20
-160.5648762619421
 30
0.0
 10
112.8988796375739
 20
-160.5648762619421
 30
0.0
 10
112.9433213693336
 20
-160.5500623513555
 30
0.0
 10
113.0256591514311
 20
-160.5100992437266
 30
0.0
 10
113.0256591514311
 20
-160.5100992437266
 30
0.0
 10
113.1927462824657
 20
-160.6685736360481
 30
0.0
 10
113.1927462824657
 20
-160.6685736360481
 30
0.0
 10
113.0404730620176
 20
-160.7405761316898
 30
0.0
 10
112.8968125802827
 20
-160.9035291481422
 30
0.0
 10
112.8375569379364
 20
-160.9734645864927
 30
0.0
  0
HATCH
  5
105
330
EA
100
AcDbEntity
  8
レイヤー 1
 62
    18
420
        0
440
 33554687
100
AcDbHatch
 10
0.0
 20
0.0
 30
0.0
210
0.0
220
0.0
230
1.0
  2
SOLID
 70
     1
 71
     1
 91
        1
 92
        1
 93
        1
 72
     4
 94
        3
 73
     0
 74
     0
 95
       50
 96
       46
 40
0.0
 40
0.0
 40
0.0
 40
0.0
 40
1.0
 40
1.0
 40
1.0
 40
2.0
 40
2.0
 40
2.0
 40
3.0
 40
3.0
 40
3.0
 40
4.0
 40
4.0
 40
4.0
 40
5.0
 40
5.0
 40
5.0
 40
6.0
 40
6.0
 40
6.0
 40
7.0
 40
7.0
 40
7.0
 40
8.0
 40
8.0
 40
8.0
 40
9.0
 40
9.0
 40
9.0
 40
10.0
 40
10.0
 40
10.0
 40
11.0
 40
11.0
 40
11.0
 40
12.0
 40
12.0
 40
12.0
 40
13.0
 40
13.0
 40
13.0
 40
14.0
 40
14.0
 40
14.0
 40
15.0
 40
15.0
 40
15.0
 40
15.0
 10
112.8375569379364
 20
-160.9734645864927
 10
112.776234238299
 20
-161.0451225725859
 10
112.5157850196141
 20
-161.3624158667774
 10
112.4589409441075
 20
-161.4261501332546
 10
112.5433457834961
 20
-161.5233018259386
 10
112.5943331966778
 20
-161.5866915828672
 10
112.6597900108975
 20
-161.6776421036778
 10
112.6597900108975
 20
-161.6776421036778
 10
112.4758219119852
 20
-161.8154459230878
 10
112.4758219119852
 20
-161.8154459230878
 10
112.3404296594149
 20
-161.6035725507449
 10
112.1688639042494
 20
-161.3796413442037
 10
111.8749972593576
 20
-161.1805148251562
 10
111.8749972593576
 20
-161.1805148251562
 10
112.0231363652234
 20
-161.026174547417
 10
112.0231363652234
 20
-161.026174547417
 10
112.1330349112028
 20
-161.1064452722234
 10
112.2367322853089
 20
-161.1953287357428
 10
112.3338839779929
 20
-161.2907578806842
 10
112.4017523590523
 20
-161.2146212704602
 10
112.6046684831335
 20
-160.9710530196531
 10
112.7379936784127
 20
-160.742643188981
 10
112.7379936784127
 20
-160.742643188981
 10
112.0651665301434
 20
-160.742643188981
 10
112.0651665301434
 20
-160.742643188981
 10
111.9404540735774
 20
-160.742643188981
 10
111.6886175936056
 20
-160.7512559276941
 10
111.4791557881024
 20
-160.7615912141499
 10
111.4791557881024
 20
-160.7615912141499
 10
111.4791557881024
 20
-160.5417941221909
 10
111.4791557881024
 20
-160.5417941221909
 10
111.6634683965633
 20
-160.5607421473598
 10
111.8684515779357
 20
-160.5648762619421
 10
112.0568983009788
 20
-160.5648762619421
 10
112.0568983009788
 20
-160.5648762619421
 10
112.5602267513738
 20
-160.5648762619421
 10
112.5602267513738
 20
-160.5648762619421
 10
112.8988796375739
 20
-160.5648762619421
 10
112.9433213693336
 20
-160.5500623513555
 10
113.0256591514311
 20
-160.5100992437266
 10
113.0256591514311
 20
-160.5100992437266
 10
113.1927462824657
 20
-160.6685736360481
 10
113.1927462824657
 20
-160.6685736360481
 10
113.0404730620176
 20
-160.7405761316898
 10
112.8968125802827
 20
-160.9035291481422
 10
112.8375569379364
 20
-160.9734645864927
 97
        0
 97
        1
330
104
 75
     2
 76
     1
 98
        1
 10
0.0
 20
0.0
450
        0
451
        0
460
0.0
461
0.0
452
        0
462
0.0
453
        0
470

  0
SPLINE
  5
106
330
EA
100
AcDbEntity
  8
レイヤー 1
100
AcDbSpline
210
0.0
220
0.0
230
1.0
 70
     9
 71
     3
 72
    29
 73
    25
 74
     0
 42
0.0000000001
 43
0.0000000001
 40
0.0
 40
0.0
 40
0.0
 40
0.0
 40
1.0
 40
1.0
 40
1.0
 40
2.0
 40
2.0
 40
2.0
 40
3.0
 40
3.0
 40
3.0
 40
4.0
 40
4.0
 40
4.0
 40
5.0
 40
5.0
 40
5.0
 40
6.0
 40
6.0
 40
6.0
 40
7.0
 40
7.0
 40
7.0
 40
8.0
 40
8.0
 40
8.0
 40
8.0
 10
114.4612304401347
 20
-161.2166883277514
 30
0.0
 10
114.4612304401347
 20
-161.2166883277514
 30
0.0
 10
113.9768500149085
 20
-161.2166883277514
 30
0.0
 10
113.9768500149085
 20
-161.2166883277514
 30
0.0
 10
113.9492892510265
 20
-161.2166883277514
 30
0.0
 10
113.631995956835
 20
-161.2166883277514
 30
0.0
 10
113.4204670940407
 20
-161.2418375247937
 30
0.0
 10
113.4204670940407
 20
-161.2418375247937
 30
0.0
 10
113.4204670940407
 20
-161.0113606368305
 30
0.0
 10
113.4204670940407
 20
-161.0113606368305
 30
0.0
 10
113.5789414863622
 20
-161.0347872861302
 30
0.0
 10
113.7694552666965
 20
-161.0368543434213
 30
0.0
 10
113.9768500149085
 20
-161.0368543434213
 30
0.0
 10
113.9768500149085
 20
-161.0368543434213
 30
0.0
 10
114.4612304401347
 20
-161.0368543434213
 30
0.0
 10
114.4612304401347
 20
-161.0368543434213
 30
0.0
 10
114.6472655963382
 20
-161.0368543434213
 30
0.0
 10
114.8336452620902
 20
-161.0347872861302
 30
0.0
 10
115.0176133610025
 20
-161.0113606368305
 30
0.0
 10
115.0176133610025
 20
-161.0113606368305
 30
0.0
 10
115.0176133610025
 20
-161.2418375247937
 30
0.0
 10
115.0176133610025
 20
-161.2418375247937
 30
0.0
 10
114.8336452620902
 20
-161.2187553850425
 30
0.0
 10
114.5859428967007
 20
-161.2166883277514
 30
0.0
 10
114.4612304401347
 20
-161.2166883277514
 30
0.0
  0
HATCH
  5
107
330
EA
100
AcDbEntity
  8
レイヤー 1
 62
    18
420
        0
440
 33554687
100
AcDbHatch
 10
0.0
 20
0.0
 30
0.0
210
0.0
220
0.0
230
1.0
  2
SOLID
 70
     1
 71
     1
 91
        1
 92
        1
 93
        1
 72
     4
 94
        3
 73
     0
 74
     0
 95
       29
 96
       25
 40
0.0
 40
0.0
 40
0.0
 40
0.0
 40
1.0
 40
1.0
 40
1.0
 40
2.0
 40
2.0
 40
2.0
 40
3.0
 40
3.0
 40
3.0
 40
4.0
 40
4.0
 40
4.0
 40
5.0
 40
5.0
 40
5.0
 40
6.0
 40
6.0
 40
6.0
 40
7.0
 40
7.0
 40
7.0
 40
8.0
 40
8.0
 40
8.0
 40
8.0
 10
114.4612304401347
 20
-161.2166883277514
 10
114.4612304401347
 20
-161.2166883277514
 10
113.9768500149085
 20
-161.2166883277514
 10
113.9768500149085
 20
-161.2166883277514
 10
113.9492892510265
 20
-161.2166883277514
 10
113.631995956835
 20
-161.2166883277514
 10
113.4204670940407
 20
-161.2418375247937
 10
113.4204670940407
 20
-161.2418375247937
 10
113.4204670940407
 20
-161.0113606368305
 10
113.4204670940407
 20
-161.0113606368305
 10
113.5789414863622
 20
-161.0347872861302
 10
113.7694552666965
 20
-161.0368543434213
 10
113.9768500149085
 20
-161.0368543434213
 10
113.9768500149085
 20
-161.0368543434213
 10
114.4612304401347
 20
-161.0368543434213
 10
114.4612304401347
 20
-161.0368543434213
 10
114.6472655963382
 20
-161.0368543434213
 10
114.8336452620902
 20
-161.0347872861302
 10
115.0176133610025
 20
-161.0113606368305
 10
115.0176133610025
 20
-161.0113606368305
 10
115.0176133610025
 20
-161.2418375247937
 10
115.0176133610025
 20
-161.2418375247937
 10
114.8336452620902
 20
-161.2187553850425
 10
114.5859428967007
 20
-161.2166883277514
 10
114.4612304401347
 20
-161.2166883277514
 97
        0
 97
        1
330
106
 75
     2
 76
     1
 98
        1
 10
0.0
 20
0.0
450
        0
451
        0
460
0.0
461
0.0
452
        0
462
0.0
453
        0
470

  0
ENDBLK
  5
ED
330
EA
100
AcDbEntity
  8
0
100
AcDbBlockEnd
  0
ENDSEC
  0
SECTION
  2
ENTITIES
  0
LINE
  5
79
330
70
100
AcDbEntity
  8
レイヤー 1
 62
    18
420
        0
370
    25
100
AcDbLine
 10
86.96598495287764
 20
-142.1764176545936
 30
0.0
 11
93.96590727429474
 21
-142.1764176545936
 31
0.0
  0
LINE
  5
7A
330
70
100
AcDbEntity
  8
レイヤー 1
 62
    18
420
        0
370
    25
100
AcDbLine
 10
117.9658048445276
 20
-142.1764176545936
 30
0.0
 11
117.9658048445276
 21
-143.1761898513095
 31
0.0
  0
LINE
  5
7B
330
70
100
AcDbEntity
  8
レイヤー 1
 62
    18
420
        0
370
    25
100
AcDbLine
 10
95.96612194548724
 20
-143.1761898513095
 30
0.0
 11
117.9658048445276
 21
-143.1761898513095
 31
0.0
  0
LINE
  5
7C
330
70
100
AcDbEntity
  8
レイヤー 1
 62
    18
420
        0
370
    25
100
AcDbLine
 10
92.96613507757884
 20
-143.1761898513095
 30
0.0
 11
92.96613507757884
 21
-154.1763651262272
 31
0.0
  0
LINE
  5
7D
330
70
100
AcDbEntity
  8
レイヤー 1
 62
    18
420
        0
370
    25
100
AcDbLine
 10
102.9658678780202
 20
-153.1765929295113
 30
0.0
 11
102.9658678780202
 21
-153.6761262501005
 31
0.0
  0
LINE
  5
7E
330
70
100
AcDbEntity
  8
レイヤー 1
 62
    18
420
        0
370
    25
100
AcDbLine
 10
95.96612194548724
 20
-153.1765929295113
 30
0.0
 11
102.9658678780202
 21
-153.1765929295113
 31
0.0
  0
LINE
  5
7F
330
70
100
AcDbEntity
  8
レイヤー 1
 62
    18
420
        0
370
    25
100
AcDbLine
 10
94.96567947101066
 20
-142.1764176545936
 30
0.0
 11
117.9658048445276
 21
-142.1764176545936
 31
0.0
  0
LINE
  5
80
330
70
100
AcDbEntity
  8
レイヤー 1
 62
    18
420
        0
370
    25
100
AcDbLine
 10
93.96590727429474
 20
-142.1764176545936
 30
0.0
 11
93.96590727429474
 21
-153.1765929295113
 31
0.0
  0
LINE
  5
81
330
70
100
AcDbEntity
  8
レイヤー 1
 62
    18
420
        0
370
    25
100
AcDbLine
 10
94.96567947101066
 20
-142.1764176545936
 30
0.0
 11
94.96567947101066
 21
-153.1765929295113
 31
0.0
  0
LINE
  5
82
330
70
100
AcDbEntity
  8
レイヤー 1
 62
    18
420
        0
370
    25
100
AcDbLine
 10
95.96612194548724
 20
-143.1761898513095
 30
0.0
 11
95.96612194548724
 21
-153.1765929295113
 31
0.0
  0
LINE
  5
83
330
70
100
AcDbEntity
  8
レイヤー 1
 62
    18
420
        0
370
    25
100
AcDbLine
 10
93.96590727429474
 20
-153.1765929295113
 30
0.0
 11
94.96567947101066
 21
-153.1765929295113
 31
0.0
  0
LINE
  5
84
330
70
100
AcDbEntity
  8
レイヤー 1
 62
    18
420
        0
370
    25
100
AcDbLine
 10
86.96598495287764
 20
-142.1764176545936
 30
0.0
 11
86.96598495287764
 21
-143.1761898513095
 31
0.0
  0
LINE
  5
85
330
70
100
AcDbEntity
  8
レイヤー 1
 62
    18
420
        0
370
    25
100
AcDbLine
 10
86.96598495287764
 20
-143.1761898513095
 30
0.0
 11
92.96613507757884
 21
-143.1761898513095
 31
0.0
  0
LINE
  5
86
330
70
100
AcDbEntity
  8
レイヤー 1
 62
    18
420
        0
370
    25
100
AcDbLine
 10
92.96613507757884
 20
-154.1763651262272
 30
0.0
 11
102.9658678780202
 21
-153.6761262501005
 31
0.0
  0
SPLINE
  5
87
330
70
100
AcDbEntity
  8
レイヤー 1
 62
    18
420
        0
370
     9
100
AcDbSpline
210
0.0
220
0.0
230
1.0
 70
     9
 71
     3
 72
    17
 73
    13
 74
     0
 42
0.0000000001
 43
0.0000000001
 40
0.0
 40
0.0
 40
0.0
 40
0.0
 40
1.0
 40
1.0
 40
1.0
 40
2.0
 40
2.0
 40
2.0
 40
3.0
 40
3.0
 40
3.0
 40
4.0
 40
4.0
 40
4.0
 40
4.0
 10
118.0657088816798
 20
-138.1766585899693
 30
0.0
 10
118.0657088816798
 20
-138.1208491469486
 30
0.0
 10
118.0209413828219
 20
-138.0760463703142
 30
0.0
 10
117.9658048445276
 20
-138.0760463703142
 30
0.0
 10
117.9106983300789
 20
-138.0760463703142
 30
0.0
 10
117.8658955534441
 20
-138.1208491469486
 30
0.0
 10
117.8658955534441
 20
-138.1766585899693
 30
0.0
 10
117.8658955534441
 20
-138.2317597737818
 30
0.0
 10
117.9106983300789
 20
-138.2765625515485
 30
0.0
 10
117.9658048445276
 20
-138.2765625515485
 30
0.0
 10
118.0209413828219
 20
-138.2765625515485
 30
0.0
 10
118.0657088816798
 20
-138.2317597737818
 30
0.0
 10
118.0657088816798
 20
-138.1766585899693
 30
0.0
  0
SPLINE
  5
88
330
70
100
AcDbEntity
  8
レイヤー 1
 62
    18
420
        0
370
     9
100
AcDbSpline
210
0.0
220
0.0
230
1.0
 70
     9
 71
     3
 72
    17
 73
    13
 74
     0
 42
0.0000000001
 43
0.0000000001
 40
0.0
 40
0.0
 40
0.0
 40
0.0
 40
1.0
 40
1.0
 40
1.0
 40
2.0
 40
2.0
 40
2.0
 40
3.0
 40
3.0
 40
3.0
 40
4.0
 40
4.0
 40
4.0
 40
4.0
 10
122.0659971129573
 20
-142.1764176545936
 30
0.0
 10
122.0659971129573
 20
-142.1212784893336
 30
0.0
 10
122.0211943363225
 20
-142.0765109904757
 30
0.0
 10
121.9660904488394
 20
-142.0765109904757
 30
0.0
 10
121.9102810058188
 20
-142.0765109904757
 30
0.0
 10
121.865478229184
 20
-142.1212784893336
 30
0.0
 10
121.865478229184
 20
-142.1764176545936
 30
0.0
 10
121.865478229184
 20
-142.2315215420766
 30
0.0
 10
121.9102810058188
 20
-142.2763243187114
 30
0.0
 10
121.9660904488394
 20
-142.2763243187114
 30
0.0
 10
122.0211943363225
 20
-142.2763243187114
 30
0.0
 10
122.0659971129573
 20
-142.2315215420766
 30
0.0
 10
122.0659971129573
 20
-142.1764176545936
 30
0.0
  0
SPLINE
  5
89
330
70
100
AcDbEntity
  8
レイヤー 1
 62
    18
420
        0
370
     9
100
AcDbSpline
210
0.0
220
0.0
230
1.0
 70
     9
 71
     3
 72
    17
 73
    13
 74
     0
 42
0.0000000001
 43
0.0000000001
 40
0.0
 40
0.0
 40
0.0
 40
0.0
 40
1.0
 40
1.0
 40
1.0
 40
2.0
 40
2.0
 40
2.0
 40
3.0
 40
3.0
 40
3.0
 40
4.0
 40
4.0
 40
4.0
 40
4.0
 10
122.0659971129573
 20
-143.1761898513095
 30
0.0
 10
122.0659971129573
 20
-143.1210506860495
 30
0.0
 10
122.0211943363225
 20
-143.0762831871916
 30
0.0
 10
121.9660904488394
 20
-143.0762831871916
 30
0.0
 10
121.9102810058188
 20
-143.0762831871916
 30
0.0
 10
121.865478229184
 20
-143.1210506860495
 30
0.0
 10
121.865478229184
 20
-143.1761898513095
 30
0.0
 10
121.865478229184
 20
-143.2312937387929
 30
0.0
 10
121.9102810058188
 20
-143.2760965154273
 30
0.0
 10
121.9660904488394
 20
-143.2760965154273
 30
0.0
 10
122.0211943363225
 20
-143.2760965154273
 30
0.0
 10
122.0659971129573
 20
-143.2312937387929
 30
0.0
 10
122.0659971129573
 20
-143.1761898513095
 30
0.0
  0
SPLINE
  5
8A
330
70
100
AcDbEntity
  8
レイヤー 1
 62
    18
420
        0
370
     9
100
AcDbSpline
210
0.0
220
0.0
230
1.0
 70
     9
 71
     3
 72
    17
 73
    13
 74
     0
 42
0.0000000001
 43
0.0000000001
 40
0.0
 40
0.0
 40
0.0
 40
0.0
 40
1.0
 40
1.0
 40
1.0
 40
2.0
 40
2.0
 40
2.0
 40
3.0
 40
3.0
 40
3.0
 40
4.0
 40
4.0
 40
4.0
 40
4.0
 10
103.0657745421378
 20
-158.1761241908515
 30
0.0
 10
103.0657745421378
 20
-158.1210181021431
 30
0.0
 10
103.020971765503
 20
-158.0762153243764
 30
0.0
 10
102.9658678780202
 20
-158.0762153243764
 30
0.0
 10
102.91072871276
 20
-158.0762153243764
 30
0.0
 10
102.8659612139021
 20
-158.1210181021431
 30
0.0
 10
102.8659612139021
 20
-158.1761241908515
 30
0.0
 10
102.8659612139021
 20
-158.2312633561114
 30
0.0
 10
102.91072871276
 20
-158.2760308549693
 30
0.0
 10
102.9658678780202
 20
-158.2760308549693
 30
0.0
 10
103.020971765503
 20
-158.2760308549693
 30
0.0
 10
103.0657745421378
 20
-158.2312633561114
 30
0.0
 10
103.0657745421378
 20
-158.1761241908515
 30
0.0
  0
SPLINE
  5
8B
330
70
100
AcDbEntity
  8
レイヤー 1
 62
    18
420
        0
370
     9
100
AcDbSpline
210
0.0
220
0.0
230
1.0
 70
     9
 71
     3
 72
    17
 73
    13
 74
     0
 42
0.0000000001
 43
0.0000000001
 40
0.0
 40
0.0
 40
0.0
 40
0.0
 40
1.0
 40
1.0
 40
1.0
 40
2.0
 40
2.0
 40
2.0
 40
3.0
 40
3.0
 40
3.0
 40
4.0
 40
4.0
 40
4.0
 40
4.0
 10
93.06604373964139
 20
-158.1761241908515
 30
0.0
 10
93.06604373964139
 20
-158.1210181021431
 30
0.0
 10
93.02124096187467
 20
-158.0762153243764
 30
0.0
 10
92.96613507757884
 20
-158.0762153243764
 30
0.0
 10
92.91032563455821
 20
-158.0762153243764
 30
0.0
 10
92.86552285792344
 20
-158.1210181021431
 30
0.0
 10
92.86552285792344
 20
-158.1761241908515
 30
0.0
 10
92.86552285792344
 20
-158.2312633561114
 30
0.0
 10
92.91032563455821
 20
-158.2760308549693
 30
0.0
 10
92.96613507757884
 20
-158.2760308549693
 30
0.0
 10
93.02124096187467
 20
-158.2760308549693
 30
0.0
 10
93.06604373964139
 20
-158.2312633561114
 30
0.0
 10
93.06604373964139
 20
-158.1761241908515
 30
0.0
  0
SPLINE
  5
8C
330
70
100
AcDbEntity
  8
レイヤー 1
 62
    18
420
        0
370
     9
100
AcDbSpline
210
0.0
220
0.0
230
1.0
 70
     9
 71
     3
 72
    17
 73
    13
 74
     0
 42
0.0000000001
 43
0.0000000001
 40
0.0
 40
0.0
 40
0.0
 40
0.0
 40
1.0
 40
1.0
 40
1.0
 40
2.0
 40
2.0
 40
2.0
 40
3.0
 40
3.0
 40
3.0
 40
4.0
 40
4.0
 40
4.0
 40
4.0
 10
107.0655336067621
 20
-153.1765929295113
 30
0.0
 10
107.0655336067621
 20
-153.1207834864907
 30
0.0
 10
107.0207308301273
 20
-153.0760159876328
 30
0.0
 10
106.9656269426443
 20
-153.0760159876328
 30
0.0
 10
106.9104877773843
 20
-153.0760159876328
 30
0.0
 10
106.8657202785264
 20
-153.1207834864907
 30
0.0
 10
106.8657202785264
 20
-153.1765929295113
 30
0.0
 10
106.8657202785264
 20
-153.2317320947712
 30
0.0
 10
106.9104877773843
 20
-153.2764995936291
 30
0.0
 10
106.9656269426443
 20
-153.2764995936291
 30
0.0
 10
107.0207308301273
 20
-153.2764995936291
 30
0.0
 10
107.0655336067621
 20
-153.2317320947712
 30
0.0
 10
107.0655336067621
 20
-153.1765929295113
 30
0.0
  0
SPLINE
  5
8D
330
70
100
AcDbEntity
  8
レイヤー 1
 62
    18
420
        0
370
     9
100
AcDbSpline
210
0.0
220
0.0
230
1.0
 70
     9
 71
     3
 72
    17
 73
    13
 74
     0
 42
0.0000000001
 43
0.0000000001
 40
0.0
 40
0.0
 40
0.0
 40
0.0
 40
1.0
 40
1.0
 40
1.0
 40
2.0
 40
2.0
 40
2.0
 40
3.0
 40
3.0
 40
3.0
 40
4.0
 40
4.0
 40
4.0
 40
4.0
 10
122.0659971129573
 20
-153.1765929295113
 30
0.0
 10
122.0659971129573
 20
-153.1207834864907
 30
0.0
 10
122.0211943363225
 20
-153.0760159876328
 30
0.0
 10
121.9660904488394
 20
-153.0760159876328
 30
0.0
 10
121.9102810058188
 20
-153.0760159876328
 30
0.0
 10
121.865478229184
 20
-153.1207834864907
 30
0.0
 10
121.865478229184
 20
-153.1765929295113
 30
0.0
 10
121.865478229184
 20
-153.2317320947712
 30
0.0
 10
121.9102810058188
 20
-153.2764995936291
 30
0.0
 10
121.9660904488394
 20
-153.2764995936291
 30
0.0
 10
122.0211943363225
 20
-153.2764995936291
 30
0.0
 10
122.0659971129573
 20
-153.2317320947712
 30
0.0
 10
122.0659971129573
 20
-153.1765929295113
 30
0.0
  0
CIRCLE
  5
8E
330
70
100
AcDbEntity
  8
レイヤー 1
 62
    18
420
        0
370
     9
100
AcDbCircle
 10
106.9656269426443
 20
-153.6761262501005
 30
0.0
 40
0.0999066641178353
  0
SPLINE
  5
8F
330
70
100
AcDbEntity
  8
レイヤー 1
 62
    18
420
        0
370
     9
100
AcDbSpline
210
0.0
220
0.0
230
1.0
 70
     9
 71
     3
 72
    17
 73
    13
 74
     0
 42
0.0000000001
 43
0.0000000001
 40
0.0
 40
0.0
 40
0.0
 40
0.0
 40
1.0
 40
1.0
 40
1.0
 40
2.0
 40
2.0
 40
2.0
 40
3.0
 40
3.0
 40
3.0
 40
4.0
 40
4.0
 40
4.0
 40
4.0
 10
87.06589161699548
 20
-138.1766585899693
 30
0.0
 10
87.06589161699548
 20
-138.1208491469486
 30
0.0
 10
87.02108884036071
 20
-138.0760463703142
 30
0.0
 10
86.96598495287764
 20
-138.0760463703142
 30
0.0
 10
86.91017550985703
 20
-138.0760463703142
 30
0.0
 10
86.86537273322258
 20
-138.1208491469486
 30
0.0
 10
86.86537273322258
 20
-138.1766585899693
 30
0.0
 10
86.86537273322258
 20
-138.2317597737818
 30
0.0
 10
86.91017550985703
 20
-138.2765625515485
 30
0.0
 10
86.96598495287764
 20
-138.2765625515485
 30
0.0
 10
87.02108884036071
 20
-138.2765625515485
 30
0.0
 10
87.06589161699548
 20
-138.2317597737818
 30
0.0
 10
87.06589161699548
 20
-138.1766585899693
 30
0.0
  0
SPLINE
  5
90
330
70
100
AcDbEntity
  8
レイヤー 1
 62
    18
420
        0
370
     9
100
AcDbSpline
210
0.0
220
0.0
230
1.0
 70
     9
 71
     3
 72
    17
 73
    13
 74
     0
 42
0.0000000001
 43
0.0000000001
 40
0.0
 40
0.0
 40
0.0
 40
0.0
 40
1.0
 40
1.0
 40
1.0
 40
2.0
 40
2.0
 40
2.0
 40
3.0
 40
3.0
 40
3.0
 40
4.0
 40
4.0
 40
4.0
 40
4.0
 10
87.06589161699548
 20
-158.1761241908515
 30
0.0
 10
87.06589161699548
 20
-158.1210181021431
 30
0.0
 10
87.02108884036071
 20
-158.0762153243764
 30
0.0
 10
86.96598495287764
 20
-158.0762153243764
 30
0.0
 10
86.91017550985703
 20
-158.0762153243764
 30
0.0
 10
86.86537273322258
 20
-158.1210181021431
 30
0.0
 10
86.86537273322258
 20
-158.1761241908515
 30
0.0
 10
86.86537273322258
 20
-158.2312633561114
 30
0.0
 10
86.91017550985703
 20
-158.2760308549693
 30
0.0
 10
86.96598495287764
 20
-158.2760308549693
 30
0.0
 10
87.02108884036071
 20
-158.2760308549693
 30
0.0
 10
87.06589161699548
 20
-158.2312633561114
 30
0.0
 10
87.06589161699548
 20
-158.1761241908515
 30
0.0
  0
LINE
  5
91
330
70
100
AcDbEntity
  8
レイヤー 1
 62
    18
420
        0
370
     9
100
AcDbLine
 10
121.9660904488394
 20
-142.1764176545936
 30
0.0
 11
121.9660904488394
 21
-138.4061052507822
 31
0.0
  0
LINE
  5
92
330
70
100
AcDbEntity
  8
レイヤー 1
 62
    18
420
        0
370
     9
100
AcDbLine
 10
121.9660904488394
 20
-142.1764176545936
 30
0.0
 11
121.9660904488394
 21
-143.1761898513095
 31
0.0
  0
LINE
  5
93
330
70
100
AcDbEntity
  8
レイヤー 1
 62
    18
420
        0
370
     9
100
AcDbLine
 10
120.5060490971993
 20
-142.1764176545936
 30
0.0
 11
122.9658626455553
 21
-142.1764176545936
 31
0.0
  0
LINE
  5
94
330
70
100
AcDbEntity
  8
レイヤー 1
 62
    18
420
        0
370
     9
100
AcDbLine
 10
120.5060490971993
 20
-143.1761898513095
 30
0.0
 11
122.9658626455553
 21
-143.1761898513095
 31
0.0
  0
INSERT
  5
96
330
70
100
AcDbEntity
  8
レイヤー 1
100
AcDbBlockReference
  2
Block_0
 10
0.0
 20
0.0
 30
0.0
  0
LINE
  5
9B
330
70
100
AcDbEntity
  8
レイヤー 1
 62
    18
420
        0
370
     9
100
AcDbLine
 10
121.9660904488394
 20
-143.1761898513095
 30
0.0
 11
121.9660904488394
 21
-153.1765929295113
 31
0.0
  0
LINE
  5
9C
330
70
100
AcDbEntity
  8
レイヤー 1
 62
    18
420
        0
370
     9
100
AcDbLine
 10
105.5055855910041
 20
-153.1765929295113
 30
0.0
 11
122.9658626455553
 21
-153.1765929295113
 31
0.0
  0
INSERT
  5
9E
330
70
100
AcDbEntity
  8
レイヤー 1
100
AcDbBlockReference
  2
Block_1
 10
0.0
 20
0.0
 30
0.0
  0
LINE
  5
AA
330
70
100
AcDbEntity
  8
レイヤー 1
 62
    18
420
        0
370
     9
100
AcDbLine
 10
92.96613507757884
 20
-158.1761241908515
 30
0.0
 11
102.9658678780202
 21
-158.1761241908515
 31
0.0
  0
LINE
  5
AB
330
70
100
AcDbEntity
  8
レイヤー 1
 62
    18
420
        0
370
     9
100
AcDbLine
 10
92.96613507757884
 20
-156.7160828392114
 30
0.0
 11
92.96613507757884
 21
-159.1765666653281
 31
0.0
  0
LINE
  5
AC
330
70
100
AcDbEntity
  8
レイヤー 1
 62
    18
420
        0
370
     9
100
AcDbLine
 10
102.9658678780202
 20
-156.0160659126258
 30
0.0
 11
102.9658678780202
 21
-159.1765666653281
 31
0.0
  0
INSERT
  5
AE
330
70
100
AcDbEntity
  8
レイヤー 1
100
AcDbBlockReference
  2
Block_3
 10
0.0
 20
0.0
 30
0.0
  0
LINE
  5
BA
330
70
100
AcDbEntity
  8
レイヤー 1
 62
    18
420
        0
370
     9
100
AcDbLine
 10
86.96598495287764
 20
-158.1761241908515
 30
0.0
 11
92.96613507757884
 21
-158.1761241908515
 31
0.0
  0
LINE
  5
BB
330
70
100
AcDbEntity
  8
レイヤー 1
 62
    18
420
        0
370
     9
100
AcDbLine
 10
86.96598495287764
 20
-145.7165778420543
 30
0.0
 11
86.96598495287764
 21
-159.1765666653281
 31
0.0
  0
INSERT
  5
BD
330
70
100
AcDbEntity
  8
レイヤー 1
100
AcDbBlockReference
  2
Block_5
 10
0.0
 20
0.0
 30
0.0
  0
LINE
  5
C3
330
70
100
AcDbEntity
  8
レイヤー 1
 62
    18
420
        0
370
     9
100
AcDbLine
 10
117.9658048445276
 20
-138.1766585899693
 30
0.0
 11
86.96598495287764
 21
-138.1766585899693
 31
0.0
  0
LINE
  5
C4
330
70
100
AcDbEntity
  8
レイヤー 1
 62
    18
420
        0
370
     9
100
AcDbLine
 10
117.9658048445276
 20
-139.6359943860719
 30
0.0
 11
117.9658048445276
 21
-137.1762161154927
 31
0.0
  0
LINE
  5
C5
330
70
100
AcDbEntity
  8
レイヤー 1
 62
    18
420
        0
370
     9
100
AcDbLine
 10
86.96598495287764
 20
-139.6359943860719
 30
0.0
 11
86.96598495287764
 21
-137.1762161154927
 31
0.0
  0
INSERT
  5
C7
330
70
100
AcDbEntity
  8
レイヤー 1
100
AcDbBlockReference
  2
Block_6
 10
0.0
 20
0.0
 30
0.0
  0
LINE
  5
D2
330
70
100
AcDbEntity
  8
レイヤー 1
 62
    18
420
        0
370
     9
100
AcDbLine
 10
106.9656269426443
 20
-153.1765929295113
 30
0.0
 11
106.9656269426443
 21
-147.9186847713606
 31
0.0
  0
LINE
  5
D3
330
70
100
AcDbEntity
  8
レイヤー 1
 62
    18
420
        0
370
     9
100
AcDbLine
 10
106.9656269426443
 20
-153.1765929295113
 30
0.0
 11
106.9656269426443
 21
-154.6766040023539
 31
0.0
  0
LINE
  5
D4
330
70
100
AcDbEntity
  8
レイヤー 1
 62
    18
420
        0
370
     9
100
AcDbLine
 10
105.5055855910041
 20
-153.1765929295113
 30
0.0
 11
107.9660694171208
 21
-153.1765929295113
 31
0.0
  0
LINE
  5
D5
330
70
100
AcDbEntity
  8
レイヤー 1
 62
    18
420
        0
370
     9
100
AcDbLine
 10
105.5055855910041
 20
-153.6761262501005
 30
0.0
 11
107.9660694171208
 21
-153.6761262501005
 31
0.0
  0
INSERT
  5
D7
330
70
100
AcDbEntity
  8
レイヤー 1
100
AcDbBlockReference
  2
Block_8
 10
0.0
 20
0.0
 30
0.0
  0
LINE
  5
E5
330
70
100
AcDbEntity
  8
レイヤー 1
 62
    18
420
        0
370
     9
100
AcDbLine
 10
102.9658678780202
 20
-154.1522681031353
 30
0.0
 11
106.6231855624918
 21
-157.20048199352
 31
0.0
  0
INSERT
  5
E7
330
70
100
AcDbEntity
  8
レイヤー 1
100
AcDbBlockReference
  2
Block_10
 10
0.0
 20
0.0
 30
0.0
  0
LWPOLYLINE
  5
108
330
70
100
AcDbEntity
  8
レイヤー 1
  6
AI-Linetype-0
 62
   154
420
    23468
370
    25
100
AcDbPolyline
 90
        4
 70
     0
 43
0.0
 10
86.96598495287764
 20
-143.6763934496593
 10
92.46589620145211
 20
-143.6763934496593
 10
92.46589620145211
 20
-154.6766040023539
 10
102.9658678780202
 20
-154.1522681031353
  0
ENDSEC
  0
SECTION
  2
OBJECTS
  0
DICTIONARY
  5
C
330
0
100
AcDbDictionary
281
     1
  3
ACAD_COLOR
350
63
  3
ACAD_DETAILVIEWSTYLE
350
6A
  3
ACAD_GROUP
350
D
  3
ACAD_LAYOUT
350
62
  3
ACAD_MATERIAL
350
10
  3
ACAD_MLEADERSTYLE
350
66
  3
ACAD_MLINESTYLE
350
5F
  3
ACAD_PLOTSETTINGS
350
61
  3
ACAD_PLOTSTYLENAME
350
E
  3
ACAD_SCALELIST
350
42
  3
ACAD_SECTIONVIEWSTYLE
350
68
  3
ACAD_TABLESTYLE
350
64
  3
ACAD_VISUALSTYLE
350
29
  3
ACDB_RECOMPOSE_DATA
350
112
  3
AcDbVariableDictionary
350
10A
  0
DICTIONARY
  5
63
102
{ACAD_REACTORS
330
C
102
}
330
C
100
AcDbDictionary
281
     1
  0
DICTIONARY
  5
6A
102
{ACAD_REACTORS
330
C
102
}
330
C
100
AcDbDictionary
281
     1
  3
Imperial24
350
6B
  0
DICTIONARY
  5
D
102
{ACAD_REACTORS
330
C
102
}
330
C
100
AcDbDictionary
281
     1
  0
DICTIONARY
  5
62
102
{ACAD_REACTORS
330
C
102
}
330
C
100
AcDbDictionary
281
     1
  3
Layout1
350
6F
  3
Layout2
350
77
  3
Model
350
73
  0
DICTIONARY
  5
10
102
{ACAD_REACTORS
330
C
102
}
330
C
100
AcDbDictionary
281
     1
  3
ByBlock
350
19
  3
ByLayer
350
11
  3
Global
350
21
  0
DICTIONARY
  5
66
102
{ACAD_REACTORS
330
C
102
}
330
C
100
AcDbDictionary
281
     1
  3
Standard
350
67
  0
DICTIONARY
  5
5F
102
{ACAD_REACTORS
330
C
102
}
330
C
100
AcDbDictionary
281
     1
  3
Standard
350
60
  0
DICTIONARY
  5
61
102
{ACAD_REACTORS
330
C
102
}
330
C
100
AcDbDictionary
281
     1
  0
ACDBDICTIONARYWDFLT
  5
E
102
{ACAD_REACTORS
330
C
102
}
330
C
100
AcDbDictionary
281
     1
  3
Normal
350
F
100
AcDbDictionaryWithDefault
340
F
  0
DICTIONARY
  5
42
102
{ACAD_REACTORS
330
C
102
}
330
C
100
AcDbDictionary
281
     1
  3
A0
350
43
  3
A1
350
44
  3
A2
350
45
  3
A3
350
46
  3
A4
350
47
  3
A5
350
48
  3
A6
350
49
  3
A7
350
4A
  3
A8
350
4B
  3
A9
350
4C
  3
B0
350
4D
  3
B1
350
4E
  3
B2
350
4F
  3
B3
350
50
  3
B4
350
51
  3
B5
350
52
  3
B6
350
53
  0
DICTIONARY
  5
68
102
{ACAD_REACTORS
330
C
102
}
330
C
100
AcDbDictionary
281
     1
  3
Imperial24
350
69
  0
DICTIONARY
  5
64
102
{ACAD_REACTORS
330
C
102
}
330
C
100
AcDbDictionary
281
     1
  3
Standard
350
65
  0
DICTIONARY
  5
29
102
{ACAD_REACTORS
330
C
102
}
330
C
100
AcDbDictionary
281
     1
  3
2dWireframe
350
2F
  3
Basic
350
2E
  3
Brighten
350
35
  3
ColorChange
350
39
  3
Conceptual
350
32
  3
Dim
350
34
  3
EdgeColorOff
350
41
  3
Facepattern
350
38
  3
Flat
350
2A
  3
FlatWithEdges
350
2B
  3
Gouraud
350
2C
  3
GouraudWithEdges
350
2D
  3
Hidden
350
31
  3
JitterOff
350
3F
  3
Linepattern
350
37
  3
OverhangOff
350
40
  3
Realistic
350
33
  3
Shaded
350
3E
  3
Shaded with edges
350
3D
  3
Shades of Gray
350
3A
  3
Sketchy
350
3B
  3
Thicken
350
36
  3
Wireframe
350
30
  3
X-Ray
350
3C
  0
XRECORD
  5
112
102
{ACAD_REACTORS
330
C
102
}
330
C
100
AcDbXrecord
280
     1
 90
        1
330
65
  0
DICTIONARY
  5
10A
102
{ACAD_REACTORS
330
C
102
}
330
C
100
AcDbDictionary
281
     1
  3
CANNOSCALE
350
10F
  3
CMLEADERSTYLE
350
10C
  3
CTABLESTYLE
350
10B
  3
CVIEWDETAILSTYLE
350
10D
  3
CVIEWSECTIONSTYLE
350
10E
  0
ACDBDETAILVIEWSTYLE
  5
6B
102
{ACAD_XDICTIONARY
360
147
102
}
102
{ACAD_REACTORS
330
6A
102
}
330
6A
100
AcDbModelDocViewStyle
 70
     0
  3
Imperial24
290
     0
100
AcDbDetailViewStyle
 70
     0
 71
     0
 90
        3
 71
     1
340
55
 62
   256
 40
0.24
340
0
 62
   256
 40
0.24
300

 40
0.36
280
     3
 71
     2
340
5D
 90
       25
 62
   256
 71
     3
340
55
 62
   256
 40
0.24
 90
        1
 40
0.75
 90
        1
300
%<\AcVar ViewType \f "%tc1">% %<\AcVar ViewDetailId>%\PSCALE %<\AcVar ViewScale \f "%sn">%
 71
     4
340
5D
 90
       25
 62
   256
340
5D
 90
       25
 62
   256
280
     0
  0
LAYOUT
  5
6F
102
{ACAD_REACTORS
330
62
102
}
330
62
100
AcDbPlotSettings
  1

  2

  4

  6

 40
0.0
 41
0.0
 42
0.0
 43
0.0
 44
0.0
 45
0.0
 46
0.0
 47
0.0
 48
0.0
 49
0.0
140
0.0
141
0.0
142
1.0
143
1.0
 70
   688
 72
     0
 73
     0
 74
     5
  7

 75
    16
147
1.0
 76
     0
 77
     2
 78
   300
148
0.0
149
0.0
100
AcDbLayout
  1
Layout1
 70
     1
 71
     1
 10
0.0
 20
0.0
 11
12.0
 21
9.0
 12
0.0
 22
0.0
 32
0.0
 14
0.0
 24
0.0
 34
0.0
 15
0.0
 25
0.0
 35
0.0
146
0.0
 13
0.0
 23
0.0
 33
0.0
 16
1.0
 26
0.0
 36
0.0
 17
0.0
 27
1.0
 37
0.0
 76
     0
330
6C
  0
LAYOUT
  5
77
102
{ACAD_REACTORS
330
62
102
}
330
62
100
AcDbPlotSettings
  1

  2

  4

  6

 40
0.0
 41
0.0
 42
0.0
 43
0.0
 44
0.0
 45
0.0
 46
0.0
 47
0.0
 48
0.0
 49
0.0
140
0.0
141
0.0
142
1.0
143
1.0
 70
   688
 72
     0
 73
     0
 74
     5
  7

 75
    16
147
1.0
 76
     0
 77
     2
 78
   300
148
0.0
149
0.0
100
AcDbLayout
  1
Layout2
 70
     1
 71
     2
 10
0.0
 20
0.0
 11
12.0
 21
9.0
 12
0.0
 22
0.0
 32
0.0
 14
0.0
 24
0.0
 34
0.0
 15
0.0
 25
0.0
 35
0.0
146
0.0
 13
0.0
 23
0.0
 33
0.0
 16
1.0
 26
0.0
 36
0.0
 17
0.0
 27
1.0
 37
0.0
 76
     0
330
74
  0
LAYOUT
  5
73
102
{ACAD_REACTORS
330
62
102
}
330
62
100
AcDbPlotSettings
  1

  2

  4

  6

 40
0.0
 41
0.0
 42
0.0
 43
0.0
 44
0.0
 45
0.0
 46
0.0
 47
0.0
 48
0.0
 49
0.0
140
0.0
141
0.0
142
1.0
143
1.0
 70
  1712
 72
     0
 73
     0
 74
     0
  7

 75
     0
147
1.0
 76
     0
 77
     2
 78
   300
148
0.0
149
0.0
100
AcDbLayout
  1
Model
 70
     1
 71
     0
 10
0.0
 20
0.0
 11
12.0
 21
9.0
 12
0.0
 22
0.0
 32
0.0
 14
0.0
 24
0.0
 34
0.0
 15
0.0
 25
0.0
 35
0.0
146
0.0
 13
0.0
 23
0.0
 33
0.0
 16
1.0
 26
0.0
 36
0.0
 17
0.0
 27
1.0
 37
0.0
 76
     0
330
70
  0
MATERIAL
  5
19
102
{ACAD_XDICTIONARY
360
1A
102
}
102
{ACAD_REACTORS
330
10
102
}
330
10
100
AcDbMaterial
  1
ByBlock
 72
     0
 43
0.0208333333333333
 43
0.0
 43
0.0
 43
0.0
 43
0.0
 43
0.0208333333333333
 43
0.0
 43
0.0
 43
0.0
 43
0.0
 43
1.0
 43
0.0
 43
0.0
 43
0.0
 43
0.0
 43
1.0
 77
     0
 47
0.0208333333333333
 47
0.0
 47
0.0
 47
0.0
 47
0.0
 47
0.0208333333333333
 47
0.0
 47
0.0
 47
0.0
 47
0.0
 47
1.0
 47
0.0
 47
0.0
 47
0.0
 47
0.0
 47
1.0
171
     0
 49
0.0208333333333333
 49
0.0
 49
0.0
 49
0.0
 49
0.0
 49
0.0208333333333333
 49
0.0
 49
0.0
 49
0.0
 49
0.0
 49
1.0
 49
0.0
 49
0.0
 49
0.0
 49
0.0
 49
1.0
175
     0
142
0.0208333333333333
142
0.0
142
0.0
142
0.0
142
0.0
142
0.0208333333333333
142
0.0
142
0.0
142
0.0
142
0.0
142
1.0
142
0.0
142
0.0
142
0.0
142
0.0
142
1.0
179
     0
144
0.0208333333333333
144
0.0
144
0.0
144
0.0
144
0.0
144
0.0208333333333333
144
0.0
144
0.0
144
0.0
144
0.0
144
1.0
144
0.0
144
0.0
144
0.0
144
0.0
144
1.0
147
0.0208333333333333
147
0.0
147
0.0
147
0.0
147
0.0
147
0.0208333333333333
147
0.0
147
0.0
147
0.0
147
0.0
147
1.0
147
0.0
147
0.0
147
0.0
147
0.0
147
1.0
  0
MATERIAL
  5
11
102
{ACAD_XDICTIONARY
360
12
102
}
102
{ACAD_REACTORS
330
10
102
}
330
10
100
AcDbMaterial
  1
ByLayer
 72
     0
 43
0.0208333333333333
 43
0.0
 43
0.0
 43
0.0
 43
0.0
 43
0.0208333333333333
 43
0.0
 43
0.0
 43
0.0
 43
0.0
 43
1.0
 43
0.0
 43
0.0
 43
0.0
 43
0.0
 43
1.0
 77
     0
 47
0.0208333333333333
 47
0.0
 47
0.0
 47
0.0
 47
0.0
 47
0.0208333333333333
 47
0.0
 47
0.0
 47
0.0
 47
0.0
 47
1.0
 47
0.0
 47
0.0
 47
0.0
 47
0.0
 47
1.0
171
     0
 49
0.0208333333333333
 49
0.0
 49
0.0
 49
0.0
 49
0.0
 49
0.0208333333333333
 49
0.0
 49
0.0
 49
0.0
 49
0.0
 49
1.0
 49
0.0
 49
0.0
 49
0.0
 49
0.0
 49
1.0
175
     0
142
0.0208333333333333
142
0.0
142
0.0
142
0.0
142
0.0
142
0.0208333333333333
142
0.0
142
0.0
142
0.0
142
0.0
142
1.0
142
0.0
142
0.0
142
0.0
142
0.0
142
1.0
179
     0
144
0.0208333333333333
144
0.0
144
0.0
144
0.0
144
0.0
144
0.0208333333333333
144
0.0
144
0.0
144
0.0
144
0.0
144
1.0
144
0.0
144
0.0
144
0.0
144
0.0
144
1.0
147
0.0208333333333333
147
0.0
147
0.0
147
0.0
147
0.0
147
0.0208333333333333
147
0.0
147
0.0
147
0.0
147
0.0
147
1.0
147
0.0
147
0.0
147
0.0
147
0.0
147
1.0
  0
MATERIAL
  5
21
102
{ACAD_XDICTIONARY
360
22
102
}
102
{ACAD_REACTORS
330
10
102
}
330
10
100
AcDbMaterial
  1
Global
 72
     0
 43
0.0208333333333333
 43
0.0
 43
0.0
 43
0.0
 43
0.0
 43
0.0208333333333333
 43
0.0
 43
0.0
 43
0.0
 43
0.0
 43
1.0
 43
0.0
 43
0.0
 43
0.0
 43
0.0
 43
1.0
 77
     0
 47
0.0208333333333333
 47
0.0
 47
0.0
 47
0.0
 47
0.0
 47
0.0208333333333333
 47
0.0
 47
0.0
 47
0.0
 47
0.0
 47
1.0
 47
0.0
 47
0.0
 47
0.0
 47
0.0
 47
1.0
171
     0
 49
0.0208333333333333
 49
0.0
 49
0.0
 49
0.0
 49
0.0
 49
0.0208333333333333
 49
0.0
 49
0.0
 49
0.0
 49
0.0
 49
1.0
 49
0.0
 49
0.0
 49
0.0
 49
0.0
 49
1.0
175
     0
142
0.0208333333333333
142
0.0
142
0.0
142
0.0
142
0.0
142
0.0208333333333333
142
0.0
142
0.0
142
0.0
142
0.0
142
1.0
142
0.0
142
0.0
142
0.0
142
0.0
142
1.0
179
     0
144
0.0208333333333333
144
0.0
144
0.0
144
0.0
144
0.0
144
0.0208333333333333
144
0.0
144
0.0
144
0.0
144
0.0
144
1.0
144
0.0
144
0.0
144
0.0
144
0.0
144
1.0
147
0.0208333333333333
147
0.0
147
0.0
147
0.0
147
0.0
147
0.0208333333333333
147
0.0
147
0.0
147
0.0
147
0.0
147
1.0
147
0.0
147
0.0
147
0.0
147
0.0
147
1.0
  0
MLEADERSTYLE
  5
67
102
{ACAD_XDICTIONARY
360
143
102
}
102
{ACAD_REACTORS
330
66
102
}
330
66
100
AcDbMLeaderStyle
179
     2
170
     2
171
     1
172
     0
 90
        2
 40
0.0
 41
0.0
173
     1
 91
-1056964608
340
5B
 92
       -2
290
     1
 42
0.09
291
     1
 43
0.36
  3
Standard
 44
0.18
300

342
55
174
     1
178
     6
175
     1
176
     0
 93
-1056964608
 45
0.18
292
     0
297
     0
 46
0.18
 94
-1056964608
 47
1.0
 49
1.0
140
1.0
293
     1
141
0.0
294
     1
177
     0
142
1.0
295
     0
296
     0
143
0.125
271
     0
272
     9
273
     9
  0
MLINESTYLE
  5
60
102
{ACAD_REACTORS
330
5F
102
}
330
5F
100
AcDbMlineStyle
  2
STANDARD
 70
     0
  3

 62
   256
 51
90.0
 52
90.0
 71
     2
 49
0.5
 62
   256
  6
BYLAYER
 49
-0.5
 62
   256
  6
BYLAYER
  0
ACDBPLACEHOLDER
  5
F
102
{ACAD_REACTORS
330
E
102
}
330
E
  0
SCALE
  5
43
102
{ACAD_REACTORS
330
42
102
}
330
42
100
AcDbScale
 70
     0
300
1:1
140
1.0
141
1.0
290
     1
  0
SCALE
  5
44
102
{ACAD_REACTORS
330
42
102
}
330
42
100
AcDbScale
 70
     0
300
1/128" = 1'-0"
140
0.0078125
141
12.0
290
     0
  0
SCALE
  5
45
102
{ACAD_REACTORS
330
42
102
}
330
42
100
AcDbScale
 70
     0
300
1/64" = 1'-0"
140
0.015625
141
12.0
290
     0
  0
SCALE
  5
46
102
{ACAD_REACTORS
330
42
102
}
330
42
100
AcDbScale
 70
     0
300
1/32" = 1'-0"
140
0.03125
141
12.0
290
     0
  0
SCALE
  5
47
102
{ACAD_REACTORS
330
42
102
}
330
42
100
AcDbScale
 70
     0
300
1/16" = 1'-0"
140
0.0625
141
12.0
290
     0
  0
SCALE
  5
48
102
{ACAD_REACTORS
330
42
102
}
330
42
100
AcDbScale
 70
     0
300
3/32" = 1'-0"
140
0.09375
141
12.0
290
     0
  0
SCALE
  5
49
102
{ACAD_REACTORS
330
42
102
}
330
42
100
AcDbScale
 70
     0
300
1/8" = 1'-0"
140
0.125
141
12.0
290
     0
  0
SCALE
  5
4A
102
{ACAD_REACTORS
330
42
102
}
330
42
100
AcDbScale
 70
     0
300
3/16" = 1'-0"
140
0.1875
141
12.0
290
     0
  0
SCALE
  5
4B
102
{ACAD_REACTORS
330
42
102
}
330
42
100
AcDbScale
 70
     0
300
1/4" = 1'-0"
140
0.25
141
12.0
290
     0
  0
SCALE
  5
4C
102
{ACAD_REACTORS
330
42
102
}
330
42
100
AcDbScale
 70
     0
300
3/8" = 1'-0"
140
0.375
141
12.0
290
     0
  0
SCALE
  5
4D
102
{ACAD_REACTORS
330
42
102
}
330
42
100
AcDbScale
 70
     0
300
1/2" = 1'-0"
140
0.5
141
12.0
290
     0
  0
SCALE
  5
4E
102
{ACAD_REACTORS
330
42
102
}
330
42
100
AcDbScale
 70
     0
300
3/4" = 1'-0"
140
0.75
141
12.0
290
     0
  0
SCALE
  5
4F
102
{ACAD_REACTORS
330
42
102
}
330
42
100
AcDbScale
 70
     0
300
1" = 1'-0"
140
1.0
141
12.0
290
     0
  0
SCALE
  5
50
102
{ACAD_REACTORS
330
42
102
}
330
42
100
AcDbScale
 70
     0
300
1-1/2" = 1'-0"
140
1.5
141
12.0
290
     0
  0
SCALE
  5
51
102
{ACAD_REACTORS
330
42
102
}
330
42
100
AcDbScale
 70
     0
300
3" = 1'-0"
140
3.0
141
12.0
290
     0
  0
SCALE
  5
52
102
{ACAD_REACTORS
330
42
102
}
330
42
100
AcDbScale
 70
     0
300
6" = 1'-0"
140
6.0
141
12.0
290
     0
  0
SCALE
  5
53
102
{ACAD_REACTORS
330
42
102
}
330
42
100
AcDbScale
 70
     0
300
1'-0" = 1'-0"
140
12.0
141
12.0
290
     0
  0
ACDBSECTIONVIEWSTYLE
  5
69
102
{ACAD_XDICTIONARY
360
145
102
}
102
{ACAD_REACTORS
330
68
102
}
330
68
100
AcDbModelDocViewStyle
 70
     0
  3
Imperial24
290
     0
100
AcDbSectionViewStyle
 70
     0
 71
     0
 90
       78
 71
     1
340
55
 62
   256
 40
0.24
340
0
340
0
 62
   256
 40
0.24
300
I, O, Q, S, X, Z
 40
0.48
 90
        3
 40
0.18
 90
        1
 71
     2
340
5D
 90
       25
 62
   256
340
5D
 90
       50
 62
   256
 40
0.24
 40
0.0
 40
0.24
 71
     3
340
55
 62
   256
 40
0.24
 90
        1
 40
0.75
 90
        1
300
%<\AcVar ViewType \f "%tc1">% %<\AcVar ViewSectionStartId>%-%<\AcVar ViewSectionEndId>%\PSCALE %<\AcVar ViewScale \f "%sn">%
 71
     4
 62
   256
 62
   257
300
ANSI31
 40
1.0
 90
        0
290
     0
290
     0
 90
        6
 40
0.0
 40
1.570796326794896
 40
0.2617993877991494
 40
1.308996938995747
 40
-0.2617993877991494
 40
1.832595714594046
  0
TABLESTYLE
  5
65
102
{ACAD_XDICTIONARY
360
110
102
}
102
{ACAD_REACTORS
330
64
102
}
330
64
100
AcDbTableStyle
280
     0
  3
Standard
 70
     0
 71
     0
 40
0.06
 41
0.06
280
     0
281
     0
  7
Standard
140
0.18
170
     2
 62
     0
 63
     7
283
     0
 90
      512
 91
        0
  1

274
    -2
284
     1
 64
     0
275
    -2
285
     1
 65
     0
276
    -2
286
     1
 66
     0
277
    -2
287
     1
 67
     0
278
    -2
288
     1
 68
     0
279
    -2
289
     1
 69
     0
  7
Standard
140
0.25
170
     5
 62
     0
 63
     7
283
     0
 90
      512
 91
        0
  1

274
    -2
284
     1
 64
     0
275
    -2
285
     1
 65
     0
276
    -2
286
     1
 66
     0
277
    -2
287
     1
 67
     0
278
    -2
288
     1
 68
     0
279
    -2
289
     1
 69
     0
  7
Standard
140
0.18
170
     5
 62
     0
 63
     7
283
     0
 90
      512
 91
        0
  1

274
    -2
284
     1
 64
     0
275
    -2
285
     1
 65
     0
276
    -2
286
     1
 66
     0
277
    -2
287
     1
 67
     0
278
    -2
288
     1
 68
     0
279
    -2
289
     1
 69
     0
  0
VISUALSTYLE
  5
2F
102
{ACAD_XDICTIONARY
360
11D
102
}
102
{ACAD_REACTORS
330
29
102
}
330
29
100
AcDbVisualStyle
  2
2dWireframe
 70
     4
177
     2
291
     0
 71
     0
176
     1
 72
     2
176
     1
 73
     0
176
     1
 90
        0
176
     1
 40
0.6
176
     1
 41
30.0
176
     1
 63
     7
421
 16777215
176
     1
 74
     1
176
     1
 91
        4
176
     1
 64
     7
176
     1
 65
   257
176
     1
 75
     1
176
     1
175
     1
176
     1
 42
1.0
176
     1
 92
        0
176
     1
 66
   257
176
     1
 43
1.0
176
     1
 76
     1
176
     1
 77
     6
176
     1
 78
     2
176
     1
 67
     7
176
     1
 79
     5
176
     1
170
     0
176
     1
171
     0
176
     1
290
     0
176
     1
 93
        1
176
     1
 44
0.0
176
     1
173
     0
176
     1
1001
ACAD
1000
AcDbSavedByObjectVersion
1070
     0
  0
VISUALSTYLE
  5
2E
102
{ACAD_XDICTIONARY
360
11B
102
}
102
{ACAD_REACTORS
330
29
102
}
330
29
100
AcDbVisualStyle
  2
Basic
 70
     7
177
     2
291
     1
 71
     1
176
     1
 72
     0
176
     1
 73
     1
176
     1
 90
        0
176
     1
 40
0.6
176
     1
 41
30.0
176
     1
 63
     7
421
 16777215
176
     1
 74
     0
176
     1
 91
        4
176
     1
 64
     7
176
     1
 65
   257
176
     1
 75
     1
176
     1
175
     1
176
     1
 42
1.0
176
     1
 92
        8
176
     1
 66
     7
176
     1
 43
1.0
176
     1
 76
     1
176
     1
 77
     6
176
     1
 78
     2
176
     1
 67
     7
176
     1
 79
     5
176
     1
170
     0
176
     1
171
     0
176
     1
290
     0
176
     1
 93
        1
176
     1
 44
0.0
176
     1
173
     0
176
     1
1001
ACAD
1000
AcDbSavedByObjectVersion
1070
     0
  0
VISUALSTYLE
  5
35
102
{ACAD_XDICTIONARY
360
129
102
}
102
{ACAD_REACTORS
330
29
102
}
330
29
100
AcDbVisualStyle
  2
Brighten
 70
    12
177
     2
291
     1
 71
     2
176
     1
 72
     2
176
     1
 73
     0
176
     1
 90
        0
176
     1
 40
0.6
176
     1
 41
30.0
176
     1
 63
     7
421
 16777215
176
     1
 74
     1
176
     1
 91
        4
176
     1
 64
     7
176
     1
 65
   257
176
     1
 75
     1
176
     1
175
     1
176
     1
 42
1.0
176
     1
 92
        8
176
     1
 66
     7
176
     1
 43
1.0
176
     1
 76
     1
176
     1
 77
     6
176
     1
 78
     2
176
     1
 67
     7
176
     1
 79
     5
176
     1
170
     0
176
     1
171
     0
176
     1
290
     0
176
     1
 93
        1
176
     1
 44
50.0
176
     1
173
     0
176
     1
1001
ACAD
1000
AcDbSavedByObjectVersion
1070
     0
  0
VISUALSTYLE
  5
39
102
{ACAD_XDICTIONARY
360
131
102
}
102
{ACAD_REACTORS
330
29
102
}
330
29
100
AcDbVisualStyle
  2
ColorChange
 70
    16
177
     2
291
     1
 71
     2
176
     1
 72
     2
176
     1
 73
     3
176
     1
 90
        0
176
     1
 40
0.6
176
     1
 41
30.0
176
     1
 63
     8
421
  8421504
176
     1
 74
     1
176
     1
 91
        4
176
     1
 64
     7
176
     1
 65
   257
176
     1
 75
     1
176
     1
175
     1
176
     1
 42
1.0
176
     1
 92
        8
176
     1
 66
     8
424
  8421504
176
     1
 43
1.0
176
     1
 76
     1
176
     1
 77
     6
176
     1
 78
     2
176
     1
 67
     7
176
     1
 79
     5
176
     1
170
     0
176
     1
171
     0
176
     1
290
     0
176
     1
 93
        1
176
     1
 44
0.0
176
     1
173
     0
176
     1
1001
ACAD
1000
AcDbSavedByObjectVersion
1070
     0
  0
VISUALSTYLE
  5
32
102
{ACAD_XDICTIONARY
360
123
102
}
102
{ACAD_REACTORS
330
29
102
}
330
29
100
AcDbVisualStyle
  2
Conceptual
 70
     9
177
     2
291
     0
 71
     3
176
     1
 72
     2
176
     1
 73
     0
176
     1
 90
        0
176
     1
 40
0.6
176
     1
 41
30.0
176
     1
 63
     7
421
 16777215
176
     1
 74
     2
176
     1
 91
        2
176
     1
 64
     7
176
     1
 65
   257
176
     1
 75
     1
176
     1
175
     1
176
     1
 42
179.0
176
     1
 92
        8
176
     1
 66
     7
176
     1
 43
1.0
176
     1
 76
     1
176
     1
 77
     6
176
     1
 78
     2
176
     1
 67
     7
176
     1
 79
     3
176
     1
170
     0
176
     1
171
     0
176
     1
290
     0
176
     1
 93
        1
176
     1
 44
0.0
176
     1
173
     0
176
     1
1001
ACAD
1000
AcDbSavedByObjectVersion
1070
     0
  0
VISUALSTYLE
  5
34
102
{ACAD_XDICTIONARY
360
127
102
}
102
{ACAD_REACTORS
330
29
102
}
330
29
100
AcDbVisualStyle
  2
Dim
 70
    11
177
     2
291
     1
 71
     2
176
     1
 72
     2
176
     1
 73
     0
176
     1
 90
        0
176
     1
 40
0.6
176
     1
 41
30.0
176
     1
 63
     7
421
 16777215
176
     1
 74
     1
176
     1
 91
        4
176
     1
 64
     7
176
     1
 65
   257
176
     1
 75
     1
176
     1
175
     1
176
     1
 42
1.0
176
     1
 92
        8
176
     1
 66
     7
176
     1
 43
1.0
176
     1
 76
     1
176
     1
 77
     6
176
     1
 78
     2
176
     1
 67
     7
176
     1
 79
     5
176
     1
170
     0
176
     1
171
     0
176
     1
290
     0
176
     1
 93
        1
176
     1
 44
-50.0
176
     1
173
     0
176
     1
1001
ACAD
1000
AcDbSavedByObjectVersion
1070
     0
  0
VISUALSTYLE
  5
41
102
{ACAD_XDICTIONARY
360
141
102
}
102
{ACAD_REACTORS
330
29
102
}
330
29
100
AcDbVisualStyle
  2
EdgeColorOff
 70
    22
177
     2
291
     1
 71
     2
176
     0
 72
     2
176
     0
 73
     0
176
     0
 90
        0
176
     0
 40
0.6
176
     0
 41
30.0
176
     0
 63
     7
421
 16777215
176
     0
 74
     1
176
     0
 91
        4
176
     0
 64
     7
176
     0
 65
   257
176
     0
 75
     1
176
     0
175
     1
176
     0
 42
1.0
176
     0
 92
        8
176
     2
 66
     7
176
     0
 43
1.0
176
     0
 76
     1
176
     0
 77
     6
176
     0
 78
     2
176
     0
 67
     7
176
     0
 79
     5
176
     0
170
     0
176
     0
171
     0
176
     0
290
     0
176
     0
 93
        1
176
     0
 44
0.0
176
     0
173
     0
176
     0
1001
ACAD
1000
AcDbSavedByObjectVersion
1070
     0
  0
VISUALSTYLE
  5
38
102
{ACAD_XDICTIONARY
360
12F
102
}
102
{ACAD_REACTORS
330
29
102
}
330
29
100
AcDbVisualStyle
  2
Facepattern
 70
    15
177
     2
291
     1
 71
     2
176
     1
 72
     2
176
     1
 73
     0
176
     1
 90
        0
176
     1
 40
0.6
176
     1
 41
30.0
176
     1
 63
     7
421
 16777215
176
     1
 74
     1
176
     1
 91
        4
176
     1
 64
     7
176
     1
 65
   257
176
     1
 75
     1
176
     1
175
     1
176
     1
 42
1.0
176
     1
 92
        8
176
     1
 66
     7
176
     1
 43
1.0
176
     1
 76
     1
176
     1
 77
     6
176
     1
 78
     2
176
     1
 67
     7
176
     1
 79
     5
176
     1
170
     0
176
     1
171
     0
176
     1
290
     0
176
     1
 93
        1
176
     1
 44
0.0
176
     1
173
     0
176
     1
1001
ACAD
1000
AcDbSavedByObjectVersion
1070
     0
  0
VISUALSTYLE
  5
2A
102
{ACAD_XDICTIONARY
360
113
102
}
102
{ACAD_REACTORS
330
29
102
}
330
29
100
AcDbVisualStyle
  2
Flat
 70
     0
177
     2
291
     1
 71
     2
176
     1
 72
     1
176
     1
 73
     1
176
     1
 90
        2
176
     1
 40
0.6
176
     1
 41
30.0
176
     1
 63
     7
421
 16777215
176
     1
 74
     0
176
     1
 91
        0
176
     1
 64
     7
176
     1
 65
   257
176
     1
 75
     1
176
     1
175
     1
176
     1
 42
1.0
176
     1
 92
        8
176
     1
 66
     7
176
     1
 43
1.0
176
     1
 76
     1
176
     1
 77
     6
176
     1
 78
     2
176
     1
 67
     7
176
     1
 79
     5
176
     1
170
     0
176
     1
171
     0
176
     1
290
     0
176
     1
 93
       13
176
     1
 44
0.0
176
     1
173
     0
176
     1
1001
ACAD
1000
AcDbSavedByObjectVersion
1070
     0
  0
VISUALSTYLE
  5
2B
102
{ACAD_XDICTIONARY
360
115
102
}
102
{ACAD_REACTORS
330
29
102
}
330
29
100
AcDbVisualStyle
  2
FlatWithEdges
 70
     1
177
     2
291
     1
 71
     2
176
     1
 72
     1
176
     1
 73
     1
176
     1
 90
        2
176
     1
 40
0.6
176
     1
 41
30.0
176
     1
 63
     7
421
 16777215
176
     1
 74
     1
176
     1
 91
        0
176
     1
 64
     7
176
     1
 65
   257
176
     1
 75
     1
176
     1
175
     1
176
     1
 42
1.0
176
     1
 92
        0
176
     1
 66
   257
176
     1
 43
1.0
176
     1
 76
     1
176
     1
 77
     6
176
     1
 78
     2
176
     1
 67
     7
176
     1
 79
     5
176
     1
170
     0
176
     1
171
     0
176
     1
290
     0
176
     1
 93
       13
176
     1
 44
0.0
176
     1
173
     0
176
     1
1001
ACAD
1000
AcDbSavedByObjectVersion
1070
     0
  0
VISUALSTYLE
  5
2C
102
{ACAD_XDICTIONARY
360
117
102
}
102
{ACAD_REACTORS
330
29
102
}
330
29
100
AcDbVisualStyle
  2
Gouraud
 70
     2
177
     2
291
     1
 71
     2
176
     1
 72
     2
176
     1
 73
     1
176
     1
 90
        2
176
     1
 40
0.6
176
     1
 41
30.0
176
     1
 63
     7
421
 16777215
176
     1
 74
     0
176
     1
 91
        0
176
     1
 64
     7
176
     1
 65
   257
176
     1
 75
     1
176
     1
175
     1
176
     1
 42
1.0
176
     1
 92
        0
176
     1
 66
     7
176
     1
 43
1.0
176
     1
 76
     1
176
     1
 77
     6
176
     1
 78
     2
176
     1
 67
     7
176
     1
 79
     5
176
     1
170
     0
176
     1
171
     0
176
     1
290
     0
176
     1
 93
       13
176
     1
 44
0.0
176
     1
173
     0
176
     1
1001
ACAD
1000
AcDbSavedByObjectVersion
1070
     0
  0
VISUALSTYLE
  5
2D
102
{ACAD_XDICTIONARY
360
119
102
}
102
{ACAD_REACTORS
330
29
102
}
330
29
100
AcDbVisualStyle
  2
GouraudWithEdges
 70
     3
177
     2
291
     1
 71
     2
176
     1
 72
     2
176
     1
 73
     1
176
     1
 90
        2
176
     1
 40
0.6
176
     1
 41
30.0
176
     1
 63
     7
421
 16777215
176
     1
 74
     1
176
     1
 91
        0
176
     1
 64
     7
176
     1
 65
   257
176
     1
 75
     1
176
     1
175
     1
176
     1
 42
1.0
176
     1
 92
        0
176
     1
 66
   257
176
     1
 43
1.0
176
     1
 76
     1
176
     1
 77
     6
176
     1
 78
     2
176
     1
 67
     7
176
     1
 79
     5
176
     1
170
     0
176
     1
171
     0
176
     1
290
     0
176
     1
 93
       13
176
     1
 44
0.0
176
     1
173
     0
176
     1
1001
ACAD
1000
AcDbSavedByObjectVersion
1070
     0
  0
VISUALSTYLE
  5
31
102
{ACAD_XDICTIONARY
360
121
102
}
102
{ACAD_REACTORS
330
29
102
}
330
29
100
AcDbVisualStyle
  2
Hidden
 70
     6
177
     2
291
     0
 71
     1
176
     1
 72
     2
176
     1
 73
     2
176
     1
 90
        0
176
     1
 40
0.6
176
     1
 41
30.0
176
     1
 63
     7
421
 16777215
176
     1
 74
     2
176
     1
 91
        2
176
     1
 64
     7
176
     1
 65
   257
176
     1
 75
     2
176
     1
175
     1
176
     1
 42
40.0
176
     1
 92
        0
176
     1
 66
   257
176
     1
 43
1.0
176
     1
 76
     1
176
     1
 77
     6
176
     1
 78
     2
176
     1
 67
     7
176
     1
 79
     3
176
     1
170
     0
176
     1
171
     0
176
     1
290
     0
176
     1
 93
        1
176
     1
 44
0.0
176
     1
173
     0
176
     1
1001
ACAD
1000
AcDbSavedByObjectVersion
1070
     0
  0
VISUALSTYLE
  5
3F
102
{ACAD_XDICTIONARY
360
13D
102
}
102
{ACAD_REACTORS
330
29
102
}
330
29
100
AcDbVisualStyle
  2
JitterOff
 70
    20
177
     2
291
     1
 71
     2
176
     0
 72
     2
176
     0
 73
     0
176
     0
 90
        0
176
     0
 40
0.6
176
     0
 41
30.0
176
     0
 63
     7
421
 16777215
176
     0
 74
     1
176
     0
 91
        4
176
     0
 64
     7
176
     0
 65
   257
176
     0
 75
     1
176
     0
175
     1
176
     0
 42
1.0
176
     0
 92
       10
176
     2
 66
     7
176
     0
 43
1.0
176
     0
 76
     1
176
     0
 77
     6
176
     0
 78
     2
176
     0
 67
     7
176
     0
 79
     5
176
     0
170
     0
176
     0
171
     0
176
     0
290
     0
176
     0
 93
        1
176
     0
 44
0.0
176
     0
173
     0
176
     0
1001
ACAD
1000
AcDbSavedByObjectVersion
1070
     0
  0
VISUALSTYLE
  5
37
102
{ACAD_XDICTIONARY
360
12D
102
}
102
{ACAD_REACTORS
330
29
102
}
330
29
100
AcDbVisualStyle
  2
Linepattern
 70
    14
177
     2
291
     1
 71
     2
176
     1
 72
     2
176
     1
 73
     0
176
     1
 90
        0
176
     1
 40
0.6
176
     1
 41
30.0
176
     1
 63
     7
421
 16777215
176
     1
 74
     1
176
     1
 91
        4
176
     1
 64
     7
176
     1
 65
   257
176
     1
 75
     7
176
     1
175
     7
176
     1
 42
1.0
176
     1
 92
        8
176
     1
 66
     7
176
     1
 43
1.0
176
     1
 76
     1
176
     1
 77
     6
176
     1
 78
     2
176
     1
 67
     7
176
     1
 79
     5
176
     1
170
     0
176
     1
171
     0
176
     1
290
     0
176
     1
 93
        1
176
     1
 44
0.0
176
     1
173
     0
176
     1
1001
ACAD
1000
AcDbSavedByObjectVersion
1070
     0
  0
VISUALSTYLE
  5
40
102
{ACAD_XDICTIONARY
360
13F
102
}
102
{ACAD_REACTORS
330
29
102
}
330
29
100
AcDbVisualStyle
  2
OverhangOff
 70
    21
177
     2
291
     1
 71
     2
176
     0
 72
     2
176
     0
 73
     0
176
     0
 90
        0
176
     0
 40
0.6
176
     0
 41
30.0
176
     0
 63
     7
421
 16777215
176
     0
 74
     1
176
     0
 91
        4
176
     0
 64
     7
176
     0
 65
   257
176
     0
 75
     1
176
     0
175
     1
176
     0
 42
1.0
176
     0
 92
        9
176
     2
 66
     7
176
     0
 43
1.0
176
     0
 76
     1
176
     0
 77
     6
176
     0
 78
     2
176
     0
 67
     7
176
     0
 79
     5
176
     0
170
     0
176
     0
171
     0
176
     0
290
     0
176
     0
 93
        1
176
     0
 44
0.0
176
     0
173
     0
176
     0
1001
ACAD
1000
AcDbSavedByObjectVersion
1070
     0
  0
VISUALSTYLE
  5
33
102
{ACAD_XDICTIONARY
360
125
102
}
102
{ACAD_REACTORS
330
29
102
}
330
29
100
AcDbVisualStyle
  2
Realistic
 70
     8
177
     2
291
     0
 71
     2
176
     1
 72
     3
176
     1
 73
     0
176
     1
 90
        2
176
     1
 40
0.6
176
     1
 41
30.0
176
     1
 63
     7
421
 16777215
176
     1
 74
     0
176
     1
 91
        0
176
     1
 64
     7
176
     1
 65
   257
176
     1
 75
     1
176
     1
175
     1
176
     1
 42
1.0
176
     1
 92
        8
176
     1
 66
   257
176
     1
 43
1.0
176
     1
 76
     1
176
     1
 77
     6
176
     1
 78
     2
176
     1
 67
     7
176
     1
 79
     3
176
     1
170
     0
176
     1
171
     0
176
     1
290
     0
176
     1
 93
       13
176
     1
 44
0.0
176
     1
173
     0
176
     1
1001
ACAD
1000
AcDbSavedByObjectVersion
1070
     0
  0
VISUALSTYLE
  5
3E
102
{ACAD_XDICTIONARY
360
13B
102
}
102
{ACAD_REACTORS
330
29
102
}
330
29
100
AcDbVisualStyle
  2
Shaded
 70
    27
177
     2
291
     0
 71
     2
176
     1
 72
     2
176
     1
 73
     1
176
     1
 90
        2
176
     1
 40
0.6
176
     1
 41
30.0
176
     1
 63
     7
421
 16777215
176
     1
 74
     0
176
     1
 91
        4
176
     1
 64
     7
176
     1
 65
   257
176
     1
 75
     1
176
     1
175
     1
176
     1
 42
1.0
176
     1
 92
        8
176
     1
 66
   257
176
     1
 43
1.0
176
     1
 76
     1
176
     1
 77
     6
176
     1
 78
     2
176
     1
 67
     8
425
  7895160
176
     1
 79
     3
176
     1
170
     0
176
     1
171
     0
176
     1
290
     0
176
     1
 93
        5
176
     1
 44
0.0
176
     1
173
     0
176
     1
1001
ACAD
1000
AcDbSavedByObjectVersion
1070
     0
  0
VISUALSTYLE
  5
3D
102
{ACAD_XDICTIONARY
360
139
102
}
102
{ACAD_REACTORS
330
29
102
}
330
29
100
AcDbVisualStyle
  2
Shaded with edges
 70
    26
177
     2
291
     0
 71
     2
176
     1
 72
     2
176
     1
 73
     1
176
     1
 90
        2
176
     1
 40
0.6
176
     1
 41
30.0
176
     1
 63
     7
421
 16777215
176
     1
 74
     1
176
     1
 91
        2
176
     1
 64
     7
176
     1
 65
   257
176
     1
 75
     2
176
     1
175
     1
176
     1
 42
1.0
176
     1
 92
        8
176
     1
 66
   257
176
     1
 43
1.0
176
     1
 76
     1
176
     1
 77
     6
176
     1
 78
     2
176
     1
 67
     7
176
     1
 79
     3
176
     1
170
     0
176
     1
171
     0
176
     1
290
     0
176
     1
 93
        5
176
     1
 44
0.0
176
     1
173
     0
176
     1
1001
ACAD
1000
AcDbSavedByObjectVersion
1070
     0
  0
VISUALSTYLE
  5
3A
102
{ACAD_XDICTIONARY
360
133
102
}
102
{ACAD_REACTORS
330
29
102
}
330
29
100
AcDbVisualStyle
  2
Shades of Gray
 70
    23
177
     2
291
     0
 71
     2
176
     1
 72
     2
176
     1
 73
     3
176
     1
 90
        0
176
     1
 40
0.6
176
     1
 41
30.0
176
     1
 63
     7
421
 16777215
176
     1
 74
     2
176
     1
 91
        2
176
     1
 64
     7
176
     1
 65
     7
176
     1
 75
     1
176
     1
175
     1
176
     1
 42
40.0
176
     1
 92
        8
176
     1
 66
     7
176
     1
 43
1.0
176
     1
 76
     1
176
     1
 77
     6
176
     1
 78
     2
176
     1
 67
     7
176
     1
 79
     3
176
     1
170
     0
176
     1
171
     0
176
     1
290
     0
176
     1
 93
        1
176
     1
 44
0.0
176
     1
173
     0
176
     1
1001
ACAD
1000
AcDbSavedByObjectVersion
1070
     0
  0
VISUALSTYLE
  5
3B
102
{ACAD_XDICTIONARY
360
135
102
}
102
{ACAD_REACTORS
330
29
102
}
330
29
100
AcDbVisualStyle
  2
Sketchy
 70
    24
177
     2
291
     0
 71
     1
176
     1
 72
     2
176
     1
 73
     2
176
     1
 90
        0
176
     1
 40
0.6
176
     1
 41
30.0
176
     1
 63
     7
421
 16777215
176
     1
 74
     2
176
     1
 91
        2
176
     1
 64
     7
176
     1
 65
     7
176
     1
 75
     1
176
     1
175
     1
176
     1
 42
40.0
176
     1
 92
       11
176
     1
 66
     7
176
     1
 43
1.0
176
     1
 76
     1
176
     1
 77
     6
176
     1
 78
     2
176
     1
 67
     7
176
     1
 79
     6
176
     1
170
     0
176
     1
171
     0
176
     1
290
     0
176
     1
 93
        1
176
     1
 44
0.0
176
     1
173
     0
176
     1
1001
ACAD
1000
AcDbSavedByObjectVersion
1070
     0
  0
VISUALSTYLE
  5
36
102
{ACAD_XDICTIONARY
360
12B
102
}
102
{ACAD_REACTORS
330
29
102
}
330
29
100
AcDbVisualStyle
  2
Thicken
 70
    13
177
     2
291
     1
 71
     2
176
     1
 72
     2
176
     1
 73
     0
176
     1
 90
        0
176
     1
 40
0.6
176
     1
 41
30.0
176
     1
 63
     7
421
 16777215
176
     1
 74
     1
176
     1
 91
        4
176
     1
 64
     7
176
     1
 65
   257
176
     1
 75
     1
176
     1
175
     1
176
     1
 42
1.0
176
     1
 92
       12
176
     1
 66
     7
176
     1
 43
1.0
176
     1
 76
     1
176
     1
 77
     6
176
     1
 78
     2
176
     1
 67
     7
176
     1
 79
     5
176
     1
170
     0
176
     1
171
     0
176
     1
290
     0
176
     1
 93
        1
176
     1
 44
0.0
176
     1
173
     0
176
     1
1001
ACAD
1000
AcDbSavedByObjectVersion
1070
     0
  0
VISUALSTYLE
  5
30
102
{ACAD_XDICTIONARY
360
11F
102
}
102
{ACAD_REACTORS
330
29
102
}
330
29
100
AcDbVisualStyle
  2
Wireframe
 70
     5
177
     2
291
     0
 71
     0
176
     1
 72
     2
176
     1
 73
     0
176
     1
 90
        0
176
     1
 40
0.6
176
     1
 41
30.0
176
     1
 63
     7
421
 16777215
176
     1
 74
     1
176
     1
 91
        4
176
     1
 64
     7
176
     1
 65
   257
176
     1
 75
     1
176
     1
175
     1
176
     1
 42
1.0
176
     1
 92
        0
176
     1
 66
   257
176
     1
 43
1.0
176
     1
 76
     1
176
     1
 77
     6
176
     1
 78
     2
176
     1
 67
     7
176
     1
 79
     3
176
     1
170
     0
176
     1
171
     0
176
     1
290
     0
176
     1
 93
        1
176
     1
 44
0.0
176
     1
173
     0
176
     1
1001
ACAD
1000
AcDbSavedByObjectVersion
1070
     0
  0
VISUALSTYLE
  5
3C
102
{ACAD_XDICTIONARY
360
137
102
}
102
{ACAD_REACTORS
330
29
102
}
330
29
100
AcDbVisualStyle
  2
X-Ray
 70
    25
177
     2
291
     0
 71
     2
176
     1
 72
     2
176
     1
 73
     1
176
     1
 90
        1
176
     1
 40
0.5
176
     1
 41
30.0
176
     1
 63
     7
421
 16777215
176
     1
 74
     1
176
     1
 91
        0
176
     1
 64
     7
176
     1
 65
   257
176
     1
 75
     1
176
     1
175
     1
176
     1
 42
1.0
176
     1
 92
        8
176
     1
 66
     7
176
     1
 43
1.0
176
     1
 76
     1
176
     1
 77
     6
176
     1
 78
     2
176
     1
 67
     7
176
     1
 79
     3
176
     1
170
     0
176
     1
171
     0
176
     1
290
     0
176
     1
 93
       13
176
     1
 44
0.0
176
     1
173
     0
176
     1
1001
ACAD
1000
AcDbSavedByObjectVersion
1070
     0
  0
DICTIONARYVAR
  5
10F
102
{ACAD_REACTORS
330
10A
102
}
330
10A
100
DictionaryVariables
280
     0
  1
1:1
  0
DICTIONARYVAR
  5
10C
102
{ACAD_REACTORS
330
10A
102
}
330
10A
100
DictionaryVariables
280
     0
  1
STANDARD
  0
DICTIONARYVAR
  5
10B
102
{ACAD_REACTORS
330
10A
102
}
330
10A
100
DictionaryVariables
280
     0
  1
STANDARD
  0
DICTIONARYVAR
  5
10D
102
{ACAD_REACTORS
330
10A
102
}
330
10A
100
DictionaryVariables
280
     0
  1
Imperial24
  0
DICTIONARYVAR
  5
10E
102
{ACAD_REACTORS
330
10A
102
}
330
10A
100
DictionaryVariables
280
     0
  1
Imperial24
  0
DICTIONARY
  5
147
330
6B
100
AcDbDictionary
280
     1
281
     1
  3
ACAD_XREC_ROUNDTRIP
360
148
  0
DICTIONARY
  5
1A
330
19
100
AcDbDictionary
280
     1
281
     1
  3
BUMPTILE
360
1C
  3
DIFFUSETILE
360
1B
  3
OPACITYTILE
360
1F
  3
REFLECTIONTILE
360
1E
  3
REFRACTIONTILE
360
20
  3
SPECULARTILE
360
1D
  0
DICTIONARY
  5
12
330
11
100
AcDbDictionary
280
     1
281
     1
  3
BUMPTILE
360
14
  3
DIFFUSETILE
360
13
  3
OPACITYTILE
360
17
  3
REFLECTIONTILE
360
16
  3
REFRACTIONTILE
360
18
  3
SPECULARTILE
360
15
  0
DICTIONARY
  5
22
330
21
100
AcDbDictionary
280
     1
281
     1
  3
BUMPTILE
360
24
  3
DIFFUSETILE
360
23
  3
OPACITYTILE
360
27
  3
REFLECTIONTILE
360
26
  3
REFRACTIONTILE
360
28
  3
SPECULARTILE
360
25
  0
DICTIONARY
  5
143
330
67
100
AcDbDictionary
280
     1
281
     1
  3
ACAD_XREC_ROUNDTRIP
360
144
  0
DICTIONARY
  5
145
330
69
100
AcDbDictionary
280
     1
281
     1
  3
ACAD_XREC_ROUNDTRIP
360
146
  0
DICTIONARY
  5
110
330
65
100
AcDbDictionary
280
     1
281
     1
  3
ACAD_ROUNDTRIP_2008_TABLESTYLE_CELLSTYLEMAP
360
111
  0
DICTIONARY
  5
11D
330
2F
100
AcDbDictionary
280
     1
281
     1
  3
ACAD_XREC_ROUNDTRIP
360
11E
  0
DICTIONARY
  5
11B
330
2E
100
AcDbDictionary
280
     1
281
     1
  3
ACAD_XREC_ROUNDTRIP
360
11C
  0
DICTIONARY
  5
129
330
35
100
AcDbDictionary
280
     1
281
     1
  3
ACAD_XREC_ROUNDTRIP
360
12A
  0
DICTIONARY
  5
131
330
39
100
AcDbDictionary
280
     1
281
     1
  3
ACAD_XREC_ROUNDTRIP
360
132
  0
DICTIONARY
  5
123
330
32
100
AcDbDictionary
280
     1
281
     1
  3
ACAD_XREC_ROUNDTRIP
360
124
  0
DICTIONARY
  5
127
330
34
100
AcDbDictionary
280
     1
281
     1
  3
ACAD_XREC_ROUNDTRIP
360
128
  0
DICTIONARY
  5
141
330
41
100
AcDbDictionary
280
     1
281
     1
  3
ACAD_XREC_ROUNDTRIP
360
142
  0
DICTIONARY
  5
12F
330
38
100
AcDbDictionary
280
     1
281
     1
  3
ACAD_XREC_ROUNDTRIP
360
130
  0
DICTIONARY
  5
113
330
2A
100
AcDbDictionary
280
     1
281
     1
  3
ACAD_XREC_ROUNDTRIP
360
114
  0
DICTIONARY
  5
115
330
2B
100
AcDbDictionary
280
     1
281
     1
  3
ACAD_XREC_ROUNDTRIP
360
116
  0
DICTIONARY
  5
117
330
2C
100
AcDbDictionary
280
     1
281
     1
  3
ACAD_XREC_ROUNDTRIP
360
118
  0
DICTIONARY
  5
119
330
2D
100
AcDbDictionary
280
     1
281
     1
  3
ACAD_XREC_ROUNDTRIP
360
11A
  0
DICTIONARY
  5
121
330
31
100
AcDbDictionary
280
     1
281
     1
  3
ACAD_XREC_ROUNDTRIP
360
122
  0
DICTIONARY
  5
13D
330
3F
100
AcDbDictionary
280
     1
281
     1
  3
ACAD_XREC_ROUNDTRIP
360
13E
  0
DICTIONARY
  5
12D
330
37
100
AcDbDictionary
280
     1
281
     1
  3
ACAD_XREC_ROUNDTRIP
360
12E
  0
DICTIONARY
  5
13F
330
40
100
AcDbDictionary
280
     1
281
     1
  3
ACAD_XREC_ROUNDTRIP
360
140
  0
DICTIONARY
  5
125
330
33
100
AcDbDictionary
280
     1
281
     1
  3
ACAD_XREC_ROUNDTRIP
360
126
  0
DICTIONARY
  5
13B
330
3E
100
AcDbDictionary
280
     1
281
     1
  3
ACAD_XREC_ROUNDTRIP
360
13C
  0
DICTIONARY
  5
139
330
3D
100
AcDbDictionary
280
     1
281
     1
  3
ACAD_XREC_ROUNDTRIP
360
13A
  0
DICTIONARY
  5
133
330
3A
100
AcDbDictionary
280
     1
281
     1
  3
ACAD_XREC_ROUNDTRIP
360
134
  0
DICTIONARY
  5
135
330
3B
100
AcDbDictionary
280
     1
281
     1
  3
ACAD_XREC_ROUNDTRIP
360
136
  0
DICTIONARY
  5
12B
330
36
100
AcDbDictionary
280
     1
281
     1
  3
ACAD_XREC_ROUNDTRIP
360
12C
  0
DICTIONARY
  5
11F
330
30
100
AcDbDictionary
280
     1
281
     1
  3
ACAD_XREC_ROUNDTRIP
360
120
  0
DICTIONARY
  5
137
330
3C
100
AcDbDictionary
280
     1
281
     1
  3
ACAD_XREC_ROUNDTRIP
360
138
  0
XRECORD
  5
148
102
{ACAD_REACTORS
330
147
102
}
330
147
100
AcDbXrecord
280
     1
102
DISPLAYNAME
  1
Imperial24
102
FLAGS
 90
        0
  0
XRECORD
  5
1C
102
{ACAD_REACTORS
330
1A
102
}
330
1A
100
AcDbXrecord
280
     1
270
     1
271
     1
  0
XRECORD
  5
1B
102
{ACAD_REACTORS
330
1A
102
}
330
1A
100
AcDbXrecord
280
     1
270
     1
271
     1
  0
XRECORD
  5
1F
102
{ACAD_REACTORS
330
1A
102
}
330
1A
100
AcDbXrecord
280
     1
270
     1
271
     1
  0
XRECORD
  5
1E
102
{ACAD_REACTORS
330
1A
102
}
330
1A
100
AcDbXrecord
280
     1
270
     1
271
     1
  0
XRECORD
  5
20
102
{ACAD_REACTORS
330
1A
102
}
330
1A
100
AcDbXrecord
280
     1
270
     1
271
     1
  0
XRECORD
  5
1D
102
{ACAD_REACTORS
330
1A
102
}
330
1A
100
AcDbXrecord
280
     1
270
     1
271
     1
  0
XRECORD
  5
14
102
{ACAD_REACTORS
330
12
102
}
330
12
100
AcDbXrecord
280
     1
270
     1
271
     1
  0
XRECORD
  5
13
102
{ACAD_REACTORS
330
12
102
}
330
12
100
AcDbXrecord
280
     1
270
     1
271
     1
  0
XRECORD
  5
17
102
{ACAD_REACTORS
330
12
102
}
330
12
100
AcDbXrecord
280
     1
270
     1
271
     1
  0
XRECORD
  5
16
102
{ACAD_REACTORS
330
12
102
}
330
12
100
AcDbXrecord
280
     1
270
     1
271
     1
  0
XRECORD
  5
18
102
{ACAD_REACTORS
330
12
102
}
330
12
100
AcDbXrecord
280
     1
270
     1
271
     1
  0
XRECORD
  5
15
102
{ACAD_REACTORS
330
12
102
}
330
12
100
AcDbXrecord
280
     1
270
     1
271
     1
  0
XRECORD
  5
24
102
{ACAD_REACTORS
330
22
102
}
330
22
100
AcDbXrecord
280
     1
270
     1
271
     1
  0
XRECORD
  5
23
102
{ACAD_REACTORS
330
22
102
}
330
22
100
AcDbXrecord
280
     1
270
     1
271
     1
  0
XRECORD
  5
27
102
{ACAD_REACTORS
330
22
102
}
330
22
100
AcDbXrecord
280
     1
270
     1
271
     1
  0
XRECORD
  5
26
102
{ACAD_REACTORS
330
22
102
}
330
22
100
AcDbXrecord
280
     1
270
     1
271
     1
  0
XRECORD
  5
28
102
{ACAD_REACTORS
330
22
102
}
330
22
100
AcDbXrecord
280
     1
270
     1
271
     1
  0
XRECORD
  5
25
102
{ACAD_REACTORS
330
22
102
}
330
22
100
AcDbXrecord
280
     1
270
     1
271
     1
  0
XRECORD
  5
144
102
{ACAD_REACTORS
330
143
102
}
330
143
100
AcDbXrecord
280
     1
102
ACAD_ROUNDTRIP_2012_MLEADER_STYLE
298
     1
  0
XRECORD
  5
146
102
{ACAD_REACTORS
330
145
102
}
330
145
100
AcDbXrecord
280
     1
102
DISPLAYNAME
  1
Imperial24
102
FLAGS
 90
        0
  0
CELLSTYLEMAP
  5
111
102
{ACAD_REACTORS
330
110
102
}
330
110
100
AcDbCellStyleMap
 90
        3
300
CELLSTYLE
  1
TABLEFORMAT_BEGIN
 90
        5
170
     1
 91
        0
 92
    32768
 62
   257
 93
        1
300
CONTENTFORMAT
  1
CONTENTFORMAT_BEGIN
 90
        0
 91
        0
 92
      512
 93
        0
300

 40
0.0
140
1.0
 94
        5
 62
     0
340
55
144
0.25
309
CONTENTFORMAT_END
171
     0
 94
        0
309
TABLEFORMAT_END
  1
CELLSTYLE_BEGIN
 90
        1
 91
        1
300
_TITLE
309
CELLSTYLE_END
300
CELLSTYLE
  1
TABLEFORMAT_BEGIN
 90
        5
170
     1
 91
        0
 92
        0
 62
   257
 93
        1
300
CONTENTFORMAT
  1
CONTENTFORMAT_BEGIN
 90
        0
 91
        0
 92
      512
 93
        0
300

 40
0.0
140
1.0
 94
        5
 62
     0
340
55
144
0.18
309
CONTENTFORMAT_END
171
     0
 94
        0
309
TABLEFORMAT_END
  1
CELLSTYLE_BEGIN
 90
        2
 91
        1
300
_HEADER
309
CELLSTYLE_END
300
CELLSTYLE
  1
TABLEFORMAT_BEGIN
 90
        5
170
     1
 91
        0
 92
        0
 62
   257
 93
        1
300
CONTENTFORMAT
  1
CONTENTFORMAT_BEGIN
 90
        0
 91
        0
 92
      512
 93
        0
300

 40
0.0
140
1.0
 94
        2
 62
     0
340
55
144
0.18
309
CONTENTFORMAT_END
171
     0
 94
        0
309
TABLEFORMAT_END
  1
CELLSTYLE_BEGIN
 90
        3
 91
        2
300
_DATA
309
CELLSTYLE_END
  0
XRECORD
  5
11E
102
{ACAD_REACTORS
330
11D
102
}
330
11D
100
AcDbXrecord
280
     1
102
RTVSPost2010Prop28
280
     1
102
RTVSPost2010PropOp28
 70
     1
102
RTVSPost2010Prop29
280
     1
102
RTVSPost2010PropOp29
 70
     1
102
RTVSPost2010Prop30
280
     0
102
RTVSPost2010PropOp30
 70
     1
102
RTVSPost2010Prop31
280
     0
102
RTVSPost2010PropOp31
 70
     1
102
RTVSPost2010Prop32
280
     0
102
RTVSPost2010PropOp32
 70
     1
102
RTVSPost2010Prop33
280
     0
102
RTVSPost2010PropOp33
 70
     1
102
RTVSPost2010Prop34
280
     0
102
RTVSPost2010PropOp34
 70
     1
102
RTVSPost2010Prop35
280
     0
102
RTVSPost2010PropOp35
 70
     1
102
RTVSPost2010Prop36
280
     0
102
RTVSPost2010PropOp36
 70
     1
102
RTVSPost2010Prop37
 90
       50
102
RTVSPost2010PropOp37
 70
     1
102
RTVSPost2010Prop38
140
0.0
102
RTVSPost2010PropOp38
 70
     1
102
RTVSPost2010Prop39
140
1.0
102
RTVSPost2010PropOp39
 70
     1
102
RTVSPost2010Prop40
 90
        0
102
RTVSPost2010PropOp40
 70
     1
102
RTVSPost2010Prop41ColorIndex
 90
       18
102
RTVSPost2010Prop41ColorRGB
 90
        0
102
RTVSPost2010PropOp41
 70
     1
102
RTVSPost2010Prop42
 90
       50
102
RTVSPost2010PropOp42
 70
     1
102
RTVSPost2010Prop43
 90
        3
102
RTVSPost2010PropOp43
 70
     1
102
RTVSPost2010Prop44ColorIndex
 90
        5
102
RTVSPost2010Prop44ColorRGB
 90
      255
102
RTVSPost2010PropOp44
 70
     1
102
RTVSPost2010Prop45
280
     0
102
RTVSPost2010PropOp45
 70
     1
102
RTVSPost2010Prop46
 90
       50
102
RTVSPost2010PropOp46
 70
     1
102
RTVSPost2010Prop47
 90
       50
102
RTVSPost2010PropOp47
 70
     1
102
RTVSPost2010Prop48
 90
       50
102
RTVSPost2010PropOp48
 70
     1
102
RTVSPost2010Prop49
280
     0
102
RTVSPost2010PropOp49
 70
     1
102
RTVSPost2010Prop50
 90
       50
102
RTVSPost2010PropOp50
 70
     1
102
RTVSPost2010Prop51ColorIndex
 90
      256
102
RTVSPost2010Prop51ColorRGB
 90
-16777216
102
RTVSPost2010PropOp51
 70
     0
102
RTVSPost2010Prop52
140
1.0
102
RTVSPost2010PropOp52
 70
     0
102
RTVSPost2010Prop53
 90
        2
102
RTVSPost2010PropOp53
 70
     1
102
RTVSPost2010Prop54
  1
strokes_ogs.tif
102
RTVSPost2010PropOp54
 70
     1
102
RTVSPost2010Prop55
280
     0
102
RTVSPost2010PropOp55
 70
     1
102
RTVSPost2010Prop56
140
1.0
102
RTVSPost2010PropOp56
 70
     1
102
RTVSPost2010Prop57
140
1.0
102
RTVSPost2010PropOp57
 70
     1
  0
XRECORD
  5
11C
102
{ACAD_REACTORS
330
11B
102
}
330
11B
100
AcDbXrecord
280
     1
102
RTVSPost2010Prop28
280
     0
102
RTVSPost2010PropOp28
 70
     1
102
RTVSPost2010Prop29
280
     1
102
RTVSPost2010PropOp29
 70
     1
102
RTVSPost2010Prop30
280
     1
102
RTVSPost2010PropOp30
 70
     1
102
RTVSPost2010Prop31
280
     0
102
RTVSPost2010PropOp31
 70
     1
102
RTVSPost2010Prop32
280
     0
102
RTVSPost2010PropOp32
 70
     1
102
RTVSPost2010Prop33
280
     0
102
RTVSPost2010PropOp33
 70
     1
102
RTVSPost2010Prop34
280
     0
102
RTVSPost2010PropOp34
 70
     1
102
RTVSPost2010Prop35
280
     0
102
RTVSPost2010PropOp35
 70
     1
102
RTVSPost2010Prop36
280
     0
102
RTVSPost2010PropOp36
 70
     1
102
RTVSPost2010Prop37
 90
       50
102
RTVSPost2010PropOp37
 70
     1
102
RTVSPost2010Prop38
140
0.0
102
RTVSPost2010PropOp38
 70
     1
102
RTVSPost2010Prop39
140
1.0
102
RTVSPost2010PropOp39
 70
     1
102
RTVSPost2010Prop40
 90
        0
102
RTVSPost2010PropOp40
 70
     1
102
RTVSPost2010Prop41ColorIndex
 90
       18
102
RTVSPost2010Prop41ColorRGB
 90
        0
102
RTVSPost2010PropOp41
 70
     1
102
RTVSPost2010Prop42
 90
       50
102
RTVSPost2010PropOp42
 70
     1
102
RTVSPost2010Prop43
 90
        3
102
RTVSPost2010PropOp43
 70
     1
102
RTVSPost2010Prop44ColorIndex
 90
        5
102
RTVSPost2010Prop44ColorRGB
 90
      255
102
RTVSPost2010PropOp44
 70
     1
102
RTVSPost2010Prop45
280
     0
102
RTVSPost2010PropOp45
 70
     1
102
RTVSPost2010Prop46
 90
       50
102
RTVSPost2010PropOp46
 70
     1
102
RTVSPost2010Prop47
 90
       50
102
RTVSPost2010PropOp47
 70
     1
102
RTVSPost2010Prop48
 90
       50
102
RTVSPost2010PropOp48
 70
     1
102
RTVSPost2010Prop49
280
     0
102
RTVSPost2010PropOp49
 70
     1
102
RTVSPost2010Prop50
 90
       50
102
RTVSPost2010PropOp50
 70
     1
102
RTVSPost2010Prop51ColorIndex
 90
      256
102
RTVSPost2010Prop51ColorRGB
 90
-16777216
102
RTVSPost2010PropOp51
 70
     0
102
RTVSPost2010Prop52
140
1.0
102
RTVSPost2010PropOp52
 70
     0
102
RTVSPost2010Prop53
 90
        2
102
RTVSPost2010PropOp53
 70
     1
102
RTVSPost2010Prop54
  1
strokes_ogs.tif
102
RTVSPost2010PropOp54
 70
     1
102
RTVSPost2010Prop55
280
     0
102
RTVSPost2010PropOp55
 70
     1
102
RTVSPost2010Prop56
140
1.0
102
RTVSPost2010PropOp56
 70
     1
102
RTVSPost2010Prop57
140
1.0
102
RTVSPost2010PropOp57
 70
     1
  0
XRECORD
  5
12A
102
{ACAD_REACTORS
330
129
102
}
330
129
100
AcDbXrecord
280
     1
102
RTVSPost2010Prop28
280
     0
102
RTVSPost2010PropOp28
 70
     1
102
RTVSPost2010Prop29
280
     1
102
RTVSPost2010PropOp29
 70
     1
102
RTVSPost2010Prop30
280
     1
102
RTVSPost2010PropOp30
 70
     1
102
RTVSPost2010Prop31
280
     0
102
RTVSPost2010PropOp31
 70
     1
102
RTVSPost2010Prop32
280
     0
102
RTVSPost2010PropOp32
 70
     1
102
RTVSPost2010Prop33
280
     0
102
RTVSPost2010PropOp33
 70
     1
102
RTVSPost2010Prop34
280
     0
102
RTVSPost2010PropOp34
 70
     1
102
RTVSPost2010Prop35
280
     0
102
RTVSPost2010PropOp35
 70
     1
102
RTVSPost2010Prop36
280
     0
102
RTVSPost2010PropOp36
 70
     1
102
RTVSPost2010Prop37
 90
       50
102
RTVSPost2010PropOp37
 70
     1
102
RTVSPost2010Prop38
140
0.0
102
RTVSPost2010PropOp38
 70
     1
102
RTVSPost2010Prop39
140
1.0
102
RTVSPost2010PropOp39
 70
     1
102
RTVSPost2010Prop40
 90
        0
102
RTVSPost2010PropOp40
 70
     1
102
RTVSPost2010Prop41ColorIndex
 90
       18
102
RTVSPost2010Prop41ColorRGB
 90
        0
102
RTVSPost2010PropOp41
 70
     1
102
RTVSPost2010Prop42
 90
       50
102
RTVSPost2010PropOp42
 70
     1
102
RTVSPost2010Prop43
 90
        3
102
RTVSPost2010PropOp43
 70
     1
102
RTVSPost2010Prop44ColorIndex
 90
        5
102
RTVSPost2010Prop44ColorRGB
 90
      255
102
RTVSPost2010PropOp44
 70
     1
102
RTVSPost2010Prop45
280
     0
102
RTVSPost2010PropOp45
 70
     1
102
RTVSPost2010Prop46
 90
       50
102
RTVSPost2010PropOp46
 70
     1
102
RTVSPost2010Prop47
 90
       50
102
RTVSPost2010PropOp47
 70
     1
102
RTVSPost2010Prop48
 90
       50
102
RTVSPost2010PropOp48
 70
     1
102
RTVSPost2010Prop49
280
     0
102
RTVSPost2010PropOp49
 70
     1
102
RTVSPost2010Prop50
 90
       50
102
RTVSPost2010PropOp50
 70
     1
102
RTVSPost2010Prop51ColorIndex
 90
      256
102
RTVSPost2010Prop51ColorRGB
 90
-16777216
102
RTVSPost2010PropOp51
 70
     0
102
RTVSPost2010Prop52
140
1.0
102
RTVSPost2010PropOp52
 70
     0
102
RTVSPost2010Prop53
 90
        2
102
RTVSPost2010PropOp53
 70
     1
102
RTVSPost2010Prop54
  1
strokes_ogs.tif
102
RTVSPost2010PropOp54
 70
     1
102
RTVSPost2010Prop55
280
     0
102
RTVSPost2010PropOp55
 70
     1
102
RTVSPost2010Prop56
140
1.0
102
RTVSPost2010PropOp56
 70
     1
102
RTVSPost2010Prop57
140
1.0
102
RTVSPost2010PropOp57
 70
     1
  0
XRECORD
  5
132
102
{ACAD_REACTORS
330
131
102
}
330
131
100
AcDbXrecord
280
     1
102
RTVSPost2010Prop28
280
     0
102
RTVSPost2010PropOp28
 70
     1
102
RTVSPost2010Prop29
280
     1
102
RTVSPost2010PropOp29
 70
     1
102
RTVSPost2010Prop30
280
     1
102
RTVSPost2010PropOp30
 70
     1
102
RTVSPost2010Prop31
280
     0
102
RTVSPost2010PropOp31
 70
     1
102
RTVSPost2010Prop32
280
     0
102
RTVSPost2010PropOp32
 70
     1
102
RTVSPost2010Prop33
280
     0
102
RTVSPost2010PropOp33
 70
     1
102
RTVSPost2010Prop34
280
     0
102
RTVSPost2010PropOp34
 70
     1
102
RTVSPost2010Prop35
280
     0
102
RTVSPost2010PropOp35
 70
     1
102
RTVSPost2010Prop36
280
     0
102
RTVSPost2010PropOp36
 70
     1
102
RTVSPost2010Prop37
 90
       50
102
RTVSPost2010PropOp37
 70
     1
102
RTVSPost2010Prop38
140
0.0
102
RTVSPost2010PropOp38
 70
     1
102
RTVSPost2010Prop39
140
1.0
102
RTVSPost2010PropOp39
 70
     1
102
RTVSPost2010Prop40
 90
        0
102
RTVSPost2010PropOp40
 70
     1
102
RTVSPost2010Prop41ColorIndex
 90
       18
102
RTVSPost2010Prop41ColorRGB
 90
        0
102
RTVSPost2010PropOp41
 70
     1
102
RTVSPost2010Prop42
 90
       50
102
RTVSPost2010PropOp42
 70
     1
102
RTVSPost2010Prop43
 90
        3
102
RTVSPost2010PropOp43
 70
     1
102
RTVSPost2010Prop44ColorIndex
 90
        5
102
RTVSPost2010Prop44ColorRGB
 90
      255
102
RTVSPost2010PropOp44
 70
     1
102
RTVSPost2010Prop45
280
     0
102
RTVSPost2010PropOp45
 70
     1
102
RTVSPost2010Prop46
 90
       50
102
RTVSPost2010PropOp46
 70
     1
102
RTVSPost2010Prop47
 90
       50
102
RTVSPost2010PropOp47
 70
     1
102
RTVSPost2010Prop48
 90
       50
102
RTVSPost2010PropOp48
 70
     1
102
RTVSPost2010Prop49
280
     0
102
RTVSPost2010PropOp49
 70
     1
102
RTVSPost2010Prop50
 90
       50
102
RTVSPost2010PropOp50
 70
     1
102
RTVSPost2010Prop51ColorIndex
 90
      256
102
RTVSPost2010Prop51ColorRGB
 90
-16777216
102
RTVSPost2010PropOp51
 70
     0
102
RTVSPost2010Prop52
140
1.0
102
RTVSPost2010PropOp52
 70
     0
102
RTVSPost2010Prop53
 90
        2
102
RTVSPost2010PropOp53
 70
     1
102
RTVSPost2010Prop54
  1
strokes_ogs.tif
102
RTVSPost2010PropOp54
 70
     1
102
RTVSPost2010Prop55
280
     0
102
RTVSPost2010PropOp55
 70
     1
102
RTVSPost2010Prop56
140
1.0
102
RTVSPost2010PropOp56
 70
     1
102
RTVSPost2010Prop57
140
1.0
102
RTVSPost2010PropOp57
 70
     1
  0
XRECORD
  5
124
102
{ACAD_REACTORS
330
123
102
}
330
123
100
AcDbXrecord
280
     1
102
RTVSPost2010Prop28
280
     0
102
RTVSPost2010PropOp28
 70
     1
102
RTVSPost2010Prop29
280
     1
102
RTVSPost2010PropOp29
 70
     1
102
RTVSPost2010Prop30
280
     1
102
RTVSPost2010PropOp30
 70
     1
102
RTVSPost2010Prop31
280
     0
102
RTVSPost2010PropOp31
 70
     1
102
RTVSPost2010Prop32
280
     0
102
RTVSPost2010PropOp32
 70
     1
102
RTVSPost2010Prop33
280
     0
102
RTVSPost2010PropOp33
 70
     1
102
RTVSPost2010Prop34
280
     0
102
RTVSPost2010PropOp34
 70
     1
102
RTVSPost2010Prop35
280
     0
102
RTVSPost2010PropOp35
 70
     1
102
RTVSPost2010Prop36
280
     0
102
RTVSPost2010PropOp36
 70
     1
102
RTVSPost2010Prop37
 90
       50
102
RTVSPost2010PropOp37
 70
     1
102
RTVSPost2010Prop38
140
0.0
102
RTVSPost2010PropOp38
 70
     1
102
RTVSPost2010Prop39
140
1.0
102
RTVSPost2010PropOp39
 70
     1
102
RTVSPost2010Prop40
 90
        0
102
RTVSPost2010PropOp40
 70
     1
102
RTVSPost2010Prop41ColorIndex
 90
       18
102
RTVSPost2010Prop41ColorRGB
 90
        0
102
RTVSPost2010PropOp41
 70
     1
102
RTVSPost2010Prop42
 90
       50
102
RTVSPost2010PropOp42
 70
     1
102
RTVSPost2010Prop43
 90
        3
102
RTVSPost2010PropOp43
 70
     1
102
RTVSPost2010Prop44ColorIndex
 90
        5
102
RTVSPost2010Prop44ColorRGB
 90
      255
102
RTVSPost2010PropOp44
 70
     1
102
RTVSPost2010Prop45
280
     0
102
RTVSPost2010PropOp45
 70
     1
102
RTVSPost2010Prop46
 90
       50
102
RTVSPost2010PropOp46
 70
     1
102
RTVSPost2010Prop47
 90
       50
102
RTVSPost2010PropOp47
 70
     1
102
RTVSPost2010Prop48
 90
       50
102
RTVSPost2010PropOp48
 70
     1
102
RTVSPost2010Prop49
280
     0
102
RTVSPost2010PropOp49
 70
     1
102
RTVSPost2010Prop50
 90
       50
102
RTVSPost2010PropOp50
 70
     1
102
RTVSPost2010Prop51ColorIndex
 90
      256
102
RTVSPost2010Prop51ColorRGB
 90
-16777216
102
RTVSPost2010PropOp51
 70
     0
102
RTVSPost2010Prop52
140
1.0
102
RTVSPost2010PropOp52
 70
     0
102
RTVSPost2010Prop53
 90
        2
102
RTVSPost2010PropOp53
 70
     1
102
RTVSPost2010Prop54
  1
strokes_ogs.tif
102
RTVSPost2010PropOp54
 70
     1
102
RTVSPost2010Prop55
280
     0
102
RTVSPost2010PropOp55
 70
     1
102
RTVSPost2010Prop56
140
1.0
102
RTVSPost2010PropOp56
 70
     1
102
RTVSPost2010Prop57
140
1.0
102
RTVSPost2010PropOp57
 70
     1
  0
XRECORD
  5
128
102
{ACAD_REACTORS
330
127
102
}
330
127
100
AcDbXrecord
280
     1
102
RTVSPost2010Prop28
280
     0
102
RTVSPost2010PropOp28
 70
     1
102
RTVSPost2010Prop29
280
     1
102
RTVSPost2010PropOp29
 70
     1
102
RTVSPost2010Prop30
280
     1
102
RTVSPost2010PropOp30
 70
     1
102
RTVSPost2010Prop31
280
     0
102
RTVSPost2010PropOp31
 70
     1
102
RTVSPost2010Prop32
280
     0
102
RTVSPost2010PropOp32
 70
     1
102
RTVSPost2010Prop33
280
     0
102
RTVSPost2010PropOp33
 70
     1
102
RTVSPost2010Prop34
280
     0
102
RTVSPost2010PropOp34
 70
     1
102
RTVSPost2010Prop35
280
     0
102
RTVSPost2010PropOp35
 70
     1
102
RTVSPost2010Prop36
280
     0
102
RTVSPost2010PropOp36
 70
     1
102
RTVSPost2010Prop37
 90
       50
102
RTVSPost2010PropOp37
 70
     1
102
RTVSPost2010Prop38
140
0.0
102
RTVSPost2010PropOp38
 70
     1
102
RTVSPost2010Prop39
140
1.0
102
RTVSPost2010PropOp39
 70
     1
102
RTVSPost2010Prop40
 90
        0
102
RTVSPost2010PropOp40
 70
     1
102
RTVSPost2010Prop41ColorIndex
 90
       18
102
RTVSPost2010Prop41ColorRGB
 90
        0
102
RTVSPost2010PropOp41
 70
     1
102
RTVSPost2010Prop42
 90
       50
102
RTVSPost2010PropOp42
 70
     1
102
RTVSPost2010Prop43
 90
        3
102
RTVSPost2010PropOp43
 70
     1
102
RTVSPost2010Prop44ColorIndex
 90
        5
102
RTVSPost2010Prop44ColorRGB
 90
      255
102
RTVSPost2010PropOp44
 70
     1
102
RTVSPost2010Prop45
280
     0
102
RTVSPost2010PropOp45
 70
     1
102
RTVSPost2010Prop46
 90
       50
102
RTVSPost2010PropOp46
 70
     1
102
RTVSPost2010Prop47
 90
       50
102
RTVSPost2010PropOp47
 70
     1
102
RTVSPost2010Prop48
 90
       50
102
RTVSPost2010PropOp48
 70
     1
102
RTVSPost2010Prop49
280
     0
102
RTVSPost2010PropOp49
 70
     1
102
RTVSPost2010Prop50
 90
       50
102
RTVSPost2010PropOp50
 70
     1
102
RTVSPost2010Prop51ColorIndex
 90
      256
102
RTVSPost2010Prop51ColorRGB
 90
-16777216
102
RTVSPost2010PropOp51
 70
     0
102
RTVSPost2010Prop52
140
1.0
102
RTVSPost2010PropOp52
 70
     0
102
RTVSPost2010Prop53
 90
        2
102
RTVSPost2010PropOp53
 70
     1
102
RTVSPost2010Prop54
  1
strokes_ogs.tif
102
RTVSPost2010PropOp54
 70
     1
102
RTVSPost2010Prop55
280
     0
102
RTVSPost2010PropOp55
 70
     1
102
RTVSPost2010Prop56
140
1.0
102
RTVSPost2010PropOp56
 70
     1
102
RTVSPost2010Prop57
140
1.0
102
RTVSPost2010PropOp57
 70
     1
  0
XRECORD
  5
142
102
{ACAD_REACTORS
330
141
102
}
330
141
100
AcDbXrecord
280
     1
102
RTVSPost2010Prop28
280
     0
102
RTVSPost2010PropOp28
 70
     0
102
RTVSPost2010Prop29
280
     1
102
RTVSPost2010PropOp29
 70
     0
102
RTVSPost2010Prop30
280
     1
102
RTVSPost2010PropOp30
 70
     0
102
RTVSPost2010Prop31
280
     0
102
RTVSPost2010PropOp31
 70
     0
102
RTVSPost2010Prop32
280
     0
102
RTVSPost2010PropOp32
 70
     0
102
RTVSPost2010Prop33
280
     0
102
RTVSPost2010PropOp33
 70
     0
102
RTVSPost2010Prop34
280
     0
102
RTVSPost2010PropOp34
 70
     0
102
RTVSPost2010Prop35
280
     0
102
RTVSPost2010PropOp35
 70
     0
102
RTVSPost2010Prop36
280
     0
102
RTVSPost2010PropOp36
 70
     0
102
RTVSPost2010Prop37
 90
       50
102
RTVSPost2010PropOp37
 70
     0
102
RTVSPost2010Prop38
140
0.0
102
RTVSPost2010PropOp38
 70
     0
102
RTVSPost2010Prop39
140
1.0
102
RTVSPost2010PropOp39
 70
     0
102
RTVSPost2010Prop40
 90
        0
102
RTVSPost2010PropOp40
 70
     0
102
RTVSPost2010Prop41ColorIndex
 90
       18
102
RTVSPost2010Prop41ColorRGB
 90
        0
102
RTVSPost2010PropOp41
 70
     0
102
RTVSPost2010Prop42
 90
       50
102
RTVSPost2010PropOp42
 70
     0
102
RTVSPost2010Prop43
 90
        3
102
RTVSPost2010PropOp43
 70
     0
102
RTVSPost2010Prop44ColorIndex
 90
        5
102
RTVSPost2010Prop44ColorRGB
 90
      255
102
RTVSPost2010PropOp44
 70
     0
102
RTVSPost2010Prop45
280
     0
102
RTVSPost2010PropOp45
 70
     0
102
RTVSPost2010Prop46
 90
       50
102
RTVSPost2010PropOp46
 70
     0
102
RTVSPost2010Prop47
 90
       50
102
RTVSPost2010PropOp47
 70
     0
102
RTVSPost2010Prop48
 90
       50
102
RTVSPost2010PropOp48
 70
     0
102
RTVSPost2010Prop49
280
     0
102
RTVSPost2010PropOp49
 70
     0
102
RTVSPost2010Prop50
 90
       50
102
RTVSPost2010PropOp50
 70
     0
102
RTVSPost2010Prop51ColorIndex
 90
      256
102
RTVSPost2010Prop51ColorRGB
 90
-16777216
102
RTVSPost2010PropOp51
 70
     0
102
RTVSPost2010Prop52
140
1.0
102
RTVSPost2010PropOp52
 70
     0
102
RTVSPost2010Prop53
 90
        2
102
RTVSPost2010PropOp53
 70
     0
102
RTVSPost2010Prop54
  1
strokes_ogs.tif
102
RTVSPost2010PropOp54
 70
     0
102
RTVSPost2010Prop55
280
     0
102
RTVSPost2010PropOp55
 70
     0
102
RTVSPost2010Prop56
140
1.0
102
RTVSPost2010PropOp56
 70
     0
102
RTVSPost2010Prop57
140
1.0
102
RTVSPost2010PropOp57
 70
     0
  0
XRECORD
  5
130
102
{ACAD_REACTORS
330
12F
102
}
330
12F
100
AcDbXrecord
280
     1
102
RTVSPost2010Prop28
280
     0
102
RTVSPost2010PropOp28
 70
     1
102
RTVSPost2010Prop29
280
     1
102
RTVSPost2010PropOp29
 70
     1
102
RTVSPost2010Prop30
280
     1
102
RTVSPost2010PropOp30
 70
     1
102
RTVSPost2010Prop31
280
     0
102
RTVSPost2010PropOp31
 70
     1
102
RTVSPost2010Prop32
280
     0
102
RTVSPost2010PropOp32
 70
     1
102
RTVSPost2010Prop33
280
     0
102
RTVSPost2010PropOp33
 70
     1
102
RTVSPost2010Prop34
280
     0
102
RTVSPost2010PropOp34
 70
     1
102
RTVSPost2010Prop35
280
     0
102
RTVSPost2010PropOp35
 70
     1
102
RTVSPost2010Prop36
280
     0
102
RTVSPost2010PropOp36
 70
     1
102
RTVSPost2010Prop37
 90
       50
102
RTVSPost2010PropOp37
 70
     1
102
RTVSPost2010Prop38
140
0.0
102
RTVSPost2010PropOp38
 70
     1
102
RTVSPost2010Prop39
140
1.0
102
RTVSPost2010PropOp39
 70
     1
102
RTVSPost2010Prop40
 90
        0
102
RTVSPost2010PropOp40
 70
     1
102
RTVSPost2010Prop41ColorIndex
 90
       18
102
RTVSPost2010Prop41ColorRGB
 90
        0
102
RTVSPost2010PropOp41
 70
     1
102
RTVSPost2010Prop42
 90
       50
102
RTVSPost2010PropOp42
 70
     1
102
RTVSPost2010Prop43
 90
        3
102
RTVSPost2010PropOp43
 70
     1
102
RTVSPost2010Prop44ColorIndex
 90
        5
102
RTVSPost2010Prop44ColorRGB
 90
      255
102
RTVSPost2010PropOp44
 70
     1
102
RTVSPost2010Prop45
280
     0
102
RTVSPost2010PropOp45
 70
     1
102
RTVSPost2010Prop46
 90
       50
102
RTVSPost2010PropOp46
 70
     1
102
RTVSPost2010Prop47
 90
       50
102
RTVSPost2010PropOp47
 70
     1
102
RTVSPost2010Prop48
 90
       50
102
RTVSPost2010PropOp48
 70
     1
102
RTVSPost2010Prop49
280
     0
102
RTVSPost2010PropOp49
 70
     1
102
RTVSPost2010Prop50
 90
       50
102
RTVSPost2010PropOp50
 70
     1
102
RTVSPost2010Prop51ColorIndex
 90
      256
102
RTVSPost2010Prop51ColorRGB
 90
-16777216
102
RTVSPost2010PropOp51
 70
     0
102
RTVSPost2010Prop52
140
1.0
102
RTVSPost2010PropOp52
 70
     0
102
RTVSPost2010Prop53
 90
        2
102
RTVSPost2010PropOp53
 70
     1
102
RTVSPost2010Prop54
  1
strokes_ogs.tif
102
RTVSPost2010PropOp54
 70
     1
102
RTVSPost2010Prop55
280
     0
102
RTVSPost2010PropOp55
 70
     1
102
RTVSPost2010Prop56
140
1.0
102
RTVSPost2010PropOp56
 70
     1
102
RTVSPost2010Prop57
140
1.0
102
RTVSPost2010PropOp57
 70
     1
  0
XRECORD
  5
114
102
{ACAD_REACTORS
330
113
102
}
330
113
100
AcDbXrecord
280
     1
102
RTVSPost2010Prop28
280
     0
102
RTVSPost2010PropOp28
 70
     1
102
RTVSPost2010Prop29
280
     1
102
RTVSPost2010PropOp29
 70
     1
102
RTVSPost2010Prop30
280
     1
102
RTVSPost2010PropOp30
 70
     1
102
RTVSPost2010Prop31
280
     0
102
RTVSPost2010PropOp31
 70
     1
102
RTVSPost2010Prop32
280
     0
102
RTVSPost2010PropOp32
 70
     1
102
RTVSPost2010Prop33
280
     0
102
RTVSPost2010PropOp33
 70
     1
102
RTVSPost2010Prop34
280
     0
102
RTVSPost2010PropOp34
 70
     1
102
RTVSPost2010Prop35
280
     0
102
RTVSPost2010PropOp35
 70
     1
102
RTVSPost2010Prop36
280
     0
102
RTVSPost2010PropOp36
 70
     1
102
RTVSPost2010Prop37
 90
       50
102
RTVSPost2010PropOp37
 70
     1
102
RTVSPost2010Prop38
140
0.0
102
RTVSPost2010PropOp38
 70
     1
102
RTVSPost2010Prop39
140
1.0
102
RTVSPost2010PropOp39
 70
     1
102
RTVSPost2010Prop40
 90
        0
102
RTVSPost2010PropOp40
 70
     1
102
RTVSPost2010Prop41ColorIndex
 90
       18
102
RTVSPost2010Prop41ColorRGB
 90
        0
102
RTVSPost2010PropOp41
 70
     1
102
RTVSPost2010Prop42
 90
       50
102
RTVSPost2010PropOp42
 70
     1
102
RTVSPost2010Prop43
 90
        3
102
RTVSPost2010PropOp43
 70
     1
102
RTVSPost2010Prop44ColorIndex
 90
        5
102
RTVSPost2010Prop44ColorRGB
 90
      255
102
RTVSPost2010PropOp44
 70
     1
102
RTVSPost2010Prop45
280
     0
102
RTVSPost2010PropOp45
 70
     1
102
RTVSPost2010Prop46
 90
       50
102
RTVSPost2010PropOp46
 70
     1
102
RTVSPost2010Prop47
 90
       50
102
RTVSPost2010PropOp47
 70
     1
102
RTVSPost2010Prop48
 90
       50
102
RTVSPost2010PropOp48
 70
     1
102
RTVSPost2010Prop49
280
     0
102
RTVSPost2010PropOp49
 70
     1
102
RTVSPost2010Prop50
 90
       50
102
RTVSPost2010PropOp50
 70
     1
102
RTVSPost2010Prop51ColorIndex
 90
      256
102
RTVSPost2010Prop51ColorRGB
 90
-16777216
102
RTVSPost2010PropOp51
 70
     0
102
RTVSPost2010Prop52
140
1.0
102
RTVSPost2010PropOp52
 70
     0
102
RTVSPost2010Prop53
 90
        2
102
RTVSPost2010PropOp53
 70
     1
102
RTVSPost2010Prop54
  1
strokes_ogs.tif
102
RTVSPost2010PropOp54
 70
     1
102
RTVSPost2010Prop55
280
     0
102
RTVSPost2010PropOp55
 70
     1
102
RTVSPost2010Prop56
140
1.0
102
RTVSPost2010PropOp56
 70
     1
102
RTVSPost2010Prop57
140
1.0
102
RTVSPost2010PropOp57
 70
     1
  0
XRECORD
  5
116
102
{ACAD_REACTORS
330
115
102
}
330
115
100
AcDbXrecord
280
     1
102
RTVSPost2010Prop28
280
     0
102
RTVSPost2010PropOp28
 70
     1
102
RTVSPost2010Prop29
280
     1
102
RTVSPost2010PropOp29
 70
     1
102
RTVSPost2010Prop30
280
     1
102
RTVSPost2010PropOp30
 70
     1
102
RTVSPost2010Prop31
280
     0
102
RTVSPost2010PropOp31
 70
     1
102
RTVSPost2010Prop32
280
     0
102
RTVSPost2010PropOp32
 70
     1
102
RTVSPost2010Prop33
280
     0
102
RTVSPost2010PropOp33
 70
     1
102
RTVSPost2010Prop34
280
     0
102
RTVSPost2010PropOp34
 70
     1
102
RTVSPost2010Prop35
280
     0
102
RTVSPost2010PropOp35
 70
     1
102
RTVSPost2010Prop36
280
     0
102
RTVSPost2010PropOp36
 70
     1
102
RTVSPost2010Prop37
 90
       50
102
RTVSPost2010PropOp37
 70
     1
102
RTVSPost2010Prop38
140
0.0
102
RTVSPost2010PropOp38
 70
     1
102
RTVSPost2010Prop39
140
1.0
102
RTVSPost2010PropOp39
 70
     1
102
RTVSPost2010Prop40
 90
        0
102
RTVSPost2010PropOp40
 70
     1
102
RTVSPost2010Prop41ColorIndex
 90
       18
102
RTVSPost2010Prop41ColorRGB
 90
        0
102
RTVSPost2010PropOp41
 70
     1
102
RTVSPost2010Prop42
 90
       50
102
RTVSPost2010PropOp42
 70
     1
102
RTVSPost2010Prop43
 90
        3
102
RTVSPost2010PropOp43
 70
     1
102
RTVSPost2010Prop44ColorIndex
 90
        5
102
RTVSPost2010Prop44ColorRGB
 90
      255
102
RTVSPost2010PropOp44
 70
     1
102
RTVSPost2010Prop45
280
     0
102
RTVSPost2010PropOp45
 70
     1
102
RTVSPost2010Prop46
 90
       50
102
RTVSPost2010PropOp46
 70
     1
102
RTVSPost2010Prop47
 90
       50
102
RTVSPost2010PropOp47
 70
     1
102
RTVSPost2010Prop48
 90
       50
102
RTVSPost2010PropOp48
 70
     1
102
RTVSPost2010Prop49
280
     0
102
RTVSPost2010PropOp49
 70
     1
102
RTVSPost2010Prop50
 90
       50
102
RTVSPost2010PropOp50
 70
     1
102
RTVSPost2010Prop51ColorIndex
 90
      256
102
RTVSPost2010Prop51ColorRGB
 90
-16777216
102
RTVSPost2010PropOp51
 70
     0
102
RTVSPost2010Prop52
140
1.0
102
RTVSPost2010PropOp52
 70
     0
102
RTVSPost2010Prop53
 90
        2
102
RTVSPost2010PropOp53
 70
     1
102
RTVSPost2010Prop54
  1
strokes_ogs.tif
102
RTVSPost2010PropOp54
 70
     1
102
RTVSPost2010Prop55
280
     0
102
RTVSPost2010PropOp55
 70
     1
102
RTVSPost2010Prop56
140
1.0
102
RTVSPost2010PropOp56
 70
     1
102
RTVSPost2010Prop57
140
1.0
102
RTVSPost2010PropOp57
 70
     1
  0
XRECORD
  5
118
102
{ACAD_REACTORS
330
117
102
}
330
117
100
AcDbXrecord
280
     1
102
RTVSPost2010Prop28
280
     0
102
RTVSPost2010PropOp28
 70
     1
102
RTVSPost2010Prop29
280
     1
102
RTVSPost2010PropOp29
 70
     1
102
RTVSPost2010Prop30
280
     1
102
RTVSPost2010PropOp30
 70
     1
102
RTVSPost2010Prop31
280
     0
102
RTVSPost2010PropOp31
 70
     1
102
RTVSPost2010Prop32
280
     0
102
RTVSPost2010PropOp32
 70
     1
102
RTVSPost2010Prop33
280
     0
102
RTVSPost2010PropOp33
 70
     1
102
RTVSPost2010Prop34
280
     0
102
RTVSPost2010PropOp34
 70
     1
102
RTVSPost2010Prop35
280
     0
102
RTVSPost2010PropOp35
 70
     1
102
RTVSPost2010Prop36
280
     0
102
RTVSPost2010PropOp36
 70
     1
102
RTVSPost2010Prop37
 90
       50
102
RTVSPost2010PropOp37
 70
     1
102
RTVSPost2010Prop38
140
0.0
102
RTVSPost2010PropOp38
 70
     1
102
RTVSPost2010Prop39
140
1.0
102
RTVSPost2010PropOp39
 70
     1
102
RTVSPost2010Prop40
 90
        0
102
RTVSPost2010PropOp40
 70
     1
102
RTVSPost2010Prop41ColorIndex
 90
       18
102
RTVSPost2010Prop41ColorRGB
 90
        0
102
RTVSPost2010PropOp41
 70
     1
102
RTVSPost2010Prop42
 90
       50
102
RTVSPost2010PropOp42
 70
     1
102
RTVSPost2010Prop43
 90
        3
102
RTVSPost2010PropOp43
 70
     1
102
RTVSPost2010Prop44ColorIndex
 90
        5
102
RTVSPost2010Prop44ColorRGB
 90
      255
102
RTVSPost2010PropOp44
 70
     1
102
RTVSPost2010Prop45
280
     0
102
RTVSPost2010PropOp45
 70
     1
102
RTVSPost2010Prop46
 90
       50
102
RTVSPost2010PropOp46
 70
     1
102
RTVSPost2010Prop47
 90
       50
102
RTVSPost2010PropOp47
 70
     1
102
RTVSPost2010Prop48
 90
       50
102
RTVSPost2010PropOp48
 70
     1
102
RTVSPost2010Prop49
280
     0
102
RTVSPost2010PropOp49
 70
     1
102
RTVSPost2010Prop50
 90
       50
102
RTVSPost2010PropOp50
 70
     1
102
RTVSPost2010Prop51ColorIndex
 90
      256
102
RTVSPost2010Prop51ColorRGB
 90
-16777216
102
RTVSPost2010PropOp51
 70
     0
102
RTVSPost2010Prop52
140
1.0
102
RTVSPost2010PropOp52
 70
     0
102
RTVSPost2010Prop53
 90
        2
102
RTVSPost2010PropOp53
 70
     1
102
RTVSPost2010Prop54
  1
strokes_ogs.tif
102
RTVSPost2010PropOp54
 70
     1
102
RTVSPost2010Prop55
280
     0
102
RTVSPost2010PropOp55
 70
     1
102
RTVSPost2010Prop56
140
1.0
102
RTVSPost2010PropOp56
 70
     1
102
RTVSPost2010Prop57
140
1.0
102
RTVSPost2010PropOp57
 70
     1
  0
XRECORD
  5
11A
102
{ACAD_REACTORS
330
119
102
}
330
119
100
AcDbXrecord
280
     1
102
RTVSPost2010Prop28
280
     0
102
RTVSPost2010PropOp28
 70
     1
102
RTVSPost2010Prop29
280
     1
102
RTVSPost2010PropOp29
 70
     1
102
RTVSPost2010Prop30
280
     1
102
RTVSPost2010PropOp30
 70
     1
102
RTVSPost2010Prop31
280
     0
102
RTVSPost2010PropOp31
 70
     1
102
RTVSPost2010Prop32
280
     0
102
RTVSPost2010PropOp32
 70
     1
102
RTVSPost2010Prop33
280
     0
102
RTVSPost2010PropOp33
 70
     1
102
RTVSPost2010Prop34
280
     0
102
RTVSPost2010PropOp34
 70
     1
102
RTVSPost2010Prop35
280
     0
102
RTVSPost2010PropOp35
 70
     1
102
RTVSPost2010Prop36
280
     0
102
RTVSPost2010PropOp36
 70
     1
102
RTVSPost2010Prop37
 90
       50
102
RTVSPost2010PropOp37
 70
     1
102
RTVSPost2010Prop38
140
0.0
102
RTVSPost2010PropOp38
 70
     1
102
RTVSPost2010Prop39
140
1.0
102
RTVSPost2010PropOp39
 70
     1
102
RTVSPost2010Prop40
 90
        0
102
RTVSPost2010PropOp40
 70
     1
102
RTVSPost2010Prop41ColorIndex
 90
       18
102
RTVSPost2010Prop41ColorRGB
 90
        0
102
RTVSPost2010PropOp41
 70
     1
102
RTVSPost2010Prop42
 90
       50
102
RTVSPost2010PropOp42
 70
     1
102
RTVSPost2010Prop43
 90
        3
102
RTVSPost2010PropOp43
 70
     1
102
RTVSPost2010Prop44ColorIndex
 90
        5
102
RTVSPost2010Prop44ColorRGB
 90
      255
102
RTVSPost2010PropOp44
 70
     1
102
RTVSPost2010Prop45
280
     0
102
RTVSPost2010PropOp45
 70
     1
102
RTVSPost2010Prop46
 90
       50
102
RTVSPost2010PropOp46
 70
     1
102
RTVSPost2010Prop47
 90
       50
102
RTVSPost2010PropOp47
 70
     1
102
RTVSPost2010Prop48
 90
       50
102
RTVSPost2010PropOp48
 70
     1
102
RTVSPost2010Prop49
280
     0
102
RTVSPost2010PropOp49
 70
     1
102
RTVSPost2010Prop50
 90
       50
102
RTVSPost2010PropOp50
 70
     1
102
RTVSPost2010Prop51ColorIndex
 90
      256
102
RTVSPost2010Prop51ColorRGB
 90
-16777216
102
RTVSPost2010PropOp51
 70
     0
102
RTVSPost2010Prop52
140
1.0
102
RTVSPost2010PropOp52
 70
     0
102
RTVSPost2010Prop53
 90
        2
102
RTVSPost2010PropOp53
 70
     1
102
RTVSPost2010Prop54
  1
strokes_ogs.tif
102
RTVSPost2010PropOp54
 70
     1
102
RTVSPost2010Prop55
280
     0
102
RTVSPost2010PropOp55
 70
     1
102
RTVSPost2010Prop56
140
1.0
102
RTVSPost2010PropOp56
 70
     1
102
RTVSPost2010Prop57
140
1.0
102
RTVSPost2010PropOp57
 70
     1
  0
XRECORD
  5
122
102
{ACAD_REACTORS
330
121
102
}
330
121
100
AcDbXrecord
280
     1
102
RTVSPost2010Prop28
280
     0
102
RTVSPost2010PropOp28
 70
     1
102
RTVSPost2010Prop29
280
     1
102
RTVSPost2010PropOp29
 70
     1
102
RTVSPost2010Prop30
280
     1
102
RTVSPost2010PropOp30
 70
     1
102
RTVSPost2010Prop31
280
     0
102
RTVSPost2010PropOp31
 70
     1
102
RTVSPost2010Prop32
280
     0
102
RTVSPost2010PropOp32
 70
     1
102
RTVSPost2010Prop33
280
     0
102
RTVSPost2010PropOp33
 70
     1
102
RTVSPost2010Prop34
280
     0
102
RTVSPost2010PropOp34
 70
     1
102
RTVSPost2010Prop35
280
     0
102
RTVSPost2010PropOp35
 70
     1
102
RTVSPost2010Prop36
280
     0
102
RTVSPost2010PropOp36
 70
     1
102
RTVSPost2010Prop37
 90
       50
102
RTVSPost2010PropOp37
 70
     1
102
RTVSPost2010Prop38
140
0.0
102
RTVSPost2010PropOp38
 70
     1
102
RTVSPost2010Prop39
140
1.0
102
RTVSPost2010PropOp39
 70
     1
102
RTVSPost2010Prop40
 90
        0
102
RTVSPost2010PropOp40
 70
     1
102
RTVSPost2010Prop41ColorIndex
 90
       18
102
RTVSPost2010Prop41ColorRGB
 90
        0
102
RTVSPost2010PropOp41
 70
     1
102
RTVSPost2010Prop42
 90
       50
102
RTVSPost2010PropOp42
 70
     1
102
RTVSPost2010Prop43
 90
        3
102
RTVSPost2010PropOp43
 70
     1
102
RTVSPost2010Prop44ColorIndex
 90
        5
102
RTVSPost2010Prop44ColorRGB
 90
      255
102
RTVSPost2010PropOp44
 70
     1
102
RTVSPost2010Prop45
280
     0
102
RTVSPost2010PropOp45
 70
     1
102
RTVSPost2010Prop46
 90
       50
102
RTVSPost2010PropOp46
 70
     1
102
RTVSPost2010Prop47
 90
       50
102
RTVSPost2010PropOp47
 70
     1
102
RTVSPost2010Prop48
 90
       50
102
RTVSPost2010PropOp48
 70
     1
102
RTVSPost2010Prop49
280
     0
102
RTVSPost2010PropOp49
 70
     1
102
RTVSPost2010Prop50
 90
       50
102
RTVSPost2010PropOp50
 70
     1
102
RTVSPost2010Prop51ColorIndex
 90
      256
102
RTVSPost2010Prop51ColorRGB
 90
-16777216
102
RTVSPost2010PropOp51
 70
     0
102
RTVSPost2010Prop52
140
1.0
102
RTVSPost2010PropOp52
 70
     0
102
RTVSPost2010Prop53
 90
        2
102
RTVSPost2010PropOp53
 70
     1
102
RTVSPost2010Prop54
  1
strokes_ogs.tif
102
RTVSPost2010PropOp54
 70
     1
102
RTVSPost2010Prop55
280
     0
102
RTVSPost2010PropOp55
 70
     1
102
RTVSPost2010Prop56
140
1.0
102
RTVSPost2010PropOp56
 70
     1
102
RTVSPost2010Prop57
140
1.0
102
RTVSPost2010PropOp57
 70
     1
  0
XRECORD
  5
13E
102
{ACAD_REACTORS
330
13D
102
}
330
13D
100
AcDbXrecord
280
     1
102
RTVSPost2010Prop28
280
     0
102
RTVSPost2010PropOp28
 70
     0
102
RTVSPost2010Prop29
280
     1
102
RTVSPost2010PropOp29
 70
     0
102
RTVSPost2010Prop30
280
     1
102
RTVSPost2010PropOp30
 70
     0
102
RTVSPost2010Prop31
280
     0
102
RTVSPost2010PropOp31
 70
     0
102
RTVSPost2010Prop32
280
     0
102
RTVSPost2010PropOp32
 70
     0
102
RTVSPost2010Prop33
280
     0
102
RTVSPost2010PropOp33
 70
     0
102
RTVSPost2010Prop34
280
     0
102
RTVSPost2010PropOp34
 70
     0
102
RTVSPost2010Prop35
280
     0
102
RTVSPost2010PropOp35
 70
     0
102
RTVSPost2010Prop36
280
     0
102
RTVSPost2010PropOp36
 70
     0
102
RTVSPost2010Prop37
 90
       50
102
RTVSPost2010PropOp37
 70
     0
102
RTVSPost2010Prop38
140
0.0
102
RTVSPost2010PropOp38
 70
     0
102
RTVSPost2010Prop39
140
1.0
102
RTVSPost2010PropOp39
 70
     0
102
RTVSPost2010Prop40
 90
        0
102
RTVSPost2010PropOp40
 70
     0
102
RTVSPost2010Prop41ColorIndex
 90
       18
102
RTVSPost2010Prop41ColorRGB
 90
        0
102
RTVSPost2010PropOp41
 70
     0
102
RTVSPost2010Prop42
 90
       50
102
RTVSPost2010PropOp42
 70
     0
102
RTVSPost2010Prop43
 90
        3
102
RTVSPost2010PropOp43
 70
     0
102
RTVSPost2010Prop44ColorIndex
 90
        5
102
RTVSPost2010Prop44ColorRGB
 90
      255
102
RTVSPost2010PropOp44
 70
     0
102
RTVSPost2010Prop45
280
     0
102
RTVSPost2010PropOp45
 70
     0
102
RTVSPost2010Prop46
 90
       50
102
RTVSPost2010PropOp46
 70
     0
102
RTVSPost2010Prop47
 90
       50
102
RTVSPost2010PropOp47
 70
     0
102
RTVSPost2010Prop48
 90
       50
102
RTVSPost2010PropOp48
 70
     0
102
RTVSPost2010Prop49
280
     0
102
RTVSPost2010PropOp49
 70
     0
102
RTVSPost2010Prop50
 90
       50
102
RTVSPost2010PropOp50
 70
     0
102
RTVSPost2010Prop51ColorIndex
 90
      256
102
RTVSPost2010Prop51ColorRGB
 90
-16777216
102
RTVSPost2010PropOp51
 70
     0
102
RTVSPost2010Prop52
140
1.0
102
RTVSPost2010PropOp52
 70
     0
102
RTVSPost2010Prop53
 90
        2
102
RTVSPost2010PropOp53
 70
     0
102
RTVSPost2010Prop54
  1
strokes_ogs.tif
102
RTVSPost2010PropOp54
 70
     0
102
RTVSPost2010Prop55
280
     0
102
RTVSPost2010PropOp55
 70
     0
102
RTVSPost2010Prop56
140
1.0
102
RTVSPost2010PropOp56
 70
     0
102
RTVSPost2010Prop57
140
1.0
102
RTVSPost2010PropOp57
 70
     0
  0
XRECORD
  5
12E
102
{ACAD_REACTORS
330
12D
102
}
330
12D
100
AcDbXrecord
280
     1
102
RTVSPost2010Prop28
280
     0
102
RTVSPost2010PropOp28
 70
     1
102
RTVSPost2010Prop29
280
     1
102
RTVSPost2010PropOp29
 70
     1
102
RTVSPost2010Prop30
280
     1
102
RTVSPost2010PropOp30
 70
     1
102
RTVSPost2010Prop31
280
     0
102
RTVSPost2010PropOp31
 70
     1
102
RTVSPost2010Prop32
280
     0
102
RTVSPost2010PropOp32
 70
     1
102
RTVSPost2010Prop33
280
     0
102
RTVSPost2010PropOp33
 70
     1
102
RTVSPost2010Prop34
280
     0
102
RTVSPost2010PropOp34
 70
     1
102
RTVSPost2010Prop35
280
     0
102
RTVSPost2010PropOp35
 70
     1
102
RTVSPost2010Prop36
280
     0
102
RTVSPost2010PropOp36
 70
     1
102
RTVSPost2010Prop37
 90
       50
102
RTVSPost2010PropOp37
 70
     1
102
RTVSPost2010Prop38
140
0.0
102
RTVSPost2010PropOp38
 70
     1
102
RTVSPost2010Prop39
140
1.0
102
RTVSPost2010PropOp39
 70
     1
102
RTVSPost2010Prop40
 90
        0
102
RTVSPost2010PropOp40
 70
     1
102
RTVSPost2010Prop41ColorIndex
 90
       18
102
RTVSPost2010Prop41ColorRGB
 90
        0
102
RTVSPost2010PropOp41
 70
     1
102
RTVSPost2010Prop42
 90
       50
102
RTVSPost2010PropOp42
 70
     1
102
RTVSPost2010Prop43
 90
        3
102
RTVSPost2010PropOp43
 70
     1
102
RTVSPost2010Prop44ColorIndex
 90
        5
102
RTVSPost2010Prop44ColorRGB
 90
      255
102
RTVSPost2010PropOp44
 70
     1
102
RTVSPost2010Prop45
280
     0
102
RTVSPost2010PropOp45
 70
     1
102
RTVSPost2010Prop46
 90
       50
102
RTVSPost2010PropOp46
 70
     1
102
RTVSPost2010Prop47
 90
       50
102
RTVSPost2010PropOp47
 70
     1
102
RTVSPost2010Prop48
 90
       50
102
RTVSPost2010PropOp48
 70
     1
102
RTVSPost2010Prop49
280
     0
102
RTVSPost2010PropOp49
 70
     1
102
RTVSPost2010Prop50
 90
       50
102
RTVSPost2010PropOp50
 70
     1
102
RTVSPost2010Prop51ColorIndex
 90
      256
102
RTVSPost2010Prop51ColorRGB
 90
-16777216
102
RTVSPost2010PropOp51
 70
     0
102
RTVSPost2010Prop52
140
1.0
102
RTVSPost2010PropOp52
 70
     0
102
RTVSPost2010Prop53
 90
        2
102
RTVSPost2010PropOp53
 70
     1
102
RTVSPost2010Prop54
  1
strokes_ogs.tif
102
RTVSPost2010PropOp54
 70
     1
102
RTVSPost2010Prop55
280
     0
102
RTVSPost2010PropOp55
 70
     1
102
RTVSPost2010Prop56
140
1.0
102
RTVSPost2010PropOp56
 70
     1
102
RTVSPost2010Prop57
140
1.0
102
RTVSPost2010PropOp57
 70
     1
  0
XRECORD
  5
140
102
{ACAD_REACTORS
330
13F
102
}
330
13F
100
AcDbXrecord
280
     1
102
RTVSPost2010Prop28
280
     0
102
RTVSPost2010PropOp28
 70
     0
102
RTVSPost2010Prop29
280
     1
102
RTVSPost2010PropOp29
 70
     0
102
RTVSPost2010Prop30
280
     1
102
RTVSPost2010PropOp30
 70
     0
102
RTVSPost2010Prop31
280
     0
102
RTVSPost2010PropOp31
 70
     0
102
RTVSPost2010Prop32
280
     0
102
RTVSPost2010PropOp32
 70
     0
102
RTVSPost2010Prop33
280
     0
102
RTVSPost2010PropOp33
 70
     0
102
RTVSPost2010Prop34
280
     0
102
RTVSPost2010PropOp34
 70
     0
102
RTVSPost2010Prop35
280
     0
102
RTVSPost2010PropOp35
 70
     0
102
RTVSPost2010Prop36
280
     0
102
RTVSPost2010PropOp36
 70
     0
102
RTVSPost2010Prop37
 90
       50
102
RTVSPost2010PropOp37
 70
     0
102
RTVSPost2010Prop38
140
0.0
102
RTVSPost2010PropOp38
 70
     0
102
RTVSPost2010Prop39
140
1.0
102
RTVSPost2010PropOp39
 70
     0
102
RTVSPost2010Prop40
 90
        0
102
RTVSPost2010PropOp40
 70
     0
102
RTVSPost2010Prop41ColorIndex
 90
       18
102
RTVSPost2010Prop41ColorRGB
 90
        0
102
RTVSPost2010PropOp41
 70
     0
102
RTVSPost2010Prop42
 90
       50
102
RTVSPost2010PropOp42
 70
     0
102
RTVSPost2010Prop43
 90
        3
102
RTVSPost2010PropOp43
 70
     0
102
RTVSPost2010Prop44ColorIndex
 90
        5
102
RTVSPost2010Prop44ColorRGB
 90
      255
102
RTVSPost2010PropOp44
 70
     0
102
RTVSPost2010Prop45
280
     0
102
RTVSPost2010PropOp45
 70
     0
102
RTVSPost2010Prop46
 90
       50
102
RTVSPost2010PropOp46
 70
     0
102
RTVSPost2010Prop47
 90
       50
102
RTVSPost2010PropOp47
 70
     0
102
RTVSPost2010Prop48
 90
       50
102
RTVSPost2010PropOp48
 70
     0
102
RTVSPost2010Prop49
280
     0
102
RTVSPost2010PropOp49
 70
     0
102
RTVSPost2010Prop50
 90
       50
102
RTVSPost2010PropOp50
 70
     0
102
RTVSPost2010Prop51ColorIndex
 90
      256
102
RTVSPost2010Prop51ColorRGB
 90
-16777216
102
RTVSPost2010PropOp51
 70
     0
102
RTVSPost2010Prop52
140
1.0
102
RTVSPost2010PropOp52
 70
     0
102
RTVSPost2010Prop53
 90
        2
102
RTVSPost2010PropOp53
 70
     0
102
RTVSPost2010Prop54
  1
strokes_ogs.tif
102
RTVSPost2010PropOp54
 70
     0
102
RTVSPost2010Prop55
280
     0
102
RTVSPost2010PropOp55
 70
     0
102
RTVSPost2010Prop56
140
1.0
102
RTVSPost2010PropOp56
 70
     0
102
RTVSPost2010Prop57
140
1.0
102
RTVSPost2010PropOp57
 70
     0
  0
XRECORD
  5
126
102
{ACAD_REACTORS
330
125
102
}
330
125
100
AcDbXrecord
280
     1
102
RTVSPost2010Prop28
280
     0
102
RTVSPost2010PropOp28
 70
     1
102
RTVSPost2010Prop29
280
     1
102
RTVSPost2010PropOp29
 70
     1
102
RTVSPost2010Prop30
280
     1
102
RTVSPost2010PropOp30
 70
     1
102
RTVSPost2010Prop31
280
     0
102
RTVSPost2010PropOp31
 70
     1
102
RTVSPost2010Prop32
280
     0
102
RTVSPost2010PropOp32
 70
     1
102
RTVSPost2010Prop33
280
     0
102
RTVSPost2010PropOp33
 70
     1
102
RTVSPost2010Prop34
280
     0
102
RTVSPost2010PropOp34
 70
     1
102
RTVSPost2010Prop35
280
     0
102
RTVSPost2010PropOp35
 70
     1
102
RTVSPost2010Prop36
280
     0
102
RTVSPost2010PropOp36
 70
     1
102
RTVSPost2010Prop37
 90
       50
102
RTVSPost2010PropOp37
 70
     1
102
RTVSPost2010Prop38
140
0.0
102
RTVSPost2010PropOp38
 70
     1
102
RTVSPost2010Prop39
140
1.0
102
RTVSPost2010PropOp39
 70
     1
102
RTVSPost2010Prop40
 90
        0
102
RTVSPost2010PropOp40
 70
     1
102
RTVSPost2010Prop41ColorIndex
 90
       18
102
RTVSPost2010Prop41ColorRGB
 90
        0
102
RTVSPost2010PropOp41
 70
     1
102
RTVSPost2010Prop42
 90
       50
102
RTVSPost2010PropOp42
 70
     1
102
RTVSPost2010Prop43
 90
        3
102
RTVSPost2010PropOp43
 70
     1
102
RTVSPost2010Prop44ColorIndex
 90
        5
102
RTVSPost2010Prop44ColorRGB
 90
      255
102
RTVSPost2010PropOp44
 70
     1
102
RTVSPost2010Prop45
280
     0
102
RTVSPost2010PropOp45
 70
     1
102
RTVSPost2010Prop46
 90
       50
102
RTVSPost2010PropOp46
 70
     1
102
RTVSPost2010Prop47
 90
       50
102
RTVSPost2010PropOp47
 70
     1
102
RTVSPost2010Prop48
 90
       50
102
RTVSPost2010PropOp48
 70
     1
102
RTVSPost2010Prop49
280
     0
102
RTVSPost2010PropOp49
 70
     1
102
RTVSPost2010Prop50
 90
       50
102
RTVSPost2010PropOp50
 70
     1
102
RTVSPost2010Prop51ColorIndex
 90
      256
102
RTVSPost2010Prop51ColorRGB
 90
-16777216
102
RTVSPost2010PropOp51
 70
     0
102
RTVSPost2010Prop52
140
1.0
102
RTVSPost2010PropOp52
 70
     0
102
RTVSPost2010Prop53
 90
        2
102
RTVSPost2010PropOp53
 70
     1
102
RTVSPost2010Prop54
  1
strokes_ogs.tif
102
RTVSPost2010PropOp54
 70
     1
102
RTVSPost2010Prop55
280
     0
102
RTVSPost2010PropOp55
 70
     1
102
RTVSPost2010Prop56
140
1.0
102
RTVSPost2010PropOp56
 70
     1
102
RTVSPost2010Prop57
140
1.0
102
RTVSPost2010PropOp57
 70
     1
  0
XRECORD
  5
13C
102
{ACAD_REACTORS
330
13B
102
}
330
13B
100
AcDbXrecord
280
     1
102
RTVSPost2010Prop28
280
     0
102
RTVSPost2010PropOp28
 70
     1
102
RTVSPost2010Prop29
280
     1
102
RTVSPost2010PropOp29
 70
     1
102
RTVSPost2010Prop30
280
     1
102
RTVSPost2010PropOp30
 70
     1
102
RTVSPost2010Prop31
280
     0
102
RTVSPost2010PropOp31
 70
     1
102
RTVSPost2010Prop32
280
     0
102
RTVSPost2010PropOp32
 70
     1
102
RTVSPost2010Prop33
280
     0
102
RTVSPost2010PropOp33
 70
     1
102
RTVSPost2010Prop34
280
     0
102
RTVSPost2010PropOp34
 70
     1
102
RTVSPost2010Prop35
280
     0
102
RTVSPost2010PropOp35
 70
     1
102
RTVSPost2010Prop36
280
     0
102
RTVSPost2010PropOp36
 70
     1
102
RTVSPost2010Prop37
 90
       50
102
RTVSPost2010PropOp37
 70
     1
102
RTVSPost2010Prop38
140
0.0
102
RTVSPost2010PropOp38
 70
     1
102
RTVSPost2010Prop39
140
1.0
102
RTVSPost2010PropOp39
 70
     1
102
RTVSPost2010Prop40
 90
        0
102
RTVSPost2010PropOp40
 70
     1
102
RTVSPost2010Prop41ColorIndex
 90
       18
102
RTVSPost2010Prop41ColorRGB
 90
        0
102
RTVSPost2010PropOp41
 70
     1
102
RTVSPost2010Prop42
 90
       50
102
RTVSPost2010PropOp42
 70
     1
102
RTVSPost2010Prop43
 90
        3
102
RTVSPost2010PropOp43
 70
     1
102
RTVSPost2010Prop44ColorIndex
 90
        5
102
RTVSPost2010Prop44ColorRGB
 90
      255
102
RTVSPost2010PropOp44
 70
     1
102
RTVSPost2010Prop45
280
     0
102
RTVSPost2010PropOp45
 70
     1
102
RTVSPost2010Prop46
 90
       50
102
RTVSPost2010PropOp46
 70
     1
102
RTVSPost2010Prop47
 90
       50
102
RTVSPost2010PropOp47
 70
     1
102
RTVSPost2010Prop48
 90
       50
102
RTVSPost2010PropOp48
 70
     1
102
RTVSPost2010Prop49
280
     0
102
RTVSPost2010PropOp49
 70
     1
102
RTVSPost2010Prop50
 90
       50
102
RTVSPost2010PropOp50
 70
     1
102
RTVSPost2010Prop51ColorIndex
 90
      256
102
RTVSPost2010Prop51ColorRGB
 90
-16777216
102
RTVSPost2010PropOp51
 70
     0
102
RTVSPost2010Prop52
140
1.0
102
RTVSPost2010PropOp52
 70
     0
102
RTVSPost2010Prop53
 90
        2
102
RTVSPost2010PropOp53
 70
     1
102
RTVSPost2010Prop54
  1
strokes_ogs.tif
102
RTVSPost2010PropOp54
 70
     1
102
RTVSPost2010Prop55
280
     0
102
RTVSPost2010PropOp55
 70
     1
102
RTVSPost2010Prop56
140
1.0
102
RTVSPost2010PropOp56
 70
     1
102
RTVSPost2010Prop57
140
1.0
102
RTVSPost2010PropOp57
 70
     1
  0
XRECORD
  5
13A
102
{ACAD_REACTORS
330
139
102
}
330
139
100
AcDbXrecord
280
     1
102
RTVSPost2010Prop28
280
     0
102
RTVSPost2010PropOp28
 70
     1
102
RTVSPost2010Prop29
280
     1
102
RTVSPost2010PropOp29
 70
     1
102
RTVSPost2010Prop30
280
     1
102
RTVSPost2010PropOp30
 70
     1
102
RTVSPost2010Prop31
280
     0
102
RTVSPost2010PropOp31
 70
     1
102
RTVSPost2010Prop32
280
     0
102
RTVSPost2010PropOp32
 70
     1
102
RTVSPost2010Prop33
280
     0
102
RTVSPost2010PropOp33
 70
     1
102
RTVSPost2010Prop34
280
     0
102
RTVSPost2010PropOp34
 70
     1
102
RTVSPost2010Prop35
280
     0
102
RTVSPost2010PropOp35
 70
     1
102
RTVSPost2010Prop36
280
     0
102
RTVSPost2010PropOp36
 70
     1
102
RTVSPost2010Prop37
 90
       50
102
RTVSPost2010PropOp37
 70
     1
102
RTVSPost2010Prop38
140
0.0
102
RTVSPost2010PropOp38
 70
     1
102
RTVSPost2010Prop39
140
1.0
102
RTVSPost2010PropOp39
 70
     1
102
RTVSPost2010Prop40
 90
        0
102
RTVSPost2010PropOp40
 70
     1
102
RTVSPost2010Prop41ColorIndex
 90
       18
102
RTVSPost2010Prop41ColorRGB
 90
        0
102
RTVSPost2010PropOp41
 70
     1
102
RTVSPost2010Prop42
 90
       50
102
RTVSPost2010PropOp42
 70
     1
102
RTVSPost2010Prop43
 90
        3
102
RTVSPost2010PropOp43
 70
     1
102
RTVSPost2010Prop44ColorIndex
 90
        5
102
RTVSPost2010Prop44ColorRGB
 90
      255
102
RTVSPost2010PropOp44
 70
     1
102
RTVSPost2010Prop45
280
     0
102
RTVSPost2010PropOp45
 70
     1
102
RTVSPost2010Prop46
 90
       50
102
RTVSPost2010PropOp46
 70
     1
102
RTVSPost2010Prop47
 90
       50
102
RTVSPost2010PropOp47
 70
     1
102
RTVSPost2010Prop48
 90
       50
102
RTVSPost2010PropOp48
 70
     1
102
RTVSPost2010Prop49
280
     0
102
RTVSPost2010PropOp49
 70
     1
102
RTVSPost2010Prop50
 90
       50
102
RTVSPost2010PropOp50
 70
     1
102
RTVSPost2010Prop51ColorIndex
 90
      256
102
RTVSPost2010Prop51ColorRGB
 90
-16777216
102
RTVSPost2010PropOp51
 70
     0
102
RTVSPost2010Prop52
140
1.0
102
RTVSPost2010PropOp52
 70
     0
102
RTVSPost2010Prop53
 90
        2
102
RTVSPost2010PropOp53
 70
     1
102
RTVSPost2010Prop54
  1
strokes_ogs.tif
102
RTVSPost2010PropOp54
 70
     1
102
RTVSPost2010Prop55
280
     0
102
RTVSPost2010PropOp55
 70
     1
102
RTVSPost2010Prop56
140
1.0
102
RTVSPost2010PropOp56
 70
     1
102
RTVSPost2010Prop57
140
1.0
102
RTVSPost2010PropOp57
 70
     1
  0
XRECORD
  5
134
102
{ACAD_REACTORS
330
133
102
}
330
133
100
AcDbXrecord
280
     1
102
RTVSPost2010Prop28
280
     0
102
RTVSPost2010PropOp28
 70
     1
102
RTVSPost2010Prop29
280
     1
102
RTVSPost2010PropOp29
 70
     1
102
RTVSPost2010Prop30
280
     1
102
RTVSPost2010PropOp30
 70
     1
102
RTVSPost2010Prop31
280
     0
102
RTVSPost2010PropOp31
 70
     1
102
RTVSPost2010Prop32
280
     0
102
RTVSPost2010PropOp32
 70
     1
102
RTVSPost2010Prop33
280
     0
102
RTVSPost2010PropOp33
 70
     1
102
RTVSPost2010Prop34
280
     0
102
RTVSPost2010PropOp34
 70
     1
102
RTVSPost2010Prop35
280
     0
102
RTVSPost2010PropOp35
 70
     1
102
RTVSPost2010Prop36
280
     0
102
RTVSPost2010PropOp36
 70
     1
102
RTVSPost2010Prop37
 90
       50
102
RTVSPost2010PropOp37
 70
     1
102
RTVSPost2010Prop38
140
0.0
102
RTVSPost2010PropOp38
 70
     1
102
RTVSPost2010Prop39
140
1.0
102
RTVSPost2010PropOp39
 70
     1
102
RTVSPost2010Prop40
 90
        0
102
RTVSPost2010PropOp40
 70
     1
102
RTVSPost2010Prop41ColorIndex
 90
       18
102
RTVSPost2010Prop41ColorRGB
 90
        0
102
RTVSPost2010PropOp41
 70
     1
102
RTVSPost2010Prop42
 90
       50
102
RTVSPost2010PropOp42
 70
     1
102
RTVSPost2010Prop43
 90
        3
102
RTVSPost2010PropOp43
 70
     1
102
RTVSPost2010Prop44ColorIndex
 90
        5
102
RTVSPost2010Prop44ColorRGB
 90
      255
102
RTVSPost2010PropOp44
 70
     1
102
RTVSPost2010Prop45
280
     0
102
RTVSPost2010PropOp45
 70
     1
102
RTVSPost2010Prop46
 90
       50
102
RTVSPost2010PropOp46
 70
     1
102
RTVSPost2010Prop47
 90
       50
102
RTVSPost2010PropOp47
 70
     1
102
RTVSPost2010Prop48
 90
       50
102
RTVSPost2010PropOp48
 70
     1
102
RTVSPost2010Prop49
280
     0
102
RTVSPost2010PropOp49
 70
     1
102
RTVSPost2010Prop50
 90
       50
102
RTVSPost2010PropOp50
 70
     1
102
RTVSPost2010Prop51ColorIndex
 90
      256
102
RTVSPost2010Prop51ColorRGB
 90
-16777216
102
RTVSPost2010PropOp51
 70
     0
102
RTVSPost2010Prop52
140
1.0
102
RTVSPost2010PropOp52
 70
     0
102
RTVSPost2010Prop53
 90
        2
102
RTVSPost2010PropOp53
 70
     1
102
RTVSPost2010Prop54
  1
strokes_ogs.tif
102
RTVSPost2010PropOp54
 70
     1
102
RTVSPost2010Prop55
280
     0
102
RTVSPost2010PropOp55
 70
     1
102
RTVSPost2010Prop56
140
1.0
102
RTVSPost2010PropOp56
 70
     1
102
RTVSPost2010Prop57
140
1.0
102
RTVSPost2010PropOp57
 70
     1
  0
XRECORD
  5
136
102
{ACAD_REACTORS
330
135
102
}
330
135
100
AcDbXrecord
280
     1
102
RTVSPost2010Prop28
280
     0
102
RTVSPost2010PropOp28
 70
     1
102
RTVSPost2010Prop29
280
     1
102
RTVSPost2010PropOp29
 70
     1
102
RTVSPost2010Prop30
280
     1
102
RTVSPost2010PropOp30
 70
     1
102
RTVSPost2010Prop31
280
     0
102
RTVSPost2010PropOp31
 70
     1
102
RTVSPost2010Prop32
280
     0
102
RTVSPost2010PropOp32
 70
     1
102
RTVSPost2010Prop33
280
     0
102
RTVSPost2010PropOp33
 70
     1
102
RTVSPost2010Prop34
280
     0
102
RTVSPost2010PropOp34
 70
     1
102
RTVSPost2010Prop35
280
     0
102
RTVSPost2010PropOp35
 70
     1
102
RTVSPost2010Prop36
280
     0
102
RTVSPost2010PropOp36
 70
     1
102
RTVSPost2010Prop37
 90
       50
102
RTVSPost2010PropOp37
 70
     1
102
RTVSPost2010Prop38
140
0.0
102
RTVSPost2010PropOp38
 70
     1
102
RTVSPost2010Prop39
140
1.0
102
RTVSPost2010PropOp39
 70
     1
102
RTVSPost2010Prop40
 90
        0
102
RTVSPost2010PropOp40
 70
     1
102
RTVSPost2010Prop41ColorIndex
 90
       18
102
RTVSPost2010Prop41ColorRGB
 90
        0
102
RTVSPost2010PropOp41
 70
     1
102
RTVSPost2010Prop42
 90
       50
102
RTVSPost2010PropOp42
 70
     1
102
RTVSPost2010Prop43
 90
        3
102
RTVSPost2010PropOp43
 70
     1
102
RTVSPost2010Prop44ColorIndex
 90
        5
102
RTVSPost2010Prop44ColorRGB
 90
      255
102
RTVSPost2010PropOp44
 70
     1
102
RTVSPost2010Prop45
280
     0
102
RTVSPost2010PropOp45
 70
     1
102
RTVSPost2010Prop46
 90
       50
102
RTVSPost2010PropOp46
 70
     1
102
RTVSPost2010Prop47
 90
       50
102
RTVSPost2010PropOp47
 70
     1
102
RTVSPost2010Prop48
 90
       50
102
RTVSPost2010PropOp48
 70
     1
102
RTVSPost2010Prop49
280
     0
102
RTVSPost2010PropOp49
 70
     1
102
RTVSPost2010Prop50
 90
       50
102
RTVSPost2010PropOp50
 70
     1
102
RTVSPost2010Prop51ColorIndex
 90
      256
102
RTVSPost2010Prop51ColorRGB
 90
-16777216
102
RTVSPost2010PropOp51
 70
     0
102
RTVSPost2010Prop52
140
1.0
102
RTVSPost2010PropOp52
 70
     0
102
RTVSPost2010Prop53
 90
        2
102
RTVSPost2010PropOp53
 70
     1
102
RTVSPost2010Prop54
  1
strokes_ogs.tif
102
RTVSPost2010PropOp54
 70
     1
102
RTVSPost2010Prop55
280
     0
102
RTVSPost2010PropOp55
 70
     1
102
RTVSPost2010Prop56
140
1.0
102
RTVSPost2010PropOp56
 70
     1
102
RTVSPost2010Prop57
140
1.0
102
RTVSPost2010PropOp57
 70
     1
  0
XRECORD
  5
12C
102
{ACAD_REACTORS
330
12B
102
}
330
12B
100
AcDbXrecord
280
     1
102
RTVSPost2010Prop28
280
     0
102
RTVSPost2010PropOp28
 70
     1
102
RTVSPost2010Prop29
280
     1
102
RTVSPost2010PropOp29
 70
     1
102
RTVSPost2010Prop30
280
     1
102
RTVSPost2010PropOp30
 70
     1
102
RTVSPost2010Prop31
280
     0
102
RTVSPost2010PropOp31
 70
     1
102
RTVSPost2010Prop32
280
     0
102
RTVSPost2010PropOp32
 70
     1
102
RTVSPost2010Prop33
280
     0
102
RTVSPost2010PropOp33
 70
     1
102
RTVSPost2010Prop34
280
     0
102
RTVSPost2010PropOp34
 70
     1
102
RTVSPost2010Prop35
280
     0
102
RTVSPost2010PropOp35
 70
     1
102
RTVSPost2010Prop36
280
     0
102
RTVSPost2010PropOp36
 70
     1
102
RTVSPost2010Prop37
 90
       50
102
RTVSPost2010PropOp37
 70
     1
102
RTVSPost2010Prop38
140
0.0
102
RTVSPost2010PropOp38
 70
     1
102
RTVSPost2010Prop39
140
1.0
102
RTVSPost2010PropOp39
 70
     1
102
RTVSPost2010Prop40
 90
        0
102
RTVSPost2010PropOp40
 70
     1
102
RTVSPost2010Prop41ColorIndex
 90
       18
102
RTVSPost2010Prop41ColorRGB
 90
        0
102
RTVSPost2010PropOp41
 70
     1
102
RTVSPost2010Prop42
 90
       50
102
RTVSPost2010PropOp42
 70
     1
102
RTVSPost2010Prop43
 90
        3
102
RTVSPost2010PropOp43
 70
     1
102
RTVSPost2010Prop44ColorIndex
 90
        5
102
RTVSPost2010Prop44ColorRGB
 90
      255
102
RTVSPost2010PropOp44
 70
     1
102
RTVSPost2010Prop45
280
     0
102
RTVSPost2010PropOp45
 70
     1
102
RTVSPost2010Prop46
 90
       50
102
RTVSPost2010PropOp46
 70
     1
102
RTVSPost2010Prop47
 90
       50
102
RTVSPost2010PropOp47
 70
     1
102
RTVSPost2010Prop48
 90
       50
102
RTVSPost2010PropOp48
 70
     1
102
RTVSPost2010Prop49
280
     0
102
RTVSPost2010PropOp49
 70
     1
102
RTVSPost2010Prop50
 90
       50
102
RTVSPost2010PropOp50
 70
     1
102
RTVSPost2010Prop51ColorIndex
 90
      256
102
RTVSPost2010Prop51ColorRGB
 90
-16777216
102
RTVSPost2010PropOp51
 70
     0
102
RTVSPost2010Prop52
140
1.0
102
RTVSPost2010PropOp52
 70
     0
102
RTVSPost2010Prop53
 90
        2
102
RTVSPost2010PropOp53
 70
     1
102
RTVSPost2010Prop54
  1
strokes_ogs.tif
102
RTVSPost2010PropOp54
 70
     1
102
RTVSPost2010Prop55
280
     0
102
RTVSPost2010PropOp55
 70
     1
102
RTVSPost2010Prop56
140
1.0
102
RTVSPost2010PropOp56
 70
     1
102
RTVSPost2010Prop57
140
1.0
102
RTVSPost2010PropOp57
 70
     1
  0
XRECORD
  5
120
102
{ACAD_REACTORS
330
11F
102
}
330
11F
100
AcDbXrecord
280
     1
102
RTVSPost2010Prop28
280
     0
102
RTVSPost2010PropOp28
 70
     1
102
RTVSPost2010Prop29
280
     1
102
RTVSPost2010PropOp29
 70
     1
102
RTVSPost2010Prop30
280
     1
102
RTVSPost2010PropOp30
 70
     1
102
RTVSPost2010Prop31
280
     0
102
RTVSPost2010PropOp31
 70
     1
102
RTVSPost2010Prop32
280
     0
102
RTVSPost2010PropOp32
 70
     1
102
RTVSPost2010Prop33
280
     0
102
RTVSPost2010PropOp33
 70
     1
102
RTVSPost2010Prop34
280
     0
102
RTVSPost2010PropOp34
 70
     1
102
RTVSPost2010Prop35
280
     0
102
RTVSPost2010PropOp35
 70
     1
102
RTVSPost2010Prop36
280
     0
102
RTVSPost2010PropOp36
 70
     1
102
RTVSPost2010Prop37
 90
       50
102
RTVSPost2010PropOp37
 70
     1
102
RTVSPost2010Prop38
140
0.0
102
RTVSPost2010PropOp38
 70
     1
102
RTVSPost2010Prop39
140
1.0
102
RTVSPost2010PropOp39
 70
     1
102
RTVSPost2010Prop40
 90
        0
102
RTVSPost2010PropOp40
 70
     1
102
RTVSPost2010Prop41ColorIndex
 90
       18
102
RTVSPost2010Prop41ColorRGB
 90
        0
102
RTVSPost2010PropOp41
 70
     1
102
RTVSPost2010Prop42
 90
       50
102
RTVSPost2010PropOp42
 70
     1
102
RTVSPost2010Prop43
 90
        3
102
RTVSPost2010PropOp43
 70
     1
102
RTVSPost2010Prop44ColorIndex
 90
        5
102
RTVSPost2010Prop44ColorRGB
 90
      255
102
RTVSPost2010PropOp44
 70
     1
102
RTVSPost2010Prop45
280
     0
102
RTVSPost2010PropOp45
 70
     1
102
RTVSPost2010Prop46
 90
       50
102
RTVSPost2010PropOp46
 70
     1
102
RTVSPost2010Prop47
 90
       50
102
RTVSPost2010PropOp47
 70
     1
102
RTVSPost2010Prop48
 90
       50
102
RTVSPost2010PropOp48
 70
     1
102
RTVSPost2010Prop49
280
     0
102
RTVSPost2010PropOp49
 70
     1
102
RTVSPost2010Prop50
 90
       50
102
RTVSPost2010PropOp50
 70
     1
102
RTVSPost2010Prop51ColorIndex
 90
      256
102
RTVSPost2010Prop51ColorRGB
 90
-16777216
102
RTVSPost2010PropOp51
 70
     0
102
RTVSPost2010Prop52
140
1.0
102
RTVSPost2010PropOp52
 70
     0
102
RTVSPost2010Prop53
 90
        2
102
RTVSPost2010PropOp53
 70
     1
102
RTVSPost2010Prop54
  1
strokes_ogs.tif
102
RTVSPost2010PropOp54
 70
     1
102
RTVSPost2010Prop55
280
     0
102
RTVSPost2010PropOp55
 70
     1
102
RTVSPost2010Prop56
140
1.0
102
RTVSPost2010PropOp56
 70
     1
102
RTVSPost2010Prop57
140
1.0
102
RTVSPost2010PropOp57
 70
     1
  0
XRECORD
  5
138
102
{ACAD_REACTORS
330
137
102
}
330
137
100
AcDbXrecord
280
     1
102
RTVSPost2010Prop28
280
     0
102
RTVSPost2010PropOp28
 70
     1
102
RTVSPost2010Prop29
280
     1
102
RTVSPost2010PropOp29
 70
     1
102
RTVSPost2010Prop30
280
     1
102
RTVSPost2010PropOp30
 70
     1
102
RTVSPost2010Prop31
280
     0
102
RTVSPost2010PropOp31
 70
     1
102
RTVSPost2010Prop32
280
     0
102
RTVSPost2010PropOp32
 70
     1
102
RTVSPost2010Prop33
280
     0
102
RTVSPost2010PropOp33
 70
     1
102
RTVSPost2010Prop34
280
     0
102
RTVSPost2010PropOp34
 70
     1
102
RTVSPost2010Prop35
280
     0
102
RTVSPost2010PropOp35
 70
     1
102
RTVSPost2010Prop36
280
     0
102
RTVSPost2010PropOp36
 70
     1
102
RTVSPost2010Prop37
 90
       50
102
RTVSPost2010PropOp37
 70
     1
102
RTVSPost2010Prop38
140
0.0
102
RTVSPost2010PropOp38
 70
     1
102
RTVSPost2010Prop39
140
1.0
102
RTVSPost2010PropOp39
 70
     1
102
RTVSPost2010Prop40
 90
        0
102
RTVSPost2010PropOp40
 70
     1
102
RTVSPost2010Prop41ColorIndex
 90
       18
102
RTVSPost2010Prop41ColorRGB
 90
        0
102
RTVSPost2010PropOp41
 70
     1
102
RTVSPost2010Prop42
 90
       50
102
RTVSPost2010PropOp42
 70
     1
102
RTVSPost2010Prop43
 90
        3
102
RTVSPost2010PropOp43
 70
     1
102
RTVSPost2010Prop44ColorIndex
 90
        5
102
RTVSPost2010Prop44ColorRGB
 90
      255
102
RTVSPost2010PropOp44
 70
     1
102
RTVSPost2010Prop45
280
     0
102
RTVSPost2010PropOp45
 70
     1
102
RTVSPost2010Prop46
 90
       50
102
RTVSPost2010PropOp46
 70
     1
102
RTVSPost2010Prop47
 90
       50
102
RTVSPost2010PropOp47
 70
     1
102
RTVSPost2010Prop48
 90
       50
102
RTVSPost2010PropOp48
 70
     1
102
RTVSPost2010Prop49
280
     0
102
RTVSPost2010PropOp49
 70
     1
102
RTVSPost2010Prop50
 90
       50
102
RTVSPost2010PropOp50
 70
     1
102
RTVSPost2010Prop51ColorIndex
 90
      256
102
RTVSPost2010Prop51ColorRGB
 90
-16777216
102
RTVSPost2010PropOp51
 70
     0
102
RTVSPost2010Prop52
140
1.0
102
RTVSPost2010PropOp52
 70
     0
102
RTVSPost2010Prop53
 90
        2
102
RTVSPost2010PropOp53
 70
     1
102
RTVSPost2010Prop54
  1
strokes_ogs.tif
102
RTVSPost2010PropOp54
 70
     1
102
RTVSPost2010Prop55
280
     0
102
RTVSPost2010PropOp55
 70
     1
102
RTVSPost2010Prop56
140
1.0
102
RTVSPost2010PropOp56
 70
     1
102
RTVSPost2010Prop57
140
1.0
102
RTVSPost2010PropOp57
 70
     1
  0
ENDSEC
  0
EOF
