  0
SECTION
  2
HEADER
  9
$ACADVER
  1
AC1024
  9
$ACADMAINTVER
 70
   226
  9
$DWGCODEPAGE
  3
ANSI_932
  9
$INSBASE
 10
0.0
 20
0.0
 30
0.0
  9
$EXTMIN
 10
1.000000000000000E+20
 20
1.000000000000000E+20
 30
1.000000000000000E+20
  9
$EXTMAX
 10
-1.000000000000000E+20
 20
-1.000000000000000E+20
 30
-1.000000000000000E+20
  9
$LIMMIN
 10
0.0
 20
0.0
  9
$LIMMAX
 10
12.0
 20
9.0
  9
$ORTHOMODE
 70
     0
  9
$REGENMODE
 70
     1
  9
$FILLMODE
 70
     1
  9
$QTEXTMODE
 70
     0
  9
$MIRRTEXT
 70
     0
  9
$LTSCALE
 40
1.0
  9
$ATTMODE
 70
     1
  9
$TEXTSIZE
 40
0.2
  9
$TRACEWID
 40
0.05
  9
$TEXTSTYLE
  7
Standard
  9
$CLAYER
  8
0
  9
$CELTYPE
  6
ByLayer
  9
$CECOLOR
 62
   256
  9
$CELTSCALE
 40
1.0
  9
$DISPSILH
 70
     0
  9
$DIMSCALE
 40
1.0
  9
$DIMASZ
 40
0.18
  9
$DIMEXO
 40
0.0625
  9
$DIMDLI
 40
0.38
  9
$DIMRND
 40
0.0
  9
$DIMDLE
 40
0.0
  9
$DIMEXE
 40
0.18
  9
$DIMTP
 40
0.0
  9
$DIMTM
 40
0.0
  9
$DIMTXT
 40
0.18
  9
$DIMCEN
 40
0.09
  9
$DIMTSZ
 40
0.0
  9
$DIMTOL
 70
     0
  9
$DIMLIM
 70
     0
  9
$DIMTIH
 70
     1
  9
$DIMTOH
 70
     1
  9
$DIMSE1
 70
     0
  9
$DIMSE2
 70
     0
  9
$DIMTAD
 70
     0
  9
$DIMZIN
 70
     0
  9
$DIMBLK
  1

  9
$DIMASO
 70
     1
  9
$DIMSHO
 70
     1
  9
$DIMPOST
  1

  9
$DIMAPOST
  1

  9
$DIMALT
 70
     0
  9
$DIMALTD
 70
     2
  9
$DIMALTF
 40
25.4
  9
$DIMLFAC
 40
1.0
  9
$DIMTOFL
 70
     0
  9
$DIMTVP
 40
0.0
  9
$DIMTIX
 70
     0
  9
$DIMSOXD
 70
     0
  9
$DIMSAH
 70
     0
  9
$DIMBLK1
  1

  9
$DIMBLK2
  1

  9
$DIMSTYLE
  2
Standard
  9
$DIMCLRD
 70
     0
  9
$DIMCLRE
 70
     0
  9
$DIMCLRT
 70
     0
  9
$DIMTFAC
 40
1.0
  9
$DIMGAP
 40
0.09
  9
$DIMJUST
 70
     0
  9
$DIMSD1
 70
     0
  9
$DIMSD2
 70
     0
  9
$DIMTOLJ
 70
     1
  9
$DIMTZIN
 70
     0
  9
$DIMALTZ
 70
     0
  9
$DIMALTTZ
 70
     0
  9
$DIMUPT
 70
     0
  9
$DIMDEC
 70
     4
  9
$DIMTDEC
 70
     4
  9
$DIMALTU
 70
     2
  9
$DIMALTTD
 70
     2
  9
$DIMTXSTY
  7
Standard
  9
$DIMAUNIT
 70
     0
  9
$DIMADEC
 70
     0
  9
$DIMALTRND
 40
0.0
  9
$DIMAZIN
 70
     0
  9
$DIMDSEP
 70
    46
  9
$DIMATFIT
 70
     3
  9
$DIMFRAC
 70
     0
  9
$DIMLDRBLK
  1

  9
$DIMLUNIT
 70
     2
  9
$DIMLWD
 70
    -2
  9
$DIMLWE
 70
    -2
  9
$DIMTMOVE
 70
     0
  9
$DIMFXL
 40
1.0
  9
$DIMFXLON
 70
     0
  9
$DIMJOGANG
 40
0.7853981633974483
  9
$DIMTFILL
 70
     0
  9
$DIMTFILLCLR
 70
     0
  9
$DIMARCSYM
 70
     0
  9
$DIMLTYPE
  6

  9
$DIMLTEX1
  6

  9
$DIMLTEX2
  6

  9
$DIMTXTDIRECTION
 70
     0
  9
$LUNITS
 70
     2
  9
$LUPREC
 70
     4
  9
$SKETCHINC
 40
0.1
  9
$FILLETRAD
 40
0.0
  9
$AUNITS
 70
     0
  9
$AUPREC
 70
     0
  9
$MENU
  1
.
  9
$ELEVATION
 40
0.0
  9
$PELEVATION
 40
0.0
  9
$THICKNESS
 40
0.0
  9
$LIMCHECK
 70
     0
  9
$CHAMFERA
 40
0.0
  9
$CHAMFERB
 40
0.0
  9
$CHAMFERC
 40
0.0
  9
$CHAMFERD
 40
0.0
  9
$SKPOLY
 70
     0
  9
$TDCREATE
 40
2459569.490243056
  9
$TDUCREATE
 40
2459569.115243056
  9
$TDUPDATE
 40
2459569.490243056
  9
$TDUUPDATE
 40
2459569.115243056
  9
$TDINDWG
 40
0.0000000000
  9
$TDUSRTIMER
 40
0.0000000000
  9
$USRTIMER
 70
     1
  9
$ANGBASE
 50
0.0
  9
$ANGDIR
 70
     0
  9
$PDMODE
 70
     0
  9
$PDSIZE
 40
0.0
  9
$PLINEWID
 40
0.0
  9
$SPLFRAME
 70
     0
  9
$SPLINETYPE
 70
     6
  9
$SPLINESEGS
 70
     8
  9
$HANDSEED
  5
144
  9
$SURFTAB1
 70
     6
  9
$SURFTAB2
 70
     6
  9
$SURFTYPE
 70
     6
  9
$SURFU
 70
     6
  9
$SURFV
 70
     6
  9
$UCSBASE
  2

  9
$UCSNAME
  2

  9
$UCSORG
 10
0.0
 20
0.0
 30
0.0
  9
$UCSXDIR
 10
1.0
 20
0.0
 30
0.0
  9
$UCSYDIR
 10
0.0
 20
1.0
 30
0.0
  9
$UCSORTHOREF
  2

  9
$UCSORTHOVIEW
 70
     0
  9
$UCSORGTOP
 10
0.0
 20
0.0
 30
0.0
  9
$UCSORGBOTTOM
 10
0.0
 20
0.0
 30
0.0
  9
$UCSORGLEFT
 10
0.0
 20
0.0
 30
0.0
  9
$UCSORGRIGHT
 10
0.0
 20
0.0
 30
0.0
  9
$UCSORGFRONT
 10
0.0
 20
0.0
 30
0.0
  9
$UCSORGBACK
 10
0.0
 20
0.0
 30
0.0
  9
$PUCSBASE
  2

  9
$PUCSNAME
  2

  9
$PUCSORG
 10
0.0
 20
0.0
 30
0.0
  9
$PUCSXDIR
 10
1.0
 20
0.0
 30
0.0
  9
$PUCSYDIR
 10
0.0
 20
1.0
 30
0.0
  9
$PUCSORTHOREF
  2

  9
$PUCSORTHOVIEW
 70
     0
  9
$PUCSORGTOP
 10
0.0
 20
0.0
 30
0.0
  9
$PUCSORGBOTTOM
 10
0.0
 20
0.0
 30
0.0
  9
$PUCSORGLEFT
 10
0.0
 20
0.0
 30
0.0
  9
$PUCSORGRIGHT
 10
0.0
 20
0.0
 30
0.0
  9
$PUCSORGFRONT
 10
0.0
 20
0.0
 30
0.0
  9
$PUCSORGBACK
 10
0.0
 20
0.0
 30
0.0
  9
$USERI1
 70
     0
  9
$USERI2
 70
     0
  9
$USERI3
 70
     0
  9
$USERI4
 70
     0
  9
$USERI5
 70
     0
  9
$USERR1
 40
0.0
  9
$USERR2
 40
0.0
  9
$USERR3
 40
0.0
  9
$USERR4
 40
0.0
  9
$USERR5
 40
0.0
  9
$WORLDVIEW
 70
     1
  9
$SHADEDGE
 70
     3
  9
$SHADEDIF
 70
    70
  9
$TILEMODE
 70
     1
  9
$MAXACTVP
 70
    64
  9
$PINSBASE
 10
0.0
 20
0.0
 30
0.0
  9
$PLIMCHECK
 70
     0
  9
$PEXTMIN
 10
1.000000000000000E+20
 20
1.000000000000000E+20
 30
1.000000000000000E+20
  9
$PEXTMAX
 10
-1.000000000000000E+20
 20
-1.000000000000000E+20
 30
-1.000000000000000E+20
  9
$PLIMMIN
 10
0.0
 20
0.0
  9
$PLIMMAX
 10
12.0
 20
9.0
  9
$UNITMODE
 70
     0
  9
$VISRETAIN
 70
     1
  9
$PLINEGEN
 70
     0
  9
$PSLTSCALE
 70
     1
  9
$TREEDEPTH
 70
  3020
  9
$CMLSTYLE
  2
Standard
  9
$CMLJUST
 70
     0
  9
$CMLSCALE
 40
1.0
  9
$PROXYGRAPHICS
 70
     1
  9
$MEASUREMENT
 70
     0
  9
$CELWEIGHT
370
    -1
  9
$ENDCAPS
280
     0
  9
$JOINSTYLE
280
     0
  9
$LWDISPLAY
290
     1
  9
$INSUNITS
 70
     4
  9
$HYPERLINKBASE
  1

  9
$STYLESHEET
  1

  9
$XEDIT
290
     1
  9
$CEPSNTYPE
380
     0
  9
$PSTYLEMODE
290
     1
  9
$FINGERPRINTGUID
  2
{E72F3873-AF75-A242-9CF5-1F6C817E0C83}
  9
$VERSIONGUID
  2
{8A2D744E-7C42-884B-AB30-C26A0DB56EBD}
  9
$EXTNAMES
290
     1
  9
$PSVPSCALE
 40
0.0
  9
$OLESTARTUP
290
     0
  9
$SORTENTS
280
   127
  9
$INDEXCTL
280
     0
  9
$HIDETEXT
280
     1
  9
$XCLIPFRAME
280
     2
  9
$HALOGAP
280
     0
  9
$OBSCOLOR
 70
   257
  9
$OBSLTYPE
280
     0
  9
$INTERSECTIONDISPLAY
280
     0
  9
$INTERSECTIONCOLOR
 70
   257
  9
$DIMASSOC
280
     2
  9
$PROJECTNAME
  1

  9
$CAMERADISPLAY
290
     0
  9
$LENSLENGTH
 40
50.0
  9
$CAMERAHEIGHT
 40
0.0
  9
$STEPSPERSEC
 40
2.0
  9
$STEPSIZE
 40
6.0
  9
$3DDWFPREC
 40
2.0
  9
$PSOLWIDTH
 40
0.25
  9
$PSOLHEIGHT
 40
4.0
  9
$LOFTANG1
 40
1.570796326794896
  9
$LOFTANG2
 40
1.570796326794896
  9
$LOFTMAG1
 40
0.0
  9
$LOFTMAG2
 40
0.0
  9
$LOFTPARAM
 70
     7
  9
$LOFTNORMALS
280
     1
  9
$LATITUDE
 40
37.795
  9
$LONGITUDE
 40
-122.394
  9
$NORTHDIRECTION
 40
0.0
  9
$TIMEZONE
 70
 -8000
  9
$LIGHTGLYPHDISPLAY
280
     1
  9
$TILEMODELIGHTSYNCH
280
     1
  9
$CMATERIAL
347
11
  9
$SOLIDHIST
280
     0
  9
$SHOWHIST
280
     1
  9
$DWFFRAME
280
     2
  9
$DGNFRAME
280
     0
  9
$REALWORLDSCALE
290
     1
  9
$INTERFERECOLOR
 62
     1
  9
$INTERFEREOBJVS
345
33
  9
$INTERFEREVPVS
346
30
  9
$CSHADOW
280
     0
  9
$SHADOWPLANELOCATION
 40
0.0
  0
ENDSEC
  0
SECTION
  2
CLASSES
  0
CLASS
  1
ACDBDICTIONARYWDFLT
  2
AcDbDictionaryWithDefault
  3
ObjectDBX Classes
 90
        0
 91
        1
280
     0
281
     0
  0
CLASS
  1
MATERIAL
  2
AcDbMaterial
  3
ObjectDBX Classes
 90
     1153
 91
        3
280
     0
281
     0
  0
CLASS
  1
VISUALSTYLE
  2
AcDbVisualStyle
  3
ObjectDBX Classes
 90
     4095
 91
       24
280
     0
281
     0
  0
CLASS
  1
SCALE
  2
AcDbScale
  3
ObjectDBX Classes
 90
     1153
 91
       17
280
     0
281
     0
  0
CLASS
  1
TABLESTYLE
  2
AcDbTableStyle
  3
ObjectDBX Classes
 90
     4095
 91
        1
280
     0
281
     0
  0
CLASS
  1
MLEADERSTYLE
  2
AcDbMLeaderStyle
  3
ACDB_MLEADERSTYLE_CLASS
 90
     4095
 91
        1
280
     0
281
     0
  0
CLASS
  1
ACDBSECTIONVIEWSTYLE
  2
AcDbSectionViewStyle
  3
ObjectDBX Classes
 90
     1025
 91
        1
280
     0
281
     0
  0
CLASS
  1
ACDBDETAILVIEWSTYLE
  2
AcDbDetailViewStyle
  3
ObjectDBX Classes
 90
     1025
 91
        1
280
     0
281
     0
  0
CLASS
  1
DICTIONARYVAR
  2
AcDbDictionaryVar
  3
ObjectDBX Classes
 90
        0
 91
        5
280
     0
281
     0
  0
CLASS
  1
CELLSTYLEMAP
  2
AcDbCellStyleMap
  3
ObjectDBX Classes
 90
     1152
 91
        1
280
     0
281
     0
  0
ENDSEC
  0
SECTION
  2
TABLES
  0
TABLE
  2
VPORT
  5
8
330
0
100
AcDbSymbolTable
 70
     1
  0
VPORT
  5
57
330
8
100
AcDbSymbolTableRecord
100
AcDbViewportTableRecord
  2
*Active
 70
     0
 10
0.0
 20
0.0
 11
1.0
 21
1.0
 12
0.0
 22
0.0
 13
0.0
 23
0.0
 14
1.0
 24
1.0
 15
0.0
 25
0.0
 16
0.0
 26
0.0
 36
1.0
 17
104.9999999737534
 27
-148.4999999628701
 37
0.0
 40
302.939999924255
 41
0.7070707070707534
 42
50.0
 43
0.0
 44
0.0
 50
0.0
 51
0.0
 71
     0
 72
   100
 73
     1
 74
     0
 75
     1
 76
     0
 77
     0
 78
     0
281
     0
 65
     1
110
0.0
120
0.0
130
0.0
111
1.0
121
0.0
131
0.0
112
0.0
122
1.0
132
0.0
 79
     0
146
0.0
 60
     3
 61
     5
292
     1
282
     1
141
0.0
142
0.0
 63
   250
421
  3355443
  0
ENDTAB
  0
TABLE
  2
LTYPE
  5
5
330
0
100
AcDbSymbolTable
 70
     2
  0
LTYPE
  5
5B
330
5
100
AcDbSymbolTableRecord
100
AcDbLinetypeTableRecord
  2
ByBlock
 70
     0
  3

 72
    65
 73
     0
 40
0.0
  0
LTYPE
  5
5C
330
5
100
AcDbSymbolTableRecord
100
AcDbLinetypeTableRecord
  2
ByLayer
 70
     0
  3

 72
    65
 73
     0
 40
0.0
  0
LTYPE
  5
5D
330
5
100
AcDbSymbolTableRecord
100
AcDbLinetypeTableRecord
  2
Continuous
 70
     0
  3
Solid line
 72
    65
 73
     0
 40
0.0
  0
LTYPE
  5
E7
330
5
100
AcDbSymbolTableRecord
100
AcDbLinetypeTableRecord
  2
AI-Linetype-0
 70
     0
  3
Adobe Illustrator Linetype No. 0
 72
    65
 73
     2
 40
1.411111110758333
 49
0.7055555553791667
 74
     0
 49
-0.7055555553791667
 74
     0
  0
ENDTAB
  0
TABLE
  2
LAYER
  5
2
330
0
100
AcDbSymbolTable
 70
     2
  0
LAYER
  5
54
330
2
100
AcDbSymbolTableRecord
100
AcDbLayerTableRecord
  2
0
 70
     0
 62
     7
  6
Continuous
370
    -3
390
F
347
21
  0
LAYER
  5
78
330
2
100
AcDbSymbolTableRecord
100
AcDbLayerTableRecord
  2
レイヤー 1
 70
     0
 62
     7
  6
Continuous
370
     0
390
F
347
21
  0
ENDTAB
  0
TABLE
  2
STYLE
  5
3
330
0
100
AcDbSymbolTable
 70
     2
  0
STYLE
  5
55
330
3
100
AcDbSymbolTableRecord
100
AcDbTextStyleTableRecord
  2
Standard
 70
     0
 40
0.0
 41
1.0
 50
0.0
 71
     0
 42
0.2
  3
txt
  4

  0
STYLE
  5
5A
330
3
100
AcDbSymbolTableRecord
100
AcDbTextStyleTableRecord
  2
Annotative
 70
     0
 40
0.0
 41
1.0
 50
0.0
 71
     0
 42
0.2
  3
txt
  4

1001
AcadAnnotative
1000
AnnotativeData
1002
{
1070
     1
1070
     1
1002
}
  0
ENDTAB
  0
TABLE
  2
VIEW
  5
6
330
0
100
AcDbSymbolTable
 70
     0
  0
ENDTAB
  0
TABLE
  2
UCS
  5
7
330
0
100
AcDbSymbolTable
 70
     0
  0
ENDTAB
  0
TABLE
  2
APPID
  5
9
330
0
100
AcDbSymbolTable
 70
     2
  0
APPID
  5
56
330
9
100
AcDbSymbolTableRecord
100
AcDbRegAppTableRecord
  2
ACAD
 70
     0
  0
APPID
  5
5E
330
9
100
AcDbSymbolTableRecord
100
AcDbRegAppTableRecord
  2
AcadAnnotative
 70
     0
  0
ENDTAB
  0
TABLE
  2
DIMSTYLE
  5
A
330
0
100
AcDbSymbolTable
 70
     2
100
AcDbDimStyleTable
 71
     0
  0
DIMSTYLE
105
58
330
A
100
AcDbSymbolTableRecord
100
AcDbDimStyleTableRecord
  2
Standard
 70
     0
340
55
  0
DIMSTYLE
105
59
330
A
100
AcDbSymbolTableRecord
100
AcDbDimStyleTableRecord
  2
Annotative
 70
     0
340
55
1001
AcadAnnotative
1000
AnnotativeData
1002
{
1070
     1
1070
     1
1002
}
  0
ENDTAB
  0
TABLE
  2
BLOCK_RECORD
  5
1
330
0
100
AcDbSymbolTable
 70
    18
  0
BLOCK_RECORD
  5
70
330
1
100
AcDbSymbolTableRecord
100
AcDbBlockTableRecord
  2
*Model_Space
340
73
 70
     0
280
     1
281
     0
  0
BLOCK_RECORD
  5
6C
330
1
100
AcDbSymbolTableRecord
100
AcDbBlockTableRecord
  2
*Paper_Space
340
6F
 70
     0
280
     1
281
     0
  0
BLOCK_RECORD
  5
74
330
1
100
AcDbSymbolTableRecord
100
AcDbBlockTableRecord
  2
*Paper_Space0
340
77
 70
     0
280
     1
281
     0
  0
BLOCK_RECORD
  5
79
330
1
100
AcDbSymbolTableRecord
100
AcDbBlockTableRecord
  2
Block_0
340
0
102
{BLKREFS
331
7A
102
}
 70
     0
280
     1
281
     0
  0
BLOCK_RECORD
  5
87
330
1
100
AcDbSymbolTableRecord
100
AcDbBlockTableRecord
  2
Block_1
340
0
102
{BLKREFS
331
88
102
}
 70
     0
280
     1
281
     0
  0
BLOCK_RECORD
  5
8F
330
1
100
AcDbSymbolTableRecord
100
AcDbBlockTableRecord
  2
Block_2
340
0
102
{BLKREFS
331
90
102
}
 70
     0
280
     1
281
     0
  0
BLOCK_RECORD
  5
93
330
1
100
AcDbSymbolTableRecord
100
AcDbBlockTableRecord
  2
Block_3
340
0
102
{BLKREFS
331
94
102
}
 70
     0
280
     1
281
     0
  0
BLOCK_RECORD
  5
A0
330
1
100
AcDbSymbolTableRecord
100
AcDbBlockTableRecord
  2
Block_4
340
0
102
{BLKREFS
331
A1
102
}
 70
     0
280
     1
281
     0
  0
BLOCK_RECORD
  5
A6
330
1
100
AcDbSymbolTableRecord
100
AcDbBlockTableRecord
  2
Block_5
340
0
102
{BLKREFS
331
A7
102
}
 70
     0
280
     1
281
     0
  0
BLOCK_RECORD
  5
AC
330
1
100
AcDbSymbolTableRecord
100
AcDbBlockTableRecord
  2
Block_6
340
0
102
{BLKREFS
331
AD
102
}
 70
     0
280
     1
281
     0
  0
BLOCK_RECORD
  5
B3
330
1
100
AcDbSymbolTableRecord
100
AcDbBlockTableRecord
  2
Block_7
340
0
102
{BLKREFS
331
B4
102
}
 70
     0
280
     1
281
     0
  0
BLOCK_RECORD
  5
B7
330
1
100
AcDbSymbolTableRecord
100
AcDbBlockTableRecord
  2
Block_8
340
0
102
{BLKREFS
331
B8
102
}
 70
     0
280
     1
281
     0
  0
BLOCK_RECORD
  5
C0
330
1
100
AcDbSymbolTableRecord
100
AcDbBlockTableRecord
  2
Block_9
340
0
102
{BLKREFS
331
C1
102
}
 70
     0
280
     1
281
     0
  0
BLOCK_RECORD
  5
C7
330
1
100
AcDbSymbolTableRecord
100
AcDbBlockTableRecord
  2
Block_10
340
0
102
{BLKREFS
331
C8
102
}
 70
     0
280
     1
281
     0
  0
BLOCK_RECORD
  5
CB
330
1
100
AcDbSymbolTableRecord
100
AcDbBlockTableRecord
  2
Block_11
340
0
102
{BLKREFS
331
CC
102
}
 70
     0
280
     1
281
     0
  0
BLOCK_RECORD
  5
D5
330
1
100
AcDbSymbolTableRecord
100
AcDbBlockTableRecord
  2
Block_12
340
0
102
{BLKREFS
331
D6
102
}
 70
     0
280
     1
281
     0
  0
BLOCK_RECORD
  5
DC
330
1
100
AcDbSymbolTableRecord
100
AcDbBlockTableRecord
  2
Block_13
340
0
102
{BLKREFS
331
DD
102
}
 70
     0
280
     1
281
     0
  0
BLOCK_RECORD
  5
E2
330
1
100
AcDbSymbolTableRecord
100
AcDbBlockTableRecord
  2
Block_14
340
0
102
{BLKREFS
331
E3
102
}
 70
     0
280
     1
281
     0
  0
BLOCK_RECORD
  5
EB
330
1
100
AcDbSymbolTableRecord
100
AcDbBlockTableRecord
  2
Block_15
340
0
102
{BLKREFS
331
EC
102
}
 70
     0
280
     1
281
     0
  0
BLOCK_RECORD
  5
EF
330
1
100
AcDbSymbolTableRecord
100
AcDbBlockTableRecord
  2
Block_16
340
0
102
{BLKREFS
331
F0
102
}
 70
     0
280
     1
281
     0
  0
ENDTAB
  0
ENDSEC
  0
SECTION
  2
BLOCKS
  0
BLOCK
  5
71
330
70
100
AcDbEntity
  8
0
100
AcDbBlockBegin
  2
*Model_Space
 70
     0
 10
0.0
 20
0.0
 30
0.0
  3
*Model_Space
  1

  0
ENDBLK
  5
72
330
70
100
AcDbEntity
  8
0
100
AcDbBlockEnd
  0
BLOCK
  5
6D
330
6C
100
AcDbEntity
 67
     1
  8
0
100
AcDbBlockBegin
  2
*Paper_Space
 70
     0
 10
0.0
 20
0.0
 30
0.0
  3
*Paper_Space
  1

  0
ENDBLK
  5
6E
330
6C
100
AcDbEntity
 67
     1
  8
0
100
AcDbBlockEnd
  0
BLOCK
  5
75
330
74
100
AcDbEntity
 67
     1
  8
0
100
AcDbBlockBegin
  2
*Paper_Space0
 70
     0
 10
0.0
 20
0.0
 30
0.0
  3
*Paper_Space0
  1

  0
ENDBLK
  5
76
330
74
100
AcDbEntity
 67
     1
  8
0
100
AcDbBlockEnd
  0
BLOCK
  5
7B
330
79
100
AcDbEntity
  8
0
100
AcDbBlockBegin
  2
Block_0
 70
     0
 10
0.0
 20
0.0
 30
0.0
  3
Block_0
  1

  0
LWPOLYLINE
  5
7D
330
79
100
AcDbEntity
  8
レイヤー 1
 62
   250
420
  2299925
370
    25
100
AcDbPolyline
 90
       10
 70
     1
 43
0.0
 10
106.4615919181293
 20
-154.0754651137815
 10
106.4615919181293
 20
-157.0754519816899
 10
99.4615637633813
 20
-157.0754519816899
 10
99.4615637633813
 20
-143.2755970559758
 10
117.4616613597164
 20
-143.2755970559758
 10
117.4616613597164
 20
-144.0757323133404
 10
100.2616990207459
 20
-144.0757323133404
 10
100.2616990207459
 20
-156.2756695020941
 10
105.6617036052029
 20
-156.2756695020941
 10
105.6617036052029
 20
-154.0755709471122
  0
HATCH
  5
7E
330
79
100
AcDbEntity
  8
レイヤー 1
 62
   250
420
  2299925
440
 33554687
100
AcDbHatch
 10
0.0
 20
0.0
 30
0.0
210
0.0
220
0.0
230
1.0
  2
SOLID
 70
     1
 71
     1
 91
        1
 92
        1
 93
       10
 72
     1
 10
106.4615919181293
 20
-154.0754651137815
 11
106.4615919181293
 21
-157.0754519816899
 72
     1
 10
106.4615919181293
 20
-157.0754519816899
 11
99.4615637633813
 21
-157.0754519816899
 72
     1
 10
99.4615637633813
 20
-157.0754519816899
 11
99.4615637633813
 21
-143.2755970559758
 72
     1
 10
99.4615637633813
 20
-143.2755970559758
 11
117.4616613597164
 21
-143.2755970559758
 72
     1
 10
117.4616613597164
 20
-143.2755970559758
 11
117.4616613597164
 21
-144.0757323133404
 72
     1
 10
117.4616613597164
 20
-144.0757323133404
 11
100.2616990207459
 21
-144.0757323133404
 72
     1
 10
100.2616990207459
 20
-144.0757323133404
 11
100.2616990207459
 21
-156.2756695020941
 72
     1
 10
100.2616990207459
 20
-156.2756695020941
 11
105.6617036052029
 21
-156.2756695020941
 72
     1
 10
105.6617036052029
 20
-156.2756695020941
 11
105.6617036052029
 21
-154.0755709471122
 72
     1
 10
105.6617036052029
 20
-154.0755709471122
 11
106.4615919181293
 21
-154.0754651137815
 97
        1
330
7D
 75
     2
 76
     1
 98
        1
 10
0.0
 20
0.0
450
        0
451
        0
460
0.0
461
0.0
452
        0
462
0.0
453
        0
470

  0
SPLINE
  5
7F
330
79
100
AcDbEntity
  8
レイヤー 1
 62
   250
420
  2299925
370
     9
100
AcDbSpline
210
0.0
220
0.0
230
1.0
 70
     9
 71
     3
 72
    17
 73
    13
 74
     0
 42
0.0000000001
 43
0.0000000001
 40
0.0
 40
0.0
 40
0.0
 40
0.0
 40
1.0
 40
1.0
 40
1.0
 40
2.0
 40
2.0
 40
2.0
 40
3.0
 40
3.0
 40
3.0
 40
4.0
 40
4.0
 40
4.0
 40
4.0
 10
121.5616798662273
 20
-143.2755970559758
 30
0.0
 10
121.5616798662273
 20
-143.2201403907239
 30
0.0
 10
121.5168770895926
 20
-143.1753728918661
 30
0.0
 10
121.4615968132251
 20
-143.1753728918661
 30
0.0
 10
121.4064576479652
 20
-143.1753728918661
 30
0.0
 10
121.3616901491073
 20
-143.2201403907239
 30
0.0
 10
121.3616901491073
 20
-143.2755970559758
 30
0.0
 10
121.3616901491073
 20
-143.3307362212357
 30
0.0
 10
121.4064576479652
 20
-143.3755037200936
 30
0.0
 10
121.4615968132251
 20
-143.3755037200936
 30
0.0
 10
121.5168770895926
 20
-143.3755037200936
 30
0.0
 10
121.5616798662273
 20
-143.3307362212357
 30
0.0
 10
121.5616798662273
 20
-143.2755970559758
 30
0.0
  0
SPLINE
  5
80
330
79
100
AcDbEntity
  8
レイヤー 1
 62
   250
420
  2299925
370
     9
100
AcDbSpline
210
0.0
220
0.0
230
1.0
 70
     9
 71
     3
 72
    17
 73
    13
 74
     0
 42
0.0000000001
 43
0.0000000001
 40
0.0
 40
0.0
 40
0.0
 40
0.0
 40
1.0
 40
1.0
 40
1.0
 40
2.0
 40
2.0
 40
2.0
 40
3.0
 40
3.0
 40
3.0
 40
4.0
 40
4.0
 40
4.0
 40
4.0
 10
121.5616798662273
 20
-154.0754651137815
 30
0.0
 10
121.5616798662273
 20
-154.0203612262985
 30
0.0
 10
121.5168770895926
 20
-153.9755584496637
 30
0.0
 10
121.4615968132251
 20
-153.9755584496637
 30
0.0
 10
121.4064576479652
 20
-153.9755584496637
 30
0.0
 10
121.3616901491073
 20
-154.0203612262985
 30
0.0
 10
121.3616901491073
 20
-154.0754651137815
 30
0.0
 10
121.3616901491073
 20
-154.1309217790334
 30
0.0
 10
121.4064576479652
 20
-154.1757245556682
 30
0.0
 10
121.4615968132251
 20
-154.1757245556682
 30
0.0
 10
121.5168770895926
 20
-154.1757245556682
 30
0.0
 10
121.5616798662273
 20
-154.1309217790334
 30
0.0
 10
121.5616798662273
 20
-154.0754651137815
 30
0.0
  0
SPLINE
  5
81
330
79
100
AcDbEntity
  8
レイヤー 1
 62
   250
420
  2299925
370
     9
100
AcDbSpline
210
0.0
220
0.0
230
1.0
 70
     9
 71
     3
 72
    17
 73
    13
 74
     0
 42
0.0000000001
 43
0.0000000001
 40
0.0
 40
0.0
 40
0.0
 40
0.0
 40
1.0
 40
1.0
 40
1.0
 40
2.0
 40
2.0
 40
2.0
 40
3.0
 40
3.0
 40
3.0
 40
4.0
 40
4.0
 40
4.0
 40
4.0
 10
121.5616798662273
 20
-157.0754519816899
 30
0.0
 10
121.5616798662273
 20
-157.0203480942069
 30
0.0
 10
121.5168770895926
 20
-156.9755453175721
 30
0.0
 10
121.4615968132251
 20
-156.9755453175721
 30
0.0
 10
121.4064576479652
 20
-156.9755453175721
 30
0.0
 10
121.3616901491073
 20
-157.0203480942069
 30
0.0
 10
121.3616901491073
 20
-157.0754519816899
 30
0.0
 10
121.3616901491073
 20
-157.1309086469418
 30
0.0
 10
121.4064576479652
 20
-157.1757114235766
 30
0.0
 10
121.4615968132251
 20
-157.1757114235766
 30
0.0
 10
121.5168770895926
 20
-157.1757114235766
 30
0.0
 10
121.5616798662273
 20
-157.1309086469418
 30
0.0
 10
121.5616798662273
 20
-157.0754519816899
 30
0.0
  0
SPLINE
  5
82
330
79
100
AcDbEntity
  8
レイヤー 1
 62
   250
420
  2299925
370
     9
100
AcDbSpline
210
0.0
220
0.0
230
1.0
 70
     9
 71
     3
 72
    17
 73
    13
 74
     0
 42
0.0000000001
 43
0.0000000001
 40
0.0
 40
0.0
 40
0.0
 40
0.0
 40
1.0
 40
1.0
 40
1.0
 40
2.0
 40
2.0
 40
2.0
 40
3.0
 40
3.0
 40
3.0
 40
4.0
 40
4.0
 40
4.0
 40
4.0
 10
121.5616798662273
 20
-144.0757323133404
 30
0.0
 10
121.5616798662273
 20
-144.0202756480886
 30
0.0
 10
121.5168770895926
 20
-143.9754728714538
 30
0.0
 10
121.4615968132251
 20
-143.9754728714538
 30
0.0
 10
121.4064576479652
 20
-143.9754728714538
 30
0.0
 10
121.3616901491073
 20
-144.0202756480886
 30
0.0
 10
121.3616901491073
 20
-144.0757323133404
 30
0.0
 10
121.3616901491073
 20
-144.1308693062226
 30
0.0
 10
121.4064576479652
 20
-144.1756389774583
 30
0.0
 10
121.4615968132251
 20
-144.1756389774583
 30
0.0
 10
121.5168770895926
 20
-144.1756389774583
 30
0.0
 10
121.5616798662273
 20
-144.1308693062226
 30
0.0
 10
121.5616798662273
 20
-144.0757323133404
 30
0.0
  0
SPLINE
  5
83
330
79
100
AcDbEntity
  8
レイヤー 1
 62
   250
420
  2299925
370
     9
100
AcDbSpline
210
0.0
220
0.0
230
1.0
 70
     9
 71
     3
 72
    17
 73
    13
 74
     0
 42
0.0000000001
 43
0.0000000001
 40
0.0
 40
0.0
 40
0.0
 40
0.0
 40
1.0
 40
1.0
 40
1.0
 40
2.0
 40
2.0
 40
2.0
 40
3.0
 40
3.0
 40
3.0
 40
4.0
 40
4.0
 40
4.0
 40
4.0
 10
99.56164846164789
 20
-161.075563824083
 30
0.0
 10
99.56164846164789
 20
-161.0204246588231
 30
0.0
 10
99.51684568388181
 20
-160.9756554131224
 30
0.0
 10
99.4615637633813
 20
-160.9756554131224
 30
0.0
 10
99.40645987589823
 20
-160.9756554131224
 30
0.0
 10
99.36165709926347
 20
-161.0204246588231
 30
0.0
 10
99.36165709926347
 20
-161.075563824083
 30
0.0
 10
99.36165709926347
 20
-161.1306677115661
 30
0.0
 10
99.40645987589823
 20
-161.1754704882009
 30
0.0
 10
99.4615637633813
 20
-161.1754704882009
 30
0.0
 10
99.51684568388181
 20
-161.1754704882009
 30
0.0
 10
99.56164846164789
 20
-161.1306677115661
 30
0.0
 10
99.56164846164789
 20
-161.075563824083
 30
0.0
  0
SPLINE
  5
84
330
79
100
AcDbEntity
  8
レイヤー 1
 62
   250
420
  2299925
370
     9
100
AcDbSpline
210
0.0
220
0.0
230
1.0
 70
     9
 71
     3
 72
    17
 73
    13
 74
     0
 42
0.0000000001
 43
0.0000000001
 40
0.0
 40
0.0
 40
0.0
 40
0.0
 40
1.0
 40
1.0
 40
1.0
 40
2.0
 40
2.0
 40
2.0
 40
3.0
 40
3.0
 40
3.0
 40
4.0
 40
4.0
 40
4.0
 40
4.0
 10
99.56164846164789
 20
-140.0755146376167
 30
0.0
 10
99.56164846164789
 20
-140.0203754723567
 30
0.0
 10
99.51684568388181
 20
-139.9756079734989
 30
0.0
 10
99.4615637633813
 20
-139.9756079734989
 30
0.0
 10
99.40645987589823
 20
-139.9756079734989
 30
0.0
 10
99.36165709926347
 20
-140.0203754723567
 30
0.0
 10
99.36165709926347
 20
-140.0755146376167
 30
0.0
 10
99.36165709926347
 20
-140.1306185250998
 30
0.0
 10
99.40645987589823
 20
-140.1754213017345
 30
0.0
 10
99.4615637633813
 20
-140.1754213017345
 30
0.0
 10
99.51684568388181
 20
-140.1754213017345
 30
0.0
 10
99.56164846164789
 20
-140.1306185250998
 30
0.0
 10
99.56164846164789
 20
-140.0755146376167
 30
0.0
  0
SPLINE
  5
85
330
79
100
AcDbEntity
  8
レイヤー 1
 62
   250
420
  2299925
370
     9
100
AcDbSpline
210
0.0
220
0.0
230
1.0
 70
     9
 71
     3
 72
    17
 73
    13
 74
     0
 42
0.0000000001
 43
0.0000000001
 40
0.0
 40
0.0
 40
0.0
 40
0.0
 40
1.0
 40
1.0
 40
1.0
 40
2.0
 40
2.0
 40
2.0
 40
3.0
 40
3.0
 40
3.0
 40
4.0
 40
4.0
 40
4.0
 40
4.0
 10
106.5616749711316
 20
-161.075563824083
 30
0.0
 10
106.5616749711316
 20
-161.0204246588231
 30
0.0
 10
106.5169074722737
 20
-160.9756554131224
 30
0.0
 10
106.4615919181293
 20
-160.9756554131224
 30
0.0
 10
106.4063116417619
 20
-160.9756554131224
 30
0.0
 10
106.361544142904
 20
-161.0204246588231
 30
0.0
 10
106.361544142904
 20
-161.075563824083
 30
0.0
 10
106.361544142904
 20
-161.1306677115661
 30
0.0
 10
106.4063116417619
 20
-161.1754704882009
 30
0.0
 10
106.4615919181293
 20
-161.1754704882009
 30
0.0
 10
106.5169074722737
 20
-161.1754704882009
 30
0.0
 10
106.5616749711316
 20
-161.1306677115661
 30
0.0
 10
106.5616749711316
 20
-161.075563824083
 30
0.0
  0
SPLINE
  5
86
330
79
100
AcDbEntity
  8
レイヤー 1
 62
   250
420
  2299925
370
     9
100
AcDbSpline
210
0.0
220
0.0
230
1.0
 70
     9
 71
     3
 72
    17
 73
    13
 74
     0
 42
0.0000000001
 43
0.0000000001
 40
0.0
 40
0.0
 40
0.0
 40
0.0
 40
1.0
 40
1.0
 40
1.0
 40
2.0
 40
2.0
 40
2.0
 40
3.0
 40
3.0
 40
3.0
 40
4.0
 40
4.0
 40
4.0
 40
4.0
 10
117.5615680238342
 20
-140.0755146376167
 30
0.0
 10
117.5615680238342
 20
-140.0203754723567
 30
0.0
 10
117.5167652471995
 20
-139.9756079734989
 30
0.0
 10
117.4616613597164
 20
-139.9756079734989
 30
0.0
 10
117.4063458055721
 20
-139.9756079734989
 30
0.0
 10
117.3615783067142
 20
-140.0203754723567
 30
0.0
 10
117.3615783067142
 20
-140.0755146376167
 30
0.0
 10
117.3615783067142
 20
-140.1306185250998
 30
0.0
 10
117.4063458055721
 20
-140.1754213017345
 30
0.0
 10
117.4616613597164
 20
-140.1754213017345
 30
0.0
 10
117.5167652471995
 20
-140.1754213017345
 30
0.0
 10
117.5615680238342
 20
-140.1306185250998
 30
0.0
 10
117.5615680238342
 20
-140.0755146376167
 30
0.0
  0
INSERT
  5
88
330
79
100
AcDbEntity
  8
レイヤー 1
100
AcDbBlockReference
  2
Block_1
 10
0.0
 20
0.0
 30
0.0
  0
INSERT
  5
A1
330
79
100
AcDbEntity
  8
レイヤー 1
100
AcDbBlockReference
  2
Block_4
 10
0.0
 20
0.0
 30
0.0
  0
INSERT
  5
AD
330
79
100
AcDbEntity
  8
レイヤー 1
100
AcDbBlockReference
  2
Block_6
 10
0.0
 20
0.0
 30
0.0
  0
INSERT
  5
C1
330
79
100
AcDbEntity
  8
レイヤー 1
100
AcDbBlockReference
  2
Block_9
 10
0.0
 20
0.0
 30
0.0
  0
INSERT
  5
D6
330
79
100
AcDbEntity
  8
レイヤー 1
100
AcDbBlockReference
  2
Block_12
 10
0.0
 20
0.0
 30
0.0
  0
ENDBLK
  5
7C
330
79
100
AcDbEntity
  8
0
100
AcDbBlockEnd
  0
BLOCK
  5
89
330
87
100
AcDbEntity
  8
0
100
AcDbBlockBegin
  2
Block_1
 70
     0
 10
0.0
 20
0.0
 30
0.0
  3
Block_1
  1

  0
LINE
  5
8B
330
87
100
AcDbEntity
  8
レイヤー 1
 62
   250
420
  2299925
370
     9
100
AcDbLine
 10
121.4615968132251
 20
-143.2755970559758
 30
0.0
 11
121.4615968132251
 21
-139.4193832654671
 31
0.0
  0
LINE
  5
8C
330
87
100
AcDbEntity
  8
レイヤー 1
 62
   250
420
  2299925
370
     9
100
AcDbLine
 10
121.4615968132251
 20
-143.2755970559758
 30
0.0
 11
121.4615968132251
 21
-144.0757323133404
 31
0.0
  0
LINE
  5
8D
330
87
100
AcDbEntity
  8
レイヤー 1
 62
   250
420
  2299925
370
     9
100
AcDbLine
 10
120.001555461585
 20
-143.2755970559758
 30
0.0
 11
122.4615123448116
 21
-143.2755970559758
 31
0.0
  0
LINE
  5
8E
330
87
100
AcDbEntity
  8
レイヤー 1
 62
   250
420
  2299925
370
     9
100
AcDbLine
 10
120.001555461585
 20
-144.0757323133404
 30
0.0
 11
122.4615123448116
 21
-144.0757323133404
 31
0.0
  0
INSERT
  5
90
330
87
100
AcDbEntity
  8
レイヤー 1
100
AcDbBlockReference
  2
Block_2
 10
0.0
 20
0.0
 30
0.0
  0
ENDBLK
  5
8A
330
87
100
AcDbEntity
  8
0
100
AcDbBlockEnd
  0
BLOCK
  5
91
330
8F
100
AcDbEntity
  8
0
100
AcDbBlockBegin
  2
Block_2
 70
     0
 10
0.0
 20
0.0
 30
0.0
  3
Block_2
  1

  0
INSERT
  5
94
330
8F
100
AcDbEntity
  8
レイヤー 1
100
AcDbBlockReference
  2
Block_3
 10
0.0
 20
0.0
 30
0.0
  0
ENDBLK
  5
92
330
8F
100
AcDbEntity
  8
0
100
AcDbBlockEnd
  0
BLOCK
  5
95
330
93
100
AcDbEntity
  8
0
100
AcDbBlockBegin
  2
Block_3
 70
     0
 10
0.0
 20
0.0
 30
0.0
  3
Block_3
  1

  0
SPLINE
  5
97
330
93
100
AcDbEntity
  8
レイヤー 1
100
AcDbSpline
210
0.0
220
0.0
230
1.0
 70
     9
 71
     3
 72
    17
 73
    13
 74
     0
 42
0.0000000001
 43
0.0000000001
 40
0.0
 40
0.0
 40
0.0
 40
0.0
 40
1.0
 40
1.0
 40
1.0
 40
2.0
 40
2.0
 40
2.0
 40
3.0
 40
3.0
 40
3.0
 40
4.0
 40
4.0
 40
4.0
 40
4.0
 10
119.1000515110236
 20
-142.2056179114972
 30
0.0
 10
119.1000515110236
 20
-142.4748521236694
 30
0.0
 10
119.4059759901138
 20
-142.5249782629799
 30
0.0
 10
119.7780463025208
 20
-142.5249782629799
 30
0.0
 10
120.1225558510457
 20
-142.5249782629799
 30
0.0
 10
120.4560410940179
 20
-142.4862209387708
 30
0.0
 10
120.4560410940179
 20
-142.2056179114972
 30
0.0
 10
120.4560410940179
 20
-141.9384507566161
 30
0.0
 10
120.1521836722189
 20
-141.885913050466
 30
0.0
 10
119.7780463025208
 20
-141.885913050466
 30
0.0
 10
119.4335367539958
 20
-141.885913050466
 30
0.0
 10
119.1000515110236
 20
-141.9270819415147
 30
0.0
 10
119.1000515110236
 20
-142.2056179114972
 30
0.0
  0
SPLINE
  5
98
330
93
100
AcDbEntity
  8
レイヤー 1
100
AcDbSpline
210
0.0
220
0.0
230
1.0
 70
     9
 71
     3
 72
    29
 73
    25
 74
     0
 42
0.0000000001
 43
0.0000000001
 40
0.0
 40
0.0
 40
0.0
 40
0.0
 40
1.0
 40
1.0
 40
1.0
 40
2.0
 40
2.0
 40
2.0
 40
3.0
 40
3.0
 40
3.0
 40
4.0
 40
4.0
 40
4.0
 40
5.0
 40
5.0
 40
5.0
 40
6.0
 40
6.0
 40
6.0
 40
7.0
 40
7.0
 40
7.0
 40
8.0
 40
8.0
 40
8.0
 40
8.0
 10
120.4195230818743
 20
-141.7763590140351
 30
0.0
 10
120.6451768361581
 20
-141.8928032414365
 30
0.0
 10
120.6658474090696
 20
-142.0800441810598
 30
0.0
 10
120.6658474090696
 20
-142.2056179114972
 30
0.0
 10
120.6658474090696
 20
-142.3789062144052
 30
0.0
 10
120.615549014985
 20
-142.5318684539504
 30
0.0
 10
120.4195230818743
 20
-142.6345322994108
 30
0.0
 10
120.209372257274
 20
-142.7464979026814
 30
0.0
 10
119.9537461722685
 20
-142.7669962208186
 30
0.0
 10
119.7780463025208
 20
-142.7669962208186
 30
0.0
 10
119.622672496136
 20
-142.7669962208186
 30
0.0
 10
119.3511989718983
 20
-142.7487372147468
 30
0.0
 10
119.1365695231672
 20
-142.6345322994108
 30
0.0
 10
118.9174614503053
 20
-142.5182603267836
 30
0.0
 10
118.892312253263
 20
-142.3447997691013
 30
0.0
 10
118.892312253263
 20
-142.2056179114972
 30
0.0
 10
118.892312253263
 20
-142.0343966658803
 30
0.0
 10
118.940199080508
 20
-141.8791951142698
 30
0.0
 10
119.1365695231672
 20
-141.7763590140351
 30
0.0
 10
119.3443087809278
 20
-141.6692165444438
 30
0.0
 10
119.5909776176717
 20
-141.6440673474015
 30
0.0
 10
119.7780463025208
 20
-141.6440673474015
 30
0.0
 10
119.9627034205301
 20
-141.6440673474015
 30
0.0
 10
120.2117838241137
 20
-141.6668049776041
 30
0.0
 10
120.4195230818743
 20
-141.7763590140351
 30
0.0
  0
HATCH
  5
99
330
93
100
AcDbEntity
  8
レイヤー 1
 62
   250
420
  2299925
440
 33554687
100
AcDbHatch
 10
0.0
 20
0.0
 30
0.0
210
0.0
220
0.0
230
1.0
  2
SOLID
 70
     1
 71
     1
 91
        2
 92
        1
 93
        1
 72
     4
 94
        3
 73
     0
 74
     0
 95
       17
 96
       13
 40
0.0
 40
0.0
 40
0.0
 40
0.0
 40
1.0
 40
1.0
 40
1.0
 40
2.0
 40
2.0
 40
2.0
 40
3.0
 40
3.0
 40
3.0
 40
4.0
 40
4.0
 40
4.0
 40
4.0
 10
119.1000515110236
 20
-142.2056179114972
 10
119.1000515110236
 20
-142.4748521236694
 10
119.4059759901138
 20
-142.5249782629799
 10
119.7780463025208
 20
-142.5249782629799
 10
120.1225558510457
 20
-142.5249782629799
 10
120.4560410940179
 20
-142.4862209387708
 10
120.4560410940179
 20
-142.2056179114972
 10
120.4560410940179
 20
-141.9384507566161
 10
120.1521836722189
 20
-141.885913050466
 10
119.7780463025208
 20
-141.885913050466
 10
119.4335367539958
 20
-141.885913050466
 10
119.1000515110236
 20
-141.9270819415147
 10
119.1000515110236
 20
-142.2056179114972
 97
        0
 97
        1
330
97
 92
        1
 93
        1
 72
     4
 94
        3
 73
     0
 74
     0
 95
       29
 96
       25
 40
0.0
 40
0.0
 40
0.0
 40
0.0
 40
1.0
 40
1.0
 40
1.0
 40
2.0
 40
2.0
 40
2.0
 40
3.0
 40
3.0
 40
3.0
 40
4.0
 40
4.0
 40
4.0
 40
5.0
 40
5.0
 40
5.0
 40
6.0
 40
6.0
 40
6.0
 40
7.0
 40
7.0
 40
7.0
 40
8.0
 40
8.0
 40
8.0
 40
8.0
 10
120.4195230818743
 20
-141.7763590140351
 10
120.6451768361581
 20
-141.8928032414365
 10
120.6658474090696
 20
-142.0800441810598
 10
120.6658474090696
 20
-142.2056179114972
 10
120.6658474090696
 20
-142.3789062144052
 10
120.615549014985
 20
-142.5318684539504
 10
120.4195230818743
 20
-142.6345322994108
 10
120.209372257274
 20
-142.7464979026814
 10
119.9537461722685
 20
-142.7669962208186
 10
119.7780463025208
 20
-142.7669962208186
 10
119.622672496136
 20
-142.7669962208186
 10
119.3511989718983
 20
-142.7487372147468
 10
119.1365695231672
 20
-142.6345322994108
 10
118.9174614503053
 20
-142.5182603267836
 10
118.892312253263
 20
-142.3447997691013
 10
118.892312253263
 20
-142.2056179114972
 10
118.892312253263
 20
-142.0343966658803
 10
118.940199080508
 20
-141.8791951142698
 10
119.1365695231672
 20
-141.7763590140351
 10
119.3443087809278
 20
-141.6692165444438
 10
119.5909776176717
 20
-141.6440673474015
 10
119.7780463025208
 20
-141.6440673474015
 10
119.9627034205301
 20
-141.6440673474015
 10
120.2117838241137
 20
-141.6668049776041
 10
120.4195230818743
 20
-141.7763590140351
 97
        0
 97
        1
330
98
 75
     2
 76
     1
 98
        1
 10
0.0
 20
0.0
450
        0
451
        0
460
0.0
461
0.0
452
        0
462
0.0
453
        0
470

  0
SPLINE
  5
9A
330
93
100
AcDbEntity
  8
レイヤー 1
100
AcDbSpline
210
0.0
220
0.0
230
1.0
 70
    11
 71
     3
 72
    17
 73
    13
 74
     0
 42
0.0000000001
 43
0.0000000001
 40
0.0
 40
0.0
 40
0.0
 40
0.0
 40
1.0
 40
1.0
 40
1.0
 40
2.0
 40
2.0
 40
2.0
 40
3.0
 40
3.0
 40
3.0
 40
4.0
 40
4.0
 40
4.0
 40
4.0
 10
120.6110703908542
 20
-141.4098008544045
 30
0.0
 10
120.6110703908542
 20
-141.4098008544045
 30
0.0
 10
120.3395968666165
 20
-141.4098008544045
 30
0.0
 10
120.3395968666165
 20
-141.4098008544045
 30
0.0
 10
120.3395968666165
 20
-141.4098008544045
 30
0.0
 10
120.3395968666165
 20
-141.1383273301668
 30
0.0
 10
120.3395968666165
 20
-141.1383273301668
 30
0.0
 10
120.3395968666165
 20
-141.1383273301668
 30
0.0
 10
120.6110703908542
 20
-141.1383273301668
 30
0.0
 10
120.6110703908542
 20
-141.1383273301668
 30
0.0
 10
120.6110703908542
 20
-141.1383273301668
 30
0.0
 10
120.6110703908542
 20
-141.4098008544045
 30
0.0
 10
120.6110703908542
 20
-141.4098008544045
 30
0.0
  0
HATCH
  5
9B
330
93
100
AcDbEntity
  8
レイヤー 1
 62
   250
420
  2299925
440
 33554687
100
AcDbHatch
 10
0.0
 20
0.0
 30
0.0
210
0.0
220
0.0
230
1.0
  2
SOLID
 70
     1
 71
     1
 91
        1
 92
        1
 93
        1
 72
     4
 94
        3
 73
     0
 74
     0
 95
       17
 96
       13
 40
0.0
 40
0.0
 40
0.0
 40
0.0
 40
1.0
 40
1.0
 40
1.0
 40
2.0
 40
2.0
 40
2.0
 40
3.0
 40
3.0
 40
3.0
 40
4.0
 40
4.0
 40
4.0
 40
4.0
 10
120.6110703908542
 20
-141.4098008544045
 10
120.6110703908542
 20
-141.4098008544045
 10
120.3395968666165
 20
-141.4098008544045
 10
120.3395968666165
 20
-141.4098008544045
 10
120.3395968666165
 20
-141.4098008544045
 10
120.3395968666165
 20
-141.1383273301668
 10
120.3395968666165
 20
-141.1383273301668
 10
120.3395968666165
 20
-141.1383273301668
 10
120.6110703908542
 20
-141.1383273301668
 10
120.6110703908542
 20
-141.1383273301668
 10
120.6110703908542
 20
-141.1383273301668
 10
120.6110703908542
 20
-141.4098008544045
 10
120.6110703908542
 20
-141.4098008544045
 97
        0
 97
        1
330
9A
 75
     2
 76
     1
 98
        1
 10
0.0
 20
0.0
450
        0
451
        0
460
0.0
461
0.0
452
        0
462
0.0
453
        0
470

  0
SPLINE
  5
9C
330
93
100
AcDbEntity
  8
レイヤー 1
100
AcDbSpline
210
0.0
220
0.0
230
1.0
 70
     9
 71
     3
 72
    17
 73
    13
 74
     0
 42
0.0000000001
 43
0.0000000001
 40
0.0
 40
0.0
 40
0.0
 40
0.0
 40
1.0
 40
1.0
 40
1.0
 40
2.0
 40
2.0
 40
2.0
 40
3.0
 40
3.0
 40
3.0
 40
4.0
 40
4.0
 40
4.0
 40
4.0
 10
119.8121527478247
 20
-140.3435438017196
 30
0.0
 10
119.8121527478247
 20
-140.4985730985559
 30
0.0
 10
119.9058593450235
 20
-140.6629041532023
 30
0.0
 10
120.1249674178854
 20
-140.6629041532023
 30
0.0
 10
120.346487057587
 20
-140.6629041532023
 30
0.0
 10
120.4560410940179
 20
-140.5261338624379
 30
0.0
 10
120.4560410940179
 20
-140.3435438017196
 30
0.0
 10
120.4560410940179
 20
-140.1426947349296
 30
0.0
 10
120.3234049178358
 20
-140.0238389406885
 30
0.0
 10
120.1318576088559
 20
-140.0238389406885
 30
0.0
 10
119.8920789630825
 20
-140.0238389406885
 30
0.0
 10
119.8121527478247
 20
-140.1997110652105
 30
0.0
 10
119.8121527478247
 20
-140.3435438017196
 30
0.0
  0
SPLINE
  5
9D
330
93
100
AcDbEntity
  8
レイヤー 1
100
AcDbSpline
210
0.0
220
0.0
230
1.0
 70
     9
 71
     3
 72
    17
 73
    13
 74
     0
 42
0.0000000001
 43
0.0000000001
 40
0.0
 40
0.0
 40
0.0
 40
0.0
 40
1.0
 40
1.0
 40
1.0
 40
2.0
 40
2.0
 40
2.0
 40
3.0
 40
3.0
 40
3.0
 40
4.0
 40
4.0
 40
4.0
 40
4.0
 10
119.1000515110236
 20
-140.3435438017196
 30
0.0
 10
119.1000515110236
 20
-140.5214829835328
 30
0.0
 10
119.202715356484
 20
-140.6127780138919
 30
0.0
 10
119.3487874050586
 20
-140.6127780138919
 30
0.0
 10
119.4814235812407
 20
-140.6127780138919
 30
0.0
 10
119.6092366237435
 20
-140.5350911106995
 30
0.0
 10
119.6092366237435
 20
-140.3435438017196
 30
0.0
 10
119.6092366237435
 20
-140.1516519831913
 30
0.0
 10
119.4814235812407
 20
-140.0741373347731
 30
0.0
 10
119.3487874050586
 20
-140.0741373347731
 30
0.0
 10
119.202715356484
 20
-140.0741373347731
 30
0.0
 10
119.1000515110236
 20
-140.1676716771976
 30
0.0
 10
119.1000515110236
 20
-140.3435438017196
 30
0.0
  0
SPLINE
  5
9E
330
93
100
AcDbEntity
  8
レイヤー 1
100
AcDbSpline
210
0.0
220
0.0
230
1.0
 70
     9
 71
     3
 72
    29
 73
    25
 74
     0
 42
0.0000000001
 43
0.0000000001
 40
0.0
 40
0.0
 40
0.0
 40
0.0
 40
1.0
 40
1.0
 40
1.0
 40
2.0
 40
2.0
 40
2.0
 40
3.0
 40
3.0
 40
3.0
 40
4.0
 40
4.0
 40
4.0
 40
5.0
 40
5.0
 40
5.0
 40
6.0
 40
6.0
 40
6.0
 40
7.0
 40
7.0
 40
7.0
 40
8.0
 40
8.0
 40
8.0
 40
8.0
 10
120.6658474090696
 20
-140.3435438017196
 30
0.0
 10
120.6658474090696
 20
-140.6310370199638
 30
0.0
 10
120.5173637936554
 20
-140.9049221110411
 30
0.0
 10
120.1408148571176
 20
-140.9049221110411
 30
0.0
 10
119.864862708749
 20
-140.9049221110411
 30
0.0
 10
119.7621988632886
 20
-140.751959871496
 30
0.0
 10
119.6957085204233
 20
-140.6379272109342
 30
0.0
 10
119.6319742539462
 20
-140.7724581896333
 30
0.0
 10
119.5086398355742
 20
-140.8547959717307
 30
0.0
 10
119.3353515326661
 20
-140.8547959717307
 30
0.0
 10
119.0383843018376
 20
-140.8547959717307
 30
0.0
 10
118.892312253263
 20
-140.6401665229997
 30
0.0
 10
118.892312253263
 20
-140.3435438017196
 30
0.0
 10
118.892312253263
 20
-140.0376193226295
 30
0.0
 10
119.0476860596478
 20
-139.8322916317086
 30
0.0
 10
119.3353515326661
 20
-139.8322916317086
 30
0.0
 10
119.5086398355742
 20
-139.8322916317086
 30
0.0
 10
119.6319742539462
 20
-139.9166964710972
 30
0.0
 10
119.6957085204233
 20
-140.0513997045704
 30
0.0
 10
119.7504855386387
 20
-139.9554537953063
 30
0.0
 10
119.8531493840992
 20
-139.7842325496893
 30
0.0
 10
120.1363362329867
 20
-139.7842325496893
 30
0.0
 10
120.5404459334065
 20
-139.7842325496893
 30
0.0
 10
120.6658474090696
 20
-140.0855061498744
 30
0.0
 10
120.6658474090696
 20
-140.3435438017196
 30
0.0
  0
HATCH
  5
9F
330
93
100
AcDbEntity
  8
レイヤー 1
 62
   250
420
  2299925
440
 33554687
100
AcDbHatch
 10
0.0
 20
0.0
 30
0.0
210
0.0
220
0.0
230
1.0
  2
SOLID
 70
     1
 71
     1
 91
        3
 92
        1
 93
        1
 72
     4
 94
        3
 73
     0
 74
     0
 95
       17
 96
       13
 40
0.0
 40
0.0
 40
0.0
 40
0.0
 40
1.0
 40
1.0
 40
1.0
 40
2.0
 40
2.0
 40
2.0
 40
3.0
 40
3.0
 40
3.0
 40
4.0
 40
4.0
 40
4.0
 40
4.0
 10
119.8121527478247
 20
-140.3435438017196
 10
119.8121527478247
 20
-140.4985730985559
 10
119.9058593450235
 20
-140.6629041532023
 10
120.1249674178854
 20
-140.6629041532023
 10
120.346487057587
 20
-140.6629041532023
 10
120.4560410940179
 20
-140.5261338624379
 10
120.4560410940179
 20
-140.3435438017196
 10
120.4560410940179
 20
-140.1426947349296
 10
120.3234049178358
 20
-140.0238389406885
 10
120.1318576088559
 20
-140.0238389406885
 10
119.8920789630825
 20
-140.0238389406885
 10
119.8121527478247
 20
-140.1997110652105
 10
119.8121527478247
 20
-140.3435438017196
 97
        0
 97
        1
330
9C
 92
        1
 93
        1
 72
     4
 94
        3
 73
     0
 74
     0
 95
       17
 96
       13
 40
0.0
 40
0.0
 40
0.0
 40
0.0
 40
1.0
 40
1.0
 40
1.0
 40
2.0
 40
2.0
 40
2.0
 40
3.0
 40
3.0
 40
3.0
 40
4.0
 40
4.0
 40
4.0
 40
4.0
 10
119.1000515110236
 20
-140.3435438017196
 10
119.1000515110236
 20
-140.5214829835328
 10
119.202715356484
 20
-140.6127780138919
 10
119.3487874050586
 20
-140.6127780138919
 10
119.4814235812407
 20
-140.6127780138919
 10
119.6092366237435
 20
-140.5350911106995
 10
119.6092366237435
 20
-140.3435438017196
 10
119.6092366237435
 20
-140.1516519831913
 10
119.4814235812407
 20
-140.0741373347731
 10
119.3487874050586
 20
-140.0741373347731
 10
119.202715356484
 20
-140.0741373347731
 10
119.1000515110236
 20
-140.1676716771976
 10
119.1000515110236
 20
-140.3435438017196
 97
        0
 97
        1
330
9D
 92
        1
 93
        1
 72
     4
 94
        3
 73
     0
 74
     0
 95
       29
 96
       25
 40
0.0
 40
0.0
 40
0.0
 40
0.0
 40
1.0
 40
1.0
 40
1.0
 40
2.0
 40
2.0
 40
2.0
 40
3.0
 40
3.0
 40
3.0
 40
4.0
 40
4.0
 40
4.0
 40
5.0
 40
5.0
 40
5.0
 40
6.0
 40
6.0
 40
6.0
 40
7.0
 40
7.0
 40
7.0
 40
8.0
 40
8.0
 40
8.0
 40
8.0
 10
120.6658474090696
 20
-140.3435438017196
 10
120.6658474090696
 20
-140.6310370199638
 10
120.5173637936554
 20
-140.9049221110411
 10
120.1408148571176
 20
-140.9049221110411
 10
119.864862708749
 20
-140.9049221110411
 10
119.7621988632886
 20
-140.751959871496
 10
119.6957085204233
 20
-140.6379272109342
 10
119.6319742539462
 20
-140.7724581896333
 10
119.5086398355742
 20
-140.8547959717307
 10
119.3353515326661
 20
-140.8547959717307
 10
119.0383843018376
 20
-140.8547959717307
 10
118.892312253263
 20
-140.6401665229997
 10
118.892312253263
 20
-140.3435438017196
 10
118.892312253263
 20
-140.0376193226295
 10
119.0476860596478
 20
-139.8322916317086
 10
119.3353515326661
 20
-139.8322916317086
 10
119.5086398355742
 20
-139.8322916317086
 10
119.6319742539462
 20
-139.9166964710972
 10
119.6957085204233
 20
-140.0513997045704
 10
119.7504855386387
 20
-139.9554537953063
 10
119.8531493840992
 20
-139.7842325496893
 10
120.1363362329867
 20
-139.7842325496893
 10
120.5404459334065
 20
-139.7842325496893
 10
120.6658474090696
 20
-140.0855061498744
 10
120.6658474090696
 20
-140.3435438017196
 97
        0
 97
        1
330
9E
 75
     2
 76
     1
 98
        1
 10
0.0
 20
0.0
450
        0
451
        0
460
0.0
461
0.0
452
        0
462
0.0
453
        0
470

  0
ENDBLK
  5
96
330
93
100
AcDbEntity
  8
0
100
AcDbBlockEnd
  0
BLOCK
  5
A2
330
A0
100
AcDbEntity
  8
0
100
AcDbBlockBegin
  2
Block_4
 70
     0
 10
0.0
 20
0.0
 30
0.0
  3
Block_4
  1

  0
LINE
  5
A4
330
A0
100
AcDbEntity
  8
レイヤー 1
 62
   250
420
  2299925
370
     9
100
AcDbLine
 10
121.4615968132251
 20
-154.0754651137815
 30
0.0
 11
121.4615968132251
 21
-157.0754519816899
 31
0.0
  0
LINE
  5
A5
330
A0
100
AcDbEntity
  8
レイヤー 1
 62
   250
420
  2299925
370
     9
100
AcDbLine
 10
109.0016624088823
 20
-157.0754519816899
 30
0.0
 11
122.4615123448116
 21
-157.0754519816899
 31
0.0
  0
INSERT
  5
A7
330
A0
100
AcDbEntity
  8
レイヤー 1
100
AcDbBlockReference
  2
Block_5
 10
0.0
 20
0.0
 30
0.0
  0
ENDBLK
  5
A3
330
A0
100
AcDbEntity
  8
0
100
AcDbBlockEnd
  0
BLOCK
  5
A8
330
A6
100
AcDbEntity
  8
0
100
AcDbBlockBegin
  2
Block_5
 70
     0
 10
0.0
 20
0.0
 30
0.0
  3
Block_5
  1

  0
SPLINE
  5
AA
330
A6
100
AcDbEntity
  8
レイヤー 1
100
AcDbSpline
210
0.0
220
0.0
230
1.0
 70
     9
 71
     3
 72
    62
 73
    58
 74
     0
 42
0.0000000001
 43
0.0000000001
 40
0.0
 40
0.0
 40
0.0
 40
0.0
 40
1.0
 40
1.0
 40
1.0
 40
2.0
 40
2.0
 40
2.0
 40
3.0
 40
3.0
 40
3.0
 40
4.0
 40
4.0
 40
4.0
 40
5.0
 40
5.0
 40
5.0
 40
6.0
 40
6.0
 40
6.0
 40
7.0
 40
7.0
 40
7.0
 40
8.0
 40
8.0
 40
8.0
 40
9.0
 40
9.0
 40
9.0
 40
10.0
 40
10.0
 40
10.0
 40
11.0
 40
11.0
 40
11.0
 40
12.0
 40
12.0
 40
12.0
 40
13.0
 40
13.0
 40
13.0
 40
14.0
 40
14.0
 40
14.0
 40
15.0
 40
15.0
 40
15.0
 40
16.0
 40
16.0
 40
16.0
 40
17.0
 40
17.0
 40
17.0
 40
18.0
 40
18.0
 40
18.0
 40
19.0
 40
19.0
 40
19.0
 40
19.0
 10
120.6658474090696
 20
-155.5836126998194
 30
0.0
 10
120.6658474090696
 20
-155.6862765452798
 30
0.0
 10
120.643109778867
 20
-155.9212320573738
 30
0.0
 10
120.4422607120769
 20
-156.0559352908471
 30
0.0
 10
120.3213378605447
 20
-156.1358615061049
 30
0.0
 10
120.2138508814049
 20
-156.1403401302357
 30
0.0
 10
120.1225558510457
 20
-156.1448187543666
 30
0.0
 10
120.1225558510457
 20
-156.1448187543666
 30
0.0
 10
120.1225558510457
 20
-155.9077961849814
 30
0.0
 10
120.1225558510457
 20
-155.9077961849814
 30
0.0
 10
120.2024820663035
 20
-155.9053846181417
 30
0.0
 10
120.4560410940179
 20
-155.8940158030404
 30
0.0
 10
120.4560410940179
 20
-155.5880913239502
 30
0.0
 10
120.4560410940179
 20
-155.4399522180844
 30
0.0
 10
120.380593502891
 20
-155.2752766538895
 30
0.0
 10
120.133924666147
 20
-155.2752766538895
 30
0.0
 10
120.008523190484
 20
-155.2752766538895
 30
0.0
 10
119.9561577391082
 20
-155.3166177997125
 30
0.0
 10
119.9217067842557
 20
-155.3507242450165
 30
0.0
 10
119.8417805689979
 20
-155.4306504602743
 30
0.0
 10
119.8283446966054
 20
-155.5560519359374
 30
0.0
 10
119.8283446966054
 20
-155.6156520878322
 30
0.0
 10
119.8283446966054
 20
-155.6359781511952
 30
0.0
 10
119.8304117538965
 20
-155.6749077301785
 30
0.0
 10
119.8352348875759
 20
-155.7045355513516
 30
0.0
 10
119.8352348875759
 20
-155.7045355513516
 30
0.0
 10
119.6250840629756
 20
-155.7045355513516
 30
0.0
 10
119.6250840629756
 20
-155.7045355513516
 30
0.0
 10
119.6319742539462
 20
-155.6631944055286
 30
0.0
 10
119.6340413112373
 20
-155.6177191451233
 30
0.0
 10
119.6340413112373
 20
-155.6108289541528
 30
0.0
 10
119.6340413112373
 20
-155.5402044967052
 30
0.0
 10
119.6113036810347
 20
-155.3255750479741
 30
0.0
 10
119.3556775960291
 20
-155.3255750479741
 30
0.0
 10
119.1641302870492
 20
-155.3255750479741
 30
0.0
 10
119.1048746447029
 20
-155.4671684724179
 30
0.0
 10
119.1048746447029
 20
-155.586024266659
 30
0.0
 10
119.1048746447029
 20
-155.8712781728377
 30
0.0
 10
119.3556775960291
 20
-155.8802354210994
 30
0.0
 10
119.4335367539958
 20
-155.8847140452302
 30
0.0
 10
119.4335367539958
 20
-155.8847140452302
 30
0.0
 10
119.4335367539958
 20
-156.1038221180921
 30
0.0
 10
119.4335367539958
 20
-156.1038221180921
 30
0.0
 10
119.2988335205225
 20
-156.0948648698304
 30
0.0
 10
118.892312253263
 20
-156.0648925391088
 30
0.0
 10
118.892312253263
 20
-155.572243884718
 30
0.0
 10
118.892312253263
 20
-155.3303981816535
 30
0.0
 10
119.029427053576
 20
-155.0699489629686
 30
0.0
 10
119.3487874050586
 20
-155.0699489629686
 30
0.0
 10
119.5496364718487
 20
-155.0699489629686
 30
0.0
 10
119.6388644449166
 20
-155.1726128084291
 30
0.0
 10
119.7050102782335
 20
-155.2800997875688
 30
0.0
 10
119.7346380994066
 20
-155.2139539542521
 30
0.0
 10
119.8214545056349
 20
-155.0175835115928
 30
0.0
 10
120.1204887937546
 20
-155.0175835115928
 30
0.0
 10
120.4856689151911
 20
-155.0175835115928
 30
0.0
 10
120.6658474090696
 20
-155.2845784116997
 30
0.0
 10
120.6658474090696
 20
-155.5836126998194
 30
0.0
  0
HATCH
  5
AB
330
A6
100
AcDbEntity
  8
レイヤー 1
 62
   250
420
  2299925
440
 33554687
100
AcDbHatch
 10
0.0
 20
0.0
 30
0.0
210
0.0
220
0.0
230
1.0
  2
SOLID
 70
     1
 71
     1
 91
        1
 92
        1
 93
        1
 72
     4
 94
        3
 73
     0
 74
     0
 95
       62
 96
       58
 40
0.0
 40
0.0
 40
0.0
 40
0.0
 40
1.0
 40
1.0
 40
1.0
 40
2.0
 40
2.0
 40
2.0
 40
3.0
 40
3.0
 40
3.0
 40
4.0
 40
4.0
 40
4.0
 40
5.0
 40
5.0
 40
5.0
 40
6.0
 40
6.0
 40
6.0
 40
7.0
 40
7.0
 40
7.0
 40
8.0
 40
8.0
 40
8.0
 40
9.0
 40
9.0
 40
9.0
 40
10.0
 40
10.0
 40
10.0
 40
11.0
 40
11.0
 40
11.0
 40
12.0
 40
12.0
 40
12.0
 40
13.0
 40
13.0
 40
13.0
 40
14.0
 40
14.0
 40
14.0
 40
15.0
 40
15.0
 40
15.0
 40
16.0
 40
16.0
 40
16.0
 40
17.0
 40
17.0
 40
17.0
 40
18.0
 40
18.0
 40
18.0
 40
19.0
 40
19.0
 40
19.0
 40
19.0
 10
120.6658474090696
 20
-155.5836126998194
 10
120.6658474090696
 20
-155.6862765452798
 10
120.643109778867
 20
-155.9212320573738
 10
120.4422607120769
 20
-156.0559352908471
 10
120.3213378605447
 20
-156.1358615061049
 10
120.2138508814049
 20
-156.1403401302357
 10
120.1225558510457
 20
-156.1448187543666
 10
120.1225558510457
 20
-156.1448187543666
 10
120.1225558510457
 20
-155.9077961849814
 10
120.1225558510457
 20
-155.9077961849814
 10
120.2024820663035
 20
-155.9053846181417
 10
120.4560410940179
 20
-155.8940158030404
 10
120.4560410940179
 20
-155.5880913239502
 10
120.4560410940179
 20
-155.4399522180844
 10
120.380593502891
 20
-155.2752766538895
 10
120.133924666147
 20
-155.2752766538895
 10
120.008523190484
 20
-155.2752766538895
 10
119.9561577391082
 20
-155.3166177997125
 10
119.9217067842557
 20
-155.3507242450165
 10
119.8417805689979
 20
-155.4306504602743
 10
119.8283446966054
 20
-155.5560519359374
 10
119.8283446966054
 20
-155.6156520878322
 10
119.8283446966054
 20
-155.6359781511952
 10
119.8304117538965
 20
-155.6749077301785
 10
119.8352348875759
 20
-155.7045355513516
 10
119.8352348875759
 20
-155.7045355513516
 10
119.6250840629756
 20
-155.7045355513516
 10
119.6250840629756
 20
-155.7045355513516
 10
119.6319742539462
 20
-155.6631944055286
 10
119.6340413112373
 20
-155.6177191451233
 10
119.6340413112373
 20
-155.6108289541528
 10
119.6340413112373
 20
-155.5402044967052
 10
119.6113036810347
 20
-155.3255750479741
 10
119.3556775960291
 20
-155.3255750479741
 10
119.1641302870492
 20
-155.3255750479741
 10
119.1048746447029
 20
-155.4671684724179
 10
119.1048746447029
 20
-155.586024266659
 10
119.1048746447029
 20
-155.8712781728377
 10
119.3556775960291
 20
-155.8802354210994
 10
119.4335367539958
 20
-155.8847140452302
 10
119.4335367539958
 20
-155.8847140452302
 10
119.4335367539958
 20
-156.1038221180921
 10
119.4335367539958
 20
-156.1038221180921
 10
119.2988335205225
 20
-156.0948648698304
 10
118.892312253263
 20
-156.0648925391088
 10
118.892312253263
 20
-155.572243884718
 10
118.892312253263
 20
-155.3303981816535
 10
119.029427053576
 20
-155.0699489629686
 10
119.3487874050586
 20
-155.0699489629686
 10
119.5496364718487
 20
-155.0699489629686
 10
119.6388644449166
 20
-155.1726128084291
 10
119.7050102782335
 20
-155.2800997875688
 10
119.7346380994066
 20
-155.2139539542521
 10
119.8214545056349
 20
-155.0175835115928
 10
120.1204887937546
 20
-155.0175835115928
 10
120.4856689151911
 20
-155.0175835115928
 10
120.6658474090696
 20
-155.2845784116997
 10
120.6658474090696
 20
-155.5836126998194
 97
        0
 97
        1
330
AA
 75
     2
 76
     1
 98
        1
 10
0.0
 20
0.0
450
        0
451
        0
460
0.0
461
0.0
452
        0
462
0.0
453
        0
470

  0
ENDBLK
  5
A9
330
A6
100
AcDbEntity
  8
0
100
AcDbBlockEnd
  0
BLOCK
  5
AE
330
AC
100
AcDbEntity
  8
0
100
AcDbBlockBegin
  2
Block_6
 70
     0
 10
0.0
 20
0.0
 30
0.0
  3
Block_6
  1

  0
LINE
  5
B0
330
AC
100
AcDbEntity
  8
レイヤー 1
 62
   250
420
  2299925
370
     9
100
AcDbLine
 10
121.4615968132251
 20
-144.0757323133404
 30
0.0
 11
121.4615968132251
 21
-154.0754651137815
 31
0.0
  0
LINE
  5
B1
330
AC
100
AcDbEntity
  8
レイヤー 1
 62
   250
420
  2299925
370
     9
100
AcDbLine
 10
120.001555461585
 20
-144.0757323133404
 30
0.0
 11
122.4615123448116
 21
-144.0757323133404
 31
0.0
  0
LINE
  5
B2
330
AC
100
AcDbEntity
  8
レイヤー 1
 62
   250
420
  2299925
370
     9
100
AcDbLine
 10
109.0016624088823
 20
-154.0754651137815
 30
0.0
 11
122.4615123448116
 21
-154.0754651137815
 31
0.0
  0
INSERT
  5
B4
330
AC
100
AcDbEntity
  8
レイヤー 1
100
AcDbBlockReference
  2
Block_7
 10
0.0
 20
0.0
 30
0.0
  0
ENDBLK
  5
AF
330
AC
100
AcDbEntity
  8
0
100
AcDbBlockEnd
  0
BLOCK
  5
B5
330
B3
100
AcDbEntity
  8
0
100
AcDbBlockBegin
  2
Block_7
 70
     0
 10
0.0
 20
0.0
 30
0.0
  3
Block_7
  1

  0
INSERT
  5
B8
330
B3
100
AcDbEntity
  8
レイヤー 1
100
AcDbBlockReference
  2
Block_8
 10
0.0
 20
0.0
 30
0.0
  0
ENDBLK
  5
B6
330
B3
100
AcDbEntity
  8
0
100
AcDbBlockEnd
  0
BLOCK
  5
B9
330
B7
100
AcDbEntity
  8
0
100
AcDbBlockBegin
  2
Block_8
 70
     0
 10
0.0
 20
0.0
 30
0.0
  3
Block_8
  1

  0
SPLINE
  5
BB
330
B7
100
AcDbEntity
  8
レイヤー 1
100
AcDbSpline
210
0.0
220
0.0
230
1.0
 70
    11
 71
     3
 72
    26
 73
    22
 74
     0
 42
0.0000000001
 43
0.0000000001
 40
0.0
 40
0.0
 40
0.0
 40
0.0
 40
1.0
 40
1.0
 40
1.0
 40
2.0
 40
2.0
 40
2.0
 40
3.0
 40
3.0
 40
3.0
 40
4.0
 40
4.0
 40
4.0
 40
5.0
 40
5.0
 40
5.0
 40
6.0
 40
6.0
 40
6.0
 40
7.0
 40
7.0
 40
7.0
 40
7.0
 10
120.6107258813056
 20
-149.8096326665406
 30
0.0
 10
120.6107258813056
 20
-149.8096326665406
 30
0.0
 10
119.4194118625062
 20
-149.8096326665406
 30
0.0
 10
119.4194118625062
 20
-149.8096326665406
 30
0.0
 10
119.4194118625062
 20
-149.8096326665406
 30
0.0
 10
119.4194118625062
 20
-150.1910047367578
 30
0.0
 10
119.4194118625062
 20
-150.1910047367578
 30
0.0
 10
119.4194118625062
 20
-150.1910047367578
 30
0.0
 10
119.2595594319906
 20
-150.1910047367578
 30
0.0
 10
119.2595594319906
 20
-150.1910047367578
 30
0.0
 10
119.2437119927585
 20
-149.8072210997009
 30
0.0
 10
119.0676676134622
 20
-149.7534776101311
 30
0.0
 10
118.9446777046388
 20
-149.7190266552786
 30
0.0
 10
118.9446777046388
 20
-149.7190266552786
 30
0.0
 10
118.9446777046388
 20
-149.5505614860499
 30
0.0
 10
118.9446777046388
 20
-149.5505614860499
 30
0.0
 10
118.9446777046388
 20
-149.5505614860499
 30
0.0
 10
120.6107258813056
 20
-149.5505614860499
 30
0.0
 10
120.6107258813056
 20
-149.5505614860499
 30
0.0
 10
120.6107258813056
 20
-149.5505614860499
 30
0.0
 10
120.6107258813056
 20
-149.8096326665406
 30
0.0
 10
120.6107258813056
 20
-149.8096326665406
 30
0.0
  0
HATCH
  5
BC
330
B7
100
AcDbEntity
  8
レイヤー 1
 62
   250
420
  2299925
440
 33554687
100
AcDbHatch
 10
0.0
 20
0.0
 30
0.0
210
0.0
220
0.0
230
1.0
  2
SOLID
 70
     1
 71
     1
 91
        1
 92
        1
 93
        1
 72
     4
 94
        3
 73
     0
 74
     0
 95
       26
 96
       22
 40
0.0
 40
0.0
 40
0.0
 40
0.0
 40
1.0
 40
1.0
 40
1.0
 40
2.0
 40
2.0
 40
2.0
 40
3.0
 40
3.0
 40
3.0
 40
4.0
 40
4.0
 40
4.0
 40
5.0
 40
5.0
 40
5.0
 40
6.0
 40
6.0
 40
6.0
 40
7.0
 40
7.0
 40
7.0
 40
7.0
 10
120.6107258813056
 20
-149.8096326665406
 10
120.6107258813056
 20
-149.8096326665406
 10
119.4194118625062
 20
-149.8096326665406
 10
119.4194118625062
 20
-149.8096326665406
 10
119.4194118625062
 20
-149.8096326665406
 10
119.4194118625062
 20
-150.1910047367578
 10
119.4194118625062
 20
-150.1910047367578
 10
119.4194118625062
 20
-150.1910047367578
 10
119.2595594319906
 20
-150.1910047367578
 10
119.2595594319906
 20
-150.1910047367578
 10
119.2437119927585
 20
-149.8072210997009
 10
119.0676676134622
 20
-149.7534776101311
 10
118.9446777046388
 20
-149.7190266552786
 10
118.9446777046388
 20
-149.7190266552786
 10
118.9446777046388
 20
-149.5505614860499
 10
118.9446777046388
 20
-149.5505614860499
 10
118.9446777046388
 20
-149.5505614860499
 10
120.6107258813056
 20
-149.5505614860499
 10
120.6107258813056
 20
-149.5505614860499
 10
120.6107258813056
 20
-149.5505614860499
 10
120.6107258813056
 20
-149.8096326665406
 10
120.6107258813056
 20
-149.8096326665406
 97
        0
 97
        1
330
BB
 75
     2
 76
     1
 98
        1
 10
0.0
 20
0.0
450
        0
451
        0
460
0.0
461
0.0
452
        0
462
0.0
453
        0
470

  0
SPLINE
  5
BD
330
B7
100
AcDbEntity
  8
レイヤー 1
100
AcDbSpline
210
0.0
220
0.0
230
1.0
 70
     9
 71
     3
 72
    17
 73
    13
 74
     0
 42
0.0000000001
 43
0.0000000001
 40
0.0
 40
0.0
 40
0.0
 40
0.0
 40
1.0
 40
1.0
 40
1.0
 40
2.0
 40
2.0
 40
2.0
 40
3.0
 40
3.0
 40
3.0
 40
4.0
 40
4.0
 40
4.0
 40
4.0
 10
119.099707001475
 20
-148.3957654793941
 30
0.0
 10
119.099707001475
 20
-148.6841199715095
 30
0.0
 10
119.4056314805652
 20
-148.7378634610794
 30
0.0
 10
119.7777017929722
 20
-148.7378634610794
 30
0.0
 10
120.1222113414972
 20
-148.7378634610794
 30
0.0
 10
120.4553520749209
 20
-148.6963500604821
 30
0.0
 10
120.4553520749209
 20
-148.3957654793941
 30
0.0
 10
120.4553520749209
 20
-148.1098225541184
 30
0.0
 10
120.1518391626704
 20
-148.0536674977088
 30
0.0
 10
119.7777017929722
 20
-148.0536674977088
 30
0.0
 10
119.4328477348987
 20
-148.0536674977088
 30
0.0
 10
119.099707001475
 20
-148.0975924651457
 30
0.0
 10
119.099707001475
 20
-148.3957654793941
 30
0.0
  0
SPLINE
  5
BE
330
B7
100
AcDbEntity
  8
レイヤー 1
100
AcDbSpline
210
0.0
220
0.0
230
1.0
 70
     9
 71
     3
 72
    29
 73
    25
 74
     0
 42
0.0000000001
 43
0.0000000001
 40
0.0
 40
0.0
 40
0.0
 40
0.0
 40
1.0
 40
1.0
 40
1.0
 40
2.0
 40
2.0
 40
2.0
 40
3.0
 40
3.0
 40
3.0
 40
4.0
 40
4.0
 40
4.0
 40
5.0
 40
5.0
 40
5.0
 40
6.0
 40
6.0
 40
6.0
 40
7.0
 40
7.0
 40
7.0
 40
8.0
 40
8.0
 40
8.0
 40
8.0
 10
120.4188340627772
 20
-147.936361996436
 30
0.0
 10
120.6448323266096
 20
-148.0609021982278
 30
0.0
 10
120.6655028995211
 20
-148.2614067554694
 30
0.0
 10
120.6655028995211
 20
-148.3957654793941
 30
0.0
 10
120.6655028995211
 20
-148.5814561260491
 30
0.0
 10
120.6152045054365
 20
-148.7452704163727
 30
0.0
 10
120.4188340627772
 20
-148.8551689623522
 30
0.0
 10
120.2090277477255
 20
-148.9748860304646
 30
0.0
 10
119.95340166272
 20
-148.9969346415702
 30
0.0
 10
119.7777017929722
 20
-148.9969346415702
 30
0.0
 10
119.6223279865874
 20
-148.9969346415702
 30
0.0
 10
119.3508544623498
 20
-148.9772975973043
 30
0.0
 10
119.1362250136187
 20
-148.8551689623522
 30
0.0
 10
118.9171169407568
 20
-148.7306287605604
 30
0.0
 10
118.8919677437145
 20
-148.5447658591312
 30
0.0
 10
118.8919677437145
 20
-148.3957654793941
 30
0.0
 10
118.8919677437145
 20
-148.2124863995788
 30
0.0
 10
118.940199080508
 20
-148.0462605424155
 30
0.0
 10
119.1362250136187
 20
-147.936361996436
 30
0.0
 10
119.3439642713793
 20
-147.8214680620029
 30
0.0
 10
119.5906331081232
 20
-147.794596317218
 30
0.0
 10
119.7777017929722
 20
-147.794596317218
 30
0.0
 10
119.9627034205301
 20
-147.794596317218
 30
0.0
 10
120.2114393145652
 20
-147.8190564951633
 30
0.0
 10
120.4188340627772
 20
-147.936361996436
 30
0.0
  0
HATCH
  5
BF
330
B7
100
AcDbEntity
  8
レイヤー 1
 62
   250
420
  2299925
440
 33554687
100
AcDbHatch
 10
0.0
 20
0.0
 30
0.0
210
0.0
220
0.0
230
1.0
  2
SOLID
 70
     1
 71
     1
 91
        2
 92
        1
 93
        1
 72
     4
 94
        3
 73
     0
 74
     0
 95
       17
 96
       13
 40
0.0
 40
0.0
 40
0.0
 40
0.0
 40
1.0
 40
1.0
 40
1.0
 40
2.0
 40
2.0
 40
2.0
 40
3.0
 40
3.0
 40
3.0
 40
4.0
 40
4.0
 40
4.0
 40
4.0
 10
119.099707001475
 20
-148.3957654793941
 10
119.099707001475
 20
-148.6841199715095
 10
119.4056314805652
 20
-148.7378634610794
 10
119.7777017929722
 20
-148.7378634610794
 10
120.1222113414972
 20
-148.7378634610794
 10
120.4553520749209
 20
-148.6963500604821
 10
120.4553520749209
 20
-148.3957654793941
 10
120.4553520749209
 20
-148.1098225541184
 10
120.1518391626704
 20
-148.0536674977088
 10
119.7777017929722
 20
-148.0536674977088
 10
119.4328477348987
 20
-148.0536674977088
 10
119.099707001475
 20
-148.0975924651457
 10
119.099707001475
 20
-148.3957654793941
 97
        0
 97
        1
330
BD
 92
        1
 93
        1
 72
     4
 94
        3
 73
     0
 74
     0
 95
       29
 96
       25
 40
0.0
 40
0.0
 40
0.0
 40
0.0
 40
1.0
 40
1.0
 40
1.0
 40
2.0
 40
2.0
 40
2.0
 40
3.0
 40
3.0
 40
3.0
 40
4.0
 40
4.0
 40
4.0
 40
5.0
 40
5.0
 40
5.0
 40
6.0
 40
6.0
 40
6.0
 40
7.0
 40
7.0
 40
7.0
 40
8.0
 40
8.0
 40
8.0
 40
8.0
 10
120.4188340627772
 20
-147.936361996436
 10
120.6448323266096
 20
-148.0609021982278
 10
120.6655028995211
 20
-148.2614067554694
 10
120.6655028995211
 20
-148.3957654793941
 10
120.6655028995211
 20
-148.5814561260491
 10
120.6152045054365
 20
-148.7452704163727
 10
120.4188340627772
 20
-148.8551689623522
 10
120.2090277477255
 20
-148.9748860304646
 10
119.95340166272
 20
-148.9969346415702
 10
119.7777017929722
 20
-148.9969346415702
 10
119.6223279865874
 20
-148.9969346415702
 10
119.3508544623498
 20
-148.9772975973043
 10
119.1362250136187
 20
-148.8551689623522
 10
118.9171169407568
 20
-148.7306287605604
 10
118.8919677437145
 20
-148.5447658591312
 10
118.8919677437145
 20
-148.3957654793941
 10
118.8919677437145
 20
-148.2124863995788
 10
118.940199080508
 20
-148.0462605424155
 10
119.1362250136187
 20
-147.936361996436
 10
119.3439642713793
 20
-147.8214680620029
 10
119.5906331081232
 20
-147.794596317218
 10
119.7777017929722
 20
-147.794596317218
 10
119.9627034205301
 20
-147.794596317218
 10
120.2114393145652
 20
-147.8190564951633
 10
120.4188340627772
 20
-147.936361996436
 97
        0
 97
        1
330
BE
 75
     2
 76
     1
 98
        1
 10
0.0
 20
0.0
450
        0
451
        0
460
0.0
461
0.0
452
        0
462
0.0
453
        0
470

  0
ENDBLK
  5
BA
330
B7
100
AcDbEntity
  8
0
100
AcDbBlockEnd
  0
BLOCK
  5
C2
330
C0
100
AcDbEntity
  8
0
100
AcDbBlockBegin
  2
Block_9
 70
     0
 10
0.0
 20
0.0
 30
0.0
  3
Block_9
  1

  0
LINE
  5
C4
330
C0
100
AcDbEntity
  8
レイヤー 1
 62
   250
420
  2299925
370
     9
100
AcDbLine
 10
99.4615637633813
 20
-140.0755146376167
 30
0.0
 11
117.4616613597164
 21
-140.0755146376167
 31
0.0
  0
LINE
  5
C5
330
C0
100
AcDbEntity
  8
レイヤー 1
 62
   250
420
  2299925
370
     9
100
AcDbLine
 10
99.4615637633813
 20
-141.5355207114799
 30
0.0
 11
99.4615637633813
 21
-139.0757424409005
 31
0.0
  0
LINE
  5
C6
330
C0
100
AcDbEntity
  8
レイヤー 1
 62
   250
420
  2299925
370
     9
100
AcDbLine
 10
117.4616613597164
 20
-141.5355207114799
 30
0.0
 11
117.4616613597164
 21
-139.0757424409005
 31
0.0
  0
INSERT
  5
C8
330
C0
100
AcDbEntity
  8
レイヤー 1
100
AcDbBlockReference
  2
Block_10
 10
0.0
 20
0.0
 30
0.0
  0
ENDBLK
  5
C3
330
C0
100
AcDbEntity
  8
0
100
AcDbBlockEnd
  0
BLOCK
  5
C9
330
C7
100
AcDbEntity
  8
0
100
AcDbBlockBegin
  2
Block_10
 70
     0
 10
0.0
 20
0.0
 30
0.0
  3
Block_10
  1

  0
INSERT
  5
CC
330
C7
100
AcDbEntity
  8
レイヤー 1
100
AcDbBlockReference
  2
Block_11
 10
0.0
 20
0.0
 30
0.0
  0
ENDBLK
  5
CA
330
C7
100
AcDbEntity
  8
0
100
AcDbBlockEnd
  0
BLOCK
  5
CD
330
CB
100
AcDbEntity
  8
0
100
AcDbBlockBegin
  2
Block_11
 70
     0
 10
0.0
 20
0.0
 30
0.0
  3
Block_11
  1

  0
SPLINE
  5
CF
330
CB
100
AcDbEntity
  8
レイヤー 1
100
AcDbSpline
210
0.0
220
0.0
230
1.0
 70
    11
 71
     3
 72
    26
 73
    22
 74
     0
 42
0.0000000001
 43
0.0000000001
 40
0.0
 40
0.0
 40
0.0
 40
0.0
 40
1.0
 40
1.0
 40
1.0
 40
2.0
 40
2.0
 40
2.0
 40
3.0
 40
3.0
 40
3.0
 40
4.0
 40
4.0
 40
4.0
 40
5.0
 40
5.0
 40
5.0
 40
6.0
 40
6.0
 40
6.0
 40
7.0
 40
7.0
 40
7.0
 40
7.0
 10
107.6795599774204
 20
-138.8135768967202
 30
0.0
 10
107.6795599774204
 20
-138.8135768967202
 30
0.0
 10
107.6795599774204
 20
-137.6222628779208
 30
0.0
 10
107.6795599774204
 20
-137.6222628779208
 30
0.0
 10
107.6795599774204
 20
-137.6222628779208
 30
0.0
 10
107.2985324167517
 20
-137.6222628779208
 30
0.0
 10
107.2985324167517
 20
-137.6222628779208
 30
0.0
 10
107.2985324167517
 20
-137.6222628779208
 30
0.0
 10
107.2985324167517
 20
-137.4624104474052
 30
0.0
 10
107.2985324167517
 20
-137.4624104474052
 30
0.0
 10
107.68197154426
 20
-137.4463907533988
 30
0.0
 10
107.7357150338299
 20
-137.270690883651
 30
0.0
 10
107.7701659886824
 20
-137.1475287200534
 30
0.0
 10
107.7701659886824
 20
-137.1475287200534
 30
0.0
 10
107.9386311579112
 20
-137.1475287200534
 30
0.0
 10
107.9386311579112
 20
-137.1475287200534
 30
0.0
 10
107.9386311579112
 20
-137.1475287200534
 30
0.0
 10
107.9386311579112
 20
-138.8135768967202
 30
0.0
 10
107.9386311579112
 20
-138.8135768967202
 30
0.0
 10
107.9386311579112
 20
-138.8135768967202
 30
0.0
 10
107.6795599774204
 20
-138.8135768967202
 30
0.0
 10
107.6795599774204
 20
-138.8135768967202
 30
0.0
  0
HATCH
  5
D0
330
CB
100
AcDbEntity
  8
レイヤー 1
 62
   250
420
  2299925
440
 33554687
100
AcDbHatch
 10
0.0
 20
0.0
 30
0.0
210
0.0
220
0.0
230
1.0
  2
SOLID
 70
     1
 71
     1
 91
        1
 92
        1
 93
        1
 72
     4
 94
        3
 73
     0
 74
     0
 95
       26
 96
       22
 40
0.0
 40
0.0
 40
0.0
 40
0.0
 40
1.0
 40
1.0
 40
1.0
 40
2.0
 40
2.0
 40
2.0
 40
3.0
 40
3.0
 40
3.0
 40
4.0
 40
4.0
 40
4.0
 40
5.0
 40
5.0
 40
5.0
 40
6.0
 40
6.0
 40
6.0
 40
7.0
 40
7.0
 40
7.0
 40
7.0
 10
107.6795599774204
 20
-138.8135768967202
 10
107.6795599774204
 20
-138.8135768967202
 10
107.6795599774204
 20
-137.6222628779208
 10
107.6795599774204
 20
-137.6222628779208
 10
107.6795599774204
 20
-137.6222628779208
 10
107.2985324167517
 20
-137.6222628779208
 10
107.2985324167517
 20
-137.6222628779208
 10
107.2985324167517
 20
-137.6222628779208
 10
107.2985324167517
 20
-137.4624104474052
 10
107.2985324167517
 20
-137.4624104474052
 10
107.68197154426
 20
-137.4463907533988
 10
107.7357150338299
 20
-137.270690883651
 10
107.7701659886824
 20
-137.1475287200534
 10
107.7701659886824
 20
-137.1475287200534
 10
107.9386311579112
 20
-137.1475287200534
 10
107.9386311579112
 20
-137.1475287200534
 10
107.9386311579112
 20
-137.1475287200534
 10
107.9386311579112
 20
-138.8135768967202
 10
107.9386311579112
 20
-138.8135768967202
 10
107.9386311579112
 20
-138.8135768967202
 10
107.6795599774204
 20
-138.8135768967202
 10
107.6795599774204
 20
-138.8135768967202
 97
        0
 97
        1
330
CF
 75
     2
 76
     1
 98
        1
 10
0.0
 20
0.0
450
        0
451
        0
460
0.0
461
0.0
452
        0
462
0.0
453
        0
470

  0
SPLINE
  5
D1
330
CB
100
AcDbEntity
  8
レイヤー 1
100
AcDbSpline
210
0.0
220
0.0
230
1.0
 70
     9
 71
     3
 72
    17
 73
    13
 74
     0
 42
0.0000000001
 43
0.0000000001
 40
0.0
 40
0.0
 40
0.0
 40
0.0
 40
1.0
 40
1.0
 40
1.0
 40
2.0
 40
2.0
 40
2.0
 40
3.0
 40
3.0
 40
3.0
 40
4.0
 40
4.0
 40
4.0
 40
4.0
 10
109.0934271645669
 20
-137.3025580168896
 30
0.0
 10
108.9029133842326
 20
-137.3025580168896
 30
0.0
 10
108.8050726724515
 20
-137.4053941171243
 30
0.0
 10
108.8050726724515
 20
-137.5514661656989
 30
0.0
 10
108.8050726724515
 20
-137.6837578323325
 30
0.0
 10
108.888099473646
 20
-137.8115708748353
 30
0.0
 10
109.0934271645669
 20
-137.8115708748353
 30
0.0
 10
109.2987548554878
 20
-137.8115708748353
 30
0.0
 10
109.3817816566823
 20
-137.6837578323325
 30
0.0
 10
109.3817816566823
 20
-137.5514661656989
 30
0.0
 10
109.3817816566823
 20
-137.4053941171243
 30
0.0
 10
109.2818738876101
 20
-137.3025580168896
 30
0.0
 10
109.0934271645669
 20
-137.3025580168896
 30
0.0
  0
SPLINE
  5
D2
330
CB
100
AcDbEntity
  8
レイヤー 1
100
AcDbSpline
210
0.0
220
0.0
230
1.0
 70
     9
 71
     3
 72
    17
 73
    13
 74
     0
 42
0.0000000001
 43
0.0000000001
 40
0.0
 40
0.0
 40
0.0
 40
0.0
 40
1.0
 40
1.0
 40
1.0
 40
2.0
 40
2.0
 40
2.0
 40
3.0
 40
3.0
 40
3.0
 40
4.0
 40
4.0
 40
4.0
 40
4.0
 10
109.0934271645669
 20
-138.0146592536908
 30
0.0
 10
108.9273735621778
 20
-138.0146592536908
 30
0.0
 10
108.7513291828816
 20
-138.1083658508896
 30
0.0
 10
108.7513291828816
 20
-138.3274739237515
 30
0.0
 10
108.7513291828816
 20
-138.5488213086788
 30
0.0
 10
108.8980902505532
 20
-138.6583753451097
 30
0.0
 10
109.0934271645669
 20
-138.6583753451097
 30
0.0
 10
109.308745632395
 20
-138.6583753451097
 30
0.0
 10
109.4355251462522
 20
-138.5259114237018
 30
0.0
 10
109.4355251462522
 20
-138.3343641147219
 30
0.0
 10
109.4355251462522
 20
-138.0945854689486
 30
0.0
 10
109.2474229327576
 20
-138.0146592536908
 30
0.0
 10
109.0934271645669
 20
-138.0146592536908
 30
0.0
  0
SPLINE
  5
D3
330
CB
100
AcDbEntity
  8
レイヤー 1
100
AcDbSpline
210
0.0
220
0.0
230
1.0
 70
     9
 71
     3
 72
    29
 73
    25
 74
     0
 42
0.0000000001
 43
0.0000000001
 40
0.0
 40
0.0
 40
0.0
 40
0.0
 40
1.0
 40
1.0
 40
1.0
 40
2.0
 40
2.0
 40
2.0
 40
3.0
 40
3.0
 40
3.0
 40
4.0
 40
4.0
 40
4.0
 40
5.0
 40
5.0
 40
5.0
 40
6.0
 40
6.0
 40
6.0
 40
7.0
 40
7.0
 40
7.0
 40
8.0
 40
8.0
 40
8.0
 40
8.0
 10
109.0934271645669
 20
-138.8683539149357
 30
0.0
 10
108.7854356281856
 20
-138.8683539149357
 30
0.0
 10
108.4922580023908
 20
-138.7200425542957
 30
0.0
 10
108.4922580023908
 20
-138.3433213629836
 30
0.0
 10
108.4922580023908
 20
-138.0671969598408
 30
0.0
 10
108.6562445474887
 20
-137.9645331143804
 30
0.0
 10
108.7782009276665
 20
-137.8983872810636
 30
0.0
 10
108.6341959363831
 20
-137.8344807598122
 30
0.0
 10
108.5460014919607
 20
-137.7111463414403
 30
0.0
 10
108.5460014919607
 20
-137.5376857837579
 30
0.0
 10
108.5460014919607
 20
-137.2410630624779
 30
0.0
 10
108.7757893608269
 20
-137.0949910139033
 30
0.0
 10
109.0934271645669
 20
-137.0949910139033
 30
0.0
 10
109.4210557452142
 20
-137.0949910139033
 30
0.0
 10
109.6408528371731
 20
-137.2501925655138
 30
0.0
 10
109.6408528371731
 20
-137.5376857837579
 30
0.0
 10
109.6408528371731
 20
-137.7111463414403
 30
0.0
 10
109.5505913354596
 20
-137.8344807598122
 30
0.0
 10
109.4062418346276
 20
-137.8983872810636
 30
0.0
 10
109.508905680088
 20
-137.9531642992791
 30
0.0
 10
109.6921847599033
 20
-138.0558281447395
 30
0.0
 10
109.6921847599033
 20
-138.3388427388528
 30
0.0
 10
109.6921847599033
 20
-138.7427801844983
 30
0.0
 10
109.3697238224839
 20
-138.8683539149357
 30
0.0
 10
109.0934271645669
 20
-138.8683539149357
 30
0.0
  0
HATCH
  5
D4
330
CB
100
AcDbEntity
  8
レイヤー 1
 62
   250
420
  2299925
440
 33554687
100
AcDbHatch
 10
0.0
 20
0.0
 30
0.0
210
0.0
220
0.0
230
1.0
  2
SOLID
 70
     1
 71
     1
 91
        3
 92
        1
 93
        1
 72
     4
 94
        3
 73
     0
 74
     0
 95
       17
 96
       13
 40
0.0
 40
0.0
 40
0.0
 40
0.0
 40
1.0
 40
1.0
 40
1.0
 40
2.0
 40
2.0
 40
2.0
 40
3.0
 40
3.0
 40
3.0
 40
4.0
 40
4.0
 40
4.0
 40
4.0
 10
109.0934271645669
 20
-137.3025580168896
 10
108.9029133842326
 20
-137.3025580168896
 10
108.8050726724515
 20
-137.4053941171243
 10
108.8050726724515
 20
-137.5514661656989
 10
108.8050726724515
 20
-137.6837578323325
 10
108.888099473646
 20
-137.8115708748353
 10
109.0934271645669
 20
-137.8115708748353
 10
109.2987548554878
 20
-137.8115708748353
 10
109.3817816566823
 20
-137.6837578323325
 10
109.3817816566823
 20
-137.5514661656989
 10
109.3817816566823
 20
-137.4053941171243
 10
109.2818738876101
 20
-137.3025580168896
 10
109.0934271645669
 20
-137.3025580168896
 97
        0
 97
        1
330
D1
 92
        1
 93
        1
 72
     4
 94
        3
 73
     0
 74
     0
 95
       17
 96
       13
 40
0.0
 40
0.0
 40
0.0
 40
0.0
 40
1.0
 40
1.0
 40
1.0
 40
2.0
 40
2.0
 40
2.0
 40
3.0
 40
3.0
 40
3.0
 40
4.0
 40
4.0
 40
4.0
 40
4.0
 10
109.0934271645669
 20
-138.0146592536908
 10
108.9273735621778
 20
-138.0146592536908
 10
108.7513291828816
 20
-138.1083658508896
 10
108.7513291828816
 20
-138.3274739237515
 10
108.7513291828816
 20
-138.5488213086788
 10
108.8980902505532
 20
-138.6583753451097
 10
109.0934271645669
 20
-138.6583753451097
 10
109.308745632395
 20
-138.6583753451097
 10
109.4355251462522
 20
-138.5259114237018
 10
109.4355251462522
 20
-138.3343641147219
 10
109.4355251462522
 20
-138.0945854689486
 10
109.2474229327576
 20
-138.0146592536908
 10
109.0934271645669
 20
-138.0146592536908
 97
        0
 97
        1
330
D2
 92
        1
 93
        1
 72
     4
 94
        3
 73
     0
 74
     0
 95
       29
 96
       25
 40
0.0
 40
0.0
 40
0.0
 40
0.0
 40
1.0
 40
1.0
 40
1.0
 40
2.0
 40
2.0
 40
2.0
 40
3.0
 40
3.0
 40
3.0
 40
4.0
 40
4.0
 40
4.0
 40
5.0
 40
5.0
 40
5.0
 40
6.0
 40
6.0
 40
6.0
 40
7.0
 40
7.0
 40
7.0
 40
8.0
 40
8.0
 40
8.0
 40
8.0
 10
109.0934271645669
 20
-138.8683539149357
 10
108.7854356281856
 20
-138.8683539149357
 10
108.4922580023908
 20
-138.7200425542957
 10
108.4922580023908
 20
-138.3433213629836
 10
108.4922580023908
 20
-138.0671969598408
 10
108.6562445474887
 20
-137.9645331143804
 10
108.7782009276665
 20
-137.8983872810636
 10
108.6341959363831
 20
-137.8344807598122
 10
108.5460014919607
 20
-137.7111463414403
 10
108.5460014919607
 20
-137.5376857837579
 10
108.5460014919607
 20
-137.2410630624779
 10
108.7757893608269
 20
-137.0949910139033
 10
109.0934271645669
 20
-137.0949910139033
 10
109.4210557452142
 20
-137.0949910139033
 10
109.6408528371731
 20
-137.2501925655138
 10
109.6408528371731
 20
-137.5376857837579
 10
109.6408528371731
 20
-137.7111463414403
 10
109.5505913354596
 20
-137.8344807598122
 10
109.4062418346276
 20
-137.8983872810636
 10
109.508905680088
 20
-137.9531642992791
 10
109.6921847599033
 20
-138.0558281447395
 10
109.6921847599033
 20
-138.3388427388528
 10
109.6921847599033
 20
-138.7427801844983
 10
109.3697238224839
 20
-138.8683539149357
 10
109.0934271645669
 20
-138.8683539149357
 97
        0
 97
        1
330
D3
 75
     2
 76
     1
 98
        1
 10
0.0
 20
0.0
450
        0
451
        0
460
0.0
461
0.0
452
        0
462
0.0
453
        0
470

  0
ENDBLK
  5
CE
330
CB
100
AcDbEntity
  8
0
100
AcDbBlockEnd
  0
BLOCK
  5
D7
330
D5
100
AcDbEntity
  8
0
100
AcDbBlockBegin
  2
Block_12
 70
     0
 10
0.0
 20
0.0
 30
0.0
  3
Block_12
  1

  0
LINE
  5
D9
330
D5
100
AcDbEntity
  8
レイヤー 1
 62
   250
420
  2299925
370
     9
100
AcDbLine
 10
99.4615637633813
 20
-161.075563824083
 30
0.0
 11
106.4615919181293
 21
-161.075563824083
 31
0.0
  0
LINE
  5
DA
330
D5
100
AcDbEntity
  8
レイヤー 1
 62
   250
420
  2299925
370
     9
100
AcDbLine
 10
99.4615637633813
 20
-159.6155224724429
 30
0.0
 11
99.4615637633813
 21
-162.0756535207909
 31
0.0
  0
LINE
  5
DB
330
D5
100
AcDbEntity
  8
レイヤー 1
 62
   250
420
  2299925
370
     9
100
AcDbLine
 10
106.4615919181293
 20
-159.6155224724429
 30
0.0
 11
106.4615919181293
 21
-162.0756535207909
 31
0.0
  0
INSERT
  5
DD
330
D5
100
AcDbEntity
  8
レイヤー 1
100
AcDbBlockReference
  2
Block_13
 10
0.0
 20
0.0
 30
0.0
  0
ENDBLK
  5
D8
330
D5
100
AcDbEntity
  8
0
100
AcDbBlockEnd
  0
BLOCK
  5
DE
330
DC
100
AcDbEntity
  8
0
100
AcDbBlockBegin
  2
Block_13
 70
     0
 10
0.0
 20
0.0
 30
0.0
  3
Block_13
  1

  0
SPLINE
  5
E0
330
DC
100
AcDbEntity
  8
レイヤー 1
100
AcDbSpline
210
0.0
220
0.0
230
1.0
 70
     9
 71
     3
 72
    26
 73
    22
 74
     0
 42
0.0000000001
 43
0.0000000001
 40
0.0
 40
0.0
 40
0.0
 40
0.0
 40
1.0
 40
1.0
 40
1.0
 40
2.0
 40
2.0
 40
2.0
 40
3.0
 40
3.0
 40
3.0
 40
4.0
 40
4.0
 40
4.0
 40
5.0
 40
5.0
 40
5.0
 40
6.0
 40
6.0
 40
6.0
 40
7.0
 40
7.0
 40
7.0
 40
7.0
 10
102.8202527954755
 20
-159.9892008063569
 30
0.0
 10
102.8202527954755
 20
-159.9892008063569
 30
0.0
 10
102.5646267104699
 20
-159.9892008063569
 30
0.0
 10
102.5646267104699
 20
-159.9892008063569
 30
0.0
 10
102.5920152195777
 20
-159.6560600729332
 30
0.0
 10
102.7997544773382
 20
-159.0969210756771
 30
0.0
 10
103.237970623062
 20
-158.5512179508136
 30
0.0
 10
103.237970623062
 20
-158.5512179508136
 30
0.0
 10
102.3341498225067
 20
-158.5512179508136
 30
0.0
 10
102.3341498225067
 20
-158.5512179508136
 30
0.0
 10
102.3341498225067
 20
-158.5512179508136
 30
0.0
 10
102.3341498225067
 20
-158.32315262969
 30
0.0
 10
102.3341498225067
 20
-158.32315262969
 30
0.0
 10
102.3341498225067
 20
-158.32315262969
 30
0.0
 10
103.4935967080675
 20
-158.32315262969
 30
0.0
 10
103.4935967080675
 20
-158.32315262969
 30
0.0
 10
103.4935967080675
 20
-158.32315262969
 30
0.0
 10
103.4935967080675
 20
-158.5512179508136
 30
0.0
 10
103.4935967080675
 20
-158.5512179508136
 30
0.0
 10
103.1442640258632
 20
-158.8640326208742
 30
0.0
 10
102.8567708076191
 20
-159.5030978333881
 30
0.0
 10
102.8202527954755
 20
-159.9892008063569
 30
0.0
  0
HATCH
  5
E1
330
DC
100
AcDbEntity
  8
レイヤー 1
 62
   250
420
  2299925
440
 33554687
100
AcDbHatch
 10
0.0
 20
0.0
 30
0.0
210
0.0
220
0.0
230
1.0
  2
SOLID
 70
     1
 71
     1
 91
        1
 92
        1
 93
        1
 72
     4
 94
        3
 73
     0
 74
     0
 95
       26
 96
       22
 40
0.0
 40
0.0
 40
0.0
 40
0.0
 40
1.0
 40
1.0
 40
1.0
 40
2.0
 40
2.0
 40
2.0
 40
3.0
 40
3.0
 40
3.0
 40
4.0
 40
4.0
 40
4.0
 40
5.0
 40
5.0
 40
5.0
 40
6.0
 40
6.0
 40
6.0
 40
7.0
 40
7.0
 40
7.0
 40
7.0
 10
102.8202527954755
 20
-159.9892008063569
 10
102.8202527954755
 20
-159.9892008063569
 10
102.5646267104699
 20
-159.9892008063569
 10
102.5646267104699
 20
-159.9892008063569
 10
102.5920152195777
 20
-159.6560600729332
 10
102.7997544773382
 20
-159.0969210756771
 10
103.237970623062
 20
-158.5512179508136
 10
103.237970623062
 20
-158.5512179508136
 10
102.3341498225067
 20
-158.5512179508136
 10
102.3341498225067
 20
-158.5512179508136
 10
102.3341498225067
 20
-158.5512179508136
 10
102.3341498225067
 20
-158.32315262969
 10
102.3341498225067
 20
-158.32315262969
 10
102.3341498225067
 20
-158.32315262969
 10
103.4935967080675
 20
-158.32315262969
 10
103.4935967080675
 20
-158.32315262969
 10
103.4935967080675
 20
-158.32315262969
 10
103.4935967080675
 20
-158.5512179508136
 10
103.4935967080675
 20
-158.5512179508136
 10
103.1442640258632
 20
-158.8640326208742
 10
102.8567708076191
 20
-159.5030978333881
 10
102.8202527954755
 20
-159.9892008063569
 97
        0
 97
        1
330
E0
 75
     2
 76
     1
 98
        1
 10
0.0
 20
0.0
450
        0
451
        0
460
0.0
461
0.0
452
        0
462
0.0
453
        0
470

  0
ENDBLK
  5
DF
330
DC
100
AcDbEntity
  8
0
100
AcDbBlockEnd
  0
BLOCK
  5
E4
330
E2
100
AcDbEntity
  8
0
100
AcDbBlockBegin
  2
Block_14
 70
     0
 10
0.0
 20
0.0
 30
0.0
  3
Block_14
  1

  0
LINE
  5
E6
330
E2
100
AcDbEntity
  8
レイヤー 1
  6
AI-Linetype-0
 62
   154
420
    23468
370
    25
100
AcDbLine
 10
98.79756670999542
 20
-143.2159320818277
 30
0.0
 11
98.79756670999542
 21
-151.21616097824
 31
0.0
  0
LINE
  5
E8
330
E2
100
AcDbEntity
  8
レイヤー 1
 62
   250
420
  2299925
370
     9
100
AcDbLine
 10
98.57432893679892
 20
-151.1859066471233
 30
0.0
 11
97.70822423667288
 21
-151.68614552325
 31
0.0
  0
LINE
  5
E9
330
E2
100
AcDbEntity
  8
レイヤー 1
 62
   250
420
  2299925
370
     9
100
AcDbLine
 10
98.57432893679892
 20
-151.1859066471233
 30
0.0
 11
94.00682913264189
 21
-155.7538622213548
 31
0.0
  0
LINE
  5
EA
330
E2
100
AcDbEntity
  8
レイヤー 1
 62
   250
420
  2299925
370
     9
100
AcDbLine
 10
98.57432893679892
 20
-151.1859066471233
 30
0.0
 11
98.07409006067189
 21
-152.0520113472493
 31
0.0
  0
INSERT
  5
EC
330
E2
100
AcDbEntity
  8
レイヤー 1
100
AcDbBlockReference
  2
Block_15
 10
0.0
 20
0.0
 30
0.0
  0
ENDBLK
  5
E5
330
E2
100
AcDbEntity
  8
0
100
AcDbBlockEnd
  0
BLOCK
  5
ED
330
EB
100
AcDbEntity
  8
0
100
AcDbBlockBegin
  2
Block_15
 70
     0
 10
0.0
 20
0.0
 30
0.0
  3
Block_15
  1

  0
INSERT
  5
F0
330
EB
100
AcDbEntity
  8
レイヤー 1
100
AcDbBlockReference
  2
Block_16
 10
0.0
 20
0.0
 30
0.0
  0
ENDBLK
  5
EE
330
EB
100
AcDbEntity
  8
0
100
AcDbBlockEnd
  0
BLOCK
  5
F1
330
EF
100
AcDbEntity
  8
0
100
AcDbBlockBegin
  2
Block_16
 70
     0
 10
0.0
 20
0.0
 30
0.0
  3
Block_16
  1

  0
SPLINE
  5
F3
330
EF
100
AcDbEntity
  8
レイヤー 1
100
AcDbSpline
210
0.0
220
0.0
230
1.0
 70
     9
 71
     3
 72
    17
 73
    13
 74
     0
 42
0.0000000001
 43
0.0000000001
 40
0.0
 40
0.0
 40
0.0
 40
0.0
 40
1.0
 40
1.0
 40
1.0
 40
2.0
 40
2.0
 40
2.0
 40
3.0
 40
3.0
 40
3.0
 40
4.0
 40
4.0
 40
4.0
 40
4.0
 10
88.1463853403766
 20
-157.6213866793446
 30
0.0
 10
88.12950437249886
 20
-157.6510145005178
 30
0.0
 10
88.07886146886572
 20
-157.7440320786196
 30
0.0
 10
88.06818167286143
 20
-157.7629801037884
 30
0.0
 10
88.25869545319575
 20
-157.8222357461347
 30
0.0
 10
88.27971053565576
 20
-157.8287814275567
 30
0.0
 10
88.35171303129749
 20
-157.8563421914387
 30
0.0
 10
88.4068345590615
 20
-157.7695257852104
 30
0.0
 10
88.42991669881266
 20
-157.6954562322775
 30
0.0
 10
88.44473060939924
 20
-157.6213866793446
 30
0.0
 10
88.44473060939924
 20
-157.6213866793446
 30
0.0
 10
88.1463853403766
 20
-157.6213866793446
 30
0.0
 10
88.1463853403766
 20
-157.6213866793446
 30
0.0
  0
SPLINE
  5
F4
330
EF
100
AcDbEntity
  8
レイヤー 1
100
AcDbSpline
210
0.0
220
0.0
230
1.0
 70
    11
 71
     3
 72
    20
 73
    16
 74
     0
 42
0.0000000001
 43
0.0000000001
 40
0.0
 40
0.0
 40
0.0
 40
0.0
 40
1.0
 40
1.0
 40
1.0
 40
2.0
 40
2.0
 40
2.0
 40
3.0
 40
3.0
 40
3.0
 40
4.0
 40
4.0
 40
4.0
 40
5.0
 40
5.0
 40
5.0
 40
5.0
 10
88.08299558344801
 20
-156.771137113585
 30
0.0
 10
88.08299558344801
 20
-156.771137113585
 30
0.0
 10
88.05130070498369
 20
-156.771137113585
 30
0.0
 10
88.05130070498369
 20
-156.771137113585
 30
0.0
 10
88.09780949403458
 20
-156.8703558635602
 30
0.0
 10
88.12950437249886
 20
-156.9506265883665
 30
0.0
 10
88.16326630825432
 20
-157.0777506117722
 30
0.0
 10
88.16326630825432
 20
-157.0777506117722
 30
0.0
 10
88.37066105646636
 20
-157.0777506117722
 30
0.0
 10
88.37066105646636
 20
-157.0777506117722
 30
0.0
 10
88.40235593493067
 20
-156.9847330336705
 30
0.0
 10
88.42578258423037
 20
-156.8999836847333
 30
0.0
 10
88.44886472398155
 20
-156.771137113585
 30
0.0
 10
88.44886472398155
 20
-156.771137113585
 30
0.0
 10
88.08299558344801
 20
-156.771137113585
 30
0.0
 10
88.08299558344801
 20
-156.771137113585
 30
0.0
  0
SPLINE
  5
F5
330
EF
100
AcDbEntity
  8
レイヤー 1
100
AcDbSpline
210
0.0
220
0.0
230
1.0
 70
     9
 71
     3
 72
   242
 73
   238
 74
     0
 42
0.0000000001
 43
0.0000000001
 40
0.0
 40
0.0
 40
0.0
 40
0.0
 40
1.0
 40
1.0
 40
1.0
 40
2.0
 40
2.0
 40
2.0
 40
3.0
 40
3.0
 40
3.0
 40
4.0
 40
4.0
 40
4.0
 40
5.0
 40
5.0
 40
5.0
 40
6.0
 40
6.0
 40
6.0
 40
7.0
 40
7.0
 40
7.0
 40
8.0
 40
8.0
 40
8.0
 40
9.0
 40
9.0
 40
9.0
 40
10.0
 40
10.0
 40
10.0
 40
11.0
 40
11.0
 40
11.0
 40
12.0
 40
12.0
 40
12.0
 40
13.0
 40
13.0
 40
13.0
 40
14.0
 40
14.0
 40
14.0
 40
15.0
 40
15.0
 40
15.0
 40
16.0
 40
16.0
 40
16.0
 40
17.0
 40
17.0
 40
17.0
 40
18.0
 40
18.0
 40
18.0
 40
19.0
 40
19.0
 40
19.0
 40
20.0
 40
20.0
 40
20.0
 40
21.0
 40
21.0
 40
21.0
 40
22.0
 40
22.0
 40
22.0
 40
23.0
 40
23.0
 40
23.0
 40
24.0
 40
24.0
 40
24.0
 40
25.0
 40
25.0
 40
25.0
 40
26.0
 40
26.0
 40
26.0
 40
27.0
 40
27.0
 40
27.0
 40
28.0
 40
28.0
 40
28.0
 40
29.0
 40
29.0
 40
29.0
 40
30.0
 40
30.0
 40
30.0
 40
31.0
 40
31.0
 40
31.0
 40
32.0
 40
32.0
 40
32.0
 40
33.0
 40
33.0
 40
33.0
 40
34.0
 40
34.0
 40
34.0
 40
35.0
 40
35.0
 40
35.0
 40
36.0
 40
36.0
 40
36.0
 40
37.0
 40
37.0
 40
37.0
 40
38.0
 40
38.0
 40
38.0
 40
39.0
 40
39.0
 40
39.0
 40
40.0
 40
40.0
 40
40.0
 40
41.0
 40
41.0
 40
41.0
 40
42.0
 40
42.0
 40
42.0
 40
43.0
 40
43.0
 40
43.0
 40
44.0
 40
44.0
 40
44.0
 40
45.0
 40
45.0
 40
45.0
 40
46.0
 40
46.0
 40
46.0
 40
47.0
 40
47.0
 40
47.0
 40
48.0
 40
48.0
 40
48.0
 40
49.0
 40
49.0
 40
49.0
 40
50.0
 40
50.0
 40
50.0
 40
51.0
 40
51.0
 40
51.0
 40
52.0
 40
52.0
 40
52.0
 40
53.0
 40
53.0
 40
53.0
 40
54.0
 40
54.0
 40
54.0
 40
55.0
 40
55.0
 40
55.0
 40
56.0
 40
56.0
 40
56.0
 40
57.0
 40
57.0
 40
57.0
 40
58.0
 40
58.0
 40
58.0
 40
59.0
 40
59.0
 40
59.0
 40
60.0
 40
60.0
 40
60.0
 40
61.0
 40
61.0
 40
61.0
 40
62.0
 40
62.0
 40
62.0
 40
63.0
 40
63.0
 40
63.0
 40
64.0
 40
64.0
 40
64.0
 40
65.0
 40
65.0
 40
65.0
 40
66.0
 40
66.0
 40
66.0
 40
67.0
 40
67.0
 40
67.0
 40
68.0
 40
68.0
 40
68.0
 40
69.0
 40
69.0
 40
69.0
 40
70.0
 40
70.0
 40
70.0
 40
71.0
 40
71.0
 40
71.0
 40
72.0
 40
72.0
 40
72.0
 40
73.0
 40
73.0
 40
73.0
 40
74.0
 40
74.0
 40
74.0
 40
75.0
 40
75.0
 40
75.0
 40
76.0
 40
76.0
 40
76.0
 40
77.0
 40
77.0
 40
77.0
 40
78.0
 40
78.0
 40
78.0
 40
79.0
 40
79.0
 40
79.0
 40
79.0
 10
88.71138099995757
 20
-157.2362250040937
 30
0.0
 10
88.71138099995757
 20
-157.2362250040937
 30
0.0
 10
88.45747746269466
 20
-157.2362250040937
 30
0.0
 10
88.45747746269466
 20
-157.2362250040937
 30
0.0
 10
88.45747746269466
 20
-157.2362250040937
 30
0.0
 10
88.18049178568058
 20
-157.2362250040937
 30
0.0
 10
88.18049178568058
 20
-157.2362250040937
 30
0.0
 10
88.18049178568058
 20
-157.2362250040937
 30
0.0
 10
88.30727129953777
 20
-157.2785996785623
 30
0.0
 10
88.30727129953777
 20
-157.2785996785623
 30
0.0
 10
88.31795109554205
 20
-157.2830783026931
 30
0.0
 10
88.33069794883746
 20
-157.2892794745665
 30
0.0
 10
88.33069794883746
 20
-157.302026327862
 30
0.0
 10
88.33069794883746
 20
-157.323041410322
 30
0.0
 10
88.29865856082465
 20
-157.329587091744
 30
0.0
 10
88.27764347836462
 20
-157.3337212063263
 30
0.0
 10
88.26696368236033
 20
-157.3568033460774
 30
0.0
 10
88.23733586118718
 20
-157.4226046698457
 30
0.0
 10
88.21838783601831
 20
-157.4670464016054
 30
0.0
 10
88.21838783601831
 20
-157.4670464016054
 30
0.0
 10
88.48917234115896
 20
-157.4670464016054
 30
0.0
 10
88.48917234115896
 20
-157.4670464016054
 30
0.0
 10
88.58012286196956
 20
-157.4670464016054
 30
0.0
 10
88.77683781417733
 20
-157.4625677774746
 30
0.0
 10
88.91877574816962
 20
-157.45429954831
 30
0.0
 10
88.91877574816962
 20
-157.45429954831
 30
0.0
 10
88.91877574816962
 20
-157.6320664753489
 30
0.0
 10
88.91877574816962
 20
-157.6320664753489
 30
0.0
 10
88.83609345652361
 20
-157.6275878512181
 30
0.0
 10
88.81507837406358
 20
-157.6275878512181
 30
0.0
 10
88.63524438973355
 20
-157.6234537366358
 30
0.0
 10
88.60354951126925
 20
-157.777794014375
 30
0.0
 10
88.55910777950953
 20
-157.8584092487298
 30
0.0
 10
88.51466604774982
 20
-157.9280001775319
 30
0.0
 10
88.63524438973355
 20
-157.9872558198782
 30
0.0
 10
88.74100882113072
 20
-158.0551242009376
 30
0.0
 10
88.84470619523673
 20
-158.1374619830351
 30
0.0
 10
88.84470619523673
 20
-158.1374619830351
 30
0.0
 10
88.72619491054415
 20
-158.3045491140697
 30
0.0
 10
88.72619491054415
 20
-158.3045491140697
 30
0.0
 10
88.70276826124445
 20
-158.2856010889008
 30
0.0
 10
88.69002140794902
 20
-158.2773328597362
 30
0.0
 10
88.57805580467841
 20
-158.1925835107991
 30
0.0
 10
88.52947995833638
 20
-158.1543429509128
 30
0.0
 10
88.47022431599008
 20
-158.1185139578662
 30
0.0
 10
88.38960908163524
 20
-158.0740722261065
 30
0.0
 10
88.1780802188409
 20
-158.2604518918585
 30
0.0
 10
87.97309703746853
 20
-158.2835340316097
 30
0.0
 10
87.6830199976105
 20
-158.3131618527828
 30
0.0
 10
87.6830199976105
 20
-158.3131618527828
 30
0.0
 10
87.579667133053
 20
-158.1333278684528
 30
0.0
 10
87.579667133053
 20
-158.1333278684528
 30
0.0
 10
87.8969604272445
 20
-158.1291937538705
 30
0.0
 10
88.07231578744373
 20
-158.1037000472796
 30
0.0
 10
88.22458900789177
 20
-157.9938015013001
 30
0.0
 10
88.1064222327477
 20
-157.9428140881184
 30
0.0
 10
88.01753876922825
 20
-157.915597833785
 30
0.0
 10
87.98136526663313
 20
-157.9028509804895
 30
0.0
 10
87.96241724146426
 20
-157.9304117443716
 30
0.0
 10
87.94760333087769
 20
-157.9493597695404
 30
0.0
 10
87.92004256699568
 20
-157.9831217052959
 30
0.0
 10
87.92004256699568
 20
-157.9831217052959
 30
0.0
 10
87.72332761478791
 20
-157.9007839231984
 30
0.0
 10
87.72332761478791
 20
-157.9007839231984
 30
0.0
 10
87.80600990643391
 20
-157.8201686888436
 30
0.0
 10
87.86733260607137
 20
-157.7250840534506
 30
0.0
 10
87.92417668157799
 20
-157.6234537366358
 30
0.0
 10
87.73400741079219
 20
-157.6275878512181
 30
0.0
 10
87.71264781878365
 20
-157.6275878512181
 30
0.0
 10
87.63031003668618
 20
-157.6320664753489
 30
0.0
 10
87.63031003668618
 20
-157.6320664753489
 30
0.0
 10
87.63031003668618
 20
-157.45429954831
 30
0.0
 10
87.63031003668618
 20
-157.45429954831
 30
0.0
 10
87.7698364038388
 20
-157.4605007201835
 30
0.0
 10
87.97929820934198
 20
-157.4649793443143
 30
0.0
 10
88.00479191593282
 20
-157.4649793443143
 30
0.0
 10
88.02167288381054
 20
-157.4308728990103
 30
0.0
 10
88.07679441157455
 20
-157.3102945570266
 30
0.0
 10
88.09574243674344
 20
-157.2362250040937
 30
0.0
 10
88.07679441157455
 20
-157.2362250040937
 30
0.0
 10
87.89902748453567
 20
-157.2427706855157
 30
0.0
 10
87.70437958961904
 20
-157.2555175388111
 30
0.0
 10
87.70437958961904
 20
-157.2555175388111
 30
0.0
 10
87.70437958961904
 20
-157.3888427340903
 30
0.0
 10
87.70437958961904
 20
-157.3888427340903
 30
0.0
 10
87.65580374327702
 20
-157.4139919311326
 30
0.0
 10
87.59654810093072
 20
-157.4456868095969
 30
0.0
 10
87.46322290565156
 20
-157.5114881333652
 30
0.0
 10
87.46322290565156
 20
-157.5114881333652
 30
0.0
 10
87.46322290565156
 20
-157.6572156723912
 30
0.0
 10
87.46322290565156
 20
-157.6572156723912
 30
0.0
 10
87.46322290565156
 20
-157.6572156723912
 30
0.0
 10
87.46322290565156
 20
-158.1250596392882
 30
0.0
 10
87.46322290565156
 20
-158.1250596392882
 30
0.0
 10
87.46322290565156
 20
-158.2518391531453
 30
0.0
 10
87.42704940305642
 20
-158.3110947954916
 30
0.0
 10
87.1438625541689
 20
-158.3024820567785
 30
0.0
 10
87.1438625541689
 20
-158.3024820567785
 30
0.0
 10
87.04016518006289
 20
-158.095431818115
 30
0.0
 10
87.04016518006289
 20
-158.095431818115
 30
0.0
 10
87.10355493699147
 20
-158.1078341618619
 30
0.0
 10
87.1521307833335
 20
-158.1123127859927
 30
0.0
 10
87.19243840051092
 20
-158.1123127859927
 30
0.0
 10
87.26857501073494
 20
-158.1123127859927
 30
0.0
 10
87.27925480673922
 20
-158.088886136693
 30
0.0
 10
87.27925480673922
 20
-158.0234293224733
 30
0.0
 10
87.27925480673922
 20
-158.0234293224733
 30
0.0
 10
87.27925480673922
 20
-157.5938259154626
 30
0.0
 10
87.27925480673922
 20
-157.5938259154626
 30
0.0
 10
87.18175860450664
 20
-157.6341335326401
 30
0.0
 10
87.16487763662893
 20
-157.6403347045135
 30
0.0
 10
87.11836884757806
 20
-157.6596272392309
 30
0.0
 10
87.11423473299575
 20
-157.6806423216909
 30
0.0
 10
87.10975610886492
 20
-157.7102701428641
 30
0.0
 10
87.09080808369604
 20
-157.7102701428641
 30
0.0
 10
87.08253985453145
 20
-157.7102701428641
 30
0.0
 10
87.07186005852717
 20
-157.7061360282818
 30
0.0
 10
87.06531437710522
 20
-157.6827093789821
 30
0.0
 10
87.06531437710522
 20
-157.6827093789821
 30
0.0
 10
87.01260441618087
 20
-157.4901285413566
 30
0.0
 10
87.01260441618087
 20
-157.4901285413566
 30
0.0
 10
87.15867646475548
 20
-157.4436197523058
 30
0.0
 10
87.22413327897521
 20
-157.4205376125546
 30
0.0
 10
87.27925480673922
 20
-157.399178020546
 30
0.0
 10
87.27925480673922
 20
-157.399178020546
 30
0.0
 10
87.27925480673922
 20
-156.9868000909616
 30
0.0
 10
87.27925480673922
 20
-156.9868000909616
 30
0.0
 10
87.27925480673922
 20
-156.9868000909616
 30
0.0
 10
87.22620033626638
 20
-156.9868000909616
 30
0.0
 10
87.22620033626638
 20
-156.9868000909616
 30
0.0
 10
87.22620033626638
 20
-156.9868000909616
 30
0.0
 10
87.14799666875121
 20
-156.9868000909616
 30
0.0
 10
87.14799666875121
 20
-156.9868000909616
 30
0.0
 10
87.08012828769177
 20
-156.9868000909616
 30
0.0
 10
87.07186005852717
 20
-156.9868000909616
 30
0.0
 10
87.03568655593207
 20
-156.9930012628351
 30
0.0
 10
87.03568655593207
 20
-156.9930012628351
 30
0.0
 10
87.03568655593207
 20
-156.7983533679185
 30
0.0
 10
87.03568655593207
 20
-156.7983533679185
 30
0.0
 10
87.06324731981405
 20
-156.8048990493404
 30
0.0
 10
87.07186005852717
 20
-156.8048990493404
 30
0.0
 10
87.14145098732922
 20
-156.8048990493404
 30
0.0
 10
87.14145098732922
 20
-156.8048990493404
 30
0.0
 10
87.2747761826084
 20
-156.8048990493404
 30
0.0
 10
87.2747761826084
 20
-156.8048990493404
 30
0.0
 10
87.2747761826084
 20
-156.7349636109898
 30
0.0
 10
87.2747761826084
 20
-156.6526258288924
 30
0.0
 10
87.27270912531725
 20
-156.6481472047616
 30
0.0
 10
87.26444089615265
 20
-156.4683132204315
 30
0.0
 10
87.26444089615265
 20
-156.4493651952626
 30
0.0
 10
87.26202932931297
 20
-156.4028564062118
 30
0.0
 10
87.26202932931297
 20
-156.4028564062118
 30
0.0
 10
87.47803681623812
 20
-156.4114691449249
 30
0.0
 10
87.47803681623812
 20
-156.4114691449249
 30
0.0
 10
87.4887166122424
 20
-156.4114691449249
 30
0.0
 10
87.50973169470244
 20
-156.413536202216
 30
0.0
 10
87.50973169470244
 20
-156.4304171700938
 30
0.0
 10
87.50973169470244
 20
-156.4493651952626
 30
0.0
 10
87.49491778411586
 20
-156.4600449912669
 30
0.0
 10
87.469424077525
 20
-156.4789930164358
 30
0.0
 10
87.469424077525
 20
-156.529635920069
 30
0.0
 10
87.46322290565156
 20
-156.7583902602896
 30
0.0
 10
87.46528996294271
 20
-156.8048990493404
 30
0.0
 10
87.59448104363958
 20
-156.8048990493404
 30
0.0
 10
87.60688338738647
 20
-156.8048990493404
 30
0.0
 10
87.70437958961904
 20
-156.7962863106273
 30
0.0
 10
87.70437958961904
 20
-156.7962863106273
 30
0.0
 10
87.70437958961904
 20
-156.9909342055439
 30
0.0
 10
87.70437958961904
 20
-156.9909342055439
 30
0.0
 10
87.66613902973277
 20
-156.9888671482527
 30
0.0
 10
87.59861515822187
 20
-156.9847330336705
 30
0.0
 10
87.46322290565156
 20
-156.9868000909616
 30
0.0
 10
87.46322290565156
 20
-156.9868000909616
 30
0.0
 10
87.46322290565156
 20
-157.3251084676132
 30
0.0
 10
87.46322290565156
 20
-157.3251084676132
 30
0.0
 10
87.51834443341556
 20
-157.302026327862
 30
0.0
 10
87.58380124763531
 20
-157.27446556398
 30
0.0
 10
87.63237709397733
 20
-157.2510389146803
 30
0.0
 10
87.63237709397733
 20
-157.2510389146803
 30
0.0
 10
87.63237709397733
 20
-157.0736164971899
 30
0.0
 10
87.63237709397733
 20
-157.0736164971899
 30
0.0
 10
87.74675426408762
 20
-157.0860188409368
 30
0.0
 10
87.86526554878021
 20
-157.0860188409368
 30
0.0
 10
87.98136526663313
 20
-157.0860188409368
 30
0.0
 10
87.95828312688197
 20
-156.9909342055439
 30
0.0
 10
87.93072236299996
 20
-156.9085964234465
 30
0.0
 10
87.86733260607137
 20
-156.7752712281673
 30
0.0
 10
87.82289087431164
 20
-156.7773382854584
 30
0.0
 10
87.74020858266565
 20
-156.7814724000407
 30
0.0
 10
87.7023125323279
 20
-156.7835394573319
 30
0.0
 10
87.7023125323279
 20
-156.7835394573319
 30
0.0
 10
87.7023125323279
 20
-156.6037054730018
 30
0.0
 10
87.7023125323279
 20
-156.6037054730018
 30
0.0
 10
87.82702498889394
 20
-156.6123182117149
 30
0.0
 10
88.00065780135053
 20
-156.6164523262973
 30
0.0
 10
88.08299558344801
 20
-156.6164523262973
 30
0.0
 10
88.08299558344801
 20
-156.6164523262973
 30
0.0
 10
88.165677875094
 20
-156.6164523262973
 30
0.0
 10
88.165677875094
 20
-156.6164523262973
 30
0.0
 10
88.165677875094
 20
-156.4534993098449
 30
0.0
 10
88.165677875094
 20
-156.4431640233892
 30
0.0
 10
88.16326630825432
 20
-156.3880424956252
 30
0.0
 10
88.16326630825432
 20
-156.3880424956252
 30
0.0
 10
88.38754202434408
 20
-156.413536202216
 30
0.0
 10
88.38754202434408
 20
-156.413536202216
 30
0.0
 10
88.39202064847491
 20
-156.413536202216
 30
0.0
 10
88.41303573093494
 20
-156.4156032595072
 30
0.0
 10
88.41303573093494
 20
-156.4324842273849
 30
0.0
 10
88.41303573093494
 20
-156.4472981379715
 30
0.0
 10
88.40235593493067
 20
-156.4559108766846
 30
0.0
 10
88.37479517104865
 20
-156.4707247872712
 30
0.0
 10
88.36859399917521
 20
-156.5361816014909
 30
0.0
 10
88.36652694188407
 20
-156.557196683951
 30
0.0
 10
88.36652694188407
 20
-156.6164523262973
 30
0.0
 10
88.36652694188407
 20
-156.6164523262973
 30
0.0
 10
88.46161157727697
 20
-156.6164523262973
 30
0.0
 10
88.46161157727697
 20
-156.6164523262973
 30
0.0
 10
88.54429386892297
 20
-156.6164523262973
 30
0.0
 10
88.71758217183103
 20
-156.6123182117149
 30
0.0
 10
88.8426391379456
 20
-156.6037054730018
 30
0.0
 10
88.8426391379456
 20
-156.6037054730018
 30
0.0
 10
88.8426391379456
 20
-156.7835394573319
 30
0.0
 10
88.8426391379456
 20
-156.7835394573319
 30
0.0
 10
88.81301131677245
 20
-156.7814724000407
 30
0.0
 10
88.69450003207985
 20
-156.7773382854584
 30
0.0
 10
88.65419241490242
 20
-156.7752712281673
 30
0.0
 10
88.63937850431586
 20
-156.8259141318004
 30
0.0
 10
88.6056165685604
 20
-156.9382242446196
 30
0.0
 10
88.53981524479214
 20
-157.0777506117722
 30
0.0
 10
88.5821899192607
 20
-157.0777506117722
 30
0.0
 10
88.85952010582332
 20
-157.0588025866033
 30
0.0
 10
88.92084280546077
 20
-157.0563910197637
 30
0.0
 10
88.92084280546077
 20
-157.0563910197637
 30
0.0
 10
88.92084280546077
 20
-157.2407036282245
 30
0.0
 10
88.92084280546077
 20
-157.2407036282245
 30
0.0
 10
88.89121498428762
 20
-157.2407036282245
 30
0.0
 10
88.87433401640988
 20
-157.2362250040937
 30
0.0
 10
88.71138099995757
 20
-157.2362250040937
 30
0.0
  0
HATCH
  5
F6
330
EF
100
AcDbEntity
  8
レイヤー 1
 62
   250
420
  2299925
440
 33554687
100
AcDbHatch
 10
0.0
 20
0.0
 30
0.0
210
0.0
220
0.0
230
1.0
  2
SOLID
 70
     1
 71
     1
 91
        3
 92
        1
 93
        1
 72
     4
 94
        3
 73
     0
 74
     0
 95
       17
 96
       13
 40
0.0
 40
0.0
 40
0.0
 40
0.0
 40
1.0
 40
1.0
 40
1.0
 40
2.0
 40
2.0
 40
2.0
 40
3.0
 40
3.0
 40
3.0
 40
4.0
 40
4.0
 40
4.0
 40
4.0
 10
88.1463853403766
 20
-157.6213866793446
 10
88.12950437249886
 20
-157.6510145005178
 10
88.07886146886572
 20
-157.7440320786196
 10
88.06818167286143
 20
-157.7629801037884
 10
88.25869545319575
 20
-157.8222357461347
 10
88.27971053565576
 20
-157.8287814275567
 10
88.35171303129749
 20
-157.8563421914387
 10
88.4068345590615
 20
-157.7695257852104
 10
88.42991669881266
 20
-157.6954562322775
 10
88.44473060939924
 20
-157.6213866793446
 10
88.44473060939924
 20
-157.6213866793446
 10
88.1463853403766
 20
-157.6213866793446
 10
88.1463853403766
 20
-157.6213866793446
 97
        0
 97
        1
330
F3
 92
        1
 93
        1
 72
     4
 94
        3
 73
     0
 74
     0
 95
       20
 96
       16
 40
0.0
 40
0.0
 40
0.0
 40
0.0
 40
1.0
 40
1.0
 40
1.0
 40
2.0
 40
2.0
 40
2.0
 40
3.0
 40
3.0
 40
3.0
 40
4.0
 40
4.0
 40
4.0
 40
5.0
 40
5.0
 40
5.0
 40
5.0
 10
88.08299558344801
 20
-156.771137113585
 10
88.08299558344801
 20
-156.771137113585
 10
88.05130070498369
 20
-156.771137113585
 10
88.05130070498369
 20
-156.771137113585
 10
88.09780949403458
 20
-156.8703558635602
 10
88.12950437249886
 20
-156.9506265883665
 10
88.16326630825432
 20
-157.0777506117722
 10
88.16326630825432
 20
-157.0777506117722
 10
88.37066105646636
 20
-157.0777506117722
 10
88.37066105646636
 20
-157.0777506117722
 10
88.40235593493067
 20
-156.9847330336705
 10
88.42578258423037
 20
-156.8999836847333
 10
88.44886472398155
 20
-156.771137113585
 10
88.44886472398155
 20
-156.771137113585
 10
88.08299558344801
 20
-156.771137113585
 10
88.08299558344801
 20
-156.771137113585
 97
        0
 97
        1
330
F4
 92
        1
 93
        1
 72
     4
 94
        3
 73
     0
 74
     0
 95
      242
 96
      238
 40
0.0
 40
0.0
 40
0.0
 40
0.0
 40
1.0
 40
1.0
 40
1.0
 40
2.0
 40
2.0
 40
2.0
 40
3.0
 40
3.0
 40
3.0
 40
4.0
 40
4.0
 40
4.0
 40
5.0
 40
5.0
 40
5.0
 40
6.0
 40
6.0
 40
6.0
 40
7.0
 40
7.0
 40
7.0
 40
8.0
 40
8.0
 40
8.0
 40
9.0
 40
9.0
 40
9.0
 40
10.0
 40
10.0
 40
10.0
 40
11.0
 40
11.0
 40
11.0
 40
12.0
 40
12.0
 40
12.0
 40
13.0
 40
13.0
 40
13.0
 40
14.0
 40
14.0
 40
14.0
 40
15.0
 40
15.0
 40
15.0
 40
16.0
 40
16.0
 40
16.0
 40
17.0
 40
17.0
 40
17.0
 40
18.0
 40
18.0
 40
18.0
 40
19.0
 40
19.0
 40
19.0
 40
20.0
 40
20.0
 40
20.0
 40
21.0
 40
21.0
 40
21.0
 40
22.0
 40
22.0
 40
22.0
 40
23.0
 40
23.0
 40
23.0
 40
24.0
 40
24.0
 40
24.0
 40
25.0
 40
25.0
 40
25.0
 40
26.0
 40
26.0
 40
26.0
 40
27.0
 40
27.0
 40
27.0
 40
28.0
 40
28.0
 40
28.0
 40
29.0
 40
29.0
 40
29.0
 40
30.0
 40
30.0
 40
30.0
 40
31.0
 40
31.0
 40
31.0
 40
32.0
 40
32.0
 40
32.0
 40
33.0
 40
33.0
 40
33.0
 40
34.0
 40
34.0
 40
34.0
 40
35.0
 40
35.0
 40
35.0
 40
36.0
 40
36.0
 40
36.0
 40
37.0
 40
37.0
 40
37.0
 40
38.0
 40
38.0
 40
38.0
 40
39.0
 40
39.0
 40
39.0
 40
40.0
 40
40.0
 40
40.0
 40
41.0
 40
41.0
 40
41.0
 40
42.0
 40
42.0
 40
42.0
 40
43.0
 40
43.0
 40
43.0
 40
44.0
 40
44.0
 40
44.0
 40
45.0
 40
45.0
 40
45.0
 40
46.0
 40
46.0
 40
46.0
 40
47.0
 40
47.0
 40
47.0
 40
48.0
 40
48.0
 40
48.0
 40
49.0
 40
49.0
 40
49.0
 40
50.0
 40
50.0
 40
50.0
 40
51.0
 40
51.0
 40
51.0
 40
52.0
 40
52.0
 40
52.0
 40
53.0
 40
53.0
 40
53.0
 40
54.0
 40
54.0
 40
54.0
 40
55.0
 40
55.0
 40
55.0
 40
56.0
 40
56.0
 40
56.0
 40
57.0
 40
57.0
 40
57.0
 40
58.0
 40
58.0
 40
58.0
 40
59.0
 40
59.0
 40
59.0
 40
60.0
 40
60.0
 40
60.0
 40
61.0
 40
61.0
 40
61.0
 40
62.0
 40
62.0
 40
62.0
 40
63.0
 40
63.0
 40
63.0
 40
64.0
 40
64.0
 40
64.0
 40
65.0
 40
65.0
 40
65.0
 40
66.0
 40
66.0
 40
66.0
 40
67.0
 40
67.0
 40
67.0
 40
68.0
 40
68.0
 40
68.0
 40
69.0
 40
69.0
 40
69.0
 40
70.0
 40
70.0
 40
70.0
 40
71.0
 40
71.0
 40
71.0
 40
72.0
 40
72.0
 40
72.0
 40
73.0
 40
73.0
 40
73.0
 40
74.0
 40
74.0
 40
74.0
 40
75.0
 40
75.0
 40
75.0
 40
76.0
 40
76.0
 40
76.0
 40
77.0
 40
77.0
 40
77.0
 40
78.0
 40
78.0
 40
78.0
 40
79.0
 40
79.0
 40
79.0
 40
79.0
 10
88.71138099995757
 20
-157.2362250040937
 10
88.71138099995757
 20
-157.2362250040937
 10
88.45747746269466
 20
-157.2362250040937
 10
88.45747746269466
 20
-157.2362250040937
 10
88.45747746269466
 20
-157.2362250040937
 10
88.18049178568058
 20
-157.2362250040937
 10
88.18049178568058
 20
-157.2362250040937
 10
88.18049178568058
 20
-157.2362250040937
 10
88.30727129953777
 20
-157.2785996785623
 10
88.30727129953777
 20
-157.2785996785623
 10
88.31795109554205
 20
-157.2830783026931
 10
88.33069794883746
 20
-157.2892794745665
 10
88.33069794883746
 20
-157.302026327862
 10
88.33069794883746
 20
-157.323041410322
 10
88.29865856082465
 20
-157.329587091744
 10
88.27764347836462
 20
-157.3337212063263
 10
88.26696368236033
 20
-157.3568033460774
 10
88.23733586118718
 20
-157.4226046698457
 10
88.21838783601831
 20
-157.4670464016054
 10
88.21838783601831
 20
-157.4670464016054
 10
88.48917234115896
 20
-157.4670464016054
 10
88.48917234115896
 20
-157.4670464016054
 10
88.58012286196956
 20
-157.4670464016054
 10
88.77683781417733
 20
-157.4625677774746
 10
88.91877574816962
 20
-157.45429954831
 10
88.91877574816962
 20
-157.45429954831
 10
88.91877574816962
 20
-157.6320664753489
 10
88.91877574816962
 20
-157.6320664753489
 10
88.83609345652361
 20
-157.6275878512181
 10
88.81507837406358
 20
-157.6275878512181
 10
88.63524438973355
 20
-157.6234537366358
 10
88.60354951126925
 20
-157.777794014375
 10
88.55910777950953
 20
-157.8584092487298
 10
88.51466604774982
 20
-157.9280001775319
 10
88.63524438973355
 20
-157.9872558198782
 10
88.74100882113072
 20
-158.0551242009376
 10
88.84470619523673
 20
-158.1374619830351
 10
88.84470619523673
 20
-158.1374619830351
 10
88.72619491054415
 20
-158.3045491140697
 10
88.72619491054415
 20
-158.3045491140697
 10
88.70276826124445
 20
-158.2856010889008
 10
88.69002140794902
 20
-158.2773328597362
 10
88.57805580467841
 20
-158.1925835107991
 10
88.52947995833638
 20
-158.1543429509128
 10
88.47022431599008
 20
-158.1185139578662
 10
88.38960908163524
 20
-158.0740722261065
 10
88.1780802188409
 20
-158.2604518918585
 10
87.97309703746853
 20
-158.2835340316097
 10
87.6830199976105
 20
-158.3131618527828
 10
87.6830199976105
 20
-158.3131618527828
 10
87.579667133053
 20
-158.1333278684528
 10
87.579667133053
 20
-158.1333278684528
 10
87.8969604272445
 20
-158.1291937538705
 10
88.07231578744373
 20
-158.1037000472796
 10
88.22458900789177
 20
-157.9938015013001
 10
88.1064222327477
 20
-157.9428140881184
 10
88.01753876922825
 20
-157.915597833785
 10
87.98136526663313
 20
-157.9028509804895
 10
87.96241724146426
 20
-157.9304117443716
 10
87.94760333087769
 20
-157.9493597695404
 10
87.92004256699568
 20
-157.9831217052959
 10
87.92004256699568
 20
-157.9831217052959
 10
87.72332761478791
 20
-157.9007839231984
 10
87.72332761478791
 20
-157.9007839231984
 10
87.80600990643391
 20
-157.8201686888436
 10
87.86733260607137
 20
-157.7250840534506
 10
87.92417668157799
 20
-157.6234537366358
 10
87.73400741079219
 20
-157.6275878512181
 10
87.71264781878365
 20
-157.6275878512181
 10
87.63031003668618
 20
-157.6320664753489
 10
87.63031003668618
 20
-157.6320664753489
 10
87.63031003668618
 20
-157.45429954831
 10
87.63031003668618
 20
-157.45429954831
 10
87.7698364038388
 20
-157.4605007201835
 10
87.97929820934198
 20
-157.4649793443143
 10
88.00479191593282
 20
-157.4649793443143
 10
88.02167288381054
 20
-157.4308728990103
 10
88.07679441157455
 20
-157.3102945570266
 10
88.09574243674344
 20
-157.2362250040937
 10
88.07679441157455
 20
-157.2362250040937
 10
87.89902748453567
 20
-157.2427706855157
 10
87.70437958961904
 20
-157.2555175388111
 10
87.70437958961904
 20
-157.2555175388111
 10
87.70437958961904
 20
-157.3888427340903
 10
87.70437958961904
 20
-157.3888427340903
 10
87.65580374327702
 20
-157.4139919311326
 10
87.59654810093072
 20
-157.4456868095969
 10
87.46322290565156
 20
-157.5114881333652
 10
87.46322290565156
 20
-157.5114881333652
 10
87.46322290565156
 20
-157.6572156723912
 10
87.46322290565156
 20
-157.6572156723912
 10
87.46322290565156
 20
-157.6572156723912
 10
87.46322290565156
 20
-158.1250596392882
 10
87.46322290565156
 20
-158.1250596392882
 10
87.46322290565156
 20
-158.2518391531453
 10
87.42704940305642
 20
-158.3110947954916
 10
87.1438625541689
 20
-158.3024820567785
 10
87.1438625541689
 20
-158.3024820567785
 10
87.04016518006289
 20
-158.095431818115
 10
87.04016518006289
 20
-158.095431818115
 10
87.10355493699147
 20
-158.1078341618619
 10
87.1521307833335
 20
-158.1123127859927
 10
87.19243840051092
 20
-158.1123127859927
 10
87.26857501073494
 20
-158.1123127859927
 10
87.27925480673922
 20
-158.088886136693
 10
87.27925480673922
 20
-158.0234293224733
 10
87.27925480673922
 20
-158.0234293224733
 10
87.27925480673922
 20
-157.5938259154626
 10
87.27925480673922
 20
-157.5938259154626
 10
87.18175860450664
 20
-157.6341335326401
 10
87.16487763662893
 20
-157.6403347045135
 10
87.11836884757806
 20
-157.6596272392309
 10
87.11423473299575
 20
-157.6806423216909
 10
87.10975610886492
 20
-157.7102701428641
 10
87.09080808369604
 20
-157.7102701428641
 10
87.08253985453145
 20
-157.7102701428641
 10
87.07186005852717
 20
-157.7061360282818
 10
87.06531437710522
 20
-157.6827093789821
 10
87.06531437710522
 20
-157.6827093789821
 10
87.01260441618087
 20
-157.4901285413566
 10
87.01260441618087
 20
-157.4901285413566
 10
87.15867646475548
 20
-157.4436197523058
 10
87.22413327897521
 20
-157.4205376125546
 10
87.27925480673922
 20
-157.399178020546
 10
87.27925480673922
 20
-157.399178020546
 10
87.27925480673922
 20
-156.9868000909616
 10
87.27925480673922
 20
-156.9868000909616
 10
87.27925480673922
 20
-156.9868000909616
 10
87.22620033626638
 20
-156.9868000909616
 10
87.22620033626638
 20
-156.9868000909616
 10
87.22620033626638
 20
-156.9868000909616
 10
87.14799666875121
 20
-156.9868000909616
 10
87.14799666875121
 20
-156.9868000909616
 10
87.08012828769177
 20
-156.9868000909616
 10
87.07186005852717
 20
-156.9868000909616
 10
87.03568655593207
 20
-156.9930012628351
 10
87.03568655593207
 20
-156.9930012628351
 10
87.03568655593207
 20
-156.7983533679185
 10
87.03568655593207
 20
-156.7983533679185
 10
87.06324731981405
 20
-156.8048990493404
 10
87.07186005852717
 20
-156.8048990493404
 10
87.14145098732922
 20
-156.8048990493404
 10
87.14145098732922
 20
-156.8048990493404
 10
87.2747761826084
 20
-156.8048990493404
 10
87.2747761826084
 20
-156.8048990493404
 10
87.2747761826084
 20
-156.7349636109898
 10
87.2747761826084
 20
-156.6526258288924
 10
87.27270912531725
 20
-156.6481472047616
 10
87.26444089615265
 20
-156.4683132204315
 10
87.26444089615265
 20
-156.4493651952626
 10
87.26202932931297
 20
-156.4028564062118
 10
87.26202932931297
 20
-156.4028564062118
 10
87.47803681623812
 20
-156.4114691449249
 10
87.47803681623812
 20
-156.4114691449249
 10
87.4887166122424
 20
-156.4114691449249
 10
87.50973169470244
 20
-156.413536202216
 10
87.50973169470244
 20
-156.4304171700938
 10
87.50973169470244
 20
-156.4493651952626
 10
87.49491778411586
 20
-156.4600449912669
 10
87.469424077525
 20
-156.4789930164358
 10
87.469424077525
 20
-156.529635920069
 10
87.46322290565156
 20
-156.7583902602896
 10
87.46528996294271
 20
-156.8048990493404
 10
87.59448104363958
 20
-156.8048990493404
 10
87.60688338738647
 20
-156.8048990493404
 10
87.70437958961904
 20
-156.7962863106273
 10
87.70437958961904
 20
-156.7962863106273
 10
87.70437958961904
 20
-156.9909342055439
 10
87.70437958961904
 20
-156.9909342055439
 10
87.66613902973277
 20
-156.9888671482527
 10
87.59861515822187
 20
-156.9847330336705
 10
87.46322290565156
 20
-156.9868000909616
 10
87.46322290565156
 20
-156.9868000909616
 10
87.46322290565156
 20
-157.3251084676132
 10
87.46322290565156
 20
-157.3251084676132
 10
87.51834443341556
 20
-157.302026327862
 10
87.58380124763531
 20
-157.27446556398
 10
87.63237709397733
 20
-157.2510389146803
 10
87.63237709397733
 20
-157.2510389146803
 10
87.63237709397733
 20
-157.0736164971899
 10
87.63237709397733
 20
-157.0736164971899
 10
87.74675426408762
 20
-157.0860188409368
 10
87.86526554878021
 20
-157.0860188409368
 10
87.98136526663313
 20
-157.0860188409368
 10
87.95828312688197
 20
-156.9909342055439
 10
87.93072236299996
 20
-156.9085964234465
 10
87.86733260607137
 20
-156.7752712281673
 10
87.82289087431164
 20
-156.7773382854584
 10
87.74020858266565
 20
-156.7814724000407
 10
87.7023125323279
 20
-156.7835394573319
 10
87.7023125323279
 20
-156.7835394573319
 10
87.7023125323279
 20
-156.6037054730018
 10
87.7023125323279
 20
-156.6037054730018
 10
87.82702498889394
 20
-156.6123182117149
 10
88.00065780135053
 20
-156.6164523262973
 10
88.08299558344801
 20
-156.6164523262973
 10
88.08299558344801
 20
-156.6164523262973
 10
88.165677875094
 20
-156.6164523262973
 10
88.165677875094
 20
-156.6164523262973
 10
88.165677875094
 20
-156.4534993098449
 10
88.165677875094
 20
-156.4431640233892
 10
88.16326630825432
 20
-156.3880424956252
 10
88.16326630825432
 20
-156.3880424956252
 10
88.38754202434408
 20
-156.413536202216
 10
88.38754202434408
 20
-156.413536202216
 10
88.39202064847491
 20
-156.413536202216
 10
88.41303573093494
 20
-156.4156032595072
 10
88.41303573093494
 20
-156.4324842273849
 10
88.41303573093494
 20
-156.4472981379715
 10
88.40235593493067
 20
-156.4559108766846
 10
88.37479517104865
 20
-156.4707247872712
 10
88.36859399917521
 20
-156.5361816014909
 10
88.36652694188407
 20
-156.557196683951
 10
88.36652694188407
 20
-156.6164523262973
 10
88.36652694188407
 20
-156.6164523262973
 10
88.46161157727697
 20
-156.6164523262973
 10
88.46161157727697
 20
-156.6164523262973
 10
88.54429386892297
 20
-156.6164523262973
 10
88.71758217183103
 20
-156.6123182117149
 10
88.8426391379456
 20
-156.6037054730018
 10
88.8426391379456
 20
-156.6037054730018
 10
88.8426391379456
 20
-156.7835394573319
 10
88.8426391379456
 20
-156.7835394573319
 10
88.81301131677245
 20
-156.7814724000407
 10
88.69450003207985
 20
-156.7773382854584
 10
88.65419241490242
 20
-156.7752712281673
 10
88.63937850431586
 20
-156.8259141318004
 10
88.6056165685604
 20
-156.9382242446196
 10
88.53981524479214
 20
-157.0777506117722
 10
88.5821899192607
 20
-157.0777506117722
 10
88.85952010582332
 20
-157.0588025866033
 10
88.92084280546077
 20
-157.0563910197637
 10
88.92084280546077
 20
-157.0563910197637
 10
88.92084280546077
 20
-157.2407036282245
 10
88.92084280546077
 20
-157.2407036282245
 10
88.89121498428762
 20
-157.2407036282245
 10
88.87433401640988
 20
-157.2362250040937
 10
88.71138099995757
 20
-157.2362250040937
 97
        0
 97
        1
330
F5
 75
     2
 76
     1
 98
        1
 10
0.0
 20
0.0
450
        0
451
        0
460
0.0
461
0.0
452
        0
462
0.0
453
        0
470

  0
SPLINE
  5
F7
330
EF
100
AcDbEntity
  8
レイヤー 1
100
AcDbSpline
210
0.0
220
0.0
230
1.0
 70
    11
 71
     3
 72
    17
 73
    13
 74
     0
 42
0.0000000001
 43
0.0000000001
 40
0.0
 40
0.0
 40
0.0
 40
0.0
 40
1.0
 40
1.0
 40
1.0
 40
2.0
 40
2.0
 40
2.0
 40
3.0
 40
3.0
 40
3.0
 40
4.0
 40
4.0
 40
4.0
 40
4.0
 10
90.56794295695871
 20
-158.0361761757687
 30
0.0
 10
90.56794295695871
 20
-158.0361761757687
 30
0.0
 10
89.86135387293398
 20
-158.0361761757687
 30
0.0
 10
89.86135387293398
 20
-158.0361761757687
 30
0.0
 10
89.86135387293398
 20
-158.0361761757687
 30
0.0
 10
89.86135387293398
 20
-158.1502088363305
 30
0.0
 10
89.86135387293398
 20
-158.1502088363305
 30
0.0
 10
89.86135387293398
 20
-158.1502088363305
 30
0.0
 10
90.56794295695871
 20
-158.1502088363305
 30
0.0
 10
90.56794295695871
 20
-158.1502088363305
 30
0.0
 10
90.56794295695871
 20
-158.1502088363305
 30
0.0
 10
90.56794295695871
 20
-158.0361761757687
 30
0.0
 10
90.56794295695871
 20
-158.0361761757687
 30
0.0
  0
SPLINE
  5
F8
330
EF
100
AcDbEntity
  8
レイヤー 1
100
AcDbSpline
210
0.0
220
0.0
230
1.0
 70
    11
 71
     3
 72
    17
 73
    13
 74
     0
 42
0.0000000001
 43
0.0000000001
 40
0.0
 40
0.0
 40
0.0
 40
0.0
 40
1.0
 40
1.0
 40
1.0
 40
2.0
 40
2.0
 40
2.0
 40
3.0
 40
3.0
 40
3.0
 40
4.0
 40
4.0
 40
4.0
 40
4.0
 10
90.56794295695871
 20
-157.7926079249615
 30
0.0
 10
90.56794295695871
 20
-157.7926079249615
 30
0.0
 10
89.86135387293398
 20
-157.7926079249615
 30
0.0
 10
89.86135387293398
 20
-157.7926079249615
 30
0.0
 10
89.86135387293398
 20
-157.7926079249615
 30
0.0
 10
89.86135387293398
 20
-157.9069850950718
 30
0.0
 10
89.86135387293398
 20
-157.9069850950718
 30
0.0
 10
89.86135387293398
 20
-157.9069850950718
 30
0.0
 10
90.56794295695871
 20
-157.9069850950718
 30
0.0
 10
90.56794295695871
 20
-157.9069850950718
 30
0.0
 10
90.56794295695871
 20
-157.9069850950718
 30
0.0
 10
90.56794295695871
 20
-157.7926079249615
 30
0.0
 10
90.56794295695871
 20
-157.7926079249615
 30
0.0
  0
SPLINE
  5
F9
330
EF
100
AcDbEntity
  8
レイヤー 1
100
AcDbSpline
210
0.0
220
0.0
230
1.0
 70
    11
 71
     3
 72
    17
 73
    13
 74
     0
 42
0.0000000001
 43
0.0000000001
 40
0.0
 40
0.0
 40
0.0
 40
0.0
 40
1.0
 40
1.0
 40
1.0
 40
2.0
 40
2.0
 40
2.0
 40
3.0
 40
3.0
 40
3.0
 40
4.0
 40
4.0
 40
4.0
 40
4.0
 10
90.56794295695871
 20
-157.5600639797072
 30
0.0
 10
90.56794295695871
 20
-157.5600639797072
 30
0.0
 10
89.86135387293398
 20
-157.5600639797072
 30
0.0
 10
89.86135387293398
 20
-157.5600639797072
 30
0.0
 10
89.86135387293398
 20
-157.5600639797072
 30
0.0
 10
89.86135387293398
 20
-157.6678954683955
 30
0.0
 10
89.86135387293398
 20
-157.6678954683955
 30
0.0
 10
89.86135387293398
 20
-157.6678954683955
 30
0.0
 10
90.56794295695871
 20
-157.6678954683955
 30
0.0
 10
90.56794295695871
 20
-157.6678954683955
 30
0.0
 10
90.56794295695871
 20
-157.6678954683955
 30
0.0
 10
90.56794295695871
 20
-157.5600639797072
 30
0.0
 10
90.56794295695871
 20
-157.5600639797072
 30
0.0
  0
SPLINE
  5
FA
330
EF
100
AcDbEntity
  8
レイヤー 1
100
AcDbSpline
210
0.0
220
0.0
230
1.0
 70
     9
 71
     3
 72
   203
 73
   199
 74
     0
 42
0.0000000001
 43
0.0000000001
 40
0.0
 40
0.0
 40
0.0
 40
0.0
 40
1.0
 40
1.0
 40
1.0
 40
2.0
 40
2.0
 40
2.0
 40
3.0
 40
3.0
 40
3.0
 40
4.0
 40
4.0
 40
4.0
 40
5.0
 40
5.0
 40
5.0
 40
6.0
 40
6.0
 40
6.0
 40
7.0
 40
7.0
 40
7.0
 40
8.0
 40
8.0
 40
8.0
 40
9.0
 40
9.0
 40
9.0
 40
10.0
 40
10.0
 40
10.0
 40
11.0
 40
11.0
 40
11.0
 40
12.0
 40
12.0
 40
12.0
 40
13.0
 40
13.0
 40
13.0
 40
14.0
 40
14.0
 40
14.0
 40
15.0
 40
15.0
 40
15.0
 40
16.0
 40
16.0
 40
16.0
 40
17.0
 40
17.0
 40
17.0
 40
18.0
 40
18.0
 40
18.0
 40
19.0
 40
19.0
 40
19.0
 40
20.0
 40
20.0
 40
20.0
 40
21.0
 40
21.0
 40
21.0
 40
22.0
 40
22.0
 40
22.0
 40
23.0
 40
23.0
 40
23.0
 40
24.0
 40
24.0
 40
24.0
 40
25.0
 40
25.0
 40
25.0
 40
26.0
 40
26.0
 40
26.0
 40
27.0
 40
27.0
 40
27.0
 40
28.0
 40
28.0
 40
28.0
 40
29.0
 40
29.0
 40
29.0
 40
30.0
 40
30.0
 40
30.0
 40
31.0
 40
31.0
 40
31.0
 40
32.0
 40
32.0
 40
32.0
 40
33.0
 40
33.0
 40
33.0
 40
34.0
 40
34.0
 40
34.0
 40
35.0
 40
35.0
 40
35.0
 40
36.0
 40
36.0
 40
36.0
 40
37.0
 40
37.0
 40
37.0
 40
38.0
 40
38.0
 40
38.0
 40
39.0
 40
39.0
 40
39.0
 40
40.0
 40
40.0
 40
40.0
 40
41.0
 40
41.0
 40
41.0
 40
42.0
 40
42.0
 40
42.0
 40
43.0
 40
43.0
 40
43.0
 40
44.0
 40
44.0
 40
44.0
 40
45.0
 40
45.0
 40
45.0
 40
46.0
 40
46.0
 40
46.0
 40
47.0
 40
47.0
 40
47.0
 40
48.0
 40
48.0
 40
48.0
 40
49.0
 40
49.0
 40
49.0
 40
50.0
 40
50.0
 40
50.0
 40
51.0
 40
51.0
 40
51.0
 40
52.0
 40
52.0
 40
52.0
 40
53.0
 40
53.0
 40
53.0
 40
54.0
 40
54.0
 40
54.0
 40
55.0
 40
55.0
 40
55.0
 40
56.0
 40
56.0
 40
56.0
 40
57.0
 40
57.0
 40
57.0
 40
58.0
 40
58.0
 40
58.0
 40
59.0
 40
59.0
 40
59.0
 40
60.0
 40
60.0
 40
60.0
 40
61.0
 40
61.0
 40
61.0
 40
62.0
 40
62.0
 40
62.0
 40
63.0
 40
63.0
 40
63.0
 40
64.0
 40
64.0
 40
64.0
 40
65.0
 40
65.0
 40
65.0
 40
66.0
 40
66.0
 40
66.0
 40
66.0
 10
90.40292288321523
 20
-157.3040933851531
 30
0.0
 10
90.40292288321523
 20
-157.3040933851531
 30
0.0
 10
89.84412839550772
 20
-157.3040933851531
 30
0.0
 10
89.84412839550772
 20
-157.3040933851531
 30
0.0
 10
89.83379310905197
 20
-157.3485351169128
 30
0.0
 10
89.82518037033884
 20
-157.3802299953771
 30
0.0
 10
89.81243351704341
 20
-157.4184705552634
 30
0.0
 10
89.83792722363427
 20
-157.4184705552634
 30
0.0
 10
89.85274113422084
 20
-157.4205376125546
 30
0.0
 10
89.8589423060943
 20
-157.4205376125546
 30
0.0
 10
89.8589423060943
 20
-157.4205376125546
 30
0.0
 10
90.04738902913747
 20
-157.4205376125546
 30
0.0
 10
90.04738902913747
 20
-157.4205376125546
 30
0.0
 10
90.04738902913747
 20
-157.4205376125546
 30
0.0
 10
90.42187090838412
 20
-157.4205376125546
 30
0.0
 10
90.42187090838412
 20
-157.4205376125546
 30
0.0
 10
90.4725138120173
 20
-157.4205376125546
 30
0.0
 10
90.75604517045334
 20
-157.4077907592591
 30
0.0
 10
90.78774004891766
 20
-157.4077907592591
 30
0.0
 10
90.78567299162649
 20
-157.4353515231412
 30
0.0
 10
90.78360593433535
 20
-157.45429954831
 30
0.0
 10
90.78360593433535
 20
-157.4839273694832
 30
0.0
 10
90.7815388770442
 20
-157.5156222479475
 30
0.0
 10
90.7815388770442
 20
-157.6510145005178
 30
0.0
 10
90.7815388770442
 20
-157.6785752643998
 30
0.0
 10
90.7815388770442
 20
-157.6785752643998
 30
0.0
 10
90.7815388770442
 20
-157.9238660629496
 30
0.0
 10
90.7815388770442
 20
-157.9238660629496
 30
0.0
 10
90.7815388770442
 20
-157.9683077947093
 30
0.0
 10
90.78567299162649
 20
-158.1650227469171
 30
0.0
 10
90.7898071062088
 20
-158.3172959673651
 30
0.0
 10
90.7898071062088
 20
-158.3172959673651
 30
0.0
 10
90.56346433282788
 20
-158.3172959673651
 30
0.0
 10
90.56346433282788
 20
-158.3172959673651
 30
0.0
 10
90.56346433282788
 20
-158.3172959673651
 30
0.0
 10
90.56553139011903
 20
-158.2835340316097
 30
0.0
 10
90.56553139011903
 20
-158.2835340316097
 30
0.0
 10
90.56553139011903
 20
-158.2835340316097
 30
0.0
 10
89.86342093022512
 20
-158.2835340316097
 30
0.0
 10
89.86342093022512
 20
-158.2835340316097
 30
0.0
 10
89.86342093022512
 20
-158.2835340316097
 30
0.0
 10
89.86548798751627
 20
-158.3172959673651
 30
0.0
 10
89.86548798751627
 20
-158.3172959673651
 30
0.0
 10
89.86548798751627
 20
-158.3172959673651
 30
0.0
 10
89.64741344329995
 20
-158.3172959673651
 30
0.0
 10
89.64741344329995
 20
-158.3172959673651
 30
0.0
 10
89.65189206743078
 20
-158.2625189491496
 30
0.0
 10
89.65189206743078
 20
-158.2497720958542
 30
0.0
 10
89.65809323930423
 20
-158.1353949257439
 30
0.0
 10
89.66016029659538
 20
-158.1078341618619
 30
0.0
 10
89.66222735388653
 20
-157.9748534761313
 30
0.0
 10
89.66222735388653
 20
-157.9555609414139
 30
0.0
 10
89.66222735388653
 20
-157.9555609414139
 30
0.0
 10
89.66222735388653
 20
-157.7526448173327
 30
0.0
 10
89.66222735388653
 20
-157.7526448173327
 30
0.0
 10
89.52270098673391
 20
-158.0020697304648
 30
0.0
 10
89.35354679840814
 20
-158.1333278684528
 30
0.0
 10
89.24778236701097
 20
-158.1987846826725
 30
0.0
 10
89.24778236701097
 20
-158.1987846826725
 30
0.0
 10
89.07414955455438
 20
-158.0592583155199
 30
0.0
 10
89.07414955455438
 20
-158.0592583155199
 30
0.0
 10
89.16303301807383
 20
-158.0086154118867
 30
0.0
 10
89.30703800935727
 20
-157.9217990056584
 30
0.0
 10
89.44449731921874
 20
-157.7271511107418
 30
0.0
 10
89.53544784002934
 20
-157.6003715968846
 30
0.0
 10
89.60090465424908
 20
-157.4563666056012
 30
0.0
 10
89.63501109955306
 20
-157.3040933851531
 30
0.0
 10
89.40625675933246
 20
-157.3061604424443
 30
0.0
 10
89.22642277500242
 20
-157.3127061238662
 30
0.0
 10
89.13133813960952
 20
-157.3147731811574
 30
0.0
 10
89.13133813960952
 20
-157.3147731811574
 30
0.0
 10
89.13133813960952
 20
-157.1370062541185
 30
0.0
 10
89.13133813960952
 20
-157.1370062541185
 30
0.0
 10
89.32805309181729
 20
-157.143207425992
 30
0.0
 10
89.61158445025336
 20
-157.1476860501228
 30
0.0
 10
89.76179061341026
 20
-157.1476860501228
 30
0.0
 10
89.76179061341026
 20
-157.1476860501228
 30
0.0
 10
89.97538653349574
 20
-157.1476860501228
 30
0.0
 10
89.97538653349574
 20
-157.1476860501228
 30
0.0
 10
89.97538653349574
 20
-157.1476860501228
 30
0.0
 10
89.97538653349574
 20
-157.0395100518859
 30
0.0
 10
89.97538653349574
 20
-157.0395100518859
 30
0.0
 10
89.97538653349574
 20
-157.0395100518859
 30
0.0
 10
89.82931448492115
 20
-157.0395100518859
 30
0.0
 10
89.82931448492115
 20
-157.0395100518859
 30
0.0
 10
89.66016029659538
 20
-157.0395100518859
 30
0.0
 10
89.49100610826961
 20
-157.0439886760168
 30
0.0
 10
89.32391897723499
 20
-157.0501898478902
 30
0.0
 10
89.32391897723499
 20
-157.0501898478902
 30
0.0
 10
89.32391897723499
 20
-156.8789686022733
 30
0.0
 10
89.32391897723499
 20
-156.8789686022733
 30
0.0
 10
89.47825925497419
 20
-156.889303888729
 30
0.0
 10
89.66429441117767
 20
-156.889303888729
 30
0.0
 10
89.82931448492115
 20
-156.889303888729
 30
0.0
 10
89.82931448492115
 20
-156.889303888729
 30
0.0
 10
89.97538653349574
 20
-156.889303888729
 30
0.0
 10
89.97538653349574
 20
-156.889303888729
 30
0.0
 10
89.97538653349574
 20
-156.889303888729
 30
0.0
 10
89.97538653349574
 20
-156.771137113585
 30
0.0
 10
89.97538653349574
 20
-156.771137113585
 30
0.0
 10
89.97538653349574
 20
-156.771137113585
 30
0.0
 10
89.84412839550772
 20
-156.771137113585
 30
0.0
 10
89.84412839550772
 20
-156.771137113585
 30
0.0
 10
89.79761960645685
 20
-156.771137113585
 30
0.0
 10
89.59470348237564
 20
-156.7794053427496
 30
0.0
 10
89.55232880790706
 20
-156.7794053427496
 30
0.0
 10
89.34941268382585
 20
-156.7835394573319
 30
0.0
 10
89.2729315640533
 20
-156.785606514623
 30
0.0
 10
89.19472789653813
 20
-156.7880180814627
 30
0.0
 10
89.19472789653813
 20
-156.7880180814627
 30
0.0
 10
89.19472789653813
 20
-156.6037054730018
 30
0.0
 10
89.19472789653813
 20
-156.6037054730018
 30
0.0
 10
89.30910506664842
 20
-156.6123182117149
 30
0.0
 10
89.35354679840814
 20
-156.6123182117149
 30
0.0
 10
89.7362969068194
 20
-156.6209309504281
 30
0.0
 10
89.67290714989081
 20
-156.5255018054867
 30
0.0
 10
89.64534638600881
 20
-156.4979410416047
 30
0.0
 10
89.6095173929622
 20
-156.4621120485581
 30
0.0
 10
89.6095173929622
 20
-156.4621120485581
 30
0.0
 10
89.78487275316142
 20
-156.3794297569121
 30
0.0
 10
89.78487275316142
 20
-156.3794297569121
 30
0.0
 10
89.82518037033884
 20
-156.4156032595072
 30
0.0
 10
89.86962210209858
 20
-156.4579779339758
 30
0.0
 10
89.94369165503144
 20
-156.5678764799552
 30
0.0
 10
89.94369165503144
 20
-156.5678764799552
 30
0.0
 10
89.82931448492115
 20
-156.6229980077192
 30
0.0
 10
89.82931448492115
 20
-156.6229980077192
 30
0.0
 10
89.82931448492115
 20
-156.6229980077192
 30
0.0
 10
89.83999428092543
 20
-156.6229980077192
 30
0.0
 10
89.83999428092543
 20
-156.6229980077192
 30
0.0
 10
89.83999428092543
 20
-156.6229980077192
 30
0.0
 10
90.36261526603782
 20
-156.6229980077192
 30
0.0
 10
90.36261526603782
 20
-156.6229980077192
 30
0.0
 10
90.36261526603782
 20
-156.6229980077192
 30
0.0
 10
90.26753063064493
 20
-156.5785562759595
 30
0.0
 10
90.26753063064493
 20
-156.5785562759595
 30
0.0
 10
90.2947468849784
 20
-156.5403157160732
 30
0.0
 10
90.35193547003355
 20
-156.4600449912669
 30
0.0
 10
90.36674938062011
 20
-156.3859754383341
 30
0.0
 10
90.36674938062011
 20
-156.3859754383341
 30
0.0
 10
90.58034530070562
 20
-156.4493651952626
 30
0.0
 10
90.58034530070562
 20
-156.4493651952626
 30
0.0
 10
90.58895803941874
 20
-156.4514322525538
 30
0.0
 10
90.60997312187877
 20
-156.4621120485581
 30
0.0
 10
90.60997312187877
 20
-156.4831271310181
 30
0.0
 10
90.60997312187877
 20
-156.5213676909044
 30
0.0
 10
90.54451630765901
 20
-156.5213676909044
 30
0.0
 10
90.52556828249015
 20
-156.5213676909044
 30
0.0
 10
90.51488848648586
 20
-156.5403157160732
 30
0.0
 10
90.49146183718617
 20
-156.5806233332507
 30
0.0
 10
90.46183401601302
 20
-156.6209309504281
 30
0.0
 10
90.86180960185052
 20
-156.6143852690061
 30
0.0
 10
90.89143742302367
 20
-156.6123182117149
 30
0.0
 10
90.96757403324771
 20
-156.6061170398415
 30
0.0
 10
90.96757403324771
 20
-156.6061170398415
 30
0.0
 10
90.96757403324771
 20
-156.7880180814627
 30
0.0
 10
90.96757403324771
 20
-156.7880180814627
 30
0.0
 10
90.94862600807882
 20
-156.7880180814627
 30
0.0
 10
90.92313230148796
 20
-156.785606514623
 30
0.0
 10
90.70333520952903
 20
-156.7773382854584
 30
0.0
 10
90.65234779634733
 20
-156.7752712281673
 30
0.0
 10
90.43255070438839
 20
-156.771137113585
 30
0.0
 10
90.38810897262868
 20
-156.771137113585
 30
0.0
 10
90.38810897262868
 20
-156.771137113585
 30
0.0
 10
90.17210148570351
 20
-156.771137113585
 30
0.0
 10
90.17210148570351
 20
-156.771137113585
 30
0.0
 10
90.17210148570351
 20
-156.771137113585
 30
0.0
 10
90.17210148570351
 20
-156.889303888729
 30
0.0
 10
90.17210148570351
 20
-156.889303888729
 30
0.0
 10
90.17210148570351
 20
-156.889303888729
 30
0.0
 10
90.3457342981601
 20
-156.889303888729
 30
0.0
 10
90.3457342981601
 20
-156.889303888729
 30
0.0
 10
90.50868731461241
 20
-156.889303888729
 30
0.0
 10
90.69885658539821
 20
-156.889303888729
 30
0.0
 10
90.85560842997706
 20
-156.8789686022733
 30
0.0
 10
90.85560842997706
 20
-156.8789686022733
 30
0.0
 10
90.85560842997706
 20
-157.0501898478902
 30
0.0
 10
90.85560842997706
 20
-157.0501898478902
 30
0.0
 10
90.64614662447388
 20
-157.0419216187256
 30
0.0
 10
90.44943167226611
 20
-157.0395100518859
 30
0.0
 10
90.3457342981601
 20
-157.0395100518859
 30
0.0
 10
90.3457342981601
 20
-157.0395100518859
 30
0.0
 10
90.17210148570351
 20
-157.0395100518859
 30
0.0
 10
90.17210148570351
 20
-157.0395100518859
 30
0.0
 10
90.17210148570351
 20
-157.0395100518859
 30
0.0
 10
90.17210148570351
 20
-157.1476860501228
 30
0.0
 10
90.17210148570351
 20
-157.1476860501228
 30
0.0
 10
90.17210148570351
 20
-157.1476860501228
 30
0.0
 10
90.40292288321523
 20
-157.1476860501228
 30
0.0
 10
90.40292288321523
 20
-157.1476860501228
 30
0.0
 10
90.53590356894588
 20
-157.1476860501228
 30
0.0
 10
90.82391355151278
 20
-157.143207425992
 30
0.0
 10
91.03303084746745
 20
-157.1370062541185
 30
0.0
 10
91.03303084746745
 20
-157.1370062541185
 30
0.0
 10
91.03303084746745
 20
-157.3147731811574
 30
0.0
 10
91.03303084746745
 20
-157.3147731811574
 30
0.0
 10
90.8407945193905
 20
-157.3082274997354
 30
0.0
 10
90.52763533978128
 20
-157.3040933851531
 30
0.0
 10
90.40292288321523
 20
-157.3040933851531
 30
0.0
  0
HATCH
  5
FB
330
EF
100
AcDbEntity
  8
レイヤー 1
 62
   250
420
  2299925
440
 33554687
100
AcDbHatch
 10
0.0
 20
0.0
 30
0.0
210
0.0
220
0.0
230
1.0
  2
SOLID
 70
     1
 71
     1
 91
        4
 92
        1
 93
        1
 72
     4
 94
        3
 73
     0
 74
     0
 95
       17
 96
       13
 40
0.0
 40
0.0
 40
0.0
 40
0.0
 40
1.0
 40
1.0
 40
1.0
 40
2.0
 40
2.0
 40
2.0
 40
3.0
 40
3.0
 40
3.0
 40
4.0
 40
4.0
 40
4.0
 40
4.0
 10
90.56794295695871
 20
-158.0361761757687
 10
90.56794295695871
 20
-158.0361761757687
 10
89.86135387293398
 20
-158.0361761757687
 10
89.86135387293398
 20
-158.0361761757687
 10
89.86135387293398
 20
-158.0361761757687
 10
89.86135387293398
 20
-158.1502088363305
 10
89.86135387293398
 20
-158.1502088363305
 10
89.86135387293398
 20
-158.1502088363305
 10
90.56794295695871
 20
-158.1502088363305
 10
90.56794295695871
 20
-158.1502088363305
 10
90.56794295695871
 20
-158.1502088363305
 10
90.56794295695871
 20
-158.0361761757687
 10
90.56794295695871
 20
-158.0361761757687
 97
        0
 97
        1
330
F7
 92
        1
 93
        1
 72
     4
 94
        3
 73
     0
 74
     0
 95
       17
 96
       13
 40
0.0
 40
0.0
 40
0.0
 40
0.0
 40
1.0
 40
1.0
 40
1.0
 40
2.0
 40
2.0
 40
2.0
 40
3.0
 40
3.0
 40
3.0
 40
4.0
 40
4.0
 40
4.0
 40
4.0
 10
90.56794295695871
 20
-157.7926079249615
 10
90.56794295695871
 20
-157.7926079249615
 10
89.86135387293398
 20
-157.7926079249615
 10
89.86135387293398
 20
-157.7926079249615
 10
89.86135387293398
 20
-157.7926079249615
 10
89.86135387293398
 20
-157.9069850950718
 10
89.86135387293398
 20
-157.9069850950718
 10
89.86135387293398
 20
-157.9069850950718
 10
90.56794295695871
 20
-157.9069850950718
 10
90.56794295695871
 20
-157.9069850950718
 10
90.56794295695871
 20
-157.9069850950718
 10
90.56794295695871
 20
-157.7926079249615
 10
90.56794295695871
 20
-157.7926079249615
 97
        0
 97
        1
330
F8
 92
        1
 93
        1
 72
     4
 94
        3
 73
     0
 74
     0
 95
       17
 96
       13
 40
0.0
 40
0.0
 40
0.0
 40
0.0
 40
1.0
 40
1.0
 40
1.0
 40
2.0
 40
2.0
 40
2.0
 40
3.0
 40
3.0
 40
3.0
 40
4.0
 40
4.0
 40
4.0
 40
4.0
 10
90.56794295695871
 20
-157.5600639797072
 10
90.56794295695871
 20
-157.5600639797072
 10
89.86135387293398
 20
-157.5600639797072
 10
89.86135387293398
 20
-157.5600639797072
 10
89.86135387293398
 20
-157.5600639797072
 10
89.86135387293398
 20
-157.6678954683955
 10
89.86135387293398
 20
-157.6678954683955
 10
89.86135387293398
 20
-157.6678954683955
 10
90.56794295695871
 20
-157.6678954683955
 10
90.56794295695871
 20
-157.6678954683955
 10
90.56794295695871
 20
-157.6678954683955
 10
90.56794295695871
 20
-157.5600639797072
 10
90.56794295695871
 20
-157.5600639797072
 97
        0
 97
        1
330
F9
 92
        1
 93
        1
 72
     4
 94
        3
 73
     0
 74
     0
 95
      203
 96
      199
 40
0.0
 40
0.0
 40
0.0
 40
0.0
 40
1.0
 40
1.0
 40
1.0
 40
2.0
 40
2.0
 40
2.0
 40
3.0
 40
3.0
 40
3.0
 40
4.0
 40
4.0
 40
4.0
 40
5.0
 40
5.0
 40
5.0
 40
6.0
 40
6.0
 40
6.0
 40
7.0
 40
7.0
 40
7.0
 40
8.0
 40
8.0
 40
8.0
 40
9.0
 40
9.0
 40
9.0
 40
10.0
 40
10.0
 40
10.0
 40
11.0
 40
11.0
 40
11.0
 40
12.0
 40
12.0
 40
12.0
 40
13.0
 40
13.0
 40
13.0
 40
14.0
 40
14.0
 40
14.0
 40
15.0
 40
15.0
 40
15.0
 40
16.0
 40
16.0
 40
16.0
 40
17.0
 40
17.0
 40
17.0
 40
18.0
 40
18.0
 40
18.0
 40
19.0
 40
19.0
 40
19.0
 40
20.0
 40
20.0
 40
20.0
 40
21.0
 40
21.0
 40
21.0
 40
22.0
 40
22.0
 40
22.0
 40
23.0
 40
23.0
 40
23.0
 40
24.0
 40
24.0
 40
24.0
 40
25.0
 40
25.0
 40
25.0
 40
26.0
 40
26.0
 40
26.0
 40
27.0
 40
27.0
 40
27.0
 40
28.0
 40
28.0
 40
28.0
 40
29.0
 40
29.0
 40
29.0
 40
30.0
 40
30.0
 40
30.0
 40
31.0
 40
31.0
 40
31.0
 40
32.0
 40
32.0
 40
32.0
 40
33.0
 40
33.0
 40
33.0
 40
34.0
 40
34.0
 40
34.0
 40
35.0
 40
35.0
 40
35.0
 40
36.0
 40
36.0
 40
36.0
 40
37.0
 40
37.0
 40
37.0
 40
38.0
 40
38.0
 40
38.0
 40
39.0
 40
39.0
 40
39.0
 40
40.0
 40
40.0
 40
40.0
 40
41.0
 40
41.0
 40
41.0
 40
42.0
 40
42.0
 40
42.0
 40
43.0
 40
43.0
 40
43.0
 40
44.0
 40
44.0
 40
44.0
 40
45.0
 40
45.0
 40
45.0
 40
46.0
 40
46.0
 40
46.0
 40
47.0
 40
47.0
 40
47.0
 40
48.0
 40
48.0
 40
48.0
 40
49.0
 40
49.0
 40
49.0
 40
50.0
 40
50.0
 40
50.0
 40
51.0
 40
51.0
 40
51.0
 40
52.0
 40
52.0
 40
52.0
 40
53.0
 40
53.0
 40
53.0
 40
54.0
 40
54.0
 40
54.0
 40
55.0
 40
55.0
 40
55.0
 40
56.0
 40
56.0
 40
56.0
 40
57.0
 40
57.0
 40
57.0
 40
58.0
 40
58.0
 40
58.0
 40
59.0
 40
59.0
 40
59.0
 40
60.0
 40
60.0
 40
60.0
 40
61.0
 40
61.0
 40
61.0
 40
62.0
 40
62.0
 40
62.0
 40
63.0
 40
63.0
 40
63.0
 40
64.0
 40
64.0
 40
64.0
 40
65.0
 40
65.0
 40
65.0
 40
66.0
 40
66.0
 40
66.0
 40
66.0
 10
90.40292288321523
 20
-157.3040933851531
 10
90.40292288321523
 20
-157.3040933851531
 10
89.84412839550772
 20
-157.3040933851531
 10
89.84412839550772
 20
-157.3040933851531
 10
89.83379310905197
 20
-157.3485351169128
 10
89.82518037033884
 20
-157.3802299953771
 10
89.81243351704341
 20
-157.4184705552634
 10
89.83792722363427
 20
-157.4184705552634
 10
89.85274113422084
 20
-157.4205376125546
 10
89.8589423060943
 20
-157.4205376125546
 10
89.8589423060943
 20
-157.4205376125546
 10
90.04738902913747
 20
-157.4205376125546
 10
90.04738902913747
 20
-157.4205376125546
 10
90.04738902913747
 20
-157.4205376125546
 10
90.42187090838412
 20
-157.4205376125546
 10
90.42187090838412
 20
-157.4205376125546
 10
90.4725138120173
 20
-157.4205376125546
 10
90.75604517045334
 20
-157.4077907592591
 10
90.78774004891766
 20
-157.4077907592591
 10
90.78567299162649
 20
-157.4353515231412
 10
90.78360593433535
 20
-157.45429954831
 10
90.78360593433535
 20
-157.4839273694832
 10
90.7815388770442
 20
-157.5156222479475
 10
90.7815388770442
 20
-157.6510145005178
 10
90.7815388770442
 20
-157.6785752643998
 10
90.7815388770442
 20
-157.6785752643998
 10
90.7815388770442
 20
-157.9238660629496
 10
90.7815388770442
 20
-157.9238660629496
 10
90.7815388770442
 20
-157.9683077947093
 10
90.78567299162649
 20
-158.1650227469171
 10
90.7898071062088
 20
-158.3172959673651
 10
90.7898071062088
 20
-158.3172959673651
 10
90.56346433282788
 20
-158.3172959673651
 10
90.56346433282788
 20
-158.3172959673651
 10
90.56346433282788
 20
-158.3172959673651
 10
90.56553139011903
 20
-158.2835340316097
 10
90.56553139011903
 20
-158.2835340316097
 10
90.56553139011903
 20
-158.2835340316097
 10
89.86342093022512
 20
-158.2835340316097
 10
89.86342093022512
 20
-158.2835340316097
 10
89.86342093022512
 20
-158.2835340316097
 10
89.86548798751627
 20
-158.3172959673651
 10
89.86548798751627
 20
-158.3172959673651
 10
89.86548798751627
 20
-158.3172959673651
 10
89.64741344329995
 20
-158.3172959673651
 10
89.64741344329995
 20
-158.3172959673651
 10
89.65189206743078
 20
-158.2625189491496
 10
89.65189206743078
 20
-158.2497720958542
 10
89.65809323930423
 20
-158.1353949257439
 10
89.66016029659538
 20
-158.1078341618619
 10
89.66222735388653
 20
-157.9748534761313
 10
89.66222735388653
 20
-157.9555609414139
 10
89.66222735388653
 20
-157.9555609414139
 10
89.66222735388653
 20
-157.7526448173327
 10
89.66222735388653
 20
-157.7526448173327
 10
89.52270098673391
 20
-158.0020697304648
 10
89.35354679840814
 20
-158.1333278684528
 10
89.24778236701097
 20
-158.1987846826725
 10
89.24778236701097
 20
-158.1987846826725
 10
89.07414955455438
 20
-158.0592583155199
 10
89.07414955455438
 20
-158.0592583155199
 10
89.16303301807383
 20
-158.0086154118867
 10
89.30703800935727
 20
-157.9217990056584
 10
89.44449731921874
 20
-157.7271511107418
 10
89.53544784002934
 20
-157.6003715968846
 10
89.60090465424908
 20
-157.4563666056012
 10
89.63501109955306
 20
-157.3040933851531
 10
89.40625675933246
 20
-157.3061604424443
 10
89.22642277500242
 20
-157.3127061238662
 10
89.13133813960952
 20
-157.3147731811574
 10
89.13133813960952
 20
-157.3147731811574
 10
89.13133813960952
 20
-157.1370062541185
 10
89.13133813960952
 20
-157.1370062541185
 10
89.32805309181729
 20
-157.143207425992
 10
89.61158445025336
 20
-157.1476860501228
 10
89.76179061341026
 20
-157.1476860501228
 10
89.76179061341026
 20
-157.1476860501228
 10
89.97538653349574
 20
-157.1476860501228
 10
89.97538653349574
 20
-157.1476860501228
 10
89.97538653349574
 20
-157.1476860501228
 10
89.97538653349574
 20
-157.0395100518859
 10
89.97538653349574
 20
-157.0395100518859
 10
89.97538653349574
 20
-157.0395100518859
 10
89.82931448492115
 20
-157.0395100518859
 10
89.82931448492115
 20
-157.0395100518859
 10
89.66016029659538
 20
-157.0395100518859
 10
89.49100610826961
 20
-157.0439886760168
 10
89.32391897723499
 20
-157.0501898478902
 10
89.32391897723499
 20
-157.0501898478902
 10
89.32391897723499
 20
-156.8789686022733
 10
89.32391897723499
 20
-156.8789686022733
 10
89.47825925497419
 20
-156.889303888729
 10
89.66429441117767
 20
-156.889303888729
 10
89.82931448492115
 20
-156.889303888729
 10
89.82931448492115
 20
-156.889303888729
 10
89.97538653349574
 20
-156.889303888729
 10
89.97538653349574
 20
-156.889303888729
 10
89.97538653349574
 20
-156.889303888729
 10
89.97538653349574
 20
-156.771137113585
 10
89.97538653349574
 20
-156.771137113585
 10
89.97538653349574
 20
-156.771137113585
 10
89.84412839550772
 20
-156.771137113585
 10
89.84412839550772
 20
-156.771137113585
 10
89.79761960645685
 20
-156.771137113585
 10
89.59470348237564
 20
-156.7794053427496
 10
89.55232880790706
 20
-156.7794053427496
 10
89.34941268382585
 20
-156.7835394573319
 10
89.2729315640533
 20
-156.785606514623
 10
89.19472789653813
 20
-156.7880180814627
 10
89.19472789653813
 20
-156.7880180814627
 10
89.19472789653813
 20
-156.6037054730018
 10
89.19472789653813
 20
-156.6037054730018
 10
89.30910506664842
 20
-156.6123182117149
 10
89.35354679840814
 20
-156.6123182117149
 10
89.7362969068194
 20
-156.6209309504281
 10
89.67290714989081
 20
-156.5255018054867
 10
89.64534638600881
 20
-156.4979410416047
 10
89.6095173929622
 20
-156.4621120485581
 10
89.6095173929622
 20
-156.4621120485581
 10
89.78487275316142
 20
-156.3794297569121
 10
89.78487275316142
 20
-156.3794297569121
 10
89.82518037033884
 20
-156.4156032595072
 10
89.86962210209858
 20
-156.4579779339758
 10
89.94369165503144
 20
-156.5678764799552
 10
89.94369165503144
 20
-156.5678764799552
 10
89.82931448492115
 20
-156.6229980077192
 10
89.82931448492115
 20
-156.6229980077192
 10
89.82931448492115
 20
-156.6229980077192
 10
89.83999428092543
 20
-156.6229980077192
 10
89.83999428092543
 20
-156.6229980077192
 10
89.83999428092543
 20
-156.6229980077192
 10
90.36261526603782
 20
-156.6229980077192
 10
90.36261526603782
 20
-156.6229980077192
 10
90.36261526603782
 20
-156.6229980077192
 10
90.26753063064493
 20
-156.5785562759595
 10
90.26753063064493
 20
-156.5785562759595
 10
90.2947468849784
 20
-156.5403157160732
 10
90.35193547003355
 20
-156.4600449912669
 10
90.36674938062011
 20
-156.3859754383341
 10
90.36674938062011
 20
-156.3859754383341
 10
90.58034530070562
 20
-156.4493651952626
 10
90.58034530070562
 20
-156.4493651952626
 10
90.58895803941874
 20
-156.4514322525538
 10
90.60997312187877
 20
-156.4621120485581
 10
90.60997312187877
 20
-156.4831271310181
 10
90.60997312187877
 20
-156.5213676909044
 10
90.54451630765901
 20
-156.5213676909044
 10
90.52556828249015
 20
-156.5213676909044
 10
90.51488848648586
 20
-156.5403157160732
 10
90.49146183718617
 20
-156.5806233332507
 10
90.46183401601302
 20
-156.6209309504281
 10
90.86180960185052
 20
-156.6143852690061
 10
90.89143742302367
 20
-156.6123182117149
 10
90.96757403324771
 20
-156.6061170398415
 10
90.96757403324771
 20
-156.6061170398415
 10
90.96757403324771
 20
-156.7880180814627
 10
90.96757403324771
 20
-156.7880180814627
 10
90.94862600807882
 20
-156.7880180814627
 10
90.92313230148796
 20
-156.785606514623
 10
90.70333520952903
 20
-156.7773382854584
 10
90.65234779634733
 20
-156.7752712281673
 10
90.43255070438839
 20
-156.771137113585
 10
90.38810897262868
 20
-156.771137113585
 10
90.38810897262868
 20
-156.771137113585
 10
90.17210148570351
 20
-156.771137113585
 10
90.17210148570351
 20
-156.771137113585
 10
90.17210148570351
 20
-156.771137113585
 10
90.17210148570351
 20
-156.889303888729
 10
90.17210148570351
 20
-156.889303888729
 10
90.17210148570351
 20
-156.889303888729
 10
90.3457342981601
 20
-156.889303888729
 10
90.3457342981601
 20
-156.889303888729
 10
90.50868731461241
 20
-156.889303888729
 10
90.69885658539821
 20
-156.889303888729
 10
90.85560842997706
 20
-156.8789686022733
 10
90.85560842997706
 20
-156.8789686022733
 10
90.85560842997706
 20
-157.0501898478902
 10
90.85560842997706
 20
-157.0501898478902
 10
90.64614662447388
 20
-157.0419216187256
 10
90.44943167226611
 20
-157.0395100518859
 10
90.3457342981601
 20
-157.0395100518859
 10
90.3457342981601
 20
-157.0395100518859
 10
90.17210148570351
 20
-157.0395100518859
 10
90.17210148570351
 20
-157.0395100518859
 10
90.17210148570351
 20
-157.0395100518859
 10
90.17210148570351
 20
-157.1476860501228
 10
90.17210148570351
 20
-157.1476860501228
 10
90.17210148570351
 20
-157.1476860501228
 10
90.40292288321523
 20
-157.1476860501228
 10
90.40292288321523
 20
-157.1476860501228
 10
90.53590356894588
 20
-157.1476860501228
 10
90.82391355151278
 20
-157.143207425992
 10
91.03303084746745
 20
-157.1370062541185
 10
91.03303084746745
 20
-157.1370062541185
 10
91.03303084746745
 20
-157.3147731811574
 10
91.03303084746745
 20
-157.3147731811574
 10
90.8407945193905
 20
-157.3082274997354
 10
90.52763533978128
 20
-157.3040933851531
 10
90.40292288321523
 20
-157.3040933851531
 97
        0
 97
        1
330
FA
 75
     2
 76
     1
 98
        1
 10
0.0
 20
0.0
450
        0
451
        0
460
0.0
461
0.0
452
        0
462
0.0
453
        0
470

  0
SPLINE
  5
FC
330
EF
100
AcDbEntity
  8
レイヤー 1
100
AcDbSpline
210
0.0
220
0.0
230
1.0
 70
     9
 71
     3
 72
    29
 73
    25
 74
     0
 42
0.0000000001
 43
0.0000000001
 40
0.0
 40
0.0
 40
0.0
 40
0.0
 40
1.0
 40
1.0
 40
1.0
 40
2.0
 40
2.0
 40
2.0
 40
3.0
 40
3.0
 40
3.0
 40
4.0
 40
4.0
 40
4.0
 40
5.0
 40
5.0
 40
5.0
 40
6.0
 40
6.0
 40
6.0
 40
7.0
 40
7.0
 40
7.0
 40
8.0
 40
8.0
 40
8.0
 40
8.0
 10
92.27808835583672
 20
-156.7518445788676
 30
0.0
 10
92.27808835583672
 20
-156.7518445788676
 30
0.0
 10
91.9246215590501
 20
-156.7518445788676
 30
0.0
 10
91.9246215590501
 20
-156.7518445788676
 30
0.0
 10
91.81265595577947
 20
-156.7518445788676
 30
0.0
 10
91.67312958862686
 20
-156.7583902602896
 30
0.0
 10
91.56529809993854
 20
-156.771137113585
 30
0.0
 10
91.56529809993854
 20
-156.771137113585
 30
0.0
 10
91.56529809993854
 20
-156.5361816014909
 30
0.0
 10
91.56529809993854
 20
-156.5361816014909
 30
0.0
 10
91.6834648750826
 20
-156.5509955120775
 30
0.0
 10
91.86777748354348
 20
-156.5551296266598
 30
0.0
 10
91.9246215590501
 20
-156.5551296266598
 30
0.0
 10
91.9246215590501
 20
-156.5551296266598
 30
0.0
 10
92.27808835583672
 20
-156.5551296266598
 30
0.0
 10
92.27808835583672
 20
-156.5551296266598
 30
0.0
 10
92.29703638100561
 20
-156.5551296266598
 30
0.0
 10
92.50029701463535
 20
-156.5551296266598
 30
0.0
 10
92.64189043907911
 20
-156.5361816014909
 30
0.0
 10
92.64189043907911
 20
-156.5361816014909
 30
0.0
 10
92.64189043907911
 20
-156.771137113585
 30
0.0
 10
92.64189043907911
 20
-156.771137113585
 30
0.0
 10
92.48548310404876
 20
-156.7518445788676
 30
0.0
 10
92.29496932371445
 20
-156.7518445788676
 30
0.0
 10
92.27808835583672
 20
-156.7518445788676
 30
0.0
  0
SPLINE
  5
FD
330
EF
100
AcDbEntity
  8
レイヤー 1
100
AcDbSpline
210
0.0
220
0.0
230
1.0
 70
     9
 71
     3
 72
    47
 73
    43
 74
     0
 42
0.0000000001
 43
0.0000000001
 40
0.0
 40
0.0
 40
0.0
 40
0.0
 40
1.0
 40
1.0
 40
1.0
 40
2.0
 40
2.0
 40
2.0
 40
3.0
 40
3.0
 40
3.0
 40
4.0
 40
4.0
 40
4.0
 40
5.0
 40
5.0
 40
5.0
 40
6.0
 40
6.0
 40
6.0
 40
7.0
 40
7.0
 40
7.0
 40
8.0
 40
8.0
 40
8.0
 40
9.0
 40
9.0
 40
9.0
 40
10.0
 40
10.0
 40
10.0
 40
11.0
 40
11.0
 40
11.0
 40
12.0
 40
12.0
 40
12.0
 40
13.0
 40
13.0
 40
13.0
 40
14.0
 40
14.0
 40
14.0
 40
14.0
 10
92.3797186726516
 20
-157.2806667358534
 30
0.0
 10
92.3797186726516
 20
-157.2806667358534
 30
0.0
 10
92.27808835583672
 20
-157.2806667358534
 30
0.0
 10
92.27808835583672
 20
-157.2806667358534
 30
0.0
 10
92.27808835583672
 20
-157.3674831420817
 30
0.0
 10
92.25707327337671
 20
-157.7567789319149
 30
0.0
 10
92.06035832116894
 20
-157.9769205334224
 30
0.0
 10
91.90774059117236
 20
-158.1460747217482
 30
0.0
 10
91.70069035250886
 20
-158.2160101600988
 30
0.0
 10
91.61594100357172
 20
-158.2432264144322
 30
0.0
 10
91.61594100357172
 20
-158.2432264144322
 30
0.0
 10
91.42129310865509
 20
-158.0761392833976
 30
0.0
 10
91.42129310865509
 20
-158.0761392833976
 30
0.0
 10
91.51878931088766
 20
-158.0633924301022
 30
0.0
 10
91.69414467108689
 20
-158.040310290351
 30
0.0
 10
91.88259139413004
 20
-157.8518635673078
 30
0.0
 10
91.95666094706293
 20
-157.7802055812147
 30
0.0
 10
92.06035832116894
 20
-157.6403347045135
 30
0.0
 10
92.06035832116894
 20
-157.2806667358534
 30
0.0
 10
92.06035832116894
 20
-157.2806667358534
 30
0.0
 10
91.82953692365719
 20
-157.2806667358534
 30
0.0
 10
91.82953692365719
 20
-157.2806667358534
 30
0.0
 10
91.64350176745371
 20
-157.2806667358534
 30
0.0
 10
91.4571221017017
 20
-157.2851453599843
 30
0.0
 10
91.27108694549821
 20
-157.2999592705708
 30
0.0
 10
91.27108694549821
 20
-157.2999592705708
 30
0.0
 10
91.27108694549821
 20
-157.0798176690634
 30
0.0
 10
91.27108694549821
 20
-157.0798176690634
 30
0.0
 10
91.45953366854136
 20
-157.0946315796499
 30
0.0
 10
91.74513208426857
 20
-157.0987656942322
 30
0.0
 10
91.82953692365719
 20
-157.0987656942322
 30
0.0
 10
91.82953692365719
 20
-157.0987656942322
 30
0.0
 10
92.3797186726516
 20
-157.0987656942322
 30
0.0
 10
92.3797186726516
 20
-157.0987656942322
 30
0.0
 10
92.39866669782047
 20
-157.0987656942322
 30
0.0
 10
92.71595999201199
 20
-157.0987656942322
 30
0.0
 10
92.94436982268406
 20
-157.0798176690634
 30
0.0
 10
92.94436982268406
 20
-157.0798176690634
 30
0.0
 10
92.94436982268406
 20
-157.2999592705708
 30
0.0
 10
92.94436982268406
 20
-157.2999592705708
 30
0.0
 10
92.75626760918941
 20
-157.2851453599843
 30
0.0
 10
92.56782088614624
 20
-157.2806667358534
 30
0.0
 10
92.3797186726516
 20
-157.2806667358534
 30
0.0
  0
HATCH
  5
FE
330
EF
100
AcDbEntity
  8
レイヤー 1
 62
   250
420
  2299925
440
 33554687
100
AcDbHatch
 10
0.0
 20
0.0
 30
0.0
210
0.0
220
0.0
230
1.0
  2
SOLID
 70
     1
 71
     1
 91
        2
 92
        1
 93
        1
 72
     4
 94
        3
 73
     0
 74
     0
 95
       29
 96
       25
 40
0.0
 40
0.0
 40
0.0
 40
0.0
 40
1.0
 40
1.0
 40
1.0
 40
2.0
 40
2.0
 40
2.0
 40
3.0
 40
3.0
 40
3.0
 40
4.0
 40
4.0
 40
4.0
 40
5.0
 40
5.0
 40
5.0
 40
6.0
 40
6.0
 40
6.0
 40
7.0
 40
7.0
 40
7.0
 40
8.0
 40
8.0
 40
8.0
 40
8.0
 10
92.27808835583672
 20
-156.7518445788676
 10
92.27808835583672
 20
-156.7518445788676
 10
91.9246215590501
 20
-156.7518445788676
 10
91.9246215590501
 20
-156.7518445788676
 10
91.81265595577947
 20
-156.7518445788676
 10
91.67312958862686
 20
-156.7583902602896
 10
91.56529809993854
 20
-156.771137113585
 10
91.56529809993854
 20
-156.771137113585
 10
91.56529809993854
 20
-156.5361816014909
 10
91.56529809993854
 20
-156.5361816014909
 10
91.6834648750826
 20
-156.5509955120775
 10
91.86777748354348
 20
-156.5551296266598
 10
91.9246215590501
 20
-156.5551296266598
 10
91.9246215590501
 20
-156.5551296266598
 10
92.27808835583672
 20
-156.5551296266598
 10
92.27808835583672
 20
-156.5551296266598
 10
92.29703638100561
 20
-156.5551296266598
 10
92.50029701463535
 20
-156.5551296266598
 10
92.64189043907911
 20
-156.5361816014909
 10
92.64189043907911
 20
-156.5361816014909
 10
92.64189043907911
 20
-156.771137113585
 10
92.64189043907911
 20
-156.771137113585
 10
92.48548310404876
 20
-156.7518445788676
 10
92.29496932371445
 20
-156.7518445788676
 10
92.27808835583672
 20
-156.7518445788676
 97
        0
 97
        1
330
FC
 92
        1
 93
        1
 72
     4
 94
        3
 73
     0
 74
     0
 95
       47
 96
       43
 40
0.0
 40
0.0
 40
0.0
 40
0.0
 40
1.0
 40
1.0
 40
1.0
 40
2.0
 40
2.0
 40
2.0
 40
3.0
 40
3.0
 40
3.0
 40
4.0
 40
4.0
 40
4.0
 40
5.0
 40
5.0
 40
5.0
 40
6.0
 40
6.0
 40
6.0
 40
7.0
 40
7.0
 40
7.0
 40
8.0
 40
8.0
 40
8.0
 40
9.0
 40
9.0
 40
9.0
 40
10.0
 40
10.0
 40
10.0
 40
11.0
 40
11.0
 40
11.0
 40
12.0
 40
12.0
 40
12.0
 40
13.0
 40
13.0
 40
13.0
 40
14.0
 40
14.0
 40
14.0
 40
14.0
 10
92.3797186726516
 20
-157.2806667358534
 10
92.3797186726516
 20
-157.2806667358534
 10
92.27808835583672
 20
-157.2806667358534
 10
92.27808835583672
 20
-157.2806667358534
 10
92.27808835583672
 20
-157.3674831420817
 10
92.25707327337671
 20
-157.7567789319149
 10
92.06035832116894
 20
-157.9769205334224
 10
91.90774059117236
 20
-158.1460747217482
 10
91.70069035250886
 20
-158.2160101600988
 10
91.61594100357172
 20
-158.2432264144322
 10
91.61594100357172
 20
-158.2432264144322
 10
91.42129310865509
 20
-158.0761392833976
 10
91.42129310865509
 20
-158.0761392833976
 10
91.51878931088766
 20
-158.0633924301022
 10
91.69414467108689
 20
-158.040310290351
 10
91.88259139413004
 20
-157.8518635673078
 10
91.95666094706293
 20
-157.7802055812147
 10
92.06035832116894
 20
-157.6403347045135
 10
92.06035832116894
 20
-157.2806667358534
 10
92.06035832116894
 20
-157.2806667358534
 10
91.82953692365719
 20
-157.2806667358534
 10
91.82953692365719
 20
-157.2806667358534
 10
91.64350176745371
 20
-157.2806667358534
 10
91.4571221017017
 20
-157.2851453599843
 10
91.27108694549821
 20
-157.2999592705708
 10
91.27108694549821
 20
-157.2999592705708
 10
91.27108694549821
 20
-157.0798176690634
 10
91.27108694549821
 20
-157.0798176690634
 10
91.45953366854136
 20
-157.0946315796499
 10
91.74513208426857
 20
-157.0987656942322
 10
91.82953692365719
 20
-157.0987656942322
 10
91.82953692365719
 20
-157.0987656942322
 10
92.3797186726516
 20
-157.0987656942322
 10
92.3797186726516
 20
-157.0987656942322
 10
92.39866669782047
 20
-157.0987656942322
 10
92.71595999201199
 20
-157.0987656942322
 10
92.94436982268406
 20
-157.0798176690634
 10
92.94436982268406
 20
-157.0798176690634
 10
92.94436982268406
 20
-157.2999592705708
 10
92.94436982268406
 20
-157.2999592705708
 10
92.75626760918941
 20
-157.2851453599843
 10
92.56782088614624
 20
-157.2806667358534
 10
92.3797186726516
 20
-157.2806667358534
 97
        0
 97
        1
330
FD
 75
     2
 76
     1
 98
        1
 10
0.0
 20
0.0
450
        0
451
        0
460
0.0
461
0.0
452
        0
462
0.0
453
        0
470

  0
SPLINE
  5
FF
330
EF
100
AcDbEntity
  8
レイヤー 1
100
AcDbSpline
210
0.0
220
0.0
230
1.0
 70
     9
 71
     3
 72
    29
 73
    25
 74
     0
 42
0.0000000001
 43
0.0000000001
 40
0.0
 40
0.0
 40
0.0
 40
0.0
 40
1.0
 40
1.0
 40
1.0
 40
2.0
 40
2.0
 40
2.0
 40
3.0
 40
3.0
 40
3.0
 40
4.0
 40
4.0
 40
4.0
 40
5.0
 40
5.0
 40
5.0
 40
6.0
 40
6.0
 40
6.0
 40
7.0
 40
7.0
 40
7.0
 40
8.0
 40
8.0
 40
8.0
 40
8.0
 10
94.22560083364848
 20
-157.4436197523058
 30
0.0
 10
94.22560083364848
 20
-157.4436197523058
 30
0.0
 10
93.74122040842234
 20
-157.4436197523058
 30
0.0
 10
93.74122040842234
 20
-157.4436197523058
 30
0.0
 10
93.71365964454033
 20
-157.4436197523058
 30
0.0
 10
93.39636635034883
 20
-157.4436197523058
 30
0.0
 10
93.18483748755449
 20
-157.4691134588966
 30
0.0
 10
93.18483748755449
 20
-157.4691134588966
 30
0.0
 10
93.18483748755449
 20
-157.2386365709334
 30
0.0
 10
93.18483748755449
 20
-157.2386365709334
 30
0.0
 10
93.34331187987599
 20
-157.2617187106846
 30
0.0
 10
93.5338256602103
 20
-157.2637857679757
 30
0.0
 10
93.74122040842234
 20
-157.2637857679757
 30
0.0
 10
93.74122040842234
 20
-157.2637857679757
 30
0.0
 10
94.22560083364848
 20
-157.2637857679757
 30
0.0
 10
94.22560083364848
 20
-157.2637857679757
 30
0.0
 10
94.41163598985196
 20
-157.2637857679757
 30
0.0
 10
94.59801565560397
 20
-157.2617187106846
 30
0.0
 10
94.78198375451631
 20
-157.2386365709334
 30
0.0
 10
94.78198375451631
 20
-157.2386365709334
 30
0.0
 10
94.78198375451631
 20
-157.4691134588966
 30
0.0
 10
94.78198375451631
 20
-157.4691134588966
 30
0.0
 10
94.59801565560397
 20
-157.4456868095969
 30
0.0
 10
94.35031329021452
 20
-157.4436197523058
 30
0.0
 10
94.22560083364848
 20
-157.4436197523058
 30
0.0
  0
HATCH
  5
100
330
EF
100
AcDbEntity
  8
レイヤー 1
 62
   250
420
  2299925
440
 33554687
100
AcDbHatch
 10
0.0
 20
0.0
 30
0.0
210
0.0
220
0.0
230
1.0
  2
SOLID
 70
     1
 71
     1
 91
        1
 92
        1
 93
        1
 72
     4
 94
        3
 73
     0
 74
     0
 95
       29
 96
       25
 40
0.0
 40
0.0
 40
0.0
 40
0.0
 40
1.0
 40
1.0
 40
1.0
 40
2.0
 40
2.0
 40
2.0
 40
3.0
 40
3.0
 40
3.0
 40
4.0
 40
4.0
 40
4.0
 40
5.0
 40
5.0
 40
5.0
 40
6.0
 40
6.0
 40
6.0
 40
7.0
 40
7.0
 40
7.0
 40
8.0
 40
8.0
 40
8.0
 40
8.0
 10
94.22560083364848
 20
-157.4436197523058
 10
94.22560083364848
 20
-157.4436197523058
 10
93.74122040842234
 20
-157.4436197523058
 10
93.74122040842234
 20
-157.4436197523058
 10
93.71365964454033
 20
-157.4436197523058
 10
93.39636635034883
 20
-157.4436197523058
 10
93.18483748755449
 20
-157.4691134588966
 10
93.18483748755449
 20
-157.4691134588966
 10
93.18483748755449
 20
-157.2386365709334
 10
93.18483748755449
 20
-157.2386365709334
 10
93.34331187987599
 20
-157.2617187106846
 10
93.5338256602103
 20
-157.2637857679757
 10
93.74122040842234
 20
-157.2637857679757
 10
93.74122040842234
 20
-157.2637857679757
 10
94.22560083364848
 20
-157.2637857679757
 10
94.22560083364848
 20
-157.2637857679757
 10
94.41163598985196
 20
-157.2637857679757
 10
94.59801565560397
 20
-157.2617187106846
 10
94.78198375451631
 20
-157.2386365709334
 10
94.78198375451631
 20
-157.2386365709334
 10
94.78198375451631
 20
-157.4691134588966
 10
94.78198375451631
 20
-157.4691134588966
 10
94.59801565560397
 20
-157.4456868095969
 10
94.35031329021452
 20
-157.4436197523058
 10
94.22560083364848
 20
-157.4436197523058
 97
        0
 97
        1
330
FF
 75
     2
 76
     1
 98
        1
 10
0.0
 20
0.0
450
        0
451
        0
460
0.0
461
0.0
452
        0
462
0.0
453
        0
470

  0
SPLINE
  5
101
330
EF
100
AcDbEntity
  8
レイヤー 1
100
AcDbSpline
210
0.0
220
0.0
230
1.0
 70
     9
 71
     3
 72
    17
 73
    13
 74
     0
 42
0.0000000001
 43
0.0000000001
 40
0.0
 40
0.0
 40
0.0
 40
0.0
 40
1.0
 40
1.0
 40
1.0
 40
2.0
 40
2.0
 40
2.0
 40
3.0
 40
3.0
 40
3.0
 40
4.0
 40
4.0
 40
4.0
 40
4.0
 10
96.64440237384239
 20
-156.4769259591446
 30
0.0
 10
96.58962535562691
 20
-156.4769259591446
 30
0.0
 10
96.54518362386717
 20
-156.5213676909044
 30
0.0
 10
96.54518362386717
 20
-156.5764892186684
 30
0.0
 10
96.54518362386717
 20
-156.633333294175
 30
0.0
 10
96.58962535562691
 20
-156.6822536500655
 30
0.0
 10
96.64853648842468
 20
-156.6822536500655
 30
0.0
 10
96.70779213077096
 20
-156.6822536500655
 30
0.0
 10
96.7480997479484
 20
-156.6312662368838
 30
0.0
 10
96.7480997479484
 20
-156.5785562759595
 30
0.0
 10
96.7480997479484
 20
-156.5213676909044
 30
0.0
 10
96.70159095889752
 20
-156.4769259591446
 30
0.0
 10
96.64440237384239
 20
-156.4769259591446
 30
0.0
  0
SPLINE
  5
102
330
EF
100
AcDbEntity
  8
レイヤー 1
100
AcDbSpline
210
0.0
220
0.0
230
1.0
 70
     9
 71
     3
 72
    17
 73
    13
 74
     0
 42
0.0000000001
 43
0.0000000001
 40
0.0
 40
0.0
 40
0.0
 40
0.0
 40
1.0
 40
1.0
 40
1.0
 40
2.0
 40
2.0
 40
2.0
 40
3.0
 40
3.0
 40
3.0
 40
4.0
 40
4.0
 40
4.0
 40
4.0
 10
96.64646943113353
 20
-156.8069661066316
 30
0.0
 10
96.51968991727635
 20
-156.8069661066316
 30
0.0
 10
96.41805960046147
 20
-156.7053357898167
 30
0.0
 10
96.41805960046147
 20
-156.5785562759595
 30
0.0
 10
96.41805960046147
 20
-156.4514322525538
 30
0.0
 10
96.51968991727635
 20
-156.3477348784478
 30
0.0
 10
96.64646943113353
 20
-156.3477348784478
 30
0.0
 10
96.77359345453924
 20
-156.3477348784478
 30
0.0
 10
96.87729082864528
 20
-156.4514322525538
 30
0.0
 10
96.87729082864528
 20
-156.5785562759595
 30
0.0
 10
96.87729082864528
 20
-156.7053357898167
 30
0.0
 10
96.77359345453924
 20
-156.8069661066316
 30
0.0
 10
96.64646943113353
 20
-156.8069661066316
 30
0.0
  0
SPLINE
  5
103
330
EF
100
AcDbEntity
  8
レイヤー 1
100
AcDbSpline
210
0.0
220
0.0
230
1.0
 70
     9
 71
     3
 72
    44
 73
    40
 74
     0
 42
0.0000000001
 43
0.0000000001
 40
0.0
 40
0.0
 40
0.0
 40
0.0
 40
1.0
 40
1.0
 40
1.0
 40
2.0
 40
2.0
 40
2.0
 40
3.0
 40
3.0
 40
3.0
 40
4.0
 40
4.0
 40
4.0
 40
5.0
 40
5.0
 40
5.0
 40
6.0
 40
6.0
 40
6.0
 40
7.0
 40
7.0
 40
7.0
 40
8.0
 40
8.0
 40
8.0
 40
9.0
 40
9.0
 40
9.0
 40
10.0
 40
10.0
 40
10.0
 40
11.0
 40
11.0
 40
11.0
 40
12.0
 40
12.0
 40
12.0
 40
13.0
 40
13.0
 40
13.0
 40
13.0
 10
96.43700762563033
 20
-157.0057481161305
 30
0.0
 10
96.32504202235971
 20
-157.3740288235037
 30
0.0
 10
96.27439911872656
 20
-157.5325032158252
 30
0.0
 10
96.07768416651879
 20
-157.7822726385058
 30
0.0
 10
95.89337155805791
 20
-158.012749526469
 30
0.0
 10
95.65669349822124
 20
-158.1987846826725
 30
0.0
 10
95.37729625436748
 20
-158.2921467703228
 30
0.0
 10
95.37729625436748
 20
-158.2921467703228
 30
0.0
 10
95.18471541674202
 20
-158.1123127859927
 30
0.0
 10
95.18471541674202
 20
-158.1123127859927
 30
0.0
 10
95.82584768654703
 20
-157.9600395655447
 30
0.0
 10
96.15588783403396
 20
-157.4036566446768
 30
0.0
 10
96.21927759096255
 20
-156.9633734416619
 30
0.0
 10
96.21927759096255
 20
-156.9633734416619
 30
0.0
 10
95.4534328645915
 20
-156.9633734416619
 30
0.0
 10
95.4534328645915
 20
-156.9633734416619
 30
0.0
 10
95.36041528648977
 20
-156.9633734416619
 30
0.0
 10
95.17644718757741
 20
-156.9678520657927
 30
0.0
 10
95.01969534299856
 20
-156.9868000909616
 30
0.0
 10
95.01969534299856
 20
-156.9868000909616
 30
0.0
 10
95.01969534299856
 20
-156.7666584894542
 30
0.0
 10
95.01969534299856
 20
-156.7666584894542
 30
0.0
 10
95.10651174922685
 20
-156.7880180814627
 30
0.0
 10
95.35834822919861
 20
-156.7880180814627
 30
0.0
 10
95.45756697917381
 20
-156.7880180814627
 30
0.0
 10
95.45756697917381
 20
-156.7880180814627
 30
0.0
 10
95.8892374434756
 20
-156.7880180814627
 30
0.0
 10
95.8892374434756
 20
-156.7880180814627
 30
0.0
 10
95.93161211794418
 20
-156.7880180814627
 30
0.0
 10
96.16622312048971
 20
-156.785606514623
 30
0.0
 10
96.20446368037598
 20
-156.7794053427496
 30
0.0
 10
96.24683835484454
 20
-156.7732041708761
 30
0.0
 10
96.2489054121357
 20
-156.771137113585
 30
0.0
 10
96.31022811177315
 20
-156.7308294964075
 30
0.0
 10
96.31022811177315
 20
-156.7308294964075
 30
0.0
 10
96.49833032526778
 20
-156.8851697741467
 30
0.0
 10
96.49833032526778
 20
-156.8851697741467
 30
0.0
 10
96.46904701364316
 20
-156.9147975953199
 30
0.0
 10
96.45423310305659
 20
-156.9464924737842
 30
0.0
 10
96.43700762563033
 20
-157.0057481161305
 30
0.0
  0
HATCH
  5
104
330
EF
100
AcDbEntity
  8
レイヤー 1
 62
   250
420
  2299925
440
 33554687
100
AcDbHatch
 10
0.0
 20
0.0
 30
0.0
210
0.0
220
0.0
230
1.0
  2
SOLID
 70
     1
 71
     1
 91
        3
 92
        1
 93
        1
 72
     4
 94
        3
 73
     0
 74
     0
 95
       17
 96
       13
 40
0.0
 40
0.0
 40
0.0
 40
0.0
 40
1.0
 40
1.0
 40
1.0
 40
2.0
 40
2.0
 40
2.0
 40
3.0
 40
3.0
 40
3.0
 40
4.0
 40
4.0
 40
4.0
 40
4.0
 10
96.64440237384239
 20
-156.4769259591446
 10
96.58962535562691
 20
-156.4769259591446
 10
96.54518362386717
 20
-156.5213676909044
 10
96.54518362386717
 20
-156.5764892186684
 10
96.54518362386717
 20
-156.633333294175
 10
96.58962535562691
 20
-156.6822536500655
 10
96.64853648842468
 20
-156.6822536500655
 10
96.70779213077096
 20
-156.6822536500655
 10
96.7480997479484
 20
-156.6312662368838
 10
96.7480997479484
 20
-156.5785562759595
 10
96.7480997479484
 20
-156.5213676909044
 10
96.70159095889752
 20
-156.4769259591446
 10
96.64440237384239
 20
-156.4769259591446
 97
        0
 97
        1
330
101
 92
        1
 93
        1
 72
     4
 94
        3
 73
     0
 74
     0
 95
       17
 96
       13
 40
0.0
 40
0.0
 40
0.0
 40
0.0
 40
1.0
 40
1.0
 40
1.0
 40
2.0
 40
2.0
 40
2.0
 40
3.0
 40
3.0
 40
3.0
 40
4.0
 40
4.0
 40
4.0
 40
4.0
 10
96.64646943113353
 20
-156.8069661066316
 10
96.51968991727635
 20
-156.8069661066316
 10
96.41805960046147
 20
-156.7053357898167
 10
96.41805960046147
 20
-156.5785562759595
 10
96.41805960046147
 20
-156.4514322525538
 10
96.51968991727635
 20
-156.3477348784478
 10
96.64646943113353
 20
-156.3477348784478
 10
96.77359345453924
 20
-156.3477348784478
 10
96.87729082864528
 20
-156.4514322525538
 10
96.87729082864528
 20
-156.5785562759595
 10
96.87729082864528
 20
-156.7053357898167
 10
96.77359345453924
 20
-156.8069661066316
 10
96.64646943113353
 20
-156.8069661066316
 97
        0
 97
        1
330
102
 92
        1
 93
        1
 72
     4
 94
        3
 73
     0
 74
     0
 95
       44
 96
       40
 40
0.0
 40
0.0
 40
0.0
 40
0.0
 40
1.0
 40
1.0
 40
1.0
 40
2.0
 40
2.0
 40
2.0
 40
3.0
 40
3.0
 40
3.0
 40
4.0
 40
4.0
 40
4.0
 40
5.0
 40
5.0
 40
5.0
 40
6.0
 40
6.0
 40
6.0
 40
7.0
 40
7.0
 40
7.0
 40
8.0
 40
8.0
 40
8.0
 40
9.0
 40
9.0
 40
9.0
 40
10.0
 40
10.0
 40
10.0
 40
11.0
 40
11.0
 40
11.0
 40
12.0
 40
12.0
 40
12.0
 40
13.0
 40
13.0
 40
13.0
 40
13.0
 10
96.43700762563033
 20
-157.0057481161305
 10
96.32504202235971
 20
-157.3740288235037
 10
96.27439911872656
 20
-157.5325032158252
 10
96.07768416651879
 20
-157.7822726385058
 10
95.89337155805791
 20
-158.012749526469
 10
95.65669349822124
 20
-158.1987846826725
 10
95.37729625436748
 20
-158.2921467703228
 10
95.37729625436748
 20
-158.2921467703228
 10
95.18471541674202
 20
-158.1123127859927
 10
95.18471541674202
 20
-158.1123127859927
 10
95.82584768654703
 20
-157.9600395655447
 10
96.15588783403396
 20
-157.4036566446768
 10
96.21927759096255
 20
-156.9633734416619
 10
96.21927759096255
 20
-156.9633734416619
 10
95.4534328645915
 20
-156.9633734416619
 10
95.4534328645915
 20
-156.9633734416619
 10
95.36041528648977
 20
-156.9633734416619
 10
95.17644718757741
 20
-156.9678520657927
 10
95.01969534299856
 20
-156.9868000909616
 10
95.01969534299856
 20
-156.9868000909616
 10
95.01969534299856
 20
-156.7666584894542
 10
95.01969534299856
 20
-156.7666584894542
 10
95.10651174922685
 20
-156.7880180814627
 10
95.35834822919861
 20
-156.7880180814627
 10
95.45756697917381
 20
-156.7880180814627
 10
95.45756697917381
 20
-156.7880180814627
 10
95.8892374434756
 20
-156.7880180814627
 10
95.8892374434756
 20
-156.7880180814627
 10
95.93161211794418
 20
-156.7880180814627
 10
96.16622312048971
 20
-156.785606514623
 10
96.20446368037598
 20
-156.7794053427496
 10
96.24683835484454
 20
-156.7732041708761
 10
96.2489054121357
 20
-156.771137113585
 10
96.31022811177315
 20
-156.7308294964075
 10
96.31022811177315
 20
-156.7308294964075
 10
96.49833032526778
 20
-156.8851697741467
 10
96.49833032526778
 20
-156.8851697741467
 10
96.46904701364316
 20
-156.9147975953199
 10
96.45423310305659
 20
-156.9464924737842
 10
96.43700762563033
 20
-157.0057481161305
 97
        0
 97
        1
330
103
 75
     2
 76
     1
 98
        1
 10
0.0
 20
0.0
450
        0
451
        0
460
0.0
461
0.0
452
        0
462
0.0
453
        0
470

  0
ENDBLK
  5
F2
330
EF
100
AcDbEntity
  8
0
100
AcDbBlockEnd
  0
ENDSEC
  0
SECTION
  2
ENTITIES
  0
INSERT
  5
7A
330
70
100
AcDbEntity
  8
レイヤー 1
100
AcDbBlockReference
  2
Block_0
 10
0.0
 20
0.0
 30
0.0
  0
INSERT
  5
E3
330
70
100
AcDbEntity
  8
レイヤー 1
100
AcDbBlockReference
  2
Block_14
 10
0.0
 20
0.0
 30
0.0
  0
ENDSEC
  0
SECTION
  2
OBJECTS
  0
DICTIONARY
  5
C
330
0
100
AcDbDictionary
281
     1
  3
ACAD_COLOR
350
63
  3
ACAD_DETAILVIEWSTYLE
350
6A
  3
ACAD_GROUP
350
D
  3
ACAD_LAYOUT
350
62
  3
ACAD_MATERIAL
350
10
  3
ACAD_MLEADERSTYLE
350
66
  3
ACAD_MLINESTYLE
350
5F
  3
ACAD_PLOTSETTINGS
350
61
  3
ACAD_PLOTSTYLENAME
350
E
  3
ACAD_SCALELIST
350
42
  3
ACAD_SECTIONVIEWSTYLE
350
68
  3
ACAD_TABLESTYLE
350
64
  3
ACAD_VISUALSTYLE
350
29
  3
ACDB_RECOMPOSE_DATA
350
10D
  3
AcDbVariableDictionary
350
105
  0
DICTIONARY
  5
63
102
{ACAD_REACTORS
330
C
102
}
330
C
100
AcDbDictionary
281
     1
  0
DICTIONARY
  5
6A
102
{ACAD_REACTORS
330
C
102
}
330
C
100
AcDbDictionary
281
     1
  3
Imperial24
350
6B
  0
DICTIONARY
  5
D
102
{ACAD_REACTORS
330
C
102
}
330
C
100
AcDbDictionary
281
     1
  0
DICTIONARY
  5
62
102
{ACAD_REACTORS
330
C
102
}
330
C
100
AcDbDictionary
281
     1
  3
Layout1
350
6F
  3
Layout2
350
77
  3
Model
350
73
  0
DICTIONARY
  5
10
102
{ACAD_REACTORS
330
C
102
}
330
C
100
AcDbDictionary
281
     1
  3
ByBlock
350
19
  3
ByLayer
350
11
  3
Global
350
21
  0
DICTIONARY
  5
66
102
{ACAD_REACTORS
330
C
102
}
330
C
100
AcDbDictionary
281
     1
  3
Standard
350
67
  0
DICTIONARY
  5
5F
102
{ACAD_REACTORS
330
C
102
}
330
C
100
AcDbDictionary
281
     1
  3
Standard
350
60
  0
DICTIONARY
  5
61
102
{ACAD_REACTORS
330
C
102
}
330
C
100
AcDbDictionary
281
     1
  0
ACDBDICTIONARYWDFLT
  5
E
102
{ACAD_REACTORS
330
C
102
}
330
C
100
AcDbDictionary
281
     1
  3
Normal
350
F
100
AcDbDictionaryWithDefault
340
F
  0
DICTIONARY
  5
42
102
{ACAD_REACTORS
330
C
102
}
330
C
100
AcDbDictionary
281
     1
  3
A0
350
43
  3
A1
350
44
  3
A2
350
45
  3
A3
350
46
  3
A4
350
47
  3
A5
350
48
  3
A6
350
49
  3
A7
350
4A
  3
A8
350
4B
  3
A9
350
4C
  3
B0
350
4D
  3
B1
350
4E
  3
B2
350
4F
  3
B3
350
50
  3
B4
350
51
  3
B5
350
52
  3
B6
350
53
  0
DICTIONARY
  5
68
102
{ACAD_REACTORS
330
C
102
}
330
C
100
AcDbDictionary
281
     1
  3
Imperial24
350
69
  0
DICTIONARY
  5
64
102
{ACAD_REACTORS
330
C
102
}
330
C
100
AcDbDictionary
281
     1
  3
Standard
350
65
  0
DICTIONARY
  5
29
102
{ACAD_REACTORS
330
C
102
}
330
C
100
AcDbDictionary
281
     1
  3
2dWireframe
350
2F
  3
Basic
350
2E
  3
Brighten
350
35
  3
ColorChange
350
39
  3
Conceptual
350
32
  3
Dim
350
34
  3
EdgeColorOff
350
41
  3
Facepattern
350
38
  3
Flat
350
2A
  3
FlatWithEdges
350
2B
  3
Gouraud
350
2C
  3
GouraudWithEdges
350
2D
  3
Hidden
350
31
  3
JitterOff
350
3F
  3
Linepattern
350
37
  3
OverhangOff
350
40
  3
Realistic
350
33
  3
Shaded
350
3E
  3
Shaded with edges
350
3D
  3
Shades of Gray
350
3A
  3
Sketchy
350
3B
  3
Thicken
350
36
  3
Wireframe
350
30
  3
X-Ray
350
3C
  0
XRECORD
  5
10D
102
{ACAD_REACTORS
330
C
102
}
330
C
100
AcDbXrecord
280
     1
 90
        1
330
65
  0
DICTIONARY
  5
105
102
{ACAD_REACTORS
330
C
102
}
330
C
100
AcDbDictionary
281
     1
  3
CANNOSCALE
350
10A
  3
CMLEADERSTYLE
350
107
  3
CTABLESTYLE
350
106
  3
CVIEWDETAILSTYLE
350
108
  3
CVIEWSECTIONSTYLE
350
109
  0
ACDBDETAILVIEWSTYLE
  5
6B
102
{ACAD_XDICTIONARY
360
142
102
}
102
{ACAD_REACTORS
330
6A
102
}
330
6A
100
AcDbModelDocViewStyle
 70
     0
  3
Imperial24
290
     0
100
AcDbDetailViewStyle
 70
     0
 71
     0
 90
        3
 71
     1
340
55
 62
   256
 40
0.24
340
0
 62
   256
 40
0.24
300

 40
0.36
280
     3
 71
     2
340
5D
 90
       25
 62
   256
 71
     3
340
55
 62
   256
 40
0.24
 90
        1
 40
0.75
 90
        1
300
%<\AcVar ViewType \f "%tc1">% %<\AcVar ViewDetailId>%\PSCALE %<\AcVar ViewScale \f "%sn">%
 71
     4
340
5D
 90
       25
 62
   256
340
5D
 90
       25
 62
   256
280
     0
  0
LAYOUT
  5
6F
102
{ACAD_REACTORS
330
62
102
}
330
62
100
AcDbPlotSettings
  1

  2

  4

  6

 40
0.0
 41
0.0
 42
0.0
 43
0.0
 44
0.0
 45
0.0
 46
0.0
 47
0.0
 48
0.0
 49
0.0
140
0.0
141
0.0
142
1.0
143
1.0
 70
   688
 72
     0
 73
     0
 74
     5
  7

 75
    16
147
1.0
 76
     0
 77
     2
 78
   300
148
0.0
149
0.0
100
AcDbLayout
  1
Layout1
 70
     1
 71
     1
 10
0.0
 20
0.0
 11
12.0
 21
9.0
 12
0.0
 22
0.0
 32
0.0
 14
0.0
 24
0.0
 34
0.0
 15
0.0
 25
0.0
 35
0.0
146
0.0
 13
0.0
 23
0.0
 33
0.0
 16
1.0
 26
0.0
 36
0.0
 17
0.0
 27
1.0
 37
0.0
 76
     0
330
6C
  0
LAYOUT
  5
77
102
{ACAD_REACTORS
330
62
102
}
330
62
100
AcDbPlotSettings
  1

  2

  4

  6

 40
0.0
 41
0.0
 42
0.0
 43
0.0
 44
0.0
 45
0.0
 46
0.0
 47
0.0
 48
0.0
 49
0.0
140
0.0
141
0.0
142
1.0
143
1.0
 70
   688
 72
     0
 73
     0
 74
     5
  7

 75
    16
147
1.0
 76
     0
 77
     2
 78
   300
148
0.0
149
0.0
100
AcDbLayout
  1
Layout2
 70
     1
 71
     2
 10
0.0
 20
0.0
 11
12.0
 21
9.0
 12
0.0
 22
0.0
 32
0.0
 14
0.0
 24
0.0
 34
0.0
 15
0.0
 25
0.0
 35
0.0
146
0.0
 13
0.0
 23
0.0
 33
0.0
 16
1.0
 26
0.0
 36
0.0
 17
0.0
 27
1.0
 37
0.0
 76
     0
330
74
  0
LAYOUT
  5
73
102
{ACAD_REACTORS
330
62
102
}
330
62
100
AcDbPlotSettings
  1

  2

  4

  6

 40
0.0
 41
0.0
 42
0.0
 43
0.0
 44
0.0
 45
0.0
 46
0.0
 47
0.0
 48
0.0
 49
0.0
140
0.0
141
0.0
142
1.0
143
1.0
 70
  1712
 72
     0
 73
     0
 74
     0
  7

 75
     0
147
1.0
 76
     0
 77
     2
 78
   300
148
0.0
149
0.0
100
AcDbLayout
  1
Model
 70
     1
 71
     0
 10
0.0
 20
0.0
 11
12.0
 21
9.0
 12
0.0
 22
0.0
 32
0.0
 14
0.0
 24
0.0
 34
0.0
 15
0.0
 25
0.0
 35
0.0
146
0.0
 13
0.0
 23
0.0
 33
0.0
 16
1.0
 26
0.0
 36
0.0
 17
0.0
 27
1.0
 37
0.0
 76
     0
330
70
  0
MATERIAL
  5
19
102
{ACAD_XDICTIONARY
360
1A
102
}
102
{ACAD_REACTORS
330
10
102
}
330
10
100
AcDbMaterial
  1
ByBlock
 72
     0
 43
0.0208333333333333
 43
0.0
 43
0.0
 43
0.0
 43
0.0
 43
0.0208333333333333
 43
0.0
 43
0.0
 43
0.0
 43
0.0
 43
1.0
 43
0.0
 43
0.0
 43
0.0
 43
0.0
 43
1.0
 77
     0
 47
0.0208333333333333
 47
0.0
 47
0.0
 47
0.0
 47
0.0
 47
0.0208333333333333
 47
0.0
 47
0.0
 47
0.0
 47
0.0
 47
1.0
 47
0.0
 47
0.0
 47
0.0
 47
0.0
 47
1.0
171
     0
 49
0.0208333333333333
 49
0.0
 49
0.0
 49
0.0
 49
0.0
 49
0.0208333333333333
 49
0.0
 49
0.0
 49
0.0
 49
0.0
 49
1.0
 49
0.0
 49
0.0
 49
0.0
 49
0.0
 49
1.0
175
     0
142
0.0208333333333333
142
0.0
142
0.0
142
0.0
142
0.0
142
0.0208333333333333
142
0.0
142
0.0
142
0.0
142
0.0
142
1.0
142
0.0
142
0.0
142
0.0
142
0.0
142
1.0
179
     0
144
0.0208333333333333
144
0.0
144
0.0
144
0.0
144
0.0
144
0.0208333333333333
144
0.0
144
0.0
144
0.0
144
0.0
144
1.0
144
0.0
144
0.0
144
0.0
144
0.0
144
1.0
147
0.0208333333333333
147
0.0
147
0.0
147
0.0
147
0.0
147
0.0208333333333333
147
0.0
147
0.0
147
0.0
147
0.0
147
1.0
147
0.0
147
0.0
147
0.0
147
0.0
147
1.0
  0
MATERIAL
  5
11
102
{ACAD_XDICTIONARY
360
12
102
}
102
{ACAD_REACTORS
330
10
102
}
330
10
100
AcDbMaterial
  1
ByLayer
 72
     0
 43
0.0208333333333333
 43
0.0
 43
0.0
 43
0.0
 43
0.0
 43
0.0208333333333333
 43
0.0
 43
0.0
 43
0.0
 43
0.0
 43
1.0
 43
0.0
 43
0.0
 43
0.0
 43
0.0
 43
1.0
 77
     0
 47
0.0208333333333333
 47
0.0
 47
0.0
 47
0.0
 47
0.0
 47
0.0208333333333333
 47
0.0
 47
0.0
 47
0.0
 47
0.0
 47
1.0
 47
0.0
 47
0.0
 47
0.0
 47
0.0
 47
1.0
171
     0
 49
0.0208333333333333
 49
0.0
 49
0.0
 49
0.0
 49
0.0
 49
0.0208333333333333
 49
0.0
 49
0.0
 49
0.0
 49
0.0
 49
1.0
 49
0.0
 49
0.0
 49
0.0
 49
0.0
 49
1.0
175
     0
142
0.0208333333333333
142
0.0
142
0.0
142
0.0
142
0.0
142
0.0208333333333333
142
0.0
142
0.0
142
0.0
142
0.0
142
1.0
142
0.0
142
0.0
142
0.0
142
0.0
142
1.0
179
     0
144
0.0208333333333333
144
0.0
144
0.0
144
0.0
144
0.0
144
0.0208333333333333
144
0.0
144
0.0
144
0.0
144
0.0
144
1.0
144
0.0
144
0.0
144
0.0
144
0.0
144
1.0
147
0.0208333333333333
147
0.0
147
0.0
147
0.0
147
0.0
147
0.0208333333333333
147
0.0
147
0.0
147
0.0
147
0.0
147
1.0
147
0.0
147
0.0
147
0.0
147
0.0
147
1.0
  0
MATERIAL
  5
21
102
{ACAD_XDICTIONARY
360
22
102
}
102
{ACAD_REACTORS
330
10
102
}
330
10
100
AcDbMaterial
  1
Global
 72
     0
 43
0.0208333333333333
 43
0.0
 43
0.0
 43
0.0
 43
0.0
 43
0.0208333333333333
 43
0.0
 43
0.0
 43
0.0
 43
0.0
 43
1.0
 43
0.0
 43
0.0
 43
0.0
 43
0.0
 43
1.0
 77
     0
 47
0.0208333333333333
 47
0.0
 47
0.0
 47
0.0
 47
0.0
 47
0.0208333333333333
 47
0.0
 47
0.0
 47
0.0
 47
0.0
 47
1.0
 47
0.0
 47
0.0
 47
0.0
 47
0.0
 47
1.0
171
     0
 49
0.0208333333333333
 49
0.0
 49
0.0
 49
0.0
 49
0.0
 49
0.0208333333333333
 49
0.0
 49
0.0
 49
0.0
 49
0.0
 49
1.0
 49
0.0
 49
0.0
 49
0.0
 49
0.0
 49
1.0
175
     0
142
0.0208333333333333
142
0.0
142
0.0
142
0.0
142
0.0
142
0.0208333333333333
142
0.0
142
0.0
142
0.0
142
0.0
142
1.0
142
0.0
142
0.0
142
0.0
142
0.0
142
1.0
179
     0
144
0.0208333333333333
144
0.0
144
0.0
144
0.0
144
0.0
144
0.0208333333333333
144
0.0
144
0.0
144
0.0
144
0.0
144
1.0
144
0.0
144
0.0
144
0.0
144
0.0
144
1.0
147
0.0208333333333333
147
0.0
147
0.0
147
0.0
147
0.0
147
0.0208333333333333
147
0.0
147
0.0
147
0.0
147
0.0
147
1.0
147
0.0
147
0.0
147
0.0
147
0.0
147
1.0
  0
MLEADERSTYLE
  5
67
102
{ACAD_XDICTIONARY
360
13E
102
}
102
{ACAD_REACTORS
330
66
102
}
330
66
100
AcDbMLeaderStyle
179
     2
170
     2
171
     1
172
     0
 90
        2
 40
0.0
 41
0.0
173
     1
 91
-1056964608
340
5B
 92
       -2
290
     1
 42
0.09
291
     1
 43
0.36
  3
Standard
 44
0.18
300

342
55
174
     1
178
     6
175
     1
176
     0
 93
-1056964608
 45
0.18
292
     0
297
     0
 46
0.18
 94
-1056964608
 47
1.0
 49
1.0
140
1.0
293
     1
141
0.0
294
     1
177
     0
142
1.0
295
     0
296
     0
143
0.125
271
     0
272
     9
273
     9
  0
MLINESTYLE
  5
60
102
{ACAD_REACTORS
330
5F
102
}
330
5F
100
AcDbMlineStyle
  2
STANDARD
 70
     0
  3

 62
   256
 51
90.0
 52
90.0
 71
     2
 49
0.5
 62
   256
  6
BYLAYER
 49
-0.5
 62
   256
  6
BYLAYER
  0
ACDBPLACEHOLDER
  5
F
102
{ACAD_REACTORS
330
E
102
}
330
E
  0
SCALE
  5
43
102
{ACAD_REACTORS
330
42
102
}
330
42
100
AcDbScale
 70
     0
300
1:1
140
1.0
141
1.0
290
     1
  0
SCALE
  5
44
102
{ACAD_REACTORS
330
42
102
}
330
42
100
AcDbScale
 70
     0
300
1/128" = 1'-0"
140
0.0078125
141
12.0
290
     0
  0
SCALE
  5
45
102
{ACAD_REACTORS
330
42
102
}
330
42
100
AcDbScale
 70
     0
300
1/64" = 1'-0"
140
0.015625
141
12.0
290
     0
  0
SCALE
  5
46
102
{ACAD_REACTORS
330
42
102
}
330
42
100
AcDbScale
 70
     0
300
1/32" = 1'-0"
140
0.03125
141
12.0
290
     0
  0
SCALE
  5
47
102
{ACAD_REACTORS
330
42
102
}
330
42
100
AcDbScale
 70
     0
300
1/16" = 1'-0"
140
0.0625
141
12.0
290
     0
  0
SCALE
  5
48
102
{ACAD_REACTORS
330
42
102
}
330
42
100
AcDbScale
 70
     0
300
3/32" = 1'-0"
140
0.09375
141
12.0
290
     0
  0
SCALE
  5
49
102
{ACAD_REACTORS
330
42
102
}
330
42
100
AcDbScale
 70
     0
300
1/8" = 1'-0"
140
0.125
141
12.0
290
     0
  0
SCALE
  5
4A
102
{ACAD_REACTORS
330
42
102
}
330
42
100
AcDbScale
 70
     0
300
3/16" = 1'-0"
140
0.1875
141
12.0
290
     0
  0
SCALE
  5
4B
102
{ACAD_REACTORS
330
42
102
}
330
42
100
AcDbScale
 70
     0
300
1/4" = 1'-0"
140
0.25
141
12.0
290
     0
  0
SCALE
  5
4C
102
{ACAD_REACTORS
330
42
102
}
330
42
100
AcDbScale
 70
     0
300
3/8" = 1'-0"
140
0.375
141
12.0
290
     0
  0
SCALE
  5
4D
102
{ACAD_REACTORS
330
42
102
}
330
42
100
AcDbScale
 70
     0
300
1/2" = 1'-0"
140
0.5
141
12.0
290
     0
  0
SCALE
  5
4E
102
{ACAD_REACTORS
330
42
102
}
330
42
100
AcDbScale
 70
     0
300
3/4" = 1'-0"
140
0.75
141
12.0
290
     0
  0
SCALE
  5
4F
102
{ACAD_REACTORS
330
42
102
}
330
42
100
AcDbScale
 70
     0
300
1" = 1'-0"
140
1.0
141
12.0
290
     0
  0
SCALE
  5
50
102
{ACAD_REACTORS
330
42
102
}
330
42
100
AcDbScale
 70
     0
300
1-1/2" = 1'-0"
140
1.5
141
12.0
290
     0
  0
SCALE
  5
51
102
{ACAD_REACTORS
330
42
102
}
330
42
100
AcDbScale
 70
     0
300
3" = 1'-0"
140
3.0
141
12.0
290
     0
  0
SCALE
  5
52
102
{ACAD_REACTORS
330
42
102
}
330
42
100
AcDbScale
 70
     0
300
6" = 1'-0"
140
6.0
141
12.0
290
     0
  0
SCALE
  5
53
102
{ACAD_REACTORS
330
42
102
}
330
42
100
AcDbScale
 70
     0
300
1'-0" = 1'-0"
140
12.0
141
12.0
290
     0
  0
ACDBSECTIONVIEWSTYLE
  5
69
102
{ACAD_XDICTIONARY
360
140
102
}
102
{ACAD_REACTORS
330
68
102
}
330
68
100
AcDbModelDocViewStyle
 70
     0
  3
Imperial24
290
     0
100
AcDbSectionViewStyle
 70
     0
 71
     0
 90
       78
 71
     1
340
55
 62
   256
 40
0.24
340
0
340
0
 62
   256
 40
0.24
300
I, O, Q, S, X, Z
 40
0.48
 90
        3
 40
0.18
 90
        1
 71
     2
340
5D
 90
       25
 62
   256
340
5D
 90
       50
 62
   256
 40
0.24
 40
0.0
 40
0.24
 71
     3
340
55
 62
   256
 40
0.24
 90
        1
 40
0.75
 90
        1
300
%<\AcVar ViewType \f "%tc1">% %<\AcVar ViewSectionStartId>%-%<\AcVar ViewSectionEndId>%\PSCALE %<\AcVar ViewScale \f "%sn">%
 71
     4
 62
   256
 62
   257
300
ANSI31
 40
1.0
 90
        0
290
     0
290
     0
 90
        6
 40
0.0
 40
1.570796326794896
 40
0.2617993877991494
 40
1.308996938995747
 40
-0.2617993877991494
 40
1.832595714594046
  0
TABLESTYLE
  5
65
102
{ACAD_XDICTIONARY
360
10B
102
}
102
{ACAD_REACTORS
330
64
102
}
330
64
100
AcDbTableStyle
280
     0
  3
Standard
 70
     0
 71
     0
 40
0.06
 41
0.06
280
     0
281
     0
  7
Standard
140
0.18
170
     2
 62
     0
 63
     7
283
     0
 90
      512
 91
        0
  1

274
    -2
284
     1
 64
     0
275
    -2
285
     1
 65
     0
276
    -2
286
     1
 66
     0
277
    -2
287
     1
 67
     0
278
    -2
288
     1
 68
     0
279
    -2
289
     1
 69
     0
  7
Standard
140
0.25
170
     5
 62
     0
 63
     7
283
     0
 90
      512
 91
        0
  1

274
    -2
284
     1
 64
     0
275
    -2
285
     1
 65
     0
276
    -2
286
     1
 66
     0
277
    -2
287
     1
 67
     0
278
    -2
288
     1
 68
     0
279
    -2
289
     1
 69
     0
  7
Standard
140
0.18
170
     5
 62
     0
 63
     7
283
     0
 90
      512
 91
        0
  1

274
    -2
284
     1
 64
     0
275
    -2
285
     1
 65
     0
276
    -2
286
     1
 66
     0
277
    -2
287
     1
 67
     0
278
    -2
288
     1
 68
     0
279
    -2
289
     1
 69
     0
  0
VISUALSTYLE
  5
2F
102
{ACAD_XDICTIONARY
360
118
102
}
102
{ACAD_REACTORS
330
29
102
}
330
29
100
AcDbVisualStyle
  2
2dWireframe
 70
     4
177
     2
291
     0
 71
     0
176
     1
 72
     2
176
     1
 73
     0
176
     1
 90
        0
176
     1
 40
0.6
176
     1
 41
30.0
176
     1
 63
     7
421
 16777215
176
     1
 74
     1
176
     1
 91
        4
176
     1
 64
     7
176
     1
 65
   257
176
     1
 75
     1
176
     1
175
     1
176
     1
 42
1.0
176
     1
 92
        0
176
     1
 66
   257
176
     1
 43
1.0
176
     1
 76
     1
176
     1
 77
     6
176
     1
 78
     2
176
     1
 67
     7
176
     1
 79
     5
176
     1
170
     0
176
     1
171
     0
176
     1
290
     0
176
     1
 93
        1
176
     1
 44
0.0
176
     1
173
     0
176
     1
1001
ACAD
1000
AcDbSavedByObjectVersion
1070
     0
  0
VISUALSTYLE
  5
2E
102
{ACAD_XDICTIONARY
360
116
102
}
102
{ACAD_REACTORS
330
29
102
}
330
29
100
AcDbVisualStyle
  2
Basic
 70
     7
177
     2
291
     1
 71
     1
176
     1
 72
     0
176
     1
 73
     1
176
     1
 90
        0
176
     1
 40
0.6
176
     1
 41
30.0
176
     1
 63
     7
421
 16777215
176
     1
 74
     0
176
     1
 91
        4
176
     1
 64
     7
176
     1
 65
   257
176
     1
 75
     1
176
     1
175
     1
176
     1
 42
1.0
176
     1
 92
        8
176
     1
 66
     7
176
     1
 43
1.0
176
     1
 76
     1
176
     1
 77
     6
176
     1
 78
     2
176
     1
 67
     7
176
     1
 79
     5
176
     1
170
     0
176
     1
171
     0
176
     1
290
     0
176
     1
 93
        1
176
     1
 44
0.0
176
     1
173
     0
176
     1
1001
ACAD
1000
AcDbSavedByObjectVersion
1070
     0
  0
VISUALSTYLE
  5
35
102
{ACAD_XDICTIONARY
360
124
102
}
102
{ACAD_REACTORS
330
29
102
}
330
29
100
AcDbVisualStyle
  2
Brighten
 70
    12
177
     2
291
     1
 71
     2
176
     1
 72
     2
176
     1
 73
     0
176
     1
 90
        0
176
     1
 40
0.6
176
     1
 41
30.0
176
     1
 63
     7
421
 16777215
176
     1
 74
     1
176
     1
 91
        4
176
     1
 64
     7
176
     1
 65
   257
176
     1
 75
     1
176
     1
175
     1
176
     1
 42
1.0
176
     1
 92
        8
176
     1
 66
     7
176
     1
 43
1.0
176
     1
 76
     1
176
     1
 77
     6
176
     1
 78
     2
176
     1
 67
     7
176
     1
 79
     5
176
     1
170
     0
176
     1
171
     0
176
     1
290
     0
176
     1
 93
        1
176
     1
 44
50.0
176
     1
173
     0
176
     1
1001
ACAD
1000
AcDbSavedByObjectVersion
1070
     0
  0
VISUALSTYLE
  5
39
102
{ACAD_XDICTIONARY
360
12C
102
}
102
{ACAD_REACTORS
330
29
102
}
330
29
100
AcDbVisualStyle
  2
ColorChange
 70
    16
177
     2
291
     1
 71
     2
176
     1
 72
     2
176
     1
 73
     3
176
     1
 90
        0
176
     1
 40
0.6
176
     1
 41
30.0
176
     1
 63
     8
421
  8421504
176
     1
 74
     1
176
     1
 91
        4
176
     1
 64
     7
176
     1
 65
   257
176
     1
 75
     1
176
     1
175
     1
176
     1
 42
1.0
176
     1
 92
        8
176
     1
 66
     8
424
  8421504
176
     1
 43
1.0
176
     1
 76
     1
176
     1
 77
     6
176
     1
 78
     2
176
     1
 67
     7
176
     1
 79
     5
176
     1
170
     0
176
     1
171
     0
176
     1
290
     0
176
     1
 93
        1
176
     1
 44
0.0
176
     1
173
     0
176
     1
1001
ACAD
1000
AcDbSavedByObjectVersion
1070
     0
  0
VISUALSTYLE
  5
32
102
{ACAD_XDICTIONARY
360
11E
102
}
102
{ACAD_REACTORS
330
29
102
}
330
29
100
AcDbVisualStyle
  2
Conceptual
 70
     9
177
     2
291
     0
 71
     3
176
     1
 72
     2
176
     1
 73
     0
176
     1
 90
        0
176
     1
 40
0.6
176
     1
 41
30.0
176
     1
 63
     7
421
 16777215
176
     1
 74
     2
176
     1
 91
        2
176
     1
 64
     7
176
     1
 65
   257
176
     1
 75
     1
176
     1
175
     1
176
     1
 42
179.0
176
     1
 92
        8
176
     1
 66
     7
176
     1
 43
1.0
176
     1
 76
     1
176
     1
 77
     6
176
     1
 78
     2
176
     1
 67
     7
176
     1
 79
     3
176
     1
170
     0
176
     1
171
     0
176
     1
290
     0
176
     1
 93
        1
176
     1
 44
0.0
176
     1
173
     0
176
     1
1001
ACAD
1000
AcDbSavedByObjectVersion
1070
     0
  0
VISUALSTYLE
  5
34
102
{ACAD_XDICTIONARY
360
122
102
}
102
{ACAD_REACTORS
330
29
102
}
330
29
100
AcDbVisualStyle
  2
Dim
 70
    11
177
     2
291
     1
 71
     2
176
     1
 72
     2
176
     1
 73
     0
176
     1
 90
        0
176
     1
 40
0.6
176
     1
 41
30.0
176
     1
 63
     7
421
 16777215
176
     1
 74
     1
176
     1
 91
        4
176
     1
 64
     7
176
     1
 65
   257
176
     1
 75
     1
176
     1
175
     1
176
     1
 42
1.0
176
     1
 92
        8
176
     1
 66
     7
176
     1
 43
1.0
176
     1
 76
     1
176
     1
 77
     6
176
     1
 78
     2
176
     1
 67
     7
176
     1
 79
     5
176
     1
170
     0
176
     1
171
     0
176
     1
290
     0
176
     1
 93
        1
176
     1
 44
-50.0
176
     1
173
     0
176
     1
1001
ACAD
1000
AcDbSavedByObjectVersion
1070
     0
  0
VISUALSTYLE
  5
41
102
{ACAD_XDICTIONARY
360
13C
102
}
102
{ACAD_REACTORS
330
29
102
}
330
29
100
AcDbVisualStyle
  2
EdgeColorOff
 70
    22
177
     2
291
     1
 71
     2
176
     0
 72
     2
176
     0
 73
     0
176
     0
 90
        0
176
     0
 40
0.6
176
     0
 41
30.0
176
     0
 63
     7
421
 16777215
176
     0
 74
     1
176
     0
 91
        4
176
     0
 64
     7
176
     0
 65
   257
176
     0
 75
     1
176
     0
175
     1
176
     0
 42
1.0
176
     0
 92
        8
176
     2
 66
     7
176
     0
 43
1.0
176
     0
 76
     1
176
     0
 77
     6
176
     0
 78
     2
176
     0
 67
     7
176
     0
 79
     5
176
     0
170
     0
176
     0
171
     0
176
     0
290
     0
176
     0
 93
        1
176
     0
 44
0.0
176
     0
173
     0
176
     0
1001
ACAD
1000
AcDbSavedByObjectVersion
1070
     0
  0
VISUALSTYLE
  5
38
102
{ACAD_XDICTIONARY
360
12A
102
}
102
{ACAD_REACTORS
330
29
102
}
330
29
100
AcDbVisualStyle
  2
Facepattern
 70
    15
177
     2
291
     1
 71
     2
176
     1
 72
     2
176
     1
 73
     0
176
     1
 90
        0
176
     1
 40
0.6
176
     1
 41
30.0
176
     1
 63
     7
421
 16777215
176
     1
 74
     1
176
     1
 91
        4
176
     1
 64
     7
176
     1
 65
   257
176
     1
 75
     1
176
     1
175
     1
176
     1
 42
1.0
176
     1
 92
        8
176
     1
 66
     7
176
     1
 43
1.0
176
     1
 76
     1
176
     1
 77
     6
176
     1
 78
     2
176
     1
 67
     7
176
     1
 79
     5
176
     1
170
     0
176
     1
171
     0
176
     1
290
     0
176
     1
 93
        1
176
     1
 44
0.0
176
     1
173
     0
176
     1
1001
ACAD
1000
AcDbSavedByObjectVersion
1070
     0
  0
VISUALSTYLE
  5
2A
102
{ACAD_XDICTIONARY
360
10E
102
}
102
{ACAD_REACTORS
330
29
102
}
330
29
100
AcDbVisualStyle
  2
Flat
 70
     0
177
     2
291
     1
 71
     2
176
     1
 72
     1
176
     1
 73
     1
176
     1
 90
        2
176
     1
 40
0.6
176
     1
 41
30.0
176
     1
 63
     7
421
 16777215
176
     1
 74
     0
176
     1
 91
        0
176
     1
 64
     7
176
     1
 65
   257
176
     1
 75
     1
176
     1
175
     1
176
     1
 42
1.0
176
     1
 92
        8
176
     1
 66
     7
176
     1
 43
1.0
176
     1
 76
     1
176
     1
 77
     6
176
     1
 78
     2
176
     1
 67
     7
176
     1
 79
     5
176
     1
170
     0
176
     1
171
     0
176
     1
290
     0
176
     1
 93
       13
176
     1
 44
0.0
176
     1
173
     0
176
     1
1001
ACAD
1000
AcDbSavedByObjectVersion
1070
     0
  0
VISUALSTYLE
  5
2B
102
{ACAD_XDICTIONARY
360
110
102
}
102
{ACAD_REACTORS
330
29
102
}
330
29
100
AcDbVisualStyle
  2
FlatWithEdges
 70
     1
177
     2
291
     1
 71
     2
176
     1
 72
     1
176
     1
 73
     1
176
     1
 90
        2
176
     1
 40
0.6
176
     1
 41
30.0
176
     1
 63
     7
421
 16777215
176
     1
 74
     1
176
     1
 91
        0
176
     1
 64
     7
176
     1
 65
   257
176
     1
 75
     1
176
     1
175
     1
176
     1
 42
1.0
176
     1
 92
        0
176
     1
 66
   257
176
     1
 43
1.0
176
     1
 76
     1
176
     1
 77
     6
176
     1
 78
     2
176
     1
 67
     7
176
     1
 79
     5
176
     1
170
     0
176
     1
171
     0
176
     1
290
     0
176
     1
 93
       13
176
     1
 44
0.0
176
     1
173
     0
176
     1
1001
ACAD
1000
AcDbSavedByObjectVersion
1070
     0
  0
VISUALSTYLE
  5
2C
102
{ACAD_XDICTIONARY
360
112
102
}
102
{ACAD_REACTORS
330
29
102
}
330
29
100
AcDbVisualStyle
  2
Gouraud
 70
     2
177
     2
291
     1
 71
     2
176
     1
 72
     2
176
     1
 73
     1
176
     1
 90
        2
176
     1
 40
0.6
176
     1
 41
30.0
176
     1
 63
     7
421
 16777215
176
     1
 74
     0
176
     1
 91
        0
176
     1
 64
     7
176
     1
 65
   257
176
     1
 75
     1
176
     1
175
     1
176
     1
 42
1.0
176
     1
 92
        0
176
     1
 66
     7
176
     1
 43
1.0
176
     1
 76
     1
176
     1
 77
     6
176
     1
 78
     2
176
     1
 67
     7
176
     1
 79
     5
176
     1
170
     0
176
     1
171
     0
176
     1
290
     0
176
     1
 93
       13
176
     1
 44
0.0
176
     1
173
     0
176
     1
1001
ACAD
1000
AcDbSavedByObjectVersion
1070
     0
  0
VISUALSTYLE
  5
2D
102
{ACAD_XDICTIONARY
360
114
102
}
102
{ACAD_REACTORS
330
29
102
}
330
29
100
AcDbVisualStyle
  2
GouraudWithEdges
 70
     3
177
     2
291
     1
 71
     2
176
     1
 72
     2
176
     1
 73
     1
176
     1
 90
        2
176
     1
 40
0.6
176
     1
 41
30.0
176
     1
 63
     7
421
 16777215
176
     1
 74
     1
176
     1
 91
        0
176
     1
 64
     7
176
     1
 65
   257
176
     1
 75
     1
176
     1
175
     1
176
     1
 42
1.0
176
     1
 92
        0
176
     1
 66
   257
176
     1
 43
1.0
176
     1
 76
     1
176
     1
 77
     6
176
     1
 78
     2
176
     1
 67
     7
176
     1
 79
     5
176
     1
170
     0
176
     1
171
     0
176
     1
290
     0
176
     1
 93
       13
176
     1
 44
0.0
176
     1
173
     0
176
     1
1001
ACAD
1000
AcDbSavedByObjectVersion
1070
     0
  0
VISUALSTYLE
  5
31
102
{ACAD_XDICTIONARY
360
11C
102
}
102
{ACAD_REACTORS
330
29
102
}
330
29
100
AcDbVisualStyle
  2
Hidden
 70
     6
177
     2
291
     0
 71
     1
176
     1
 72
     2
176
     1
 73
     2
176
     1
 90
        0
176
     1
 40
0.6
176
     1
 41
30.0
176
     1
 63
     7
421
 16777215
176
     1
 74
     2
176
     1
 91
        2
176
     1
 64
     7
176
     1
 65
   257
176
     1
 75
     2
176
     1
175
     1
176
     1
 42
40.0
176
     1
 92
        0
176
     1
 66
   257
176
     1
 43
1.0
176
     1
 76
     1
176
     1
 77
     6
176
     1
 78
     2
176
     1
 67
     7
176
     1
 79
     3
176
     1
170
     0
176
     1
171
     0
176
     1
290
     0
176
     1
 93
        1
176
     1
 44
0.0
176
     1
173
     0
176
     1
1001
ACAD
1000
AcDbSavedByObjectVersion
1070
     0
  0
VISUALSTYLE
  5
3F
102
{ACAD_XDICTIONARY
360
138
102
}
102
{ACAD_REACTORS
330
29
102
}
330
29
100
AcDbVisualStyle
  2
JitterOff
 70
    20
177
     2
291
     1
 71
     2
176
     0
 72
     2
176
     0
 73
     0
176
     0
 90
        0
176
     0
 40
0.6
176
     0
 41
30.0
176
     0
 63
     7
421
 16777215
176
     0
 74
     1
176
     0
 91
        4
176
     0
 64
     7
176
     0
 65
   257
176
     0
 75
     1
176
     0
175
     1
176
     0
 42
1.0
176
     0
 92
       10
176
     2
 66
     7
176
     0
 43
1.0
176
     0
 76
     1
176
     0
 77
     6
176
     0
 78
     2
176
     0
 67
     7
176
     0
 79
     5
176
     0
170
     0
176
     0
171
     0
176
     0
290
     0
176
     0
 93
        1
176
     0
 44
0.0
176
     0
173
     0
176
     0
1001
ACAD
1000
AcDbSavedByObjectVersion
1070
     0
  0
VISUALSTYLE
  5
37
102
{ACAD_XDICTIONARY
360
128
102
}
102
{ACAD_REACTORS
330
29
102
}
330
29
100
AcDbVisualStyle
  2
Linepattern
 70
    14
177
     2
291
     1
 71
     2
176
     1
 72
     2
176
     1
 73
     0
176
     1
 90
        0
176
     1
 40
0.6
176
     1
 41
30.0
176
     1
 63
     7
421
 16777215
176
     1
 74
     1
176
     1
 91
        4
176
     1
 64
     7
176
     1
 65
   257
176
     1
 75
     7
176
     1
175
     7
176
     1
 42
1.0
176
     1
 92
        8
176
     1
 66
     7
176
     1
 43
1.0
176
     1
 76
     1
176
     1
 77
     6
176
     1
 78
     2
176
     1
 67
     7
176
     1
 79
     5
176
     1
170
     0
176
     1
171
     0
176
     1
290
     0
176
     1
 93
        1
176
     1
 44
0.0
176
     1
173
     0
176
     1
1001
ACAD
1000
AcDbSavedByObjectVersion
1070
     0
  0
VISUALSTYLE
  5
40
102
{ACAD_XDICTIONARY
360
13A
102
}
102
{ACAD_REACTORS
330
29
102
}
330
29
100
AcDbVisualStyle
  2
OverhangOff
 70
    21
177
     2
291
     1
 71
     2
176
     0
 72
     2
176
     0
 73
     0
176
     0
 90
        0
176
     0
 40
0.6
176
     0
 41
30.0
176
     0
 63
     7
421
 16777215
176
     0
 74
     1
176
     0
 91
        4
176
     0
 64
     7
176
     0
 65
   257
176
     0
 75
     1
176
     0
175
     1
176
     0
 42
1.0
176
     0
 92
        9
176
     2
 66
     7
176
     0
 43
1.0
176
     0
 76
     1
176
     0
 77
     6
176
     0
 78
     2
176
     0
 67
     7
176
     0
 79
     5
176
     0
170
     0
176
     0
171
     0
176
     0
290
     0
176
     0
 93
        1
176
     0
 44
0.0
176
     0
173
     0
176
     0
1001
ACAD
1000
AcDbSavedByObjectVersion
1070
     0
  0
VISUALSTYLE
  5
33
102
{ACAD_XDICTIONARY
360
120
102
}
102
{ACAD_REACTORS
330
29
102
}
330
29
100
AcDbVisualStyle
  2
Realistic
 70
     8
177
     2
291
     0
 71
     2
176
     1
 72
     3
176
     1
 73
     0
176
     1
 90
        2
176
     1
 40
0.6
176
     1
 41
30.0
176
     1
 63
     7
421
 16777215
176
     1
 74
     0
176
     1
 91
        0
176
     1
 64
     7
176
     1
 65
   257
176
     1
 75
     1
176
     1
175
     1
176
     1
 42
1.0
176
     1
 92
        8
176
     1
 66
   257
176
     1
 43
1.0
176
     1
 76
     1
176
     1
 77
     6
176
     1
 78
     2
176
     1
 67
     7
176
     1
 79
     3
176
     1
170
     0
176
     1
171
     0
176
     1
290
     0
176
     1
 93
       13
176
     1
 44
0.0
176
     1
173
     0
176
     1
1001
ACAD
1000
AcDbSavedByObjectVersion
1070
     0
  0
VISUALSTYLE
  5
3E
102
{ACAD_XDICTIONARY
360
136
102
}
102
{ACAD_REACTORS
330
29
102
}
330
29
100
AcDbVisualStyle
  2
Shaded
 70
    27
177
     2
291
     0
 71
     2
176
     1
 72
     2
176
     1
 73
     1
176
     1
 90
        2
176
     1
 40
0.6
176
     1
 41
30.0
176
     1
 63
     7
421
 16777215
176
     1
 74
     0
176
     1
 91
        4
176
     1
 64
     7
176
     1
 65
   257
176
     1
 75
     1
176
     1
175
     1
176
     1
 42
1.0
176
     1
 92
        8
176
     1
 66
   257
176
     1
 43
1.0
176
     1
 76
     1
176
     1
 77
     6
176
     1
 78
     2
176
     1
 67
     8
425
  7895160
176
     1
 79
     3
176
     1
170
     0
176
     1
171
     0
176
     1
290
     0
176
     1
 93
        5
176
     1
 44
0.0
176
     1
173
     0
176
     1
1001
ACAD
1000
AcDbSavedByObjectVersion
1070
     0
  0
VISUALSTYLE
  5
3D
102
{ACAD_XDICTIONARY
360
134
102
}
102
{ACAD_REACTORS
330
29
102
}
330
29
100
AcDbVisualStyle
  2
Shaded with edges
 70
    26
177
     2
291
     0
 71
     2
176
     1
 72
     2
176
     1
 73
     1
176
     1
 90
        2
176
     1
 40
0.6
176
     1
 41
30.0
176
     1
 63
     7
421
 16777215
176
     1
 74
     1
176
     1
 91
        2
176
     1
 64
     7
176
     1
 65
   257
176
     1
 75
     2
176
     1
175
     1
176
     1
 42
1.0
176
     1
 92
        8
176
     1
 66
   257
176
     1
 43
1.0
176
     1
 76
     1
176
     1
 77
     6
176
     1
 78
     2
176
     1
 67
     7
176
     1
 79
     3
176
     1
170
     0
176
     1
171
     0
176
     1
290
     0
176
     1
 93
        5
176
     1
 44
0.0
176
     1
173
     0
176
     1
1001
ACAD
1000
AcDbSavedByObjectVersion
1070
     0
  0
VISUALSTYLE
  5
3A
102
{ACAD_XDICTIONARY
360
12E
102
}
102
{ACAD_REACTORS
330
29
102
}
330
29
100
AcDbVisualStyle
  2
Shades of Gray
 70
    23
177
     2
291
     0
 71
     2
176
     1
 72
     2
176
     1
 73
     3
176
     1
 90
        0
176
     1
 40
0.6
176
     1
 41
30.0
176
     1
 63
     7
421
 16777215
176
     1
 74
     2
176
     1
 91
        2
176
     1
 64
     7
176
     1
 65
     7
176
     1
 75
     1
176
     1
175
     1
176
     1
 42
40.0
176
     1
 92
        8
176
     1
 66
     7
176
     1
 43
1.0
176
     1
 76
     1
176
     1
 77
     6
176
     1
 78
     2
176
     1
 67
     7
176
     1
 79
     3
176
     1
170
     0
176
     1
171
     0
176
     1
290
     0
176
     1
 93
        1
176
     1
 44
0.0
176
     1
173
     0
176
     1
1001
ACAD
1000
AcDbSavedByObjectVersion
1070
     0
  0
VISUALSTYLE
  5
3B
102
{ACAD_XDICTIONARY
360
130
102
}
102
{ACAD_REACTORS
330
29
102
}
330
29
100
AcDbVisualStyle
  2
Sketchy
 70
    24
177
     2
291
     0
 71
     1
176
     1
 72
     2
176
     1
 73
     2
176
     1
 90
        0
176
     1
 40
0.6
176
     1
 41
30.0
176
     1
 63
     7
421
 16777215
176
     1
 74
     2
176
     1
 91
        2
176
     1
 64
     7
176
     1
 65
     7
176
     1
 75
     1
176
     1
175
     1
176
     1
 42
40.0
176
     1
 92
       11
176
     1
 66
     7
176
     1
 43
1.0
176
     1
 76
     1
176
     1
 77
     6
176
     1
 78
     2
176
     1
 67
     7
176
     1
 79
     6
176
     1
170
     0
176
     1
171
     0
176
     1
290
     0
176
     1
 93
        1
176
     1
 44
0.0
176
     1
173
     0
176
     1
1001
ACAD
1000
AcDbSavedByObjectVersion
1070
     0
  0
VISUALSTYLE
  5
36
102
{ACAD_XDICTIONARY
360
126
102
}
102
{ACAD_REACTORS
330
29
102
}
330
29
100
AcDbVisualStyle
  2
Thicken
 70
    13
177
     2
291
     1
 71
     2
176
     1
 72
     2
176
     1
 73
     0
176
     1
 90
        0
176
     1
 40
0.6
176
     1
 41
30.0
176
     1
 63
     7
421
 16777215
176
     1
 74
     1
176
     1
 91
        4
176
     1
 64
     7
176
     1
 65
   257
176
     1
 75
     1
176
     1
175
     1
176
     1
 42
1.0
176
     1
 92
       12
176
     1
 66
     7
176
     1
 43
1.0
176
     1
 76
     1
176
     1
 77
     6
176
     1
 78
     2
176
     1
 67
     7
176
     1
 79
     5
176
     1
170
     0
176
     1
171
     0
176
     1
290
     0
176
     1
 93
        1
176
     1
 44
0.0
176
     1
173
     0
176
     1
1001
ACAD
1000
AcDbSavedByObjectVersion
1070
     0
  0
VISUALSTYLE
  5
30
102
{ACAD_XDICTIONARY
360
11A
102
}
102
{ACAD_REACTORS
330
29
102
}
330
29
100
AcDbVisualStyle
  2
Wireframe
 70
     5
177
     2
291
     0
 71
     0
176
     1
 72
     2
176
     1
 73
     0
176
     1
 90
        0
176
     1
 40
0.6
176
     1
 41
30.0
176
     1
 63
     7
421
 16777215
176
     1
 74
     1
176
     1
 91
        4
176
     1
 64
     7
176
     1
 65
   257
176
     1
 75
     1
176
     1
175
     1
176
     1
 42
1.0
176
     1
 92
        0
176
     1
 66
   257
176
     1
 43
1.0
176
     1
 76
     1
176
     1
 77
     6
176
     1
 78
     2
176
     1
 67
     7
176
     1
 79
     3
176
     1
170
     0
176
     1
171
     0
176
     1
290
     0
176
     1
 93
        1
176
     1
 44
0.0
176
     1
173
     0
176
     1
1001
ACAD
1000
AcDbSavedByObjectVersion
1070
     0
  0
VISUALSTYLE
  5
3C
102
{ACAD_XDICTIONARY
360
132
102
}
102
{ACAD_REACTORS
330
29
102
}
330
29
100
AcDbVisualStyle
  2
X-Ray
 70
    25
177
     2
291
     0
 71
     2
176
     1
 72
     2
176
     1
 73
     1
176
     1
 90
        1
176
     1
 40
0.5
176
     1
 41
30.0
176
     1
 63
     7
421
 16777215
176
     1
 74
     1
176
     1
 91
        0
176
     1
 64
     7
176
     1
 65
   257
176
     1
 75
     1
176
     1
175
     1
176
     1
 42
1.0
176
     1
 92
        8
176
     1
 66
     7
176
     1
 43
1.0
176
     1
 76
     1
176
     1
 77
     6
176
     1
 78
     2
176
     1
 67
     7
176
     1
 79
     3
176
     1
170
     0
176
     1
171
     0
176
     1
290
     0
176
     1
 93
       13
176
     1
 44
0.0
176
     1
173
     0
176
     1
1001
ACAD
1000
AcDbSavedByObjectVersion
1070
     0
  0
DICTIONARYVAR
  5
10A
102
{ACAD_REACTORS
330
105
102
}
330
105
100
DictionaryVariables
280
     0
  1
1:1
  0
DICTIONARYVAR
  5
107
102
{ACAD_REACTORS
330
105
102
}
330
105
100
DictionaryVariables
280
     0
  1
STANDARD
  0
DICTIONARYVAR
  5
106
102
{ACAD_REACTORS
330
105
102
}
330
105
100
DictionaryVariables
280
     0
  1
STANDARD
  0
DICTIONARYVAR
  5
108
102
{ACAD_REACTORS
330
105
102
}
330
105
100
DictionaryVariables
280
     0
  1
Imperial24
  0
DICTIONARYVAR
  5
109
102
{ACAD_REACTORS
330
105
102
}
330
105
100
DictionaryVariables
280
     0
  1
Imperial24
  0
DICTIONARY
  5
142
330
6B
100
AcDbDictionary
280
     1
281
     1
  3
ACAD_XREC_ROUNDTRIP
360
143
  0
DICTIONARY
  5
1A
330
19
100
AcDbDictionary
280
     1
281
     1
  3
BUMPTILE
360
1C
  3
DIFFUSETILE
360
1B
  3
OPACITYTILE
360
1F
  3
REFLECTIONTILE
360
1E
  3
REFRACTIONTILE
360
20
  3
SPECULARTILE
360
1D
  0
DICTIONARY
  5
12
330
11
100
AcDbDictionary
280
     1
281
     1
  3
BUMPTILE
360
14
  3
DIFFUSETILE
360
13
  3
OPACITYTILE
360
17
  3
REFLECTIONTILE
360
16
  3
REFRACTIONTILE
360
18
  3
SPECULARTILE
360
15
  0
DICTIONARY
  5
22
330
21
100
AcDbDictionary
280
     1
281
     1
  3
BUMPTILE
360
24
  3
DIFFUSETILE
360
23
  3
OPACITYTILE
360
27
  3
REFLECTIONTILE
360
26
  3
REFRACTIONTILE
360
28
  3
SPECULARTILE
360
25
  0
DICTIONARY
  5
13E
330
67
100
AcDbDictionary
280
     1
281
     1
  3
ACAD_XREC_ROUNDTRIP
360
13F
  0
DICTIONARY
  5
140
330
69
100
AcDbDictionary
280
     1
281
     1
  3
ACAD_XREC_ROUNDTRIP
360
141
  0
DICTIONARY
  5
10B
330
65
100
AcDbDictionary
280
     1
281
     1
  3
ACAD_ROUNDTRIP_2008_TABLESTYLE_CELLSTYLEMAP
360
10C
  0
DICTIONARY
  5
118
330
2F
100
AcDbDictionary
280
     1
281
     1
  3
ACAD_XREC_ROUNDTRIP
360
119
  0
DICTIONARY
  5
116
330
2E
100
AcDbDictionary
280
     1
281
     1
  3
ACAD_XREC_ROUNDTRIP
360
117
  0
DICTIONARY
  5
124
330
35
100
AcDbDictionary
280
     1
281
     1
  3
ACAD_XREC_ROUNDTRIP
360
125
  0
DICTIONARY
  5
12C
330
39
100
AcDbDictionary
280
     1
281
     1
  3
ACAD_XREC_ROUNDTRIP
360
12D
  0
DICTIONARY
  5
11E
330
32
100
AcDbDictionary
280
     1
281
     1
  3
ACAD_XREC_ROUNDTRIP
360
11F
  0
DICTIONARY
  5
122
330
34
100
AcDbDictionary
280
     1
281
     1
  3
ACAD_XREC_ROUNDTRIP
360
123
  0
DICTIONARY
  5
13C
330
41
100
AcDbDictionary
280
     1
281
     1
  3
ACAD_XREC_ROUNDTRIP
360
13D
  0
DICTIONARY
  5
12A
330
38
100
AcDbDictionary
280
     1
281
     1
  3
ACAD_XREC_ROUNDTRIP
360
12B
  0
DICTIONARY
  5
10E
330
2A
100
AcDbDictionary
280
     1
281
     1
  3
ACAD_XREC_ROUNDTRIP
360
10F
  0
DICTIONARY
  5
110
330
2B
100
AcDbDictionary
280
     1
281
     1
  3
ACAD_XREC_ROUNDTRIP
360
111
  0
DICTIONARY
  5
112
330
2C
100
AcDbDictionary
280
     1
281
     1
  3
ACAD_XREC_ROUNDTRIP
360
113
  0
DICTIONARY
  5
114
330
2D
100
AcDbDictionary
280
     1
281
     1
  3
ACAD_XREC_ROUNDTRIP
360
115
  0
DICTIONARY
  5
11C
330
31
100
AcDbDictionary
280
     1
281
     1
  3
ACAD_XREC_ROUNDTRIP
360
11D
  0
DICTIONARY
  5
138
330
3F
100
AcDbDictionary
280
     1
281
     1
  3
ACAD_XREC_ROUNDTRIP
360
139
  0
DICTIONARY
  5
128
330
37
100
AcDbDictionary
280
     1
281
     1
  3
ACAD_XREC_ROUNDTRIP
360
129
  0
DICTIONARY
  5
13A
330
40
100
AcDbDictionary
280
     1
281
     1
  3
ACAD_XREC_ROUNDTRIP
360
13B
  0
DICTIONARY
  5
120
330
33
100
AcDbDictionary
280
     1
281
     1
  3
ACAD_XREC_ROUNDTRIP
360
121
  0
DICTIONARY
  5
136
330
3E
100
AcDbDictionary
280
     1
281
     1
  3
ACAD_XREC_ROUNDTRIP
360
137
  0
DICTIONARY
  5
134
330
3D
100
AcDbDictionary
280
     1
281
     1
  3
ACAD_XREC_ROUNDTRIP
360
135
  0
DICTIONARY
  5
12E
330
3A
100
AcDbDictionary
280
     1
281
     1
  3
ACAD_XREC_ROUNDTRIP
360
12F
  0
DICTIONARY
  5
130
330
3B
100
AcDbDictionary
280
     1
281
     1
  3
ACAD_XREC_ROUNDTRIP
360
131
  0
DICTIONARY
  5
126
330
36
100
AcDbDictionary
280
     1
281
     1
  3
ACAD_XREC_ROUNDTRIP
360
127
  0
DICTIONARY
  5
11A
330
30
100
AcDbDictionary
280
     1
281
     1
  3
ACAD_XREC_ROUNDTRIP
360
11B
  0
DICTIONARY
  5
132
330
3C
100
AcDbDictionary
280
     1
281
     1
  3
ACAD_XREC_ROUNDTRIP
360
133
  0
XRECORD
  5
143
102
{ACAD_REACTORS
330
142
102
}
330
142
100
AcDbXrecord
280
     1
102
DISPLAYNAME
  1
Imperial24
102
FLAGS
 90
        0
  0
XRECORD
  5
1C
102
{ACAD_REACTORS
330
1A
102
}
330
1A
100
AcDbXrecord
280
     1
270
     1
271
     1
  0
XRECORD
  5
1B
102
{ACAD_REACTORS
330
1A
102
}
330
1A
100
AcDbXrecord
280
     1
270
     1
271
     1
  0
XRECORD
  5
1F
102
{ACAD_REACTORS
330
1A
102
}
330
1A
100
AcDbXrecord
280
     1
270
     1
271
     1
  0
XRECORD
  5
1E
102
{ACAD_REACTORS
330
1A
102
}
330
1A
100
AcDbXrecord
280
     1
270
     1
271
     1
  0
XRECORD
  5
20
102
{ACAD_REACTORS
330
1A
102
}
330
1A
100
AcDbXrecord
280
     1
270
     1
271
     1
  0
XRECORD
  5
1D
102
{ACAD_REACTORS
330
1A
102
}
330
1A
100
AcDbXrecord
280
     1
270
     1
271
     1
  0
XRECORD
  5
14
102
{ACAD_REACTORS
330
12
102
}
330
12
100
AcDbXrecord
280
     1
270
     1
271
     1
  0
XRECORD
  5
13
102
{ACAD_REACTORS
330
12
102
}
330
12
100
AcDbXrecord
280
     1
270
     1
271
     1
  0
XRECORD
  5
17
102
{ACAD_REACTORS
330
12
102
}
330
12
100
AcDbXrecord
280
     1
270
     1
271
     1
  0
XRECORD
  5
16
102
{ACAD_REACTORS
330
12
102
}
330
12
100
AcDbXrecord
280
     1
270
     1
271
     1
  0
XRECORD
  5
18
102
{ACAD_REACTORS
330
12
102
}
330
12
100
AcDbXrecord
280
     1
270
     1
271
     1
  0
XRECORD
  5
15
102
{ACAD_REACTORS
330
12
102
}
330
12
100
AcDbXrecord
280
     1
270
     1
271
     1
  0
XRECORD
  5
24
102
{ACAD_REACTORS
330
22
102
}
330
22
100
AcDbXrecord
280
     1
270
     1
271
     1
  0
XRECORD
  5
23
102
{ACAD_REACTORS
330
22
102
}
330
22
100
AcDbXrecord
280
     1
270
     1
271
     1
  0
XRECORD
  5
27
102
{ACAD_REACTORS
330
22
102
}
330
22
100
AcDbXrecord
280
     1
270
     1
271
     1
  0
XRECORD
  5
26
102
{ACAD_REACTORS
330
22
102
}
330
22
100
AcDbXrecord
280
     1
270
     1
271
     1
  0
XRECORD
  5
28
102
{ACAD_REACTORS
330
22
102
}
330
22
100
AcDbXrecord
280
     1
270
     1
271
     1
  0
XRECORD
  5
25
102
{ACAD_REACTORS
330
22
102
}
330
22
100
AcDbXrecord
280
     1
270
     1
271
     1
  0
XRECORD
  5
13F
102
{ACAD_REACTORS
330
13E
102
}
330
13E
100
AcDbXrecord
280
     1
102
ACAD_ROUNDTRIP_2012_MLEADER_STYLE
298
     1
  0
XRECORD
  5
141
102
{ACAD_REACTORS
330
140
102
}
330
140
100
AcDbXrecord
280
     1
102
DISPLAYNAME
  1
Imperial24
102
FLAGS
 90
        0
  0
CELLSTYLEMAP
  5
10C
102
{ACAD_REACTORS
330
10B
102
}
330
10B
100
AcDbCellStyleMap
 90
        3
300
CELLSTYLE
  1
TABLEFORMAT_BEGIN
 90
        5
170
     1
 91
        0
 92
    32768
 62
   257
 93
        1
300
CONTENTFORMAT
  1
CONTENTFORMAT_BEGIN
 90
        0
 91
        0
 92
      512
 93
        0
300

 40
0.0
140
1.0
 94
        5
 62
     0
340
55
144
0.25
309
CONTENTFORMAT_END
171
     0
 94
        0
309
TABLEFORMAT_END
  1
CELLSTYLE_BEGIN
 90
        1
 91
        1
300
_TITLE
309
CELLSTYLE_END
300
CELLSTYLE
  1
TABLEFORMAT_BEGIN
 90
        5
170
     1
 91
        0
 92
        0
 62
   257
 93
        1
300
CONTENTFORMAT
  1
CONTENTFORMAT_BEGIN
 90
        0
 91
        0
 92
      512
 93
        0
300

 40
0.0
140
1.0
 94
        5
 62
     0
340
55
144
0.18
309
CONTENTFORMAT_END
171
     0
 94
        0
309
TABLEFORMAT_END
  1
CELLSTYLE_BEGIN
 90
        2
 91
        1
300
_HEADER
309
CELLSTYLE_END
300
CELLSTYLE
  1
TABLEFORMAT_BEGIN
 90
        5
170
     1
 91
        0
 92
        0
 62
   257
 93
        1
300
CONTENTFORMAT
  1
CONTENTFORMAT_BEGIN
 90
        0
 91
        0
 92
      512
 93
        0
300

 40
0.0
140
1.0
 94
        2
 62
     0
340
55
144
0.18
309
CONTENTFORMAT_END
171
     0
 94
        0
309
TABLEFORMAT_END
  1
CELLSTYLE_BEGIN
 90
        3
 91
        2
300
_DATA
309
CELLSTYLE_END
  0
XRECORD
  5
119
102
{ACAD_REACTORS
330
118
102
}
330
118
100
AcDbXrecord
280
     1
102
RTVSPost2010Prop28
280
     1
102
RTVSPost2010PropOp28
 70
     1
102
RTVSPost2010Prop29
280
     1
102
RTVSPost2010PropOp29
 70
     1
102
RTVSPost2010Prop30
280
     0
102
RTVSPost2010PropOp30
 70
     1
102
RTVSPost2010Prop31
280
     0
102
RTVSPost2010PropOp31
 70
     1
102
RTVSPost2010Prop32
280
     0
102
RTVSPost2010PropOp32
 70
     1
102
RTVSPost2010Prop33
280
     0
102
RTVSPost2010PropOp33
 70
     1
102
RTVSPost2010Prop34
280
     0
102
RTVSPost2010PropOp34
 70
     1
102
RTVSPost2010Prop35
280
     0
102
RTVSPost2010PropOp35
 70
     1
102
RTVSPost2010Prop36
280
     0
102
RTVSPost2010PropOp36
 70
     1
102
RTVSPost2010Prop37
 90
       50
102
RTVSPost2010PropOp37
 70
     1
102
RTVSPost2010Prop38
140
0.0
102
RTVSPost2010PropOp38
 70
     1
102
RTVSPost2010Prop39
140
1.0
102
RTVSPost2010PropOp39
 70
     1
102
RTVSPost2010Prop40
 90
        0
102
RTVSPost2010PropOp40
 70
     1
102
RTVSPost2010Prop41ColorIndex
 90
       18
102
RTVSPost2010Prop41ColorRGB
 90
        0
102
RTVSPost2010PropOp41
 70
     1
102
RTVSPost2010Prop42
 90
       50
102
RTVSPost2010PropOp42
 70
     1
102
RTVSPost2010Prop43
 90
        3
102
RTVSPost2010PropOp43
 70
     1
102
RTVSPost2010Prop44ColorIndex
 90
        5
102
RTVSPost2010Prop44ColorRGB
 90
      255
102
RTVSPost2010PropOp44
 70
     1
102
RTVSPost2010Prop45
280
     0
102
RTVSPost2010PropOp45
 70
     1
102
RTVSPost2010Prop46
 90
       50
102
RTVSPost2010PropOp46
 70
     1
102
RTVSPost2010Prop47
 90
       50
102
RTVSPost2010PropOp47
 70
     1
102
RTVSPost2010Prop48
 90
       50
102
RTVSPost2010PropOp48
 70
     1
102
RTVSPost2010Prop49
280
     0
102
RTVSPost2010PropOp49
 70
     1
102
RTVSPost2010Prop50
 90
       50
102
RTVSPost2010PropOp50
 70
     1
102
RTVSPost2010Prop51ColorIndex
 90
      256
102
RTVSPost2010Prop51ColorRGB
 90
-16777216
102
RTVSPost2010PropOp51
 70
     0
102
RTVSPost2010Prop52
140
1.0
102
RTVSPost2010PropOp52
 70
     0
102
RTVSPost2010Prop53
 90
        2
102
RTVSPost2010PropOp53
 70
     1
102
RTVSPost2010Prop54
  1
strokes_ogs.tif
102
RTVSPost2010PropOp54
 70
     1
102
RTVSPost2010Prop55
280
     0
102
RTVSPost2010PropOp55
 70
     1
102
RTVSPost2010Prop56
140
1.0
102
RTVSPost2010PropOp56
 70
     1
102
RTVSPost2010Prop57
140
1.0
102
RTVSPost2010PropOp57
 70
     1
  0
XRECORD
  5
117
102
{ACAD_REACTORS
330
116
102
}
330
116
100
AcDbXrecord
280
     1
102
RTVSPost2010Prop28
280
     0
102
RTVSPost2010PropOp28
 70
     1
102
RTVSPost2010Prop29
280
     1
102
RTVSPost2010PropOp29
 70
     1
102
RTVSPost2010Prop30
280
     1
102
RTVSPost2010PropOp30
 70
     1
102
RTVSPost2010Prop31
280
     0
102
RTVSPost2010PropOp31
 70
     1
102
RTVSPost2010Prop32
280
     0
102
RTVSPost2010PropOp32
 70
     1
102
RTVSPost2010Prop33
280
     0
102
RTVSPost2010PropOp33
 70
     1
102
RTVSPost2010Prop34
280
     0
102
RTVSPost2010PropOp34
 70
     1
102
RTVSPost2010Prop35
280
     0
102
RTVSPost2010PropOp35
 70
     1
102
RTVSPost2010Prop36
280
     0
102
RTVSPost2010PropOp36
 70
     1
102
RTVSPost2010Prop37
 90
       50
102
RTVSPost2010PropOp37
 70
     1
102
RTVSPost2010Prop38
140
0.0
102
RTVSPost2010PropOp38
 70
     1
102
RTVSPost2010Prop39
140
1.0
102
RTVSPost2010PropOp39
 70
     1
102
RTVSPost2010Prop40
 90
        0
102
RTVSPost2010PropOp40
 70
     1
102
RTVSPost2010Prop41ColorIndex
 90
       18
102
RTVSPost2010Prop41ColorRGB
 90
        0
102
RTVSPost2010PropOp41
 70
     1
102
RTVSPost2010Prop42
 90
       50
102
RTVSPost2010PropOp42
 70
     1
102
RTVSPost2010Prop43
 90
        3
102
RTVSPost2010PropOp43
 70
     1
102
RTVSPost2010Prop44ColorIndex
 90
        5
102
RTVSPost2010Prop44ColorRGB
 90
      255
102
RTVSPost2010PropOp44
 70
     1
102
RTVSPost2010Prop45
280
     0
102
RTVSPost2010PropOp45
 70
     1
102
RTVSPost2010Prop46
 90
       50
102
RTVSPost2010PropOp46
 70
     1
102
RTVSPost2010Prop47
 90
       50
102
RTVSPost2010PropOp47
 70
     1
102
RTVSPost2010Prop48
 90
       50
102
RTVSPost2010PropOp48
 70
     1
102
RTVSPost2010Prop49
280
     0
102
RTVSPost2010PropOp49
 70
     1
102
RTVSPost2010Prop50
 90
       50
102
RTVSPost2010PropOp50
 70
     1
102
RTVSPost2010Prop51ColorIndex
 90
      256
102
RTVSPost2010Prop51ColorRGB
 90
-16777216
102
RTVSPost2010PropOp51
 70
     0
102
RTVSPost2010Prop52
140
1.0
102
RTVSPost2010PropOp52
 70
     0
102
RTVSPost2010Prop53
 90
        2
102
RTVSPost2010PropOp53
 70
     1
102
RTVSPost2010Prop54
  1
strokes_ogs.tif
102
RTVSPost2010PropOp54
 70
     1
102
RTVSPost2010Prop55
280
     0
102
RTVSPost2010PropOp55
 70
     1
102
RTVSPost2010Prop56
140
1.0
102
RTVSPost2010PropOp56
 70
     1
102
RTVSPost2010Prop57
140
1.0
102
RTVSPost2010PropOp57
 70
     1
  0
XRECORD
  5
125
102
{ACAD_REACTORS
330
124
102
}
330
124
100
AcDbXrecord
280
     1
102
RTVSPost2010Prop28
280
     0
102
RTVSPost2010PropOp28
 70
     1
102
RTVSPost2010Prop29
280
     1
102
RTVSPost2010PropOp29
 70
     1
102
RTVSPost2010Prop30
280
     1
102
RTVSPost2010PropOp30
 70
     1
102
RTVSPost2010Prop31
280
     0
102
RTVSPost2010PropOp31
 70
     1
102
RTVSPost2010Prop32
280
     0
102
RTVSPost2010PropOp32
 70
     1
102
RTVSPost2010Prop33
280
     0
102
RTVSPost2010PropOp33
 70
     1
102
RTVSPost2010Prop34
280
     0
102
RTVSPost2010PropOp34
 70
     1
102
RTVSPost2010Prop35
280
     0
102
RTVSPost2010PropOp35
 70
     1
102
RTVSPost2010Prop36
280
     0
102
RTVSPost2010PropOp36
 70
     1
102
RTVSPost2010Prop37
 90
       50
102
RTVSPost2010PropOp37
 70
     1
102
RTVSPost2010Prop38
140
0.0
102
RTVSPost2010PropOp38
 70
     1
102
RTVSPost2010Prop39
140
1.0
102
RTVSPost2010PropOp39
 70
     1
102
RTVSPost2010Prop40
 90
        0
102
RTVSPost2010PropOp40
 70
     1
102
RTVSPost2010Prop41ColorIndex
 90
       18
102
RTVSPost2010Prop41ColorRGB
 90
        0
102
RTVSPost2010PropOp41
 70
     1
102
RTVSPost2010Prop42
 90
       50
102
RTVSPost2010PropOp42
 70
     1
102
RTVSPost2010Prop43
 90
        3
102
RTVSPost2010PropOp43
 70
     1
102
RTVSPost2010Prop44ColorIndex
 90
        5
102
RTVSPost2010Prop44ColorRGB
 90
      255
102
RTVSPost2010PropOp44
 70
     1
102
RTVSPost2010Prop45
280
     0
102
RTVSPost2010PropOp45
 70
     1
102
RTVSPost2010Prop46
 90
       50
102
RTVSPost2010PropOp46
 70
     1
102
RTVSPost2010Prop47
 90
       50
102
RTVSPost2010PropOp47
 70
     1
102
RTVSPost2010Prop48
 90
       50
102
RTVSPost2010PropOp48
 70
     1
102
RTVSPost2010Prop49
280
     0
102
RTVSPost2010PropOp49
 70
     1
102
RTVSPost2010Prop50
 90
       50
102
RTVSPost2010PropOp50
 70
     1
102
RTVSPost2010Prop51ColorIndex
 90
      256
102
RTVSPost2010Prop51ColorRGB
 90
-16777216
102
RTVSPost2010PropOp51
 70
     0
102
RTVSPost2010Prop52
140
1.0
102
RTVSPost2010PropOp52
 70
     0
102
RTVSPost2010Prop53
 90
        2
102
RTVSPost2010PropOp53
 70
     1
102
RTVSPost2010Prop54
  1
strokes_ogs.tif
102
RTVSPost2010PropOp54
 70
     1
102
RTVSPost2010Prop55
280
     0
102
RTVSPost2010PropOp55
 70
     1
102
RTVSPost2010Prop56
140
1.0
102
RTVSPost2010PropOp56
 70
     1
102
RTVSPost2010Prop57
140
1.0
102
RTVSPost2010PropOp57
 70
     1
  0
XRECORD
  5
12D
102
{ACAD_REACTORS
330
12C
102
}
330
12C
100
AcDbXrecord
280
     1
102
RTVSPost2010Prop28
280
     0
102
RTVSPost2010PropOp28
 70
     1
102
RTVSPost2010Prop29
280
     1
102
RTVSPost2010PropOp29
 70
     1
102
RTVSPost2010Prop30
280
     1
102
RTVSPost2010PropOp30
 70
     1
102
RTVSPost2010Prop31
280
     0
102
RTVSPost2010PropOp31
 70
     1
102
RTVSPost2010Prop32
280
     0
102
RTVSPost2010PropOp32
 70
     1
102
RTVSPost2010Prop33
280
     0
102
RTVSPost2010PropOp33
 70
     1
102
RTVSPost2010Prop34
280
     0
102
RTVSPost2010PropOp34
 70
     1
102
RTVSPost2010Prop35
280
     0
102
RTVSPost2010PropOp35
 70
     1
102
RTVSPost2010Prop36
280
     0
102
RTVSPost2010PropOp36
 70
     1
102
RTVSPost2010Prop37
 90
       50
102
RTVSPost2010PropOp37
 70
     1
102
RTVSPost2010Prop38
140
0.0
102
RTVSPost2010PropOp38
 70
     1
102
RTVSPost2010Prop39
140
1.0
102
RTVSPost2010PropOp39
 70
     1
102
RTVSPost2010Prop40
 90
        0
102
RTVSPost2010PropOp40
 70
     1
102
RTVSPost2010Prop41ColorIndex
 90
       18
102
RTVSPost2010Prop41ColorRGB
 90
        0
102
RTVSPost2010PropOp41
 70
     1
102
RTVSPost2010Prop42
 90
       50
102
RTVSPost2010PropOp42
 70
     1
102
RTVSPost2010Prop43
 90
        3
102
RTVSPost2010PropOp43
 70
     1
102
RTVSPost2010Prop44ColorIndex
 90
        5
102
RTVSPost2010Prop44ColorRGB
 90
      255
102
RTVSPost2010PropOp44
 70
     1
102
RTVSPost2010Prop45
280
     0
102
RTVSPost2010PropOp45
 70
     1
102
RTVSPost2010Prop46
 90
       50
102
RTVSPost2010PropOp46
 70
     1
102
RTVSPost2010Prop47
 90
       50
102
RTVSPost2010PropOp47
 70
     1
102
RTVSPost2010Prop48
 90
       50
102
RTVSPost2010PropOp48
 70
     1
102
RTVSPost2010Prop49
280
     0
102
RTVSPost2010PropOp49
 70
     1
102
RTVSPost2010Prop50
 90
       50
102
RTVSPost2010PropOp50
 70
     1
102
RTVSPost2010Prop51ColorIndex
 90
      256
102
RTVSPost2010Prop51ColorRGB
 90
-16777216
102
RTVSPost2010PropOp51
 70
     0
102
RTVSPost2010Prop52
140
1.0
102
RTVSPost2010PropOp52
 70
     0
102
RTVSPost2010Prop53
 90
        2
102
RTVSPost2010PropOp53
 70
     1
102
RTVSPost2010Prop54
  1
strokes_ogs.tif
102
RTVSPost2010PropOp54
 70
     1
102
RTVSPost2010Prop55
280
     0
102
RTVSPost2010PropOp55
 70
     1
102
RTVSPost2010Prop56
140
1.0
102
RTVSPost2010PropOp56
 70
     1
102
RTVSPost2010Prop57
140
1.0
102
RTVSPost2010PropOp57
 70
     1
  0
XRECORD
  5
11F
102
{ACAD_REACTORS
330
11E
102
}
330
11E
100
AcDbXrecord
280
     1
102
RTVSPost2010Prop28
280
     0
102
RTVSPost2010PropOp28
 70
     1
102
RTVSPost2010Prop29
280
     1
102
RTVSPost2010PropOp29
 70
     1
102
RTVSPost2010Prop30
280
     1
102
RTVSPost2010PropOp30
 70
     1
102
RTVSPost2010Prop31
280
     0
102
RTVSPost2010PropOp31
 70
     1
102
RTVSPost2010Prop32
280
     0
102
RTVSPost2010PropOp32
 70
     1
102
RTVSPost2010Prop33
280
     0
102
RTVSPost2010PropOp33
 70
     1
102
RTVSPost2010Prop34
280
     0
102
RTVSPost2010PropOp34
 70
     1
102
RTVSPost2010Prop35
280
     0
102
RTVSPost2010PropOp35
 70
     1
102
RTVSPost2010Prop36
280
     0
102
RTVSPost2010PropOp36
 70
     1
102
RTVSPost2010Prop37
 90
       50
102
RTVSPost2010PropOp37
 70
     1
102
RTVSPost2010Prop38
140
0.0
102
RTVSPost2010PropOp38
 70
     1
102
RTVSPost2010Prop39
140
1.0
102
RTVSPost2010PropOp39
 70
     1
102
RTVSPost2010Prop40
 90
        0
102
RTVSPost2010PropOp40
 70
     1
102
RTVSPost2010Prop41ColorIndex
 90
       18
102
RTVSPost2010Prop41ColorRGB
 90
        0
102
RTVSPost2010PropOp41
 70
     1
102
RTVSPost2010Prop42
 90
       50
102
RTVSPost2010PropOp42
 70
     1
102
RTVSPost2010Prop43
 90
        3
102
RTVSPost2010PropOp43
 70
     1
102
RTVSPost2010Prop44ColorIndex
 90
        5
102
RTVSPost2010Prop44ColorRGB
 90
      255
102
RTVSPost2010PropOp44
 70
     1
102
RTVSPost2010Prop45
280
     0
102
RTVSPost2010PropOp45
 70
     1
102
RTVSPost2010Prop46
 90
       50
102
RTVSPost2010PropOp46
 70
     1
102
RTVSPost2010Prop47
 90
       50
102
RTVSPost2010PropOp47
 70
     1
102
RTVSPost2010Prop48
 90
       50
102
RTVSPost2010PropOp48
 70
     1
102
RTVSPost2010Prop49
280
     0
102
RTVSPost2010PropOp49
 70
     1
102
RTVSPost2010Prop50
 90
       50
102
RTVSPost2010PropOp50
 70
     1
102
RTVSPost2010Prop51ColorIndex
 90
      256
102
RTVSPost2010Prop51ColorRGB
 90
-16777216
102
RTVSPost2010PropOp51
 70
     0
102
RTVSPost2010Prop52
140
1.0
102
RTVSPost2010PropOp52
 70
     0
102
RTVSPost2010Prop53
 90
        2
102
RTVSPost2010PropOp53
 70
     1
102
RTVSPost2010Prop54
  1
strokes_ogs.tif
102
RTVSPost2010PropOp54
 70
     1
102
RTVSPost2010Prop55
280
     0
102
RTVSPost2010PropOp55
 70
     1
102
RTVSPost2010Prop56
140
1.0
102
RTVSPost2010PropOp56
 70
     1
102
RTVSPost2010Prop57
140
1.0
102
RTVSPost2010PropOp57
 70
     1
  0
XRECORD
  5
123
102
{ACAD_REACTORS
330
122
102
}
330
122
100
AcDbXrecord
280
     1
102
RTVSPost2010Prop28
280
     0
102
RTVSPost2010PropOp28
 70
     1
102
RTVSPost2010Prop29
280
     1
102
RTVSPost2010PropOp29
 70
     1
102
RTVSPost2010Prop30
280
     1
102
RTVSPost2010PropOp30
 70
     1
102
RTVSPost2010Prop31
280
     0
102
RTVSPost2010PropOp31
 70
     1
102
RTVSPost2010Prop32
280
     0
102
RTVSPost2010PropOp32
 70
     1
102
RTVSPost2010Prop33
280
     0
102
RTVSPost2010PropOp33
 70
     1
102
RTVSPost2010Prop34
280
     0
102
RTVSPost2010PropOp34
 70
     1
102
RTVSPost2010Prop35
280
     0
102
RTVSPost2010PropOp35
 70
     1
102
RTVSPost2010Prop36
280
     0
102
RTVSPost2010PropOp36
 70
     1
102
RTVSPost2010Prop37
 90
       50
102
RTVSPost2010PropOp37
 70
     1
102
RTVSPost2010Prop38
140
0.0
102
RTVSPost2010PropOp38
 70
     1
102
RTVSPost2010Prop39
140
1.0
102
RTVSPost2010PropOp39
 70
     1
102
RTVSPost2010Prop40
 90
        0
102
RTVSPost2010PropOp40
 70
     1
102
RTVSPost2010Prop41ColorIndex
 90
       18
102
RTVSPost2010Prop41ColorRGB
 90
        0
102
RTVSPost2010PropOp41
 70
     1
102
RTVSPost2010Prop42
 90
       50
102
RTVSPost2010PropOp42
 70
     1
102
RTVSPost2010Prop43
 90
        3
102
RTVSPost2010PropOp43
 70
     1
102
RTVSPost2010Prop44ColorIndex
 90
        5
102
RTVSPost2010Prop44ColorRGB
 90
      255
102
RTVSPost2010PropOp44
 70
     1
102
RTVSPost2010Prop45
280
     0
102
RTVSPost2010PropOp45
 70
     1
102
RTVSPost2010Prop46
 90
       50
102
RTVSPost2010PropOp46
 70
     1
102
RTVSPost2010Prop47
 90
       50
102
RTVSPost2010PropOp47
 70
     1
102
RTVSPost2010Prop48
 90
       50
102
RTVSPost2010PropOp48
 70
     1
102
RTVSPost2010Prop49
280
     0
102
RTVSPost2010PropOp49
 70
     1
102
RTVSPost2010Prop50
 90
       50
102
RTVSPost2010PropOp50
 70
     1
102
RTVSPost2010Prop51ColorIndex
 90
      256
102
RTVSPost2010Prop51ColorRGB
 90
-16777216
102
RTVSPost2010PropOp51
 70
     0
102
RTVSPost2010Prop52
140
1.0
102
RTVSPost2010PropOp52
 70
     0
102
RTVSPost2010Prop53
 90
        2
102
RTVSPost2010PropOp53
 70
     1
102
RTVSPost2010Prop54
  1
strokes_ogs.tif
102
RTVSPost2010PropOp54
 70
     1
102
RTVSPost2010Prop55
280
     0
102
RTVSPost2010PropOp55
 70
     1
102
RTVSPost2010Prop56
140
1.0
102
RTVSPost2010PropOp56
 70
     1
102
RTVSPost2010Prop57
140
1.0
102
RTVSPost2010PropOp57
 70
     1
  0
XRECORD
  5
13D
102
{ACAD_REACTORS
330
13C
102
}
330
13C
100
AcDbXrecord
280
     1
102
RTVSPost2010Prop28
280
     0
102
RTVSPost2010PropOp28
 70
     0
102
RTVSPost2010Prop29
280
     1
102
RTVSPost2010PropOp29
 70
     0
102
RTVSPost2010Prop30
280
     1
102
RTVSPost2010PropOp30
 70
     0
102
RTVSPost2010Prop31
280
     0
102
RTVSPost2010PropOp31
 70
     0
102
RTVSPost2010Prop32
280
     0
102
RTVSPost2010PropOp32
 70
     0
102
RTVSPost2010Prop33
280
     0
102
RTVSPost2010PropOp33
 70
     0
102
RTVSPost2010Prop34
280
     0
102
RTVSPost2010PropOp34
 70
     0
102
RTVSPost2010Prop35
280
     0
102
RTVSPost2010PropOp35
 70
     0
102
RTVSPost2010Prop36
280
     0
102
RTVSPost2010PropOp36
 70
     0
102
RTVSPost2010Prop37
 90
       50
102
RTVSPost2010PropOp37
 70
     0
102
RTVSPost2010Prop38
140
0.0
102
RTVSPost2010PropOp38
 70
     0
102
RTVSPost2010Prop39
140
1.0
102
RTVSPost2010PropOp39
 70
     0
102
RTVSPost2010Prop40
 90
        0
102
RTVSPost2010PropOp40
 70
     0
102
RTVSPost2010Prop41ColorIndex
 90
       18
102
RTVSPost2010Prop41ColorRGB
 90
        0
102
RTVSPost2010PropOp41
 70
     0
102
RTVSPost2010Prop42
 90
       50
102
RTVSPost2010PropOp42
 70
     0
102
RTVSPost2010Prop43
 90
        3
102
RTVSPost2010PropOp43
 70
     0
102
RTVSPost2010Prop44ColorIndex
 90
        5
102
RTVSPost2010Prop44ColorRGB
 90
      255
102
RTVSPost2010PropOp44
 70
     0
102
RTVSPost2010Prop45
280
     0
102
RTVSPost2010PropOp45
 70
     0
102
RTVSPost2010Prop46
 90
       50
102
RTVSPost2010PropOp46
 70
     0
102
RTVSPost2010Prop47
 90
       50
102
RTVSPost2010PropOp47
 70
     0
102
RTVSPost2010Prop48
 90
       50
102
RTVSPost2010PropOp48
 70
     0
102
RTVSPost2010Prop49
280
     0
102
RTVSPost2010PropOp49
 70
     0
102
RTVSPost2010Prop50
 90
       50
102
RTVSPost2010PropOp50
 70
     0
102
RTVSPost2010Prop51ColorIndex
 90
      256
102
RTVSPost2010Prop51ColorRGB
 90
-16777216
102
RTVSPost2010PropOp51
 70
     0
102
RTVSPost2010Prop52
140
1.0
102
RTVSPost2010PropOp52
 70
     0
102
RTVSPost2010Prop53
 90
        2
102
RTVSPost2010PropOp53
 70
     0
102
RTVSPost2010Prop54
  1
strokes_ogs.tif
102
RTVSPost2010PropOp54
 70
     0
102
RTVSPost2010Prop55
280
     0
102
RTVSPost2010PropOp55
 70
     0
102
RTVSPost2010Prop56
140
1.0
102
RTVSPost2010PropOp56
 70
     0
102
RTVSPost2010Prop57
140
1.0
102
RTVSPost2010PropOp57
 70
     0
  0
XRECORD
  5
12B
102
{ACAD_REACTORS
330
12A
102
}
330
12A
100
AcDbXrecord
280
     1
102
RTVSPost2010Prop28
280
     0
102
RTVSPost2010PropOp28
 70
     1
102
RTVSPost2010Prop29
280
     1
102
RTVSPost2010PropOp29
 70
     1
102
RTVSPost2010Prop30
280
     1
102
RTVSPost2010PropOp30
 70
     1
102
RTVSPost2010Prop31
280
     0
102
RTVSPost2010PropOp31
 70
     1
102
RTVSPost2010Prop32
280
     0
102
RTVSPost2010PropOp32
 70
     1
102
RTVSPost2010Prop33
280
     0
102
RTVSPost2010PropOp33
 70
     1
102
RTVSPost2010Prop34
280
     0
102
RTVSPost2010PropOp34
 70
     1
102
RTVSPost2010Prop35
280
     0
102
RTVSPost2010PropOp35
 70
     1
102
RTVSPost2010Prop36
280
     0
102
RTVSPost2010PropOp36
 70
     1
102
RTVSPost2010Prop37
 90
       50
102
RTVSPost2010PropOp37
 70
     1
102
RTVSPost2010Prop38
140
0.0
102
RTVSPost2010PropOp38
 70
     1
102
RTVSPost2010Prop39
140
1.0
102
RTVSPost2010PropOp39
 70
     1
102
RTVSPost2010Prop40
 90
        0
102
RTVSPost2010PropOp40
 70
     1
102
RTVSPost2010Prop41ColorIndex
 90
       18
102
RTVSPost2010Prop41ColorRGB
 90
        0
102
RTVSPost2010PropOp41
 70
     1
102
RTVSPost2010Prop42
 90
       50
102
RTVSPost2010PropOp42
 70
     1
102
RTVSPost2010Prop43
 90
        3
102
RTVSPost2010PropOp43
 70
     1
102
RTVSPost2010Prop44ColorIndex
 90
        5
102
RTVSPost2010Prop44ColorRGB
 90
      255
102
RTVSPost2010PropOp44
 70
     1
102
RTVSPost2010Prop45
280
     0
102
RTVSPost2010PropOp45
 70
     1
102
RTVSPost2010Prop46
 90
       50
102
RTVSPost2010PropOp46
 70
     1
102
RTVSPost2010Prop47
 90
       50
102
RTVSPost2010PropOp47
 70
     1
102
RTVSPost2010Prop48
 90
       50
102
RTVSPost2010PropOp48
 70
     1
102
RTVSPost2010Prop49
280
     0
102
RTVSPost2010PropOp49
 70
     1
102
RTVSPost2010Prop50
 90
       50
102
RTVSPost2010PropOp50
 70
     1
102
RTVSPost2010Prop51ColorIndex
 90
      256
102
RTVSPost2010Prop51ColorRGB
 90
-16777216
102
RTVSPost2010PropOp51
 70
     0
102
RTVSPost2010Prop52
140
1.0
102
RTVSPost2010PropOp52
 70
     0
102
RTVSPost2010Prop53
 90
        2
102
RTVSPost2010PropOp53
 70
     1
102
RTVSPost2010Prop54
  1
strokes_ogs.tif
102
RTVSPost2010PropOp54
 70
     1
102
RTVSPost2010Prop55
280
     0
102
RTVSPost2010PropOp55
 70
     1
102
RTVSPost2010Prop56
140
1.0
102
RTVSPost2010PropOp56
 70
     1
102
RTVSPost2010Prop57
140
1.0
102
RTVSPost2010PropOp57
 70
     1
  0
XRECORD
  5
10F
102
{ACAD_REACTORS
330
10E
102
}
330
10E
100
AcDbXrecord
280
     1
102
RTVSPost2010Prop28
280
     0
102
RTVSPost2010PropOp28
 70
     1
102
RTVSPost2010Prop29
280
     1
102
RTVSPost2010PropOp29
 70
     1
102
RTVSPost2010Prop30
280
     1
102
RTVSPost2010PropOp30
 70
     1
102
RTVSPost2010Prop31
280
     0
102
RTVSPost2010PropOp31
 70
     1
102
RTVSPost2010Prop32
280
     0
102
RTVSPost2010PropOp32
 70
     1
102
RTVSPost2010Prop33
280
     0
102
RTVSPost2010PropOp33
 70
     1
102
RTVSPost2010Prop34
280
     0
102
RTVSPost2010PropOp34
 70
     1
102
RTVSPost2010Prop35
280
     0
102
RTVSPost2010PropOp35
 70
     1
102
RTVSPost2010Prop36
280
     0
102
RTVSPost2010PropOp36
 70
     1
102
RTVSPost2010Prop37
 90
       50
102
RTVSPost2010PropOp37
 70
     1
102
RTVSPost2010Prop38
140
0.0
102
RTVSPost2010PropOp38
 70
     1
102
RTVSPost2010Prop39
140
1.0
102
RTVSPost2010PropOp39
 70
     1
102
RTVSPost2010Prop40
 90
        0
102
RTVSPost2010PropOp40
 70
     1
102
RTVSPost2010Prop41ColorIndex
 90
       18
102
RTVSPost2010Prop41ColorRGB
 90
        0
102
RTVSPost2010PropOp41
 70
     1
102
RTVSPost2010Prop42
 90
       50
102
RTVSPost2010PropOp42
 70
     1
102
RTVSPost2010Prop43
 90
        3
102
RTVSPost2010PropOp43
 70
     1
102
RTVSPost2010Prop44ColorIndex
 90
        5
102
RTVSPost2010Prop44ColorRGB
 90
      255
102
RTVSPost2010PropOp44
 70
     1
102
RTVSPost2010Prop45
280
     0
102
RTVSPost2010PropOp45
 70
     1
102
RTVSPost2010Prop46
 90
       50
102
RTVSPost2010PropOp46
 70
     1
102
RTVSPost2010Prop47
 90
       50
102
RTVSPost2010PropOp47
 70
     1
102
RTVSPost2010Prop48
 90
       50
102
RTVSPost2010PropOp48
 70
     1
102
RTVSPost2010Prop49
280
     0
102
RTVSPost2010PropOp49
 70
     1
102
RTVSPost2010Prop50
 90
       50
102
RTVSPost2010PropOp50
 70
     1
102
RTVSPost2010Prop51ColorIndex
 90
      256
102
RTVSPost2010Prop51ColorRGB
 90
-16777216
102
RTVSPost2010PropOp51
 70
     0
102
RTVSPost2010Prop52
140
1.0
102
RTVSPost2010PropOp52
 70
     0
102
RTVSPost2010Prop53
 90
        2
102
RTVSPost2010PropOp53
 70
     1
102
RTVSPost2010Prop54
  1
strokes_ogs.tif
102
RTVSPost2010PropOp54
 70
     1
102
RTVSPost2010Prop55
280
     0
102
RTVSPost2010PropOp55
 70
     1
102
RTVSPost2010Prop56
140
1.0
102
RTVSPost2010PropOp56
 70
     1
102
RTVSPost2010Prop57
140
1.0
102
RTVSPost2010PropOp57
 70
     1
  0
XRECORD
  5
111
102
{ACAD_REACTORS
330
110
102
}
330
110
100
AcDbXrecord
280
     1
102
RTVSPost2010Prop28
280
     0
102
RTVSPost2010PropOp28
 70
     1
102
RTVSPost2010Prop29
280
     1
102
RTVSPost2010PropOp29
 70
     1
102
RTVSPost2010Prop30
280
     1
102
RTVSPost2010PropOp30
 70
     1
102
RTVSPost2010Prop31
280
     0
102
RTVSPost2010PropOp31
 70
     1
102
RTVSPost2010Prop32
280
     0
102
RTVSPost2010PropOp32
 70
     1
102
RTVSPost2010Prop33
280
     0
102
RTVSPost2010PropOp33
 70
     1
102
RTVSPost2010Prop34
280
     0
102
RTVSPost2010PropOp34
 70
     1
102
RTVSPost2010Prop35
280
     0
102
RTVSPost2010PropOp35
 70
     1
102
RTVSPost2010Prop36
280
     0
102
RTVSPost2010PropOp36
 70
     1
102
RTVSPost2010Prop37
 90
       50
102
RTVSPost2010PropOp37
 70
     1
102
RTVSPost2010Prop38
140
0.0
102
RTVSPost2010PropOp38
 70
     1
102
RTVSPost2010Prop39
140
1.0
102
RTVSPost2010PropOp39
 70
     1
102
RTVSPost2010Prop40
 90
        0
102
RTVSPost2010PropOp40
 70
     1
102
RTVSPost2010Prop41ColorIndex
 90
       18
102
RTVSPost2010Prop41ColorRGB
 90
        0
102
RTVSPost2010PropOp41
 70
     1
102
RTVSPost2010Prop42
 90
       50
102
RTVSPost2010PropOp42
 70
     1
102
RTVSPost2010Prop43
 90
        3
102
RTVSPost2010PropOp43
 70
     1
102
RTVSPost2010Prop44ColorIndex
 90
        5
102
RTVSPost2010Prop44ColorRGB
 90
      255
102
RTVSPost2010PropOp44
 70
     1
102
RTVSPost2010Prop45
280
     0
102
RTVSPost2010PropOp45
 70
     1
102
RTVSPost2010Prop46
 90
       50
102
RTVSPost2010PropOp46
 70
     1
102
RTVSPost2010Prop47
 90
       50
102
RTVSPost2010PropOp47
 70
     1
102
RTVSPost2010Prop48
 90
       50
102
RTVSPost2010PropOp48
 70
     1
102
RTVSPost2010Prop49
280
     0
102
RTVSPost2010PropOp49
 70
     1
102
RTVSPost2010Prop50
 90
       50
102
RTVSPost2010PropOp50
 70
     1
102
RTVSPost2010Prop51ColorIndex
 90
      256
102
RTVSPost2010Prop51ColorRGB
 90
-16777216
102
RTVSPost2010PropOp51
 70
     0
102
RTVSPost2010Prop52
140
1.0
102
RTVSPost2010PropOp52
 70
     0
102
RTVSPost2010Prop53
 90
        2
102
RTVSPost2010PropOp53
 70
     1
102
RTVSPost2010Prop54
  1
strokes_ogs.tif
102
RTVSPost2010PropOp54
 70
     1
102
RTVSPost2010Prop55
280
     0
102
RTVSPost2010PropOp55
 70
     1
102
RTVSPost2010Prop56
140
1.0
102
RTVSPost2010PropOp56
 70
     1
102
RTVSPost2010Prop57
140
1.0
102
RTVSPost2010PropOp57
 70
     1
  0
XRECORD
  5
113
102
{ACAD_REACTORS
330
112
102
}
330
112
100
AcDbXrecord
280
     1
102
RTVSPost2010Prop28
280
     0
102
RTVSPost2010PropOp28
 70
     1
102
RTVSPost2010Prop29
280
     1
102
RTVSPost2010PropOp29
 70
     1
102
RTVSPost2010Prop30
280
     1
102
RTVSPost2010PropOp30
 70
     1
102
RTVSPost2010Prop31
280
     0
102
RTVSPost2010PropOp31
 70
     1
102
RTVSPost2010Prop32
280
     0
102
RTVSPost2010PropOp32
 70
     1
102
RTVSPost2010Prop33
280
     0
102
RTVSPost2010PropOp33
 70
     1
102
RTVSPost2010Prop34
280
     0
102
RTVSPost2010PropOp34
 70
     1
102
RTVSPost2010Prop35
280
     0
102
RTVSPost2010PropOp35
 70
     1
102
RTVSPost2010Prop36
280
     0
102
RTVSPost2010PropOp36
 70
     1
102
RTVSPost2010Prop37
 90
       50
102
RTVSPost2010PropOp37
 70
     1
102
RTVSPost2010Prop38
140
0.0
102
RTVSPost2010PropOp38
 70
     1
102
RTVSPost2010Prop39
140
1.0
102
RTVSPost2010PropOp39
 70
     1
102
RTVSPost2010Prop40
 90
        0
102
RTVSPost2010PropOp40
 70
     1
102
RTVSPost2010Prop41ColorIndex
 90
       18
102
RTVSPost2010Prop41ColorRGB
 90
        0
102
RTVSPost2010PropOp41
 70
     1
102
RTVSPost2010Prop42
 90
       50
102
RTVSPost2010PropOp42
 70
     1
102
RTVSPost2010Prop43
 90
        3
102
RTVSPost2010PropOp43
 70
     1
102
RTVSPost2010Prop44ColorIndex
 90
        5
102
RTVSPost2010Prop44ColorRGB
 90
      255
102
RTVSPost2010PropOp44
 70
     1
102
RTVSPost2010Prop45
280
     0
102
RTVSPost2010PropOp45
 70
     1
102
RTVSPost2010Prop46
 90
       50
102
RTVSPost2010PropOp46
 70
     1
102
RTVSPost2010Prop47
 90
       50
102
RTVSPost2010PropOp47
 70
     1
102
RTVSPost2010Prop48
 90
       50
102
RTVSPost2010PropOp48
 70
     1
102
RTVSPost2010Prop49
280
     0
102
RTVSPost2010PropOp49
 70
     1
102
RTVSPost2010Prop50
 90
       50
102
RTVSPost2010PropOp50
 70
     1
102
RTVSPost2010Prop51ColorIndex
 90
      256
102
RTVSPost2010Prop51ColorRGB
 90
-16777216
102
RTVSPost2010PropOp51
 70
     0
102
RTVSPost2010Prop52
140
1.0
102
RTVSPost2010PropOp52
 70
     0
102
RTVSPost2010Prop53
 90
        2
102
RTVSPost2010PropOp53
 70
     1
102
RTVSPost2010Prop54
  1
strokes_ogs.tif
102
RTVSPost2010PropOp54
 70
     1
102
RTVSPost2010Prop55
280
     0
102
RTVSPost2010PropOp55
 70
     1
102
RTVSPost2010Prop56
140
1.0
102
RTVSPost2010PropOp56
 70
     1
102
RTVSPost2010Prop57
140
1.0
102
RTVSPost2010PropOp57
 70
     1
  0
XRECORD
  5
115
102
{ACAD_REACTORS
330
114
102
}
330
114
100
AcDbXrecord
280
     1
102
RTVSPost2010Prop28
280
     0
102
RTVSPost2010PropOp28
 70
     1
102
RTVSPost2010Prop29
280
     1
102
RTVSPost2010PropOp29
 70
     1
102
RTVSPost2010Prop30
280
     1
102
RTVSPost2010PropOp30
 70
     1
102
RTVSPost2010Prop31
280
     0
102
RTVSPost2010PropOp31
 70
     1
102
RTVSPost2010Prop32
280
     0
102
RTVSPost2010PropOp32
 70
     1
102
RTVSPost2010Prop33
280
     0
102
RTVSPost2010PropOp33
 70
     1
102
RTVSPost2010Prop34
280
     0
102
RTVSPost2010PropOp34
 70
     1
102
RTVSPost2010Prop35
280
     0
102
RTVSPost2010PropOp35
 70
     1
102
RTVSPost2010Prop36
280
     0
102
RTVSPost2010PropOp36
 70
     1
102
RTVSPost2010Prop37
 90
       50
102
RTVSPost2010PropOp37
 70
     1
102
RTVSPost2010Prop38
140
0.0
102
RTVSPost2010PropOp38
 70
     1
102
RTVSPost2010Prop39
140
1.0
102
RTVSPost2010PropOp39
 70
     1
102
RTVSPost2010Prop40
 90
        0
102
RTVSPost2010PropOp40
 70
     1
102
RTVSPost2010Prop41ColorIndex
 90
       18
102
RTVSPost2010Prop41ColorRGB
 90
        0
102
RTVSPost2010PropOp41
 70
     1
102
RTVSPost2010Prop42
 90
       50
102
RTVSPost2010PropOp42
 70
     1
102
RTVSPost2010Prop43
 90
        3
102
RTVSPost2010PropOp43
 70
     1
102
RTVSPost2010Prop44ColorIndex
 90
        5
102
RTVSPost2010Prop44ColorRGB
 90
      255
102
RTVSPost2010PropOp44
 70
     1
102
RTVSPost2010Prop45
280
     0
102
RTVSPost2010PropOp45
 70
     1
102
RTVSPost2010Prop46
 90
       50
102
RTVSPost2010PropOp46
 70
     1
102
RTVSPost2010Prop47
 90
       50
102
RTVSPost2010PropOp47
 70
     1
102
RTVSPost2010Prop48
 90
       50
102
RTVSPost2010PropOp48
 70
     1
102
RTVSPost2010Prop49
280
     0
102
RTVSPost2010PropOp49
 70
     1
102
RTVSPost2010Prop50
 90
       50
102
RTVSPost2010PropOp50
 70
     1
102
RTVSPost2010Prop51ColorIndex
 90
      256
102
RTVSPost2010Prop51ColorRGB
 90
-16777216
102
RTVSPost2010PropOp51
 70
     0
102
RTVSPost2010Prop52
140
1.0
102
RTVSPost2010PropOp52
 70
     0
102
RTVSPost2010Prop53
 90
        2
102
RTVSPost2010PropOp53
 70
     1
102
RTVSPost2010Prop54
  1
strokes_ogs.tif
102
RTVSPost2010PropOp54
 70
     1
102
RTVSPost2010Prop55
280
     0
102
RTVSPost2010PropOp55
 70
     1
102
RTVSPost2010Prop56
140
1.0
102
RTVSPost2010PropOp56
 70
     1
102
RTVSPost2010Prop57
140
1.0
102
RTVSPost2010PropOp57
 70
     1
  0
XRECORD
  5
11D
102
{ACAD_REACTORS
330
11C
102
}
330
11C
100
AcDbXrecord
280
     1
102
RTVSPost2010Prop28
280
     0
102
RTVSPost2010PropOp28
 70
     1
102
RTVSPost2010Prop29
280
     1
102
RTVSPost2010PropOp29
 70
     1
102
RTVSPost2010Prop30
280
     1
102
RTVSPost2010PropOp30
 70
     1
102
RTVSPost2010Prop31
280
     0
102
RTVSPost2010PropOp31
 70
     1
102
RTVSPost2010Prop32
280
     0
102
RTVSPost2010PropOp32
 70
     1
102
RTVSPost2010Prop33
280
     0
102
RTVSPost2010PropOp33
 70
     1
102
RTVSPost2010Prop34
280
     0
102
RTVSPost2010PropOp34
 70
     1
102
RTVSPost2010Prop35
280
     0
102
RTVSPost2010PropOp35
 70
     1
102
RTVSPost2010Prop36
280
     0
102
RTVSPost2010PropOp36
 70
     1
102
RTVSPost2010Prop37
 90
       50
102
RTVSPost2010PropOp37
 70
     1
102
RTVSPost2010Prop38
140
0.0
102
RTVSPost2010PropOp38
 70
     1
102
RTVSPost2010Prop39
140
1.0
102
RTVSPost2010PropOp39
 70
     1
102
RTVSPost2010Prop40
 90
        0
102
RTVSPost2010PropOp40
 70
     1
102
RTVSPost2010Prop41ColorIndex
 90
       18
102
RTVSPost2010Prop41ColorRGB
 90
        0
102
RTVSPost2010PropOp41
 70
     1
102
RTVSPost2010Prop42
 90
       50
102
RTVSPost2010PropOp42
 70
     1
102
RTVSPost2010Prop43
 90
        3
102
RTVSPost2010PropOp43
 70
     1
102
RTVSPost2010Prop44ColorIndex
 90
        5
102
RTVSPost2010Prop44ColorRGB
 90
      255
102
RTVSPost2010PropOp44
 70
     1
102
RTVSPost2010Prop45
280
     0
102
RTVSPost2010PropOp45
 70
     1
102
RTVSPost2010Prop46
 90
       50
102
RTVSPost2010PropOp46
 70
     1
102
RTVSPost2010Prop47
 90
       50
102
RTVSPost2010PropOp47
 70
     1
102
RTVSPost2010Prop48
 90
       50
102
RTVSPost2010PropOp48
 70
     1
102
RTVSPost2010Prop49
280
     0
102
RTVSPost2010PropOp49
 70
     1
102
RTVSPost2010Prop50
 90
       50
102
RTVSPost2010PropOp50
 70
     1
102
RTVSPost2010Prop51ColorIndex
 90
      256
102
RTVSPost2010Prop51ColorRGB
 90
-16777216
102
RTVSPost2010PropOp51
 70
     0
102
RTVSPost2010Prop52
140
1.0
102
RTVSPost2010PropOp52
 70
     0
102
RTVSPost2010Prop53
 90
        2
102
RTVSPost2010PropOp53
 70
     1
102
RTVSPost2010Prop54
  1
strokes_ogs.tif
102
RTVSPost2010PropOp54
 70
     1
102
RTVSPost2010Prop55
280
     0
102
RTVSPost2010PropOp55
 70
     1
102
RTVSPost2010Prop56
140
1.0
102
RTVSPost2010PropOp56
 70
     1
102
RTVSPost2010Prop57
140
1.0
102
RTVSPost2010PropOp57
 70
     1
  0
XRECORD
  5
139
102
{ACAD_REACTORS
330
138
102
}
330
138
100
AcDbXrecord
280
     1
102
RTVSPost2010Prop28
280
     0
102
RTVSPost2010PropOp28
 70
     0
102
RTVSPost2010Prop29
280
     1
102
RTVSPost2010PropOp29
 70
     0
102
RTVSPost2010Prop30
280
     1
102
RTVSPost2010PropOp30
 70
     0
102
RTVSPost2010Prop31
280
     0
102
RTVSPost2010PropOp31
 70
     0
102
RTVSPost2010Prop32
280
     0
102
RTVSPost2010PropOp32
 70
     0
102
RTVSPost2010Prop33
280
     0
102
RTVSPost2010PropOp33
 70
     0
102
RTVSPost2010Prop34
280
     0
102
RTVSPost2010PropOp34
 70
     0
102
RTVSPost2010Prop35
280
     0
102
RTVSPost2010PropOp35
 70
     0
102
RTVSPost2010Prop36
280
     0
102
RTVSPost2010PropOp36
 70
     0
102
RTVSPost2010Prop37
 90
       50
102
RTVSPost2010PropOp37
 70
     0
102
RTVSPost2010Prop38
140
0.0
102
RTVSPost2010PropOp38
 70
     0
102
RTVSPost2010Prop39
140
1.0
102
RTVSPost2010PropOp39
 70
     0
102
RTVSPost2010Prop40
 90
        0
102
RTVSPost2010PropOp40
 70
     0
102
RTVSPost2010Prop41ColorIndex
 90
       18
102
RTVSPost2010Prop41ColorRGB
 90
        0
102
RTVSPost2010PropOp41
 70
     0
102
RTVSPost2010Prop42
 90
       50
102
RTVSPost2010PropOp42
 70
     0
102
RTVSPost2010Prop43
 90
        3
102
RTVSPost2010PropOp43
 70
     0
102
RTVSPost2010Prop44ColorIndex
 90
        5
102
RTVSPost2010Prop44ColorRGB
 90
      255
102
RTVSPost2010PropOp44
 70
     0
102
RTVSPost2010Prop45
280
     0
102
RTVSPost2010PropOp45
 70
     0
102
RTVSPost2010Prop46
 90
       50
102
RTVSPost2010PropOp46
 70
     0
102
RTVSPost2010Prop47
 90
       50
102
RTVSPost2010PropOp47
 70
     0
102
RTVSPost2010Prop48
 90
       50
102
RTVSPost2010PropOp48
 70
     0
102
RTVSPost2010Prop49
280
     0
102
RTVSPost2010PropOp49
 70
     0
102
RTVSPost2010Prop50
 90
       50
102
RTVSPost2010PropOp50
 70
     0
102
RTVSPost2010Prop51ColorIndex
 90
      256
102
RTVSPost2010Prop51ColorRGB
 90
-16777216
102
RTVSPost2010PropOp51
 70
     0
102
RTVSPost2010Prop52
140
1.0
102
RTVSPost2010PropOp52
 70
     0
102
RTVSPost2010Prop53
 90
        2
102
RTVSPost2010PropOp53
 70
     0
102
RTVSPost2010Prop54
  1
strokes_ogs.tif
102
RTVSPost2010PropOp54
 70
     0
102
RTVSPost2010Prop55
280
     0
102
RTVSPost2010PropOp55
 70
     0
102
RTVSPost2010Prop56
140
1.0
102
RTVSPost2010PropOp56
 70
     0
102
RTVSPost2010Prop57
140
1.0
102
RTVSPost2010PropOp57
 70
     0
  0
XRECORD
  5
129
102
{ACAD_REACTORS
330
128
102
}
330
128
100
AcDbXrecord
280
     1
102
RTVSPost2010Prop28
280
     0
102
RTVSPost2010PropOp28
 70
     1
102
RTVSPost2010Prop29
280
     1
102
RTVSPost2010PropOp29
 70
     1
102
RTVSPost2010Prop30
280
     1
102
RTVSPost2010PropOp30
 70
     1
102
RTVSPost2010Prop31
280
     0
102
RTVSPost2010PropOp31
 70
     1
102
RTVSPost2010Prop32
280
     0
102
RTVSPost2010PropOp32
 70
     1
102
RTVSPost2010Prop33
280
     0
102
RTVSPost2010PropOp33
 70
     1
102
RTVSPost2010Prop34
280
     0
102
RTVSPost2010PropOp34
 70
     1
102
RTVSPost2010Prop35
280
     0
102
RTVSPost2010PropOp35
 70
     1
102
RTVSPost2010Prop36
280
     0
102
RTVSPost2010PropOp36
 70
     1
102
RTVSPost2010Prop37
 90
       50
102
RTVSPost2010PropOp37
 70
     1
102
RTVSPost2010Prop38
140
0.0
102
RTVSPost2010PropOp38
 70
     1
102
RTVSPost2010Prop39
140
1.0
102
RTVSPost2010PropOp39
 70
     1
102
RTVSPost2010Prop40
 90
        0
102
RTVSPost2010PropOp40
 70
     1
102
RTVSPost2010Prop41ColorIndex
 90
       18
102
RTVSPost2010Prop41ColorRGB
 90
        0
102
RTVSPost2010PropOp41
 70
     1
102
RTVSPost2010Prop42
 90
       50
102
RTVSPost2010PropOp42
 70
     1
102
RTVSPost2010Prop43
 90
        3
102
RTVSPost2010PropOp43
 70
     1
102
RTVSPost2010Prop44ColorIndex
 90
        5
102
RTVSPost2010Prop44ColorRGB
 90
      255
102
RTVSPost2010PropOp44
 70
     1
102
RTVSPost2010Prop45
280
     0
102
RTVSPost2010PropOp45
 70
     1
102
RTVSPost2010Prop46
 90
       50
102
RTVSPost2010PropOp46
 70
     1
102
RTVSPost2010Prop47
 90
       50
102
RTVSPost2010PropOp47
 70
     1
102
RTVSPost2010Prop48
 90
       50
102
RTVSPost2010PropOp48
 70
     1
102
RTVSPost2010Prop49
280
     0
102
RTVSPost2010PropOp49
 70
     1
102
RTVSPost2010Prop50
 90
       50
102
RTVSPost2010PropOp50
 70
     1
102
RTVSPost2010Prop51ColorIndex
 90
      256
102
RTVSPost2010Prop51ColorRGB
 90
-16777216
102
RTVSPost2010PropOp51
 70
     0
102
RTVSPost2010Prop52
140
1.0
102
RTVSPost2010PropOp52
 70
     0
102
RTVSPost2010Prop53
 90
        2
102
RTVSPost2010PropOp53
 70
     1
102
RTVSPost2010Prop54
  1
strokes_ogs.tif
102
RTVSPost2010PropOp54
 70
     1
102
RTVSPost2010Prop55
280
     0
102
RTVSPost2010PropOp55
 70
     1
102
RTVSPost2010Prop56
140
1.0
102
RTVSPost2010PropOp56
 70
     1
102
RTVSPost2010Prop57
140
1.0
102
RTVSPost2010PropOp57
 70
     1
  0
XRECORD
  5
13B
102
{ACAD_REACTORS
330
13A
102
}
330
13A
100
AcDbXrecord
280
     1
102
RTVSPost2010Prop28
280
     0
102
RTVSPost2010PropOp28
 70
     0
102
RTVSPost2010Prop29
280
     1
102
RTVSPost2010PropOp29
 70
     0
102
RTVSPost2010Prop30
280
     1
102
RTVSPost2010PropOp30
 70
     0
102
RTVSPost2010Prop31
280
     0
102
RTVSPost2010PropOp31
 70
     0
102
RTVSPost2010Prop32
280
     0
102
RTVSPost2010PropOp32
 70
     0
102
RTVSPost2010Prop33
280
     0
102
RTVSPost2010PropOp33
 70
     0
102
RTVSPost2010Prop34
280
     0
102
RTVSPost2010PropOp34
 70
     0
102
RTVSPost2010Prop35
280
     0
102
RTVSPost2010PropOp35
 70
     0
102
RTVSPost2010Prop36
280
     0
102
RTVSPost2010PropOp36
 70
     0
102
RTVSPost2010Prop37
 90
       50
102
RTVSPost2010PropOp37
 70
     0
102
RTVSPost2010Prop38
140
0.0
102
RTVSPost2010PropOp38
 70
     0
102
RTVSPost2010Prop39
140
1.0
102
RTVSPost2010PropOp39
 70
     0
102
RTVSPost2010Prop40
 90
        0
102
RTVSPost2010PropOp40
 70
     0
102
RTVSPost2010Prop41ColorIndex
 90
       18
102
RTVSPost2010Prop41ColorRGB
 90
        0
102
RTVSPost2010PropOp41
 70
     0
102
RTVSPost2010Prop42
 90
       50
102
RTVSPost2010PropOp42
 70
     0
102
RTVSPost2010Prop43
 90
        3
102
RTVSPost2010PropOp43
 70
     0
102
RTVSPost2010Prop44ColorIndex
 90
        5
102
RTVSPost2010Prop44ColorRGB
 90
      255
102
RTVSPost2010PropOp44
 70
     0
102
RTVSPost2010Prop45
280
     0
102
RTVSPost2010PropOp45
 70
     0
102
RTVSPost2010Prop46
 90
       50
102
RTVSPost2010PropOp46
 70
     0
102
RTVSPost2010Prop47
 90
       50
102
RTVSPost2010PropOp47
 70
     0
102
RTVSPost2010Prop48
 90
       50
102
RTVSPost2010PropOp48
 70
     0
102
RTVSPost2010Prop49
280
     0
102
RTVSPost2010PropOp49
 70
     0
102
RTVSPost2010Prop50
 90
       50
102
RTVSPost2010PropOp50
 70
     0
102
RTVSPost2010Prop51ColorIndex
 90
      256
102
RTVSPost2010Prop51ColorRGB
 90
-16777216
102
RTVSPost2010PropOp51
 70
     0
102
RTVSPost2010Prop52
140
1.0
102
RTVSPost2010PropOp52
 70
     0
102
RTVSPost2010Prop53
 90
        2
102
RTVSPost2010PropOp53
 70
     0
102
RTVSPost2010Prop54
  1
strokes_ogs.tif
102
RTVSPost2010PropOp54
 70
     0
102
RTVSPost2010Prop55
280
     0
102
RTVSPost2010PropOp55
 70
     0
102
RTVSPost2010Prop56
140
1.0
102
RTVSPost2010PropOp56
 70
     0
102
RTVSPost2010Prop57
140
1.0
102
RTVSPost2010PropOp57
 70
     0
  0
XRECORD
  5
121
102
{ACAD_REACTORS
330
120
102
}
330
120
100
AcDbXrecord
280
     1
102
RTVSPost2010Prop28
280
     0
102
RTVSPost2010PropOp28
 70
     1
102
RTVSPost2010Prop29
280
     1
102
RTVSPost2010PropOp29
 70
     1
102
RTVSPost2010Prop30
280
     1
102
RTVSPost2010PropOp30
 70
     1
102
RTVSPost2010Prop31
280
     0
102
RTVSPost2010PropOp31
 70
     1
102
RTVSPost2010Prop32
280
     0
102
RTVSPost2010PropOp32
 70
     1
102
RTVSPost2010Prop33
280
     0
102
RTVSPost2010PropOp33
 70
     1
102
RTVSPost2010Prop34
280
     0
102
RTVSPost2010PropOp34
 70
     1
102
RTVSPost2010Prop35
280
     0
102
RTVSPost2010PropOp35
 70
     1
102
RTVSPost2010Prop36
280
     0
102
RTVSPost2010PropOp36
 70
     1
102
RTVSPost2010Prop37
 90
       50
102
RTVSPost2010PropOp37
 70
     1
102
RTVSPost2010Prop38
140
0.0
102
RTVSPost2010PropOp38
 70
     1
102
RTVSPost2010Prop39
140
1.0
102
RTVSPost2010PropOp39
 70
     1
102
RTVSPost2010Prop40
 90
        0
102
RTVSPost2010PropOp40
 70
     1
102
RTVSPost2010Prop41ColorIndex
 90
       18
102
RTVSPost2010Prop41ColorRGB
 90
        0
102
RTVSPost2010PropOp41
 70
     1
102
RTVSPost2010Prop42
 90
       50
102
RTVSPost2010PropOp42
 70
     1
102
RTVSPost2010Prop43
 90
        3
102
RTVSPost2010PropOp43
 70
     1
102
RTVSPost2010Prop44ColorIndex
 90
        5
102
RTVSPost2010Prop44ColorRGB
 90
      255
102
RTVSPost2010PropOp44
 70
     1
102
RTVSPost2010Prop45
280
     0
102
RTVSPost2010PropOp45
 70
     1
102
RTVSPost2010Prop46
 90
       50
102
RTVSPost2010PropOp46
 70
     1
102
RTVSPost2010Prop47
 90
       50
102
RTVSPost2010PropOp47
 70
     1
102
RTVSPost2010Prop48
 90
       50
102
RTVSPost2010PropOp48
 70
     1
102
RTVSPost2010Prop49
280
     0
102
RTVSPost2010PropOp49
 70
     1
102
RTVSPost2010Prop50
 90
       50
102
RTVSPost2010PropOp50
 70
     1
102
RTVSPost2010Prop51ColorIndex
 90
      256
102
RTVSPost2010Prop51ColorRGB
 90
-16777216
102
RTVSPost2010PropOp51
 70
     0
102
RTVSPost2010Prop52
140
1.0
102
RTVSPost2010PropOp52
 70
     0
102
RTVSPost2010Prop53
 90
        2
102
RTVSPost2010PropOp53
 70
     1
102
RTVSPost2010Prop54
  1
strokes_ogs.tif
102
RTVSPost2010PropOp54
 70
     1
102
RTVSPost2010Prop55
280
     0
102
RTVSPost2010PropOp55
 70
     1
102
RTVSPost2010Prop56
140
1.0
102
RTVSPost2010PropOp56
 70
     1
102
RTVSPost2010Prop57
140
1.0
102
RTVSPost2010PropOp57
 70
     1
  0
XRECORD
  5
137
102
{ACAD_REACTORS
330
136
102
}
330
136
100
AcDbXrecord
280
     1
102
RTVSPost2010Prop28
280
     0
102
RTVSPost2010PropOp28
 70
     1
102
RTVSPost2010Prop29
280
     1
102
RTVSPost2010PropOp29
 70
     1
102
RTVSPost2010Prop30
280
     1
102
RTVSPost2010PropOp30
 70
     1
102
RTVSPost2010Prop31
280
     0
102
RTVSPost2010PropOp31
 70
     1
102
RTVSPost2010Prop32
280
     0
102
RTVSPost2010PropOp32
 70
     1
102
RTVSPost2010Prop33
280
     0
102
RTVSPost2010PropOp33
 70
     1
102
RTVSPost2010Prop34
280
     0
102
RTVSPost2010PropOp34
 70
     1
102
RTVSPost2010Prop35
280
     0
102
RTVSPost2010PropOp35
 70
     1
102
RTVSPost2010Prop36
280
     0
102
RTVSPost2010PropOp36
 70
     1
102
RTVSPost2010Prop37
 90
       50
102
RTVSPost2010PropOp37
 70
     1
102
RTVSPost2010Prop38
140
0.0
102
RTVSPost2010PropOp38
 70
     1
102
RTVSPost2010Prop39
140
1.0
102
RTVSPost2010PropOp39
 70
     1
102
RTVSPost2010Prop40
 90
        0
102
RTVSPost2010PropOp40
 70
     1
102
RTVSPost2010Prop41ColorIndex
 90
       18
102
RTVSPost2010Prop41ColorRGB
 90
        0
102
RTVSPost2010PropOp41
 70
     1
102
RTVSPost2010Prop42
 90
       50
102
RTVSPost2010PropOp42
 70
     1
102
RTVSPost2010Prop43
 90
        3
102
RTVSPost2010PropOp43
 70
     1
102
RTVSPost2010Prop44ColorIndex
 90
        5
102
RTVSPost2010Prop44ColorRGB
 90
      255
102
RTVSPost2010PropOp44
 70
     1
102
RTVSPost2010Prop45
280
     0
102
RTVSPost2010PropOp45
 70
     1
102
RTVSPost2010Prop46
 90
       50
102
RTVSPost2010PropOp46
 70
     1
102
RTVSPost2010Prop47
 90
       50
102
RTVSPost2010PropOp47
 70
     1
102
RTVSPost2010Prop48
 90
       50
102
RTVSPost2010PropOp48
 70
     1
102
RTVSPost2010Prop49
280
     0
102
RTVSPost2010PropOp49
 70
     1
102
RTVSPost2010Prop50
 90
       50
102
RTVSPost2010PropOp50
 70
     1
102
RTVSPost2010Prop51ColorIndex
 90
      256
102
RTVSPost2010Prop51ColorRGB
 90
-16777216
102
RTVSPost2010PropOp51
 70
     0
102
RTVSPost2010Prop52
140
1.0
102
RTVSPost2010PropOp52
 70
     0
102
RTVSPost2010Prop53
 90
        2
102
RTVSPost2010PropOp53
 70
     1
102
RTVSPost2010Prop54
  1
strokes_ogs.tif
102
RTVSPost2010PropOp54
 70
     1
102
RTVSPost2010Prop55
280
     0
102
RTVSPost2010PropOp55
 70
     1
102
RTVSPost2010Prop56
140
1.0
102
RTVSPost2010PropOp56
 70
     1
102
RTVSPost2010Prop57
140
1.0
102
RTVSPost2010PropOp57
 70
     1
  0
XRECORD
  5
135
102
{ACAD_REACTORS
330
134
102
}
330
134
100
AcDbXrecord
280
     1
102
RTVSPost2010Prop28
280
     0
102
RTVSPost2010PropOp28
 70
     1
102
RTVSPost2010Prop29
280
     1
102
RTVSPost2010PropOp29
 70
     1
102
RTVSPost2010Prop30
280
     1
102
RTVSPost2010PropOp30
 70
     1
102
RTVSPost2010Prop31
280
     0
102
RTVSPost2010PropOp31
 70
     1
102
RTVSPost2010Prop32
280
     0
102
RTVSPost2010PropOp32
 70
     1
102
RTVSPost2010Prop33
280
     0
102
RTVSPost2010PropOp33
 70
     1
102
RTVSPost2010Prop34
280
     0
102
RTVSPost2010PropOp34
 70
     1
102
RTVSPost2010Prop35
280
     0
102
RTVSPost2010PropOp35
 70
     1
102
RTVSPost2010Prop36
280
     0
102
RTVSPost2010PropOp36
 70
     1
102
RTVSPost2010Prop37
 90
       50
102
RTVSPost2010PropOp37
 70
     1
102
RTVSPost2010Prop38
140
0.0
102
RTVSPost2010PropOp38
 70
     1
102
RTVSPost2010Prop39
140
1.0
102
RTVSPost2010PropOp39
 70
     1
102
RTVSPost2010Prop40
 90
        0
102
RTVSPost2010PropOp40
 70
     1
102
RTVSPost2010Prop41ColorIndex
 90
       18
102
RTVSPost2010Prop41ColorRGB
 90
        0
102
RTVSPost2010PropOp41
 70
     1
102
RTVSPost2010Prop42
 90
       50
102
RTVSPost2010PropOp42
 70
     1
102
RTVSPost2010Prop43
 90
        3
102
RTVSPost2010PropOp43
 70
     1
102
RTVSPost2010Prop44ColorIndex
 90
        5
102
RTVSPost2010Prop44ColorRGB
 90
      255
102
RTVSPost2010PropOp44
 70
     1
102
RTVSPost2010Prop45
280
     0
102
RTVSPost2010PropOp45
 70
     1
102
RTVSPost2010Prop46
 90
       50
102
RTVSPost2010PropOp46
 70
     1
102
RTVSPost2010Prop47
 90
       50
102
RTVSPost2010PropOp47
 70
     1
102
RTVSPost2010Prop48
 90
       50
102
RTVSPost2010PropOp48
 70
     1
102
RTVSPost2010Prop49
280
     0
102
RTVSPost2010PropOp49
 70
     1
102
RTVSPost2010Prop50
 90
       50
102
RTVSPost2010PropOp50
 70
     1
102
RTVSPost2010Prop51ColorIndex
 90
      256
102
RTVSPost2010Prop51ColorRGB
 90
-16777216
102
RTVSPost2010PropOp51
 70
     0
102
RTVSPost2010Prop52
140
1.0
102
RTVSPost2010PropOp52
 70
     0
102
RTVSPost2010Prop53
 90
        2
102
RTVSPost2010PropOp53
 70
     1
102
RTVSPost2010Prop54
  1
strokes_ogs.tif
102
RTVSPost2010PropOp54
 70
     1
102
RTVSPost2010Prop55
280
     0
102
RTVSPost2010PropOp55
 70
     1
102
RTVSPost2010Prop56
140
1.0
102
RTVSPost2010PropOp56
 70
     1
102
RTVSPost2010Prop57
140
1.0
102
RTVSPost2010PropOp57
 70
     1
  0
XRECORD
  5
12F
102
{ACAD_REACTORS
330
12E
102
}
330
12E
100
AcDbXrecord
280
     1
102
RTVSPost2010Prop28
280
     0
102
RTVSPost2010PropOp28
 70
     1
102
RTVSPost2010Prop29
280
     1
102
RTVSPost2010PropOp29
 70
     1
102
RTVSPost2010Prop30
280
     1
102
RTVSPost2010PropOp30
 70
     1
102
RTVSPost2010Prop31
280
     0
102
RTVSPost2010PropOp31
 70
     1
102
RTVSPost2010Prop32
280
     0
102
RTVSPost2010PropOp32
 70
     1
102
RTVSPost2010Prop33
280
     0
102
RTVSPost2010PropOp33
 70
     1
102
RTVSPost2010Prop34
280
     0
102
RTVSPost2010PropOp34
 70
     1
102
RTVSPost2010Prop35
280
     0
102
RTVSPost2010PropOp35
 70
     1
102
RTVSPost2010Prop36
280
     0
102
RTVSPost2010PropOp36
 70
     1
102
RTVSPost2010Prop37
 90
       50
102
RTVSPost2010PropOp37
 70
     1
102
RTVSPost2010Prop38
140
0.0
102
RTVSPost2010PropOp38
 70
     1
102
RTVSPost2010Prop39
140
1.0
102
RTVSPost2010PropOp39
 70
     1
102
RTVSPost2010Prop40
 90
        0
102
RTVSPost2010PropOp40
 70
     1
102
RTVSPost2010Prop41ColorIndex
 90
       18
102
RTVSPost2010Prop41ColorRGB
 90
        0
102
RTVSPost2010PropOp41
 70
     1
102
RTVSPost2010Prop42
 90
       50
102
RTVSPost2010PropOp42
 70
     1
102
RTVSPost2010Prop43
 90
        3
102
RTVSPost2010PropOp43
 70
     1
102
RTVSPost2010Prop44ColorIndex
 90
        5
102
RTVSPost2010Prop44ColorRGB
 90
      255
102
RTVSPost2010PropOp44
 70
     1
102
RTVSPost2010Prop45
280
     0
102
RTVSPost2010PropOp45
 70
     1
102
RTVSPost2010Prop46
 90
       50
102
RTVSPost2010PropOp46
 70
     1
102
RTVSPost2010Prop47
 90
       50
102
RTVSPost2010PropOp47
 70
     1
102
RTVSPost2010Prop48
 90
       50
102
RTVSPost2010PropOp48
 70
     1
102
RTVSPost2010Prop49
280
     0
102
RTVSPost2010PropOp49
 70
     1
102
RTVSPost2010Prop50
 90
       50
102
RTVSPost2010PropOp50
 70
     1
102
RTVSPost2010Prop51ColorIndex
 90
      256
102
RTVSPost2010Prop51ColorRGB
 90
-16777216
102
RTVSPost2010PropOp51
 70
     0
102
RTVSPost2010Prop52
140
1.0
102
RTVSPost2010PropOp52
 70
     0
102
RTVSPost2010Prop53
 90
        2
102
RTVSPost2010PropOp53
 70
     1
102
RTVSPost2010Prop54
  1
strokes_ogs.tif
102
RTVSPost2010PropOp54
 70
     1
102
RTVSPost2010Prop55
280
     0
102
RTVSPost2010PropOp55
 70
     1
102
RTVSPost2010Prop56
140
1.0
102
RTVSPost2010PropOp56
 70
     1
102
RTVSPost2010Prop57
140
1.0
102
RTVSPost2010PropOp57
 70
     1
  0
XRECORD
  5
131
102
{ACAD_REACTORS
330
130
102
}
330
130
100
AcDbXrecord
280
     1
102
RTVSPost2010Prop28
280
     0
102
RTVSPost2010PropOp28
 70
     1
102
RTVSPost2010Prop29
280
     1
102
RTVSPost2010PropOp29
 70
     1
102
RTVSPost2010Prop30
280
     1
102
RTVSPost2010PropOp30
 70
     1
102
RTVSPost2010Prop31
280
     0
102
RTVSPost2010PropOp31
 70
     1
102
RTVSPost2010Prop32
280
     0
102
RTVSPost2010PropOp32
 70
     1
102
RTVSPost2010Prop33
280
     0
102
RTVSPost2010PropOp33
 70
     1
102
RTVSPost2010Prop34
280
     0
102
RTVSPost2010PropOp34
 70
     1
102
RTVSPost2010Prop35
280
     0
102
RTVSPost2010PropOp35
 70
     1
102
RTVSPost2010Prop36
280
     0
102
RTVSPost2010PropOp36
 70
     1
102
RTVSPost2010Prop37
 90
       50
102
RTVSPost2010PropOp37
 70
     1
102
RTVSPost2010Prop38
140
0.0
102
RTVSPost2010PropOp38
 70
     1
102
RTVSPost2010Prop39
140
1.0
102
RTVSPost2010PropOp39
 70
     1
102
RTVSPost2010Prop40
 90
        0
102
RTVSPost2010PropOp40
 70
     1
102
RTVSPost2010Prop41ColorIndex
 90
       18
102
RTVSPost2010Prop41ColorRGB
 90
        0
102
RTVSPost2010PropOp41
 70
     1
102
RTVSPost2010Prop42
 90
       50
102
RTVSPost2010PropOp42
 70
     1
102
RTVSPost2010Prop43
 90
        3
102
RTVSPost2010PropOp43
 70
     1
102
RTVSPost2010Prop44ColorIndex
 90
        5
102
RTVSPost2010Prop44ColorRGB
 90
      255
102
RTVSPost2010PropOp44
 70
     1
102
RTVSPost2010Prop45
280
     0
102
RTVSPost2010PropOp45
 70
     1
102
RTVSPost2010Prop46
 90
       50
102
RTVSPost2010PropOp46
 70
     1
102
RTVSPost2010Prop47
 90
       50
102
RTVSPost2010PropOp47
 70
     1
102
RTVSPost2010Prop48
 90
       50
102
RTVSPost2010PropOp48
 70
     1
102
RTVSPost2010Prop49
280
     0
102
RTVSPost2010PropOp49
 70
     1
102
RTVSPost2010Prop50
 90
       50
102
RTVSPost2010PropOp50
 70
     1
102
RTVSPost2010Prop51ColorIndex
 90
      256
102
RTVSPost2010Prop51ColorRGB
 90
-16777216
102
RTVSPost2010PropOp51
 70
     0
102
RTVSPost2010Prop52
140
1.0
102
RTVSPost2010PropOp52
 70
     0
102
RTVSPost2010Prop53
 90
        2
102
RTVSPost2010PropOp53
 70
     1
102
RTVSPost2010Prop54
  1
strokes_ogs.tif
102
RTVSPost2010PropOp54
 70
     1
102
RTVSPost2010Prop55
280
     0
102
RTVSPost2010PropOp55
 70
     1
102
RTVSPost2010Prop56
140
1.0
102
RTVSPost2010PropOp56
 70
     1
102
RTVSPost2010Prop57
140
1.0
102
RTVSPost2010PropOp57
 70
     1
  0
XRECORD
  5
127
102
{ACAD_REACTORS
330
126
102
}
330
126
100
AcDbXrecord
280
     1
102
RTVSPost2010Prop28
280
     0
102
RTVSPost2010PropOp28
 70
     1
102
RTVSPost2010Prop29
280
     1
102
RTVSPost2010PropOp29
 70
     1
102
RTVSPost2010Prop30
280
     1
102
RTVSPost2010PropOp30
 70
     1
102
RTVSPost2010Prop31
280
     0
102
RTVSPost2010PropOp31
 70
     1
102
RTVSPost2010Prop32
280
     0
102
RTVSPost2010PropOp32
 70
     1
102
RTVSPost2010Prop33
280
     0
102
RTVSPost2010PropOp33
 70
     1
102
RTVSPost2010Prop34
280
     0
102
RTVSPost2010PropOp34
 70
     1
102
RTVSPost2010Prop35
280
     0
102
RTVSPost2010PropOp35
 70
     1
102
RTVSPost2010Prop36
280
     0
102
RTVSPost2010PropOp36
 70
     1
102
RTVSPost2010Prop37
 90
       50
102
RTVSPost2010PropOp37
 70
     1
102
RTVSPost2010Prop38
140
0.0
102
RTVSPost2010PropOp38
 70
     1
102
RTVSPost2010Prop39
140
1.0
102
RTVSPost2010PropOp39
 70
     1
102
RTVSPost2010Prop40
 90
        0
102
RTVSPost2010PropOp40
 70
     1
102
RTVSPost2010Prop41ColorIndex
 90
       18
102
RTVSPost2010Prop41ColorRGB
 90
        0
102
RTVSPost2010PropOp41
 70
     1
102
RTVSPost2010Prop42
 90
       50
102
RTVSPost2010PropOp42
 70
     1
102
RTVSPost2010Prop43
 90
        3
102
RTVSPost2010PropOp43
 70
     1
102
RTVSPost2010Prop44ColorIndex
 90
        5
102
RTVSPost2010Prop44ColorRGB
 90
      255
102
RTVSPost2010PropOp44
 70
     1
102
RTVSPost2010Prop45
280
     0
102
RTVSPost2010PropOp45
 70
     1
102
RTVSPost2010Prop46
 90
       50
102
RTVSPost2010PropOp46
 70
     1
102
RTVSPost2010Prop47
 90
       50
102
RTVSPost2010PropOp47
 70
     1
102
RTVSPost2010Prop48
 90
       50
102
RTVSPost2010PropOp48
 70
     1
102
RTVSPost2010Prop49
280
     0
102
RTVSPost2010PropOp49
 70
     1
102
RTVSPost2010Prop50
 90
       50
102
RTVSPost2010PropOp50
 70
     1
102
RTVSPost2010Prop51ColorIndex
 90
      256
102
RTVSPost2010Prop51ColorRGB
 90
-16777216
102
RTVSPost2010PropOp51
 70
     0
102
RTVSPost2010Prop52
140
1.0
102
RTVSPost2010PropOp52
 70
     0
102
RTVSPost2010Prop53
 90
        2
102
RTVSPost2010PropOp53
 70
     1
102
RTVSPost2010Prop54
  1
strokes_ogs.tif
102
RTVSPost2010PropOp54
 70
     1
102
RTVSPost2010Prop55
280
     0
102
RTVSPost2010PropOp55
 70
     1
102
RTVSPost2010Prop56
140
1.0
102
RTVSPost2010PropOp56
 70
     1
102
RTVSPost2010Prop57
140
1.0
102
RTVSPost2010PropOp57
 70
     1
  0
XRECORD
  5
11B
102
{ACAD_REACTORS
330
11A
102
}
330
11A
100
AcDbXrecord
280
     1
102
RTVSPost2010Prop28
280
     0
102
RTVSPost2010PropOp28
 70
     1
102
RTVSPost2010Prop29
280
     1
102
RTVSPost2010PropOp29
 70
     1
102
RTVSPost2010Prop30
280
     1
102
RTVSPost2010PropOp30
 70
     1
102
RTVSPost2010Prop31
280
     0
102
RTVSPost2010PropOp31
 70
     1
102
RTVSPost2010Prop32
280
     0
102
RTVSPost2010PropOp32
 70
     1
102
RTVSPost2010Prop33
280
     0
102
RTVSPost2010PropOp33
 70
     1
102
RTVSPost2010Prop34
280
     0
102
RTVSPost2010PropOp34
 70
     1
102
RTVSPost2010Prop35
280
     0
102
RTVSPost2010PropOp35
 70
     1
102
RTVSPost2010Prop36
280
     0
102
RTVSPost2010PropOp36
 70
     1
102
RTVSPost2010Prop37
 90
       50
102
RTVSPost2010PropOp37
 70
     1
102
RTVSPost2010Prop38
140
0.0
102
RTVSPost2010PropOp38
 70
     1
102
RTVSPost2010Prop39
140
1.0
102
RTVSPost2010PropOp39
 70
     1
102
RTVSPost2010Prop40
 90
        0
102
RTVSPost2010PropOp40
 70
     1
102
RTVSPost2010Prop41ColorIndex
 90
       18
102
RTVSPost2010Prop41ColorRGB
 90
        0
102
RTVSPost2010PropOp41
 70
     1
102
RTVSPost2010Prop42
 90
       50
102
RTVSPost2010PropOp42
 70
     1
102
RTVSPost2010Prop43
 90
        3
102
RTVSPost2010PropOp43
 70
     1
102
RTVSPost2010Prop44ColorIndex
 90
        5
102
RTVSPost2010Prop44ColorRGB
 90
      255
102
RTVSPost2010PropOp44
 70
     1
102
RTVSPost2010Prop45
280
     0
102
RTVSPost2010PropOp45
 70
     1
102
RTVSPost2010Prop46
 90
       50
102
RTVSPost2010PropOp46
 70
     1
102
RTVSPost2010Prop47
 90
       50
102
RTVSPost2010PropOp47
 70
     1
102
RTVSPost2010Prop48
 90
       50
102
RTVSPost2010PropOp48
 70
     1
102
RTVSPost2010Prop49
280
     0
102
RTVSPost2010PropOp49
 70
     1
102
RTVSPost2010Prop50
 90
       50
102
RTVSPost2010PropOp50
 70
     1
102
RTVSPost2010Prop51ColorIndex
 90
      256
102
RTVSPost2010Prop51ColorRGB
 90
-16777216
102
RTVSPost2010PropOp51
 70
     0
102
RTVSPost2010Prop52
140
1.0
102
RTVSPost2010PropOp52
 70
     0
102
RTVSPost2010Prop53
 90
        2
102
RTVSPost2010PropOp53
 70
     1
102
RTVSPost2010Prop54
  1
strokes_ogs.tif
102
RTVSPost2010PropOp54
 70
     1
102
RTVSPost2010Prop55
280
     0
102
RTVSPost2010PropOp55
 70
     1
102
RTVSPost2010Prop56
140
1.0
102
RTVSPost2010PropOp56
 70
     1
102
RTVSPost2010Prop57
140
1.0
102
RTVSPost2010PropOp57
 70
     1
  0
XRECORD
  5
133
102
{ACAD_REACTORS
330
132
102
}
330
132
100
AcDbXrecord
280
     1
102
RTVSPost2010Prop28
280
     0
102
RTVSPost2010PropOp28
 70
     1
102
RTVSPost2010Prop29
280
     1
102
RTVSPost2010PropOp29
 70
     1
102
RTVSPost2010Prop30
280
     1
102
RTVSPost2010PropOp30
 70
     1
102
RTVSPost2010Prop31
280
     0
102
RTVSPost2010PropOp31
 70
     1
102
RTVSPost2010Prop32
280
     0
102
RTVSPost2010PropOp32
 70
     1
102
RTVSPost2010Prop33
280
     0
102
RTVSPost2010PropOp33
 70
     1
102
RTVSPost2010Prop34
280
     0
102
RTVSPost2010PropOp34
 70
     1
102
RTVSPost2010Prop35
280
     0
102
RTVSPost2010PropOp35
 70
     1
102
RTVSPost2010Prop36
280
     0
102
RTVSPost2010PropOp36
 70
     1
102
RTVSPost2010Prop37
 90
       50
102
RTVSPost2010PropOp37
 70
     1
102
RTVSPost2010Prop38
140
0.0
102
RTVSPost2010PropOp38
 70
     1
102
RTVSPost2010Prop39
140
1.0
102
RTVSPost2010PropOp39
 70
     1
102
RTVSPost2010Prop40
 90
        0
102
RTVSPost2010PropOp40
 70
     1
102
RTVSPost2010Prop41ColorIndex
 90
       18
102
RTVSPost2010Prop41ColorRGB
 90
        0
102
RTVSPost2010PropOp41
 70
     1
102
RTVSPost2010Prop42
 90
       50
102
RTVSPost2010PropOp42
 70
     1
102
RTVSPost2010Prop43
 90
        3
102
RTVSPost2010PropOp43
 70
     1
102
RTVSPost2010Prop44ColorIndex
 90
        5
102
RTVSPost2010Prop44ColorRGB
 90
      255
102
RTVSPost2010PropOp44
 70
     1
102
RTVSPost2010Prop45
280
     0
102
RTVSPost2010PropOp45
 70
     1
102
RTVSPost2010Prop46
 90
       50
102
RTVSPost2010PropOp46
 70
     1
102
RTVSPost2010Prop47
 90
       50
102
RTVSPost2010PropOp47
 70
     1
102
RTVSPost2010Prop48
 90
       50
102
RTVSPost2010PropOp48
 70
     1
102
RTVSPost2010Prop49
280
     0
102
RTVSPost2010PropOp49
 70
     1
102
RTVSPost2010Prop50
 90
       50
102
RTVSPost2010PropOp50
 70
     1
102
RTVSPost2010Prop51ColorIndex
 90
      256
102
RTVSPost2010Prop51ColorRGB
 90
-16777216
102
RTVSPost2010PropOp51
 70
     0
102
RTVSPost2010Prop52
140
1.0
102
RTVSPost2010PropOp52
 70
     0
102
RTVSPost2010Prop53
 90
        2
102
RTVSPost2010PropOp53
 70
     1
102
RTVSPost2010Prop54
  1
strokes_ogs.tif
102
RTVSPost2010PropOp54
 70
     1
102
RTVSPost2010Prop55
280
     0
102
RTVSPost2010PropOp55
 70
     1
102
RTVSPost2010Prop56
140
1.0
102
RTVSPost2010PropOp56
 70
     1
102
RTVSPost2010Prop57
140
1.0
102
RTVSPost2010PropOp57
 70
     1
  0
ENDSEC
  0
EOF
