  0
SECTION
  2
HEADER
  9
$ACADVER
  1
AC1024
  9
$ACADMAINTVER
 70
   226
  9
$DWGCODEPAGE
  3
ANSI_932
  9
$INSBASE
 10
0.0
 20
0.0
 30
0.0
  9
$EXTMIN
 10
1.000000000000000E+20
 20
1.000000000000000E+20
 30
1.000000000000000E+20
  9
$EXTMAX
 10
-1.000000000000000E+20
 20
-1.000000000000000E+20
 30
-1.000000000000000E+20
  9
$LIMMIN
 10
0.0
 20
0.0
  9
$LIMMAX
 10
12.0
 20
9.0
  9
$ORTHOMODE
 70
     0
  9
$REGENMODE
 70
     1
  9
$FILLMODE
 70
     1
  9
$QTEXTMODE
 70
     0
  9
$MIRRTEXT
 70
     0
  9
$LTSCALE
 40
1.0
  9
$ATTMODE
 70
     1
  9
$TEXTSIZE
 40
0.2
  9
$TRACEWID
 40
0.05
  9
$TEXTSTYLE
  7
Standard
  9
$CLAYER
  8
0
  9
$CELTYPE
  6
ByLayer
  9
$CECOLOR
 62
   256
  9
$CELTSCALE
 40
1.0
  9
$DISPSILH
 70
     0
  9
$DIMSCALE
 40
1.0
  9
$DIMASZ
 40
0.18
  9
$DIMEXO
 40
0.0625
  9
$DIMDLI
 40
0.38
  9
$DIMRND
 40
0.0
  9
$DIMDLE
 40
0.0
  9
$DIMEXE
 40
0.18
  9
$DIMTP
 40
0.0
  9
$DIMTM
 40
0.0
  9
$DIMTXT
 40
0.18
  9
$DIMCEN
 40
0.09
  9
$DIMTSZ
 40
0.0
  9
$DIMTOL
 70
     0
  9
$DIMLIM
 70
     0
  9
$DIMTIH
 70
     1
  9
$DIMTOH
 70
     1
  9
$DIMSE1
 70
     0
  9
$DIMSE2
 70
     0
  9
$DIMTAD
 70
     0
  9
$DIMZIN
 70
     0
  9
$DIMBLK
  1

  9
$DIMASO
 70
     1
  9
$DIMSHO
 70
     1
  9
$DIMPOST
  1

  9
$DIMAPOST
  1

  9
$DIMALT
 70
     0
  9
$DIMALTD
 70
     2
  9
$DIMALTF
 40
25.4
  9
$DIMLFAC
 40
1.0
  9
$DIMTOFL
 70
     0
  9
$DIMTVP
 40
0.0
  9
$DIMTIX
 70
     0
  9
$DIMSOXD
 70
     0
  9
$DIMSAH
 70
     0
  9
$DIMBLK1
  1

  9
$DIMBLK2
  1

  9
$DIMSTYLE
  2
Standard
  9
$DIMCLRD
 70
     0
  9
$DIMCLRE
 70
     0
  9
$DIMCLRT
 70
     0
  9
$DIMTFAC
 40
1.0
  9
$DIMGAP
 40
0.09
  9
$DIMJUST
 70
     0
  9
$DIMSD1
 70
     0
  9
$DIMSD2
 70
     0
  9
$DIMTOLJ
 70
     1
  9
$DIMTZIN
 70
     0
  9
$DIMALTZ
 70
     0
  9
$DIMALTTZ
 70
     0
  9
$DIMUPT
 70
     0
  9
$DIMDEC
 70
     4
  9
$DIMTDEC
 70
     4
  9
$DIMALTU
 70
     2
  9
$DIMALTTD
 70
     2
  9
$DIMTXSTY
  7
Standard
  9
$DIMAUNIT
 70
     0
  9
$DIMADEC
 70
     0
  9
$DIMALTRND
 40
0.0
  9
$DIMAZIN
 70
     0
  9
$DIMDSEP
 70
    46
  9
$DIMATFIT
 70
     3
  9
$DIMFRAC
 70
     0
  9
$DIMLDRBLK
  1

  9
$DIMLUNIT
 70
     2
  9
$DIMLWD
 70
    -2
  9
$DIMLWE
 70
    -2
  9
$DIMTMOVE
 70
     0
  9
$DIMFXL
 40
1.0
  9
$DIMFXLON
 70
     0
  9
$DIMJOGANG
 40
0.7853981633974483
  9
$DIMTFILL
 70
     0
  9
$DIMTFILLCLR
 70
     0
  9
$DIMARCSYM
 70
     0
  9
$DIMLTYPE
  6

  9
$DIMLTEX1
  6

  9
$DIMLTEX2
  6

  9
$DIMTXTDIRECTION
 70
     0
  9
$LUNITS
 70
     2
  9
$LUPREC
 70
     4
  9
$SKETCHINC
 40
0.1
  9
$FILLETRAD
 40
0.0
  9
$AUNITS
 70
     0
  9
$AUPREC
 70
     0
  9
$MENU
  1
.
  9
$ELEVATION
 40
0.0
  9
$PELEVATION
 40
0.0
  9
$THICKNESS
 40
0.0
  9
$LIMCHECK
 70
     0
  9
$CHAMFERA
 40
0.0
  9
$CHAMFERB
 40
0.0
  9
$CHAMFERC
 40
0.0
  9
$CHAMFERD
 40
0.0
  9
$SKPOLY
 70
     0
  9
$TDCREATE
 40
2459569.490243056
  9
$TDUCREATE
 40
2459569.115243056
  9
$TDUPDATE
 40
2459569.490243056
  9
$TDUUPDATE
 40
2459569.115243056
  9
$TDINDWG
 40
0.0000000000
  9
$TDUSRTIMER
 40
0.0000000000
  9
$USRTIMER
 70
     1
  9
$ANGBASE
 50
0.0
  9
$ANGDIR
 70
     0
  9
$PDMODE
 70
     0
  9
$PDSIZE
 40
0.0
  9
$PLINEWID
 40
0.0
  9
$SPLFRAME
 70
     0
  9
$SPLINETYPE
 70
     6
  9
$SPLINESEGS
 70
     8
  9
$HANDSEED
  5
13E
  9
$SURFTAB1
 70
     6
  9
$SURFTAB2
 70
     6
  9
$SURFTYPE
 70
     6
  9
$SURFU
 70
     6
  9
$SURFV
 70
     6
  9
$UCSBASE
  2

  9
$UCSNAME
  2

  9
$UCSORG
 10
0.0
 20
0.0
 30
0.0
  9
$UCSXDIR
 10
1.0
 20
0.0
 30
0.0
  9
$UCSYDIR
 10
0.0
 20
1.0
 30
0.0
  9
$UCSORTHOREF
  2

  9
$UCSORTHOVIEW
 70
     0
  9
$UCSORGTOP
 10
0.0
 20
0.0
 30
0.0
  9
$UCSORGBOTTOM
 10
0.0
 20
0.0
 30
0.0
  9
$UCSORGLEFT
 10
0.0
 20
0.0
 30
0.0
  9
$UCSORGRIGHT
 10
0.0
 20
0.0
 30
0.0
  9
$UCSORGFRONT
 10
0.0
 20
0.0
 30
0.0
  9
$UCSORGBACK
 10
0.0
 20
0.0
 30
0.0
  9
$PUCSBASE
  2

  9
$PUCSNAME
  2

  9
$PUCSORG
 10
0.0
 20
0.0
 30
0.0
  9
$PUCSXDIR
 10
1.0
 20
0.0
 30
0.0
  9
$PUCSYDIR
 10
0.0
 20
1.0
 30
0.0
  9
$PUCSORTHOREF
  2

  9
$PUCSORTHOVIEW
 70
     0
  9
$PUCSORGTOP
 10
0.0
 20
0.0
 30
0.0
  9
$PUCSORGBOTTOM
 10
0.0
 20
0.0
 30
0.0
  9
$PUCSORGLEFT
 10
0.0
 20
0.0
 30
0.0
  9
$PUCSORGRIGHT
 10
0.0
 20
0.0
 30
0.0
  9
$PUCSORGFRONT
 10
0.0
 20
0.0
 30
0.0
  9
$PUCSORGBACK
 10
0.0
 20
0.0
 30
0.0
  9
$USERI1
 70
     0
  9
$USERI2
 70
     0
  9
$USERI3
 70
     0
  9
$USERI4
 70
     0
  9
$USERI5
 70
     0
  9
$USERR1
 40
0.0
  9
$USERR2
 40
0.0
  9
$USERR3
 40
0.0
  9
$USERR4
 40
0.0
  9
$USERR5
 40
0.0
  9
$WORLDVIEW
 70
     1
  9
$SHADEDGE
 70
     3
  9
$SHADEDIF
 70
    70
  9
$TILEMODE
 70
     1
  9
$MAXACTVP
 70
    64
  9
$PINSBASE
 10
0.0
 20
0.0
 30
0.0
  9
$PLIMCHECK
 70
     0
  9
$PEXTMIN
 10
1.000000000000000E+20
 20
1.000000000000000E+20
 30
1.000000000000000E+20
  9
$PEXTMAX
 10
-1.000000000000000E+20
 20
-1.000000000000000E+20
 30
-1.000000000000000E+20
  9
$PLIMMIN
 10
0.0
 20
0.0
  9
$PLIMMAX
 10
12.0
 20
9.0
  9
$UNITMODE
 70
     0
  9
$VISRETAIN
 70
     1
  9
$PLINEGEN
 70
     0
  9
$PSLTSCALE
 70
     1
  9
$TREEDEPTH
 70
  3020
  9
$CMLSTYLE
  2
Standard
  9
$CMLJUST
 70
     0
  9
$CMLSCALE
 40
1.0
  9
$PROXYGRAPHICS
 70
     1
  9
$MEASUREMENT
 70
     0
  9
$CELWEIGHT
370
    -1
  9
$ENDCAPS
280
     0
  9
$JOINSTYLE
280
     0
  9
$LWDISPLAY
290
     1
  9
$INSUNITS
 70
     4
  9
$HYPERLINKBASE
  1

  9
$STYLESHEET
  1

  9
$XEDIT
290
     1
  9
$CEPSNTYPE
380
     0
  9
$PSTYLEMODE
290
     1
  9
$FINGERPRINTGUID
  2
{BD0DF773-3ADF-0D40-97A7-9026D11BC451}
  9
$VERSIONGUID
  2
{F69149D5-6208-D941-BC69-8B3055F18387}
  9
$EXTNAMES
290
     1
  9
$PSVPSCALE
 40
0.0
  9
$OLESTARTUP
290
     0
  9
$SORTENTS
280
   127
  9
$INDEXCTL
280
     0
  9
$HIDETEXT
280
     1
  9
$XCLIPFRAME
280
     2
  9
$HALOGAP
280
     0
  9
$OBSCOLOR
 70
   257
  9
$OBSLTYPE
280
     0
  9
$INTERSECTIONDISPLAY
280
     0
  9
$INTERSECTIONCOLOR
 70
   257
  9
$DIMASSOC
280
     2
  9
$PROJECTNAME
  1

  9
$CAMERADISPLAY
290
     0
  9
$LENSLENGTH
 40
50.0
  9
$CAMERAHEIGHT
 40
0.0
  9
$STEPSPERSEC
 40
2.0
  9
$STEPSIZE
 40
6.0
  9
$3DDWFPREC
 40
2.0
  9
$PSOLWIDTH
 40
0.25
  9
$PSOLHEIGHT
 40
4.0
  9
$LOFTANG1
 40
1.570796326794896
  9
$LOFTANG2
 40
1.570796326794896
  9
$LOFTMAG1
 40
0.0
  9
$LOFTMAG2
 40
0.0
  9
$LOFTPARAM
 70
     7
  9
$LOFTNORMALS
280
     1
  9
$LATITUDE
 40
37.795
  9
$LONGITUDE
 40
-122.394
  9
$NORTHDIRECTION
 40
0.0
  9
$TIMEZONE
 70
 -8000
  9
$LIGHTGLYPHDISPLAY
280
     1
  9
$TILEMODELIGHTSYNCH
280
     1
  9
$CMATERIAL
347
11
  9
$SOLIDHIST
280
     0
  9
$SHOWHIST
280
     1
  9
$DWFFRAME
280
     2
  9
$DGNFRAME
280
     0
  9
$REALWORLDSCALE
290
     1
  9
$INTERFERECOLOR
 62
     1
  9
$INTERFEREOBJVS
345
33
  9
$INTERFEREVPVS
346
30
  9
$CSHADOW
280
     0
  9
$SHADOWPLANELOCATION
 40
0.0
  0
ENDSEC
  0
SECTION
  2
CLASSES
  0
CLASS
  1
ACDBDICTIONARYWDFLT
  2
AcDbDictionaryWithDefault
  3
ObjectDBX Classes
 90
        0
 91
        1
280
     0
281
     0
  0
CLASS
  1
MATERIAL
  2
AcDbMaterial
  3
ObjectDBX Classes
 90
     1153
 91
        3
280
     0
281
     0
  0
CLASS
  1
VISUALSTYLE
  2
AcDbVisualStyle
  3
ObjectDBX Classes
 90
     4095
 91
       24
280
     0
281
     0
  0
CLASS
  1
SCALE
  2
AcDbScale
  3
ObjectDBX Classes
 90
     1153
 91
       17
280
     0
281
     0
  0
CLASS
  1
TABLESTYLE
  2
AcDbTableStyle
  3
ObjectDBX Classes
 90
     4095
 91
        1
280
     0
281
     0
  0
CLASS
  1
MLEADERSTYLE
  2
AcDbMLeaderStyle
  3
ACDB_MLEADERSTYLE_CLASS
 90
     4095
 91
        1
280
     0
281
     0
  0
CLASS
  1
ACDBSECTIONVIEWSTYLE
  2
AcDbSectionViewStyle
  3
ObjectDBX Classes
 90
     1025
 91
        1
280
     0
281
     0
  0
CLASS
  1
ACDBDETAILVIEWSTYLE
  2
AcDbDetailViewStyle
  3
ObjectDBX Classes
 90
     1025
 91
        1
280
     0
281
     0
  0
CLASS
  1
DICTIONARYVAR
  2
AcDbDictionaryVar
  3
ObjectDBX Classes
 90
        0
 91
        5
280
     0
281
     0
  0
CLASS
  1
CELLSTYLEMAP
  2
AcDbCellStyleMap
  3
ObjectDBX Classes
 90
     1152
 91
        1
280
     0
281
     0
  0
ENDSEC
  0
SECTION
  2
TABLES
  0
TABLE
  2
VPORT
  5
8
330
0
100
AcDbSymbolTable
 70
     1
  0
VPORT
  5
57
330
8
100
AcDbSymbolTableRecord
100
AcDbViewportTableRecord
  2
*Active
 70
     0
 10
0.0
 20
0.0
 11
1.0
 21
1.0
 12
0.0
 22
0.0
 13
0.0
 23
0.0
 14
1.0
 24
1.0
 15
0.0
 25
0.0
 16
0.0
 26
0.0
 36
1.0
 17
104.9999999737534
 27
-148.4999999628701
 37
0.0
 40
302.939999924255
 41
0.7070707070707534
 42
50.0
 43
0.0
 44
0.0
 50
0.0
 51
0.0
 71
     0
 72
   100
 73
     1
 74
     0
 75
     1
 76
     0
 77
     0
 78
     0
281
     0
 65
     1
110
0.0
120
0.0
130
0.0
111
1.0
121
0.0
131
0.0
112
0.0
122
1.0
132
0.0
 79
     0
146
0.0
 60
     3
 61
     5
292
     1
282
     1
141
0.0
142
0.0
 63
   250
421
  3355443
  0
ENDTAB
  0
TABLE
  2
LTYPE
  5
5
330
0
100
AcDbSymbolTable
 70
     2
  0
LTYPE
  5
5B
330
5
100
AcDbSymbolTableRecord
100
AcDbLinetypeTableRecord
  2
ByBlock
 70
     0
  3

 72
    65
 73
     0
 40
0.0
  0
LTYPE
  5
5C
330
5
100
AcDbSymbolTableRecord
100
AcDbLinetypeTableRecord
  2
ByLayer
 70
     0
  3

 72
    65
 73
     0
 40
0.0
  0
LTYPE
  5
5D
330
5
100
AcDbSymbolTableRecord
100
AcDbLinetypeTableRecord
  2
Continuous
 70
     0
  3
Solid line
 72
    65
 73
     0
 40
0.0
  0
LTYPE
  5
E1
330
5
100
AcDbSymbolTableRecord
100
AcDbLinetypeTableRecord
  2
AI-Linetype-0
 70
     0
  3
Adobe Illustrator Linetype No. 0
 72
    65
 73
     2
 40
1.411111110758333
 49
0.7055555553791667
 74
     0
 49
-0.7055555553791667
 74
     0
  0
ENDTAB
  0
TABLE
  2
LAYER
  5
2
330
0
100
AcDbSymbolTable
 70
     2
  0
LAYER
  5
54
330
2
100
AcDbSymbolTableRecord
100
AcDbLayerTableRecord
  2
0
 70
     0
 62
     7
  6
Continuous
370
    -3
390
F
347
21
  0
LAYER
  5
78
330
2
100
AcDbSymbolTableRecord
100
AcDbLayerTableRecord
  2
レイヤー 1
 70
     0
 62
     7
  6
Continuous
370
     0
390
F
347
21
  0
ENDTAB
  0
TABLE
  2
STYLE
  5
3
330
0
100
AcDbSymbolTable
 70
     2
  0
STYLE
  5
55
330
3
100
AcDbSymbolTableRecord
100
AcDbTextStyleTableRecord
  2
Standard
 70
     0
 40
0.0
 41
1.0
 50
0.0
 71
     0
 42
0.2
  3
txt
  4

  0
STYLE
  5
5A
330
3
100
AcDbSymbolTableRecord
100
AcDbTextStyleTableRecord
  2
Annotative
 70
     0
 40
0.0
 41
1.0
 50
0.0
 71
     0
 42
0.2
  3
txt
  4

1001
AcadAnnotative
1000
AnnotativeData
1002
{
1070
     1
1070
     1
1002
}
  0
ENDTAB
  0
TABLE
  2
VIEW
  5
6
330
0
100
AcDbSymbolTable
 70
     0
  0
ENDTAB
  0
TABLE
  2
UCS
  5
7
330
0
100
AcDbSymbolTable
 70
     0
  0
ENDTAB
  0
TABLE
  2
APPID
  5
9
330
0
100
AcDbSymbolTable
 70
     2
  0
APPID
  5
56
330
9
100
AcDbSymbolTableRecord
100
AcDbRegAppTableRecord
  2
ACAD
 70
     0
  0
APPID
  5
5E
330
9
100
AcDbSymbolTableRecord
100
AcDbRegAppTableRecord
  2
AcadAnnotative
 70
     0
  0
ENDTAB
  0
TABLE
  2
DIMSTYLE
  5
A
330
0
100
AcDbSymbolTable
 70
     2
100
AcDbDimStyleTable
 71
     0
  0
DIMSTYLE
105
58
330
A
100
AcDbSymbolTableRecord
100
AcDbDimStyleTableRecord
  2
Standard
 70
     0
340
55
  0
DIMSTYLE
105
59
330
A
100
AcDbSymbolTableRecord
100
AcDbDimStyleTableRecord
  2
Annotative
 70
     0
340
55
1001
AcadAnnotative
1000
AnnotativeData
1002
{
1070
     1
1070
     1
1002
}
  0
ENDTAB
  0
TABLE
  2
BLOCK_RECORD
  5
1
330
0
100
AcDbSymbolTable
 70
    16
  0
BLOCK_RECORD
  5
70
330
1
100
AcDbSymbolTableRecord
100
AcDbBlockTableRecord
  2
*Model_Space
340
73
 70
     0
280
     1
281
     0
  0
BLOCK_RECORD
  5
6C
330
1
100
AcDbSymbolTableRecord
100
AcDbBlockTableRecord
  2
*Paper_Space
340
6F
 70
     0
280
     1
281
     0
  0
BLOCK_RECORD
  5
74
330
1
100
AcDbSymbolTableRecord
100
AcDbBlockTableRecord
  2
*Paper_Space0
340
77
 70
     0
280
     1
281
     0
  0
BLOCK_RECORD
  5
83
330
1
100
AcDbSymbolTableRecord
100
AcDbBlockTableRecord
  2
Block_0
340
0
102
{BLKREFS
331
84
102
}
 70
     0
280
     1
281
     0
  0
BLOCK_RECORD
  5
8B
330
1
100
AcDbSymbolTableRecord
100
AcDbBlockTableRecord
  2
Block_1
340
0
102
{BLKREFS
331
8C
102
}
 70
     0
280
     1
281
     0
  0
BLOCK_RECORD
  5
8F
330
1
100
AcDbSymbolTableRecord
100
AcDbBlockTableRecord
  2
Block_2
340
0
102
{BLKREFS
331
90
102
}
 70
     0
280
     1
281
     0
  0
BLOCK_RECORD
  5
9C
330
1
100
AcDbSymbolTableRecord
100
AcDbBlockTableRecord
  2
Block_3
340
0
102
{BLKREFS
331
9D
102
}
 70
     0
280
     1
281
     0
  0
BLOCK_RECORD
  5
A2
330
1
100
AcDbSymbolTableRecord
100
AcDbBlockTableRecord
  2
Block_4
340
0
102
{BLKREFS
331
A3
102
}
 70
     0
280
     1
281
     0
  0
BLOCK_RECORD
  5
AB
330
1
100
AcDbSymbolTableRecord
100
AcDbBlockTableRecord
  2
Block_5
340
0
102
{BLKREFS
331
AC
102
}
 70
     0
280
     1
281
     0
  0
BLOCK_RECORD
  5
AF
330
1
100
AcDbSymbolTableRecord
100
AcDbBlockTableRecord
  2
Block_6
340
0
102
{BLKREFS
331
B0
102
}
 70
     0
280
     1
281
     0
  0
BLOCK_RECORD
  5
BA
330
1
100
AcDbSymbolTableRecord
100
AcDbBlockTableRecord
  2
Block_7
340
0
102
{BLKREFS
331
BB
102
}
 70
     0
280
     1
281
     0
  0
BLOCK_RECORD
  5
C1
330
1
100
AcDbSymbolTableRecord
100
AcDbBlockTableRecord
  2
Block_8
340
0
102
{BLKREFS
331
C2
102
}
 70
     0
280
     1
281
     0
  0
BLOCK_RECORD
  5
C5
330
1
100
AcDbSymbolTableRecord
100
AcDbBlockTableRecord
  2
Block_9
340
0
102
{BLKREFS
331
C6
102
}
 70
     0
280
     1
281
     0
  0
BLOCK_RECORD
  5
CF
330
1
100
AcDbSymbolTableRecord
100
AcDbBlockTableRecord
  2
Block_10
340
0
102
{BLKREFS
331
D0
102
}
 70
     0
280
     1
281
     0
  0
BLOCK_RECORD
  5
D6
330
1
100
AcDbSymbolTableRecord
100
AcDbBlockTableRecord
  2
Block_11
340
0
102
{BLKREFS
331
D7
102
}
 70
     0
280
     1
281
     0
  0
BLOCK_RECORD
  5
DC
330
1
100
AcDbSymbolTableRecord
100
AcDbBlockTableRecord
  2
Block_12
340
0
102
{BLKREFS
331
DD
102
}
 70
     0
280
     1
281
     0
  0
BLOCK_RECORD
  5
E5
330
1
100
AcDbSymbolTableRecord
100
AcDbBlockTableRecord
  2
Block_13
340
0
102
{BLKREFS
331
E6
102
}
 70
     0
280
     1
281
     0
  0
BLOCK_RECORD
  5
E9
330
1
100
AcDbSymbolTableRecord
100
AcDbBlockTableRecord
  2
Block_14
340
0
102
{BLKREFS
331
EA
102
}
 70
     0
280
     1
281
     0
  0
ENDTAB
  0
ENDSEC
  0
SECTION
  2
BLOCKS
  0
BLOCK
  5
71
330
70
100
AcDbEntity
  8
0
100
AcDbBlockBegin
  2
*Model_Space
 70
     0
 10
0.0
 20
0.0
 30
0.0
  3
*Model_Space
  1

  0
ENDBLK
  5
72
330
70
100
AcDbEntity
  8
0
100
AcDbBlockEnd
  0
BLOCK
  5
6D
330
6C
100
AcDbEntity
 67
     1
  8
0
100
AcDbBlockBegin
  2
*Paper_Space
 70
     0
 10
0.0
 20
0.0
 30
0.0
  3
*Paper_Space
  1

  0
ENDBLK
  5
6E
330
6C
100
AcDbEntity
 67
     1
  8
0
100
AcDbBlockEnd
  0
BLOCK
  5
75
330
74
100
AcDbEntity
 67
     1
  8
0
100
AcDbBlockBegin
  2
*Paper_Space0
 70
     0
 10
0.0
 20
0.0
 30
0.0
  3
*Paper_Space0
  1

  0
ENDBLK
  5
76
330
74
100
AcDbEntity
 67
     1
  8
0
100
AcDbBlockEnd
  0
BLOCK
  5
85
330
83
100
AcDbEntity
  8
0
100
AcDbBlockBegin
  2
Block_0
 70
     0
 10
0.0
 20
0.0
 30
0.0
  3
Block_0
  1

  0
LINE
  5
87
330
83
100
AcDbEntity
  8
レイヤー 1
 62
   250
420
  2299925
370
     9
100
AcDbLine
 10
121.4486200349235
 20
-145.0256465159321
 30
0.0
 11
121.4486200349235
 21
-141.1694327254234
 31
0.0
  0
LINE
  5
88
330
83
100
AcDbEntity
  8
レイヤー 1
 62
   250
420
  2299925
370
     9
100
AcDbLine
 10
121.4486200349235
 20
-145.0256465159321
 30
0.0
 11
121.4486200349235
 21
-145.8257464955199
 31
0.0
  0
LINE
  5
89
330
83
100
AcDbEntity
  8
レイヤー 1
 62
   250
420
  2299925
370
     9
100
AcDbLine
 10
119.9885786832834
 20
-145.0256465159321
 30
0.0
 11
122.4485343322096
 21
-145.0256465159321
 31
0.0
  0
LINE
  5
8A
330
83
100
AcDbEntity
  8
レイヤー 1
 62
   250
420
  2299925
370
     9
100
AcDbLine
 10
119.9885786832834
 20
-145.8257464955199
 30
0.0
 11
122.4485343322096
 21
-145.8257464955199
 31
0.0
  0
INSERT
  5
8C
330
83
100
AcDbEntity
  8
レイヤー 1
100
AcDbBlockReference
  2
Block_1
 10
0.0
 20
0.0
 30
0.0
  0
ENDBLK
  5
86
330
83
100
AcDbEntity
  8
0
100
AcDbBlockEnd
  0
BLOCK
  5
8D
330
8B
100
AcDbEntity
  8
0
100
AcDbBlockBegin
  2
Block_1
 70
     0
 10
0.0
 20
0.0
 30
0.0
  3
Block_1
  1

  0
INSERT
  5
90
330
8B
100
AcDbEntity
  8
レイヤー 1
100
AcDbBlockReference
  2
Block_2
 10
0.0
 20
0.0
 30
0.0
  0
ENDBLK
  5
8E
330
8B
100
AcDbEntity
  8
0
100
AcDbBlockEnd
  0
BLOCK
  5
91
330
8F
100
AcDbEntity
  8
0
100
AcDbBlockBegin
  2
Block_2
 70
     0
 10
0.0
 20
0.0
 30
0.0
  3
Block_2
  1

  0
SPLINE
  5
93
330
8F
100
AcDbEntity
  8
レイヤー 1
100
AcDbSpline
210
0.0
220
0.0
230
1.0
 70
     9
 71
     3
 72
    17
 73
    13
 74
     0
 42
0.0000000001
 43
0.0000000001
 40
0.0
 40
0.0
 40
0.0
 40
0.0
 40
1.0
 40
1.0
 40
1.0
 40
2.0
 40
2.0
 40
2.0
 40
3.0
 40
3.0
 40
3.0
 40
4.0
 40
4.0
 40
4.0
 40
4.0
 10
119.0873046577282
 20
-143.9564154371011
 30
0.0
 10
119.0873046577282
 20
-144.2256496492734
 30
0.0
 10
119.3932291368183
 20
-144.2757757885838
 30
0.0
 10
119.7652994492253
 20
-144.2757757885838
 30
0.0
 10
120.1098089977503
 20
-144.2757757885838
 30
0.0
 10
120.4432942407225
 20
-144.2370184643747
 30
0.0
 10
120.4432942407225
 20
-143.9564154371011
 30
0.0
 10
120.4432942407225
 20
-143.68924828222
 30
0.0
 10
120.1394368189235
 20
-143.63671057607
 30
0.0
 10
119.7652994492253
 20
-143.63671057607
 30
0.0
 10
119.4207899007003
 20
-143.63671057607
 30
0.0
 10
119.0873046577282
 20
-143.6778794671187
 30
0.0
 10
119.0873046577282
 20
-143.9564154371011
 30
0.0
  0
SPLINE
  5
94
330
8F
100
AcDbEntity
  8
レイヤー 1
100
AcDbSpline
210
0.0
220
0.0
230
1.0
 70
     9
 71
     3
 72
    29
 73
    25
 74
     0
 42
0.0000000001
 43
0.0000000001
 40
0.0
 40
0.0
 40
0.0
 40
0.0
 40
1.0
 40
1.0
 40
1.0
 40
2.0
 40
2.0
 40
2.0
 40
3.0
 40
3.0
 40
3.0
 40
4.0
 40
4.0
 40
4.0
 40
5.0
 40
5.0
 40
5.0
 40
6.0
 40
6.0
 40
6.0
 40
7.0
 40
7.0
 40
7.0
 40
8.0
 40
8.0
 40
8.0
 40
8.0
 10
120.4067762285788
 20
-143.527156539639
 30
0.0
 10
120.6324299828627
 20
-143.6436007670405
 30
0.0
 10
120.6531005557742
 20
-143.8308417066638
 30
0.0
 10
120.6531005557742
 20
-143.9564154371011
 30
0.0
 10
120.6531005557742
 20
-144.1297037400092
 30
0.0
 10
120.6028021616896
 20
-144.2826659795543
 30
0.0
 10
120.4067762285788
 20
-144.3853298250148
 30
0.0
 10
120.1966254039786
 20
-144.4972954282854
 30
0.0
 10
119.9409993189731
 20
-144.5177937464226
 30
0.0
 10
119.7652994492253
 20
-144.5177937464226
 30
0.0
 10
119.6099256428406
 20
-144.5177937464226
 30
0.0
 10
119.3384521186029
 20
-144.4995347403508
 30
0.0
 10
119.1238226698718
 20
-144.3853298250148
 30
0.0
 10
118.9047145970099
 20
-144.2690578523876
 30
0.0
 10
118.8795653999676
 20
-144.0955972947052
 30
0.0
 10
118.8795653999676
 20
-143.9564154371011
 30
0.0
 10
118.8795653999676
 20
-143.7851941914843
 30
0.0
 10
118.9274522272126
 20
-143.6299926398737
 30
0.0
 10
119.1238226698718
 20
-143.527156539639
 30
0.0
 10
119.3315619276324
 20
-143.4200140700478
 30
0.0
 10
119.5782307643763
 20
-143.3948648730054
 30
0.0
 10
119.7652994492253
 20
-143.3948648730054
 30
0.0
 10
119.9499565672347
 20
-143.3948648730054
 30
0.0
 10
120.1990369708183
 20
-143.4176025032081
 30
0.0
 10
120.4067762285788
 20
-143.527156539639
 30
0.0
  0
HATCH
  5
95
330
8F
100
AcDbEntity
  8
レイヤー 1
 62
   250
420
  2299925
440
 33554687
100
AcDbHatch
 10
0.0
 20
0.0
 30
0.0
210
0.0
220
0.0
230
1.0
  2
SOLID
 70
     1
 71
     1
 91
        2
 92
        1
 93
        1
 72
     4
 94
        3
 73
     0
 74
     0
 95
       17
 96
       13
 40
0.0
 40
0.0
 40
0.0
 40
0.0
 40
1.0
 40
1.0
 40
1.0
 40
2.0
 40
2.0
 40
2.0
 40
3.0
 40
3.0
 40
3.0
 40
4.0
 40
4.0
 40
4.0
 40
4.0
 10
119.0873046577282
 20
-143.9564154371011
 10
119.0873046577282
 20
-144.2256496492734
 10
119.3932291368183
 20
-144.2757757885838
 10
119.7652994492253
 20
-144.2757757885838
 10
120.1098089977503
 20
-144.2757757885838
 10
120.4432942407225
 20
-144.2370184643747
 10
120.4432942407225
 20
-143.9564154371011
 10
120.4432942407225
 20
-143.68924828222
 10
120.1394368189235
 20
-143.63671057607
 10
119.7652994492253
 20
-143.63671057607
 10
119.4207899007003
 20
-143.63671057607
 10
119.0873046577282
 20
-143.6778794671187
 10
119.0873046577282
 20
-143.9564154371011
 97
        0
 97
        1
330
93
 92
        1
 93
        1
 72
     4
 94
        3
 73
     0
 74
     0
 95
       29
 96
       25
 40
0.0
 40
0.0
 40
0.0
 40
0.0
 40
1.0
 40
1.0
 40
1.0
 40
2.0
 40
2.0
 40
2.0
 40
3.0
 40
3.0
 40
3.0
 40
4.0
 40
4.0
 40
4.0
 40
5.0
 40
5.0
 40
5.0
 40
6.0
 40
6.0
 40
6.0
 40
7.0
 40
7.0
 40
7.0
 40
8.0
 40
8.0
 40
8.0
 40
8.0
 10
120.4067762285788
 20
-143.527156539639
 10
120.6324299828627
 20
-143.6436007670405
 10
120.6531005557742
 20
-143.8308417066638
 10
120.6531005557742
 20
-143.9564154371011
 10
120.6531005557742
 20
-144.1297037400092
 10
120.6028021616896
 20
-144.2826659795543
 10
120.4067762285788
 20
-144.3853298250148
 10
120.1966254039786
 20
-144.4972954282854
 10
119.9409993189731
 20
-144.5177937464226
 10
119.7652994492253
 20
-144.5177937464226
 10
119.6099256428406
 20
-144.5177937464226
 10
119.3384521186029
 20
-144.4995347403508
 10
119.1238226698718
 20
-144.3853298250148
 10
118.9047145970099
 20
-144.2690578523876
 10
118.8795653999676
 20
-144.0955972947052
 10
118.8795653999676
 20
-143.9564154371011
 10
118.8795653999676
 20
-143.7851941914843
 10
118.9274522272126
 20
-143.6299926398737
 10
119.1238226698718
 20
-143.527156539639
 10
119.3315619276324
 20
-143.4200140700478
 10
119.5782307643763
 20
-143.3948648730054
 10
119.7652994492253
 20
-143.3948648730054
 10
119.9499565672347
 20
-143.3948648730054
 10
120.1990369708183
 20
-143.4176025032081
 10
120.4067762285788
 20
-143.527156539639
 97
        0
 97
        1
330
94
 75
     2
 76
     1
 98
        1
 10
0.0
 20
0.0
450
        0
451
        0
460
0.0
461
0.0
452
        0
462
0.0
453
        0
470

  0
SPLINE
  5
96
330
8F
100
AcDbEntity
  8
レイヤー 1
100
AcDbSpline
210
0.0
220
0.0
230
1.0
 70
    11
 71
     3
 72
    17
 73
    13
 74
     0
 42
0.0000000001
 43
0.0000000001
 40
0.0
 40
0.0
 40
0.0
 40
0.0
 40
1.0
 40
1.0
 40
1.0
 40
2.0
 40
2.0
 40
2.0
 40
3.0
 40
3.0
 40
3.0
 40
4.0
 40
4.0
 40
4.0
 40
4.0
 10
120.5983235375587
 20
-143.1605983800085
 30
0.0
 10
120.5983235375587
 20
-143.1605983800085
 30
0.0
 10
120.326850013321
 20
-143.1605983800085
 30
0.0
 10
120.326850013321
 20
-143.1605983800085
 30
0.0
 10
120.326850013321
 20
-143.1605983800085
 30
0.0
 10
120.326850013321
 20
-142.8891248557707
 30
0.0
 10
120.326850013321
 20
-142.8891248557707
 30
0.0
 10
120.326850013321
 20
-142.8891248557707
 30
0.0
 10
120.5983235375587
 20
-142.8891248557707
 30
0.0
 10
120.5983235375587
 20
-142.8891248557707
 30
0.0
 10
120.5983235375587
 20
-142.8891248557707
 30
0.0
 10
120.5983235375587
 20
-143.1605983800085
 30
0.0
 10
120.5983235375587
 20
-143.1605983800085
 30
0.0
  0
HATCH
  5
97
330
8F
100
AcDbEntity
  8
レイヤー 1
 62
   250
420
  2299925
440
 33554687
100
AcDbHatch
 10
0.0
 20
0.0
 30
0.0
210
0.0
220
0.0
230
1.0
  2
SOLID
 70
     1
 71
     1
 91
        1
 92
        1
 93
        1
 72
     4
 94
        3
 73
     0
 74
     0
 95
       17
 96
       13
 40
0.0
 40
0.0
 40
0.0
 40
0.0
 40
1.0
 40
1.0
 40
1.0
 40
2.0
 40
2.0
 40
2.0
 40
3.0
 40
3.0
 40
3.0
 40
4.0
 40
4.0
 40
4.0
 40
4.0
 10
120.5983235375587
 20
-143.1605983800085
 10
120.5983235375587
 20
-143.1605983800085
 10
120.326850013321
 20
-143.1605983800085
 10
120.326850013321
 20
-143.1605983800085
 10
120.326850013321
 20
-143.1605983800085
 10
120.326850013321
 20
-142.8891248557707
 10
120.326850013321
 20
-142.8891248557707
 10
120.326850013321
 20
-142.8891248557707
 10
120.5983235375587
 20
-142.8891248557707
 10
120.5983235375587
 20
-142.8891248557707
 10
120.5983235375587
 20
-142.8891248557707
 10
120.5983235375587
 20
-143.1605983800085
 10
120.5983235375587
 20
-143.1605983800085
 97
        0
 97
        1
330
96
 75
     2
 76
     1
 98
        1
 10
0.0
 20
0.0
450
        0
451
        0
460
0.0
461
0.0
452
        0
462
0.0
453
        0
470

  0
SPLINE
  5
98
330
8F
100
AcDbEntity
  8
レイヤー 1
100
AcDbSpline
210
0.0
220
0.0
230
1.0
 70
     9
 71
     3
 72
    17
 73
    13
 74
     0
 42
0.0000000001
 43
0.0000000001
 40
0.0
 40
0.0
 40
0.0
 40
0.0
 40
1.0
 40
1.0
 40
1.0
 40
2.0
 40
2.0
 40
2.0
 40
3.0
 40
3.0
 40
3.0
 40
4.0
 40
4.0
 40
4.0
 40
4.0
 10
119.7994058945293
 20
-142.0943413273236
 30
0.0
 10
119.7994058945293
 20
-142.2493706241599
 30
0.0
 10
119.8931124917281
 20
-142.4137016788063
 30
0.0
 10
120.11222056459
 20
-142.4137016788063
 30
0.0
 10
120.3337402042915
 20
-142.4137016788063
 30
0.0
 10
120.4432942407225
 20
-142.2769313880418
 30
0.0
 10
120.4432942407225
 20
-142.0943413273236
 30
0.0
 10
120.4432942407225
 20
-141.8934922605336
 30
0.0
 10
120.3106580645404
 20
-141.7746364662924
 30
0.0
 10
120.1191107555605
 20
-141.7746364662924
 30
0.0
 10
119.8793321097871
 20
-141.7746364662924
 30
0.0
 10
119.7994058945293
 20
-141.9505085908144
 30
0.0
 10
119.7994058945293
 20
-142.0943413273236
 30
0.0
  0
SPLINE
  5
99
330
8F
100
AcDbEntity
  8
レイヤー 1
100
AcDbSpline
210
0.0
220
0.0
230
1.0
 70
     9
 71
     3
 72
    17
 73
    13
 74
     0
 42
0.0000000001
 43
0.0000000001
 40
0.0
 40
0.0
 40
0.0
 40
0.0
 40
1.0
 40
1.0
 40
1.0
 40
2.0
 40
2.0
 40
2.0
 40
3.0
 40
3.0
 40
3.0
 40
4.0
 40
4.0
 40
4.0
 40
4.0
 10
119.0873046577282
 20
-142.0943413273236
 30
0.0
 10
119.0873046577282
 20
-142.2722805091368
 30
0.0
 10
119.1899685031886
 20
-142.3635755394959
 30
0.0
 10
119.3360405517632
 20
-142.3635755394959
 30
0.0
 10
119.4686767279453
 20
-142.3635755394959
 30
0.0
 10
119.5964897704481
 20
-142.2858886363035
 30
0.0
 10
119.5964897704481
 20
-142.0943413273236
 30
0.0
 10
119.5964897704481
 20
-141.9024495087952
 30
0.0
 10
119.4686767279453
 20
-141.8249348603771
 30
0.0
 10
119.3360405517632
 20
-141.8249348603771
 30
0.0
 10
119.1899685031886
 20
-141.8249348603771
 30
0.0
 10
119.0873046577282
 20
-141.9184692028016
 30
0.0
 10
119.0873046577282
 20
-142.0943413273236
 30
0.0
  0
SPLINE
  5
9A
330
8F
100
AcDbEntity
  8
レイヤー 1
100
AcDbSpline
210
0.0
220
0.0
230
1.0
 70
     9
 71
     3
 72
    29
 73
    25
 74
     0
 42
0.0000000001
 43
0.0000000001
 40
0.0
 40
0.0
 40
0.0
 40
0.0
 40
1.0
 40
1.0
 40
1.0
 40
2.0
 40
2.0
 40
2.0
 40
3.0
 40
3.0
 40
3.0
 40
4.0
 40
4.0
 40
4.0
 40
5.0
 40
5.0
 40
5.0
 40
6.0
 40
6.0
 40
6.0
 40
7.0
 40
7.0
 40
7.0
 40
8.0
 40
8.0
 40
8.0
 40
8.0
 10
120.6531005557742
 20
-142.0943413273236
 30
0.0
 10
120.6531005557742
 20
-142.3818345455677
 30
0.0
 10
120.5046169403599
 20
-142.6557196366451
 30
0.0
 10
120.1280680038221
 20
-142.6557196366451
 30
0.0
 10
119.8521158554536
 20
-142.6557196366451
 30
0.0
 10
119.7494520099932
 20
-142.5027573971
 30
0.0
 10
119.6829616671278
 20
-142.3887247365382
 30
0.0
 10
119.6192274006507
 20
-142.5232557152372
 30
0.0
 10
119.4958929822788
 20
-142.6055934973347
 30
0.0
 10
119.3226046793707
 20
-142.6055934973347
 30
0.0
 10
119.0256374485422
 20
-142.6055934973347
 30
0.0
 10
118.8795653999676
 20
-142.3909640486036
 30
0.0
 10
118.8795653999676
 20
-142.0943413273236
 30
0.0
 10
118.8795653999676
 20
-141.7884168482334
 30
0.0
 10
119.0349392063523
 20
-141.5830891573125
 30
0.0
 10
119.3226046793707
 20
-141.5830891573125
 30
0.0
 10
119.4958929822788
 20
-141.5830891573125
 30
0.0
 10
119.6192274006507
 20
-141.6674939967012
 30
0.0
 10
119.6829616671278
 20
-141.8021972301744
 30
0.0
 10
119.7377386853433
 20
-141.7062513209102
 30
0.0
 10
119.8404025308038
 20
-141.5350300752933
 30
0.0
 10
120.1235893796913
 20
-141.5350300752933
 30
0.0
 10
120.5276990801111
 20
-141.5350300752933
 30
0.0
 10
120.6531005557742
 20
-141.8363036754784
 30
0.0
 10
120.6531005557742
 20
-142.0943413273236
 30
0.0
  0
HATCH
  5
9B
330
8F
100
AcDbEntity
  8
レイヤー 1
 62
   250
420
  2299925
440
 33554687
100
AcDbHatch
 10
0.0
 20
0.0
 30
0.0
210
0.0
220
0.0
230
1.0
  2
SOLID
 70
     1
 71
     1
 91
        3
 92
        1
 93
        1
 72
     4
 94
        3
 73
     0
 74
     0
 95
       17
 96
       13
 40
0.0
 40
0.0
 40
0.0
 40
0.0
 40
1.0
 40
1.0
 40
1.0
 40
2.0
 40
2.0
 40
2.0
 40
3.0
 40
3.0
 40
3.0
 40
4.0
 40
4.0
 40
4.0
 40
4.0
 10
119.7994058945293
 20
-142.0943413273236
 10
119.7994058945293
 20
-142.2493706241599
 10
119.8931124917281
 20
-142.4137016788063
 10
120.11222056459
 20
-142.4137016788063
 10
120.3337402042915
 20
-142.4137016788063
 10
120.4432942407225
 20
-142.2769313880418
 10
120.4432942407225
 20
-142.0943413273236
 10
120.4432942407225
 20
-141.8934922605336
 10
120.3106580645404
 20
-141.7746364662924
 10
120.1191107555605
 20
-141.7746364662924
 10
119.8793321097871
 20
-141.7746364662924
 10
119.7994058945293
 20
-141.9505085908144
 10
119.7994058945293
 20
-142.0943413273236
 97
        0
 97
        1
330
98
 92
        1
 93
        1
 72
     4
 94
        3
 73
     0
 74
     0
 95
       17
 96
       13
 40
0.0
 40
0.0
 40
0.0
 40
0.0
 40
1.0
 40
1.0
 40
1.0
 40
2.0
 40
2.0
 40
2.0
 40
3.0
 40
3.0
 40
3.0
 40
4.0
 40
4.0
 40
4.0
 40
4.0
 10
119.0873046577282
 20
-142.0943413273236
 10
119.0873046577282
 20
-142.2722805091368
 10
119.1899685031886
 20
-142.3635755394959
 10
119.3360405517632
 20
-142.3635755394959
 10
119.4686767279453
 20
-142.3635755394959
 10
119.5964897704481
 20
-142.2858886363035
 10
119.5964897704481
 20
-142.0943413273236
 10
119.5964897704481
 20
-141.9024495087952
 10
119.4686767279453
 20
-141.8249348603771
 10
119.3360405517632
 20
-141.8249348603771
 10
119.1899685031886
 20
-141.8249348603771
 10
119.0873046577282
 20
-141.9184692028016
 10
119.0873046577282
 20
-142.0943413273236
 97
        0
 97
        1
330
99
 92
        1
 93
        1
 72
     4
 94
        3
 73
     0
 74
     0
 95
       29
 96
       25
 40
0.0
 40
0.0
 40
0.0
 40
0.0
 40
1.0
 40
1.0
 40
1.0
 40
2.0
 40
2.0
 40
2.0
 40
3.0
 40
3.0
 40
3.0
 40
4.0
 40
4.0
 40
4.0
 40
5.0
 40
5.0
 40
5.0
 40
6.0
 40
6.0
 40
6.0
 40
7.0
 40
7.0
 40
7.0
 40
8.0
 40
8.0
 40
8.0
 40
8.0
 10
120.6531005557742
 20
-142.0943413273236
 10
120.6531005557742
 20
-142.3818345455677
 10
120.5046169403599
 20
-142.6557196366451
 10
120.1280680038221
 20
-142.6557196366451
 10
119.8521158554536
 20
-142.6557196366451
 10
119.7494520099932
 20
-142.5027573971
 10
119.6829616671278
 20
-142.3887247365382
 10
119.6192274006507
 20
-142.5232557152372
 10
119.4958929822788
 20
-142.6055934973347
 10
119.3226046793707
 20
-142.6055934973347
 10
119.0256374485422
 20
-142.6055934973347
 10
118.8795653999676
 20
-142.3909640486036
 10
118.8795653999676
 20
-142.0943413273236
 10
118.8795653999676
 20
-141.7884168482334
 10
119.0349392063523
 20
-141.5830891573125
 10
119.3226046793707
 20
-141.5830891573125
 10
119.4958929822788
 20
-141.5830891573125
 10
119.6192274006507
 20
-141.6674939967012
 10
119.6829616671278
 20
-141.8021972301744
 10
119.7377386853433
 20
-141.7062513209102
 10
119.8404025308038
 20
-141.5350300752933
 10
120.1235893796913
 20
-141.5350300752933
 10
120.5276990801111
 20
-141.5350300752933
 10
120.6531005557742
 20
-141.8363036754784
 10
120.6531005557742
 20
-142.0943413273236
 97
        0
 97
        1
330
9A
 75
     2
 76
     1
 98
        1
 10
0.0
 20
0.0
450
        0
451
        0
460
0.0
461
0.0
452
        0
462
0.0
453
        0
470

  0
ENDBLK
  5
92
330
8F
100
AcDbEntity
  8
0
100
AcDbBlockEnd
  0
BLOCK
  5
9E
330
9C
100
AcDbEntity
  8
0
100
AcDbBlockBegin
  2
Block_3
 70
     0
 10
0.0
 20
0.0
 30
0.0
  3
Block_3
  1

  0
LINE
  5
A0
330
9C
100
AcDbEntity
  8
レイヤー 1
 62
   250
420
  2299925
370
     9
100
AcDbLine
 10
121.4486200349235
 20
-152.325500496364
 30
0.0
 11
121.4486200349235
 21
-155.3254873642724
 31
0.0
  0
LINE
  5
A1
330
9C
100
AcDbEntity
  8
レイヤー 1
 62
   250
420
  2299925
370
     9
100
AcDbLine
 10
108.9886862800199
 20
-155.3254873642724
 30
0.0
 11
122.4485343322096
 21
-155.3254873642724
 31
0.0
  0
INSERT
  5
A3
330
9C
100
AcDbEntity
  8
レイヤー 1
100
AcDbBlockReference
  2
Block_4
 10
0.0
 20
0.0
 30
0.0
  0
ENDBLK
  5
9F
330
9C
100
AcDbEntity
  8
0
100
AcDbBlockEnd
  0
BLOCK
  5
A4
330
A2
100
AcDbEntity
  8
0
100
AcDbBlockBegin
  2
Block_4
 70
     0
 10
0.0
 20
0.0
 30
0.0
  3
Block_4
  1

  0
SPLINE
  5
A6
330
A2
100
AcDbEntity
  8
レイヤー 1
100
AcDbSpline
210
0.0
220
0.0
230
1.0
 70
     9
 71
     3
 72
    62
 73
    58
 74
     0
 42
0.0000000001
 43
0.0000000001
 40
0.0
 40
0.0
 40
0.0
 40
0.0
 40
1.0
 40
1.0
 40
1.0
 40
2.0
 40
2.0
 40
2.0
 40
3.0
 40
3.0
 40
3.0
 40
4.0
 40
4.0
 40
4.0
 40
5.0
 40
5.0
 40
5.0
 40
6.0
 40
6.0
 40
6.0
 40
7.0
 40
7.0
 40
7.0
 40
8.0
 40
8.0
 40
8.0
 40
9.0
 40
9.0
 40
9.0
 40
10.0
 40
10.0
 40
10.0
 40
11.0
 40
11.0
 40
11.0
 40
12.0
 40
12.0
 40
12.0
 40
13.0
 40
13.0
 40
13.0
 40
14.0
 40
14.0
 40
14.0
 40
15.0
 40
15.0
 40
15.0
 40
16.0
 40
16.0
 40
16.0
 40
17.0
 40
17.0
 40
17.0
 40
18.0
 40
18.0
 40
18.0
 40
19.0
 40
19.0
 40
19.0
 40
19.0
 10
120.6531005557742
 20
-153.8341932124095
 30
0.0
 10
120.6531005557742
 20
-153.9368570578699
 30
0.0
 10
120.6303629255716
 20
-154.171812569964
 30
0.0
 10
120.4295138587815
 20
-154.3065158034372
 30
0.0
 10
120.3085910072492
 20
-154.386442018695
 30
0.0
 10
120.2011040281094
 20
-154.3909206428258
 30
0.0
 10
120.1098089977503
 20
-154.3953992669567
 30
0.0
 10
120.1098089977503
 20
-154.3953992669567
 30
0.0
 10
120.1098089977503
 20
-154.1583766975715
 30
0.0
 10
120.1098089977503
 20
-154.1583766975715
 30
0.0
 10
120.1897352130081
 20
-154.1559651307318
 30
0.0
 10
120.4432942407225
 20
-154.1445963156305
 30
0.0
 10
120.4432942407225
 20
-153.8386718365403
 30
0.0
 10
120.4432942407225
 20
-153.6905327306746
 30
0.0
 10
120.3678466495955
 20
-153.5258571664796
 30
0.0
 10
120.1211778128516
 20
-153.5258571664796
 30
0.0
 10
119.9957763371885
 20
-153.5258571664796
 30
0.0
 10
119.9434108858127
 20
-153.5671983123026
 30
0.0
 10
119.9089599309602
 20
-153.6013047576066
 30
0.0
 10
119.8290337157024
 20
-153.6812309728644
 30
0.0
 10
119.81559784331
 20
-153.8066324485275
 30
0.0
 10
119.81559784331
 20
-153.8662326004223
 30
0.0
 10
119.81559784331
 20
-153.8865586637853
 30
0.0
 10
119.8176649006011
 20
-153.9254882427686
 30
0.0
 10
119.8224880342805
 20
-153.9551160639417
 30
0.0
 10
119.8224880342805
 20
-153.9551160639417
 30
0.0
 10
119.6123372096802
 20
-153.9551160639417
 30
0.0
 10
119.6123372096802
 20
-153.9551160639417
 30
0.0
 10
119.6192274006507
 20
-153.9137749181187
 30
0.0
 10
119.6212944579419
 20
-153.8682996577135
 30
0.0
 10
119.6212944579419
 20
-153.861409466743
 30
0.0
 10
119.6212944579419
 20
-153.7907850092953
 30
0.0
 10
119.5985568277392
 20
-153.5761555605643
 30
0.0
 10
119.3429307427337
 20
-153.5761555605643
 30
0.0
 10
119.1513834337538
 20
-153.5761555605643
 30
0.0
 10
119.0921277914075
 20
-153.717748985008
 30
0.0
 10
119.0921277914075
 20
-153.8366047792492
 30
0.0
 10
119.0921277914075
 20
-154.1218586854278
 30
0.0
 10
119.3429307427337
 20
-154.1308159336895
 30
0.0
 10
119.4207899007003
 20
-154.1352945578203
 30
0.0
 10
119.4207899007003
 20
-154.1352945578203
 30
0.0
 10
119.4207899007003
 20
-154.3544026306822
 30
0.0
 10
119.4207899007003
 20
-154.3544026306822
 30
0.0
 10
119.2860866672271
 20
-154.3454453824206
 30
0.0
 10
118.8795653999676
 20
-154.3154730516989
 30
0.0
 10
118.8795653999676
 20
-153.8228243973082
 30
0.0
 10
118.8795653999676
 20
-153.5809786942436
 30
0.0
 10
119.0166802002805
 20
-153.3205294755587
 30
0.0
 10
119.3360405517632
 20
-153.3205294755587
 30
0.0
 10
119.5368896185533
 20
-153.3205294755587
 30
0.0
 10
119.6261175916212
 20
-153.4231933210192
 30
0.0
 10
119.692263424938
 20
-153.530680300159
 30
0.0
 10
119.7218912461112
 20
-153.4645344668422
 30
0.0
 10
119.8087076523395
 20
-153.2681640241829
 30
0.0
 10
120.1077419404592
 20
-153.2681640241829
 30
0.0
 10
120.4729220618956
 20
-153.2681640241829
 30
0.0
 10
120.6531005557742
 20
-153.5351589242898
 30
0.0
 10
120.6531005557742
 20
-153.8341932124095
 30
0.0
  0
HATCH
  5
A7
330
A2
100
AcDbEntity
  8
レイヤー 1
 62
   250
420
  2299925
440
 33554687
100
AcDbHatch
 10
0.0
 20
0.0
 30
0.0
210
0.0
220
0.0
230
1.0
  2
SOLID
 70
     1
 71
     1
 91
        1
 92
        1
 93
        1
 72
     4
 94
        3
 73
     0
 74
     0
 95
       62
 96
       58
 40
0.0
 40
0.0
 40
0.0
 40
0.0
 40
1.0
 40
1.0
 40
1.0
 40
2.0
 40
2.0
 40
2.0
 40
3.0
 40
3.0
 40
3.0
 40
4.0
 40
4.0
 40
4.0
 40
5.0
 40
5.0
 40
5.0
 40
6.0
 40
6.0
 40
6.0
 40
7.0
 40
7.0
 40
7.0
 40
8.0
 40
8.0
 40
8.0
 40
9.0
 40
9.0
 40
9.0
 40
10.0
 40
10.0
 40
10.0
 40
11.0
 40
11.0
 40
11.0
 40
12.0
 40
12.0
 40
12.0
 40
13.0
 40
13.0
 40
13.0
 40
14.0
 40
14.0
 40
14.0
 40
15.0
 40
15.0
 40
15.0
 40
16.0
 40
16.0
 40
16.0
 40
17.0
 40
17.0
 40
17.0
 40
18.0
 40
18.0
 40
18.0
 40
19.0
 40
19.0
 40
19.0
 40
19.0
 10
120.6531005557742
 20
-153.8341932124095
 10
120.6531005557742
 20
-153.9368570578699
 10
120.6303629255716
 20
-154.171812569964
 10
120.4295138587815
 20
-154.3065158034372
 10
120.3085910072492
 20
-154.386442018695
 10
120.2011040281094
 20
-154.3909206428258
 10
120.1098089977503
 20
-154.3953992669567
 10
120.1098089977503
 20
-154.3953992669567
 10
120.1098089977503
 20
-154.1583766975715
 10
120.1098089977503
 20
-154.1583766975715
 10
120.1897352130081
 20
-154.1559651307318
 10
120.4432942407225
 20
-154.1445963156305
 10
120.4432942407225
 20
-153.8386718365403
 10
120.4432942407225
 20
-153.6905327306746
 10
120.3678466495955
 20
-153.5258571664796
 10
120.1211778128516
 20
-153.5258571664796
 10
119.9957763371885
 20
-153.5258571664796
 10
119.9434108858127
 20
-153.5671983123026
 10
119.9089599309602
 20
-153.6013047576066
 10
119.8290337157024
 20
-153.6812309728644
 10
119.81559784331
 20
-153.8066324485275
 10
119.81559784331
 20
-153.8662326004223
 10
119.81559784331
 20
-153.8865586637853
 10
119.8176649006011
 20
-153.9254882427686
 10
119.8224880342805
 20
-153.9551160639417
 10
119.8224880342805
 20
-153.9551160639417
 10
119.6123372096802
 20
-153.9551160639417
 10
119.6123372096802
 20
-153.9551160639417
 10
119.6192274006507
 20
-153.9137749181187
 10
119.6212944579419
 20
-153.8682996577135
 10
119.6212944579419
 20
-153.861409466743
 10
119.6212944579419
 20
-153.7907850092953
 10
119.5985568277392
 20
-153.5761555605643
 10
119.3429307427337
 20
-153.5761555605643
 10
119.1513834337538
 20
-153.5761555605643
 10
119.0921277914075
 20
-153.717748985008
 10
119.0921277914075
 20
-153.8366047792492
 10
119.0921277914075
 20
-154.1218586854278
 10
119.3429307427337
 20
-154.1308159336895
 10
119.4207899007003
 20
-154.1352945578203
 10
119.4207899007003
 20
-154.1352945578203
 10
119.4207899007003
 20
-154.3544026306822
 10
119.4207899007003
 20
-154.3544026306822
 10
119.2860866672271
 20
-154.3454453824206
 10
118.8795653999676
 20
-154.3154730516989
 10
118.8795653999676
 20
-153.8228243973082
 10
118.8795653999676
 20
-153.5809786942436
 10
119.0166802002805
 20
-153.3205294755587
 10
119.3360405517632
 20
-153.3205294755587
 10
119.5368896185533
 20
-153.3205294755587
 10
119.6261175916212
 20
-153.4231933210192
 10
119.692263424938
 20
-153.530680300159
 10
119.7218912461112
 20
-153.4645344668422
 10
119.8087076523395
 20
-153.2681640241829
 10
120.1077419404592
 20
-153.2681640241829
 10
120.4729220618956
 20
-153.2681640241829
 10
120.6531005557742
 20
-153.5351589242898
 10
120.6531005557742
 20
-153.8341932124095
 97
        0
 97
        1
330
A6
 75
     2
 76
     1
 98
        1
 10
0.0
 20
0.0
450
        0
451
        0
460
0.0
461
0.0
452
        0
462
0.0
453
        0
470

  0
ENDBLK
  5
A5
330
A2
100
AcDbEntity
  8
0
100
AcDbBlockEnd
  0
BLOCK
  5
AD
330
AB
100
AcDbEntity
  8
0
100
AcDbBlockBegin
  2
Block_5
 70
     0
 10
0.0
 20
0.0
 30
0.0
  3
Block_5
  1

  0
INSERT
  5
B0
330
AB
100
AcDbEntity
  8
レイヤー 1
100
AcDbBlockReference
  2
Block_6
 10
0.0
 20
0.0
 30
0.0
  0
ENDBLK
  5
AE
330
AB
100
AcDbEntity
  8
0
100
AcDbBlockEnd
  0
BLOCK
  5
B1
330
AF
100
AcDbEntity
  8
0
100
AcDbBlockBegin
  2
Block_6
 70
     0
 10
0.0
 20
0.0
 30
0.0
  3
Block_6
  1

  0
SPLINE
  5
B3
330
AF
100
AcDbEntity
  8
レイヤー 1
100
AcDbSpline
210
0.0
220
0.0
230
1.0
 70
     9
 71
     3
 72
    17
 73
    13
 74
     0
 42
0.0000000001
 43
0.0000000001
 40
0.0
 40
0.0
 40
0.0
 40
0.0
 40
1.0
 40
1.0
 40
1.0
 40
2.0
 40
2.0
 40
2.0
 40
3.0
 40
3.0
 40
3.0
 40
4.0
 40
4.0
 40
4.0
 40
4.0
 10
119.7260253606935
 20
-150.0456217072803
 30
0.0
 10
119.7260253606935
 20
-150.3487901099822
 30
0.0
 10
119.9544351913655
 20
-150.3928873321934
 30
0.0
 10
120.0798366670286
 20
-150.3928873321934
 30
0.0
 10
120.2693169187174
 20
-150.3928873321934
 30
0.0
 10
120.4450167884651
 20
-150.2826442766654
 30
0.0
 10
120.4450167884651
 20
-150.0700818852255
 30
0.0
 10
120.4450167884651
 20
-149.9305555180729
 30
0.0
 10
120.381282521988
 20
-149.7279839035402
 30
0.0
 10
120.0729464760581
 20
-149.7279839035402
 30
0.0
 10
119.8311007729936
 20
-149.7279839035402
 30
0.0
 10
119.7260253606935
 20
-149.8892143722499
 30
0.0
 10
119.7260253606935
 20
-150.0456217072803
 30
0.0
  0
SPLINE
  5
B4
330
AF
100
AcDbEntity
  8
レイヤー 1
100
AcDbSpline
210
0.0
220
0.0
230
1.0
 70
     9
 71
     3
 72
    32
 73
    28
 74
     0
 42
0.0000000001
 43
0.0000000001
 40
0.0
 40
0.0
 40
0.0
 40
0.0
 40
1.0
 40
1.0
 40
1.0
 40
2.0
 40
2.0
 40
2.0
 40
3.0
 40
3.0
 40
3.0
 40
4.0
 40
4.0
 40
4.0
 40
5.0
 40
5.0
 40
5.0
 40
6.0
 40
6.0
 40
6.0
 40
7.0
 40
7.0
 40
7.0
 40
8.0
 40
8.0
 40
8.0
 40
9.0
 40
9.0
 40
9.0
 40
9.0
 10
120.6527560462257
 20
-150.0652587515462
 30
0.0
 10
120.6527560462257
 20
-150.6616047800429
 30
0.0
 10
120.0546874699863
 20
-150.6712510474016
 30
0.0
 10
119.8242105820231
 20
-150.6712510474016
 30
0.0
 10
119.5754746879881
 20
-150.6712510474016
 30
0.0
 10
118.8771538331279
 20
-150.649202436296
 30
0.0
 10
118.8771538331279
 20
-150.021161529335
 30
0.0
 10
118.8771538331279
 20
-149.821001481642
 30
0.0
 10
118.9522569147064
 20
-149.5371256136574
 30
0.0
 10
119.3105468451723
 20
-149.4933729009947
 30
0.0
 10
119.3105468451723
 20
-149.4933729009947
 30
0.0
 10
119.3105468451723
 20
-149.7403862472871
 30
0.0
 10
119.3105468451723
 20
-149.7403862472871
 30
0.0
 10
119.2492241455349
 20
-149.7524440814855
 30
0.0
 10
119.0893717150193
 20
-149.7889620936291
 30
0.0
 10
119.0893717150193
 20
-150.0235730961746
 30
0.0
 10
119.0893717150193
 20
-150.3608479441806
 30
0.0
 10
119.4431830213545
 20
-150.4073567332315
 30
0.0
 10
119.6643581515075
 20
-150.4218261342695
 30
0.0
 10
119.5799533121189
 20
-150.3143391551297
 30
0.0
 10
119.5162190456418
 20
-150.2364799971631
 30
0.0
 10
119.5162190456418
 20
-150.0259846630143
 30
0.0
 10
119.5162190456418
 20
-149.8182454052537
 30
0.0
 10
119.6326632730432
 20
-149.4689127230494
 30
0.0
 10
120.070879418767
 20
-149.4689127230494
 30
0.0
 10
120.415388967292
 20
-149.4689127230494
 30
0.0
 10
120.6527560462257
 20
-149.6983560823671
 30
0.0
 10
120.6527560462257
 20
-150.0652587515462
 30
0.0
  0
HATCH
  5
B5
330
AF
100
AcDbEntity
  8
レイヤー 1
 62
   250
420
  2299925
440
 33554687
100
AcDbHatch
 10
0.0
 20
0.0
 30
0.0
210
0.0
220
0.0
230
1.0
  2
SOLID
 70
     1
 71
     1
 91
        2
 92
        1
 93
        1
 72
     4
 94
        3
 73
     0
 74
     0
 95
       17
 96
       13
 40
0.0
 40
0.0
 40
0.0
 40
0.0
 40
1.0
 40
1.0
 40
1.0
 40
2.0
 40
2.0
 40
2.0
 40
3.0
 40
3.0
 40
3.0
 40
4.0
 40
4.0
 40
4.0
 40
4.0
 10
119.7260253606935
 20
-150.0456217072803
 10
119.7260253606935
 20
-150.3487901099822
 10
119.9544351913655
 20
-150.3928873321934
 10
120.0798366670286
 20
-150.3928873321934
 10
120.2693169187174
 20
-150.3928873321934
 10
120.4450167884651
 20
-150.2826442766654
 10
120.4450167884651
 20
-150.0700818852255
 10
120.4450167884651
 20
-149.9305555180729
 10
120.381282521988
 20
-149.7279839035402
 10
120.0729464760581
 20
-149.7279839035402
 10
119.8311007729936
 20
-149.7279839035402
 10
119.7260253606935
 20
-149.8892143722499
 10
119.7260253606935
 20
-150.0456217072803
 97
        0
 97
        1
330
B3
 92
        1
 93
        1
 72
     4
 94
        3
 73
     0
 74
     0
 95
       32
 96
       28
 40
0.0
 40
0.0
 40
0.0
 40
0.0
 40
1.0
 40
1.0
 40
1.0
 40
2.0
 40
2.0
 40
2.0
 40
3.0
 40
3.0
 40
3.0
 40
4.0
 40
4.0
 40
4.0
 40
5.0
 40
5.0
 40
5.0
 40
6.0
 40
6.0
 40
6.0
 40
7.0
 40
7.0
 40
7.0
 40
8.0
 40
8.0
 40
8.0
 40
9.0
 40
9.0
 40
9.0
 40
9.0
 10
120.6527560462257
 20
-150.0652587515462
 10
120.6527560462257
 20
-150.6616047800429
 10
120.0546874699863
 20
-150.6712510474016
 10
119.8242105820231
 20
-150.6712510474016
 10
119.5754746879881
 20
-150.6712510474016
 10
118.8771538331279
 20
-150.649202436296
 10
118.8771538331279
 20
-150.021161529335
 10
118.8771538331279
 20
-149.821001481642
 10
118.9522569147064
 20
-149.5371256136574
 10
119.3105468451723
 20
-149.4933729009947
 10
119.3105468451723
 20
-149.4933729009947
 10
119.3105468451723
 20
-149.7403862472871
 10
119.3105468451723
 20
-149.7403862472871
 10
119.2492241455349
 20
-149.7524440814855
 10
119.0893717150193
 20
-149.7889620936291
 10
119.0893717150193
 20
-150.0235730961746
 10
119.0893717150193
 20
-150.3608479441806
 10
119.4431830213545
 20
-150.4073567332315
 10
119.6643581515075
 20
-150.4218261342695
 10
119.5799533121189
 20
-150.3143391551297
 10
119.5162190456418
 20
-150.2364799971631
 10
119.5162190456418
 20
-150.0259846630143
 10
119.5162190456418
 20
-149.8182454052537
 10
119.6326632730432
 20
-149.4689127230494
 10
120.070879418767
 20
-149.4689127230494
 10
120.415388967292
 20
-149.4689127230494
 10
120.6527560462257
 20
-149.6983560823671
 10
120.6527560462257
 20
-150.0652587515462
 97
        0
 97
        1
330
B4
 75
     2
 76
     1
 98
        1
 10
0.0
 20
0.0
450
        0
451
        0
460
0.0
461
0.0
452
        0
462
0.0
453
        0
470

  0
SPLINE
  5
B6
330
AF
100
AcDbEntity
  8
レイヤー 1
100
AcDbSpline
210
0.0
220
0.0
230
1.0
 70
    11
 71
     3
 72
    17
 73
    13
 74
     0
 42
0.0000000001
 43
0.0000000001
 40
0.0
 40
0.0
 40
0.0
 40
0.0
 40
1.0
 40
1.0
 40
1.0
 40
2.0
 40
2.0
 40
2.0
 40
3.0
 40
3.0
 40
3.0
 40
4.0
 40
4.0
 40
4.0
 40
4.0
 10
120.5979790280102
 20
-149.2208658481114
 30
0.0
 10
120.5979790280102
 20
-149.2208658481114
 30
0.0
 10
120.3265055037725
 20
-149.2208658481114
 30
0.0
 10
120.3265055037725
 20
-149.2208658481114
 30
0.0
 10
120.3265055037725
 20
-149.2208658481114
 30
0.0
 10
120.3265055037725
 20
-148.9300997891563
 30
0.0
 10
120.3265055037725
 20
-148.9300997891563
 30
0.0
 10
120.3265055037725
 20
-148.9300997891563
 30
0.0
 10
120.5979790280102
 20
-148.9300997891563
 30
0.0
 10
120.5979790280102
 20
-148.9300997891563
 30
0.0
 10
120.5979790280102
 20
-148.9300997891563
 30
0.0
 10
120.5979790280102
 20
-149.2208658481114
 30
0.0
 10
120.5979790280102
 20
-149.2208658481114
 30
0.0
  0
HATCH
  5
B7
330
AF
100
AcDbEntity
  8
レイヤー 1
 62
   250
420
  2299925
440
 33554687
100
AcDbHatch
 10
0.0
 20
0.0
 30
0.0
210
0.0
220
0.0
230
1.0
  2
SOLID
 70
     1
 71
     1
 91
        1
 92
        1
 93
        1
 72
     4
 94
        3
 73
     0
 74
     0
 95
       17
 96
       13
 40
0.0
 40
0.0
 40
0.0
 40
0.0
 40
1.0
 40
1.0
 40
1.0
 40
2.0
 40
2.0
 40
2.0
 40
3.0
 40
3.0
 40
3.0
 40
4.0
 40
4.0
 40
4.0
 40
4.0
 10
120.5979790280102
 20
-149.2208658481114
 10
120.5979790280102
 20
-149.2208658481114
 10
120.3265055037725
 20
-149.2208658481114
 10
120.3265055037725
 20
-149.2208658481114
 10
120.3265055037725
 20
-149.2208658481114
 10
120.3265055037725
 20
-148.9300997891563
 10
120.3265055037725
 20
-148.9300997891563
 10
120.3265055037725
 20
-148.9300997891563
 10
120.5979790280102
 20
-148.9300997891563
 10
120.5979790280102
 20
-148.9300997891563
 10
120.5979790280102
 20
-148.9300997891563
 10
120.5979790280102
 20
-149.2208658481114
 10
120.5979790280102
 20
-149.2208658481114
 97
        0
 97
        1
330
B6
 75
     2
 76
     1
 98
        1
 10
0.0
 20
0.0
450
        0
451
        0
460
0.0
461
0.0
452
        0
462
0.0
453
        0
470

  0
SPLINE
  5
B8
330
AF
100
AcDbEntity
  8
レイヤー 1
100
AcDbSpline
210
0.0
220
0.0
230
1.0
 70
     9
 71
     3
 72
    53
 73
    49
 74
     0
 42
0.0000000001
 43
0.0000000001
 40
0.0
 40
0.0
 40
0.0
 40
0.0
 40
1.0
 40
1.0
 40
1.0
 40
2.0
 40
2.0
 40
2.0
 40
3.0
 40
3.0
 40
3.0
 40
4.0
 40
4.0
 40
4.0
 40
5.0
 40
5.0
 40
5.0
 40
6.0
 40
6.0
 40
6.0
 40
7.0
 40
7.0
 40
7.0
 40
8.0
 40
8.0
 40
8.0
 40
9.0
 40
9.0
 40
9.0
 40
10.0
 40
10.0
 40
10.0
 40
11.0
 40
11.0
 40
11.0
 40
12.0
 40
12.0
 40
12.0
 40
13.0
 40
13.0
 40
13.0
 40
14.0
 40
14.0
 40
14.0
 40
15.0
 40
15.0
 40
15.0
 40
16.0
 40
16.0
 40
16.0
 40
16.0
 10
120.6527560462257
 20
-148.1020710892765
 30
0.0
 10
120.6527560462257
 20
-148.1925048457644
 30
0.0
 10
120.6344970401538
 20
-148.3096380922629
 30
0.0
 10
120.5659396399974
 20
-148.4271158483099
 30
0.0
 10
120.4474283553048
 20
-148.6274481507772
 30
0.0
 10
120.305834930861
 20
-148.6519083287224
 30
0.0
 10
120.1893907034596
 20
-148.6737846850538
 30
0.0
 10
120.1893907034596
 20
-148.6737846850538
 30
0.0
 10
120.1893907034596
 20
-148.4172973261769
 30
0.0
 10
120.1893907034596
 20
-148.4172973261769
 30
0.0
 10
120.4040201521906
 20
-148.3537353144741
 30
0.0
 10
120.4360595402035
 20
-148.2071465015767
 30
0.0
 10
120.4360595402035
 20
-148.0994872676626
 30
0.0
 10
120.4360595402035
 20
-147.9382567989529
 30
0.0
 10
120.3285725610637
 20
-147.7622124196566
 30
0.0
 10
120.077425100189
 20
-147.7622124196566
 30
0.0
 10
119.8014729518204
 20
-147.7622124196566
 30
0.0
 10
119.7260253606935
 20
-147.9699516774172
 30
0.0
 10
119.7260253606935
 20
-148.1093057897956
 30
0.0
 10
119.7260253606935
 20
-148.1459960567135
 30
0.0
 10
119.7260253606935
 20
-148.3096380922629
 30
0.0
 10
119.8652072182976
 20
-148.4123019377233
 30
0.0
 10
119.8652072182976
 20
-148.4123019377233
 30
0.0
 10
119.8448811549346
 20
-148.6152180618045
 30
0.0
 10
119.8448811549346
 20
-148.6152180618045
 30
0.0
 10
119.8448811549346
 20
-148.6152180618045
 30
0.0
 10
118.9319308513434
 20
-148.4758639494262
 30
0.0
 10
118.9319308513434
 20
-148.4758639494262
 30
0.0
 10
118.9319308513434
 20
-148.4758639494262
 30
0.0
 10
118.9319308513434
 20
-147.5765217730017
 30
0.0
 10
118.9319308513434
 20
-147.5765217730017
 30
0.0
 10
118.9319308513434
 20
-147.5765217730017
 30
0.0
 10
119.1417371663951
 20
-147.5765217730017
 30
0.0
 10
119.1417371663951
 20
-147.5765217730017
 30
0.0
 10
119.1417371663951
 20
-147.5765217730017
 30
0.0
 10
119.1417371663951
 20
-148.2877617359315
 30
0.0
 10
119.1417371663951
 20
-148.2877617359315
 30
0.0
 10
119.1417371663951
 20
-148.2877617359315
 30
0.0
 10
119.5982123181907
 20
-148.363553836607
 30
0.0
 10
119.5982123181907
 20
-148.363553836607
 30
0.0
 10
119.5616943060471
 20
-148.2925848696109
 30
0.0
 10
119.5182861029329
 20
-148.1973279794437
 30
0.0
 10
119.5182861029329
 20
-148.060385433905
 30
0.0
 10
119.5182861029329
 20
-147.7672078081103
 30
0.0
 10
119.719135169723
 20
-147.4934949718072
 30
0.0
 10
120.057099036826
 20
-147.4934949718072
 30
0.0
 10
120.3995415280598
 20
-147.4934949718072
 30
0.0
 10
120.6527560462257
 20
-147.752566152298
 30
0.0
 10
120.6527560462257
 20
-148.1020710892765
 30
0.0
  0
HATCH
  5
B9
330
AF
100
AcDbEntity
  8
レイヤー 1
 62
   250
420
  2299925
440
 33554687
100
AcDbHatch
 10
0.0
 20
0.0
 30
0.0
210
0.0
220
0.0
230
1.0
  2
SOLID
 70
     1
 71
     1
 91
        1
 92
        1
 93
        1
 72
     4
 94
        3
 73
     0
 74
     0
 95
       53
 96
       49
 40
0.0
 40
0.0
 40
0.0
 40
0.0
 40
1.0
 40
1.0
 40
1.0
 40
2.0
 40
2.0
 40
2.0
 40
3.0
 40
3.0
 40
3.0
 40
4.0
 40
4.0
 40
4.0
 40
5.0
 40
5.0
 40
5.0
 40
6.0
 40
6.0
 40
6.0
 40
7.0
 40
7.0
 40
7.0
 40
8.0
 40
8.0
 40
8.0
 40
9.0
 40
9.0
 40
9.0
 40
10.0
 40
10.0
 40
10.0
 40
11.0
 40
11.0
 40
11.0
 40
12.0
 40
12.0
 40
12.0
 40
13.0
 40
13.0
 40
13.0
 40
14.0
 40
14.0
 40
14.0
 40
15.0
 40
15.0
 40
15.0
 40
16.0
 40
16.0
 40
16.0
 40
16.0
 10
120.6527560462257
 20
-148.1020710892765
 10
120.6527560462257
 20
-148.1925048457644
 10
120.6344970401538
 20
-148.3096380922629
 10
120.5659396399974
 20
-148.4271158483099
 10
120.4474283553048
 20
-148.6274481507772
 10
120.305834930861
 20
-148.6519083287224
 10
120.1893907034596
 20
-148.6737846850538
 10
120.1893907034596
 20
-148.6737846850538
 10
120.1893907034596
 20
-148.4172973261769
 10
120.1893907034596
 20
-148.4172973261769
 10
120.4040201521906
 20
-148.3537353144741
 10
120.4360595402035
 20
-148.2071465015767
 10
120.4360595402035
 20
-148.0994872676626
 10
120.4360595402035
 20
-147.9382567989529
 10
120.3285725610637
 20
-147.7622124196566
 10
120.077425100189
 20
-147.7622124196566
 10
119.8014729518204
 20
-147.7622124196566
 10
119.7260253606935
 20
-147.9699516774172
 10
119.7260253606935
 20
-148.1093057897956
 10
119.7260253606935
 20
-148.1459960567135
 10
119.7260253606935
 20
-148.3096380922629
 10
119.8652072182976
 20
-148.4123019377233
 10
119.8652072182976
 20
-148.4123019377233
 10
119.8448811549346
 20
-148.6152180618045
 10
119.8448811549346
 20
-148.6152180618045
 10
119.8448811549346
 20
-148.6152180618045
 10
118.9319308513434
 20
-148.4758639494262
 10
118.9319308513434
 20
-148.4758639494262
 10
118.9319308513434
 20
-148.4758639494262
 10
118.9319308513434
 20
-147.5765217730017
 10
118.9319308513434
 20
-147.5765217730017
 10
118.9319308513434
 20
-147.5765217730017
 10
119.1417371663951
 20
-147.5765217730017
 10
119.1417371663951
 20
-147.5765217730017
 10
119.1417371663951
 20
-147.5765217730017
 10
119.1417371663951
 20
-148.2877617359315
 10
119.1417371663951
 20
-148.2877617359315
 10
119.1417371663951
 20
-148.2877617359315
 10
119.5982123181907
 20
-148.363553836607
 10
119.5982123181907
 20
-148.363553836607
 10
119.5616943060471
 20
-148.2925848696109
 10
119.5182861029329
 20
-148.1973279794437
 10
119.5182861029329
 20
-148.060385433905
 10
119.5182861029329
 20
-147.7672078081103
 10
119.719135169723
 20
-147.4934949718072
 10
120.057099036826
 20
-147.4934949718072
 10
120.3995415280598
 20
-147.4934949718072
 10
120.6527560462257
 20
-147.752566152298
 10
120.6527560462257
 20
-148.1020710892765
 97
        0
 97
        1
330
B8
 75
     2
 76
     1
 98
        1
 10
0.0
 20
0.0
450
        0
451
        0
460
0.0
461
0.0
452
        0
462
0.0
453
        0
470

  0
ENDBLK
  5
B2
330
AF
100
AcDbEntity
  8
0
100
AcDbBlockEnd
  0
BLOCK
  5
BC
330
BA
100
AcDbEntity
  8
0
100
AcDbBlockBegin
  2
Block_7
 70
     0
 10
0.0
 20
0.0
 30
0.0
  3
Block_7
  1

  0
LINE
  5
BE
330
BA
100
AcDbEntity
  8
レイヤー 1
 62
   250
420
  2299925
370
     9
100
AcDbLine
 10
99.44858739351538
 20
-141.825564097573
 30
0.0
 11
117.4486854445706
 21
-141.825564097573
 31
0.0
  0
LINE
  5
BF
330
BA
100
AcDbEntity
  8
レイヤー 1
 62
   250
420
  2299925
370
     9
100
AcDbLine
 10
99.44858739351538
 20
-143.2855701714363
 30
0.0
 11
99.44858739351538
 21
-140.8257919008571
 31
0.0
  0
LINE
  5
C0
330
BA
100
AcDbEntity
  8
レイヤー 1
 62
   250
420
  2299925
370
     9
100
AcDbLine
 10
117.4486854445706
 20
-143.2855701714363
 30
0.0
 11
117.4486854445706
 21
-140.8257919008571
 31
0.0
  0
INSERT
  5
C2
330
BA
100
AcDbEntity
  8
レイヤー 1
100
AcDbBlockReference
  2
Block_8
 10
0.0
 20
0.0
 30
0.0
  0
ENDBLK
  5
BD
330
BA
100
AcDbEntity
  8
0
100
AcDbBlockEnd
  0
BLOCK
  5
C3
330
C1
100
AcDbEntity
  8
0
100
AcDbBlockBegin
  2
Block_8
 70
     0
 10
0.0
 20
0.0
 30
0.0
  3
Block_8
  1

  0
INSERT
  5
C6
330
C1
100
AcDbEntity
  8
レイヤー 1
100
AcDbBlockReference
  2
Block_9
 10
0.0
 20
0.0
 30
0.0
  0
ENDBLK
  5
C4
330
C1
100
AcDbEntity
  8
0
100
AcDbBlockEnd
  0
BLOCK
  5
C7
330
C5
100
AcDbEntity
  8
0
100
AcDbBlockBegin
  2
Block_9
 70
     0
 10
0.0
 20
0.0
 30
0.0
  3
Block_9
  1

  0
SPLINE
  5
C9
330
C5
100
AcDbEntity
  8
レイヤー 1
100
AcDbSpline
210
0.0
220
0.0
230
1.0
 70
    11
 71
     3
 72
    26
 73
    22
 74
     0
 42
0.0000000001
 43
0.0000000001
 40
0.0
 40
0.0
 40
0.0
 40
0.0
 40
1.0
 40
1.0
 40
1.0
 40
2.0
 40
2.0
 40
2.0
 40
3.0
 40
3.0
 40
3.0
 40
4.0
 40
4.0
 40
4.0
 40
5.0
 40
5.0
 40
5.0
 40
6.0
 40
6.0
 40
6.0
 40
7.0
 40
7.0
 40
7.0
 40
7.0
 10
107.666813124125
 20
-140.5635131484529
 30
0.0
 10
107.666813124125
 20
-140.5635131484529
 30
0.0
 10
107.666813124125
 20
-139.3721991296535
 30
0.0
 10
107.666813124125
 20
-139.3721991296535
 30
0.0
 10
107.666813124125
 20
-139.3721991296535
 30
0.0
 10
107.2854410539078
 20
-139.3721991296535
 30
0.0
 10
107.2854410539078
 20
-139.3721991296535
 30
0.0
 10
107.2854410539078
 20
-139.3721991296535
 30
0.0
 10
107.2854410539078
 20
-139.2123466991379
 30
0.0
 10
107.2854410539078
 20
-139.2123466991379
 30
0.0
 10
107.6692246909646
 20
-139.1963270051315
 30
0.0
 10
107.7229681805345
 20
-139.0206271353837
 30
0.0
 10
107.7570746258385
 20
-138.897464971786
 30
0.0
 10
107.7570746258385
 20
-138.897464971786
 30
0.0
 10
107.9258843046157
 20
-138.897464971786
 30
0.0
 10
107.9258843046157
 20
-138.897464971786
 30
0.0
 10
107.9258843046157
 20
-138.897464971786
 30
0.0
 10
107.9258843046157
 20
-140.5635131484529
 30
0.0
 10
107.9258843046157
 20
-140.5635131484529
 30
0.0
 10
107.9258843046157
 20
-140.5635131484529
 30
0.0
 10
107.666813124125
 20
-140.5635131484529
 30
0.0
 10
107.666813124125
 20
-140.5635131484529
 30
0.0
  0
HATCH
  5
CA
330
C5
100
AcDbEntity
  8
レイヤー 1
 62
   250
420
  2299925
440
 33554687
100
AcDbHatch
 10
0.0
 20
0.0
 30
0.0
210
0.0
220
0.0
230
1.0
  2
SOLID
 70
     1
 71
     1
 91
        1
 92
        1
 93
        1
 72
     4
 94
        3
 73
     0
 74
     0
 95
       26
 96
       22
 40
0.0
 40
0.0
 40
0.0
 40
0.0
 40
1.0
 40
1.0
 40
1.0
 40
2.0
 40
2.0
 40
2.0
 40
3.0
 40
3.0
 40
3.0
 40
4.0
 40
4.0
 40
4.0
 40
5.0
 40
5.0
 40
5.0
 40
6.0
 40
6.0
 40
6.0
 40
7.0
 40
7.0
 40
7.0
 40
7.0
 10
107.666813124125
 20
-140.5635131484529
 10
107.666813124125
 20
-140.5635131484529
 10
107.666813124125
 20
-139.3721991296535
 10
107.666813124125
 20
-139.3721991296535
 10
107.666813124125
 20
-139.3721991296535
 10
107.2854410539078
 20
-139.3721991296535
 10
107.2854410539078
 20
-139.3721991296535
 10
107.2854410539078
 20
-139.3721991296535
 10
107.2854410539078
 20
-139.2123466991379
 10
107.2854410539078
 20
-139.2123466991379
 10
107.6692246909646
 20
-139.1963270051315
 10
107.7229681805345
 20
-139.0206271353837
 10
107.7570746258385
 20
-138.897464971786
 10
107.7570746258385
 20
-138.897464971786
 10
107.9258843046157
 20
-138.897464971786
 10
107.9258843046157
 20
-138.897464971786
 10
107.9258843046157
 20
-138.897464971786
 10
107.9258843046157
 20
-140.5635131484529
 10
107.9258843046157
 20
-140.5635131484529
 10
107.9258843046157
 20
-140.5635131484529
 10
107.666813124125
 20
-140.5635131484529
 10
107.666813124125
 20
-140.5635131484529
 97
        0
 97
        1
330
C9
 75
     2
 76
     1
 98
        1
 10
0.0
 20
0.0
450
        0
451
        0
460
0.0
461
0.0
452
        0
462
0.0
453
        0
470

  0
SPLINE
  5
CB
330
C5
100
AcDbEntity
  8
レイヤー 1
100
AcDbSpline
210
0.0
220
0.0
230
1.0
 70
     9
 71
     3
 72
    17
 73
    13
 74
     0
 42
0.0000000001
 43
0.0000000001
 40
0.0
 40
0.0
 40
0.0
 40
0.0
 40
1.0
 40
1.0
 40
1.0
 40
2.0
 40
2.0
 40
2.0
 40
3.0
 40
3.0
 40
3.0
 40
4.0
 40
4.0
 40
4.0
 40
4.0
 10
109.0806803112715
 20
-139.0524942686223
 30
0.0
 10
108.8901665309371
 20
-139.0524942686223
 30
0.0
 10
108.7923258191561
 20
-139.155330368857
 30
0.0
 10
108.7923258191561
 20
-139.3014024174316
 30
0.0
 10
108.7923258191561
 20
-139.4336940840652
 30
0.0
 10
108.8753526203506
 20
-139.5615071265679
 30
0.0
 10
109.0806803112715
 20
-139.5615071265679
 30
0.0
 10
109.2860080021924
 20
-139.5615071265679
 30
0.0
 10
109.3690348033869
 20
-139.4336940840652
 30
0.0
 10
109.3690348033869
 20
-139.3014024174316
 30
0.0
 10
109.3690348033869
 20
-139.155330368857
 30
0.0
 10
109.2687825247661
 20
-139.0524942686223
 30
0.0
 10
109.0806803112715
 20
-139.0524942686223
 30
0.0
  0
SPLINE
  5
CC
330
C5
100
AcDbEntity
  8
レイヤー 1
100
AcDbSpline
210
0.0
220
0.0
230
1.0
 70
     9
 71
     3
 72
    17
 73
    13
 74
     0
 42
0.0000000001
 43
0.0000000001
 40
0.0
 40
0.0
 40
0.0
 40
0.0
 40
1.0
 40
1.0
 40
1.0
 40
2.0
 40
2.0
 40
2.0
 40
3.0
 40
3.0
 40
3.0
 40
4.0
 40
4.0
 40
4.0
 40
4.0
 10
109.0806803112715
 20
-139.7645955054234
 30
0.0
 10
108.9142821993339
 20
-139.7645955054234
 30
0.0
 10
108.7385823295862
 20
-139.8583021026222
 30
0.0
 10
108.7385823295862
 20
-140.0774101754841
 30
0.0
 10
108.7385823295862
 20
-140.2987575604114
 30
0.0
 10
108.8849988877093
 20
-140.4083115968423
 30
0.0
 10
109.0806803112715
 20
-140.4083115968423
 30
0.0
 10
109.2956542695511
 20
-140.4083115968423
 30
0.0
 10
109.4227782929568
 20
-140.2758476754345
 30
0.0
 10
109.4227782929568
 20
-140.0843003664546
 30
0.0
 10
109.4227782929568
 20
-139.8445217206812
 30
0.0
 10
109.2346760794622
 20
-139.7645955054234
 30
0.0
 10
109.0806803112715
 20
-139.7645955054234
 30
0.0
  0
SPLINE
  5
CD
330
C5
100
AcDbEntity
  8
レイヤー 1
100
AcDbSpline
210
0.0
220
0.0
230
1.0
 70
     9
 71
     3
 72
    29
 73
    25
 74
     0
 42
0.0000000001
 43
0.0000000001
 40
0.0
 40
0.0
 40
0.0
 40
0.0
 40
1.0
 40
1.0
 40
1.0
 40
2.0
 40
2.0
 40
2.0
 40
3.0
 40
3.0
 40
3.0
 40
4.0
 40
4.0
 40
4.0
 40
5.0
 40
5.0
 40
5.0
 40
6.0
 40
6.0
 40
6.0
 40
7.0
 40
7.0
 40
7.0
 40
8.0
 40
8.0
 40
8.0
 40
8.0
 10
109.0806803112715
 20
-140.6182901666683
 30
0.0
 10
108.7726887748901
 20
-140.6182901666683
 30
0.0
 10
108.4795111490954
 20
-140.4699788060283
 30
0.0
 10
108.4795111490954
 20
-140.0932576147162
 30
0.0
 10
108.4795111490954
 20
-139.8171332115735
 30
0.0
 10
108.6431531846447
 20
-139.714469366113
 30
0.0
 10
108.7654540743711
 20
-139.6483235327963
 30
0.0
 10
108.6211045735391
 20
-139.5844170115448
 30
0.0
 10
108.5332546386653
 20
-139.4610825931729
 30
0.0
 10
108.5332546386653
 20
-139.2876220354906
 30
0.0
 10
108.5332546386653
 20
-138.9909993142106
 30
0.0
 10
108.7630425075314
 20
-138.844927265636
 30
0.0
 10
109.0806803112715
 20
-138.844927265636
 30
0.0
 10
109.4079643823702
 20
-138.844927265636
 30
0.0
 10
109.6281059838777
 20
-139.0001288172465
 30
0.0
 10
109.6281059838777
 20
-139.2876220354906
 30
0.0
 10
109.6281059838777
 20
-139.4610825931729
 30
0.0
 10
109.5374999726156
 20
-139.5844170115448
 30
0.0
 10
109.3934949813322
 20
-139.6483235327963
 30
0.0
 10
109.4961588267926
 20
-139.7031005510117
 30
0.0
 10
109.6794379066079
 20
-139.8057643964721
 30
0.0
 10
109.6794379066079
 20
-140.0887789905854
 30
0.0
 10
109.6794379066079
 20
-140.492716436231
 30
0.0
 10
109.35663245964
 20
-140.6182901666683
 30
0.0
 10
109.0806803112715
 20
-140.6182901666683
 30
0.0
  0
HATCH
  5
CE
330
C5
100
AcDbEntity
  8
レイヤー 1
 62
   250
420
  2299925
440
 33554687
100
AcDbHatch
 10
0.0
 20
0.0
 30
0.0
210
0.0
220
0.0
230
1.0
  2
SOLID
 70
     1
 71
     1
 91
        3
 92
        1
 93
        1
 72
     4
 94
        3
 73
     0
 74
     0
 95
       17
 96
       13
 40
0.0
 40
0.0
 40
0.0
 40
0.0
 40
1.0
 40
1.0
 40
1.0
 40
2.0
 40
2.0
 40
2.0
 40
3.0
 40
3.0
 40
3.0
 40
4.0
 40
4.0
 40
4.0
 40
4.0
 10
109.0806803112715
 20
-139.0524942686223
 10
108.8901665309371
 20
-139.0524942686223
 10
108.7923258191561
 20
-139.155330368857
 10
108.7923258191561
 20
-139.3014024174316
 10
108.7923258191561
 20
-139.4336940840652
 10
108.8753526203506
 20
-139.5615071265679
 10
109.0806803112715
 20
-139.5615071265679
 10
109.2860080021924
 20
-139.5615071265679
 10
109.3690348033869
 20
-139.4336940840652
 10
109.3690348033869
 20
-139.3014024174316
 10
109.3690348033869
 20
-139.155330368857
 10
109.2687825247661
 20
-139.0524942686223
 10
109.0806803112715
 20
-139.0524942686223
 97
        0
 97
        1
330
CB
 92
        1
 93
        1
 72
     4
 94
        3
 73
     0
 74
     0
 95
       17
 96
       13
 40
0.0
 40
0.0
 40
0.0
 40
0.0
 40
1.0
 40
1.0
 40
1.0
 40
2.0
 40
2.0
 40
2.0
 40
3.0
 40
3.0
 40
3.0
 40
4.0
 40
4.0
 40
4.0
 40
4.0
 10
109.0806803112715
 20
-139.7645955054234
 10
108.9142821993339
 20
-139.7645955054234
 10
108.7385823295862
 20
-139.8583021026222
 10
108.7385823295862
 20
-140.0774101754841
 10
108.7385823295862
 20
-140.2987575604114
 10
108.8849988877093
 20
-140.4083115968423
 10
109.0806803112715
 20
-140.4083115968423
 10
109.2956542695511
 20
-140.4083115968423
 10
109.4227782929568
 20
-140.2758476754345
 10
109.4227782929568
 20
-140.0843003664546
 10
109.4227782929568
 20
-139.8445217206812
 10
109.2346760794622
 20
-139.7645955054234
 10
109.0806803112715
 20
-139.7645955054234
 97
        0
 97
        1
330
CC
 92
        1
 93
        1
 72
     4
 94
        3
 73
     0
 74
     0
 95
       29
 96
       25
 40
0.0
 40
0.0
 40
0.0
 40
0.0
 40
1.0
 40
1.0
 40
1.0
 40
2.0
 40
2.0
 40
2.0
 40
3.0
 40
3.0
 40
3.0
 40
4.0
 40
4.0
 40
4.0
 40
5.0
 40
5.0
 40
5.0
 40
6.0
 40
6.0
 40
6.0
 40
7.0
 40
7.0
 40
7.0
 40
8.0
 40
8.0
 40
8.0
 40
8.0
 10
109.0806803112715
 20
-140.6182901666683
 10
108.7726887748901
 20
-140.6182901666683
 10
108.4795111490954
 20
-140.4699788060283
 10
108.4795111490954
 20
-140.0932576147162
 10
108.4795111490954
 20
-139.8171332115735
 10
108.6431531846447
 20
-139.714469366113
 10
108.7654540743711
 20
-139.6483235327963
 10
108.6211045735391
 20
-139.5844170115448
 10
108.5332546386653
 20
-139.4610825931729
 10
108.5332546386653
 20
-139.2876220354906
 10
108.5332546386653
 20
-138.9909993142106
 10
108.7630425075314
 20
-138.844927265636
 10
109.0806803112715
 20
-138.844927265636
 10
109.4079643823702
 20
-138.844927265636
 10
109.6281059838777
 20
-139.0001288172465
 10
109.6281059838777
 20
-139.2876220354906
 10
109.6281059838777
 20
-139.4610825931729
 10
109.5374999726156
 20
-139.5844170115448
 10
109.3934949813322
 20
-139.6483235327963
 10
109.4961588267926
 20
-139.7031005510117
 10
109.6794379066079
 20
-139.8057643964721
 10
109.6794379066079
 20
-140.0887789905854
 10
109.6794379066079
 20
-140.492716436231
 10
109.35663245964
 20
-140.6182901666683
 10
109.0806803112715
 20
-140.6182901666683
 97
        0
 97
        1
330
CD
 75
     2
 76
     1
 98
        1
 10
0.0
 20
0.0
450
        0
451
        0
460
0.0
461
0.0
452
        0
462
0.0
453
        0
470

  0
ENDBLK
  5
C8
330
C5
100
AcDbEntity
  8
0
100
AcDbBlockEnd
  0
BLOCK
  5
D1
330
CF
100
AcDbEntity
  8
0
100
AcDbBlockBegin
  2
Block_10
 70
     0
 10
0.0
 20
0.0
 30
0.0
  3
Block_10
  1

  0
LINE
  5
D3
330
CF
100
AcDbEntity
  8
レイヤー 1
 62
   250
420
  2299925
370
     9
100
AcDbLine
 10
99.44858739351538
 20
-159.3255992066655
 30
0.0
 11
106.4486157250983
 21
-159.3255992066655
 31
0.0
  0
LINE
  5
D4
330
CF
100
AcDbEntity
  8
レイヤー 1
 62
   250
420
  2299925
370
     9
100
AcDbLine
 10
99.44858739351538
 20
-157.8655578550254
 30
0.0
 11
99.44858739351538
 21
-160.3256889033733
 31
0.0
  0
LINE
  5
D5
330
CF
100
AcDbEntity
  8
レイヤー 1
 62
   250
420
  2299925
370
     9
100
AcDbLine
 10
106.4486157250983
 20
-157.8655578550254
 30
0.0
 11
106.4486157250983
 21
-160.3256889033733
 31
0.0
  0
INSERT
  5
D7
330
CF
100
AcDbEntity
  8
レイヤー 1
100
AcDbBlockReference
  2
Block_11
 10
0.0
 20
0.0
 30
0.0
  0
ENDBLK
  5
D2
330
CF
100
AcDbEntity
  8
0
100
AcDbBlockEnd
  0
BLOCK
  5
D8
330
D6
100
AcDbEntity
  8
0
100
AcDbBlockBegin
  2
Block_11
 70
     0
 10
0.0
 20
0.0
 30
0.0
  3
Block_11
  1

  0
SPLINE
  5
DA
330
D6
100
AcDbEntity
  8
レイヤー 1
100
AcDbSpline
210
0.0
220
0.0
230
1.0
 70
     9
 71
     3
 72
    26
 73
    22
 74
     0
 42
0.0000000001
 43
0.0000000001
 40
0.0
 40
0.0
 40
0.0
 40
0.0
 40
1.0
 40
1.0
 40
1.0
 40
2.0
 40
2.0
 40
2.0
 40
3.0
 40
3.0
 40
3.0
 40
4.0
 40
4.0
 40
4.0
 40
5.0
 40
5.0
 40
5.0
 40
6.0
 40
6.0
 40
6.0
 40
7.0
 40
7.0
 40
7.0
 40
7.0
 10
102.8073336874058
 20
-158.2394368093985
 30
0.0
 10
102.8073336874058
 20
-158.2394368093985
 30
0.0
 10
102.5517076024002
 20
-158.2394368093985
 30
0.0
 10
102.5517076024002
 20
-158.2394368093985
 30
0.0
 10
102.579096111508
 20
-157.9062960759748
 30
0.0
 10
102.7868353692686
 20
-157.3471570787187
 30
0.0
 10
103.2250515149923
 20
-156.8014539538552
 30
0.0
 10
103.2250515149923
 20
-156.8014539538552
 30
0.0
 10
102.321230714437
 20
-156.8014539538552
 30
0.0
 10
102.321230714437
 20
-156.8014539538552
 30
0.0
 10
102.321230714437
 20
-156.8014539538552
 30
0.0
 10
102.321230714437
 20
-156.5733886327316
 30
0.0
 10
102.321230714437
 20
-156.5733886327316
 30
0.0
 10
102.321230714437
 20
-156.5733886327316
 30
0.0
 10
103.4806775999979
 20
-156.5733886327316
 30
0.0
 10
103.4806775999979
 20
-156.5733886327316
 30
0.0
 10
103.4806775999979
 20
-156.5733886327316
 30
0.0
 10
103.4806775999979
 20
-156.8014539538552
 30
0.0
 10
103.4806775999979
 20
-156.8014539538552
 30
0.0
 10
103.1313449177935
 20
-157.1142686239159
 30
0.0
 10
102.8438516995494
 20
-157.7533338364297
 30
0.0
 10
102.8073336874058
 20
-158.2394368093985
 30
0.0
  0
HATCH
  5
DB
330
D6
100
AcDbEntity
  8
レイヤー 1
 62
   250
420
  2299925
440
 33554687
100
AcDbHatch
 10
0.0
 20
0.0
 30
0.0
210
0.0
220
0.0
230
1.0
  2
SOLID
 70
     1
 71
     1
 91
        1
 92
        1
 93
        1
 72
     4
 94
        3
 73
     0
 74
     0
 95
       26
 96
       22
 40
0.0
 40
0.0
 40
0.0
 40
0.0
 40
1.0
 40
1.0
 40
1.0
 40
2.0
 40
2.0
 40
2.0
 40
3.0
 40
3.0
 40
3.0
 40
4.0
 40
4.0
 40
4.0
 40
5.0
 40
5.0
 40
5.0
 40
6.0
 40
6.0
 40
6.0
 40
7.0
 40
7.0
 40
7.0
 40
7.0
 10
102.8073336874058
 20
-158.2394368093985
 10
102.8073336874058
 20
-158.2394368093985
 10
102.5517076024002
 20
-158.2394368093985
 10
102.5517076024002
 20
-158.2394368093985
 10
102.579096111508
 20
-157.9062960759748
 10
102.7868353692686
 20
-157.3471570787187
 10
103.2250515149923
 20
-156.8014539538552
 10
103.2250515149923
 20
-156.8014539538552
 10
102.321230714437
 20
-156.8014539538552
 10
102.321230714437
 20
-156.8014539538552
 10
102.321230714437
 20
-156.8014539538552
 10
102.321230714437
 20
-156.5733886327316
 10
102.321230714437
 20
-156.5733886327316
 10
102.321230714437
 20
-156.5733886327316
 10
103.4806775999979
 20
-156.5733886327316
 10
103.4806775999979
 20
-156.5733886327316
 10
103.4806775999979
 20
-156.5733886327316
 10
103.4806775999979
 20
-156.8014539538552
 10
103.4806775999979
 20
-156.8014539538552
 10
103.1313449177935
 20
-157.1142686239159
 10
102.8438516995494
 20
-157.7533338364297
 10
102.8073336874058
 20
-158.2394368093985
 97
        0
 97
        1
330
DA
 75
     2
 76
     1
 98
        1
 10
0.0
 20
0.0
450
        0
451
        0
460
0.0
461
0.0
452
        0
462
0.0
453
        0
470

  0
ENDBLK
  5
D9
330
D6
100
AcDbEntity
  8
0
100
AcDbBlockEnd
  0
BLOCK
  5
DE
330
DC
100
AcDbEntity
  8
0
100
AcDbBlockBegin
  2
Block_12
 70
     0
 10
0.0
 20
0.0
 30
0.0
  3
Block_12
  1

  0
LINE
  5
E0
330
DC
100
AcDbEntity
  8
レイヤー 1
  6
AI-Linetype-0
 62
   154
420
    23468
370
    25
100
AcDbLine
 10
98.81054348829701
 20
-145.0568472200558
 30
0.0
 11
98.81054348829701
 21
-153.0570761164681
 31
0.0
  0
LINE
  5
E2
330
DC
100
AcDbEntity
  8
レイヤー 1
 62
   250
420
  2299925
370
     9
100
AcDbLine
 10
98.58730571510053
 20
-153.0268217853514
 30
0.0
 11
97.72120101497447
 21
-153.5270606614781
 31
0.0
  0
LINE
  5
E3
330
DC
100
AcDbEntity
  8
レイヤー 1
 62
   250
420
  2299925
370
     9
100
AcDbLine
 10
98.58730571510053
 20
-153.0268217853514
 30
0.0
 11
94.01980591094348
 21
-157.5947773595829
 31
0.0
  0
LINE
  5
E4
330
DC
100
AcDbEntity
  8
レイヤー 1
 62
   250
420
  2299925
370
     9
100
AcDbLine
 10
98.58730571510053
 20
-153.0268217853514
 30
0.0
 11
98.0870668389738
 21
-153.8929264854774
 31
0.0
  0
INSERT
  5
E6
330
DC
100
AcDbEntity
  8
レイヤー 1
100
AcDbBlockReference
  2
Block_13
 10
0.0
 20
0.0
 30
0.0
  0
ENDBLK
  5
DF
330
DC
100
AcDbEntity
  8
0
100
AcDbBlockEnd
  0
BLOCK
  5
E7
330
E5
100
AcDbEntity
  8
0
100
AcDbBlockBegin
  2
Block_13
 70
     0
 10
0.0
 20
0.0
 30
0.0
  3
Block_13
  1

  0
INSERT
  5
EA
330
E5
100
AcDbEntity
  8
レイヤー 1
100
AcDbBlockReference
  2
Block_14
 10
0.0
 20
0.0
 30
0.0
  0
ENDBLK
  5
E8
330
E5
100
AcDbEntity
  8
0
100
AcDbBlockEnd
  0
BLOCK
  5
EB
330
E9
100
AcDbEntity
  8
0
100
AcDbBlockBegin
  2
Block_14
 70
     0
 10
0.0
 20
0.0
 30
0.0
  3
Block_14
  1

  0
SPLINE
  5
ED
330
E9
100
AcDbEntity
  8
レイヤー 1
100
AcDbSpline
210
0.0
220
0.0
230
1.0
 70
     9
 71
     3
 72
    17
 73
    13
 74
     0
 42
0.0000000001
 43
0.0000000001
 40
0.0
 40
0.0
 40
0.0
 40
0.0
 40
1.0
 40
1.0
 40
1.0
 40
2.0
 40
2.0
 40
2.0
 40
3.0
 40
3.0
 40
3.0
 40
4.0
 40
4.0
 40
4.0
 40
4.0
 10
88.1593044484463
 20
-159.4624457066622
 30
0.0
 10
88.14242348056856
 20
-159.4917290182868
 30
0.0
 10
88.09178057693539
 20
-159.585091105937
 30
0.0
 10
88.08110078093113
 20
-159.6040391311059
 30
0.0
 10
88.27161456126544
 20
-159.6632947734522
 30
0.0
 10
88.29262964372546
 20
-159.6694959453257
 30
0.0
 10
88.36463213936717
 20
-159.6970567092077
 30
0.0
 10
88.41975366713118
 20
-159.6102403029794
 30
0.0
 10
88.44283580688236
 20
-159.5361707500465
 30
0.0
 10
88.45764971746893
 20
-159.4624457066622
 30
0.0
 10
88.45764971746893
 20
-159.4624457066622
 30
0.0
 10
88.1593044484463
 20
-159.4624457066622
 30
0.0
 10
88.1593044484463
 20
-159.4624457066622
 30
0.0
  0
SPLINE
  5
EE
330
E9
100
AcDbEntity
  8
レイヤー 1
100
AcDbSpline
210
0.0
220
0.0
230
1.0
 70
    11
 71
     3
 72
    20
 73
    16
 74
     0
 42
0.0000000001
 43
0.0000000001
 40
0.0
 40
0.0
 40
0.0
 40
0.0
 40
1.0
 40
1.0
 40
1.0
 40
2.0
 40
2.0
 40
2.0
 40
3.0
 40
3.0
 40
3.0
 40
4.0
 40
4.0
 40
4.0
 40
5.0
 40
5.0
 40
5.0
 40
5.0
 10
88.09591469151769
 20
-158.611851631354
 30
0.0
 10
88.09591469151769
 20
-158.611851631354
 30
0.0
 10
88.06421981305339
 20
-158.611851631354
 30
0.0
 10
88.06421981305339
 20
-158.611851631354
 30
0.0
 10
88.11072860210426
 20
-158.7114148908777
 30
0.0
 10
88.14242348056856
 20
-158.791685615684
 30
0.0
 10
88.17618541632402
 20
-158.9184651295412
 30
0.0
 10
88.17618541632402
 20
-158.9184651295412
 30
0.0
 10
88.38358016453605
 20
-158.9184651295412
 30
0.0
 10
88.38358016453605
 20
-158.9184651295412
 30
0.0
 10
88.41527504300035
 20
-158.8254475514395
 30
0.0
 10
88.43870169230006
 20
-158.7410427120508
 30
0.0
 10
88.46178383205122
 20
-158.611851631354
 30
0.0
 10
88.46178383205122
 20
-158.611851631354
 30
0.0
 10
88.09591469151769
 20
-158.611851631354
 30
0.0
 10
88.09591469151769
 20
-158.611851631354
 30
0.0
  0
SPLINE
  5
EF
330
E9
100
AcDbEntity
  8
レイヤー 1
100
AcDbSpline
210
0.0
220
0.0
230
1.0
 70
     9
 71
     3
 72
   242
 73
   238
 74
     0
 42
0.0000000001
 43
0.0000000001
 40
0.0
 40
0.0
 40
0.0
 40
0.0
 40
1.0
 40
1.0
 40
1.0
 40
2.0
 40
2.0
 40
2.0
 40
3.0
 40
3.0
 40
3.0
 40
4.0
 40
4.0
 40
4.0
 40
5.0
 40
5.0
 40
5.0
 40
6.0
 40
6.0
 40
6.0
 40
7.0
 40
7.0
 40
7.0
 40
8.0
 40
8.0
 40
8.0
 40
9.0
 40
9.0
 40
9.0
 40
10.0
 40
10.0
 40
10.0
 40
11.0
 40
11.0
 40
11.0
 40
12.0
 40
12.0
 40
12.0
 40
13.0
 40
13.0
 40
13.0
 40
14.0
 40
14.0
 40
14.0
 40
15.0
 40
15.0
 40
15.0
 40
16.0
 40
16.0
 40
16.0
 40
17.0
 40
17.0
 40
17.0
 40
18.0
 40
18.0
 40
18.0
 40
19.0
 40
19.0
 40
19.0
 40
20.0
 40
20.0
 40
20.0
 40
21.0
 40
21.0
 40
21.0
 40
22.0
 40
22.0
 40
22.0
 40
23.0
 40
23.0
 40
23.0
 40
24.0
 40
24.0
 40
24.0
 40
25.0
 40
25.0
 40
25.0
 40
26.0
 40
26.0
 40
26.0
 40
27.0
 40
27.0
 40
27.0
 40
28.0
 40
28.0
 40
28.0
 40
29.0
 40
29.0
 40
29.0
 40
30.0
 40
30.0
 40
30.0
 40
31.0
 40
31.0
 40
31.0
 40
32.0
 40
32.0
 40
32.0
 40
33.0
 40
33.0
 40
33.0
 40
34.0
 40
34.0
 40
34.0
 40
35.0
 40
35.0
 40
35.0
 40
36.0
 40
36.0
 40
36.0
 40
37.0
 40
37.0
 40
37.0
 40
38.0
 40
38.0
 40
38.0
 40
39.0
 40
39.0
 40
39.0
 40
40.0
 40
40.0
 40
40.0
 40
41.0
 40
41.0
 40
41.0
 40
42.0
 40
42.0
 40
42.0
 40
43.0
 40
43.0
 40
43.0
 40
44.0
 40
44.0
 40
44.0
 40
45.0
 40
45.0
 40
45.0
 40
46.0
 40
46.0
 40
46.0
 40
47.0
 40
47.0
 40
47.0
 40
48.0
 40
48.0
 40
48.0
 40
49.0
 40
49.0
 40
49.0
 40
50.0
 40
50.0
 40
50.0
 40
51.0
 40
51.0
 40
51.0
 40
52.0
 40
52.0
 40
52.0
 40
53.0
 40
53.0
 40
53.0
 40
54.0
 40
54.0
 40
54.0
 40
55.0
 40
55.0
 40
55.0
 40
56.0
 40
56.0
 40
56.0
 40
57.0
 40
57.0
 40
57.0
 40
58.0
 40
58.0
 40
58.0
 40
59.0
 40
59.0
 40
59.0
 40
60.0
 40
60.0
 40
60.0
 40
61.0
 40
61.0
 40
61.0
 40
62.0
 40
62.0
 40
62.0
 40
63.0
 40
63.0
 40
63.0
 40
64.0
 40
64.0
 40
64.0
 40
65.0
 40
65.0
 40
65.0
 40
66.0
 40
66.0
 40
66.0
 40
67.0
 40
67.0
 40
67.0
 40
68.0
 40
68.0
 40
68.0
 40
69.0
 40
69.0
 40
69.0
 40
70.0
 40
70.0
 40
70.0
 40
71.0
 40
71.0
 40
71.0
 40
72.0
 40
72.0
 40
72.0
 40
73.0
 40
73.0
 40
73.0
 40
74.0
 40
74.0
 40
74.0
 40
75.0
 40
75.0
 40
75.0
 40
76.0
 40
76.0
 40
76.0
 40
77.0
 40
77.0
 40
77.0
 40
78.0
 40
78.0
 40
78.0
 40
79.0
 40
79.0
 40
79.0
 40
79.0
 10
88.72430010802727
 20
-159.0772840314112
 30
0.0
 10
88.72430010802727
 20
-159.0772840314112
 30
0.0
 10
88.47039657076434
 20
-159.0772840314112
 30
0.0
 10
88.47039657076434
 20
-159.0772840314112
 30
0.0
 10
88.47039657076434
 20
-159.0772840314112
 30
0.0
 10
88.19341089375027
 20
-159.0772840314112
 30
0.0
 10
88.19341089375027
 20
-159.0772840314112
 30
0.0
 10
88.19341089375027
 20
-159.0772840314112
 30
0.0
 10
88.32019040760746
 20
-159.1196587058798
 30
0.0
 10
88.32019040760746
 20
-159.1196587058798
 30
0.0
 10
88.33087020361173
 20
-159.1237928204621
 30
0.0
 10
88.34361705690715
 20
-159.1299939923355
 30
0.0
 10
88.34361705690715
 20
-159.142740845631
 30
0.0
 10
88.34361705690715
 20
-159.1641004376395
 30
0.0
 10
88.31157766889432
 20
-159.170301609513
 30
0.0
 10
88.29056258643431
 20
-159.1744357240953
 30
0.0
 10
88.27988279043003
 20
-159.197862373395
 30
0.0
 10
88.25025496925688
 20
-159.2633191876147
 30
0.0
 10
88.23130694408801
 20
-159.3077609193744
 30
0.0
 10
88.23130694408801
 20
-159.3077609193744
 30
0.0
 10
88.50209144922864
 20
-159.3077609193744
 30
0.0
 10
88.50209144922864
 20
-159.3077609193744
 30
0.0
 10
88.59304197003924
 20
-159.3077609193744
 30
0.0
 10
88.78975692224701
 20
-159.3036268047921
 30
0.0
 10
88.9316948562393
 20
-159.295014066079
 30
0.0
 10
88.9316948562393
 20
-159.295014066079
 30
0.0
 10
88.9316948562393
 20
-159.4727809931179
 30
0.0
 10
88.9316948562393
 20
-159.4727809931179
 30
0.0
 10
88.84901256459331
 20
-159.4686468785356
 30
0.0
 10
88.82799748213328
 20
-159.4686468785356
 30
0.0
 10
88.64816349780324
 20
-159.4645127639533
 30
0.0
 10
88.61646861933895
 20
-159.6188530416925
 30
0.0
 10
88.5720268875792
 20
-159.6991237664988
 30
0.0
 10
88.5275851558195
 20
-159.7690592048494
 30
0.0
 10
88.64816349780324
 20
-159.8283148471957
 30
0.0
 10
88.75392792920042
 20
-159.8958387187066
 30
0.0
 10
88.85762530330643
 20
-159.9785210103526
 30
0.0
 10
88.85762530330643
 20
-159.9785210103526
 30
0.0
 10
88.73911401861382
 20
-160.1456081413872
 30
0.0
 10
88.73911401861382
 20
-160.1456081413872
 30
0.0
 10
88.71568736931413
 20
-160.1266601162183
 30
0.0
 10
88.70294051601872
 20
-160.1180473775052
 30
0.0
 10
88.59097491274809
 20
-160.0332980285681
 30
0.0
 10
88.54239906640607
 20
-159.9954019782303
 30
0.0
 10
88.48314342405977
 20
-159.9595729851837
 30
0.0
 10
88.40252818970492
 20
-159.915131253424
 30
0.0
 10
88.19099932691058
 20
-160.1011664096275
 30
0.0
 10
87.98601614553822
 20
-160.1245930589272
 30
0.0
 10
87.69593910568017
 20
-160.1542208801003
 30
0.0
 10
87.69593910568017
 20
-160.1542208801003
 30
0.0
 10
87.59258624112268
 20
-159.9743868957703
 30
0.0
 10
87.59258624112268
 20
-159.9743868957703
 30
0.0
 10
87.9098795353142
 20
-159.9699082716395
 30
0.0
 10
88.08523489551342
 20
-159.9447590745971
 30
0.0
 10
88.23750811596147
 20
-159.8345160190691
 30
0.0
 10
88.11934134081738
 20
-159.783873115436
 30
0.0
 10
88.03045787729795
 20
-159.756312351554
 30
0.0
 10
87.99428437470281
 20
-159.7435654982585
 30
0.0
 10
87.97533634953394
 20
-159.7711262621406
 30
0.0
 10
87.96052243894738
 20
-159.7900742873094
 30
0.0
 10
87.93296167506538
 20
-159.8241807326134
 30
0.0
 10
87.93296167506538
 20
-159.8241807326134
 30
0.0
 10
87.73624672285761
 20
-159.7414984409674
 30
0.0
 10
87.73624672285761
 20
-159.7414984409674
 30
0.0
 10
87.8189290145036
 20
-159.6612277161611
 30
0.0
 10
87.88025171414105
 20
-159.5657985712196
 30
0.0
 10
87.93709578964767
 20
-159.4645127639533
 30
0.0
 10
87.74692651886189
 20
-159.4686468785356
 30
0.0
 10
87.72556692685332
 20
-159.4686468785356
 30
0.0
 10
87.64322914475586
 20
-159.4727809931179
 30
0.0
 10
87.64322914475586
 20
-159.4727809931179
 30
0.0
 10
87.64322914475586
 20
-159.295014066079
 30
0.0
 10
87.64322914475586
 20
-159.295014066079
 30
0.0
 10
87.78275551190848
 20
-159.301559747501
 30
0.0
 10
87.99221731741168
 20
-159.3056938620833
 30
0.0
 10
88.01771102400252
 20
-159.3056938620833
 30
0.0
 10
88.03459199188024
 20
-159.2719319263278
 30
0.0
 10
88.08971351964425
 20
-159.1513535843441
 30
0.0
 10
88.10866154481312
 20
-159.0772840314112
 30
0.0
 10
88.08971351964425
 20
-159.0772840314112
 30
0.0
 10
87.91194659260535
 20
-159.0834852032847
 30
0.0
 10
87.71729869768874
 20
-159.0962320565801
 30
0.0
 10
87.71729869768874
 20
-159.0962320565801
 30
0.0
 10
87.71729869768874
 20
-159.2295572518593
 30
0.0
 10
87.71729869768874
 20
-159.2295572518593
 30
0.0
 10
87.66872285134672
 20
-159.2550509584501
 30
0.0
 10
87.60946720900042
 20
-159.2867458369144
 30
0.0
 10
87.47614201372124
 20
-159.3522026511342
 30
0.0
 10
87.47614201372124
 20
-159.3522026511342
 30
0.0
 10
87.47614201372124
 20
-159.4982746997087
 30
0.0
 10
87.47614201372124
 20
-159.4982746997087
 30
0.0
 10
87.47614201372124
 20
-159.4982746997087
 30
0.0
 10
87.47614201372124
 20
-159.9657741570572
 30
0.0
 10
87.47614201372124
 20
-159.9657741570572
 30
0.0
 10
87.47614201372124
 20
-160.0925536709143
 30
0.0
 10
87.43996851112612
 20
-160.1518093132606
 30
0.0
 10
87.15678166223858
 20
-160.143541084096
 30
0.0
 10
87.15678166223858
 20
-160.143541084096
 30
0.0
 10
87.05308428813257
 20
-159.936146335884
 30
0.0
 10
87.05308428813257
 20
-159.936146335884
 30
0.0
 10
87.11647404506116
 20
-159.9488931891794
 30
0.0
 10
87.16504989140318
 20
-159.9530273037617
 30
0.0
 10
87.2053575085806
 20
-159.9530273037617
 30
0.0
 10
87.28149411880464
 20
-159.9530273037617
 30
0.0
 10
87.2921739148089
 20
-159.9299451640106
 30
0.0
 10
87.2921739148089
 20
-159.8641438402423
 30
0.0
 10
87.2921739148089
 20
-159.8641438402423
 30
0.0
 10
87.2921739148089
 20
-159.4348849427801
 30
0.0
 10
87.2921739148089
 20
-159.4348849427801
 30
0.0
 10
87.19467771257633
 20
-159.474848050409
 30
0.0
 10
87.17779674469861
 20
-159.481393731831
 30
0.0
 10
87.13128795564774
 20
-159.5003417569999
 30
0.0
 10
87.12715384106543
 20
-159.5213568394599
 30
0.0
 10
87.1226752169346
 20
-159.5509846606331
 30
0.0
 10
87.10372719176573
 20
-159.5509846606331
 30
0.0
 10
87.09545896260115
 20
-159.5509846606331
 30
0.0
 10
87.08477916659687
 20
-159.5468505460508
 30
0.0
 10
87.07823348517489
 20
-159.5237684062996
 30
0.0
 10
87.07823348517489
 20
-159.5237684062996
 30
0.0
 10
87.02552352425056
 20
-159.3311875686741
 30
0.0
 10
87.02552352425056
 20
-159.3311875686741
 30
0.0
 10
87.17159557282515
 20
-159.2846787796233
 30
0.0
 10
87.23705238704491
 20
-159.2612521303236
 30
0.0
 10
87.2921739148089
 20
-159.2402370478635
 30
0.0
 10
87.2921739148089
 20
-159.2402370478635
 30
0.0
 10
87.2921739148089
 20
-158.8275146087306
 30
0.0
 10
87.2921739148089
 20
-158.8275146087306
 30
0.0
 10
87.2921739148089
 20
-158.8275146087306
 30
0.0
 10
87.23911944433606
 20
-158.8275146087306
 30
0.0
 10
87.23911944433606
 20
-158.8275146087306
 30
0.0
 10
87.23911944433606
 20
-158.8275146087306
 30
0.0
 10
87.16091577682089
 20
-158.8275146087306
 30
0.0
 10
87.16091577682089
 20
-158.8275146087306
 30
0.0
 10
87.09304739576145
 20
-158.8275146087306
 30
0.0
 10
87.08477916659687
 20
-158.8275146087306
 30
0.0
 10
87.04860566400174
 20
-158.8340602901526
 30
0.0
 10
87.04860566400174
 20
-158.8340602901526
 30
0.0
 10
87.04860566400174
 20
-158.6394123952359
 30
0.0
 10
87.04860566400174
 20
-158.6394123952359
 30
0.0
 10
87.07616642788373
 20
-158.6456135671094
 30
0.0
 10
87.08477916659687
 20
-158.6456135671094
 30
0.0
 10
87.15437009539892
 20
-158.6456135671094
 30
0.0
 10
87.15437009539892
 20
-158.6456135671094
 30
0.0
 10
87.28769529067809
 20
-158.6456135671094
 30
0.0
 10
87.28769529067809
 20
-158.6456135671094
 30
0.0
 10
87.28769529067809
 20
-158.5760226383074
 30
0.0
 10
87.28769529067809
 20
-158.4933403466614
 30
0.0
 10
87.28562823338693
 20
-158.4892062320791
 30
0.0
 10
87.27736000422233
 20
-158.309372247749
 30
0.0
 10
87.27736000422233
 20
-158.2904242225802
 30
0.0
 10
87.27494843738266
 20
-158.2439154335293
 30
0.0
 10
87.27494843738266
 20
-158.2439154335293
 30
0.0
 10
87.49095592430782
 20
-158.2521836626939
 30
0.0
 10
87.49095592430782
 20
-158.2521836626939
 30
0.0
 10
87.5016357203121
 20
-158.2521836626939
 30
0.0
 10
87.52265080277211
 20
-158.254250719985
 30
0.0
 10
87.52265080277211
 20
-158.2711316878627
 30
0.0
 10
87.52265080277211
 20
-158.2904242225802
 30
0.0
 10
87.50783689218556
 20
-158.3007595090359
 30
0.0
 10
87.4823431855947
 20
-158.3200520437533
 30
0.0
 10
87.4823431855947
 20
-158.3706949473865
 30
0.0
 10
87.47614201372124
 20
-158.5991047780586
 30
0.0
 10
87.47820907101241
 20
-158.6456135671094
 30
0.0
 10
87.60740015170927
 20
-158.6456135671094
 30
0.0
 10
87.61980249545617
 20
-158.6456135671094
 30
0.0
 10
87.71729869768874
 20
-158.6373453379448
 30
0.0
 10
87.71729869768874
 20
-158.6373453379448
 30
0.0
 10
87.71729869768874
 20
-158.8319932328614
 30
0.0
 10
87.71729869768874
 20
-158.8319932328614
 30
0.0
 10
87.67905813780245
 20
-158.8295816660217
 30
0.0
 10
87.61153426629157
 20
-158.8254475514395
 30
0.0
 10
87.47614201372124
 20
-158.8275146087306
 30
0.0
 10
87.47614201372124
 20
-158.8275146087306
 30
0.0
 10
87.47614201372124
 20
-159.1661674949307
 30
0.0
 10
87.47614201372124
 20
-159.1661674949307
 30
0.0
 10
87.53126354148525
 20
-159.142740845631
 30
0.0
 10
87.59672035570499
 20
-159.115180081749
 30
0.0
 10
87.64529620204701
 20
-159.0920979419978
 30
0.0
 10
87.64529620204701
 20
-159.0920979419978
 30
0.0
 10
87.64529620204701
 20
-158.9143310149589
 30
0.0
 10
87.64529620204701
 20
-158.9143310149589
 30
0.0
 10
87.7596733721573
 20
-158.9270778682543
 30
0.0
 10
87.8781846568499
 20
-158.9270778682543
 30
0.0
 10
87.99428437470281
 20
-158.9270778682543
 30
0.0
 10
87.97120223495165
 20
-158.8319932328614
 30
0.0
 10
87.94364147106966
 20
-158.7493109412154
 30
0.0
 10
87.88025171414105
 20
-158.6159857459363
 30
0.0
 10
87.83580998238134
 20
-158.6180528032274
 30
0.0
 10
87.75312769073535
 20
-158.6225314273582
 30
0.0
 10
87.71523164039759
 20
-158.6245984846494
 30
0.0
 10
87.71523164039759
 20
-158.6245984846494
 30
0.0
 10
87.71523164039759
 20
-158.4447645003193
 30
0.0
 10
87.71523164039759
 20
-158.4447645003193
 30
0.0
 10
87.83994409696363
 20
-158.4530327294839
 30
0.0
 10
88.01357690942023
 20
-158.4575113536148
 30
0.0
 10
88.09591469151769
 20
-158.4575113536148
 30
0.0
 10
88.09591469151769
 20
-158.4575113536148
 30
0.0
 10
88.17859698316368
 20
-158.4575113536148
 30
0.0
 10
88.17859698316368
 20
-158.4575113536148
 30
0.0
 10
88.17859698316368
 20
-158.2945583371625
 30
0.0
 10
88.17859698316368
 20
-158.2838785411582
 30
0.0
 10
88.17618541632402
 20
-158.2291015229427
 30
0.0
 10
88.17618541632402
 20
-158.2291015229427
 30
0.0
 10
88.40046113241378
 20
-158.254250719985
 30
0.0
 10
88.40046113241378
 20
-158.254250719985
 30
0.0
 10
88.4049397565446
 20
-158.254250719985
 30
0.0
 10
88.42595483900463
 20
-158.2563177772762
 30
0.0
 10
88.42595483900463
 20
-158.2731987451539
 30
0.0
 10
88.42595483900463
 20
-158.2880126557405
 30
0.0
 10
88.41527504300035
 20
-158.2966253944536
 30
0.0
 10
88.38771427911835
 20
-158.3114393050402
 30
0.0
 10
88.38151310724489
 20
-158.3768961192599
 30
0.0
 10
88.37944604995376
 20
-158.3982557112685
 30
0.0
 10
88.37944604995376
 20
-158.4575113536148
 30
0.0
 10
88.37944604995376
 20
-158.4575113536148
 30
0.0
 10
88.47453068534665
 20
-158.4575113536148
 30
0.0
 10
88.47453068534665
 20
-158.4575113536148
 30
0.0
 10
88.55721297699265
 20
-158.4575113536148
 30
0.0
 10
88.73050127990071
 20
-158.4530327294839
 30
0.0
 10
88.85555824601528
 20
-158.4447645003193
 30
0.0
 10
88.85555824601528
 20
-158.4447645003193
 30
0.0
 10
88.85555824601528
 20
-158.6245984846494
 30
0.0
 10
88.85555824601528
 20
-158.6245984846494
 30
0.0
 10
88.82593042484213
 20
-158.6225314273582
 30
0.0
 10
88.70741914014955
 20
-158.6180528032274
 30
0.0
 10
88.66711152297211
 20
-158.6159857459363
 30
0.0
 10
88.65229761238554
 20
-158.666973159118
 30
0.0
 10
88.61853567663009
 20
-158.7789387623886
 30
0.0
 10
88.55273435286182
 20
-158.9184651295412
 30
0.0
 10
88.5951090273304
 20
-158.9184651295412
 30
0.0
 10
88.872439213893
 20
-158.8995171043723
 30
0.0
 10
88.93376191353045
 20
-158.8974500470812
 30
0.0
 10
88.93376191353045
 20
-158.8974500470812
 30
0.0
 10
88.93376191353045
 20
-159.0814181459935
 30
0.0
 10
88.93376191353045
 20
-159.0814181459935
 30
0.0
 10
88.90413409235732
 20
-159.0814181459935
 30
0.0
 10
88.88725312447958
 20
-159.0772840314112
 30
0.0
 10
88.72430010802727
 20
-159.0772840314112
 30
0.0
  0
HATCH
  5
F0
330
E9
100
AcDbEntity
  8
レイヤー 1
 62
   250
420
  2299925
440
 33554687
100
AcDbHatch
 10
0.0
 20
0.0
 30
0.0
210
0.0
220
0.0
230
1.0
  2
SOLID
 70
     1
 71
     1
 91
        3
 92
        1
 93
        1
 72
     4
 94
        3
 73
     0
 74
     0
 95
       17
 96
       13
 40
0.0
 40
0.0
 40
0.0
 40
0.0
 40
1.0
 40
1.0
 40
1.0
 40
2.0
 40
2.0
 40
2.0
 40
3.0
 40
3.0
 40
3.0
 40
4.0
 40
4.0
 40
4.0
 40
4.0
 10
88.1593044484463
 20
-159.4624457066622
 10
88.14242348056856
 20
-159.4917290182868
 10
88.09178057693539
 20
-159.585091105937
 10
88.08110078093113
 20
-159.6040391311059
 10
88.27161456126544
 20
-159.6632947734522
 10
88.29262964372546
 20
-159.6694959453257
 10
88.36463213936717
 20
-159.6970567092077
 10
88.41975366713118
 20
-159.6102403029794
 10
88.44283580688236
 20
-159.5361707500465
 10
88.45764971746893
 20
-159.4624457066622
 10
88.45764971746893
 20
-159.4624457066622
 10
88.1593044484463
 20
-159.4624457066622
 10
88.1593044484463
 20
-159.4624457066622
 97
        0
 97
        1
330
ED
 92
        1
 93
        1
 72
     4
 94
        3
 73
     0
 74
     0
 95
       20
 96
       16
 40
0.0
 40
0.0
 40
0.0
 40
0.0
 40
1.0
 40
1.0
 40
1.0
 40
2.0
 40
2.0
 40
2.0
 40
3.0
 40
3.0
 40
3.0
 40
4.0
 40
4.0
 40
4.0
 40
5.0
 40
5.0
 40
5.0
 40
5.0
 10
88.09591469151769
 20
-158.611851631354
 10
88.09591469151769
 20
-158.611851631354
 10
88.06421981305339
 20
-158.611851631354
 10
88.06421981305339
 20
-158.611851631354
 10
88.11072860210426
 20
-158.7114148908777
 10
88.14242348056856
 20
-158.791685615684
 10
88.17618541632402
 20
-158.9184651295412
 10
88.17618541632402
 20
-158.9184651295412
 10
88.38358016453605
 20
-158.9184651295412
 10
88.38358016453605
 20
-158.9184651295412
 10
88.41527504300035
 20
-158.8254475514395
 10
88.43870169230006
 20
-158.7410427120508
 10
88.46178383205122
 20
-158.611851631354
 10
88.46178383205122
 20
-158.611851631354
 10
88.09591469151769
 20
-158.611851631354
 10
88.09591469151769
 20
-158.611851631354
 97
        0
 97
        1
330
EE
 92
        1
 93
        1
 72
     4
 94
        3
 73
     0
 74
     0
 95
      242
 96
      238
 40
0.0
 40
0.0
 40
0.0
 40
0.0
 40
1.0
 40
1.0
 40
1.0
 40
2.0
 40
2.0
 40
2.0
 40
3.0
 40
3.0
 40
3.0
 40
4.0
 40
4.0
 40
4.0
 40
5.0
 40
5.0
 40
5.0
 40
6.0
 40
6.0
 40
6.0
 40
7.0
 40
7.0
 40
7.0
 40
8.0
 40
8.0
 40
8.0
 40
9.0
 40
9.0
 40
9.0
 40
10.0
 40
10.0
 40
10.0
 40
11.0
 40
11.0
 40
11.0
 40
12.0
 40
12.0
 40
12.0
 40
13.0
 40
13.0
 40
13.0
 40
14.0
 40
14.0
 40
14.0
 40
15.0
 40
15.0
 40
15.0
 40
16.0
 40
16.0
 40
16.0
 40
17.0
 40
17.0
 40
17.0
 40
18.0
 40
18.0
 40
18.0
 40
19.0
 40
19.0
 40
19.0
 40
20.0
 40
20.0
 40
20.0
 40
21.0
 40
21.0
 40
21.0
 40
22.0
 40
22.0
 40
22.0
 40
23.0
 40
23.0
 40
23.0
 40
24.0
 40
24.0
 40
24.0
 40
25.0
 40
25.0
 40
25.0
 40
26.0
 40
26.0
 40
26.0
 40
27.0
 40
27.0
 40
27.0
 40
28.0
 40
28.0
 40
28.0
 40
29.0
 40
29.0
 40
29.0
 40
30.0
 40
30.0
 40
30.0
 40
31.0
 40
31.0
 40
31.0
 40
32.0
 40
32.0
 40
32.0
 40
33.0
 40
33.0
 40
33.0
 40
34.0
 40
34.0
 40
34.0
 40
35.0
 40
35.0
 40
35.0
 40
36.0
 40
36.0
 40
36.0
 40
37.0
 40
37.0
 40
37.0
 40
38.0
 40
38.0
 40
38.0
 40
39.0
 40
39.0
 40
39.0
 40
40.0
 40
40.0
 40
40.0
 40
41.0
 40
41.0
 40
41.0
 40
42.0
 40
42.0
 40
42.0
 40
43.0
 40
43.0
 40
43.0
 40
44.0
 40
44.0
 40
44.0
 40
45.0
 40
45.0
 40
45.0
 40
46.0
 40
46.0
 40
46.0
 40
47.0
 40
47.0
 40
47.0
 40
48.0
 40
48.0
 40
48.0
 40
49.0
 40
49.0
 40
49.0
 40
50.0
 40
50.0
 40
50.0
 40
51.0
 40
51.0
 40
51.0
 40
52.0
 40
52.0
 40
52.0
 40
53.0
 40
53.0
 40
53.0
 40
54.0
 40
54.0
 40
54.0
 40
55.0
 40
55.0
 40
55.0
 40
56.0
 40
56.0
 40
56.0
 40
57.0
 40
57.0
 40
57.0
 40
58.0
 40
58.0
 40
58.0
 40
59.0
 40
59.0
 40
59.0
 40
60.0
 40
60.0
 40
60.0
 40
61.0
 40
61.0
 40
61.0
 40
62.0
 40
62.0
 40
62.0
 40
63.0
 40
63.0
 40
63.0
 40
64.0
 40
64.0
 40
64.0
 40
65.0
 40
65.0
 40
65.0
 40
66.0
 40
66.0
 40
66.0
 40
67.0
 40
67.0
 40
67.0
 40
68.0
 40
68.0
 40
68.0
 40
69.0
 40
69.0
 40
69.0
 40
70.0
 40
70.0
 40
70.0
 40
71.0
 40
71.0
 40
71.0
 40
72.0
 40
72.0
 40
72.0
 40
73.0
 40
73.0
 40
73.0
 40
74.0
 40
74.0
 40
74.0
 40
75.0
 40
75.0
 40
75.0
 40
76.0
 40
76.0
 40
76.0
 40
77.0
 40
77.0
 40
77.0
 40
78.0
 40
78.0
 40
78.0
 40
79.0
 40
79.0
 40
79.0
 40
79.0
 10
88.72430010802727
 20
-159.0772840314112
 10
88.72430010802727
 20
-159.0772840314112
 10
88.47039657076434
 20
-159.0772840314112
 10
88.47039657076434
 20
-159.0772840314112
 10
88.47039657076434
 20
-159.0772840314112
 10
88.19341089375027
 20
-159.0772840314112
 10
88.19341089375027
 20
-159.0772840314112
 10
88.19341089375027
 20
-159.0772840314112
 10
88.32019040760746
 20
-159.1196587058798
 10
88.32019040760746
 20
-159.1196587058798
 10
88.33087020361173
 20
-159.1237928204621
 10
88.34361705690715
 20
-159.1299939923355
 10
88.34361705690715
 20
-159.142740845631
 10
88.34361705690715
 20
-159.1641004376395
 10
88.31157766889432
 20
-159.170301609513
 10
88.29056258643431
 20
-159.1744357240953
 10
88.27988279043003
 20
-159.197862373395
 10
88.25025496925688
 20
-159.2633191876147
 10
88.23130694408801
 20
-159.3077609193744
 10
88.23130694408801
 20
-159.3077609193744
 10
88.50209144922864
 20
-159.3077609193744
 10
88.50209144922864
 20
-159.3077609193744
 10
88.59304197003924
 20
-159.3077609193744
 10
88.78975692224701
 20
-159.3036268047921
 10
88.9316948562393
 20
-159.295014066079
 10
88.9316948562393
 20
-159.295014066079
 10
88.9316948562393
 20
-159.4727809931179
 10
88.9316948562393
 20
-159.4727809931179
 10
88.84901256459331
 20
-159.4686468785356
 10
88.82799748213328
 20
-159.4686468785356
 10
88.64816349780324
 20
-159.4645127639533
 10
88.61646861933895
 20
-159.6188530416925
 10
88.5720268875792
 20
-159.6991237664988
 10
88.5275851558195
 20
-159.7690592048494
 10
88.64816349780324
 20
-159.8283148471957
 10
88.75392792920042
 20
-159.8958387187066
 10
88.85762530330643
 20
-159.9785210103526
 10
88.85762530330643
 20
-159.9785210103526
 10
88.73911401861382
 20
-160.1456081413872
 10
88.73911401861382
 20
-160.1456081413872
 10
88.71568736931413
 20
-160.1266601162183
 10
88.70294051601872
 20
-160.1180473775052
 10
88.59097491274809
 20
-160.0332980285681
 10
88.54239906640607
 20
-159.9954019782303
 10
88.48314342405977
 20
-159.9595729851837
 10
88.40252818970492
 20
-159.915131253424
 10
88.19099932691058
 20
-160.1011664096275
 10
87.98601614553822
 20
-160.1245930589272
 10
87.69593910568017
 20
-160.1542208801003
 10
87.69593910568017
 20
-160.1542208801003
 10
87.59258624112268
 20
-159.9743868957703
 10
87.59258624112268
 20
-159.9743868957703
 10
87.9098795353142
 20
-159.9699082716395
 10
88.08523489551342
 20
-159.9447590745971
 10
88.23750811596147
 20
-159.8345160190691
 10
88.11934134081738
 20
-159.783873115436
 10
88.03045787729795
 20
-159.756312351554
 10
87.99428437470281
 20
-159.7435654982585
 10
87.97533634953394
 20
-159.7711262621406
 10
87.96052243894738
 20
-159.7900742873094
 10
87.93296167506538
 20
-159.8241807326134
 10
87.93296167506538
 20
-159.8241807326134
 10
87.73624672285761
 20
-159.7414984409674
 10
87.73624672285761
 20
-159.7414984409674
 10
87.8189290145036
 20
-159.6612277161611
 10
87.88025171414105
 20
-159.5657985712196
 10
87.93709578964767
 20
-159.4645127639533
 10
87.74692651886189
 20
-159.4686468785356
 10
87.72556692685332
 20
-159.4686468785356
 10
87.64322914475586
 20
-159.4727809931179
 10
87.64322914475586
 20
-159.4727809931179
 10
87.64322914475586
 20
-159.295014066079
 10
87.64322914475586
 20
-159.295014066079
 10
87.78275551190848
 20
-159.301559747501
 10
87.99221731741168
 20
-159.3056938620833
 10
88.01771102400252
 20
-159.3056938620833
 10
88.03459199188024
 20
-159.2719319263278
 10
88.08971351964425
 20
-159.1513535843441
 10
88.10866154481312
 20
-159.0772840314112
 10
88.08971351964425
 20
-159.0772840314112
 10
87.91194659260535
 20
-159.0834852032847
 10
87.71729869768874
 20
-159.0962320565801
 10
87.71729869768874
 20
-159.0962320565801
 10
87.71729869768874
 20
-159.2295572518593
 10
87.71729869768874
 20
-159.2295572518593
 10
87.66872285134672
 20
-159.2550509584501
 10
87.60946720900042
 20
-159.2867458369144
 10
87.47614201372124
 20
-159.3522026511342
 10
87.47614201372124
 20
-159.3522026511342
 10
87.47614201372124
 20
-159.4982746997087
 10
87.47614201372124
 20
-159.4982746997087
 10
87.47614201372124
 20
-159.4982746997087
 10
87.47614201372124
 20
-159.9657741570572
 10
87.47614201372124
 20
-159.9657741570572
 10
87.47614201372124
 20
-160.0925536709143
 10
87.43996851112612
 20
-160.1518093132606
 10
87.15678166223858
 20
-160.143541084096
 10
87.15678166223858
 20
-160.143541084096
 10
87.05308428813257
 20
-159.936146335884
 10
87.05308428813257
 20
-159.936146335884
 10
87.11647404506116
 20
-159.9488931891794
 10
87.16504989140318
 20
-159.9530273037617
 10
87.2053575085806
 20
-159.9530273037617
 10
87.28149411880464
 20
-159.9530273037617
 10
87.2921739148089
 20
-159.9299451640106
 10
87.2921739148089
 20
-159.8641438402423
 10
87.2921739148089
 20
-159.8641438402423
 10
87.2921739148089
 20
-159.4348849427801
 10
87.2921739148089
 20
-159.4348849427801
 10
87.19467771257633
 20
-159.474848050409
 10
87.17779674469861
 20
-159.481393731831
 10
87.13128795564774
 20
-159.5003417569999
 10
87.12715384106543
 20
-159.5213568394599
 10
87.1226752169346
 20
-159.5509846606331
 10
87.10372719176573
 20
-159.5509846606331
 10
87.09545896260115
 20
-159.5509846606331
 10
87.08477916659687
 20
-159.5468505460508
 10
87.07823348517489
 20
-159.5237684062996
 10
87.07823348517489
 20
-159.5237684062996
 10
87.02552352425056
 20
-159.3311875686741
 10
87.02552352425056
 20
-159.3311875686741
 10
87.17159557282515
 20
-159.2846787796233
 10
87.23705238704491
 20
-159.2612521303236
 10
87.2921739148089
 20
-159.2402370478635
 10
87.2921739148089
 20
-159.2402370478635
 10
87.2921739148089
 20
-158.8275146087306
 10
87.2921739148089
 20
-158.8275146087306
 10
87.2921739148089
 20
-158.8275146087306
 10
87.23911944433606
 20
-158.8275146087306
 10
87.23911944433606
 20
-158.8275146087306
 10
87.23911944433606
 20
-158.8275146087306
 10
87.16091577682089
 20
-158.8275146087306
 10
87.16091577682089
 20
-158.8275146087306
 10
87.09304739576145
 20
-158.8275146087306
 10
87.08477916659687
 20
-158.8275146087306
 10
87.04860566400174
 20
-158.8340602901526
 10
87.04860566400174
 20
-158.8340602901526
 10
87.04860566400174
 20
-158.6394123952359
 10
87.04860566400174
 20
-158.6394123952359
 10
87.07616642788373
 20
-158.6456135671094
 10
87.08477916659687
 20
-158.6456135671094
 10
87.15437009539892
 20
-158.6456135671094
 10
87.15437009539892
 20
-158.6456135671094
 10
87.28769529067809
 20
-158.6456135671094
 10
87.28769529067809
 20
-158.6456135671094
 10
87.28769529067809
 20
-158.5760226383074
 10
87.28769529067809
 20
-158.4933403466614
 10
87.28562823338693
 20
-158.4892062320791
 10
87.27736000422233
 20
-158.309372247749
 10
87.27736000422233
 20
-158.2904242225802
 10
87.27494843738266
 20
-158.2439154335293
 10
87.27494843738266
 20
-158.2439154335293
 10
87.49095592430782
 20
-158.2521836626939
 10
87.49095592430782
 20
-158.2521836626939
 10
87.5016357203121
 20
-158.2521836626939
 10
87.52265080277211
 20
-158.254250719985
 10
87.52265080277211
 20
-158.2711316878627
 10
87.52265080277211
 20
-158.2904242225802
 10
87.50783689218556
 20
-158.3007595090359
 10
87.4823431855947
 20
-158.3200520437533
 10
87.4823431855947
 20
-158.3706949473865
 10
87.47614201372124
 20
-158.5991047780586
 10
87.47820907101241
 20
-158.6456135671094
 10
87.60740015170927
 20
-158.6456135671094
 10
87.61980249545617
 20
-158.6456135671094
 10
87.71729869768874
 20
-158.6373453379448
 10
87.71729869768874
 20
-158.6373453379448
 10
87.71729869768874
 20
-158.8319932328614
 10
87.71729869768874
 20
-158.8319932328614
 10
87.67905813780245
 20
-158.8295816660217
 10
87.61153426629157
 20
-158.8254475514395
 10
87.47614201372124
 20
-158.8275146087306
 10
87.47614201372124
 20
-158.8275146087306
 10
87.47614201372124
 20
-159.1661674949307
 10
87.47614201372124
 20
-159.1661674949307
 10
87.53126354148525
 20
-159.142740845631
 10
87.59672035570499
 20
-159.115180081749
 10
87.64529620204701
 20
-159.0920979419978
 10
87.64529620204701
 20
-159.0920979419978
 10
87.64529620204701
 20
-158.9143310149589
 10
87.64529620204701
 20
-158.9143310149589
 10
87.7596733721573
 20
-158.9270778682543
 10
87.8781846568499
 20
-158.9270778682543
 10
87.99428437470281
 20
-158.9270778682543
 10
87.97120223495165
 20
-158.8319932328614
 10
87.94364147106966
 20
-158.7493109412154
 10
87.88025171414105
 20
-158.6159857459363
 10
87.83580998238134
 20
-158.6180528032274
 10
87.75312769073535
 20
-158.6225314273582
 10
87.71523164039759
 20
-158.6245984846494
 10
87.71523164039759
 20
-158.6245984846494
 10
87.71523164039759
 20
-158.4447645003193
 10
87.71523164039759
 20
-158.4447645003193
 10
87.83994409696363
 20
-158.4530327294839
 10
88.01357690942023
 20
-158.4575113536148
 10
88.09591469151769
 20
-158.4575113536148
 10
88.09591469151769
 20
-158.4575113536148
 10
88.17859698316368
 20
-158.4575113536148
 10
88.17859698316368
 20
-158.4575113536148
 10
88.17859698316368
 20
-158.2945583371625
 10
88.17859698316368
 20
-158.2838785411582
 10
88.17618541632402
 20
-158.2291015229427
 10
88.17618541632402
 20
-158.2291015229427
 10
88.40046113241378
 20
-158.254250719985
 10
88.40046113241378
 20
-158.254250719985
 10
88.4049397565446
 20
-158.254250719985
 10
88.42595483900463
 20
-158.2563177772762
 10
88.42595483900463
 20
-158.2731987451539
 10
88.42595483900463
 20
-158.2880126557405
 10
88.41527504300035
 20
-158.2966253944536
 10
88.38771427911835
 20
-158.3114393050402
 10
88.38151310724489
 20
-158.3768961192599
 10
88.37944604995376
 20
-158.3982557112685
 10
88.37944604995376
 20
-158.4575113536148
 10
88.37944604995376
 20
-158.4575113536148
 10
88.47453068534665
 20
-158.4575113536148
 10
88.47453068534665
 20
-158.4575113536148
 10
88.55721297699265
 20
-158.4575113536148
 10
88.73050127990071
 20
-158.4530327294839
 10
88.85555824601528
 20
-158.4447645003193
 10
88.85555824601528
 20
-158.4447645003193
 10
88.85555824601528
 20
-158.6245984846494
 10
88.85555824601528
 20
-158.6245984846494
 10
88.82593042484213
 20
-158.6225314273582
 10
88.70741914014955
 20
-158.6180528032274
 10
88.66711152297211
 20
-158.6159857459363
 10
88.65229761238554
 20
-158.666973159118
 10
88.61853567663009
 20
-158.7789387623886
 10
88.55273435286182
 20
-158.9184651295412
 10
88.5951090273304
 20
-158.9184651295412
 10
88.872439213893
 20
-158.8995171043723
 10
88.93376191353045
 20
-158.8974500470812
 10
88.93376191353045
 20
-158.8974500470812
 10
88.93376191353045
 20
-159.0814181459935
 10
88.93376191353045
 20
-159.0814181459935
 10
88.90413409235732
 20
-159.0814181459935
 10
88.88725312447958
 20
-159.0772840314112
 10
88.72430010802727
 20
-159.0772840314112
 97
        0
 97
        1
330
EF
 75
     2
 76
     1
 98
        1
 10
0.0
 20
0.0
450
        0
451
        0
460
0.0
461
0.0
452
        0
462
0.0
453
        0
470

  0
SPLINE
  5
F1
330
E9
100
AcDbEntity
  8
レイヤー 1
100
AcDbSpline
210
0.0
220
0.0
230
1.0
 70
    11
 71
     3
 72
    17
 73
    13
 74
     0
 42
0.0000000001
 43
0.0000000001
 40
0.0
 40
0.0
 40
0.0
 40
0.0
 40
1.0
 40
1.0
 40
1.0
 40
2.0
 40
2.0
 40
2.0
 40
3.0
 40
3.0
 40
3.0
 40
4.0
 40
4.0
 40
4.0
 40
4.0
 10
90.5808620650284
 20
-159.8768906935377
 30
0.0
 10
90.5808620650284
 20
-159.8768906935377
 30
0.0
 10
89.87427298100366
 20
-159.8768906935377
 30
0.0
 10
89.87427298100366
 20
-159.8768906935377
 30
0.0
 10
89.87427298100366
 20
-159.8768906935377
 30
0.0
 10
89.87427298100366
 20
-159.991267863648
 30
0.0
 10
89.87427298100366
 20
-159.991267863648
 30
0.0
 10
89.87427298100366
 20
-159.991267863648
 30
0.0
 10
90.5808620650284
 20
-159.991267863648
 30
0.0
 10
90.5808620650284
 20
-159.991267863648
 30
0.0
 10
90.5808620650284
 20
-159.991267863648
 30
0.0
 10
90.5808620650284
 20
-159.8768906935377
 30
0.0
 10
90.5808620650284
 20
-159.8768906935377
 30
0.0
  0
SPLINE
  5
F2
330
E9
100
AcDbEntity
  8
レイヤー 1
100
AcDbSpline
210
0.0
220
0.0
230
1.0
 70
    11
 71
     3
 72
    17
 73
    13
 74
     0
 42
0.0000000001
 43
0.0000000001
 40
0.0
 40
0.0
 40
0.0
 40
0.0
 40
1.0
 40
1.0
 40
1.0
 40
2.0
 40
2.0
 40
2.0
 40
3.0
 40
3.0
 40
3.0
 40
4.0
 40
4.0
 40
4.0
 40
4.0
 10
90.5808620650284
 20
-159.6336669522791
 30
0.0
 10
90.5808620650284
 20
-159.6336669522791
 30
0.0
 10
89.87427298100366
 20
-159.6336669522791
 30
0.0
 10
89.87427298100366
 20
-159.6336669522791
 30
0.0
 10
89.87427298100366
 20
-159.6336669522791
 30
0.0
 10
89.87427298100366
 20
-159.7480441223894
 30
0.0
 10
89.87427298100366
 20
-159.7480441223894
 30
0.0
 10
89.87427298100366
 20
-159.7480441223894
 30
0.0
 10
90.5808620650284
 20
-159.7480441223894
 30
0.0
 10
90.5808620650284
 20
-159.7480441223894
 30
0.0
 10
90.5808620650284
 20
-159.7480441223894
 30
0.0
 10
90.5808620650284
 20
-159.6336669522791
 30
0.0
 10
90.5808620650284
 20
-159.6336669522791
 30
0.0
  0
SPLINE
  5
F3
330
E9
100
AcDbEntity
  8
レイヤー 1
100
AcDbSpline
210
0.0
220
0.0
230
1.0
 70
    11
 71
     3
 72
    17
 73
    13
 74
     0
 42
0.0000000001
 43
0.0000000001
 40
0.0
 40
0.0
 40
0.0
 40
0.0
 40
1.0
 40
1.0
 40
1.0
 40
2.0
 40
2.0
 40
2.0
 40
3.0
 40
3.0
 40
3.0
 40
4.0
 40
4.0
 40
4.0
 40
4.0
 10
90.5808620650284
 20
-159.4007784974762
 30
0.0
 10
90.5808620650284
 20
-159.4007784974762
 30
0.0
 10
89.87427298100366
 20
-159.4007784974762
 30
0.0
 10
89.87427298100366
 20
-159.4007784974762
 30
0.0
 10
89.87427298100366
 20
-159.4007784974762
 30
0.0
 10
89.87427298100366
 20
-159.508954495713
 30
0.0
 10
89.87427298100366
 20
-159.508954495713
 30
0.0
 10
89.87427298100366
 20
-159.508954495713
 30
0.0
 10
90.5808620650284
 20
-159.508954495713
 30
0.0
 10
90.5808620650284
 20
-159.508954495713
 30
0.0
 10
90.5808620650284
 20
-159.508954495713
 30
0.0
 10
90.5808620650284
 20
-159.4007784974762
 30
0.0
 10
90.5808620650284
 20
-159.4007784974762
 30
0.0
  0
SPLINE
  5
F4
330
E9
100
AcDbEntity
  8
レイヤー 1
100
AcDbSpline
210
0.0
220
0.0
230
1.0
 70
     9
 71
     3
 72
   203
 73
   199
 74
     0
 42
0.0000000001
 43
0.0000000001
 40
0.0
 40
0.0
 40
0.0
 40
0.0
 40
1.0
 40
1.0
 40
1.0
 40
2.0
 40
2.0
 40
2.0
 40
3.0
 40
3.0
 40
3.0
 40
4.0
 40
4.0
 40
4.0
 40
5.0
 40
5.0
 40
5.0
 40
6.0
 40
6.0
 40
6.0
 40
7.0
 40
7.0
 40
7.0
 40
8.0
 40
8.0
 40
8.0
 40
9.0
 40
9.0
 40
9.0
 40
10.0
 40
10.0
 40
10.0
 40
11.0
 40
11.0
 40
11.0
 40
12.0
 40
12.0
 40
12.0
 40
13.0
 40
13.0
 40
13.0
 40
14.0
 40
14.0
 40
14.0
 40
15.0
 40
15.0
 40
15.0
 40
16.0
 40
16.0
 40
16.0
 40
17.0
 40
17.0
 40
17.0
 40
18.0
 40
18.0
 40
18.0
 40
19.0
 40
19.0
 40
19.0
 40
20.0
 40
20.0
 40
20.0
 40
21.0
 40
21.0
 40
21.0
 40
22.0
 40
22.0
 40
22.0
 40
23.0
 40
23.0
 40
23.0
 40
24.0
 40
24.0
 40
24.0
 40
25.0
 40
25.0
 40
25.0
 40
26.0
 40
26.0
 40
26.0
 40
27.0
 40
27.0
 40
27.0
 40
28.0
 40
28.0
 40
28.0
 40
29.0
 40
29.0
 40
29.0
 40
30.0
 40
30.0
 40
30.0
 40
31.0
 40
31.0
 40
31.0
 40
32.0
 40
32.0
 40
32.0
 40
33.0
 40
33.0
 40
33.0
 40
34.0
 40
34.0
 40
34.0
 40
35.0
 40
35.0
 40
35.0
 40
36.0
 40
36.0
 40
36.0
 40
37.0
 40
37.0
 40
37.0
 40
38.0
 40
38.0
 40
38.0
 40
39.0
 40
39.0
 40
39.0
 40
40.0
 40
40.0
 40
40.0
 40
41.0
 40
41.0
 40
41.0
 40
42.0
 40
42.0
 40
42.0
 40
43.0
 40
43.0
 40
43.0
 40
44.0
 40
44.0
 40
44.0
 40
45.0
 40
45.0
 40
45.0
 40
46.0
 40
46.0
 40
46.0
 40
47.0
 40
47.0
 40
47.0
 40
48.0
 40
48.0
 40
48.0
 40
49.0
 40
49.0
 40
49.0
 40
50.0
 40
50.0
 40
50.0
 40
51.0
 40
51.0
 40
51.0
 40
52.0
 40
52.0
 40
52.0
 40
53.0
 40
53.0
 40
53.0
 40
54.0
 40
54.0
 40
54.0
 40
55.0
 40
55.0
 40
55.0
 40
56.0
 40
56.0
 40
56.0
 40
57.0
 40
57.0
 40
57.0
 40
58.0
 40
58.0
 40
58.0
 40
59.0
 40
59.0
 40
59.0
 40
60.0
 40
60.0
 40
60.0
 40
61.0
 40
61.0
 40
61.0
 40
62.0
 40
62.0
 40
62.0
 40
63.0
 40
63.0
 40
63.0
 40
64.0
 40
64.0
 40
64.0
 40
65.0
 40
65.0
 40
65.0
 40
66.0
 40
66.0
 40
66.0
 40
66.0
 10
90.41584199128493
 20
-159.1448079029221
 30
0.0
 10
90.41584199128493
 20
-159.1448079029221
 30
0.0
 10
89.8570475035774
 20
-159.1448079029221
 30
0.0
 10
89.8570475035774
 20
-159.1448079029221
 30
0.0
 10
89.84671221712167
 20
-159.1892496346818
 30
0.0
 10
89.83809947840853
 20
-159.2209445131461
 30
0.0
 10
89.8253526251131
 20
-159.2591850730324
 30
0.0
 10
89.85084633170396
 20
-159.2591850730324
 30
0.0
 10
89.86566024229054
 20
-159.2612521303236
 30
0.0
 10
89.87186141416399
 20
-159.2612521303236
 30
0.0
 10
89.87186141416399
 20
-159.2612521303236
 30
0.0
 10
90.06030813720714
 20
-159.2612521303236
 30
0.0
 10
90.06030813720714
 20
-159.2612521303236
 30
0.0
 10
90.06030813720714
 20
-159.2612521303236
 30
0.0
 10
90.4347900164538
 20
-159.2612521303236
 30
0.0
 10
90.4347900164538
 20
-159.2612521303236
 30
0.0
 10
90.48543292008698
 20
-159.2612521303236
 30
0.0
 10
90.76896427852304
 20
-159.2485052770281
 30
0.0
 10
90.80065915698734
 20
-159.2485052770281
 30
0.0
 10
90.79859209969619
 20
-159.2760660409101
 30
0.0
 10
90.79652504240504
 20
-159.295014066079
 30
0.0
 10
90.79652504240504
 20
-159.3246418872521
 30
0.0
 10
90.7944579851139
 20
-159.3563367657165
 30
0.0
 10
90.7944579851139
 20
-159.4917290182868
 30
0.0
 10
90.7944579851139
 20
-159.5192897821688
 30
0.0
 10
90.7944579851139
 20
-159.5192897821688
 30
0.0
 10
90.7944579851139
 20
-159.7649250902671
 30
0.0
 10
90.7944579851139
 20
-159.7649250902671
 30
0.0
 10
90.7944579851139
 20
-159.8093668220268
 30
0.0
 10
90.79859209969619
 20
-160.0060817742346
 30
0.0
 10
90.8027262142785
 20
-160.1583549946826
 30
0.0
 10
90.8027262142785
 20
-160.1583549946826
 30
0.0
 10
90.57638344089758
 20
-160.1583549946826
 30
0.0
 10
90.57638344089758
 20
-160.1583549946826
 30
0.0
 10
90.57638344089758
 20
-160.1583549946826
 30
0.0
 10
90.57845049818872
 20
-160.1245930589272
 30
0.0
 10
90.57845049818872
 20
-160.1245930589272
 30
0.0
 10
90.57845049818872
 20
-160.1245930589272
 30
0.0
 10
89.87634003829482
 20
-160.1245930589272
 30
0.0
 10
89.87634003829482
 20
-160.1245930589272
 30
0.0
 10
89.87634003829482
 20
-160.1245930589272
 30
0.0
 10
89.87840709558595
 20
-160.1583549946826
 30
0.0
 10
89.87840709558595
 20
-160.1583549946826
 30
0.0
 10
89.87840709558595
 20
-160.1583549946826
 30
0.0
 10
89.66033255136965
 20
-160.1583549946826
 30
0.0
 10
89.66033255136965
 20
-160.1583549946826
 30
0.0
 10
89.66481117550047
 20
-160.1032334669186
 30
0.0
 10
89.66481117550047
 20
-160.0904866136232
 30
0.0
 10
89.67101234737391
 20
-159.9764539530614
 30
0.0
 10
89.67307940466508
 20
-159.9488931891794
 30
0.0
 10
89.67514646195622
 20
-159.8155679939003
 30
0.0
 10
89.67514646195622
 20
-159.7966199687314
 30
0.0
 10
89.67514646195622
 20
-159.7966199687314
 30
0.0
 10
89.67514646195622
 20
-159.5933593351016
 30
0.0
 10
89.67514646195622
 20
-159.5933593351016
 30
0.0
 10
89.53562009480361
 20
-159.8431287577822
 30
0.0
 10
89.36646590647782
 20
-159.9743868957703
 30
0.0
 10
89.26070147508067
 20
-160.03984370999
 30
0.0
 10
89.26070147508067
 20
-160.03984370999
 30
0.0
 10
89.08706866262408
 20
-159.9003173428374
 30
0.0
 10
89.08706866262408
 20
-159.9003173428374
 30
0.0
 10
89.17595212614351
 20
-159.8493299296557
 30
0.0
 10
89.31995711742695
 20
-159.7625135234274
 30
0.0
 10
89.45741642728842
 20
-159.5682101380593
 30
0.0
 10
89.54836694809904
 20
-159.4410861146536
 30
0.0
 10
89.61382376231878
 20
-159.2974256329187
 30
0.0
 10
89.64793020762275
 20
-159.1448079029221
 30
0.0
 10
89.41917586740215
 20
-159.1472194697618
 30
0.0
 10
89.23934188307212
 20
-159.1534206416352
 30
0.0
 10
89.14425724767921
 20
-159.1554876989264
 30
0.0
 10
89.14425724767921
 20
-159.1554876989264
 30
0.0
 10
89.14425724767921
 20
-158.9777207718875
 30
0.0
 10
89.14425724767921
 20
-158.9777207718875
 30
0.0
 10
89.34097219988698
 20
-158.9842664533095
 30
0.0
 10
89.62450355832304
 20
-158.9884005678918
 30
0.0
 10
89.77470972147994
 20
-158.9884005678918
 30
0.0
 10
89.77470972147994
 20
-158.9884005678918
 30
0.0
 10
89.98830564156543
 20
-158.9884005678918
 30
0.0
 10
89.98830564156543
 20
-158.9884005678918
 30
0.0
 10
89.98830564156543
 20
-158.9884005678918
 30
0.0
 10
89.98830564156543
 20
-158.8805690792034
 30
0.0
 10
89.98830564156543
 20
-158.8805690792034
 30
0.0
 10
89.98830564156543
 20
-158.8805690792034
 30
0.0
 10
89.84223359299084
 20
-158.8805690792034
 30
0.0
 10
89.84223359299084
 20
-158.8805690792034
 30
0.0
 10
89.67307940466508
 20
-158.8805690792034
 30
0.0
 10
89.50392521633929
 20
-158.8847031937858
 30
0.0
 10
89.33683808530467
 20
-158.8912488752077
 30
0.0
 10
89.33683808530467
 20
-158.8912488752077
 30
0.0
 10
89.33683808530467
 20
-158.7196831200423
 30
0.0
 10
89.33683808530467
 20
-158.7196831200423
 30
0.0
 10
89.49117836304386
 20
-158.7303629160466
 30
0.0
 10
89.67721351924737
 20
-158.7303629160466
 30
0.0
 10
89.84223359299084
 20
-158.7303629160466
 30
0.0
 10
89.84223359299084
 20
-158.7303629160466
 30
0.0
 10
89.98830564156543
 20
-158.7303629160466
 30
0.0
 10
89.98830564156543
 20
-158.7303629160466
 30
0.0
 10
89.98830564156543
 20
-158.7303629160466
 30
0.0
 10
89.98830564156543
 20
-158.611851631354
 30
0.0
 10
89.98830564156543
 20
-158.611851631354
 30
0.0
 10
89.98830564156543
 20
-158.611851631354
 30
0.0
 10
89.8570475035774
 20
-158.611851631354
 30
0.0
 10
89.8570475035774
 20
-158.611851631354
 30
0.0
 10
89.81053871452653
 20
-158.611851631354
 30
0.0
 10
89.60762259044532
 20
-158.6204643700671
 30
0.0
 10
89.56524791597674
 20
-158.6204643700671
 30
0.0
 10
89.36233179189553
 20
-158.6245984846494
 30
0.0
 10
89.28585067212299
 20
-158.6266655419405
 30
0.0
 10
89.20764700460782
 20
-158.6287325992317
 30
0.0
 10
89.20764700460782
 20
-158.6287325992317
 30
0.0
 10
89.20764700460782
 20
-158.4447645003193
 30
0.0
 10
89.20764700460782
 20
-158.4447645003193
 30
0.0
 10
89.32202417471811
 20
-158.4530327294839
 30
0.0
 10
89.36646590647782
 20
-158.4530327294839
 30
0.0
 10
89.74921601488908
 20
-158.4616454681971
 30
0.0
 10
89.68582625796049
 20
-158.3665608328042
 30
0.0
 10
89.65826549407848
 20
-158.3390000689222
 30
0.0
 10
89.62243650103189
 20
-158.3028265663271
 30
0.0
 10
89.62243650103189
 20
-158.3028265663271
 30
0.0
 10
89.79779186123112
 20
-158.2204887842296
 30
0.0
 10
89.79779186123112
 20
-158.2204887842296
 30
0.0
 10
89.83809947840853
 20
-158.2563177772762
 30
0.0
 10
89.88254121016826
 20
-158.2986924517448
 30
0.0
 10
89.95661076310112
 20
-158.4085909977242
 30
0.0
 10
89.95661076310112
 20
-158.4085909977242
 30
0.0
 10
89.84223359299084
 20
-158.4637125254882
 30
0.0
 10
89.84223359299084
 20
-158.4637125254882
 30
0.0
 10
89.84223359299084
 20
-158.4637125254882
 30
0.0
 10
89.85291338899511
 20
-158.4637125254882
 30
0.0
 10
89.85291338899511
 20
-158.4637125254882
 30
0.0
 10
89.85291338899511
 20
-158.4637125254882
 30
0.0
 10
90.3755343741075
 20
-158.4637125254882
 30
0.0
 10
90.3755343741075
 20
-158.4637125254882
 30
0.0
 10
90.3755343741075
 20
-158.4637125254882
 30
0.0
 10
90.28044973871461
 20
-158.4192707937285
 30
0.0
 10
90.28044973871461
 20
-158.4192707937285
 30
0.0
 10
90.3076659930481
 20
-158.3813747433907
 30
0.0
 10
90.36485457810323
 20
-158.3007595090359
 30
0.0
 10
90.37966848868981
 20
-158.226689956103
 30
0.0
 10
90.37966848868981
 20
-158.226689956103
 30
0.0
 10
90.5932644087753
 20
-158.2904242225802
 30
0.0
 10
90.5932644087753
 20
-158.2904242225802
 30
0.0
 10
90.60187714748842
 20
-158.2924912798713
 30
0.0
 10
90.62289222994845
 20
-158.3028265663271
 30
0.0
 10
90.62289222994845
 20
-158.3241861583356
 30
0.0
 10
90.62289222994845
 20
-158.3620822086734
 30
0.0
 10
90.55743541572871
 20
-158.3620822086734
 30
0.0
 10
90.53848739055982
 20
-158.3620822086734
 30
0.0
 10
90.52780759455556
 20
-158.3813747433907
 30
0.0
 10
90.50438094525585
 20
-158.4213378510197
 30
0.0
 10
90.47475312408272
 20
-158.4616454681971
 30
0.0
 10
90.87472870992021
 20
-158.4554442963236
 30
0.0
 10
90.90435653109336
 20
-158.4530327294839
 30
0.0
 10
90.98049314131738
 20
-158.4468315576105
 30
0.0
 10
90.98049314131738
 20
-158.4468315576105
 30
0.0
 10
90.98049314131738
 20
-158.6287325992317
 30
0.0
 10
90.98049314131738
 20
-158.6287325992317
 30
0.0
 10
90.9615451161485
 20
-158.6287325992317
 30
0.0
 10
90.93605140955766
 20
-158.6266655419405
 30
0.0
 10
90.71625431759873
 20
-158.6180528032274
 30
0.0
 10
90.66526690441703
 20
-158.6159857459363
 30
0.0
 10
90.44546981245808
 20
-158.611851631354
 30
0.0
 10
90.40102808069836
 20
-158.611851631354
 30
0.0
 10
90.40102808069836
 20
-158.611851631354
 30
0.0
 10
90.18502059377318
 20
-158.611851631354
 30
0.0
 10
90.18502059377318
 20
-158.611851631354
 30
0.0
 10
90.18502059377318
 20
-158.611851631354
 30
0.0
 10
90.18502059377318
 20
-158.7303629160466
 30
0.0
 10
90.18502059377318
 20
-158.7303629160466
 30
0.0
 10
90.18502059377318
 20
-158.7303629160466
 30
0.0
 10
90.35865340622979
 20
-158.7303629160466
 30
0.0
 10
90.35865340622979
 20
-158.7303629160466
 30
0.0
 10
90.5216064226821
 20
-158.7303629160466
 30
0.0
 10
90.7117756934679
 20
-158.7303629160466
 30
0.0
 10
90.86852753804675
 20
-158.7196831200423
 30
0.0
 10
90.86852753804675
 20
-158.7196831200423
 30
0.0
 10
90.86852753804675
 20
-158.8912488752077
 30
0.0
 10
90.86852753804675
 20
-158.8912488752077
 30
0.0
 10
90.65906573254357
 20
-158.8826361364946
 30
0.0
 10
90.4623507803358
 20
-158.8805690792034
 30
0.0
 10
90.35865340622979
 20
-158.8805690792034
 30
0.0
 10
90.35865340622979
 20
-158.8805690792034
 30
0.0
 10
90.18502059377318
 20
-158.8805690792034
 30
0.0
 10
90.18502059377318
 20
-158.8805690792034
 30
0.0
 10
90.18502059377318
 20
-158.8805690792034
 30
0.0
 10
90.18502059377318
 20
-158.9884005678918
 30
0.0
 10
90.18502059377318
 20
-158.9884005678918
 30
0.0
 10
90.18502059377318
 20
-158.9884005678918
 30
0.0
 10
90.41584199128493
 20
-158.9884005678918
 30
0.0
 10
90.41584199128493
 20
-158.9884005678918
 30
0.0
 10
90.54882267701557
 20
-158.9884005678918
 30
0.0
 10
90.83683265958246
 20
-158.9842664533095
 30
0.0
 10
91.04594995553712
 20
-158.9777207718875
 30
0.0
 10
91.04594995553712
 20
-158.9777207718875
 30
0.0
 10
91.04594995553712
 20
-159.1554876989264
 30
0.0
 10
91.04594995553712
 20
-159.1554876989264
 30
0.0
 10
90.85371362746018
 20
-159.1492865270529
 30
0.0
 10
90.54055444785097
 20
-159.1448079029221
 30
0.0
 10
90.41584199128493
 20
-159.1448079029221
 30
0.0
  0
HATCH
  5
F5
330
E9
100
AcDbEntity
  8
レイヤー 1
 62
   250
420
  2299925
440
 33554687
100
AcDbHatch
 10
0.0
 20
0.0
 30
0.0
210
0.0
220
0.0
230
1.0
  2
SOLID
 70
     1
 71
     1
 91
        4
 92
        1
 93
        1
 72
     4
 94
        3
 73
     0
 74
     0
 95
       17
 96
       13
 40
0.0
 40
0.0
 40
0.0
 40
0.0
 40
1.0
 40
1.0
 40
1.0
 40
2.0
 40
2.0
 40
2.0
 40
3.0
 40
3.0
 40
3.0
 40
4.0
 40
4.0
 40
4.0
 40
4.0
 10
90.5808620650284
 20
-159.8768906935377
 10
90.5808620650284
 20
-159.8768906935377
 10
89.87427298100366
 20
-159.8768906935377
 10
89.87427298100366
 20
-159.8768906935377
 10
89.87427298100366
 20
-159.8768906935377
 10
89.87427298100366
 20
-159.991267863648
 10
89.87427298100366
 20
-159.991267863648
 10
89.87427298100366
 20
-159.991267863648
 10
90.5808620650284
 20
-159.991267863648
 10
90.5808620650284
 20
-159.991267863648
 10
90.5808620650284
 20
-159.991267863648
 10
90.5808620650284
 20
-159.8768906935377
 10
90.5808620650284
 20
-159.8768906935377
 97
        0
 97
        1
330
F1
 92
        1
 93
        1
 72
     4
 94
        3
 73
     0
 74
     0
 95
       17
 96
       13
 40
0.0
 40
0.0
 40
0.0
 40
0.0
 40
1.0
 40
1.0
 40
1.0
 40
2.0
 40
2.0
 40
2.0
 40
3.0
 40
3.0
 40
3.0
 40
4.0
 40
4.0
 40
4.0
 40
4.0
 10
90.5808620650284
 20
-159.6336669522791
 10
90.5808620650284
 20
-159.6336669522791
 10
89.87427298100366
 20
-159.6336669522791
 10
89.87427298100366
 20
-159.6336669522791
 10
89.87427298100366
 20
-159.6336669522791
 10
89.87427298100366
 20
-159.7480441223894
 10
89.87427298100366
 20
-159.7480441223894
 10
89.87427298100366
 20
-159.7480441223894
 10
90.5808620650284
 20
-159.7480441223894
 10
90.5808620650284
 20
-159.7480441223894
 10
90.5808620650284
 20
-159.7480441223894
 10
90.5808620650284
 20
-159.6336669522791
 10
90.5808620650284
 20
-159.6336669522791
 97
        0
 97
        1
330
F2
 92
        1
 93
        1
 72
     4
 94
        3
 73
     0
 74
     0
 95
       17
 96
       13
 40
0.0
 40
0.0
 40
0.0
 40
0.0
 40
1.0
 40
1.0
 40
1.0
 40
2.0
 40
2.0
 40
2.0
 40
3.0
 40
3.0
 40
3.0
 40
4.0
 40
4.0
 40
4.0
 40
4.0
 10
90.5808620650284
 20
-159.4007784974762
 10
90.5808620650284
 20
-159.4007784974762
 10
89.87427298100366
 20
-159.4007784974762
 10
89.87427298100366
 20
-159.4007784974762
 10
89.87427298100366
 20
-159.4007784974762
 10
89.87427298100366
 20
-159.508954495713
 10
89.87427298100366
 20
-159.508954495713
 10
89.87427298100366
 20
-159.508954495713
 10
90.5808620650284
 20
-159.508954495713
 10
90.5808620650284
 20
-159.508954495713
 10
90.5808620650284
 20
-159.508954495713
 10
90.5808620650284
 20
-159.4007784974762
 10
90.5808620650284
 20
-159.4007784974762
 97
        0
 97
        1
330
F3
 92
        1
 93
        1
 72
     4
 94
        3
 73
     0
 74
     0
 95
      203
 96
      199
 40
0.0
 40
0.0
 40
0.0
 40
0.0
 40
1.0
 40
1.0
 40
1.0
 40
2.0
 40
2.0
 40
2.0
 40
3.0
 40
3.0
 40
3.0
 40
4.0
 40
4.0
 40
4.0
 40
5.0
 40
5.0
 40
5.0
 40
6.0
 40
6.0
 40
6.0
 40
7.0
 40
7.0
 40
7.0
 40
8.0
 40
8.0
 40
8.0
 40
9.0
 40
9.0
 40
9.0
 40
10.0
 40
10.0
 40
10.0
 40
11.0
 40
11.0
 40
11.0
 40
12.0
 40
12.0
 40
12.0
 40
13.0
 40
13.0
 40
13.0
 40
14.0
 40
14.0
 40
14.0
 40
15.0
 40
15.0
 40
15.0
 40
16.0
 40
16.0
 40
16.0
 40
17.0
 40
17.0
 40
17.0
 40
18.0
 40
18.0
 40
18.0
 40
19.0
 40
19.0
 40
19.0
 40
20.0
 40
20.0
 40
20.0
 40
21.0
 40
21.0
 40
21.0
 40
22.0
 40
22.0
 40
22.0
 40
23.0
 40
23.0
 40
23.0
 40
24.0
 40
24.0
 40
24.0
 40
25.0
 40
25.0
 40
25.0
 40
26.0
 40
26.0
 40
26.0
 40
27.0
 40
27.0
 40
27.0
 40
28.0
 40
28.0
 40
28.0
 40
29.0
 40
29.0
 40
29.0
 40
30.0
 40
30.0
 40
30.0
 40
31.0
 40
31.0
 40
31.0
 40
32.0
 40
32.0
 40
32.0
 40
33.0
 40
33.0
 40
33.0
 40
34.0
 40
34.0
 40
34.0
 40
35.0
 40
35.0
 40
35.0
 40
36.0
 40
36.0
 40
36.0
 40
37.0
 40
37.0
 40
37.0
 40
38.0
 40
38.0
 40
38.0
 40
39.0
 40
39.0
 40
39.0
 40
40.0
 40
40.0
 40
40.0
 40
41.0
 40
41.0
 40
41.0
 40
42.0
 40
42.0
 40
42.0
 40
43.0
 40
43.0
 40
43.0
 40
44.0
 40
44.0
 40
44.0
 40
45.0
 40
45.0
 40
45.0
 40
46.0
 40
46.0
 40
46.0
 40
47.0
 40
47.0
 40
47.0
 40
48.0
 40
48.0
 40
48.0
 40
49.0
 40
49.0
 40
49.0
 40
50.0
 40
50.0
 40
50.0
 40
51.0
 40
51.0
 40
51.0
 40
52.0
 40
52.0
 40
52.0
 40
53.0
 40
53.0
 40
53.0
 40
54.0
 40
54.0
 40
54.0
 40
55.0
 40
55.0
 40
55.0
 40
56.0
 40
56.0
 40
56.0
 40
57.0
 40
57.0
 40
57.0
 40
58.0
 40
58.0
 40
58.0
 40
59.0
 40
59.0
 40
59.0
 40
60.0
 40
60.0
 40
60.0
 40
61.0
 40
61.0
 40
61.0
 40
62.0
 40
62.0
 40
62.0
 40
63.0
 40
63.0
 40
63.0
 40
64.0
 40
64.0
 40
64.0
 40
65.0
 40
65.0
 40
65.0
 40
66.0
 40
66.0
 40
66.0
 40
66.0
 10
90.41584199128493
 20
-159.1448079029221
 10
90.41584199128493
 20
-159.1448079029221
 10
89.8570475035774
 20
-159.1448079029221
 10
89.8570475035774
 20
-159.1448079029221
 10
89.84671221712167
 20
-159.1892496346818
 10
89.83809947840853
 20
-159.2209445131461
 10
89.8253526251131
 20
-159.2591850730324
 10
89.85084633170396
 20
-159.2591850730324
 10
89.86566024229054
 20
-159.2612521303236
 10
89.87186141416399
 20
-159.2612521303236
 10
89.87186141416399
 20
-159.2612521303236
 10
90.06030813720714
 20
-159.2612521303236
 10
90.06030813720714
 20
-159.2612521303236
 10
90.06030813720714
 20
-159.2612521303236
 10
90.4347900164538
 20
-159.2612521303236
 10
90.4347900164538
 20
-159.2612521303236
 10
90.48543292008698
 20
-159.2612521303236
 10
90.76896427852304
 20
-159.2485052770281
 10
90.80065915698734
 20
-159.2485052770281
 10
90.79859209969619
 20
-159.2760660409101
 10
90.79652504240504
 20
-159.295014066079
 10
90.79652504240504
 20
-159.3246418872521
 10
90.7944579851139
 20
-159.3563367657165
 10
90.7944579851139
 20
-159.4917290182868
 10
90.7944579851139
 20
-159.5192897821688
 10
90.7944579851139
 20
-159.5192897821688
 10
90.7944579851139
 20
-159.7649250902671
 10
90.7944579851139
 20
-159.7649250902671
 10
90.7944579851139
 20
-159.8093668220268
 10
90.79859209969619
 20
-160.0060817742346
 10
90.8027262142785
 20
-160.1583549946826
 10
90.8027262142785
 20
-160.1583549946826
 10
90.57638344089758
 20
-160.1583549946826
 10
90.57638344089758
 20
-160.1583549946826
 10
90.57638344089758
 20
-160.1583549946826
 10
90.57845049818872
 20
-160.1245930589272
 10
90.57845049818872
 20
-160.1245930589272
 10
90.57845049818872
 20
-160.1245930589272
 10
89.87634003829482
 20
-160.1245930589272
 10
89.87634003829482
 20
-160.1245930589272
 10
89.87634003829482
 20
-160.1245930589272
 10
89.87840709558595
 20
-160.1583549946826
 10
89.87840709558595
 20
-160.1583549946826
 10
89.87840709558595
 20
-160.1583549946826
 10
89.66033255136965
 20
-160.1583549946826
 10
89.66033255136965
 20
-160.1583549946826
 10
89.66481117550047
 20
-160.1032334669186
 10
89.66481117550047
 20
-160.0904866136232
 10
89.67101234737391
 20
-159.9764539530614
 10
89.67307940466508
 20
-159.9488931891794
 10
89.67514646195622
 20
-159.8155679939003
 10
89.67514646195622
 20
-159.7966199687314
 10
89.67514646195622
 20
-159.7966199687314
 10
89.67514646195622
 20
-159.5933593351016
 10
89.67514646195622
 20
-159.5933593351016
 10
89.53562009480361
 20
-159.8431287577822
 10
89.36646590647782
 20
-159.9743868957703
 10
89.26070147508067
 20
-160.03984370999
 10
89.26070147508067
 20
-160.03984370999
 10
89.08706866262408
 20
-159.9003173428374
 10
89.08706866262408
 20
-159.9003173428374
 10
89.17595212614351
 20
-159.8493299296557
 10
89.31995711742695
 20
-159.7625135234274
 10
89.45741642728842
 20
-159.5682101380593
 10
89.54836694809904
 20
-159.4410861146536
 10
89.61382376231878
 20
-159.2974256329187
 10
89.64793020762275
 20
-159.1448079029221
 10
89.41917586740215
 20
-159.1472194697618
 10
89.23934188307212
 20
-159.1534206416352
 10
89.14425724767921
 20
-159.1554876989264
 10
89.14425724767921
 20
-159.1554876989264
 10
89.14425724767921
 20
-158.9777207718875
 10
89.14425724767921
 20
-158.9777207718875
 10
89.34097219988698
 20
-158.9842664533095
 10
89.62450355832304
 20
-158.9884005678918
 10
89.77470972147994
 20
-158.9884005678918
 10
89.77470972147994
 20
-158.9884005678918
 10
89.98830564156543
 20
-158.9884005678918
 10
89.98830564156543
 20
-158.9884005678918
 10
89.98830564156543
 20
-158.9884005678918
 10
89.98830564156543
 20
-158.8805690792034
 10
89.98830564156543
 20
-158.8805690792034
 10
89.98830564156543
 20
-158.8805690792034
 10
89.84223359299084
 20
-158.8805690792034
 10
89.84223359299084
 20
-158.8805690792034
 10
89.67307940466508
 20
-158.8805690792034
 10
89.50392521633929
 20
-158.8847031937858
 10
89.33683808530467
 20
-158.8912488752077
 10
89.33683808530467
 20
-158.8912488752077
 10
89.33683808530467
 20
-158.7196831200423
 10
89.33683808530467
 20
-158.7196831200423
 10
89.49117836304386
 20
-158.7303629160466
 10
89.67721351924737
 20
-158.7303629160466
 10
89.84223359299084
 20
-158.7303629160466
 10
89.84223359299084
 20
-158.7303629160466
 10
89.98830564156543
 20
-158.7303629160466
 10
89.98830564156543
 20
-158.7303629160466
 10
89.98830564156543
 20
-158.7303629160466
 10
89.98830564156543
 20
-158.611851631354
 10
89.98830564156543
 20
-158.611851631354
 10
89.98830564156543
 20
-158.611851631354
 10
89.8570475035774
 20
-158.611851631354
 10
89.8570475035774
 20
-158.611851631354
 10
89.81053871452653
 20
-158.611851631354
 10
89.60762259044532
 20
-158.6204643700671
 10
89.56524791597674
 20
-158.6204643700671
 10
89.36233179189553
 20
-158.6245984846494
 10
89.28585067212299
 20
-158.6266655419405
 10
89.20764700460782
 20
-158.6287325992317
 10
89.20764700460782
 20
-158.6287325992317
 10
89.20764700460782
 20
-158.4447645003193
 10
89.20764700460782
 20
-158.4447645003193
 10
89.32202417471811
 20
-158.4530327294839
 10
89.36646590647782
 20
-158.4530327294839
 10
89.74921601488908
 20
-158.4616454681971
 10
89.68582625796049
 20
-158.3665608328042
 10
89.65826549407848
 20
-158.3390000689222
 10
89.62243650103189
 20
-158.3028265663271
 10
89.62243650103189
 20
-158.3028265663271
 10
89.79779186123112
 20
-158.2204887842296
 10
89.79779186123112
 20
-158.2204887842296
 10
89.83809947840853
 20
-158.2563177772762
 10
89.88254121016826
 20
-158.2986924517448
 10
89.95661076310112
 20
-158.4085909977242
 10
89.95661076310112
 20
-158.4085909977242
 10
89.84223359299084
 20
-158.4637125254882
 10
89.84223359299084
 20
-158.4637125254882
 10
89.84223359299084
 20
-158.4637125254882
 10
89.85291338899511
 20
-158.4637125254882
 10
89.85291338899511
 20
-158.4637125254882
 10
89.85291338899511
 20
-158.4637125254882
 10
90.3755343741075
 20
-158.4637125254882
 10
90.3755343741075
 20
-158.4637125254882
 10
90.3755343741075
 20
-158.4637125254882
 10
90.28044973871461
 20
-158.4192707937285
 10
90.28044973871461
 20
-158.4192707937285
 10
90.3076659930481
 20
-158.3813747433907
 10
90.36485457810323
 20
-158.3007595090359
 10
90.37966848868981
 20
-158.226689956103
 10
90.37966848868981
 20
-158.226689956103
 10
90.5932644087753
 20
-158.2904242225802
 10
90.5932644087753
 20
-158.2904242225802
 10
90.60187714748842
 20
-158.2924912798713
 10
90.62289222994845
 20
-158.3028265663271
 10
90.62289222994845
 20
-158.3241861583356
 10
90.62289222994845
 20
-158.3620822086734
 10
90.55743541572871
 20
-158.3620822086734
 10
90.53848739055982
 20
-158.3620822086734
 10
90.52780759455556
 20
-158.3813747433907
 10
90.50438094525585
 20
-158.4213378510197
 10
90.47475312408272
 20
-158.4616454681971
 10
90.87472870992021
 20
-158.4554442963236
 10
90.90435653109336
 20
-158.4530327294839
 10
90.98049314131738
 20
-158.4468315576105
 10
90.98049314131738
 20
-158.4468315576105
 10
90.98049314131738
 20
-158.6287325992317
 10
90.98049314131738
 20
-158.6287325992317
 10
90.9615451161485
 20
-158.6287325992317
 10
90.93605140955766
 20
-158.6266655419405
 10
90.71625431759873
 20
-158.6180528032274
 10
90.66526690441703
 20
-158.6159857459363
 10
90.44546981245808
 20
-158.611851631354
 10
90.40102808069836
 20
-158.611851631354
 10
90.40102808069836
 20
-158.611851631354
 10
90.18502059377318
 20
-158.611851631354
 10
90.18502059377318
 20
-158.611851631354
 10
90.18502059377318
 20
-158.611851631354
 10
90.18502059377318
 20
-158.7303629160466
 10
90.18502059377318
 20
-158.7303629160466
 10
90.18502059377318
 20
-158.7303629160466
 10
90.35865340622979
 20
-158.7303629160466
 10
90.35865340622979
 20
-158.7303629160466
 10
90.5216064226821
 20
-158.7303629160466
 10
90.7117756934679
 20
-158.7303629160466
 10
90.86852753804675
 20
-158.7196831200423
 10
90.86852753804675
 20
-158.7196831200423
 10
90.86852753804675
 20
-158.8912488752077
 10
90.86852753804675
 20
-158.8912488752077
 10
90.65906573254357
 20
-158.8826361364946
 10
90.4623507803358
 20
-158.8805690792034
 10
90.35865340622979
 20
-158.8805690792034
 10
90.35865340622979
 20
-158.8805690792034
 10
90.18502059377318
 20
-158.8805690792034
 10
90.18502059377318
 20
-158.8805690792034
 10
90.18502059377318
 20
-158.8805690792034
 10
90.18502059377318
 20
-158.9884005678918
 10
90.18502059377318
 20
-158.9884005678918
 10
90.18502059377318
 20
-158.9884005678918
 10
90.41584199128493
 20
-158.9884005678918
 10
90.41584199128493
 20
-158.9884005678918
 10
90.54882267701557
 20
-158.9884005678918
 10
90.83683265958246
 20
-158.9842664533095
 10
91.04594995553712
 20
-158.9777207718875
 10
91.04594995553712
 20
-158.9777207718875
 10
91.04594995553712
 20
-159.1554876989264
 10
91.04594995553712
 20
-159.1554876989264
 10
90.85371362746018
 20
-159.1492865270529
 10
90.54055444785097
 20
-159.1448079029221
 10
90.41584199128493
 20
-159.1448079029221
 97
        0
 97
        1
330
F4
 75
     2
 76
     1
 98
        1
 10
0.0
 20
0.0
450
        0
451
        0
460
0.0
461
0.0
452
        0
462
0.0
453
        0
470

  0
SPLINE
  5
F6
330
E9
100
AcDbEntity
  8
レイヤー 1
100
AcDbSpline
210
0.0
220
0.0
230
1.0
 70
     9
 71
     3
 72
    29
 73
    25
 74
     0
 42
0.0000000001
 43
0.0000000001
 40
0.0
 40
0.0
 40
0.0
 40
0.0
 40
1.0
 40
1.0
 40
1.0
 40
2.0
 40
2.0
 40
2.0
 40
3.0
 40
3.0
 40
3.0
 40
4.0
 40
4.0
 40
4.0
 40
5.0
 40
5.0
 40
5.0
 40
6.0
 40
6.0
 40
6.0
 40
7.0
 40
7.0
 40
7.0
 40
8.0
 40
8.0
 40
8.0
 40
8.0
 10
92.29100746390642
 20
-158.5929036061851
 30
0.0
 10
92.29100746390642
 20
-158.5929036061851
 30
0.0
 10
91.9375406671198
 20
-158.5929036061851
 30
0.0
 10
91.9375406671198
 20
-158.5929036061851
 30
0.0
 10
91.82557506384917
 20
-158.5929036061851
 30
0.0
 10
91.68604869669655
 20
-158.5991047780586
 30
0.0
 10
91.57821720800823
 20
-158.611851631354
 30
0.0
 10
91.57821720800823
 20
-158.611851631354
 30
0.0
 10
91.57821720800823
 20
-158.3768961192599
 30
0.0
 10
91.57821720800823
 20
-158.3768961192599
 30
0.0
 10
91.6963839831523
 20
-158.3917100298465
 30
0.0
 10
91.88069659161316
 20
-158.3961886539773
 30
0.0
 10
91.9375406671198
 20
-158.3961886539773
 30
0.0
 10
91.9375406671198
 20
-158.3961886539773
 30
0.0
 10
92.29100746390642
 20
-158.3961886539773
 30
0.0
 10
92.29100746390642
 20
-158.3961886539773
 30
0.0
 10
92.30995548907529
 20
-158.3961886539773
 30
0.0
 10
92.51321612270503
 20
-158.3961886539773
 30
0.0
 10
92.65480954714879
 20
-158.3768961192599
 30
0.0
 10
92.65480954714879
 20
-158.3768961192599
 30
0.0
 10
92.65480954714879
 20
-158.611851631354
 30
0.0
 10
92.65480954714879
 20
-158.611851631354
 30
0.0
 10
92.49840221211846
 20
-158.5929036061851
 30
0.0
 10
92.30788843178414
 20
-158.5929036061851
 30
0.0
 10
92.29100746390642
 20
-158.5929036061851
 30
0.0
  0
SPLINE
  5
F7
330
E9
100
AcDbEntity
  8
レイヤー 1
100
AcDbSpline
210
0.0
220
0.0
230
1.0
 70
     9
 71
     3
 72
    47
 73
    43
 74
     0
 42
0.0000000001
 43
0.0000000001
 40
0.0
 40
0.0
 40
0.0
 40
0.0
 40
1.0
 40
1.0
 40
1.0
 40
2.0
 40
2.0
 40
2.0
 40
3.0
 40
3.0
 40
3.0
 40
4.0
 40
4.0
 40
4.0
 40
5.0
 40
5.0
 40
5.0
 40
6.0
 40
6.0
 40
6.0
 40
7.0
 40
7.0
 40
7.0
 40
8.0
 40
8.0
 40
8.0
 40
9.0
 40
9.0
 40
9.0
 40
10.0
 40
10.0
 40
10.0
 40
11.0
 40
11.0
 40
11.0
 40
12.0
 40
12.0
 40
12.0
 40
13.0
 40
13.0
 40
13.0
 40
14.0
 40
14.0
 40
14.0
 40
14.0
 10
92.39263778072128
 20
-159.1217257631709
 30
0.0
 10
92.39263778072128
 20
-159.1217257631709
 30
0.0
 10
92.29100746390642
 20
-159.1217257631709
 30
0.0
 10
92.29100746390642
 20
-159.1217257631709
 30
0.0
 10
92.29100746390642
 20
-159.2085421693992
 30
0.0
 10
92.26999238144641
 20
-159.5978379592325
 30
0.0
 10
92.07327742923864
 20
-159.8176350511914
 30
0.0
 10
91.92065969924206
 20
-159.9867892395172
 30
0.0
 10
91.71360946057856
 20
-160.0567246778678
 30
0.0
 10
91.6288601116414
 20
-160.0842854417497
 30
0.0
 10
91.6288601116414
 20
-160.0842854417497
 30
0.0
 10
91.43421221672479
 20
-159.9171983107151
 30
0.0
 10
91.43421221672479
 20
-159.9171983107151
 30
0.0
 10
91.53170841895734
 20
-159.9044514574197
 30
0.0
 10
91.70706377915657
 20
-159.88102480812
 30
0.0
 10
91.89551050219973
 20
-159.6929225946254
 30
0.0
 10
91.96958005513261
 20
-159.6209200989837
 30
0.0
 10
92.07327742923864
 20
-159.481393731831
 30
0.0
 10
92.07327742923864
 20
-159.1217257631709
 30
0.0
 10
92.07327742923864
 20
-159.1217257631709
 30
0.0
 10
91.84245603172689
 20
-159.1217257631709
 30
0.0
 10
91.84245603172689
 20
-159.1217257631709
 30
0.0
 10
91.6564208755234
 20
-159.1217257631709
 30
0.0
 10
91.47004120977138
 20
-159.1258598777532
 30
0.0
 10
91.28400605356789
 20
-159.1406737883398
 30
0.0
 10
91.28400605356789
 20
-159.1406737883398
 30
0.0
 10
91.28400605356789
 20
-158.9208766963809
 30
0.0
 10
91.28400605356789
 20
-158.9208766963809
 30
0.0
 10
91.47245277661106
 20
-158.9356906069675
 30
0.0
 10
91.75805119233826
 20
-158.9398247215497
 30
0.0
 10
91.84245603172689
 20
-158.9398247215497
 30
0.0
 10
91.84245603172689
 20
-158.9398247215497
 30
0.0
 10
92.39263778072128
 20
-158.9398247215497
 30
0.0
 10
92.39263778072128
 20
-158.9398247215497
 30
0.0
 10
92.41158580589017
 20
-158.9398247215497
 30
0.0
 10
92.72887910008167
 20
-158.9398247215497
 30
0.0
 10
92.95728893075374
 20
-158.9208766963809
 30
0.0
 10
92.95728893075374
 20
-158.9208766963809
 30
0.0
 10
92.95728893075374
 20
-159.1406737883398
 30
0.0
 10
92.95728893075374
 20
-159.1406737883398
 30
0.0
 10
92.7691867172591
 20
-159.1258598777532
 30
0.0
 10
92.58073999421593
 20
-159.1217257631709
 30
0.0
 10
92.39263778072128
 20
-159.1217257631709
 30
0.0
  0
HATCH
  5
F8
330
E9
100
AcDbEntity
  8
レイヤー 1
 62
   250
420
  2299925
440
 33554687
100
AcDbHatch
 10
0.0
 20
0.0
 30
0.0
210
0.0
220
0.0
230
1.0
  2
SOLID
 70
     1
 71
     1
 91
        2
 92
        1
 93
        1
 72
     4
 94
        3
 73
     0
 74
     0
 95
       29
 96
       25
 40
0.0
 40
0.0
 40
0.0
 40
0.0
 40
1.0
 40
1.0
 40
1.0
 40
2.0
 40
2.0
 40
2.0
 40
3.0
 40
3.0
 40
3.0
 40
4.0
 40
4.0
 40
4.0
 40
5.0
 40
5.0
 40
5.0
 40
6.0
 40
6.0
 40
6.0
 40
7.0
 40
7.0
 40
7.0
 40
8.0
 40
8.0
 40
8.0
 40
8.0
 10
92.29100746390642
 20
-158.5929036061851
 10
92.29100746390642
 20
-158.5929036061851
 10
91.9375406671198
 20
-158.5929036061851
 10
91.9375406671198
 20
-158.5929036061851
 10
91.82557506384917
 20
-158.5929036061851
 10
91.68604869669655
 20
-158.5991047780586
 10
91.57821720800823
 20
-158.611851631354
 10
91.57821720800823
 20
-158.611851631354
 10
91.57821720800823
 20
-158.3768961192599
 10
91.57821720800823
 20
-158.3768961192599
 10
91.6963839831523
 20
-158.3917100298465
 10
91.88069659161316
 20
-158.3961886539773
 10
91.9375406671198
 20
-158.3961886539773
 10
91.9375406671198
 20
-158.3961886539773
 10
92.29100746390642
 20
-158.3961886539773
 10
92.29100746390642
 20
-158.3961886539773
 10
92.30995548907529
 20
-158.3961886539773
 10
92.51321612270503
 20
-158.3961886539773
 10
92.65480954714879
 20
-158.3768961192599
 10
92.65480954714879
 20
-158.3768961192599
 10
92.65480954714879
 20
-158.611851631354
 10
92.65480954714879
 20
-158.611851631354
 10
92.49840221211846
 20
-158.5929036061851
 10
92.30788843178414
 20
-158.5929036061851
 10
92.29100746390642
 20
-158.5929036061851
 97
        0
 97
        1
330
F6
 92
        1
 93
        1
 72
     4
 94
        3
 73
     0
 74
     0
 95
       47
 96
       43
 40
0.0
 40
0.0
 40
0.0
 40
0.0
 40
1.0
 40
1.0
 40
1.0
 40
2.0
 40
2.0
 40
2.0
 40
3.0
 40
3.0
 40
3.0
 40
4.0
 40
4.0
 40
4.0
 40
5.0
 40
5.0
 40
5.0
 40
6.0
 40
6.0
 40
6.0
 40
7.0
 40
7.0
 40
7.0
 40
8.0
 40
8.0
 40
8.0
 40
9.0
 40
9.0
 40
9.0
 40
10.0
 40
10.0
 40
10.0
 40
11.0
 40
11.0
 40
11.0
 40
12.0
 40
12.0
 40
12.0
 40
13.0
 40
13.0
 40
13.0
 40
14.0
 40
14.0
 40
14.0
 40
14.0
 10
92.39263778072128
 20
-159.1217257631709
 10
92.39263778072128
 20
-159.1217257631709
 10
92.29100746390642
 20
-159.1217257631709
 10
92.29100746390642
 20
-159.1217257631709
 10
92.29100746390642
 20
-159.2085421693992
 10
92.26999238144641
 20
-159.5978379592325
 10
92.07327742923864
 20
-159.8176350511914
 10
91.92065969924206
 20
-159.9867892395172
 10
91.71360946057856
 20
-160.0567246778678
 10
91.6288601116414
 20
-160.0842854417497
 10
91.6288601116414
 20
-160.0842854417497
 10
91.43421221672479
 20
-159.9171983107151
 10
91.43421221672479
 20
-159.9171983107151
 10
91.53170841895734
 20
-159.9044514574197
 10
91.70706377915657
 20
-159.88102480812
 10
91.89551050219973
 20
-159.6929225946254
 10
91.96958005513261
 20
-159.6209200989837
 10
92.07327742923864
 20
-159.481393731831
 10
92.07327742923864
 20
-159.1217257631709
 10
92.07327742923864
 20
-159.1217257631709
 10
91.84245603172689
 20
-159.1217257631709
 10
91.84245603172689
 20
-159.1217257631709
 10
91.6564208755234
 20
-159.1217257631709
 10
91.47004120977138
 20
-159.1258598777532
 10
91.28400605356789
 20
-159.1406737883398
 10
91.28400605356789
 20
-159.1406737883398
 10
91.28400605356789
 20
-158.9208766963809
 10
91.28400605356789
 20
-158.9208766963809
 10
91.47245277661106
 20
-158.9356906069675
 10
91.75805119233826
 20
-158.9398247215497
 10
91.84245603172689
 20
-158.9398247215497
 10
91.84245603172689
 20
-158.9398247215497
 10
92.39263778072128
 20
-158.9398247215497
 10
92.39263778072128
 20
-158.9398247215497
 10
92.41158580589017
 20
-158.9398247215497
 10
92.72887910008167
 20
-158.9398247215497
 10
92.95728893075374
 20
-158.9208766963809
 10
92.95728893075374
 20
-158.9208766963809
 10
92.95728893075374
 20
-159.1406737883398
 10
92.95728893075374
 20
-159.1406737883398
 10
92.7691867172591
 20
-159.1258598777532
 10
92.58073999421593
 20
-159.1217257631709
 10
92.39263778072128
 20
-159.1217257631709
 97
        0
 97
        1
330
F7
 75
     2
 76
     1
 98
        1
 10
0.0
 20
0.0
450
        0
451
        0
460
0.0
461
0.0
452
        0
462
0.0
453
        0
470

  0
SPLINE
  5
F9
330
E9
100
AcDbEntity
  8
レイヤー 1
100
AcDbSpline
210
0.0
220
0.0
230
1.0
 70
     9
 71
     3
 72
    29
 73
    25
 74
     0
 42
0.0000000001
 43
0.0000000001
 40
0.0
 40
0.0
 40
0.0
 40
0.0
 40
1.0
 40
1.0
 40
1.0
 40
2.0
 40
2.0
 40
2.0
 40
3.0
 40
3.0
 40
3.0
 40
4.0
 40
4.0
 40
4.0
 40
5.0
 40
5.0
 40
5.0
 40
6.0
 40
6.0
 40
6.0
 40
7.0
 40
7.0
 40
7.0
 40
8.0
 40
8.0
 40
8.0
 40
8.0
 10
94.23851994171815
 20
-159.2846787796233
 30
0.0
 10
94.23851994171815
 20
-159.2846787796233
 30
0.0
 10
93.75413951649203
 20
-159.2846787796233
 30
0.0
 10
93.75413951649203
 20
-159.2846787796233
 30
0.0
 10
93.72657875261003
 20
-159.2846787796233
 30
0.0
 10
93.40928545841853
 20
-159.2846787796233
 30
0.0
 10
93.19775659562417
 20
-159.3098279766656
 30
0.0
 10
93.19775659562417
 20
-159.3098279766656
 30
0.0
 10
93.19775659562417
 20
-159.0793510887024
 30
0.0
 10
93.19775659562417
 20
-159.0793510887024
 30
0.0
 10
93.35623098794567
 20
-159.1027777380021
 30
0.0
 10
93.54674476827998
 20
-159.1048447952932
 30
0.0
 10
93.75413951649203
 20
-159.1048447952932
 30
0.0
 10
93.75413951649203
 20
-159.1048447952932
 30
0.0
 10
94.23851994171815
 20
-159.1048447952932
 30
0.0
 10
94.23851994171815
 20
-159.1048447952932
 30
0.0
 10
94.42455509792164
 20
-159.1048447952932
 30
0.0
 10
94.61093476367365
 20
-159.1027777380021
 30
0.0
 10
94.79490286258601
 20
-159.0793510887024
 30
0.0
 10
94.79490286258601
 20
-159.0793510887024
 30
0.0
 10
94.79490286258601
 20
-159.3098279766656
 30
0.0
 10
94.79490286258601
 20
-159.3098279766656
 30
0.0
 10
94.61093476367365
 20
-159.2867458369144
 30
0.0
 10
94.3632323982842
 20
-159.2846787796233
 30
0.0
 10
94.23851994171815
 20
-159.2846787796233
 30
0.0
  0
HATCH
  5
FA
330
E9
100
AcDbEntity
  8
レイヤー 1
 62
   250
420
  2299925
440
 33554687
100
AcDbHatch
 10
0.0
 20
0.0
 30
0.0
210
0.0
220
0.0
230
1.0
  2
SOLID
 70
     1
 71
     1
 91
        1
 92
        1
 93
        1
 72
     4
 94
        3
 73
     0
 74
     0
 95
       29
 96
       25
 40
0.0
 40
0.0
 40
0.0
 40
0.0
 40
1.0
 40
1.0
 40
1.0
 40
2.0
 40
2.0
 40
2.0
 40
3.0
 40
3.0
 40
3.0
 40
4.0
 40
4.0
 40
4.0
 40
5.0
 40
5.0
 40
5.0
 40
6.0
 40
6.0
 40
6.0
 40
7.0
 40
7.0
 40
7.0
 40
8.0
 40
8.0
 40
8.0
 40
8.0
 10
94.23851994171815
 20
-159.2846787796233
 10
94.23851994171815
 20
-159.2846787796233
 10
93.75413951649203
 20
-159.2846787796233
 10
93.75413951649203
 20
-159.2846787796233
 10
93.72657875261003
 20
-159.2846787796233
 10
93.40928545841853
 20
-159.2846787796233
 10
93.19775659562417
 20
-159.3098279766656
 10
93.19775659562417
 20
-159.3098279766656
 10
93.19775659562417
 20
-159.0793510887024
 10
93.19775659562417
 20
-159.0793510887024
 10
93.35623098794567
 20
-159.1027777380021
 10
93.54674476827998
 20
-159.1048447952932
 10
93.75413951649203
 20
-159.1048447952932
 10
93.75413951649203
 20
-159.1048447952932
 10
94.23851994171815
 20
-159.1048447952932
 10
94.23851994171815
 20
-159.1048447952932
 10
94.42455509792164
 20
-159.1048447952932
 10
94.61093476367365
 20
-159.1027777380021
 10
94.79490286258601
 20
-159.0793510887024
 10
94.79490286258601
 20
-159.0793510887024
 10
94.79490286258601
 20
-159.3098279766656
 10
94.79490286258601
 20
-159.3098279766656
 10
94.61093476367365
 20
-159.2867458369144
 10
94.3632323982842
 20
-159.2846787796233
 10
94.23851994171815
 20
-159.2846787796233
 97
        0
 97
        1
330
F9
 75
     2
 76
     1
 98
        1
 10
0.0
 20
0.0
450
        0
451
        0
460
0.0
461
0.0
452
        0
462
0.0
453
        0
470

  0
SPLINE
  5
FB
330
E9
100
AcDbEntity
  8
レイヤー 1
100
AcDbSpline
210
0.0
220
0.0
230
1.0
 70
     9
 71
     3
 72
    17
 73
    13
 74
     0
 42
0.0000000001
 43
0.0000000001
 40
0.0
 40
0.0
 40
0.0
 40
0.0
 40
1.0
 40
1.0
 40
1.0
 40
2.0
 40
2.0
 40
2.0
 40
3.0
 40
3.0
 40
3.0
 40
4.0
 40
4.0
 40
4.0
 40
4.0
 10
96.65732148191207
 20
-158.3176404769136
 30
0.0
 10
96.60254446369659
 20
-158.3176404769136
 30
0.0
 10
96.55810273193687
 20
-158.3620822086734
 30
0.0
 10
96.55810273193687
 20
-158.4172037364374
 30
0.0
 10
96.55810273193687
 20
-158.4743923214925
 30
0.0
 10
96.60254446369659
 20
-158.5229681678345
 30
0.0
 10
96.66145559649436
 20
-158.5229681678345
 30
0.0
 10
96.72071123884066
 20
-158.5229681678345
 30
0.0
 10
96.76101885601809
 20
-158.4723252642014
 30
0.0
 10
96.76101885601809
 20
-158.4192707937285
 30
0.0
 10
96.76101885601809
 20
-158.3620822086734
 30
0.0
 10
96.7145100669672
 20
-158.3176404769136
 30
0.0
 10
96.65732148191207
 20
-158.3176404769136
 30
0.0
  0
SPLINE
  5
FC
330
E9
100
AcDbEntity
  8
レイヤー 1
100
AcDbSpline
210
0.0
220
0.0
230
1.0
 70
     9
 71
     3
 72
    17
 73
    13
 74
     0
 42
0.0000000001
 43
0.0000000001
 40
0.0
 40
0.0
 40
0.0
 40
0.0
 40
1.0
 40
1.0
 40
1.0
 40
2.0
 40
2.0
 40
2.0
 40
3.0
 40
3.0
 40
3.0
 40
4.0
 40
4.0
 40
4.0
 40
4.0
 10
96.65938853920321
 20
-158.6476806244005
 30
0.0
 10
96.53260902534603
 20
-158.6476806244005
 30
0.0
 10
96.43097870853114
 20
-158.5463948171342
 30
0.0
 10
96.43097870853114
 20
-158.4192707937285
 30
0.0
 10
96.43097870853114
 20
-158.2924912798713
 30
0.0
 10
96.53260902534603
 20
-158.1887939057653
 30
0.0
 10
96.65938853920321
 20
-158.1887939057653
 30
0.0
 10
96.78651256260893
 20
-158.1887939057653
 30
0.0
 10
96.89020993671496
 20
-158.2924912798713
 30
0.0
 10
96.89020993671496
 20
-158.4192707937285
 30
0.0
 10
96.89020993671496
 20
-158.5463948171342
 30
0.0
 10
96.78651256260893
 20
-158.6476806244005
 30
0.0
 10
96.65938853920321
 20
-158.6476806244005
 30
0.0
  0
SPLINE
  5
FD
330
E9
100
AcDbEntity
  8
レイヤー 1
100
AcDbSpline
210
0.0
220
0.0
230
1.0
 70
     9
 71
     3
 72
    44
 73
    40
 74
     0
 42
0.0000000001
 43
0.0000000001
 40
0.0
 40
0.0
 40
0.0
 40
0.0
 40
1.0
 40
1.0
 40
1.0
 40
2.0
 40
2.0
 40
2.0
 40
3.0
 40
3.0
 40
3.0
 40
4.0
 40
4.0
 40
4.0
 40
5.0
 40
5.0
 40
5.0
 40
6.0
 40
6.0
 40
6.0
 40
7.0
 40
7.0
 40
7.0
 40
8.0
 40
8.0
 40
8.0
 40
9.0
 40
9.0
 40
9.0
 40
10.0
 40
10.0
 40
10.0
 40
11.0
 40
11.0
 40
11.0
 40
12.0
 40
12.0
 40
12.0
 40
13.0
 40
13.0
 40
13.0
 40
13.0
 10
96.44992673370003
 20
-158.846807143448
 30
0.0
 10
96.3379611304294
 20
-159.2147433412727
 30
0.0
 10
96.28731822679624
 20
-159.3735622431427
 30
0.0
 10
96.09060327458847
 20
-159.6229871562748
 30
0.0
 10
95.90629066612761
 20
-159.8538085537865
 30
0.0
 10
95.66961260629094
 20
-160.03984370999
 30
0.0
 10
95.39021536243717
 20
-160.1328612880918
 30
0.0
 10
95.39021536243717
 20
-160.1328612880918
 30
0.0
 10
95.1976345248117
 20
-159.9530273037617
 30
0.0
 10
95.1976345248117
 20
-159.9530273037617
 30
0.0
 10
95.8387667946167
 20
-159.8007540833137
 30
0.0
 10
96.16880694210363
 20
-159.2443711624459
 30
0.0
 10
96.23219669903223
 20
-158.8044324689794
 30
0.0
 10
96.23219669903223
 20
-158.8044324689794
 30
0.0
 10
95.4663519726612
 20
-158.8044324689794
 30
0.0
 10
95.4663519726612
 20
-158.8044324689794
 30
0.0
 10
95.37333439455945
 20
-158.8044324689794
 30
0.0
 10
95.18936629564711
 20
-158.8085665835617
 30
0.0
 10
95.03261445106824
 20
-158.8275146087306
 30
0.0
 10
95.03261445106824
 20
-158.8275146087306
 30
0.0
 10
95.03261445106824
 20
-158.6077175167717
 30
0.0
 10
95.03261445106824
 20
-158.6077175167717
 30
0.0
 10
95.11943085729653
 20
-158.6287325992317
 30
0.0
 10
95.37126733726829
 20
-158.6287325992317
 30
0.0
 10
95.47048608724351
 20
-158.6287325992317
 30
0.0
 10
95.47048608724351
 20
-158.6287325992317
 30
0.0
 10
95.9021565515453
 20
-158.6287325992317
 30
0.0
 10
95.9021565515453
 20
-158.6287325992317
 30
0.0
 10
95.94453122601386
 20
-158.6287325992317
 30
0.0
 10
96.17914222855938
 20
-158.6266655419405
 30
0.0
 10
96.21738278844567
 20
-158.6204643700671
 30
0.0
 10
96.25975746291423
 20
-158.6139186886451
 30
0.0
 10
96.26182452020538
 20
-158.611851631354
 30
0.0
 10
96.32314721984283
 20
-158.5715440141765
 30
0.0
 10
96.32314721984283
 20
-158.5715440141765
 30
0.0
 10
96.51124943333748
 20
-158.7262288014643
 30
0.0
 10
96.51124943333748
 20
-158.7262288014643
 30
0.0
 10
96.48196612171284
 20
-158.7558566226374
 30
0.0
 10
96.46715221112629
 20
-158.7875515011017
 30
0.0
 10
96.44992673370003
 20
-158.846807143448
 30
0.0
  0
HATCH
  5
FE
330
E9
100
AcDbEntity
  8
レイヤー 1
 62
   250
420
  2299925
440
 33554687
100
AcDbHatch
 10
0.0
 20
0.0
 30
0.0
210
0.0
220
0.0
230
1.0
  2
SOLID
 70
     1
 71
     1
 91
        3
 92
        1
 93
        1
 72
     4
 94
        3
 73
     0
 74
     0
 95
       17
 96
       13
 40
0.0
 40
0.0
 40
0.0
 40
0.0
 40
1.0
 40
1.0
 40
1.0
 40
2.0
 40
2.0
 40
2.0
 40
3.0
 40
3.0
 40
3.0
 40
4.0
 40
4.0
 40
4.0
 40
4.0
 10
96.65732148191207
 20
-158.3176404769136
 10
96.60254446369659
 20
-158.3176404769136
 10
96.55810273193687
 20
-158.3620822086734
 10
96.55810273193687
 20
-158.4172037364374
 10
96.55810273193687
 20
-158.4743923214925
 10
96.60254446369659
 20
-158.5229681678345
 10
96.66145559649436
 20
-158.5229681678345
 10
96.72071123884066
 20
-158.5229681678345
 10
96.76101885601809
 20
-158.4723252642014
 10
96.76101885601809
 20
-158.4192707937285
 10
96.76101885601809
 20
-158.3620822086734
 10
96.7145100669672
 20
-158.3176404769136
 10
96.65732148191207
 20
-158.3176404769136
 97
        0
 97
        1
330
FB
 92
        1
 93
        1
 72
     4
 94
        3
 73
     0
 74
     0
 95
       17
 96
       13
 40
0.0
 40
0.0
 40
0.0
 40
0.0
 40
1.0
 40
1.0
 40
1.0
 40
2.0
 40
2.0
 40
2.0
 40
3.0
 40
3.0
 40
3.0
 40
4.0
 40
4.0
 40
4.0
 40
4.0
 10
96.65938853920321
 20
-158.6476806244005
 10
96.53260902534603
 20
-158.6476806244005
 10
96.43097870853114
 20
-158.5463948171342
 10
96.43097870853114
 20
-158.4192707937285
 10
96.43097870853114
 20
-158.2924912798713
 10
96.53260902534603
 20
-158.1887939057653
 10
96.65938853920321
 20
-158.1887939057653
 10
96.78651256260893
 20
-158.1887939057653
 10
96.89020993671496
 20
-158.2924912798713
 10
96.89020993671496
 20
-158.4192707937285
 10
96.89020993671496
 20
-158.5463948171342
 10
96.78651256260893
 20
-158.6476806244005
 10
96.65938853920321
 20
-158.6476806244005
 97
        0
 97
        1
330
FC
 92
        1
 93
        1
 72
     4
 94
        3
 73
     0
 74
     0
 95
       44
 96
       40
 40
0.0
 40
0.0
 40
0.0
 40
0.0
 40
1.0
 40
1.0
 40
1.0
 40
2.0
 40
2.0
 40
2.0
 40
3.0
 40
3.0
 40
3.0
 40
4.0
 40
4.0
 40
4.0
 40
5.0
 40
5.0
 40
5.0
 40
6.0
 40
6.0
 40
6.0
 40
7.0
 40
7.0
 40
7.0
 40
8.0
 40
8.0
 40
8.0
 40
9.0
 40
9.0
 40
9.0
 40
10.0
 40
10.0
 40
10.0
 40
11.0
 40
11.0
 40
11.0
 40
12.0
 40
12.0
 40
12.0
 40
13.0
 40
13.0
 40
13.0
 40
13.0
 10
96.44992673370003
 20
-158.846807143448
 10
96.3379611304294
 20
-159.2147433412727
 10
96.28731822679624
 20
-159.3735622431427
 10
96.09060327458847
 20
-159.6229871562748
 10
95.90629066612761
 20
-159.8538085537865
 10
95.66961260629094
 20
-160.03984370999
 10
95.39021536243717
 20
-160.1328612880918
 10
95.39021536243717
 20
-160.1328612880918
 10
95.1976345248117
 20
-159.9530273037617
 10
95.1976345248117
 20
-159.9530273037617
 10
95.8387667946167
 20
-159.8007540833137
 10
96.16880694210363
 20
-159.2443711624459
 10
96.23219669903223
 20
-158.8044324689794
 10
96.23219669903223
 20
-158.8044324689794
 10
95.4663519726612
 20
-158.8044324689794
 10
95.4663519726612
 20
-158.8044324689794
 10
95.37333439455945
 20
-158.8044324689794
 10
95.18936629564711
 20
-158.8085665835617
 10
95.03261445106824
 20
-158.8275146087306
 10
95.03261445106824
 20
-158.8275146087306
 10
95.03261445106824
 20
-158.6077175167717
 10
95.03261445106824
 20
-158.6077175167717
 10
95.11943085729653
 20
-158.6287325992317
 10
95.37126733726829
 20
-158.6287325992317
 10
95.47048608724351
 20
-158.6287325992317
 10
95.47048608724351
 20
-158.6287325992317
 10
95.9021565515453
 20
-158.6287325992317
 10
95.9021565515453
 20
-158.6287325992317
 10
95.94453122601386
 20
-158.6287325992317
 10
96.17914222855938
 20
-158.6266655419405
 10
96.21738278844567
 20
-158.6204643700671
 10
96.25975746291423
 20
-158.6139186886451
 10
96.26182452020538
 20
-158.611851631354
 10
96.32314721984283
 20
-158.5715440141765
 10
96.32314721984283
 20
-158.5715440141765
 10
96.51124943333748
 20
-158.7262288014643
 10
96.51124943333748
 20
-158.7262288014643
 10
96.48196612171284
 20
-158.7558566226374
 10
96.46715221112629
 20
-158.7875515011017
 10
96.44992673370003
 20
-158.846807143448
 97
        0
 97
        1
330
FD
 75
     2
 76
     1
 98
        1
 10
0.0
 20
0.0
450
        0
451
        0
460
0.0
461
0.0
452
        0
462
0.0
453
        0
470

  0
ENDBLK
  5
EC
330
E9
100
AcDbEntity
  8
0
100
AcDbBlockEnd
  0
ENDSEC
  0
SECTION
  2
ENTITIES
  0
LWPOLYLINE
  5
79
330
70
100
AcDbEntity
  8
レイヤー 1
 62
   250
420
  2299925
370
    25
100
AcDbPolyline
 90
       10
 70
     1
 43
0.0
 10
106.4486157250983
 20
-152.325500496364
 10
106.4486157250983
 20
-155.3254873642724
 10
99.44858739351538
 20
-155.3254873642724
 10
99.44858739351538
 20
-145.0256465159321
 10
117.4486854445706
 20
-145.0256465159321
 10
117.4486854445706
 20
-145.8257464955199
 10
100.2487226710928
 20
-145.8257464955199
 10
100.2487226710928
 20
-154.5257048846766
 10
105.648727391966
 20
-154.5257048846766
 10
105.648727391966
 20
-152.3256063296947
  0
HATCH
  5
7A
330
70
100
AcDbEntity
  8
レイヤー 1
 62
   250
420
  2299925
440
 33554687
100
AcDbHatch
 10
0.0
 20
0.0
 30
0.0
210
0.0
220
0.0
230
1.0
  2
SOLID
 70
     1
 71
     1
 91
        1
 92
        1
 93
       10
 72
     1
 10
106.4486157250983
 20
-152.325500496364
 11
106.4486157250983
 21
-155.3254873642724
 72
     1
 10
106.4486157250983
 20
-155.3254873642724
 11
99.44858739351538
 21
-155.3254873642724
 72
     1
 10
99.44858739351538
 20
-155.3254873642724
 11
99.44858739351538
 21
-145.0256465159321
 72
     1
 10
99.44858739351538
 20
-145.0256465159321
 11
117.4486854445706
 21
-145.0256465159321
 72
     1
 10
117.4486854445706
 20
-145.0256465159321
 11
117.4486854445706
 21
-145.8257464955199
 72
     1
 10
117.4486854445706
 20
-145.8257464955199
 11
100.2487226710928
 21
-145.8257464955199
 72
     1
 10
100.2487226710928
 20
-145.8257464955199
 11
100.2487226710928
 21
-154.5257048846766
 72
     1
 10
100.2487226710928
 20
-154.5257048846766
 11
105.648727391966
 21
-154.5257048846766
 72
     1
 10
105.648727391966
 20
-154.5257048846766
 11
105.648727391966
 21
-152.3256063296947
 72
     1
 10
105.648727391966
 20
-152.3256063296947
 11
106.4486157250983
 21
-152.325500496364
 97
        1
330
79
 75
     2
 76
     1
 98
        1
 10
0.0
 20
0.0
450
        0
451
        0
460
0.0
461
0.0
452
        0
462
0.0
453
        0
470

  0
SPLINE
  5
7B
330
70
100
AcDbEntity
  8
レイヤー 1
 62
   250
420
  2299925
370
     9
100
AcDbSpline
210
0.0
220
0.0
230
1.0
 70
     9
 71
     3
 72
    17
 73
    13
 74
     0
 42
0.0000000001
 43
0.0000000001
 40
0.0
 40
0.0
 40
0.0
 40
0.0
 40
1.0
 40
1.0
 40
1.0
 40
2.0
 40
2.0
 40
2.0
 40
3.0
 40
3.0
 40
3.0
 40
4.0
 40
4.0
 40
4.0
 40
4.0
 10
121.5487030879257
 20
-145.0256465159321
 30
0.0
 10
121.5487030879257
 20
-144.9701898506803
 30
0.0
 10
121.503900311291
 20
-144.9254223518224
 30
0.0
 10
121.4486200349235
 20
-144.9254223518224
 30
0.0
 10
121.3934808696635
 20
-144.9254223518224
 30
0.0
 10
121.3487133708057
 20
-144.9701898506803
 30
0.0
 10
121.3487133708057
 20
-145.0256465159321
 30
0.0
 10
121.3487133708057
 20
-145.0807856811921
 30
0.0
 10
121.3934808696635
 20
-145.12555318005
 30
0.0
 10
121.4486200349235
 20
-145.12555318005
 30
0.0
 10
121.503900311291
 20
-145.12555318005
 30
0.0
 10
121.5487030879257
 20
-145.0807856811921
 30
0.0
 10
121.5487030879257
 20
-145.0256465159321
 30
0.0
  0
SPLINE
  5
7C
330
70
100
AcDbEntity
  8
レイヤー 1
 62
   250
420
  2299925
370
     9
100
AcDbSpline
210
0.0
220
0.0
230
1.0
 70
     9
 71
     3
 72
    17
 73
    13
 74
     0
 42
0.0000000001
 43
0.0000000001
 40
0.0
 40
0.0
 40
0.0
 40
0.0
 40
1.0
 40
1.0
 40
1.0
 40
2.0
 40
2.0
 40
2.0
 40
3.0
 40
3.0
 40
3.0
 40
4.0
 40
4.0
 40
4.0
 40
4.0
 10
121.5487030879257
 20
-152.325500496364
 30
0.0
 10
121.5487030879257
 20
-152.2703966088809
 30
0.0
 10
121.503900311291
 20
-152.2255938322462
 30
0.0
 10
121.4486200349235
 20
-152.2255938322462
 30
0.0
 10
121.3934808696635
 20
-152.2255938322462
 30
0.0
 10
121.3487133708057
 20
-152.2703966088809
 30
0.0
 10
121.3487133708057
 20
-152.325500496364
 30
0.0
 10
121.3487133708057
 20
-152.3809571616158
 30
0.0
 10
121.3934808696635
 20
-152.4257599382506
 30
0.0
 10
121.4486200349235
 20
-152.4257599382506
 30
0.0
 10
121.503900311291
 20
-152.4257599382506
 30
0.0
 10
121.5487030879257
 20
-152.3809571616158
 30
0.0
 10
121.5487030879257
 20
-152.325500496364
 30
0.0
  0
SPLINE
  5
7D
330
70
100
AcDbEntity
  8
レイヤー 1
 62
   250
420
  2299925
370
     9
100
AcDbSpline
210
0.0
220
0.0
230
1.0
 70
     9
 71
     3
 72
    17
 73
    13
 74
     0
 42
0.0000000001
 43
0.0000000001
 40
0.0
 40
0.0
 40
0.0
 40
0.0
 40
1.0
 40
1.0
 40
1.0
 40
2.0
 40
2.0
 40
2.0
 40
3.0
 40
3.0
 40
3.0
 40
4.0
 40
4.0
 40
4.0
 40
4.0
 10
121.5487030879257
 20
-155.3254873642724
 30
0.0
 10
121.5487030879257
 20
-155.2703834767887
 30
0.0
 10
121.503900311291
 20
-155.2255807001546
 30
0.0
 10
121.4486200349235
 20
-155.2255807001546
 30
0.0
 10
121.3934808696635
 20
-155.2255807001546
 30
0.0
 10
121.3487133708057
 20
-155.2703834767887
 30
0.0
 10
121.3487133708057
 20
-155.3254873642724
 30
0.0
 10
121.3487133708057
 20
-155.3809440295242
 30
0.0
 10
121.3934808696635
 20
-155.425746806159
 30
0.0
 10
121.4486200349235
 20
-155.425746806159
 30
0.0
 10
121.503900311291
 20
-155.425746806159
 30
0.0
 10
121.5487030879257
 20
-155.3809440295242
 30
0.0
 10
121.5487030879257
 20
-155.3254873642724
 30
0.0
  0
SPLINE
  5
7E
330
70
100
AcDbEntity
  8
レイヤー 1
 62
   250
420
  2299925
370
     9
100
AcDbSpline
210
0.0
220
0.0
230
1.0
 70
     9
 71
     3
 72
    17
 73
    13
 74
     0
 42
0.0000000001
 43
0.0000000001
 40
0.0
 40
0.0
 40
0.0
 40
0.0
 40
1.0
 40
1.0
 40
1.0
 40
2.0
 40
2.0
 40
2.0
 40
3.0
 40
3.0
 40
3.0
 40
4.0
 40
4.0
 40
4.0
 40
4.0
 10
121.5487030879257
 20
-145.8257464955199
 30
0.0
 10
121.5487030879257
 20
-145.770289830268
 30
0.0
 10
121.503900311291
 20
-145.7254870536333
 30
0.0
 10
121.4486200349235
 20
-145.7254870536333
 30
0.0
 10
121.3934808696635
 20
-145.7254870536333
 30
0.0
 10
121.3487133708057
 20
-145.770289830268
 30
0.0
 10
121.3487133708057
 20
-145.8257464955199
 30
0.0
 10
121.3487133708057
 20
-145.8808856607798
 30
0.0
 10
121.3934808696635
 20
-145.9256531596377
 30
0.0
 10
121.4486200349235
 20
-145.9256531596377
 30
0.0
 10
121.503900311291
 20
-145.9256531596377
 30
0.0
 10
121.5487030879257
 20
-145.8808856607798
 30
0.0
 10
121.5487030879257
 20
-145.8257464955199
 30
0.0
  0
SPLINE
  5
7F
330
70
100
AcDbEntity
  8
レイヤー 1
 62
   250
420
  2299925
370
     9
100
AcDbSpline
210
0.0
220
0.0
230
1.0
 70
     9
 71
     3
 72
    17
 73
    13
 74
     0
 42
0.0000000001
 43
0.0000000001
 40
0.0
 40
0.0
 40
0.0
 40
0.0
 40
1.0
 40
1.0
 40
1.0
 40
2.0
 40
2.0
 40
2.0
 40
3.0
 40
3.0
 40
3.0
 40
4.0
 40
4.0
 40
4.0
 40
4.0
 10
99.54867044904588
 20
-159.3255992066655
 30
0.0
 10
99.54867044904588
 20
-159.2704600414056
 30
0.0
 10
99.5038676712798
 20
-159.2256907957049
 30
0.0
 10
99.44858739351538
 20
-159.2256907957049
 30
0.0
 10
99.39348350464014
 20
-159.2256907957049
 30
0.0
 10
99.34868072687372
 20
-159.2704600414056
 30
0.0
 10
99.34868072687372
 20
-159.3255992066655
 30
0.0
 10
99.34868072687372
 20
-159.3807030941486
 30
0.0
 10
99.39348350464014
 20
-159.4255058707833
 30
0.0
 10
99.44858739351538
 20
-159.4255058707833
 30
0.0
 10
99.5038676712798
 20
-159.4255058707833
 30
0.0
 10
99.54867044904588
 20
-159.3807030941486
 30
0.0
 10
99.54867044904588
 20
-159.3255992066655
 30
0.0
  0
SPLINE
  5
80
330
70
100
AcDbEntity
  8
レイヤー 1
 62
   250
420
  2299925
370
     9
100
AcDbSpline
210
0.0
220
0.0
230
1.0
 70
     9
 71
     3
 72
    17
 73
    13
 74
     0
 42
0.0000000001
 43
0.0000000001
 40
0.0
 40
0.0
 40
0.0
 40
0.0
 40
1.0
 40
1.0
 40
1.0
 40
2.0
 40
2.0
 40
2.0
 40
3.0
 40
3.0
 40
3.0
 40
4.0
 40
4.0
 40
4.0
 40
4.0
 10
99.54867044904588
 20
-141.825564097573
 30
0.0
 10
99.54867044904588
 20
-141.7704249323131
 30
0.0
 10
99.5038676712798
 20
-141.7256574334552
 30
0.0
 10
99.44858739351538
 20
-141.7256574334552
 30
0.0
 10
99.39348350464014
 20
-141.7256574334552
 30
0.0
 10
99.34868072687372
 20
-141.7704249323131
 30
0.0
 10
99.34868072687372
 20
-141.825564097573
 30
0.0
 10
99.34868072687372
 20
-141.8806658000414
 30
0.0
 10
99.39348350464014
 20
-141.9254685778081
 30
0.0
 10
99.44858739351538
 20
-141.9254685778081
 30
0.0
 10
99.5038676712798
 20
-141.9254685778081
 30
0.0
 10
99.54867044904588
 20
-141.8806658000414
 30
0.0
 10
99.54867044904588
 20
-141.825564097573
 30
0.0
  0
SPLINE
  5
81
330
70
100
AcDbEntity
  8
レイヤー 1
 62
   250
420
  2299925
370
     9
100
AcDbSpline
210
0.0
220
0.0
230
1.0
 70
     9
 71
     3
 72
    17
 73
    13
 74
     0
 42
0.0000000001
 43
0.0000000001
 40
0.0
 40
0.0
 40
0.0
 40
0.0
 40
1.0
 40
1.0
 40
1.0
 40
2.0
 40
2.0
 40
2.0
 40
3.0
 40
3.0
 40
3.0
 40
4.0
 40
4.0
 40
4.0
 40
4.0
 10
106.5486987806301
 20
-159.3255992066655
 30
0.0
 10
106.5486987806301
 20
-159.2704600414056
 30
0.0
 10
106.5039312806403
 20
-159.2256907957049
 30
0.0
 10
106.4486157250983
 20
-159.2256907957049
 30
0.0
 10
106.3933354473345
 20
-159.2256907957049
 30
0.0
 10
106.348567947346
 20
-159.2704600414056
 30
0.0
 10
106.348567947346
 20
-159.3255992066655
 30
0.0
 10
106.348567947346
 20
-159.3807030941486
 30
0.0
 10
106.3933354473345
 20
-159.4255058707833
 30
0.0
 10
106.4486157250983
 20
-159.4255058707833
 30
0.0
 10
106.5039312806403
 20
-159.4255058707833
 30
0.0
 10
106.5486987806301
 20
-159.3807030941486
 30
0.0
 10
106.5486987806301
 20
-159.3255992066655
 30
0.0
  0
SPLINE
  5
82
330
70
100
AcDbEntity
  8
レイヤー 1
 62
   250
420
  2299925
370
     9
100
AcDbSpline
210
0.0
220
0.0
230
1.0
 70
     9
 71
     3
 72
    17
 73
    13
 74
     0
 42
0.0000000001
 43
0.0000000001
 40
0.0
 40
0.0
 40
0.0
 40
0.0
 40
1.0
 40
1.0
 40
1.0
 40
2.0
 40
2.0
 40
2.0
 40
3.0
 40
3.0
 40
3.0
 40
4.0
 40
4.0
 40
4.0
 40
4.0
 10
117.5485921112129
 20
-141.825564097573
 30
0.0
 10
117.5485921112129
 20
-141.7704249323131
 30
0.0
 10
117.5037893334462
 20
-141.7256574334552
 30
0.0
 10
117.4486854445706
 20
-141.7256574334552
 30
0.0
 10
117.3933698890299
 20
-141.7256574334552
 30
0.0
 10
117.3486023890401
 20
-141.7704249323131
 30
0.0
 10
117.3486023890401
 20
-141.825564097573
 30
0.0
 10
117.3486023890401
 20
-141.8806658000414
 30
0.0
 10
117.3933698890299
 20
-141.9254685778081
 30
0.0
 10
117.4486854445706
 20
-141.9254685778081
 30
0.0
 10
117.5037893334462
 20
-141.9254685778081
 30
0.0
 10
117.5485921112129
 20
-141.8806658000414
 30
0.0
 10
117.5485921112129
 20
-141.825564097573
 30
0.0
  0
INSERT
  5
84
330
70
100
AcDbEntity
  8
レイヤー 1
100
AcDbBlockReference
  2
Block_0
 10
0.0
 20
0.0
 30
0.0
  0
INSERT
  5
9D
330
70
100
AcDbEntity
  8
レイヤー 1
100
AcDbBlockReference
  2
Block_3
 10
0.0
 20
0.0
 30
0.0
  0
LINE
  5
A8
330
70
100
AcDbEntity
  8
レイヤー 1
 62
   250
420
  2299925
370
     9
100
AcDbLine
 10
121.4486200349235
 20
-145.8257464955199
 30
0.0
 11
121.4486200349235
 21
-152.325500496364
 31
0.0
  0
LINE
  5
A9
330
70
100
AcDbEntity
  8
レイヤー 1
 62
   250
420
  2299925
370
     9
100
AcDbLine
 10
119.9885786832834
 20
-145.8257464955199
 30
0.0
 11
122.4485343322096
 21
-145.8257464955199
 31
0.0
  0
LINE
  5
AA
330
70
100
AcDbEntity
  8
レイヤー 1
 62
   250
420
  2299925
370
     9
100
AcDbLine
 10
108.9886862800199
 20
-152.325500496364
 30
0.0
 11
122.4485343322096
 21
-152.325500496364
 31
0.0
  0
INSERT
  5
AC
330
70
100
AcDbEntity
  8
レイヤー 1
100
AcDbBlockReference
  2
Block_5
 10
0.0
 20
0.0
 30
0.0
  0
INSERT
  5
BB
330
70
100
AcDbEntity
  8
レイヤー 1
100
AcDbBlockReference
  2
Block_7
 10
0.0
 20
0.0
 30
0.0
  0
INSERT
  5
D0
330
70
100
AcDbEntity
  8
レイヤー 1
100
AcDbBlockReference
  2
Block_10
 10
0.0
 20
0.0
 30
0.0
  0
INSERT
  5
DD
330
70
100
AcDbEntity
  8
レイヤー 1
100
AcDbBlockReference
  2
Block_12
 10
0.0
 20
0.0
 30
0.0
  0
ENDSEC
  0
SECTION
  2
OBJECTS
  0
DICTIONARY
  5
C
330
0
100
AcDbDictionary
281
     1
  3
ACAD_COLOR
350
63
  3
ACAD_DETAILVIEWSTYLE
350
6A
  3
ACAD_GROUP
350
D
  3
ACAD_LAYOUT
350
62
  3
ACAD_MATERIAL
350
10
  3
ACAD_MLEADERSTYLE
350
66
  3
ACAD_MLINESTYLE
350
5F
  3
ACAD_PLOTSETTINGS
350
61
  3
ACAD_PLOTSTYLENAME
350
E
  3
ACAD_SCALELIST
350
42
  3
ACAD_SECTIONVIEWSTYLE
350
68
  3
ACAD_TABLESTYLE
350
64
  3
ACAD_VISUALSTYLE
350
29
  3
ACDB_RECOMPOSE_DATA
350
107
  3
AcDbVariableDictionary
350
FF
  0
DICTIONARY
  5
63
102
{ACAD_REACTORS
330
C
102
}
330
C
100
AcDbDictionary
281
     1
  0
DICTIONARY
  5
6A
102
{ACAD_REACTORS
330
C
102
}
330
C
100
AcDbDictionary
281
     1
  3
Imperial24
350
6B
  0
DICTIONARY
  5
D
102
{ACAD_REACTORS
330
C
102
}
330
C
100
AcDbDictionary
281
     1
  0
DICTIONARY
  5
62
102
{ACAD_REACTORS
330
C
102
}
330
C
100
AcDbDictionary
281
     1
  3
Layout1
350
6F
  3
Layout2
350
77
  3
Model
350
73
  0
DICTIONARY
  5
10
102
{ACAD_REACTORS
330
C
102
}
330
C
100
AcDbDictionary
281
     1
  3
ByBlock
350
19
  3
ByLayer
350
11
  3
Global
350
21
  0
DICTIONARY
  5
66
102
{ACAD_REACTORS
330
C
102
}
330
C
100
AcDbDictionary
281
     1
  3
Standard
350
67
  0
DICTIONARY
  5
5F
102
{ACAD_REACTORS
330
C
102
}
330
C
100
AcDbDictionary
281
     1
  3
Standard
350
60
  0
DICTIONARY
  5
61
102
{ACAD_REACTORS
330
C
102
}
330
C
100
AcDbDictionary
281
     1
  0
ACDBDICTIONARYWDFLT
  5
E
102
{ACAD_REACTORS
330
C
102
}
330
C
100
AcDbDictionary
281
     1
  3
Normal
350
F
100
AcDbDictionaryWithDefault
340
F
  0
DICTIONARY
  5
42
102
{ACAD_REACTORS
330
C
102
}
330
C
100
AcDbDictionary
281
     1
  3
A0
350
43
  3
A1
350
44
  3
A2
350
45
  3
A3
350
46
  3
A4
350
47
  3
A5
350
48
  3
A6
350
49
  3
A7
350
4A
  3
A8
350
4B
  3
A9
350
4C
  3
B0
350
4D
  3
B1
350
4E
  3
B2
350
4F
  3
B3
350
50
  3
B4
350
51
  3
B5
350
52
  3
B6
350
53
  0
DICTIONARY
  5
68
102
{ACAD_REACTORS
330
C
102
}
330
C
100
AcDbDictionary
281
     1
  3
Imperial24
350
69
  0
DICTIONARY
  5
64
102
{ACAD_REACTORS
330
C
102
}
330
C
100
AcDbDictionary
281
     1
  3
Standard
350
65
  0
DICTIONARY
  5
29
102
{ACAD_REACTORS
330
C
102
}
330
C
100
AcDbDictionary
281
     1
  3
2dWireframe
350
2F
  3
Basic
350
2E
  3
Brighten
350
35
  3
ColorChange
350
39
  3
Conceptual
350
32
  3
Dim
350
34
  3
EdgeColorOff
350
41
  3
Facepattern
350
38
  3
Flat
350
2A
  3
FlatWithEdges
350
2B
  3
Gouraud
350
2C
  3
GouraudWithEdges
350
2D
  3
Hidden
350
31
  3
JitterOff
350
3F
  3
Linepattern
350
37
  3
OverhangOff
350
40
  3
Realistic
350
33
  3
Shaded
350
3E
  3
Shaded with edges
350
3D
  3
Shades of Gray
350
3A
  3
Sketchy
350
3B
  3
Thicken
350
36
  3
Wireframe
350
30
  3
X-Ray
350
3C
  0
XRECORD
  5
107
102
{ACAD_REACTORS
330
C
102
}
330
C
100
AcDbXrecord
280
     1
 90
        1
330
65
  0
DICTIONARY
  5
FF
102
{ACAD_REACTORS
330
C
102
}
330
C
100
AcDbDictionary
281
     1
  3
CANNOSCALE
350
104
  3
CMLEADERSTYLE
350
101
  3
CTABLESTYLE
350
100
  3
CVIEWDETAILSTYLE
350
102
  3
CVIEWSECTIONSTYLE
350
103
  0
ACDBDETAILVIEWSTYLE
  5
6B
102
{ACAD_XDICTIONARY
360
13C
102
}
102
{ACAD_REACTORS
330
6A
102
}
330
6A
100
AcDbModelDocViewStyle
 70
     0
  3
Imperial24
290
     0
100
AcDbDetailViewStyle
 70
     0
 71
     0
 90
        3
 71
     1
340
55
 62
   256
 40
0.24
340
0
 62
   256
 40
0.24
300

 40
0.36
280
     3
 71
     2
340
5D
 90
       25
 62
   256
 71
     3
340
55
 62
   256
 40
0.24
 90
        1
 40
0.75
 90
        1
300
%<\AcVar ViewType \f "%tc1">% %<\AcVar ViewDetailId>%\PSCALE %<\AcVar ViewScale \f "%sn">%
 71
     4
340
5D
 90
       25
 62
   256
340
5D
 90
       25
 62
   256
280
     0
  0
LAYOUT
  5
6F
102
{ACAD_REACTORS
330
62
102
}
330
62
100
AcDbPlotSettings
  1

  2

  4

  6

 40
0.0
 41
0.0
 42
0.0
 43
0.0
 44
0.0
 45
0.0
 46
0.0
 47
0.0
 48
0.0
 49
0.0
140
0.0
141
0.0
142
1.0
143
1.0
 70
   688
 72
     0
 73
     0
 74
     5
  7

 75
    16
147
1.0
 76
     0
 77
     2
 78
   300
148
0.0
149
0.0
100
AcDbLayout
  1
Layout1
 70
     1
 71
     1
 10
0.0
 20
0.0
 11
12.0
 21
9.0
 12
0.0
 22
0.0
 32
0.0
 14
0.0
 24
0.0
 34
0.0
 15
0.0
 25
0.0
 35
0.0
146
0.0
 13
0.0
 23
0.0
 33
0.0
 16
1.0
 26
0.0
 36
0.0
 17
0.0
 27
1.0
 37
0.0
 76
     0
330
6C
  0
LAYOUT
  5
77
102
{ACAD_REACTORS
330
62
102
}
330
62
100
AcDbPlotSettings
  1

  2

  4

  6

 40
0.0
 41
0.0
 42
0.0
 43
0.0
 44
0.0
 45
0.0
 46
0.0
 47
0.0
 48
0.0
 49
0.0
140
0.0
141
0.0
142
1.0
143
1.0
 70
   688
 72
     0
 73
     0
 74
     5
  7

 75
    16
147
1.0
 76
     0
 77
     2
 78
   300
148
0.0
149
0.0
100
AcDbLayout
  1
Layout2
 70
     1
 71
     2
 10
0.0
 20
0.0
 11
12.0
 21
9.0
 12
0.0
 22
0.0
 32
0.0
 14
0.0
 24
0.0
 34
0.0
 15
0.0
 25
0.0
 35
0.0
146
0.0
 13
0.0
 23
0.0
 33
0.0
 16
1.0
 26
0.0
 36
0.0
 17
0.0
 27
1.0
 37
0.0
 76
     0
330
74
  0
LAYOUT
  5
73
102
{ACAD_REACTORS
330
62
102
}
330
62
100
AcDbPlotSettings
  1

  2

  4

  6

 40
0.0
 41
0.0
 42
0.0
 43
0.0
 44
0.0
 45
0.0
 46
0.0
 47
0.0
 48
0.0
 49
0.0
140
0.0
141
0.0
142
1.0
143
1.0
 70
  1712
 72
     0
 73
     0
 74
     0
  7

 75
     0
147
1.0
 76
     0
 77
     2
 78
   300
148
0.0
149
0.0
100
AcDbLayout
  1
Model
 70
     1
 71
     0
 10
0.0
 20
0.0
 11
12.0
 21
9.0
 12
0.0
 22
0.0
 32
0.0
 14
0.0
 24
0.0
 34
0.0
 15
0.0
 25
0.0
 35
0.0
146
0.0
 13
0.0
 23
0.0
 33
0.0
 16
1.0
 26
0.0
 36
0.0
 17
0.0
 27
1.0
 37
0.0
 76
     0
330
70
  0
MATERIAL
  5
19
102
{ACAD_XDICTIONARY
360
1A
102
}
102
{ACAD_REACTORS
330
10
102
}
330
10
100
AcDbMaterial
  1
ByBlock
 72
     0
 43
0.0208333333333333
 43
0.0
 43
0.0
 43
0.0
 43
0.0
 43
0.0208333333333333
 43
0.0
 43
0.0
 43
0.0
 43
0.0
 43
1.0
 43
0.0
 43
0.0
 43
0.0
 43
0.0
 43
1.0
 77
     0
 47
0.0208333333333333
 47
0.0
 47
0.0
 47
0.0
 47
0.0
 47
0.0208333333333333
 47
0.0
 47
0.0
 47
0.0
 47
0.0
 47
1.0
 47
0.0
 47
0.0
 47
0.0
 47
0.0
 47
1.0
171
     0
 49
0.0208333333333333
 49
0.0
 49
0.0
 49
0.0
 49
0.0
 49
0.0208333333333333
 49
0.0
 49
0.0
 49
0.0
 49
0.0
 49
1.0
 49
0.0
 49
0.0
 49
0.0
 49
0.0
 49
1.0
175
     0
142
0.0208333333333333
142
0.0
142
0.0
142
0.0
142
0.0
142
0.0208333333333333
142
0.0
142
0.0
142
0.0
142
0.0
142
1.0
142
0.0
142
0.0
142
0.0
142
0.0
142
1.0
179
     0
144
0.0208333333333333
144
0.0
144
0.0
144
0.0
144
0.0
144
0.0208333333333333
144
0.0
144
0.0
144
0.0
144
0.0
144
1.0
144
0.0
144
0.0
144
0.0
144
0.0
144
1.0
147
0.0208333333333333
147
0.0
147
0.0
147
0.0
147
0.0
147
0.0208333333333333
147
0.0
147
0.0
147
0.0
147
0.0
147
1.0
147
0.0
147
0.0
147
0.0
147
0.0
147
1.0
  0
MATERIAL
  5
11
102
{ACAD_XDICTIONARY
360
12
102
}
102
{ACAD_REACTORS
330
10
102
}
330
10
100
AcDbMaterial
  1
ByLayer
 72
     0
 43
0.0208333333333333
 43
0.0
 43
0.0
 43
0.0
 43
0.0
 43
0.0208333333333333
 43
0.0
 43
0.0
 43
0.0
 43
0.0
 43
1.0
 43
0.0
 43
0.0
 43
0.0
 43
0.0
 43
1.0
 77
     0
 47
0.0208333333333333
 47
0.0
 47
0.0
 47
0.0
 47
0.0
 47
0.0208333333333333
 47
0.0
 47
0.0
 47
0.0
 47
0.0
 47
1.0
 47
0.0
 47
0.0
 47
0.0
 47
0.0
 47
1.0
171
     0
 49
0.0208333333333333
 49
0.0
 49
0.0
 49
0.0
 49
0.0
 49
0.0208333333333333
 49
0.0
 49
0.0
 49
0.0
 49
0.0
 49
1.0
 49
0.0
 49
0.0
 49
0.0
 49
0.0
 49
1.0
175
     0
142
0.0208333333333333
142
0.0
142
0.0
142
0.0
142
0.0
142
0.0208333333333333
142
0.0
142
0.0
142
0.0
142
0.0
142
1.0
142
0.0
142
0.0
142
0.0
142
0.0
142
1.0
179
     0
144
0.0208333333333333
144
0.0
144
0.0
144
0.0
144
0.0
144
0.0208333333333333
144
0.0
144
0.0
144
0.0
144
0.0
144
1.0
144
0.0
144
0.0
144
0.0
144
0.0
144
1.0
147
0.0208333333333333
147
0.0
147
0.0
147
0.0
147
0.0
147
0.0208333333333333
147
0.0
147
0.0
147
0.0
147
0.0
147
1.0
147
0.0
147
0.0
147
0.0
147
0.0
147
1.0
  0
MATERIAL
  5
21
102
{ACAD_XDICTIONARY
360
22
102
}
102
{ACAD_REACTORS
330
10
102
}
330
10
100
AcDbMaterial
  1
Global
 72
     0
 43
0.0208333333333333
 43
0.0
 43
0.0
 43
0.0
 43
0.0
 43
0.0208333333333333
 43
0.0
 43
0.0
 43
0.0
 43
0.0
 43
1.0
 43
0.0
 43
0.0
 43
0.0
 43
0.0
 43
1.0
 77
     0
 47
0.0208333333333333
 47
0.0
 47
0.0
 47
0.0
 47
0.0
 47
0.0208333333333333
 47
0.0
 47
0.0
 47
0.0
 47
0.0
 47
1.0
 47
0.0
 47
0.0
 47
0.0
 47
0.0
 47
1.0
171
     0
 49
0.0208333333333333
 49
0.0
 49
0.0
 49
0.0
 49
0.0
 49
0.0208333333333333
 49
0.0
 49
0.0
 49
0.0
 49
0.0
 49
1.0
 49
0.0
 49
0.0
 49
0.0
 49
0.0
 49
1.0
175
     0
142
0.0208333333333333
142
0.0
142
0.0
142
0.0
142
0.0
142
0.0208333333333333
142
0.0
142
0.0
142
0.0
142
0.0
142
1.0
142
0.0
142
0.0
142
0.0
142
0.0
142
1.0
179
     0
144
0.0208333333333333
144
0.0
144
0.0
144
0.0
144
0.0
144
0.0208333333333333
144
0.0
144
0.0
144
0.0
144
0.0
144
1.0
144
0.0
144
0.0
144
0.0
144
0.0
144
1.0
147
0.0208333333333333
147
0.0
147
0.0
147
0.0
147
0.0
147
0.0208333333333333
147
0.0
147
0.0
147
0.0
147
0.0
147
1.0
147
0.0
147
0.0
147
0.0
147
0.0
147
1.0
  0
MLEADERSTYLE
  5
67
102
{ACAD_XDICTIONARY
360
138
102
}
102
{ACAD_REACTORS
330
66
102
}
330
66
100
AcDbMLeaderStyle
179
     2
170
     2
171
     1
172
     0
 90
        2
 40
0.0
 41
0.0
173
     1
 91
-1056964608
340
5B
 92
       -2
290
     1
 42
0.09
291
     1
 43
0.36
  3
Standard
 44
0.18
300

342
55
174
     1
178
     6
175
     1
176
     0
 93
-1056964608
 45
0.18
292
     0
297
     0
 46
0.18
 94
-1056964608
 47
1.0
 49
1.0
140
1.0
293
     1
141
0.0
294
     1
177
     0
142
1.0
295
     0
296
     0
143
0.125
271
     0
272
     9
273
     9
  0
MLINESTYLE
  5
60
102
{ACAD_REACTORS
330
5F
102
}
330
5F
100
AcDbMlineStyle
  2
STANDARD
 70
     0
  3

 62
   256
 51
90.0
 52
90.0
 71
     2
 49
0.5
 62
   256
  6
BYLAYER
 49
-0.5
 62
   256
  6
BYLAYER
  0
ACDBPLACEHOLDER
  5
F
102
{ACAD_REACTORS
330
E
102
}
330
E
  0
SCALE
  5
43
102
{ACAD_REACTORS
330
42
102
}
330
42
100
AcDbScale
 70
     0
300
1:1
140
1.0
141
1.0
290
     1
  0
SCALE
  5
44
102
{ACAD_REACTORS
330
42
102
}
330
42
100
AcDbScale
 70
     0
300
1/128" = 1'-0"
140
0.0078125
141
12.0
290
     0
  0
SCALE
  5
45
102
{ACAD_REACTORS
330
42
102
}
330
42
100
AcDbScale
 70
     0
300
1/64" = 1'-0"
140
0.015625
141
12.0
290
     0
  0
SCALE
  5
46
102
{ACAD_REACTORS
330
42
102
}
330
42
100
AcDbScale
 70
     0
300
1/32" = 1'-0"
140
0.03125
141
12.0
290
     0
  0
SCALE
  5
47
102
{ACAD_REACTORS
330
42
102
}
330
42
100
AcDbScale
 70
     0
300
1/16" = 1'-0"
140
0.0625
141
12.0
290
     0
  0
SCALE
  5
48
102
{ACAD_REACTORS
330
42
102
}
330
42
100
AcDbScale
 70
     0
300
3/32" = 1'-0"
140
0.09375
141
12.0
290
     0
  0
SCALE
  5
49
102
{ACAD_REACTORS
330
42
102
}
330
42
100
AcDbScale
 70
     0
300
1/8" = 1'-0"
140
0.125
141
12.0
290
     0
  0
SCALE
  5
4A
102
{ACAD_REACTORS
330
42
102
}
330
42
100
AcDbScale
 70
     0
300
3/16" = 1'-0"
140
0.1875
141
12.0
290
     0
  0
SCALE
  5
4B
102
{ACAD_REACTORS
330
42
102
}
330
42
100
AcDbScale
 70
     0
300
1/4" = 1'-0"
140
0.25
141
12.0
290
     0
  0
SCALE
  5
4C
102
{ACAD_REACTORS
330
42
102
}
330
42
100
AcDbScale
 70
     0
300
3/8" = 1'-0"
140
0.375
141
12.0
290
     0
  0
SCALE
  5
4D
102
{ACAD_REACTORS
330
42
102
}
330
42
100
AcDbScale
 70
     0
300
1/2" = 1'-0"
140
0.5
141
12.0
290
     0
  0
SCALE
  5
4E
102
{ACAD_REACTORS
330
42
102
}
330
42
100
AcDbScale
 70
     0
300
3/4" = 1'-0"
140
0.75
141
12.0
290
     0
  0
SCALE
  5
4F
102
{ACAD_REACTORS
330
42
102
}
330
42
100
AcDbScale
 70
     0
300
1" = 1'-0"
140
1.0
141
12.0
290
     0
  0
SCALE
  5
50
102
{ACAD_REACTORS
330
42
102
}
330
42
100
AcDbScale
 70
     0
300
1-1/2" = 1'-0"
140
1.5
141
12.0
290
     0
  0
SCALE
  5
51
102
{ACAD_REACTORS
330
42
102
}
330
42
100
AcDbScale
 70
     0
300
3" = 1'-0"
140
3.0
141
12.0
290
     0
  0
SCALE
  5
52
102
{ACAD_REACTORS
330
42
102
}
330
42
100
AcDbScale
 70
     0
300
6" = 1'-0"
140
6.0
141
12.0
290
     0
  0
SCALE
  5
53
102
{ACAD_REACTORS
330
42
102
}
330
42
100
AcDbScale
 70
     0
300
1'-0" = 1'-0"
140
12.0
141
12.0
290
     0
  0
ACDBSECTIONVIEWSTYLE
  5
69
102
{ACAD_XDICTIONARY
360
13A
102
}
102
{ACAD_REACTORS
330
68
102
}
330
68
100
AcDbModelDocViewStyle
 70
     0
  3
Imperial24
290
     0
100
AcDbSectionViewStyle
 70
     0
 71
     0
 90
       78
 71
     1
340
55
 62
   256
 40
0.24
340
0
340
0
 62
   256
 40
0.24
300
I, O, Q, S, X, Z
 40
0.48
 90
        3
 40
0.18
 90
        1
 71
     2
340
5D
 90
       25
 62
   256
340
5D
 90
       50
 62
   256
 40
0.24
 40
0.0
 40
0.24
 71
     3
340
55
 62
   256
 40
0.24
 90
        1
 40
0.75
 90
        1
300
%<\AcVar ViewType \f "%tc1">% %<\AcVar ViewSectionStartId>%-%<\AcVar ViewSectionEndId>%\PSCALE %<\AcVar ViewScale \f "%sn">%
 71
     4
 62
   256
 62
   257
300
ANSI31
 40
1.0
 90
        0
290
     0
290
     0
 90
        6
 40
0.0
 40
1.570796326794896
 40
0.2617993877991494
 40
1.308996938995747
 40
-0.2617993877991494
 40
1.832595714594046
  0
TABLESTYLE
  5
65
102
{ACAD_XDICTIONARY
360
105
102
}
102
{ACAD_REACTORS
330
64
102
}
330
64
100
AcDbTableStyle
280
     0
  3
Standard
 70
     0
 71
     0
 40
0.06
 41
0.06
280
     0
281
     0
  7
Standard
140
0.18
170
     2
 62
     0
 63
     7
283
     0
 90
      512
 91
        0
  1

274
    -2
284
     1
 64
     0
275
    -2
285
     1
 65
     0
276
    -2
286
     1
 66
     0
277
    -2
287
     1
 67
     0
278
    -2
288
     1
 68
     0
279
    -2
289
     1
 69
     0
  7
Standard
140
0.25
170
     5
 62
     0
 63
     7
283
     0
 90
      512
 91
        0
  1

274
    -2
284
     1
 64
     0
275
    -2
285
     1
 65
     0
276
    -2
286
     1
 66
     0
277
    -2
287
     1
 67
     0
278
    -2
288
     1
 68
     0
279
    -2
289
     1
 69
     0
  7
Standard
140
0.18
170
     5
 62
     0
 63
     7
283
     0
 90
      512
 91
        0
  1

274
    -2
284
     1
 64
     0
275
    -2
285
     1
 65
     0
276
    -2
286
     1
 66
     0
277
    -2
287
     1
 67
     0
278
    -2
288
     1
 68
     0
279
    -2
289
     1
 69
     0
  0
VISUALSTYLE
  5
2F
102
{ACAD_XDICTIONARY
360
112
102
}
102
{ACAD_REACTORS
330
29
102
}
330
29
100
AcDbVisualStyle
  2
2dWireframe
 70
     4
177
     2
291
     0
 71
     0
176
     1
 72
     2
176
     1
 73
     0
176
     1
 90
        0
176
     1
 40
0.6
176
     1
 41
30.0
176
     1
 63
     7
421
 16777215
176
     1
 74
     1
176
     1
 91
        4
176
     1
 64
     7
176
     1
 65
   257
176
     1
 75
     1
176
     1
175
     1
176
     1
 42
1.0
176
     1
 92
        0
176
     1
 66
   257
176
     1
 43
1.0
176
     1
 76
     1
176
     1
 77
     6
176
     1
 78
     2
176
     1
 67
     7
176
     1
 79
     5
176
     1
170
     0
176
     1
171
     0
176
     1
290
     0
176
     1
 93
        1
176
     1
 44
0.0
176
     1
173
     0
176
     1
1001
ACAD
1000
AcDbSavedByObjectVersion
1070
     0
  0
VISUALSTYLE
  5
2E
102
{ACAD_XDICTIONARY
360
110
102
}
102
{ACAD_REACTORS
330
29
102
}
330
29
100
AcDbVisualStyle
  2
Basic
 70
     7
177
     2
291
     1
 71
     1
176
     1
 72
     0
176
     1
 73
     1
176
     1
 90
        0
176
     1
 40
0.6
176
     1
 41
30.0
176
     1
 63
     7
421
 16777215
176
     1
 74
     0
176
     1
 91
        4
176
     1
 64
     7
176
     1
 65
   257
176
     1
 75
     1
176
     1
175
     1
176
     1
 42
1.0
176
     1
 92
        8
176
     1
 66
     7
176
     1
 43
1.0
176
     1
 76
     1
176
     1
 77
     6
176
     1
 78
     2
176
     1
 67
     7
176
     1
 79
     5
176
     1
170
     0
176
     1
171
     0
176
     1
290
     0
176
     1
 93
        1
176
     1
 44
0.0
176
     1
173
     0
176
     1
1001
ACAD
1000
AcDbSavedByObjectVersion
1070
     0
  0
VISUALSTYLE
  5
35
102
{ACAD_XDICTIONARY
360
11E
102
}
102
{ACAD_REACTORS
330
29
102
}
330
29
100
AcDbVisualStyle
  2
Brighten
 70
    12
177
     2
291
     1
 71
     2
176
     1
 72
     2
176
     1
 73
     0
176
     1
 90
        0
176
     1
 40
0.6
176
     1
 41
30.0
176
     1
 63
     7
421
 16777215
176
     1
 74
     1
176
     1
 91
        4
176
     1
 64
     7
176
     1
 65
   257
176
     1
 75
     1
176
     1
175
     1
176
     1
 42
1.0
176
     1
 92
        8
176
     1
 66
     7
176
     1
 43
1.0
176
     1
 76
     1
176
     1
 77
     6
176
     1
 78
     2
176
     1
 67
     7
176
     1
 79
     5
176
     1
170
     0
176
     1
171
     0
176
     1
290
     0
176
     1
 93
        1
176
     1
 44
50.0
176
     1
173
     0
176
     1
1001
ACAD
1000
AcDbSavedByObjectVersion
1070
     0
  0
VISUALSTYLE
  5
39
102
{ACAD_XDICTIONARY
360
126
102
}
102
{ACAD_REACTORS
330
29
102
}
330
29
100
AcDbVisualStyle
  2
ColorChange
 70
    16
177
     2
291
     1
 71
     2
176
     1
 72
     2
176
     1
 73
     3
176
     1
 90
        0
176
     1
 40
0.6
176
     1
 41
30.0
176
     1
 63
     8
421
  8421504
176
     1
 74
     1
176
     1
 91
        4
176
     1
 64
     7
176
     1
 65
   257
176
     1
 75
     1
176
     1
175
     1
176
     1
 42
1.0
176
     1
 92
        8
176
     1
 66
     8
424
  8421504
176
     1
 43
1.0
176
     1
 76
     1
176
     1
 77
     6
176
     1
 78
     2
176
     1
 67
     7
176
     1
 79
     5
176
     1
170
     0
176
     1
171
     0
176
     1
290
     0
176
     1
 93
        1
176
     1
 44
0.0
176
     1
173
     0
176
     1
1001
ACAD
1000
AcDbSavedByObjectVersion
1070
     0
  0
VISUALSTYLE
  5
32
102
{ACAD_XDICTIONARY
360
118
102
}
102
{ACAD_REACTORS
330
29
102
}
330
29
100
AcDbVisualStyle
  2
Conceptual
 70
     9
177
     2
291
     0
 71
     3
176
     1
 72
     2
176
     1
 73
     0
176
     1
 90
        0
176
     1
 40
0.6
176
     1
 41
30.0
176
     1
 63
     7
421
 16777215
176
     1
 74
     2
176
     1
 91
        2
176
     1
 64
     7
176
     1
 65
   257
176
     1
 75
     1
176
     1
175
     1
176
     1
 42
179.0
176
     1
 92
        8
176
     1
 66
     7
176
     1
 43
1.0
176
     1
 76
     1
176
     1
 77
     6
176
     1
 78
     2
176
     1
 67
     7
176
     1
 79
     3
176
     1
170
     0
176
     1
171
     0
176
     1
290
     0
176
     1
 93
        1
176
     1
 44
0.0
176
     1
173
     0
176
     1
1001
ACAD
1000
AcDbSavedByObjectVersion
1070
     0
  0
VISUALSTYLE
  5
34
102
{ACAD_XDICTIONARY
360
11C
102
}
102
{ACAD_REACTORS
330
29
102
}
330
29
100
AcDbVisualStyle
  2
Dim
 70
    11
177
     2
291
     1
 71
     2
176
     1
 72
     2
176
     1
 73
     0
176
     1
 90
        0
176
     1
 40
0.6
176
     1
 41
30.0
176
     1
 63
     7
421
 16777215
176
     1
 74
     1
176
     1
 91
        4
176
     1
 64
     7
176
     1
 65
   257
176
     1
 75
     1
176
     1
175
     1
176
     1
 42
1.0
176
     1
 92
        8
176
     1
 66
     7
176
     1
 43
1.0
176
     1
 76
     1
176
     1
 77
     6
176
     1
 78
     2
176
     1
 67
     7
176
     1
 79
     5
176
     1
170
     0
176
     1
171
     0
176
     1
290
     0
176
     1
 93
        1
176
     1
 44
-50.0
176
     1
173
     0
176
     1
1001
ACAD
1000
AcDbSavedByObjectVersion
1070
     0
  0
VISUALSTYLE
  5
41
102
{ACAD_XDICTIONARY
360
136
102
}
102
{ACAD_REACTORS
330
29
102
}
330
29
100
AcDbVisualStyle
  2
EdgeColorOff
 70
    22
177
     2
291
     1
 71
     2
176
     0
 72
     2
176
     0
 73
     0
176
     0
 90
        0
176
     0
 40
0.6
176
     0
 41
30.0
176
     0
 63
     7
421
 16777215
176
     0
 74
     1
176
     0
 91
        4
176
     0
 64
     7
176
     0
 65
   257
176
     0
 75
     1
176
     0
175
     1
176
     0
 42
1.0
176
     0
 92
        8
176
     2
 66
     7
176
     0
 43
1.0
176
     0
 76
     1
176
     0
 77
     6
176
     0
 78
     2
176
     0
 67
     7
176
     0
 79
     5
176
     0
170
     0
176
     0
171
     0
176
     0
290
     0
176
     0
 93
        1
176
     0
 44
0.0
176
     0
173
     0
176
     0
1001
ACAD
1000
AcDbSavedByObjectVersion
1070
     0
  0
VISUALSTYLE
  5
38
102
{ACAD_XDICTIONARY
360
124
102
}
102
{ACAD_REACTORS
330
29
102
}
330
29
100
AcDbVisualStyle
  2
Facepattern
 70
    15
177
     2
291
     1
 71
     2
176
     1
 72
     2
176
     1
 73
     0
176
     1
 90
        0
176
     1
 40
0.6
176
     1
 41
30.0
176
     1
 63
     7
421
 16777215
176
     1
 74
     1
176
     1
 91
        4
176
     1
 64
     7
176
     1
 65
   257
176
     1
 75
     1
176
     1
175
     1
176
     1
 42
1.0
176
     1
 92
        8
176
     1
 66
     7
176
     1
 43
1.0
176
     1
 76
     1
176
     1
 77
     6
176
     1
 78
     2
176
     1
 67
     7
176
     1
 79
     5
176
     1
170
     0
176
     1
171
     0
176
     1
290
     0
176
     1
 93
        1
176
     1
 44
0.0
176
     1
173
     0
176
     1
1001
ACAD
1000
AcDbSavedByObjectVersion
1070
     0
  0
VISUALSTYLE
  5
2A
102
{ACAD_XDICTIONARY
360
108
102
}
102
{ACAD_REACTORS
330
29
102
}
330
29
100
AcDbVisualStyle
  2
Flat
 70
     0
177
     2
291
     1
 71
     2
176
     1
 72
     1
176
     1
 73
     1
176
     1
 90
        2
176
     1
 40
0.6
176
     1
 41
30.0
176
     1
 63
     7
421
 16777215
176
     1
 74
     0
176
     1
 91
        0
176
     1
 64
     7
176
     1
 65
   257
176
     1
 75
     1
176
     1
175
     1
176
     1
 42
1.0
176
     1
 92
        8
176
     1
 66
     7
176
     1
 43
1.0
176
     1
 76
     1
176
     1
 77
     6
176
     1
 78
     2
176
     1
 67
     7
176
     1
 79
     5
176
     1
170
     0
176
     1
171
     0
176
     1
290
     0
176
     1
 93
       13
176
     1
 44
0.0
176
     1
173
     0
176
     1
1001
ACAD
1000
AcDbSavedByObjectVersion
1070
     0
  0
VISUALSTYLE
  5
2B
102
{ACAD_XDICTIONARY
360
10A
102
}
102
{ACAD_REACTORS
330
29
102
}
330
29
100
AcDbVisualStyle
  2
FlatWithEdges
 70
     1
177
     2
291
     1
 71
     2
176
     1
 72
     1
176
     1
 73
     1
176
     1
 90
        2
176
     1
 40
0.6
176
     1
 41
30.0
176
     1
 63
     7
421
 16777215
176
     1
 74
     1
176
     1
 91
        0
176
     1
 64
     7
176
     1
 65
   257
176
     1
 75
     1
176
     1
175
     1
176
     1
 42
1.0
176
     1
 92
        0
176
     1
 66
   257
176
     1
 43
1.0
176
     1
 76
     1
176
     1
 77
     6
176
     1
 78
     2
176
     1
 67
     7
176
     1
 79
     5
176
     1
170
     0
176
     1
171
     0
176
     1
290
     0
176
     1
 93
       13
176
     1
 44
0.0
176
     1
173
     0
176
     1
1001
ACAD
1000
AcDbSavedByObjectVersion
1070
     0
  0
VISUALSTYLE
  5
2C
102
{ACAD_XDICTIONARY
360
10C
102
}
102
{ACAD_REACTORS
330
29
102
}
330
29
100
AcDbVisualStyle
  2
Gouraud
 70
     2
177
     2
291
     1
 71
     2
176
     1
 72
     2
176
     1
 73
     1
176
     1
 90
        2
176
     1
 40
0.6
176
     1
 41
30.0
176
     1
 63
     7
421
 16777215
176
     1
 74
     0
176
     1
 91
        0
176
     1
 64
     7
176
     1
 65
   257
176
     1
 75
     1
176
     1
175
     1
176
     1
 42
1.0
176
     1
 92
        0
176
     1
 66
     7
176
     1
 43
1.0
176
     1
 76
     1
176
     1
 77
     6
176
     1
 78
     2
176
     1
 67
     7
176
     1
 79
     5
176
     1
170
     0
176
     1
171
     0
176
     1
290
     0
176
     1
 93
       13
176
     1
 44
0.0
176
     1
173
     0
176
     1
1001
ACAD
1000
AcDbSavedByObjectVersion
1070
     0
  0
VISUALSTYLE
  5
2D
102
{ACAD_XDICTIONARY
360
10E
102
}
102
{ACAD_REACTORS
330
29
102
}
330
29
100
AcDbVisualStyle
  2
GouraudWithEdges
 70
     3
177
     2
291
     1
 71
     2
176
     1
 72
     2
176
     1
 73
     1
176
     1
 90
        2
176
     1
 40
0.6
176
     1
 41
30.0
176
     1
 63
     7
421
 16777215
176
     1
 74
     1
176
     1
 91
        0
176
     1
 64
     7
176
     1
 65
   257
176
     1
 75
     1
176
     1
175
     1
176
     1
 42
1.0
176
     1
 92
        0
176
     1
 66
   257
176
     1
 43
1.0
176
     1
 76
     1
176
     1
 77
     6
176
     1
 78
     2
176
     1
 67
     7
176
     1
 79
     5
176
     1
170
     0
176
     1
171
     0
176
     1
290
     0
176
     1
 93
       13
176
     1
 44
0.0
176
     1
173
     0
176
     1
1001
ACAD
1000
AcDbSavedByObjectVersion
1070
     0
  0
VISUALSTYLE
  5
31
102
{ACAD_XDICTIONARY
360
116
102
}
102
{ACAD_REACTORS
330
29
102
}
330
29
100
AcDbVisualStyle
  2
Hidden
 70
     6
177
     2
291
     0
 71
     1
176
     1
 72
     2
176
     1
 73
     2
176
     1
 90
        0
176
     1
 40
0.6
176
     1
 41
30.0
176
     1
 63
     7
421
 16777215
176
     1
 74
     2
176
     1
 91
        2
176
     1
 64
     7
176
     1
 65
   257
176
     1
 75
     2
176
     1
175
     1
176
     1
 42
40.0
176
     1
 92
        0
176
     1
 66
   257
176
     1
 43
1.0
176
     1
 76
     1
176
     1
 77
     6
176
     1
 78
     2
176
     1
 67
     7
176
     1
 79
     3
176
     1
170
     0
176
     1
171
     0
176
     1
290
     0
176
     1
 93
        1
176
     1
 44
0.0
176
     1
173
     0
176
     1
1001
ACAD
1000
AcDbSavedByObjectVersion
1070
     0
  0
VISUALSTYLE
  5
3F
102
{ACAD_XDICTIONARY
360
132
102
}
102
{ACAD_REACTORS
330
29
102
}
330
29
100
AcDbVisualStyle
  2
JitterOff
 70
    20
177
     2
291
     1
 71
     2
176
     0
 72
     2
176
     0
 73
     0
176
     0
 90
        0
176
     0
 40
0.6
176
     0
 41
30.0
176
     0
 63
     7
421
 16777215
176
     0
 74
     1
176
     0
 91
        4
176
     0
 64
     7
176
     0
 65
   257
176
     0
 75
     1
176
     0
175
     1
176
     0
 42
1.0
176
     0
 92
       10
176
     2
 66
     7
176
     0
 43
1.0
176
     0
 76
     1
176
     0
 77
     6
176
     0
 78
     2
176
     0
 67
     7
176
     0
 79
     5
176
     0
170
     0
176
     0
171
     0
176
     0
290
     0
176
     0
 93
        1
176
     0
 44
0.0
176
     0
173
     0
176
     0
1001
ACAD
1000
AcDbSavedByObjectVersion
1070
     0
  0
VISUALSTYLE
  5
37
102
{ACAD_XDICTIONARY
360
122
102
}
102
{ACAD_REACTORS
330
29
102
}
330
29
100
AcDbVisualStyle
  2
Linepattern
 70
    14
177
     2
291
     1
 71
     2
176
     1
 72
     2
176
     1
 73
     0
176
     1
 90
        0
176
     1
 40
0.6
176
     1
 41
30.0
176
     1
 63
     7
421
 16777215
176
     1
 74
     1
176
     1
 91
        4
176
     1
 64
     7
176
     1
 65
   257
176
     1
 75
     7
176
     1
175
     7
176
     1
 42
1.0
176
     1
 92
        8
176
     1
 66
     7
176
     1
 43
1.0
176
     1
 76
     1
176
     1
 77
     6
176
     1
 78
     2
176
     1
 67
     7
176
     1
 79
     5
176
     1
170
     0
176
     1
171
     0
176
     1
290
     0
176
     1
 93
        1
176
     1
 44
0.0
176
     1
173
     0
176
     1
1001
ACAD
1000
AcDbSavedByObjectVersion
1070
     0
  0
VISUALSTYLE
  5
40
102
{ACAD_XDICTIONARY
360
134
102
}
102
{ACAD_REACTORS
330
29
102
}
330
29
100
AcDbVisualStyle
  2
OverhangOff
 70
    21
177
     2
291
     1
 71
     2
176
     0
 72
     2
176
     0
 73
     0
176
     0
 90
        0
176
     0
 40
0.6
176
     0
 41
30.0
176
     0
 63
     7
421
 16777215
176
     0
 74
     1
176
     0
 91
        4
176
     0
 64
     7
176
     0
 65
   257
176
     0
 75
     1
176
     0
175
     1
176
     0
 42
1.0
176
     0
 92
        9
176
     2
 66
     7
176
     0
 43
1.0
176
     0
 76
     1
176
     0
 77
     6
176
     0
 78
     2
176
     0
 67
     7
176
     0
 79
     5
176
     0
170
     0
176
     0
171
     0
176
     0
290
     0
176
     0
 93
        1
176
     0
 44
0.0
176
     0
173
     0
176
     0
1001
ACAD
1000
AcDbSavedByObjectVersion
1070
     0
  0
VISUALSTYLE
  5
33
102
{ACAD_XDICTIONARY
360
11A
102
}
102
{ACAD_REACTORS
330
29
102
}
330
29
100
AcDbVisualStyle
  2
Realistic
 70
     8
177
     2
291
     0
 71
     2
176
     1
 72
     3
176
     1
 73
     0
176
     1
 90
        2
176
     1
 40
0.6
176
     1
 41
30.0
176
     1
 63
     7
421
 16777215
176
     1
 74
     0
176
     1
 91
        0
176
     1
 64
     7
176
     1
 65
   257
176
     1
 75
     1
176
     1
175
     1
176
     1
 42
1.0
176
     1
 92
        8
176
     1
 66
   257
176
     1
 43
1.0
176
     1
 76
     1
176
     1
 77
     6
176
     1
 78
     2
176
     1
 67
     7
176
     1
 79
     3
176
     1
170
     0
176
     1
171
     0
176
     1
290
     0
176
     1
 93
       13
176
     1
 44
0.0
176
     1
173
     0
176
     1
1001
ACAD
1000
AcDbSavedByObjectVersion
1070
     0
  0
VISUALSTYLE
  5
3E
102
{ACAD_XDICTIONARY
360
130
102
}
102
{ACAD_REACTORS
330
29
102
}
330
29
100
AcDbVisualStyle
  2
Shaded
 70
    27
177
     2
291
     0
 71
     2
176
     1
 72
     2
176
     1
 73
     1
176
     1
 90
        2
176
     1
 40
0.6
176
     1
 41
30.0
176
     1
 63
     7
421
 16777215
176
     1
 74
     0
176
     1
 91
        4
176
     1
 64
     7
176
     1
 65
   257
176
     1
 75
     1
176
     1
175
     1
176
     1
 42
1.0
176
     1
 92
        8
176
     1
 66
   257
176
     1
 43
1.0
176
     1
 76
     1
176
     1
 77
     6
176
     1
 78
     2
176
     1
 67
     8
425
  7895160
176
     1
 79
     3
176
     1
170
     0
176
     1
171
     0
176
     1
290
     0
176
     1
 93
        5
176
     1
 44
0.0
176
     1
173
     0
176
     1
1001
ACAD
1000
AcDbSavedByObjectVersion
1070
     0
  0
VISUALSTYLE
  5
3D
102
{ACAD_XDICTIONARY
360
12E
102
}
102
{ACAD_REACTORS
330
29
102
}
330
29
100
AcDbVisualStyle
  2
Shaded with edges
 70
    26
177
     2
291
     0
 71
     2
176
     1
 72
     2
176
     1
 73
     1
176
     1
 90
        2
176
     1
 40
0.6
176
     1
 41
30.0
176
     1
 63
     7
421
 16777215
176
     1
 74
     1
176
     1
 91
        2
176
     1
 64
     7
176
     1
 65
   257
176
     1
 75
     2
176
     1
175
     1
176
     1
 42
1.0
176
     1
 92
        8
176
     1
 66
   257
176
     1
 43
1.0
176
     1
 76
     1
176
     1
 77
     6
176
     1
 78
     2
176
     1
 67
     7
176
     1
 79
     3
176
     1
170
     0
176
     1
171
     0
176
     1
290
     0
176
     1
 93
        5
176
     1
 44
0.0
176
     1
173
     0
176
     1
1001
ACAD
1000
AcDbSavedByObjectVersion
1070
     0
  0
VISUALSTYLE
  5
3A
102
{ACAD_XDICTIONARY
360
128
102
}
102
{ACAD_REACTORS
330
29
102
}
330
29
100
AcDbVisualStyle
  2
Shades of Gray
 70
    23
177
     2
291
     0
 71
     2
176
     1
 72
     2
176
     1
 73
     3
176
     1
 90
        0
176
     1
 40
0.6
176
     1
 41
30.0
176
     1
 63
     7
421
 16777215
176
     1
 74
     2
176
     1
 91
        2
176
     1
 64
     7
176
     1
 65
     7
176
     1
 75
     1
176
     1
175
     1
176
     1
 42
40.0
176
     1
 92
        8
176
     1
 66
     7
176
     1
 43
1.0
176
     1
 76
     1
176
     1
 77
     6
176
     1
 78
     2
176
     1
 67
     7
176
     1
 79
     3
176
     1
170
     0
176
     1
171
     0
176
     1
290
     0
176
     1
 93
        1
176
     1
 44
0.0
176
     1
173
     0
176
     1
1001
ACAD
1000
AcDbSavedByObjectVersion
1070
     0
  0
VISUALSTYLE
  5
3B
102
{ACAD_XDICTIONARY
360
12A
102
}
102
{ACAD_REACTORS
330
29
102
}
330
29
100
AcDbVisualStyle
  2
Sketchy
 70
    24
177
     2
291
     0
 71
     1
176
     1
 72
     2
176
     1
 73
     2
176
     1
 90
        0
176
     1
 40
0.6
176
     1
 41
30.0
176
     1
 63
     7
421
 16777215
176
     1
 74
     2
176
     1
 91
        2
176
     1
 64
     7
176
     1
 65
     7
176
     1
 75
     1
176
     1
175
     1
176
     1
 42
40.0
176
     1
 92
       11
176
     1
 66
     7
176
     1
 43
1.0
176
     1
 76
     1
176
     1
 77
     6
176
     1
 78
     2
176
     1
 67
     7
176
     1
 79
     6
176
     1
170
     0
176
     1
171
     0
176
     1
290
     0
176
     1
 93
        1
176
     1
 44
0.0
176
     1
173
     0
176
     1
1001
ACAD
1000
AcDbSavedByObjectVersion
1070
     0
  0
VISUALSTYLE
  5
36
102
{ACAD_XDICTIONARY
360
120
102
}
102
{ACAD_REACTORS
330
29
102
}
330
29
100
AcDbVisualStyle
  2
Thicken
 70
    13
177
     2
291
     1
 71
     2
176
     1
 72
     2
176
     1
 73
     0
176
     1
 90
        0
176
     1
 40
0.6
176
     1
 41
30.0
176
     1
 63
     7
421
 16777215
176
     1
 74
     1
176
     1
 91
        4
176
     1
 64
     7
176
     1
 65
   257
176
     1
 75
     1
176
     1
175
     1
176
     1
 42
1.0
176
     1
 92
       12
176
     1
 66
     7
176
     1
 43
1.0
176
     1
 76
     1
176
     1
 77
     6
176
     1
 78
     2
176
     1
 67
     7
176
     1
 79
     5
176
     1
170
     0
176
     1
171
     0
176
     1
290
     0
176
     1
 93
        1
176
     1
 44
0.0
176
     1
173
     0
176
     1
1001
ACAD
1000
AcDbSavedByObjectVersion
1070
     0
  0
VISUALSTYLE
  5
30
102
{ACAD_XDICTIONARY
360
114
102
}
102
{ACAD_REACTORS
330
29
102
}
330
29
100
AcDbVisualStyle
  2
Wireframe
 70
     5
177
     2
291
     0
 71
     0
176
     1
 72
     2
176
     1
 73
     0
176
     1
 90
        0
176
     1
 40
0.6
176
     1
 41
30.0
176
     1
 63
     7
421
 16777215
176
     1
 74
     1
176
     1
 91
        4
176
     1
 64
     7
176
     1
 65
   257
176
     1
 75
     1
176
     1
175
     1
176
     1
 42
1.0
176
     1
 92
        0
176
     1
 66
   257
176
     1
 43
1.0
176
     1
 76
     1
176
     1
 77
     6
176
     1
 78
     2
176
     1
 67
     7
176
     1
 79
     3
176
     1
170
     0
176
     1
171
     0
176
     1
290
     0
176
     1
 93
        1
176
     1
 44
0.0
176
     1
173
     0
176
     1
1001
ACAD
1000
AcDbSavedByObjectVersion
1070
     0
  0
VISUALSTYLE
  5
3C
102
{ACAD_XDICTIONARY
360
12C
102
}
102
{ACAD_REACTORS
330
29
102
}
330
29
100
AcDbVisualStyle
  2
X-Ray
 70
    25
177
     2
291
     0
 71
     2
176
     1
 72
     2
176
     1
 73
     1
176
     1
 90
        1
176
     1
 40
0.5
176
     1
 41
30.0
176
     1
 63
     7
421
 16777215
176
     1
 74
     1
176
     1
 91
        0
176
     1
 64
     7
176
     1
 65
   257
176
     1
 75
     1
176
     1
175
     1
176
     1
 42
1.0
176
     1
 92
        8
176
     1
 66
     7
176
     1
 43
1.0
176
     1
 76
     1
176
     1
 77
     6
176
     1
 78
     2
176
     1
 67
     7
176
     1
 79
     3
176
     1
170
     0
176
     1
171
     0
176
     1
290
     0
176
     1
 93
       13
176
     1
 44
0.0
176
     1
173
     0
176
     1
1001
ACAD
1000
AcDbSavedByObjectVersion
1070
     0
  0
DICTIONARYVAR
  5
104
102
{ACAD_REACTORS
330
FF
102
}
330
FF
100
DictionaryVariables
280
     0
  1
1:1
  0
DICTIONARYVAR
  5
101
102
{ACAD_REACTORS
330
FF
102
}
330
FF
100
DictionaryVariables
280
     0
  1
STANDARD
  0
DICTIONARYVAR
  5
100
102
{ACAD_REACTORS
330
FF
102
}
330
FF
100
DictionaryVariables
280
     0
  1
STANDARD
  0
DICTIONARYVAR
  5
102
102
{ACAD_REACTORS
330
FF
102
}
330
FF
100
DictionaryVariables
280
     0
  1
Imperial24
  0
DICTIONARYVAR
  5
103
102
{ACAD_REACTORS
330
FF
102
}
330
FF
100
DictionaryVariables
280
     0
  1
Imperial24
  0
DICTIONARY
  5
13C
330
6B
100
AcDbDictionary
280
     1
281
     1
  3
ACAD_XREC_ROUNDTRIP
360
13D
  0
DICTIONARY
  5
1A
330
19
100
AcDbDictionary
280
     1
281
     1
  3
BUMPTILE
360
1C
  3
DIFFUSETILE
360
1B
  3
OPACITYTILE
360
1F
  3
REFLECTIONTILE
360
1E
  3
REFRACTIONTILE
360
20
  3
SPECULARTILE
360
1D
  0
DICTIONARY
  5
12
330
11
100
AcDbDictionary
280
     1
281
     1
  3
BUMPTILE
360
14
  3
DIFFUSETILE
360
13
  3
OPACITYTILE
360
17
  3
REFLECTIONTILE
360
16
  3
REFRACTIONTILE
360
18
  3
SPECULARTILE
360
15
  0
DICTIONARY
  5
22
330
21
100
AcDbDictionary
280
     1
281
     1
  3
BUMPTILE
360
24
  3
DIFFUSETILE
360
23
  3
OPACITYTILE
360
27
  3
REFLECTIONTILE
360
26
  3
REFRACTIONTILE
360
28
  3
SPECULARTILE
360
25
  0
DICTIONARY
  5
138
330
67
100
AcDbDictionary
280
     1
281
     1
  3
ACAD_XREC_ROUNDTRIP
360
139
  0
DICTIONARY
  5
13A
330
69
100
AcDbDictionary
280
     1
281
     1
  3
ACAD_XREC_ROUNDTRIP
360
13B
  0
DICTIONARY
  5
105
330
65
100
AcDbDictionary
280
     1
281
     1
  3
ACAD_ROUNDTRIP_2008_TABLESTYLE_CELLSTYLEMAP
360
106
  0
DICTIONARY
  5
112
330
2F
100
AcDbDictionary
280
     1
281
     1
  3
ACAD_XREC_ROUNDTRIP
360
113
  0
DICTIONARY
  5
110
330
2E
100
AcDbDictionary
280
     1
281
     1
  3
ACAD_XREC_ROUNDTRIP
360
111
  0
DICTIONARY
  5
11E
330
35
100
AcDbDictionary
280
     1
281
     1
  3
ACAD_XREC_ROUNDTRIP
360
11F
  0
DICTIONARY
  5
126
330
39
100
AcDbDictionary
280
     1
281
     1
  3
ACAD_XREC_ROUNDTRIP
360
127
  0
DICTIONARY
  5
118
330
32
100
AcDbDictionary
280
     1
281
     1
  3
ACAD_XREC_ROUNDTRIP
360
119
  0
DICTIONARY
  5
11C
330
34
100
AcDbDictionary
280
     1
281
     1
  3
ACAD_XREC_ROUNDTRIP
360
11D
  0
DICTIONARY
  5
136
330
41
100
AcDbDictionary
280
     1
281
     1
  3
ACAD_XREC_ROUNDTRIP
360
137
  0
DICTIONARY
  5
124
330
38
100
AcDbDictionary
280
     1
281
     1
  3
ACAD_XREC_ROUNDTRIP
360
125
  0
DICTIONARY
  5
108
330
2A
100
AcDbDictionary
280
     1
281
     1
  3
ACAD_XREC_ROUNDTRIP
360
109
  0
DICTIONARY
  5
10A
330
2B
100
AcDbDictionary
280
     1
281
     1
  3
ACAD_XREC_ROUNDTRIP
360
10B
  0
DICTIONARY
  5
10C
330
2C
100
AcDbDictionary
280
     1
281
     1
  3
ACAD_XREC_ROUNDTRIP
360
10D
  0
DICTIONARY
  5
10E
330
2D
100
AcDbDictionary
280
     1
281
     1
  3
ACAD_XREC_ROUNDTRIP
360
10F
  0
DICTIONARY
  5
116
330
31
100
AcDbDictionary
280
     1
281
     1
  3
ACAD_XREC_ROUNDTRIP
360
117
  0
DICTIONARY
  5
132
330
3F
100
AcDbDictionary
280
     1
281
     1
  3
ACAD_XREC_ROUNDTRIP
360
133
  0
DICTIONARY
  5
122
330
37
100
AcDbDictionary
280
     1
281
     1
  3
ACAD_XREC_ROUNDTRIP
360
123
  0
DICTIONARY
  5
134
330
40
100
AcDbDictionary
280
     1
281
     1
  3
ACAD_XREC_ROUNDTRIP
360
135
  0
DICTIONARY
  5
11A
330
33
100
AcDbDictionary
280
     1
281
     1
  3
ACAD_XREC_ROUNDTRIP
360
11B
  0
DICTIONARY
  5
130
330
3E
100
AcDbDictionary
280
     1
281
     1
  3
ACAD_XREC_ROUNDTRIP
360
131
  0
DICTIONARY
  5
12E
330
3D
100
AcDbDictionary
280
     1
281
     1
  3
ACAD_XREC_ROUNDTRIP
360
12F
  0
DICTIONARY
  5
128
330
3A
100
AcDbDictionary
280
     1
281
     1
  3
ACAD_XREC_ROUNDTRIP
360
129
  0
DICTIONARY
  5
12A
330
3B
100
AcDbDictionary
280
     1
281
     1
  3
ACAD_XREC_ROUNDTRIP
360
12B
  0
DICTIONARY
  5
120
330
36
100
AcDbDictionary
280
     1
281
     1
  3
ACAD_XREC_ROUNDTRIP
360
121
  0
DICTIONARY
  5
114
330
30
100
AcDbDictionary
280
     1
281
     1
  3
ACAD_XREC_ROUNDTRIP
360
115
  0
DICTIONARY
  5
12C
330
3C
100
AcDbDictionary
280
     1
281
     1
  3
ACAD_XREC_ROUNDTRIP
360
12D
  0
XRECORD
  5
13D
102
{ACAD_REACTORS
330
13C
102
}
330
13C
100
AcDbXrecord
280
     1
102
DISPLAYNAME
  1
Imperial24
102
FLAGS
 90
        0
  0
XRECORD
  5
1C
102
{ACAD_REACTORS
330
1A
102
}
330
1A
100
AcDbXrecord
280
     1
270
     1
271
     1
  0
XRECORD
  5
1B
102
{ACAD_REACTORS
330
1A
102
}
330
1A
100
AcDbXrecord
280
     1
270
     1
271
     1
  0
XRECORD
  5
1F
102
{ACAD_REACTORS
330
1A
102
}
330
1A
100
AcDbXrecord
280
     1
270
     1
271
     1
  0
XRECORD
  5
1E
102
{ACAD_REACTORS
330
1A
102
}
330
1A
100
AcDbXrecord
280
     1
270
     1
271
     1
  0
XRECORD
  5
20
102
{ACAD_REACTORS
330
1A
102
}
330
1A
100
AcDbXrecord
280
     1
270
     1
271
     1
  0
XRECORD
  5
1D
102
{ACAD_REACTORS
330
1A
102
}
330
1A
100
AcDbXrecord
280
     1
270
     1
271
     1
  0
XRECORD
  5
14
102
{ACAD_REACTORS
330
12
102
}
330
12
100
AcDbXrecord
280
     1
270
     1
271
     1
  0
XRECORD
  5
13
102
{ACAD_REACTORS
330
12
102
}
330
12
100
AcDbXrecord
280
     1
270
     1
271
     1
  0
XRECORD
  5
17
102
{ACAD_REACTORS
330
12
102
}
330
12
100
AcDbXrecord
280
     1
270
     1
271
     1
  0
XRECORD
  5
16
102
{ACAD_REACTORS
330
12
102
}
330
12
100
AcDbXrecord
280
     1
270
     1
271
     1
  0
XRECORD
  5
18
102
{ACAD_REACTORS
330
12
102
}
330
12
100
AcDbXrecord
280
     1
270
     1
271
     1
  0
XRECORD
  5
15
102
{ACAD_REACTORS
330
12
102
}
330
12
100
AcDbXrecord
280
     1
270
     1
271
     1
  0
XRECORD
  5
24
102
{ACAD_REACTORS
330
22
102
}
330
22
100
AcDbXrecord
280
     1
270
     1
271
     1
  0
XRECORD
  5
23
102
{ACAD_REACTORS
330
22
102
}
330
22
100
AcDbXrecord
280
     1
270
     1
271
     1
  0
XRECORD
  5
27
102
{ACAD_REACTORS
330
22
102
}
330
22
100
AcDbXrecord
280
     1
270
     1
271
     1
  0
XRECORD
  5
26
102
{ACAD_REACTORS
330
22
102
}
330
22
100
AcDbXrecord
280
     1
270
     1
271
     1
  0
XRECORD
  5
28
102
{ACAD_REACTORS
330
22
102
}
330
22
100
AcDbXrecord
280
     1
270
     1
271
     1
  0
XRECORD
  5
25
102
{ACAD_REACTORS
330
22
102
}
330
22
100
AcDbXrecord
280
     1
270
     1
271
     1
  0
XRECORD
  5
139
102
{ACAD_REACTORS
330
138
102
}
330
138
100
AcDbXrecord
280
     1
102
ACAD_ROUNDTRIP_2012_MLEADER_STYLE
298
     1
  0
XRECORD
  5
13B
102
{ACAD_REACTORS
330
13A
102
}
330
13A
100
AcDbXrecord
280
     1
102
DISPLAYNAME
  1
Imperial24
102
FLAGS
 90
        0
  0
CELLSTYLEMAP
  5
106
102
{ACAD_REACTORS
330
105
102
}
330
105
100
AcDbCellStyleMap
 90
        3
300
CELLSTYLE
  1
TABLEFORMAT_BEGIN
 90
        5
170
     1
 91
        0
 92
    32768
 62
   257
 93
        1
300
CONTENTFORMAT
  1
CONTENTFORMAT_BEGIN
 90
        0
 91
        0
 92
      512
 93
        0
300

 40
0.0
140
1.0
 94
        5
 62
     0
340
55
144
0.25
309
CONTENTFORMAT_END
171
     0
 94
        0
309
TABLEFORMAT_END
  1
CELLSTYLE_BEGIN
 90
        1
 91
        1
300
_TITLE
309
CELLSTYLE_END
300
CELLSTYLE
  1
TABLEFORMAT_BEGIN
 90
        5
170
     1
 91
        0
 92
        0
 62
   257
 93
        1
300
CONTENTFORMAT
  1
CONTENTFORMAT_BEGIN
 90
        0
 91
        0
 92
      512
 93
        0
300

 40
0.0
140
1.0
 94
        5
 62
     0
340
55
144
0.18
309
CONTENTFORMAT_END
171
     0
 94
        0
309
TABLEFORMAT_END
  1
CELLSTYLE_BEGIN
 90
        2
 91
        1
300
_HEADER
309
CELLSTYLE_END
300
CELLSTYLE
  1
TABLEFORMAT_BEGIN
 90
        5
170
     1
 91
        0
 92
        0
 62
   257
 93
        1
300
CONTENTFORMAT
  1
CONTENTFORMAT_BEGIN
 90
        0
 91
        0
 92
      512
 93
        0
300

 40
0.0
140
1.0
 94
        2
 62
     0
340
55
144
0.18
309
CONTENTFORMAT_END
171
     0
 94
        0
309
TABLEFORMAT_END
  1
CELLSTYLE_BEGIN
 90
        3
 91
        2
300
_DATA
309
CELLSTYLE_END
  0
XRECORD
  5
113
102
{ACAD_REACTORS
330
112
102
}
330
112
100
AcDbXrecord
280
     1
102
RTVSPost2010Prop28
280
     1
102
RTVSPost2010PropOp28
 70
     1
102
RTVSPost2010Prop29
280
     1
102
RTVSPost2010PropOp29
 70
     1
102
RTVSPost2010Prop30
280
     0
102
RTVSPost2010PropOp30
 70
     1
102
RTVSPost2010Prop31
280
     0
102
RTVSPost2010PropOp31
 70
     1
102
RTVSPost2010Prop32
280
     0
102
RTVSPost2010PropOp32
 70
     1
102
RTVSPost2010Prop33
280
     0
102
RTVSPost2010PropOp33
 70
     1
102
RTVSPost2010Prop34
280
     0
102
RTVSPost2010PropOp34
 70
     1
102
RTVSPost2010Prop35
280
     0
102
RTVSPost2010PropOp35
 70
     1
102
RTVSPost2010Prop36
280
     0
102
RTVSPost2010PropOp36
 70
     1
102
RTVSPost2010Prop37
 90
       50
102
RTVSPost2010PropOp37
 70
     1
102
RTVSPost2010Prop38
140
0.0
102
RTVSPost2010PropOp38
 70
     1
102
RTVSPost2010Prop39
140
1.0
102
RTVSPost2010PropOp39
 70
     1
102
RTVSPost2010Prop40
 90
        0
102
RTVSPost2010PropOp40
 70
     1
102
RTVSPost2010Prop41ColorIndex
 90
       18
102
RTVSPost2010Prop41ColorRGB
 90
        0
102
RTVSPost2010PropOp41
 70
     1
102
RTVSPost2010Prop42
 90
       50
102
RTVSPost2010PropOp42
 70
     1
102
RTVSPost2010Prop43
 90
        3
102
RTVSPost2010PropOp43
 70
     1
102
RTVSPost2010Prop44ColorIndex
 90
        5
102
RTVSPost2010Prop44ColorRGB
 90
      255
102
RTVSPost2010PropOp44
 70
     1
102
RTVSPost2010Prop45
280
     0
102
RTVSPost2010PropOp45
 70
     1
102
RTVSPost2010Prop46
 90
       50
102
RTVSPost2010PropOp46
 70
     1
102
RTVSPost2010Prop47
 90
       50
102
RTVSPost2010PropOp47
 70
     1
102
RTVSPost2010Prop48
 90
       50
102
RTVSPost2010PropOp48
 70
     1
102
RTVSPost2010Prop49
280
     0
102
RTVSPost2010PropOp49
 70
     1
102
RTVSPost2010Prop50
 90
       50
102
RTVSPost2010PropOp50
 70
     1
102
RTVSPost2010Prop51ColorIndex
 90
      256
102
RTVSPost2010Prop51ColorRGB
 90
-16777216
102
RTVSPost2010PropOp51
 70
     0
102
RTVSPost2010Prop52
140
1.0
102
RTVSPost2010PropOp52
 70
     0
102
RTVSPost2010Prop53
 90
        2
102
RTVSPost2010PropOp53
 70
     1
102
RTVSPost2010Prop54
  1
strokes_ogs.tif
102
RTVSPost2010PropOp54
 70
     1
102
RTVSPost2010Prop55
280
     0
102
RTVSPost2010PropOp55
 70
     1
102
RTVSPost2010Prop56
140
1.0
102
RTVSPost2010PropOp56
 70
     1
102
RTVSPost2010Prop57
140
1.0
102
RTVSPost2010PropOp57
 70
     1
  0
XRECORD
  5
111
102
{ACAD_REACTORS
330
110
102
}
330
110
100
AcDbXrecord
280
     1
102
RTVSPost2010Prop28
280
     0
102
RTVSPost2010PropOp28
 70
     1
102
RTVSPost2010Prop29
280
     1
102
RTVSPost2010PropOp29
 70
     1
102
RTVSPost2010Prop30
280
     1
102
RTVSPost2010PropOp30
 70
     1
102
RTVSPost2010Prop31
280
     0
102
RTVSPost2010PropOp31
 70
     1
102
RTVSPost2010Prop32
280
     0
102
RTVSPost2010PropOp32
 70
     1
102
RTVSPost2010Prop33
280
     0
102
RTVSPost2010PropOp33
 70
     1
102
RTVSPost2010Prop34
280
     0
102
RTVSPost2010PropOp34
 70
     1
102
RTVSPost2010Prop35
280
     0
102
RTVSPost2010PropOp35
 70
     1
102
RTVSPost2010Prop36
280
     0
102
RTVSPost2010PropOp36
 70
     1
102
RTVSPost2010Prop37
 90
       50
102
RTVSPost2010PropOp37
 70
     1
102
RTVSPost2010Prop38
140
0.0
102
RTVSPost2010PropOp38
 70
     1
102
RTVSPost2010Prop39
140
1.0
102
RTVSPost2010PropOp39
 70
     1
102
RTVSPost2010Prop40
 90
        0
102
RTVSPost2010PropOp40
 70
     1
102
RTVSPost2010Prop41ColorIndex
 90
       18
102
RTVSPost2010Prop41ColorRGB
 90
        0
102
RTVSPost2010PropOp41
 70
     1
102
RTVSPost2010Prop42
 90
       50
102
RTVSPost2010PropOp42
 70
     1
102
RTVSPost2010Prop43
 90
        3
102
RTVSPost2010PropOp43
 70
     1
102
RTVSPost2010Prop44ColorIndex
 90
        5
102
RTVSPost2010Prop44ColorRGB
 90
      255
102
RTVSPost2010PropOp44
 70
     1
102
RTVSPost2010Prop45
280
     0
102
RTVSPost2010PropOp45
 70
     1
102
RTVSPost2010Prop46
 90
       50
102
RTVSPost2010PropOp46
 70
     1
102
RTVSPost2010Prop47
 90
       50
102
RTVSPost2010PropOp47
 70
     1
102
RTVSPost2010Prop48
 90
       50
102
RTVSPost2010PropOp48
 70
     1
102
RTVSPost2010Prop49
280
     0
102
RTVSPost2010PropOp49
 70
     1
102
RTVSPost2010Prop50
 90
       50
102
RTVSPost2010PropOp50
 70
     1
102
RTVSPost2010Prop51ColorIndex
 90
      256
102
RTVSPost2010Prop51ColorRGB
 90
-16777216
102
RTVSPost2010PropOp51
 70
     0
102
RTVSPost2010Prop52
140
1.0
102
RTVSPost2010PropOp52
 70
     0
102
RTVSPost2010Prop53
 90
        2
102
RTVSPost2010PropOp53
 70
     1
102
RTVSPost2010Prop54
  1
strokes_ogs.tif
102
RTVSPost2010PropOp54
 70
     1
102
RTVSPost2010Prop55
280
     0
102
RTVSPost2010PropOp55
 70
     1
102
RTVSPost2010Prop56
140
1.0
102
RTVSPost2010PropOp56
 70
     1
102
RTVSPost2010Prop57
140
1.0
102
RTVSPost2010PropOp57
 70
     1
  0
XRECORD
  5
11F
102
{ACAD_REACTORS
330
11E
102
}
330
11E
100
AcDbXrecord
280
     1
102
RTVSPost2010Prop28
280
     0
102
RTVSPost2010PropOp28
 70
     1
102
RTVSPost2010Prop29
280
     1
102
RTVSPost2010PropOp29
 70
     1
102
RTVSPost2010Prop30
280
     1
102
RTVSPost2010PropOp30
 70
     1
102
RTVSPost2010Prop31
280
     0
102
RTVSPost2010PropOp31
 70
     1
102
RTVSPost2010Prop32
280
     0
102
RTVSPost2010PropOp32
 70
     1
102
RTVSPost2010Prop33
280
     0
102
RTVSPost2010PropOp33
 70
     1
102
RTVSPost2010Prop34
280
     0
102
RTVSPost2010PropOp34
 70
     1
102
RTVSPost2010Prop35
280
     0
102
RTVSPost2010PropOp35
 70
     1
102
RTVSPost2010Prop36
280
     0
102
RTVSPost2010PropOp36
 70
     1
102
RTVSPost2010Prop37
 90
       50
102
RTVSPost2010PropOp37
 70
     1
102
RTVSPost2010Prop38
140
0.0
102
RTVSPost2010PropOp38
 70
     1
102
RTVSPost2010Prop39
140
1.0
102
RTVSPost2010PropOp39
 70
     1
102
RTVSPost2010Prop40
 90
        0
102
RTVSPost2010PropOp40
 70
     1
102
RTVSPost2010Prop41ColorIndex
 90
       18
102
RTVSPost2010Prop41ColorRGB
 90
        0
102
RTVSPost2010PropOp41
 70
     1
102
RTVSPost2010Prop42
 90
       50
102
RTVSPost2010PropOp42
 70
     1
102
RTVSPost2010Prop43
 90
        3
102
RTVSPost2010PropOp43
 70
     1
102
RTVSPost2010Prop44ColorIndex
 90
        5
102
RTVSPost2010Prop44ColorRGB
 90
      255
102
RTVSPost2010PropOp44
 70
     1
102
RTVSPost2010Prop45
280
     0
102
RTVSPost2010PropOp45
 70
     1
102
RTVSPost2010Prop46
 90
       50
102
RTVSPost2010PropOp46
 70
     1
102
RTVSPost2010Prop47
 90
       50
102
RTVSPost2010PropOp47
 70
     1
102
RTVSPost2010Prop48
 90
       50
102
RTVSPost2010PropOp48
 70
     1
102
RTVSPost2010Prop49
280
     0
102
RTVSPost2010PropOp49
 70
     1
102
RTVSPost2010Prop50
 90
       50
102
RTVSPost2010PropOp50
 70
     1
102
RTVSPost2010Prop51ColorIndex
 90
      256
102
RTVSPost2010Prop51ColorRGB
 90
-16777216
102
RTVSPost2010PropOp51
 70
     0
102
RTVSPost2010Prop52
140
1.0
102
RTVSPost2010PropOp52
 70
     0
102
RTVSPost2010Prop53
 90
        2
102
RTVSPost2010PropOp53
 70
     1
102
RTVSPost2010Prop54
  1
strokes_ogs.tif
102
RTVSPost2010PropOp54
 70
     1
102
RTVSPost2010Prop55
280
     0
102
RTVSPost2010PropOp55
 70
     1
102
RTVSPost2010Prop56
140
1.0
102
RTVSPost2010PropOp56
 70
     1
102
RTVSPost2010Prop57
140
1.0
102
RTVSPost2010PropOp57
 70
     1
  0
XRECORD
  5
127
102
{ACAD_REACTORS
330
126
102
}
330
126
100
AcDbXrecord
280
     1
102
RTVSPost2010Prop28
280
     0
102
RTVSPost2010PropOp28
 70
     1
102
RTVSPost2010Prop29
280
     1
102
RTVSPost2010PropOp29
 70
     1
102
RTVSPost2010Prop30
280
     1
102
RTVSPost2010PropOp30
 70
     1
102
RTVSPost2010Prop31
280
     0
102
RTVSPost2010PropOp31
 70
     1
102
RTVSPost2010Prop32
280
     0
102
RTVSPost2010PropOp32
 70
     1
102
RTVSPost2010Prop33
280
     0
102
RTVSPost2010PropOp33
 70
     1
102
RTVSPost2010Prop34
280
     0
102
RTVSPost2010PropOp34
 70
     1
102
RTVSPost2010Prop35
280
     0
102
RTVSPost2010PropOp35
 70
     1
102
RTVSPost2010Prop36
280
     0
102
RTVSPost2010PropOp36
 70
     1
102
RTVSPost2010Prop37
 90
       50
102
RTVSPost2010PropOp37
 70
     1
102
RTVSPost2010Prop38
140
0.0
102
RTVSPost2010PropOp38
 70
     1
102
RTVSPost2010Prop39
140
1.0
102
RTVSPost2010PropOp39
 70
     1
102
RTVSPost2010Prop40
 90
        0
102
RTVSPost2010PropOp40
 70
     1
102
RTVSPost2010Prop41ColorIndex
 90
       18
102
RTVSPost2010Prop41ColorRGB
 90
        0
102
RTVSPost2010PropOp41
 70
     1
102
RTVSPost2010Prop42
 90
       50
102
RTVSPost2010PropOp42
 70
     1
102
RTVSPost2010Prop43
 90
        3
102
RTVSPost2010PropOp43
 70
     1
102
RTVSPost2010Prop44ColorIndex
 90
        5
102
RTVSPost2010Prop44ColorRGB
 90
      255
102
RTVSPost2010PropOp44
 70
     1
102
RTVSPost2010Prop45
280
     0
102
RTVSPost2010PropOp45
 70
     1
102
RTVSPost2010Prop46
 90
       50
102
RTVSPost2010PropOp46
 70
     1
102
RTVSPost2010Prop47
 90
       50
102
RTVSPost2010PropOp47
 70
     1
102
RTVSPost2010Prop48
 90
       50
102
RTVSPost2010PropOp48
 70
     1
102
RTVSPost2010Prop49
280
     0
102
RTVSPost2010PropOp49
 70
     1
102
RTVSPost2010Prop50
 90
       50
102
RTVSPost2010PropOp50
 70
     1
102
RTVSPost2010Prop51ColorIndex
 90
      256
102
RTVSPost2010Prop51ColorRGB
 90
-16777216
102
RTVSPost2010PropOp51
 70
     0
102
RTVSPost2010Prop52
140
1.0
102
RTVSPost2010PropOp52
 70
     0
102
RTVSPost2010Prop53
 90
        2
102
RTVSPost2010PropOp53
 70
     1
102
RTVSPost2010Prop54
  1
strokes_ogs.tif
102
RTVSPost2010PropOp54
 70
     1
102
RTVSPost2010Prop55
280
     0
102
RTVSPost2010PropOp55
 70
     1
102
RTVSPost2010Prop56
140
1.0
102
RTVSPost2010PropOp56
 70
     1
102
RTVSPost2010Prop57
140
1.0
102
RTVSPost2010PropOp57
 70
     1
  0
XRECORD
  5
119
102
{ACAD_REACTORS
330
118
102
}
330
118
100
AcDbXrecord
280
     1
102
RTVSPost2010Prop28
280
     0
102
RTVSPost2010PropOp28
 70
     1
102
RTVSPost2010Prop29
280
     1
102
RTVSPost2010PropOp29
 70
     1
102
RTVSPost2010Prop30
280
     1
102
RTVSPost2010PropOp30
 70
     1
102
RTVSPost2010Prop31
280
     0
102
RTVSPost2010PropOp31
 70
     1
102
RTVSPost2010Prop32
280
     0
102
RTVSPost2010PropOp32
 70
     1
102
RTVSPost2010Prop33
280
     0
102
RTVSPost2010PropOp33
 70
     1
102
RTVSPost2010Prop34
280
     0
102
RTVSPost2010PropOp34
 70
     1
102
RTVSPost2010Prop35
280
     0
102
RTVSPost2010PropOp35
 70
     1
102
RTVSPost2010Prop36
280
     0
102
RTVSPost2010PropOp36
 70
     1
102
RTVSPost2010Prop37
 90
       50
102
RTVSPost2010PropOp37
 70
     1
102
RTVSPost2010Prop38
140
0.0
102
RTVSPost2010PropOp38
 70
     1
102
RTVSPost2010Prop39
140
1.0
102
RTVSPost2010PropOp39
 70
     1
102
RTVSPost2010Prop40
 90
        0
102
RTVSPost2010PropOp40
 70
     1
102
RTVSPost2010Prop41ColorIndex
 90
       18
102
RTVSPost2010Prop41ColorRGB
 90
        0
102
RTVSPost2010PropOp41
 70
     1
102
RTVSPost2010Prop42
 90
       50
102
RTVSPost2010PropOp42
 70
     1
102
RTVSPost2010Prop43
 90
        3
102
RTVSPost2010PropOp43
 70
     1
102
RTVSPost2010Prop44ColorIndex
 90
        5
102
RTVSPost2010Prop44ColorRGB
 90
      255
102
RTVSPost2010PropOp44
 70
     1
102
RTVSPost2010Prop45
280
     0
102
RTVSPost2010PropOp45
 70
     1
102
RTVSPost2010Prop46
 90
       50
102
RTVSPost2010PropOp46
 70
     1
102
RTVSPost2010Prop47
 90
       50
102
RTVSPost2010PropOp47
 70
     1
102
RTVSPost2010Prop48
 90
       50
102
RTVSPost2010PropOp48
 70
     1
102
RTVSPost2010Prop49
280
     0
102
RTVSPost2010PropOp49
 70
     1
102
RTVSPost2010Prop50
 90
       50
102
RTVSPost2010PropOp50
 70
     1
102
RTVSPost2010Prop51ColorIndex
 90
      256
102
RTVSPost2010Prop51ColorRGB
 90
-16777216
102
RTVSPost2010PropOp51
 70
     0
102
RTVSPost2010Prop52
140
1.0
102
RTVSPost2010PropOp52
 70
     0
102
RTVSPost2010Prop53
 90
        2
102
RTVSPost2010PropOp53
 70
     1
102
RTVSPost2010Prop54
  1
strokes_ogs.tif
102
RTVSPost2010PropOp54
 70
     1
102
RTVSPost2010Prop55
280
     0
102
RTVSPost2010PropOp55
 70
     1
102
RTVSPost2010Prop56
140
1.0
102
RTVSPost2010PropOp56
 70
     1
102
RTVSPost2010Prop57
140
1.0
102
RTVSPost2010PropOp57
 70
     1
  0
XRECORD
  5
11D
102
{ACAD_REACTORS
330
11C
102
}
330
11C
100
AcDbXrecord
280
     1
102
RTVSPost2010Prop28
280
     0
102
RTVSPost2010PropOp28
 70
     1
102
RTVSPost2010Prop29
280
     1
102
RTVSPost2010PropOp29
 70
     1
102
RTVSPost2010Prop30
280
     1
102
RTVSPost2010PropOp30
 70
     1
102
RTVSPost2010Prop31
280
     0
102
RTVSPost2010PropOp31
 70
     1
102
RTVSPost2010Prop32
280
     0
102
RTVSPost2010PropOp32
 70
     1
102
RTVSPost2010Prop33
280
     0
102
RTVSPost2010PropOp33
 70
     1
102
RTVSPost2010Prop34
280
     0
102
RTVSPost2010PropOp34
 70
     1
102
RTVSPost2010Prop35
280
     0
102
RTVSPost2010PropOp35
 70
     1
102
RTVSPost2010Prop36
280
     0
102
RTVSPost2010PropOp36
 70
     1
102
RTVSPost2010Prop37
 90
       50
102
RTVSPost2010PropOp37
 70
     1
102
RTVSPost2010Prop38
140
0.0
102
RTVSPost2010PropOp38
 70
     1
102
RTVSPost2010Prop39
140
1.0
102
RTVSPost2010PropOp39
 70
     1
102
RTVSPost2010Prop40
 90
        0
102
RTVSPost2010PropOp40
 70
     1
102
RTVSPost2010Prop41ColorIndex
 90
       18
102
RTVSPost2010Prop41ColorRGB
 90
        0
102
RTVSPost2010PropOp41
 70
     1
102
RTVSPost2010Prop42
 90
       50
102
RTVSPost2010PropOp42
 70
     1
102
RTVSPost2010Prop43
 90
        3
102
RTVSPost2010PropOp43
 70
     1
102
RTVSPost2010Prop44ColorIndex
 90
        5
102
RTVSPost2010Prop44ColorRGB
 90
      255
102
RTVSPost2010PropOp44
 70
     1
102
RTVSPost2010Prop45
280
     0
102
RTVSPost2010PropOp45
 70
     1
102
RTVSPost2010Prop46
 90
       50
102
RTVSPost2010PropOp46
 70
     1
102
RTVSPost2010Prop47
 90
       50
102
RTVSPost2010PropOp47
 70
     1
102
RTVSPost2010Prop48
 90
       50
102
RTVSPost2010PropOp48
 70
     1
102
RTVSPost2010Prop49
280
     0
102
RTVSPost2010PropOp49
 70
     1
102
RTVSPost2010Prop50
 90
       50
102
RTVSPost2010PropOp50
 70
     1
102
RTVSPost2010Prop51ColorIndex
 90
      256
102
RTVSPost2010Prop51ColorRGB
 90
-16777216
102
RTVSPost2010PropOp51
 70
     0
102
RTVSPost2010Prop52
140
1.0
102
RTVSPost2010PropOp52
 70
     0
102
RTVSPost2010Prop53
 90
        2
102
RTVSPost2010PropOp53
 70
     1
102
RTVSPost2010Prop54
  1
strokes_ogs.tif
102
RTVSPost2010PropOp54
 70
     1
102
RTVSPost2010Prop55
280
     0
102
RTVSPost2010PropOp55
 70
     1
102
RTVSPost2010Prop56
140
1.0
102
RTVSPost2010PropOp56
 70
     1
102
RTVSPost2010Prop57
140
1.0
102
RTVSPost2010PropOp57
 70
     1
  0
XRECORD
  5
137
102
{ACAD_REACTORS
330
136
102
}
330
136
100
AcDbXrecord
280
     1
102
RTVSPost2010Prop28
280
     0
102
RTVSPost2010PropOp28
 70
     0
102
RTVSPost2010Prop29
280
     1
102
RTVSPost2010PropOp29
 70
     0
102
RTVSPost2010Prop30
280
     1
102
RTVSPost2010PropOp30
 70
     0
102
RTVSPost2010Prop31
280
     0
102
RTVSPost2010PropOp31
 70
     0
102
RTVSPost2010Prop32
280
     0
102
RTVSPost2010PropOp32
 70
     0
102
RTVSPost2010Prop33
280
     0
102
RTVSPost2010PropOp33
 70
     0
102
RTVSPost2010Prop34
280
     0
102
RTVSPost2010PropOp34
 70
     0
102
RTVSPost2010Prop35
280
     0
102
RTVSPost2010PropOp35
 70
     0
102
RTVSPost2010Prop36
280
     0
102
RTVSPost2010PropOp36
 70
     0
102
RTVSPost2010Prop37
 90
       50
102
RTVSPost2010PropOp37
 70
     0
102
RTVSPost2010Prop38
140
0.0
102
RTVSPost2010PropOp38
 70
     0
102
RTVSPost2010Prop39
140
1.0
102
RTVSPost2010PropOp39
 70
     0
102
RTVSPost2010Prop40
 90
        0
102
RTVSPost2010PropOp40
 70
     0
102
RTVSPost2010Prop41ColorIndex
 90
       18
102
RTVSPost2010Prop41ColorRGB
 90
        0
102
RTVSPost2010PropOp41
 70
     0
102
RTVSPost2010Prop42
 90
       50
102
RTVSPost2010PropOp42
 70
     0
102
RTVSPost2010Prop43
 90
        3
102
RTVSPost2010PropOp43
 70
     0
102
RTVSPost2010Prop44ColorIndex
 90
        5
102
RTVSPost2010Prop44ColorRGB
 90
      255
102
RTVSPost2010PropOp44
 70
     0
102
RTVSPost2010Prop45
280
     0
102
RTVSPost2010PropOp45
 70
     0
102
RTVSPost2010Prop46
 90
       50
102
RTVSPost2010PropOp46
 70
     0
102
RTVSPost2010Prop47
 90
       50
102
RTVSPost2010PropOp47
 70
     0
102
RTVSPost2010Prop48
 90
       50
102
RTVSPost2010PropOp48
 70
     0
102
RTVSPost2010Prop49
280
     0
102
RTVSPost2010PropOp49
 70
     0
102
RTVSPost2010Prop50
 90
       50
102
RTVSPost2010PropOp50
 70
     0
102
RTVSPost2010Prop51ColorIndex
 90
      256
102
RTVSPost2010Prop51ColorRGB
 90
-16777216
102
RTVSPost2010PropOp51
 70
     0
102
RTVSPost2010Prop52
140
1.0
102
RTVSPost2010PropOp52
 70
     0
102
RTVSPost2010Prop53
 90
        2
102
RTVSPost2010PropOp53
 70
     0
102
RTVSPost2010Prop54
  1
strokes_ogs.tif
102
RTVSPost2010PropOp54
 70
     0
102
RTVSPost2010Prop55
280
     0
102
RTVSPost2010PropOp55
 70
     0
102
RTVSPost2010Prop56
140
1.0
102
RTVSPost2010PropOp56
 70
     0
102
RTVSPost2010Prop57
140
1.0
102
RTVSPost2010PropOp57
 70
     0
  0
XRECORD
  5
125
102
{ACAD_REACTORS
330
124
102
}
330
124
100
AcDbXrecord
280
     1
102
RTVSPost2010Prop28
280
     0
102
RTVSPost2010PropOp28
 70
     1
102
RTVSPost2010Prop29
280
     1
102
RTVSPost2010PropOp29
 70
     1
102
RTVSPost2010Prop30
280
     1
102
RTVSPost2010PropOp30
 70
     1
102
RTVSPost2010Prop31
280
     0
102
RTVSPost2010PropOp31
 70
     1
102
RTVSPost2010Prop32
280
     0
102
RTVSPost2010PropOp32
 70
     1
102
RTVSPost2010Prop33
280
     0
102
RTVSPost2010PropOp33
 70
     1
102
RTVSPost2010Prop34
280
     0
102
RTVSPost2010PropOp34
 70
     1
102
RTVSPost2010Prop35
280
     0
102
RTVSPost2010PropOp35
 70
     1
102
RTVSPost2010Prop36
280
     0
102
RTVSPost2010PropOp36
 70
     1
102
RTVSPost2010Prop37
 90
       50
102
RTVSPost2010PropOp37
 70
     1
102
RTVSPost2010Prop38
140
0.0
102
RTVSPost2010PropOp38
 70
     1
102
RTVSPost2010Prop39
140
1.0
102
RTVSPost2010PropOp39
 70
     1
102
RTVSPost2010Prop40
 90
        0
102
RTVSPost2010PropOp40
 70
     1
102
RTVSPost2010Prop41ColorIndex
 90
       18
102
RTVSPost2010Prop41ColorRGB
 90
        0
102
RTVSPost2010PropOp41
 70
     1
102
RTVSPost2010Prop42
 90
       50
102
RTVSPost2010PropOp42
 70
     1
102
RTVSPost2010Prop43
 90
        3
102
RTVSPost2010PropOp43
 70
     1
102
RTVSPost2010Prop44ColorIndex
 90
        5
102
RTVSPost2010Prop44ColorRGB
 90
      255
102
RTVSPost2010PropOp44
 70
     1
102
RTVSPost2010Prop45
280
     0
102
RTVSPost2010PropOp45
 70
     1
102
RTVSPost2010Prop46
 90
       50
102
RTVSPost2010PropOp46
 70
     1
102
RTVSPost2010Prop47
 90
       50
102
RTVSPost2010PropOp47
 70
     1
102
RTVSPost2010Prop48
 90
       50
102
RTVSPost2010PropOp48
 70
     1
102
RTVSPost2010Prop49
280
     0
102
RTVSPost2010PropOp49
 70
     1
102
RTVSPost2010Prop50
 90
       50
102
RTVSPost2010PropOp50
 70
     1
102
RTVSPost2010Prop51ColorIndex
 90
      256
102
RTVSPost2010Prop51ColorRGB
 90
-16777216
102
RTVSPost2010PropOp51
 70
     0
102
RTVSPost2010Prop52
140
1.0
102
RTVSPost2010PropOp52
 70
     0
102
RTVSPost2010Prop53
 90
        2
102
RTVSPost2010PropOp53
 70
     1
102
RTVSPost2010Prop54
  1
strokes_ogs.tif
102
RTVSPost2010PropOp54
 70
     1
102
RTVSPost2010Prop55
280
     0
102
RTVSPost2010PropOp55
 70
     1
102
RTVSPost2010Prop56
140
1.0
102
RTVSPost2010PropOp56
 70
     1
102
RTVSPost2010Prop57
140
1.0
102
RTVSPost2010PropOp57
 70
     1
  0
XRECORD
  5
109
102
{ACAD_REACTORS
330
108
102
}
330
108
100
AcDbXrecord
280
     1
102
RTVSPost2010Prop28
280
     0
102
RTVSPost2010PropOp28
 70
     1
102
RTVSPost2010Prop29
280
     1
102
RTVSPost2010PropOp29
 70
     1
102
RTVSPost2010Prop30
280
     1
102
RTVSPost2010PropOp30
 70
     1
102
RTVSPost2010Prop31
280
     0
102
RTVSPost2010PropOp31
 70
     1
102
RTVSPost2010Prop32
280
     0
102
RTVSPost2010PropOp32
 70
     1
102
RTVSPost2010Prop33
280
     0
102
RTVSPost2010PropOp33
 70
     1
102
RTVSPost2010Prop34
280
     0
102
RTVSPost2010PropOp34
 70
     1
102
RTVSPost2010Prop35
280
     0
102
RTVSPost2010PropOp35
 70
     1
102
RTVSPost2010Prop36
280
     0
102
RTVSPost2010PropOp36
 70
     1
102
RTVSPost2010Prop37
 90
       50
102
RTVSPost2010PropOp37
 70
     1
102
RTVSPost2010Prop38
140
0.0
102
RTVSPost2010PropOp38
 70
     1
102
RTVSPost2010Prop39
140
1.0
102
RTVSPost2010PropOp39
 70
     1
102
RTVSPost2010Prop40
 90
        0
102
RTVSPost2010PropOp40
 70
     1
102
RTVSPost2010Prop41ColorIndex
 90
       18
102
RTVSPost2010Prop41ColorRGB
 90
        0
102
RTVSPost2010PropOp41
 70
     1
102
RTVSPost2010Prop42
 90
       50
102
RTVSPost2010PropOp42
 70
     1
102
RTVSPost2010Prop43
 90
        3
102
RTVSPost2010PropOp43
 70
     1
102
RTVSPost2010Prop44ColorIndex
 90
        5
102
RTVSPost2010Prop44ColorRGB
 90
      255
102
RTVSPost2010PropOp44
 70
     1
102
RTVSPost2010Prop45
280
     0
102
RTVSPost2010PropOp45
 70
     1
102
RTVSPost2010Prop46
 90
       50
102
RTVSPost2010PropOp46
 70
     1
102
RTVSPost2010Prop47
 90
       50
102
RTVSPost2010PropOp47
 70
     1
102
RTVSPost2010Prop48
 90
       50
102
RTVSPost2010PropOp48
 70
     1
102
RTVSPost2010Prop49
280
     0
102
RTVSPost2010PropOp49
 70
     1
102
RTVSPost2010Prop50
 90
       50
102
RTVSPost2010PropOp50
 70
     1
102
RTVSPost2010Prop51ColorIndex
 90
      256
102
RTVSPost2010Prop51ColorRGB
 90
-16777216
102
RTVSPost2010PropOp51
 70
     0
102
RTVSPost2010Prop52
140
1.0
102
RTVSPost2010PropOp52
 70
     0
102
RTVSPost2010Prop53
 90
        2
102
RTVSPost2010PropOp53
 70
     1
102
RTVSPost2010Prop54
  1
strokes_ogs.tif
102
RTVSPost2010PropOp54
 70
     1
102
RTVSPost2010Prop55
280
     0
102
RTVSPost2010PropOp55
 70
     1
102
RTVSPost2010Prop56
140
1.0
102
RTVSPost2010PropOp56
 70
     1
102
RTVSPost2010Prop57
140
1.0
102
RTVSPost2010PropOp57
 70
     1
  0
XRECORD
  5
10B
102
{ACAD_REACTORS
330
10A
102
}
330
10A
100
AcDbXrecord
280
     1
102
RTVSPost2010Prop28
280
     0
102
RTVSPost2010PropOp28
 70
     1
102
RTVSPost2010Prop29
280
     1
102
RTVSPost2010PropOp29
 70
     1
102
RTVSPost2010Prop30
280
     1
102
RTVSPost2010PropOp30
 70
     1
102
RTVSPost2010Prop31
280
     0
102
RTVSPost2010PropOp31
 70
     1
102
RTVSPost2010Prop32
280
     0
102
RTVSPost2010PropOp32
 70
     1
102
RTVSPost2010Prop33
280
     0
102
RTVSPost2010PropOp33
 70
     1
102
RTVSPost2010Prop34
280
     0
102
RTVSPost2010PropOp34
 70
     1
102
RTVSPost2010Prop35
280
     0
102
RTVSPost2010PropOp35
 70
     1
102
RTVSPost2010Prop36
280
     0
102
RTVSPost2010PropOp36
 70
     1
102
RTVSPost2010Prop37
 90
       50
102
RTVSPost2010PropOp37
 70
     1
102
RTVSPost2010Prop38
140
0.0
102
RTVSPost2010PropOp38
 70
     1
102
RTVSPost2010Prop39
140
1.0
102
RTVSPost2010PropOp39
 70
     1
102
RTVSPost2010Prop40
 90
        0
102
RTVSPost2010PropOp40
 70
     1
102
RTVSPost2010Prop41ColorIndex
 90
       18
102
RTVSPost2010Prop41ColorRGB
 90
        0
102
RTVSPost2010PropOp41
 70
     1
102
RTVSPost2010Prop42
 90
       50
102
RTVSPost2010PropOp42
 70
     1
102
RTVSPost2010Prop43
 90
        3
102
RTVSPost2010PropOp43
 70
     1
102
RTVSPost2010Prop44ColorIndex
 90
        5
102
RTVSPost2010Prop44ColorRGB
 90
      255
102
RTVSPost2010PropOp44
 70
     1
102
RTVSPost2010Prop45
280
     0
102
RTVSPost2010PropOp45
 70
     1
102
RTVSPost2010Prop46
 90
       50
102
RTVSPost2010PropOp46
 70
     1
102
RTVSPost2010Prop47
 90
       50
102
RTVSPost2010PropOp47
 70
     1
102
RTVSPost2010Prop48
 90
       50
102
RTVSPost2010PropOp48
 70
     1
102
RTVSPost2010Prop49
280
     0
102
RTVSPost2010PropOp49
 70
     1
102
RTVSPost2010Prop50
 90
       50
102
RTVSPost2010PropOp50
 70
     1
102
RTVSPost2010Prop51ColorIndex
 90
      256
102
RTVSPost2010Prop51ColorRGB
 90
-16777216
102
RTVSPost2010PropOp51
 70
     0
102
RTVSPost2010Prop52
140
1.0
102
RTVSPost2010PropOp52
 70
     0
102
RTVSPost2010Prop53
 90
        2
102
RTVSPost2010PropOp53
 70
     1
102
RTVSPost2010Prop54
  1
strokes_ogs.tif
102
RTVSPost2010PropOp54
 70
     1
102
RTVSPost2010Prop55
280
     0
102
RTVSPost2010PropOp55
 70
     1
102
RTVSPost2010Prop56
140
1.0
102
RTVSPost2010PropOp56
 70
     1
102
RTVSPost2010Prop57
140
1.0
102
RTVSPost2010PropOp57
 70
     1
  0
XRECORD
  5
10D
102
{ACAD_REACTORS
330
10C
102
}
330
10C
100
AcDbXrecord
280
     1
102
RTVSPost2010Prop28
280
     0
102
RTVSPost2010PropOp28
 70
     1
102
RTVSPost2010Prop29
280
     1
102
RTVSPost2010PropOp29
 70
     1
102
RTVSPost2010Prop30
280
     1
102
RTVSPost2010PropOp30
 70
     1
102
RTVSPost2010Prop31
280
     0
102
RTVSPost2010PropOp31
 70
     1
102
RTVSPost2010Prop32
280
     0
102
RTVSPost2010PropOp32
 70
     1
102
RTVSPost2010Prop33
280
     0
102
RTVSPost2010PropOp33
 70
     1
102
RTVSPost2010Prop34
280
     0
102
RTVSPost2010PropOp34
 70
     1
102
RTVSPost2010Prop35
280
     0
102
RTVSPost2010PropOp35
 70
     1
102
RTVSPost2010Prop36
280
     0
102
RTVSPost2010PropOp36
 70
     1
102
RTVSPost2010Prop37
 90
       50
102
RTVSPost2010PropOp37
 70
     1
102
RTVSPost2010Prop38
140
0.0
102
RTVSPost2010PropOp38
 70
     1
102
RTVSPost2010Prop39
140
1.0
102
RTVSPost2010PropOp39
 70
     1
102
RTVSPost2010Prop40
 90
        0
102
RTVSPost2010PropOp40
 70
     1
102
RTVSPost2010Prop41ColorIndex
 90
       18
102
RTVSPost2010Prop41ColorRGB
 90
        0
102
RTVSPost2010PropOp41
 70
     1
102
RTVSPost2010Prop42
 90
       50
102
RTVSPost2010PropOp42
 70
     1
102
RTVSPost2010Prop43
 90
        3
102
RTVSPost2010PropOp43
 70
     1
102
RTVSPost2010Prop44ColorIndex
 90
        5
102
RTVSPost2010Prop44ColorRGB
 90
      255
102
RTVSPost2010PropOp44
 70
     1
102
RTVSPost2010Prop45
280
     0
102
RTVSPost2010PropOp45
 70
     1
102
RTVSPost2010Prop46
 90
       50
102
RTVSPost2010PropOp46
 70
     1
102
RTVSPost2010Prop47
 90
       50
102
RTVSPost2010PropOp47
 70
     1
102
RTVSPost2010Prop48
 90
       50
102
RTVSPost2010PropOp48
 70
     1
102
RTVSPost2010Prop49
280
     0
102
RTVSPost2010PropOp49
 70
     1
102
RTVSPost2010Prop50
 90
       50
102
RTVSPost2010PropOp50
 70
     1
102
RTVSPost2010Prop51ColorIndex
 90
      256
102
RTVSPost2010Prop51ColorRGB
 90
-16777216
102
RTVSPost2010PropOp51
 70
     0
102
RTVSPost2010Prop52
140
1.0
102
RTVSPost2010PropOp52
 70
     0
102
RTVSPost2010Prop53
 90
        2
102
RTVSPost2010PropOp53
 70
     1
102
RTVSPost2010Prop54
  1
strokes_ogs.tif
102
RTVSPost2010PropOp54
 70
     1
102
RTVSPost2010Prop55
280
     0
102
RTVSPost2010PropOp55
 70
     1
102
RTVSPost2010Prop56
140
1.0
102
RTVSPost2010PropOp56
 70
     1
102
RTVSPost2010Prop57
140
1.0
102
RTVSPost2010PropOp57
 70
     1
  0
XRECORD
  5
10F
102
{ACAD_REACTORS
330
10E
102
}
330
10E
100
AcDbXrecord
280
     1
102
RTVSPost2010Prop28
280
     0
102
RTVSPost2010PropOp28
 70
     1
102
RTVSPost2010Prop29
280
     1
102
RTVSPost2010PropOp29
 70
     1
102
RTVSPost2010Prop30
280
     1
102
RTVSPost2010PropOp30
 70
     1
102
RTVSPost2010Prop31
280
     0
102
RTVSPost2010PropOp31
 70
     1
102
RTVSPost2010Prop32
280
     0
102
RTVSPost2010PropOp32
 70
     1
102
RTVSPost2010Prop33
280
     0
102
RTVSPost2010PropOp33
 70
     1
102
RTVSPost2010Prop34
280
     0
102
RTVSPost2010PropOp34
 70
     1
102
RTVSPost2010Prop35
280
     0
102
RTVSPost2010PropOp35
 70
     1
102
RTVSPost2010Prop36
280
     0
102
RTVSPost2010PropOp36
 70
     1
102
RTVSPost2010Prop37
 90
       50
102
RTVSPost2010PropOp37
 70
     1
102
RTVSPost2010Prop38
140
0.0
102
RTVSPost2010PropOp38
 70
     1
102
RTVSPost2010Prop39
140
1.0
102
RTVSPost2010PropOp39
 70
     1
102
RTVSPost2010Prop40
 90
        0
102
RTVSPost2010PropOp40
 70
     1
102
RTVSPost2010Prop41ColorIndex
 90
       18
102
RTVSPost2010Prop41ColorRGB
 90
        0
102
RTVSPost2010PropOp41
 70
     1
102
RTVSPost2010Prop42
 90
       50
102
RTVSPost2010PropOp42
 70
     1
102
RTVSPost2010Prop43
 90
        3
102
RTVSPost2010PropOp43
 70
     1
102
RTVSPost2010Prop44ColorIndex
 90
        5
102
RTVSPost2010Prop44ColorRGB
 90
      255
102
RTVSPost2010PropOp44
 70
     1
102
RTVSPost2010Prop45
280
     0
102
RTVSPost2010PropOp45
 70
     1
102
RTVSPost2010Prop46
 90
       50
102
RTVSPost2010PropOp46
 70
     1
102
RTVSPost2010Prop47
 90
       50
102
RTVSPost2010PropOp47
 70
     1
102
RTVSPost2010Prop48
 90
       50
102
RTVSPost2010PropOp48
 70
     1
102
RTVSPost2010Prop49
280
     0
102
RTVSPost2010PropOp49
 70
     1
102
RTVSPost2010Prop50
 90
       50
102
RTVSPost2010PropOp50
 70
     1
102
RTVSPost2010Prop51ColorIndex
 90
      256
102
RTVSPost2010Prop51ColorRGB
 90
-16777216
102
RTVSPost2010PropOp51
 70
     0
102
RTVSPost2010Prop52
140
1.0
102
RTVSPost2010PropOp52
 70
     0
102
RTVSPost2010Prop53
 90
        2
102
RTVSPost2010PropOp53
 70
     1
102
RTVSPost2010Prop54
  1
strokes_ogs.tif
102
RTVSPost2010PropOp54
 70
     1
102
RTVSPost2010Prop55
280
     0
102
RTVSPost2010PropOp55
 70
     1
102
RTVSPost2010Prop56
140
1.0
102
RTVSPost2010PropOp56
 70
     1
102
RTVSPost2010Prop57
140
1.0
102
RTVSPost2010PropOp57
 70
     1
  0
XRECORD
  5
117
102
{ACAD_REACTORS
330
116
102
}
330
116
100
AcDbXrecord
280
     1
102
RTVSPost2010Prop28
280
     0
102
RTVSPost2010PropOp28
 70
     1
102
RTVSPost2010Prop29
280
     1
102
RTVSPost2010PropOp29
 70
     1
102
RTVSPost2010Prop30
280
     1
102
RTVSPost2010PropOp30
 70
     1
102
RTVSPost2010Prop31
280
     0
102
RTVSPost2010PropOp31
 70
     1
102
RTVSPost2010Prop32
280
     0
102
RTVSPost2010PropOp32
 70
     1
102
RTVSPost2010Prop33
280
     0
102
RTVSPost2010PropOp33
 70
     1
102
RTVSPost2010Prop34
280
     0
102
RTVSPost2010PropOp34
 70
     1
102
RTVSPost2010Prop35
280
     0
102
RTVSPost2010PropOp35
 70
     1
102
RTVSPost2010Prop36
280
     0
102
RTVSPost2010PropOp36
 70
     1
102
RTVSPost2010Prop37
 90
       50
102
RTVSPost2010PropOp37
 70
     1
102
RTVSPost2010Prop38
140
0.0
102
RTVSPost2010PropOp38
 70
     1
102
RTVSPost2010Prop39
140
1.0
102
RTVSPost2010PropOp39
 70
     1
102
RTVSPost2010Prop40
 90
        0
102
RTVSPost2010PropOp40
 70
     1
102
RTVSPost2010Prop41ColorIndex
 90
       18
102
RTVSPost2010Prop41ColorRGB
 90
        0
102
RTVSPost2010PropOp41
 70
     1
102
RTVSPost2010Prop42
 90
       50
102
RTVSPost2010PropOp42
 70
     1
102
RTVSPost2010Prop43
 90
        3
102
RTVSPost2010PropOp43
 70
     1
102
RTVSPost2010Prop44ColorIndex
 90
        5
102
RTVSPost2010Prop44ColorRGB
 90
      255
102
RTVSPost2010PropOp44
 70
     1
102
RTVSPost2010Prop45
280
     0
102
RTVSPost2010PropOp45
 70
     1
102
RTVSPost2010Prop46
 90
       50
102
RTVSPost2010PropOp46
 70
     1
102
RTVSPost2010Prop47
 90
       50
102
RTVSPost2010PropOp47
 70
     1
102
RTVSPost2010Prop48
 90
       50
102
RTVSPost2010PropOp48
 70
     1
102
RTVSPost2010Prop49
280
     0
102
RTVSPost2010PropOp49
 70
     1
102
RTVSPost2010Prop50
 90
       50
102
RTVSPost2010PropOp50
 70
     1
102
RTVSPost2010Prop51ColorIndex
 90
      256
102
RTVSPost2010Prop51ColorRGB
 90
-16777216
102
RTVSPost2010PropOp51
 70
     0
102
RTVSPost2010Prop52
140
1.0
102
RTVSPost2010PropOp52
 70
     0
102
RTVSPost2010Prop53
 90
        2
102
RTVSPost2010PropOp53
 70
     1
102
RTVSPost2010Prop54
  1
strokes_ogs.tif
102
RTVSPost2010PropOp54
 70
     1
102
RTVSPost2010Prop55
280
     0
102
RTVSPost2010PropOp55
 70
     1
102
RTVSPost2010Prop56
140
1.0
102
RTVSPost2010PropOp56
 70
     1
102
RTVSPost2010Prop57
140
1.0
102
RTVSPost2010PropOp57
 70
     1
  0
XRECORD
  5
133
102
{ACAD_REACTORS
330
132
102
}
330
132
100
AcDbXrecord
280
     1
102
RTVSPost2010Prop28
280
     0
102
RTVSPost2010PropOp28
 70
     0
102
RTVSPost2010Prop29
280
     1
102
RTVSPost2010PropOp29
 70
     0
102
RTVSPost2010Prop30
280
     1
102
RTVSPost2010PropOp30
 70
     0
102
RTVSPost2010Prop31
280
     0
102
RTVSPost2010PropOp31
 70
     0
102
RTVSPost2010Prop32
280
     0
102
RTVSPost2010PropOp32
 70
     0
102
RTVSPost2010Prop33
280
     0
102
RTVSPost2010PropOp33
 70
     0
102
RTVSPost2010Prop34
280
     0
102
RTVSPost2010PropOp34
 70
     0
102
RTVSPost2010Prop35
280
     0
102
RTVSPost2010PropOp35
 70
     0
102
RTVSPost2010Prop36
280
     0
102
RTVSPost2010PropOp36
 70
     0
102
RTVSPost2010Prop37
 90
       50
102
RTVSPost2010PropOp37
 70
     0
102
RTVSPost2010Prop38
140
0.0
102
RTVSPost2010PropOp38
 70
     0
102
RTVSPost2010Prop39
140
1.0
102
RTVSPost2010PropOp39
 70
     0
102
RTVSPost2010Prop40
 90
        0
102
RTVSPost2010PropOp40
 70
     0
102
RTVSPost2010Prop41ColorIndex
 90
       18
102
RTVSPost2010Prop41ColorRGB
 90
        0
102
RTVSPost2010PropOp41
 70
     0
102
RTVSPost2010Prop42
 90
       50
102
RTVSPost2010PropOp42
 70
     0
102
RTVSPost2010Prop43
 90
        3
102
RTVSPost2010PropOp43
 70
     0
102
RTVSPost2010Prop44ColorIndex
 90
        5
102
RTVSPost2010Prop44ColorRGB
 90
      255
102
RTVSPost2010PropOp44
 70
     0
102
RTVSPost2010Prop45
280
     0
102
RTVSPost2010PropOp45
 70
     0
102
RTVSPost2010Prop46
 90
       50
102
RTVSPost2010PropOp46
 70
     0
102
RTVSPost2010Prop47
 90
       50
102
RTVSPost2010PropOp47
 70
     0
102
RTVSPost2010Prop48
 90
       50
102
RTVSPost2010PropOp48
 70
     0
102
RTVSPost2010Prop49
280
     0
102
RTVSPost2010PropOp49
 70
     0
102
RTVSPost2010Prop50
 90
       50
102
RTVSPost2010PropOp50
 70
     0
102
RTVSPost2010Prop51ColorIndex
 90
      256
102
RTVSPost2010Prop51ColorRGB
 90
-16777216
102
RTVSPost2010PropOp51
 70
     0
102
RTVSPost2010Prop52
140
1.0
102
RTVSPost2010PropOp52
 70
     0
102
RTVSPost2010Prop53
 90
        2
102
RTVSPost2010PropOp53
 70
     0
102
RTVSPost2010Prop54
  1
strokes_ogs.tif
102
RTVSPost2010PropOp54
 70
     0
102
RTVSPost2010Prop55
280
     0
102
RTVSPost2010PropOp55
 70
     0
102
RTVSPost2010Prop56
140
1.0
102
RTVSPost2010PropOp56
 70
     0
102
RTVSPost2010Prop57
140
1.0
102
RTVSPost2010PropOp57
 70
     0
  0
XRECORD
  5
123
102
{ACAD_REACTORS
330
122
102
}
330
122
100
AcDbXrecord
280
     1
102
RTVSPost2010Prop28
280
     0
102
RTVSPost2010PropOp28
 70
     1
102
RTVSPost2010Prop29
280
     1
102
RTVSPost2010PropOp29
 70
     1
102
RTVSPost2010Prop30
280
     1
102
RTVSPost2010PropOp30
 70
     1
102
RTVSPost2010Prop31
280
     0
102
RTVSPost2010PropOp31
 70
     1
102
RTVSPost2010Prop32
280
     0
102
RTVSPost2010PropOp32
 70
     1
102
RTVSPost2010Prop33
280
     0
102
RTVSPost2010PropOp33
 70
     1
102
RTVSPost2010Prop34
280
     0
102
RTVSPost2010PropOp34
 70
     1
102
RTVSPost2010Prop35
280
     0
102
RTVSPost2010PropOp35
 70
     1
102
RTVSPost2010Prop36
280
     0
102
RTVSPost2010PropOp36
 70
     1
102
RTVSPost2010Prop37
 90
       50
102
RTVSPost2010PropOp37
 70
     1
102
RTVSPost2010Prop38
140
0.0
102
RTVSPost2010PropOp38
 70
     1
102
RTVSPost2010Prop39
140
1.0
102
RTVSPost2010PropOp39
 70
     1
102
RTVSPost2010Prop40
 90
        0
102
RTVSPost2010PropOp40
 70
     1
102
RTVSPost2010Prop41ColorIndex
 90
       18
102
RTVSPost2010Prop41ColorRGB
 90
        0
102
RTVSPost2010PropOp41
 70
     1
102
RTVSPost2010Prop42
 90
       50
102
RTVSPost2010PropOp42
 70
     1
102
RTVSPost2010Prop43
 90
        3
102
RTVSPost2010PropOp43
 70
     1
102
RTVSPost2010Prop44ColorIndex
 90
        5
102
RTVSPost2010Prop44ColorRGB
 90
      255
102
RTVSPost2010PropOp44
 70
     1
102
RTVSPost2010Prop45
280
     0
102
RTVSPost2010PropOp45
 70
     1
102
RTVSPost2010Prop46
 90
       50
102
RTVSPost2010PropOp46
 70
     1
102
RTVSPost2010Prop47
 90
       50
102
RTVSPost2010PropOp47
 70
     1
102
RTVSPost2010Prop48
 90
       50
102
RTVSPost2010PropOp48
 70
     1
102
RTVSPost2010Prop49
280
     0
102
RTVSPost2010PropOp49
 70
     1
102
RTVSPost2010Prop50
 90
       50
102
RTVSPost2010PropOp50
 70
     1
102
RTVSPost2010Prop51ColorIndex
 90
      256
102
RTVSPost2010Prop51ColorRGB
 90
-16777216
102
RTVSPost2010PropOp51
 70
     0
102
RTVSPost2010Prop52
140
1.0
102
RTVSPost2010PropOp52
 70
     0
102
RTVSPost2010Prop53
 90
        2
102
RTVSPost2010PropOp53
 70
     1
102
RTVSPost2010Prop54
  1
strokes_ogs.tif
102
RTVSPost2010PropOp54
 70
     1
102
RTVSPost2010Prop55
280
     0
102
RTVSPost2010PropOp55
 70
     1
102
RTVSPost2010Prop56
140
1.0
102
RTVSPost2010PropOp56
 70
     1
102
RTVSPost2010Prop57
140
1.0
102
RTVSPost2010PropOp57
 70
     1
  0
XRECORD
  5
135
102
{ACAD_REACTORS
330
134
102
}
330
134
100
AcDbXrecord
280
     1
102
RTVSPost2010Prop28
280
     0
102
RTVSPost2010PropOp28
 70
     0
102
RTVSPost2010Prop29
280
     1
102
RTVSPost2010PropOp29
 70
     0
102
RTVSPost2010Prop30
280
     1
102
RTVSPost2010PropOp30
 70
     0
102
RTVSPost2010Prop31
280
     0
102
RTVSPost2010PropOp31
 70
     0
102
RTVSPost2010Prop32
280
     0
102
RTVSPost2010PropOp32
 70
     0
102
RTVSPost2010Prop33
280
     0
102
RTVSPost2010PropOp33
 70
     0
102
RTVSPost2010Prop34
280
     0
102
RTVSPost2010PropOp34
 70
     0
102
RTVSPost2010Prop35
280
     0
102
RTVSPost2010PropOp35
 70
     0
102
RTVSPost2010Prop36
280
     0
102
RTVSPost2010PropOp36
 70
     0
102
RTVSPost2010Prop37
 90
       50
102
RTVSPost2010PropOp37
 70
     0
102
RTVSPost2010Prop38
140
0.0
102
RTVSPost2010PropOp38
 70
     0
102
RTVSPost2010Prop39
140
1.0
102
RTVSPost2010PropOp39
 70
     0
102
RTVSPost2010Prop40
 90
        0
102
RTVSPost2010PropOp40
 70
     0
102
RTVSPost2010Prop41ColorIndex
 90
       18
102
RTVSPost2010Prop41ColorRGB
 90
        0
102
RTVSPost2010PropOp41
 70
     0
102
RTVSPost2010Prop42
 90
       50
102
RTVSPost2010PropOp42
 70
     0
102
RTVSPost2010Prop43
 90
        3
102
RTVSPost2010PropOp43
 70
     0
102
RTVSPost2010Prop44ColorIndex
 90
        5
102
RTVSPost2010Prop44ColorRGB
 90
      255
102
RTVSPost2010PropOp44
 70
     0
102
RTVSPost2010Prop45
280
     0
102
RTVSPost2010PropOp45
 70
     0
102
RTVSPost2010Prop46
 90
       50
102
RTVSPost2010PropOp46
 70
     0
102
RTVSPost2010Prop47
 90
       50
102
RTVSPost2010PropOp47
 70
     0
102
RTVSPost2010Prop48
 90
       50
102
RTVSPost2010PropOp48
 70
     0
102
RTVSPost2010Prop49
280
     0
102
RTVSPost2010PropOp49
 70
     0
102
RTVSPost2010Prop50
 90
       50
102
RTVSPost2010PropOp50
 70
     0
102
RTVSPost2010Prop51ColorIndex
 90
      256
102
RTVSPost2010Prop51ColorRGB
 90
-16777216
102
RTVSPost2010PropOp51
 70
     0
102
RTVSPost2010Prop52
140
1.0
102
RTVSPost2010PropOp52
 70
     0
102
RTVSPost2010Prop53
 90
        2
102
RTVSPost2010PropOp53
 70
     0
102
RTVSPost2010Prop54
  1
strokes_ogs.tif
102
RTVSPost2010PropOp54
 70
     0
102
RTVSPost2010Prop55
280
     0
102
RTVSPost2010PropOp55
 70
     0
102
RTVSPost2010Prop56
140
1.0
102
RTVSPost2010PropOp56
 70
     0
102
RTVSPost2010Prop57
140
1.0
102
RTVSPost2010PropOp57
 70
     0
  0
XRECORD
  5
11B
102
{ACAD_REACTORS
330
11A
102
}
330
11A
100
AcDbXrecord
280
     1
102
RTVSPost2010Prop28
280
     0
102
RTVSPost2010PropOp28
 70
     1
102
RTVSPost2010Prop29
280
     1
102
RTVSPost2010PropOp29
 70
     1
102
RTVSPost2010Prop30
280
     1
102
RTVSPost2010PropOp30
 70
     1
102
RTVSPost2010Prop31
280
     0
102
RTVSPost2010PropOp31
 70
     1
102
RTVSPost2010Prop32
280
     0
102
RTVSPost2010PropOp32
 70
     1
102
RTVSPost2010Prop33
280
     0
102
RTVSPost2010PropOp33
 70
     1
102
RTVSPost2010Prop34
280
     0
102
RTVSPost2010PropOp34
 70
     1
102
RTVSPost2010Prop35
280
     0
102
RTVSPost2010PropOp35
 70
     1
102
RTVSPost2010Prop36
280
     0
102
RTVSPost2010PropOp36
 70
     1
102
RTVSPost2010Prop37
 90
       50
102
RTVSPost2010PropOp37
 70
     1
102
RTVSPost2010Prop38
140
0.0
102
RTVSPost2010PropOp38
 70
     1
102
RTVSPost2010Prop39
140
1.0
102
RTVSPost2010PropOp39
 70
     1
102
RTVSPost2010Prop40
 90
        0
102
RTVSPost2010PropOp40
 70
     1
102
RTVSPost2010Prop41ColorIndex
 90
       18
102
RTVSPost2010Prop41ColorRGB
 90
        0
102
RTVSPost2010PropOp41
 70
     1
102
RTVSPost2010Prop42
 90
       50
102
RTVSPost2010PropOp42
 70
     1
102
RTVSPost2010Prop43
 90
        3
102
RTVSPost2010PropOp43
 70
     1
102
RTVSPost2010Prop44ColorIndex
 90
        5
102
RTVSPost2010Prop44ColorRGB
 90
      255
102
RTVSPost2010PropOp44
 70
     1
102
RTVSPost2010Prop45
280
     0
102
RTVSPost2010PropOp45
 70
     1
102
RTVSPost2010Prop46
 90
       50
102
RTVSPost2010PropOp46
 70
     1
102
RTVSPost2010Prop47
 90
       50
102
RTVSPost2010PropOp47
 70
     1
102
RTVSPost2010Prop48
 90
       50
102
RTVSPost2010PropOp48
 70
     1
102
RTVSPost2010Prop49
280
     0
102
RTVSPost2010PropOp49
 70
     1
102
RTVSPost2010Prop50
 90
       50
102
RTVSPost2010PropOp50
 70
     1
102
RTVSPost2010Prop51ColorIndex
 90
      256
102
RTVSPost2010Prop51ColorRGB
 90
-16777216
102
RTVSPost2010PropOp51
 70
     0
102
RTVSPost2010Prop52
140
1.0
102
RTVSPost2010PropOp52
 70
     0
102
RTVSPost2010Prop53
 90
        2
102
RTVSPost2010PropOp53
 70
     1
102
RTVSPost2010Prop54
  1
strokes_ogs.tif
102
RTVSPost2010PropOp54
 70
     1
102
RTVSPost2010Prop55
280
     0
102
RTVSPost2010PropOp55
 70
     1
102
RTVSPost2010Prop56
140
1.0
102
RTVSPost2010PropOp56
 70
     1
102
RTVSPost2010Prop57
140
1.0
102
RTVSPost2010PropOp57
 70
     1
  0
XRECORD
  5
131
102
{ACAD_REACTORS
330
130
102
}
330
130
100
AcDbXrecord
280
     1
102
RTVSPost2010Prop28
280
     0
102
RTVSPost2010PropOp28
 70
     1
102
RTVSPost2010Prop29
280
     1
102
RTVSPost2010PropOp29
 70
     1
102
RTVSPost2010Prop30
280
     1
102
RTVSPost2010PropOp30
 70
     1
102
RTVSPost2010Prop31
280
     0
102
RTVSPost2010PropOp31
 70
     1
102
RTVSPost2010Prop32
280
     0
102
RTVSPost2010PropOp32
 70
     1
102
RTVSPost2010Prop33
280
     0
102
RTVSPost2010PropOp33
 70
     1
102
RTVSPost2010Prop34
280
     0
102
RTVSPost2010PropOp34
 70
     1
102
RTVSPost2010Prop35
280
     0
102
RTVSPost2010PropOp35
 70
     1
102
RTVSPost2010Prop36
280
     0
102
RTVSPost2010PropOp36
 70
     1
102
RTVSPost2010Prop37
 90
       50
102
RTVSPost2010PropOp37
 70
     1
102
RTVSPost2010Prop38
140
0.0
102
RTVSPost2010PropOp38
 70
     1
102
RTVSPost2010Prop39
140
1.0
102
RTVSPost2010PropOp39
 70
     1
102
RTVSPost2010Prop40
 90
        0
102
RTVSPost2010PropOp40
 70
     1
102
RTVSPost2010Prop41ColorIndex
 90
       18
102
RTVSPost2010Prop41ColorRGB
 90
        0
102
RTVSPost2010PropOp41
 70
     1
102
RTVSPost2010Prop42
 90
       50
102
RTVSPost2010PropOp42
 70
     1
102
RTVSPost2010Prop43
 90
        3
102
RTVSPost2010PropOp43
 70
     1
102
RTVSPost2010Prop44ColorIndex
 90
        5
102
RTVSPost2010Prop44ColorRGB
 90
      255
102
RTVSPost2010PropOp44
 70
     1
102
RTVSPost2010Prop45
280
     0
102
RTVSPost2010PropOp45
 70
     1
102
RTVSPost2010Prop46
 90
       50
102
RTVSPost2010PropOp46
 70
     1
102
RTVSPost2010Prop47
 90
       50
102
RTVSPost2010PropOp47
 70
     1
102
RTVSPost2010Prop48
 90
       50
102
RTVSPost2010PropOp48
 70
     1
102
RTVSPost2010Prop49
280
     0
102
RTVSPost2010PropOp49
 70
     1
102
RTVSPost2010Prop50
 90
       50
102
RTVSPost2010PropOp50
 70
     1
102
RTVSPost2010Prop51ColorIndex
 90
      256
102
RTVSPost2010Prop51ColorRGB
 90
-16777216
102
RTVSPost2010PropOp51
 70
     0
102
RTVSPost2010Prop52
140
1.0
102
RTVSPost2010PropOp52
 70
     0
102
RTVSPost2010Prop53
 90
        2
102
RTVSPost2010PropOp53
 70
     1
102
RTVSPost2010Prop54
  1
strokes_ogs.tif
102
RTVSPost2010PropOp54
 70
     1
102
RTVSPost2010Prop55
280
     0
102
RTVSPost2010PropOp55
 70
     1
102
RTVSPost2010Prop56
140
1.0
102
RTVSPost2010PropOp56
 70
     1
102
RTVSPost2010Prop57
140
1.0
102
RTVSPost2010PropOp57
 70
     1
  0
XRECORD
  5
12F
102
{ACAD_REACTORS
330
12E
102
}
330
12E
100
AcDbXrecord
280
     1
102
RTVSPost2010Prop28
280
     0
102
RTVSPost2010PropOp28
 70
     1
102
RTVSPost2010Prop29
280
     1
102
RTVSPost2010PropOp29
 70
     1
102
RTVSPost2010Prop30
280
     1
102
RTVSPost2010PropOp30
 70
     1
102
RTVSPost2010Prop31
280
     0
102
RTVSPost2010PropOp31
 70
     1
102
RTVSPost2010Prop32
280
     0
102
RTVSPost2010PropOp32
 70
     1
102
RTVSPost2010Prop33
280
     0
102
RTVSPost2010PropOp33
 70
     1
102
RTVSPost2010Prop34
280
     0
102
RTVSPost2010PropOp34
 70
     1
102
RTVSPost2010Prop35
280
     0
102
RTVSPost2010PropOp35
 70
     1
102
RTVSPost2010Prop36
280
     0
102
RTVSPost2010PropOp36
 70
     1
102
RTVSPost2010Prop37
 90
       50
102
RTVSPost2010PropOp37
 70
     1
102
RTVSPost2010Prop38
140
0.0
102
RTVSPost2010PropOp38
 70
     1
102
RTVSPost2010Prop39
140
1.0
102
RTVSPost2010PropOp39
 70
     1
102
RTVSPost2010Prop40
 90
        0
102
RTVSPost2010PropOp40
 70
     1
102
RTVSPost2010Prop41ColorIndex
 90
       18
102
RTVSPost2010Prop41ColorRGB
 90
        0
102
RTVSPost2010PropOp41
 70
     1
102
RTVSPost2010Prop42
 90
       50
102
RTVSPost2010PropOp42
 70
     1
102
RTVSPost2010Prop43
 90
        3
102
RTVSPost2010PropOp43
 70
     1
102
RTVSPost2010Prop44ColorIndex
 90
        5
102
RTVSPost2010Prop44ColorRGB
 90
      255
102
RTVSPost2010PropOp44
 70
     1
102
RTVSPost2010Prop45
280
     0
102
RTVSPost2010PropOp45
 70
     1
102
RTVSPost2010Prop46
 90
       50
102
RTVSPost2010PropOp46
 70
     1
102
RTVSPost2010Prop47
 90
       50
102
RTVSPost2010PropOp47
 70
     1
102
RTVSPost2010Prop48
 90
       50
102
RTVSPost2010PropOp48
 70
     1
102
RTVSPost2010Prop49
280
     0
102
RTVSPost2010PropOp49
 70
     1
102
RTVSPost2010Prop50
 90
       50
102
RTVSPost2010PropOp50
 70
     1
102
RTVSPost2010Prop51ColorIndex
 90
      256
102
RTVSPost2010Prop51ColorRGB
 90
-16777216
102
RTVSPost2010PropOp51
 70
     0
102
RTVSPost2010Prop52
140
1.0
102
RTVSPost2010PropOp52
 70
     0
102
RTVSPost2010Prop53
 90
        2
102
RTVSPost2010PropOp53
 70
     1
102
RTVSPost2010Prop54
  1
strokes_ogs.tif
102
RTVSPost2010PropOp54
 70
     1
102
RTVSPost2010Prop55
280
     0
102
RTVSPost2010PropOp55
 70
     1
102
RTVSPost2010Prop56
140
1.0
102
RTVSPost2010PropOp56
 70
     1
102
RTVSPost2010Prop57
140
1.0
102
RTVSPost2010PropOp57
 70
     1
  0
XRECORD
  5
129
102
{ACAD_REACTORS
330
128
102
}
330
128
100
AcDbXrecord
280
     1
102
RTVSPost2010Prop28
280
     0
102
RTVSPost2010PropOp28
 70
     1
102
RTVSPost2010Prop29
280
     1
102
RTVSPost2010PropOp29
 70
     1
102
RTVSPost2010Prop30
280
     1
102
RTVSPost2010PropOp30
 70
     1
102
RTVSPost2010Prop31
280
     0
102
RTVSPost2010PropOp31
 70
     1
102
RTVSPost2010Prop32
280
     0
102
RTVSPost2010PropOp32
 70
     1
102
RTVSPost2010Prop33
280
     0
102
RTVSPost2010PropOp33
 70
     1
102
RTVSPost2010Prop34
280
     0
102
RTVSPost2010PropOp34
 70
     1
102
RTVSPost2010Prop35
280
     0
102
RTVSPost2010PropOp35
 70
     1
102
RTVSPost2010Prop36
280
     0
102
RTVSPost2010PropOp36
 70
     1
102
RTVSPost2010Prop37
 90
       50
102
RTVSPost2010PropOp37
 70
     1
102
RTVSPost2010Prop38
140
0.0
102
RTVSPost2010PropOp38
 70
     1
102
RTVSPost2010Prop39
140
1.0
102
RTVSPost2010PropOp39
 70
     1
102
RTVSPost2010Prop40
 90
        0
102
RTVSPost2010PropOp40
 70
     1
102
RTVSPost2010Prop41ColorIndex
 90
       18
102
RTVSPost2010Prop41ColorRGB
 90
        0
102
RTVSPost2010PropOp41
 70
     1
102
RTVSPost2010Prop42
 90
       50
102
RTVSPost2010PropOp42
 70
     1
102
RTVSPost2010Prop43
 90
        3
102
RTVSPost2010PropOp43
 70
     1
102
RTVSPost2010Prop44ColorIndex
 90
        5
102
RTVSPost2010Prop44ColorRGB
 90
      255
102
RTVSPost2010PropOp44
 70
     1
102
RTVSPost2010Prop45
280
     0
102
RTVSPost2010PropOp45
 70
     1
102
RTVSPost2010Prop46
 90
       50
102
RTVSPost2010PropOp46
 70
     1
102
RTVSPost2010Prop47
 90
       50
102
RTVSPost2010PropOp47
 70
     1
102
RTVSPost2010Prop48
 90
       50
102
RTVSPost2010PropOp48
 70
     1
102
RTVSPost2010Prop49
280
     0
102
RTVSPost2010PropOp49
 70
     1
102
RTVSPost2010Prop50
 90
       50
102
RTVSPost2010PropOp50
 70
     1
102
RTVSPost2010Prop51ColorIndex
 90
      256
102
RTVSPost2010Prop51ColorRGB
 90
-16777216
102
RTVSPost2010PropOp51
 70
     0
102
RTVSPost2010Prop52
140
1.0
102
RTVSPost2010PropOp52
 70
     0
102
RTVSPost2010Prop53
 90
        2
102
RTVSPost2010PropOp53
 70
     1
102
RTVSPost2010Prop54
  1
strokes_ogs.tif
102
RTVSPost2010PropOp54
 70
     1
102
RTVSPost2010Prop55
280
     0
102
RTVSPost2010PropOp55
 70
     1
102
RTVSPost2010Prop56
140
1.0
102
RTVSPost2010PropOp56
 70
     1
102
RTVSPost2010Prop57
140
1.0
102
RTVSPost2010PropOp57
 70
     1
  0
XRECORD
  5
12B
102
{ACAD_REACTORS
330
12A
102
}
330
12A
100
AcDbXrecord
280
     1
102
RTVSPost2010Prop28
280
     0
102
RTVSPost2010PropOp28
 70
     1
102
RTVSPost2010Prop29
280
     1
102
RTVSPost2010PropOp29
 70
     1
102
RTVSPost2010Prop30
280
     1
102
RTVSPost2010PropOp30
 70
     1
102
RTVSPost2010Prop31
280
     0
102
RTVSPost2010PropOp31
 70
     1
102
RTVSPost2010Prop32
280
     0
102
RTVSPost2010PropOp32
 70
     1
102
RTVSPost2010Prop33
280
     0
102
RTVSPost2010PropOp33
 70
     1
102
RTVSPost2010Prop34
280
     0
102
RTVSPost2010PropOp34
 70
     1
102
RTVSPost2010Prop35
280
     0
102
RTVSPost2010PropOp35
 70
     1
102
RTVSPost2010Prop36
280
     0
102
RTVSPost2010PropOp36
 70
     1
102
RTVSPost2010Prop37
 90
       50
102
RTVSPost2010PropOp37
 70
     1
102
RTVSPost2010Prop38
140
0.0
102
RTVSPost2010PropOp38
 70
     1
102
RTVSPost2010Prop39
140
1.0
102
RTVSPost2010PropOp39
 70
     1
102
RTVSPost2010Prop40
 90
        0
102
RTVSPost2010PropOp40
 70
     1
102
RTVSPost2010Prop41ColorIndex
 90
       18
102
RTVSPost2010Prop41ColorRGB
 90
        0
102
RTVSPost2010PropOp41
 70
     1
102
RTVSPost2010Prop42
 90
       50
102
RTVSPost2010PropOp42
 70
     1
102
RTVSPost2010Prop43
 90
        3
102
RTVSPost2010PropOp43
 70
     1
102
RTVSPost2010Prop44ColorIndex
 90
        5
102
RTVSPost2010Prop44ColorRGB
 90
      255
102
RTVSPost2010PropOp44
 70
     1
102
RTVSPost2010Prop45
280
     0
102
RTVSPost2010PropOp45
 70
     1
102
RTVSPost2010Prop46
 90
       50
102
RTVSPost2010PropOp46
 70
     1
102
RTVSPost2010Prop47
 90
       50
102
RTVSPost2010PropOp47
 70
     1
102
RTVSPost2010Prop48
 90
       50
102
RTVSPost2010PropOp48
 70
     1
102
RTVSPost2010Prop49
280
     0
102
RTVSPost2010PropOp49
 70
     1
102
RTVSPost2010Prop50
 90
       50
102
RTVSPost2010PropOp50
 70
     1
102
RTVSPost2010Prop51ColorIndex
 90
      256
102
RTVSPost2010Prop51ColorRGB
 90
-16777216
102
RTVSPost2010PropOp51
 70
     0
102
RTVSPost2010Prop52
140
1.0
102
RTVSPost2010PropOp52
 70
     0
102
RTVSPost2010Prop53
 90
        2
102
RTVSPost2010PropOp53
 70
     1
102
RTVSPost2010Prop54
  1
strokes_ogs.tif
102
RTVSPost2010PropOp54
 70
     1
102
RTVSPost2010Prop55
280
     0
102
RTVSPost2010PropOp55
 70
     1
102
RTVSPost2010Prop56
140
1.0
102
RTVSPost2010PropOp56
 70
     1
102
RTVSPost2010Prop57
140
1.0
102
RTVSPost2010PropOp57
 70
     1
  0
XRECORD
  5
121
102
{ACAD_REACTORS
330
120
102
}
330
120
100
AcDbXrecord
280
     1
102
RTVSPost2010Prop28
280
     0
102
RTVSPost2010PropOp28
 70
     1
102
RTVSPost2010Prop29
280
     1
102
RTVSPost2010PropOp29
 70
     1
102
RTVSPost2010Prop30
280
     1
102
RTVSPost2010PropOp30
 70
     1
102
RTVSPost2010Prop31
280
     0
102
RTVSPost2010PropOp31
 70
     1
102
RTVSPost2010Prop32
280
     0
102
RTVSPost2010PropOp32
 70
     1
102
RTVSPost2010Prop33
280
     0
102
RTVSPost2010PropOp33
 70
     1
102
RTVSPost2010Prop34
280
     0
102
RTVSPost2010PropOp34
 70
     1
102
RTVSPost2010Prop35
280
     0
102
RTVSPost2010PropOp35
 70
     1
102
RTVSPost2010Prop36
280
     0
102
RTVSPost2010PropOp36
 70
     1
102
RTVSPost2010Prop37
 90
       50
102
RTVSPost2010PropOp37
 70
     1
102
RTVSPost2010Prop38
140
0.0
102
RTVSPost2010PropOp38
 70
     1
102
RTVSPost2010Prop39
140
1.0
102
RTVSPost2010PropOp39
 70
     1
102
RTVSPost2010Prop40
 90
        0
102
RTVSPost2010PropOp40
 70
     1
102
RTVSPost2010Prop41ColorIndex
 90
       18
102
RTVSPost2010Prop41ColorRGB
 90
        0
102
RTVSPost2010PropOp41
 70
     1
102
RTVSPost2010Prop42
 90
       50
102
RTVSPost2010PropOp42
 70
     1
102
RTVSPost2010Prop43
 90
        3
102
RTVSPost2010PropOp43
 70
     1
102
RTVSPost2010Prop44ColorIndex
 90
        5
102
RTVSPost2010Prop44ColorRGB
 90
      255
102
RTVSPost2010PropOp44
 70
     1
102
RTVSPost2010Prop45
280
     0
102
RTVSPost2010PropOp45
 70
     1
102
RTVSPost2010Prop46
 90
       50
102
RTVSPost2010PropOp46
 70
     1
102
RTVSPost2010Prop47
 90
       50
102
RTVSPost2010PropOp47
 70
     1
102
RTVSPost2010Prop48
 90
       50
102
RTVSPost2010PropOp48
 70
     1
102
RTVSPost2010Prop49
280
     0
102
RTVSPost2010PropOp49
 70
     1
102
RTVSPost2010Prop50
 90
       50
102
RTVSPost2010PropOp50
 70
     1
102
RTVSPost2010Prop51ColorIndex
 90
      256
102
RTVSPost2010Prop51ColorRGB
 90
-16777216
102
RTVSPost2010PropOp51
 70
     0
102
RTVSPost2010Prop52
140
1.0
102
RTVSPost2010PropOp52
 70
     0
102
RTVSPost2010Prop53
 90
        2
102
RTVSPost2010PropOp53
 70
     1
102
RTVSPost2010Prop54
  1
strokes_ogs.tif
102
RTVSPost2010PropOp54
 70
     1
102
RTVSPost2010Prop55
280
     0
102
RTVSPost2010PropOp55
 70
     1
102
RTVSPost2010Prop56
140
1.0
102
RTVSPost2010PropOp56
 70
     1
102
RTVSPost2010Prop57
140
1.0
102
RTVSPost2010PropOp57
 70
     1
  0
XRECORD
  5
115
102
{ACAD_REACTORS
330
114
102
}
330
114
100
AcDbXrecord
280
     1
102
RTVSPost2010Prop28
280
     0
102
RTVSPost2010PropOp28
 70
     1
102
RTVSPost2010Prop29
280
     1
102
RTVSPost2010PropOp29
 70
     1
102
RTVSPost2010Prop30
280
     1
102
RTVSPost2010PropOp30
 70
     1
102
RTVSPost2010Prop31
280
     0
102
RTVSPost2010PropOp31
 70
     1
102
RTVSPost2010Prop32
280
     0
102
RTVSPost2010PropOp32
 70
     1
102
RTVSPost2010Prop33
280
     0
102
RTVSPost2010PropOp33
 70
     1
102
RTVSPost2010Prop34
280
     0
102
RTVSPost2010PropOp34
 70
     1
102
RTVSPost2010Prop35
280
     0
102
RTVSPost2010PropOp35
 70
     1
102
RTVSPost2010Prop36
280
     0
102
RTVSPost2010PropOp36
 70
     1
102
RTVSPost2010Prop37
 90
       50
102
RTVSPost2010PropOp37
 70
     1
102
RTVSPost2010Prop38
140
0.0
102
RTVSPost2010PropOp38
 70
     1
102
RTVSPost2010Prop39
140
1.0
102
RTVSPost2010PropOp39
 70
     1
102
RTVSPost2010Prop40
 90
        0
102
RTVSPost2010PropOp40
 70
     1
102
RTVSPost2010Prop41ColorIndex
 90
       18
102
RTVSPost2010Prop41ColorRGB
 90
        0
102
RTVSPost2010PropOp41
 70
     1
102
RTVSPost2010Prop42
 90
       50
102
RTVSPost2010PropOp42
 70
     1
102
RTVSPost2010Prop43
 90
        3
102
RTVSPost2010PropOp43
 70
     1
102
RTVSPost2010Prop44ColorIndex
 90
        5
102
RTVSPost2010Prop44ColorRGB
 90
      255
102
RTVSPost2010PropOp44
 70
     1
102
RTVSPost2010Prop45
280
     0
102
RTVSPost2010PropOp45
 70
     1
102
RTVSPost2010Prop46
 90
       50
102
RTVSPost2010PropOp46
 70
     1
102
RTVSPost2010Prop47
 90
       50
102
RTVSPost2010PropOp47
 70
     1
102
RTVSPost2010Prop48
 90
       50
102
RTVSPost2010PropOp48
 70
     1
102
RTVSPost2010Prop49
280
     0
102
RTVSPost2010PropOp49
 70
     1
102
RTVSPost2010Prop50
 90
       50
102
RTVSPost2010PropOp50
 70
     1
102
RTVSPost2010Prop51ColorIndex
 90
      256
102
RTVSPost2010Prop51ColorRGB
 90
-16777216
102
RTVSPost2010PropOp51
 70
     0
102
RTVSPost2010Prop52
140
1.0
102
RTVSPost2010PropOp52
 70
     0
102
RTVSPost2010Prop53
 90
        2
102
RTVSPost2010PropOp53
 70
     1
102
RTVSPost2010Prop54
  1
strokes_ogs.tif
102
RTVSPost2010PropOp54
 70
     1
102
RTVSPost2010Prop55
280
     0
102
RTVSPost2010PropOp55
 70
     1
102
RTVSPost2010Prop56
140
1.0
102
RTVSPost2010PropOp56
 70
     1
102
RTVSPost2010Prop57
140
1.0
102
RTVSPost2010PropOp57
 70
     1
  0
XRECORD
  5
12D
102
{ACAD_REACTORS
330
12C
102
}
330
12C
100
AcDbXrecord
280
     1
102
RTVSPost2010Prop28
280
     0
102
RTVSPost2010PropOp28
 70
     1
102
RTVSPost2010Prop29
280
     1
102
RTVSPost2010PropOp29
 70
     1
102
RTVSPost2010Prop30
280
     1
102
RTVSPost2010PropOp30
 70
     1
102
RTVSPost2010Prop31
280
     0
102
RTVSPost2010PropOp31
 70
     1
102
RTVSPost2010Prop32
280
     0
102
RTVSPost2010PropOp32
 70
     1
102
RTVSPost2010Prop33
280
     0
102
RTVSPost2010PropOp33
 70
     1
102
RTVSPost2010Prop34
280
     0
102
RTVSPost2010PropOp34
 70
     1
102
RTVSPost2010Prop35
280
     0
102
RTVSPost2010PropOp35
 70
     1
102
RTVSPost2010Prop36
280
     0
102
RTVSPost2010PropOp36
 70
     1
102
RTVSPost2010Prop37
 90
       50
102
RTVSPost2010PropOp37
 70
     1
102
RTVSPost2010Prop38
140
0.0
102
RTVSPost2010PropOp38
 70
     1
102
RTVSPost2010Prop39
140
1.0
102
RTVSPost2010PropOp39
 70
     1
102
RTVSPost2010Prop40
 90
        0
102
RTVSPost2010PropOp40
 70
     1
102
RTVSPost2010Prop41ColorIndex
 90
       18
102
RTVSPost2010Prop41ColorRGB
 90
        0
102
RTVSPost2010PropOp41
 70
     1
102
RTVSPost2010Prop42
 90
       50
102
RTVSPost2010PropOp42
 70
     1
102
RTVSPost2010Prop43
 90
        3
102
RTVSPost2010PropOp43
 70
     1
102
RTVSPost2010Prop44ColorIndex
 90
        5
102
RTVSPost2010Prop44ColorRGB
 90
      255
102
RTVSPost2010PropOp44
 70
     1
102
RTVSPost2010Prop45
280
     0
102
RTVSPost2010PropOp45
 70
     1
102
RTVSPost2010Prop46
 90
       50
102
RTVSPost2010PropOp46
 70
     1
102
RTVSPost2010Prop47
 90
       50
102
RTVSPost2010PropOp47
 70
     1
102
RTVSPost2010Prop48
 90
       50
102
RTVSPost2010PropOp48
 70
     1
102
RTVSPost2010Prop49
280
     0
102
RTVSPost2010PropOp49
 70
     1
102
RTVSPost2010Prop50
 90
       50
102
RTVSPost2010PropOp50
 70
     1
102
RTVSPost2010Prop51ColorIndex
 90
      256
102
RTVSPost2010Prop51ColorRGB
 90
-16777216
102
RTVSPost2010PropOp51
 70
     0
102
RTVSPost2010Prop52
140
1.0
102
RTVSPost2010PropOp52
 70
     0
102
RTVSPost2010Prop53
 90
        2
102
RTVSPost2010PropOp53
 70
     1
102
RTVSPost2010Prop54
  1
strokes_ogs.tif
102
RTVSPost2010PropOp54
 70
     1
102
RTVSPost2010Prop55
280
     0
102
RTVSPost2010PropOp55
 70
     1
102
RTVSPost2010Prop56
140
1.0
102
RTVSPost2010PropOp56
 70
     1
102
RTVSPost2010Prop57
140
1.0
102
RTVSPost2010PropOp57
 70
     1
  0
ENDSEC
  0
EOF
