  0
SECTION
  2
HEADER
  9
$ACADVER
  1
AC1024
  9
$ACADMAINTVER
 70
   226
  9
$DWGCODEPAGE
  3
ANSI_932
  9
$INSBASE
 10
0.0
 20
0.0
 30
0.0
  9
$EXTMIN
 10
1.000000000000000E+20
 20
1.000000000000000E+20
 30
1.000000000000000E+20
  9
$EXTMAX
 10
-1.000000000000000E+20
 20
-1.000000000000000E+20
 30
-1.000000000000000E+20
  9
$LIMMIN
 10
0.0
 20
0.0
  9
$LIMMAX
 10
12.0
 20
9.0
  9
$ORTHOMODE
 70
     0
  9
$REGENMODE
 70
     1
  9
$FILLMODE
 70
     1
  9
$QTEXTMODE
 70
     0
  9
$MIRRTEXT
 70
     0
  9
$LTSCALE
 40
1.0
  9
$ATTMODE
 70
     1
  9
$TEXTSIZE
 40
0.2
  9
$TRACEWID
 40
0.05
  9
$TEXTSTYLE
  7
Standard
  9
$CLAYER
  8
0
  9
$CELTYPE
  6
ByLayer
  9
$CECOLOR
 62
   256
  9
$CELTSCALE
 40
1.0
  9
$DISPSILH
 70
     0
  9
$DIMSCALE
 40
1.0
  9
$DIMASZ
 40
0.18
  9
$DIMEXO
 40
0.0625
  9
$DIMDLI
 40
0.38
  9
$DIMRND
 40
0.0
  9
$DIMDLE
 40
0.0
  9
$DIMEXE
 40
0.18
  9
$DIMTP
 40
0.0
  9
$DIMTM
 40
0.0
  9
$DIMTXT
 40
0.18
  9
$DIMCEN
 40
0.09
  9
$DIMTSZ
 40
0.0
  9
$DIMTOL
 70
     0
  9
$DIMLIM
 70
     0
  9
$DIMTIH
 70
     1
  9
$DIMTOH
 70
     1
  9
$DIMSE1
 70
     0
  9
$DIMSE2
 70
     0
  9
$DIMTAD
 70
     0
  9
$DIMZIN
 70
     0
  9
$DIMBLK
  1

  9
$DIMASO
 70
     1
  9
$DIMSHO
 70
     1
  9
$DIMPOST
  1

  9
$DIMAPOST
  1

  9
$DIMALT
 70
     0
  9
$DIMALTD
 70
     2
  9
$DIMALTF
 40
25.4
  9
$DIMLFAC
 40
1.0
  9
$DIMTOFL
 70
     0
  9
$DIMTVP
 40
0.0
  9
$DIMTIX
 70
     0
  9
$DIMSOXD
 70
     0
  9
$DIMSAH
 70
     0
  9
$DIMBLK1
  1

  9
$DIMBLK2
  1

  9
$DIMSTYLE
  2
Standard
  9
$DIMCLRD
 70
     0
  9
$DIMCLRE
 70
     0
  9
$DIMCLRT
 70
     0
  9
$DIMTFAC
 40
1.0
  9
$DIMGAP
 40
0.09
  9
$DIMJUST
 70
     0
  9
$DIMSD1
 70
     0
  9
$DIMSD2
 70
     0
  9
$DIMTOLJ
 70
     1
  9
$DIMTZIN
 70
     0
  9
$DIMALTZ
 70
     0
  9
$DIMALTTZ
 70
     0
  9
$DIMUPT
 70
     0
  9
$DIMDEC
 70
     4
  9
$DIMTDEC
 70
     4
  9
$DIMALTU
 70
     2
  9
$DIMALTTD
 70
     2
  9
$DIMTXSTY
  7
Standard
  9
$DIMAUNIT
 70
     0
  9
$DIMADEC
 70
     0
  9
$DIMALTRND
 40
0.0
  9
$DIMAZIN
 70
     0
  9
$DIMDSEP
 70
    46
  9
$DIMATFIT
 70
     3
  9
$DIMFRAC
 70
     0
  9
$DIMLDRBLK
  1

  9
$DIMLUNIT
 70
     2
  9
$DIMLWD
 70
    -2
  9
$DIMLWE
 70
    -2
  9
$DIMTMOVE
 70
     0
  9
$DIMFXL
 40
1.0
  9
$DIMFXLON
 70
     0
  9
$DIMJOGANG
 40
0.7853981633974483
  9
$DIMTFILL
 70
     0
  9
$DIMTFILLCLR
 70
     0
  9
$DIMARCSYM
 70
     0
  9
$DIMLTYPE
  6

  9
$DIMLTEX1
  6

  9
$DIMLTEX2
  6

  9
$DIMTXTDIRECTION
 70
     0
  9
$LUNITS
 70
     2
  9
$LUPREC
 70
     4
  9
$SKETCHINC
 40
0.1
  9
$FILLETRAD
 40
0.0
  9
$AUNITS
 70
     0
  9
$AUPREC
 70
     0
  9
$MENU
  1
.
  9
$ELEVATION
 40
0.0
  9
$PELEVATION
 40
0.0
  9
$THICKNESS
 40
0.0
  9
$LIMCHECK
 70
     0
  9
$CHAMFERA
 40
0.0
  9
$CHAMFERB
 40
0.0
  9
$CHAMFERC
 40
0.0
  9
$CHAMFERD
 40
0.0
  9
$SKPOLY
 70
     0
  9
$TDCREATE
 40
2459569.490231482
  9
$TDUCREATE
 40
2459569.115231481
  9
$TDUPDATE
 40
2459569.490231482
  9
$TDUUPDATE
 40
2459569.115231481
  9
$TDINDWG
 40
0.0000000000
  9
$TDUSRTIMER
 40
0.0000000000
  9
$USRTIMER
 70
     1
  9
$ANGBASE
 50
0.0
  9
$ANGDIR
 70
     0
  9
$PDMODE
 70
     0
  9
$PDSIZE
 40
0.0
  9
$PLINEWID
 40
0.0
  9
$SPLFRAME
 70
     0
  9
$SPLINETYPE
 70
     6
  9
$SPLINESEGS
 70
     8
  9
$HANDSEED
  5
143
  9
$SURFTAB1
 70
     6
  9
$SURFTAB2
 70
     6
  9
$SURFTYPE
 70
     6
  9
$SURFU
 70
     6
  9
$SURFV
 70
     6
  9
$UCSBASE
  2

  9
$UCSNAME
  2

  9
$UCSORG
 10
0.0
 20
0.0
 30
0.0
  9
$UCSXDIR
 10
1.0
 20
0.0
 30
0.0
  9
$UCSYDIR
 10
0.0
 20
1.0
 30
0.0
  9
$UCSORTHOREF
  2

  9
$UCSORTHOVIEW
 70
     0
  9
$UCSORGTOP
 10
0.0
 20
0.0
 30
0.0
  9
$UCSORGBOTTOM
 10
0.0
 20
0.0
 30
0.0
  9
$UCSORGLEFT
 10
0.0
 20
0.0
 30
0.0
  9
$UCSORGRIGHT
 10
0.0
 20
0.0
 30
0.0
  9
$UCSORGFRONT
 10
0.0
 20
0.0
 30
0.0
  9
$UCSORGBACK
 10
0.0
 20
0.0
 30
0.0
  9
$PUCSBASE
  2

  9
$PUCSNAME
  2

  9
$PUCSORG
 10
0.0
 20
0.0
 30
0.0
  9
$PUCSXDIR
 10
1.0
 20
0.0
 30
0.0
  9
$PUCSYDIR
 10
0.0
 20
1.0
 30
0.0
  9
$PUCSORTHOREF
  2

  9
$PUCSORTHOVIEW
 70
     0
  9
$PUCSORGTOP
 10
0.0
 20
0.0
 30
0.0
  9
$PUCSORGBOTTOM
 10
0.0
 20
0.0
 30
0.0
  9
$PUCSORGLEFT
 10
0.0
 20
0.0
 30
0.0
  9
$PUCSORGRIGHT
 10
0.0
 20
0.0
 30
0.0
  9
$PUCSORGFRONT
 10
0.0
 20
0.0
 30
0.0
  9
$PUCSORGBACK
 10
0.0
 20
0.0
 30
0.0
  9
$USERI1
 70
     0
  9
$USERI2
 70
     0
  9
$USERI3
 70
     0
  9
$USERI4
 70
     0
  9
$USERI5
 70
     0
  9
$USERR1
 40
0.0
  9
$USERR2
 40
0.0
  9
$USERR3
 40
0.0
  9
$USERR4
 40
0.0
  9
$USERR5
 40
0.0
  9
$WORLDVIEW
 70
     1
  9
$SHADEDGE
 70
     3
  9
$SHADEDIF
 70
    70
  9
$TILEMODE
 70
     1
  9
$MAXACTVP
 70
    64
  9
$PINSBASE
 10
0.0
 20
0.0
 30
0.0
  9
$PLIMCHECK
 70
     0
  9
$PEXTMIN
 10
1.000000000000000E+20
 20
1.000000000000000E+20
 30
1.000000000000000E+20
  9
$PEXTMAX
 10
-1.000000000000000E+20
 20
-1.000000000000000E+20
 30
-1.000000000000000E+20
  9
$PLIMMIN
 10
0.0
 20
0.0
  9
$PLIMMAX
 10
12.0
 20
9.0
  9
$UNITMODE
 70
     0
  9
$VISRETAIN
 70
     1
  9
$PLINEGEN
 70
     0
  9
$PSLTSCALE
 70
     1
  9
$TREEDEPTH
 70
  3020
  9
$CMLSTYLE
  2
Standard
  9
$CMLJUST
 70
     0
  9
$CMLSCALE
 40
1.0
  9
$PROXYGRAPHICS
 70
     1
  9
$MEASUREMENT
 70
     0
  9
$CELWEIGHT
370
    -1
  9
$ENDCAPS
280
     0
  9
$JOINSTYLE
280
     0
  9
$LWDISPLAY
290
     1
  9
$INSUNITS
 70
     4
  9
$HYPERLINKBASE
  1

  9
$STYLESHEET
  1

  9
$XEDIT
290
     1
  9
$CEPSNTYPE
380
     0
  9
$PSTYLEMODE
290
     1
  9
$FINGERPRINTGUID
  2
{39EF799B-4C5F-824F-AE89-B63EC49D2813}
  9
$VERSIONGUID
  2
{836AB67C-DF09-B041-BE31-8761616CCAAC}
  9
$EXTNAMES
290
     1
  9
$PSVPSCALE
 40
0.0
  9
$OLESTARTUP
290
     0
  9
$SORTENTS
280
   127
  9
$INDEXCTL
280
     0
  9
$HIDETEXT
280
     1
  9
$XCLIPFRAME
280
     2
  9
$HALOGAP
280
     0
  9
$OBSCOLOR
 70
   257
  9
$OBSLTYPE
280
     0
  9
$INTERSECTIONDISPLAY
280
     0
  9
$INTERSECTIONCOLOR
 70
   257
  9
$DIMASSOC
280
     2
  9
$PROJECTNAME
  1

  9
$CAMERADISPLAY
290
     0
  9
$LENSLENGTH
 40
50.0
  9
$CAMERAHEIGHT
 40
0.0
  9
$STEPSPERSEC
 40
2.0
  9
$STEPSIZE
 40
6.0
  9
$3DDWFPREC
 40
2.0
  9
$PSOLWIDTH
 40
0.25
  9
$PSOLHEIGHT
 40
4.0
  9
$LOFTANG1
 40
1.570796326794896
  9
$LOFTANG2
 40
1.570796326794896
  9
$LOFTMAG1
 40
0.0
  9
$LOFTMAG2
 40
0.0
  9
$LOFTPARAM
 70
     7
  9
$LOFTNORMALS
280
     1
  9
$LATITUDE
 40
37.795
  9
$LONGITUDE
 40
-122.394
  9
$NORTHDIRECTION
 40
0.0
  9
$TIMEZONE
 70
 -8000
  9
$LIGHTGLYPHDISPLAY
280
     1
  9
$TILEMODELIGHTSYNCH
280
     1
  9
$CMATERIAL
347
11
  9
$SOLIDHIST
280
     0
  9
$SHOWHIST
280
     1
  9
$DWFFRAME
280
     2
  9
$DGNFRAME
280
     0
  9
$REALWORLDSCALE
290
     1
  9
$INTERFERECOLOR
 62
     1
  9
$INTERFEREOBJVS
345
33
  9
$INTERFEREVPVS
346
30
  9
$CSHADOW
280
     0
  9
$SHADOWPLANELOCATION
 40
0.0
  0
ENDSEC
  0
SECTION
  2
CLASSES
  0
CLASS
  1
ACDBDICTIONARYWDFLT
  2
AcDbDictionaryWithDefault
  3
ObjectDBX Classes
 90
        0
 91
        1
280
     0
281
     0
  0
CLASS
  1
MATERIAL
  2
AcDbMaterial
  3
ObjectDBX Classes
 90
     1153
 91
        3
280
     0
281
     0
  0
CLASS
  1
VISUALSTYLE
  2
AcDbVisualStyle
  3
ObjectDBX Classes
 90
     4095
 91
       24
280
     0
281
     0
  0
CLASS
  1
SCALE
  2
AcDbScale
  3
ObjectDBX Classes
 90
     1153
 91
       17
280
     0
281
     0
  0
CLASS
  1
TABLESTYLE
  2
AcDbTableStyle
  3
ObjectDBX Classes
 90
     4095
 91
        1
280
     0
281
     0
  0
CLASS
  1
MLEADERSTYLE
  2
AcDbMLeaderStyle
  3
ACDB_MLEADERSTYLE_CLASS
 90
     4095
 91
        1
280
     0
281
     0
  0
CLASS
  1
ACDBSECTIONVIEWSTYLE
  2
AcDbSectionViewStyle
  3
ObjectDBX Classes
 90
     1025
 91
        1
280
     0
281
     0
  0
CLASS
  1
ACDBDETAILVIEWSTYLE
  2
AcDbDetailViewStyle
  3
ObjectDBX Classes
 90
     1025
 91
        1
280
     0
281
     0
  0
CLASS
  1
DICTIONARYVAR
  2
AcDbDictionaryVar
  3
ObjectDBX Classes
 90
        0
 91
        5
280
     0
281
     0
  0
CLASS
  1
CELLSTYLEMAP
  2
AcDbCellStyleMap
  3
ObjectDBX Classes
 90
     1152
 91
        1
280
     0
281
     0
  0
ENDSEC
  0
SECTION
  2
TABLES
  0
TABLE
  2
VPORT
  5
8
330
0
100
AcDbSymbolTable
 70
     1
  0
VPORT
  5
57
330
8
100
AcDbSymbolTableRecord
100
AcDbViewportTableRecord
  2
*Active
 70
     0
 10
0.0
 20
0.0
 11
1.0
 21
1.0
 12
0.0
 22
0.0
 13
0.0
 23
0.0
 14
1.0
 24
1.0
 15
0.0
 25
0.0
 16
0.0
 26
0.0
 36
1.0
 17
104.9999999737534
 27
-148.4999999628701
 37
0.0
 40
302.939999924255
 41
0.7070707070707534
 42
50.0
 43
0.0
 44
0.0
 50
0.0
 51
0.0
 71
     0
 72
   100
 73
     1
 74
     0
 75
     1
 76
     0
 77
     0
 78
     0
281
     0
 65
     1
110
0.0
120
0.0
130
0.0
111
1.0
121
0.0
131
0.0
112
0.0
122
1.0
132
0.0
 79
     0
146
0.0
 60
     3
 61
     5
292
     1
282
     1
141
0.0
142
0.0
 63
   250
421
  3355443
  0
ENDTAB
  0
TABLE
  2
LTYPE
  5
5
330
0
100
AcDbSymbolTable
 70
     2
  0
LTYPE
  5
5B
330
5
100
AcDbSymbolTableRecord
100
AcDbLinetypeTableRecord
  2
ByBlock
 70
     0
  3

 72
    65
 73
     0
 40
0.0
  0
LTYPE
  5
5C
330
5
100
AcDbSymbolTableRecord
100
AcDbLinetypeTableRecord
  2
ByLayer
 70
     0
  3

 72
    65
 73
     0
 40
0.0
  0
LTYPE
  5
5D
330
5
100
AcDbSymbolTableRecord
100
AcDbLinetypeTableRecord
  2
Continuous
 70
     0
  3
Solid line
 72
    65
 73
     0
 40
0.0
  0
LTYPE
  5
E6
330
5
100
AcDbSymbolTableRecord
100
AcDbLinetypeTableRecord
  2
AI-Linetype-0
 70
     0
  3
Adobe Illustrator Linetype No. 0
 72
    65
 73
     2
 40
1.411111110758333
 49
0.7055555553791667
 74
     0
 49
-0.7055555553791667
 74
     0
  0
ENDTAB
  0
TABLE
  2
LAYER
  5
2
330
0
100
AcDbSymbolTable
 70
     2
  0
LAYER
  5
54
330
2
100
AcDbSymbolTableRecord
100
AcDbLayerTableRecord
  2
0
 70
     0
 62
     7
  6
Continuous
370
    -3
390
F
347
21
  0
LAYER
  5
78
330
2
100
AcDbSymbolTableRecord
100
AcDbLayerTableRecord
  2
レイヤー 1
 70
     0
 62
     7
  6
Continuous
370
     0
390
F
347
21
  0
ENDTAB
  0
TABLE
  2
STYLE
  5
3
330
0
100
AcDbSymbolTable
 70
     2
  0
STYLE
  5
55
330
3
100
AcDbSymbolTableRecord
100
AcDbTextStyleTableRecord
  2
Standard
 70
     0
 40
0.0
 41
1.0
 50
0.0
 71
     0
 42
0.2
  3
txt
  4

  0
STYLE
  5
5A
330
3
100
AcDbSymbolTableRecord
100
AcDbTextStyleTableRecord
  2
Annotative
 70
     0
 40
0.0
 41
1.0
 50
0.0
 71
     0
 42
0.2
  3
txt
  4

1001
AcadAnnotative
1000
AnnotativeData
1002
{
1070
     1
1070
     1
1002
}
  0
ENDTAB
  0
TABLE
  2
VIEW
  5
6
330
0
100
AcDbSymbolTable
 70
     0
  0
ENDTAB
  0
TABLE
  2
UCS
  5
7
330
0
100
AcDbSymbolTable
 70
     0
  0
ENDTAB
  0
TABLE
  2
APPID
  5
9
330
0
100
AcDbSymbolTable
 70
     2
  0
APPID
  5
56
330
9
100
AcDbSymbolTableRecord
100
AcDbRegAppTableRecord
  2
ACAD
 70
     0
  0
APPID
  5
5E
330
9
100
AcDbSymbolTableRecord
100
AcDbRegAppTableRecord
  2
AcadAnnotative
 70
     0
  0
ENDTAB
  0
TABLE
  2
DIMSTYLE
  5
A
330
0
100
AcDbSymbolTable
 70
     2
100
AcDbDimStyleTable
 71
     0
  0
DIMSTYLE
105
58
330
A
100
AcDbSymbolTableRecord
100
AcDbDimStyleTableRecord
  2
Standard
 70
     0
340
55
  0
DIMSTYLE
105
59
330
A
100
AcDbSymbolTableRecord
100
AcDbDimStyleTableRecord
  2
Annotative
 70
     0
340
55
1001
AcadAnnotative
1000
AnnotativeData
1002
{
1070
     1
1070
     1
1002
}
  0
ENDTAB
  0
TABLE
  2
BLOCK_RECORD
  5
1
330
0
100
AcDbSymbolTable
 70
    18
  0
BLOCK_RECORD
  5
70
330
1
100
AcDbSymbolTableRecord
100
AcDbBlockTableRecord
  2
*Model_Space
340
73
 70
     0
280
     1
281
     0
  0
BLOCK_RECORD
  5
6C
330
1
100
AcDbSymbolTableRecord
100
AcDbBlockTableRecord
  2
*Paper_Space
340
6F
 70
     0
280
     1
281
     0
  0
BLOCK_RECORD
  5
74
330
1
100
AcDbSymbolTableRecord
100
AcDbBlockTableRecord
  2
*Paper_Space0
340
77
 70
     0
280
     1
281
     0
  0
BLOCK_RECORD
  5
79
330
1
100
AcDbSymbolTableRecord
100
AcDbBlockTableRecord
  2
Block_0
340
0
102
{BLKREFS
331
7A
102
}
 70
     0
280
     1
281
     0
  0
BLOCK_RECORD
  5
86
330
1
100
AcDbSymbolTableRecord
100
AcDbBlockTableRecord
  2
Block_1
340
0
102
{BLKREFS
331
87
102
}
 70
     0
280
     1
281
     0
  0
BLOCK_RECORD
  5
8E
330
1
100
AcDbSymbolTableRecord
100
AcDbBlockTableRecord
  2
Block_2
340
0
102
{BLKREFS
331
8F
102
}
 70
     0
280
     1
281
     0
  0
BLOCK_RECORD
  5
92
330
1
100
AcDbSymbolTableRecord
100
AcDbBlockTableRecord
  2
Block_3
340
0
102
{BLKREFS
331
93
102
}
 70
     0
280
     1
281
     0
  0
BLOCK_RECORD
  5
9F
330
1
100
AcDbSymbolTableRecord
100
AcDbBlockTableRecord
  2
Block_4
340
0
102
{BLKREFS
331
A0
102
}
 70
     0
280
     1
281
     0
  0
BLOCK_RECORD
  5
A5
330
1
100
AcDbSymbolTableRecord
100
AcDbBlockTableRecord
  2
Block_5
340
0
102
{BLKREFS
331
A6
102
}
 70
     0
280
     1
281
     0
  0
BLOCK_RECORD
  5
AB
330
1
100
AcDbSymbolTableRecord
100
AcDbBlockTableRecord
  2
Block_6
340
0
102
{BLKREFS
331
AC
102
}
 70
     0
280
     1
281
     0
  0
BLOCK_RECORD
  5
B2
330
1
100
AcDbSymbolTableRecord
100
AcDbBlockTableRecord
  2
Block_7
340
0
102
{BLKREFS
331
B3
102
}
 70
     0
280
     1
281
     0
  0
BLOCK_RECORD
  5
B6
330
1
100
AcDbSymbolTableRecord
100
AcDbBlockTableRecord
  2
Block_8
340
0
102
{BLKREFS
331
B7
102
}
 70
     0
280
     1
281
     0
  0
BLOCK_RECORD
  5
BF
330
1
100
AcDbSymbolTableRecord
100
AcDbBlockTableRecord
  2
Block_9
340
0
102
{BLKREFS
331
C0
102
}
 70
     0
280
     1
281
     0
  0
BLOCK_RECORD
  5
C6
330
1
100
AcDbSymbolTableRecord
100
AcDbBlockTableRecord
  2
Block_10
340
0
102
{BLKREFS
331
C7
102
}
 70
     0
280
     1
281
     0
  0
BLOCK_RECORD
  5
CA
330
1
100
AcDbSymbolTableRecord
100
AcDbBlockTableRecord
  2
Block_11
340
0
102
{BLKREFS
331
CB
102
}
 70
     0
280
     1
281
     0
  0
BLOCK_RECORD
  5
D4
330
1
100
AcDbSymbolTableRecord
100
AcDbBlockTableRecord
  2
Block_12
340
0
102
{BLKREFS
331
D5
102
}
 70
     0
280
     1
281
     0
  0
BLOCK_RECORD
  5
DB
330
1
100
AcDbSymbolTableRecord
100
AcDbBlockTableRecord
  2
Block_13
340
0
102
{BLKREFS
331
DC
102
}
 70
     0
280
     1
281
     0
  0
BLOCK_RECORD
  5
E1
330
1
100
AcDbSymbolTableRecord
100
AcDbBlockTableRecord
  2
Block_14
340
0
102
{BLKREFS
331
E2
102
}
 70
     0
280
     1
281
     0
  0
BLOCK_RECORD
  5
EA
330
1
100
AcDbSymbolTableRecord
100
AcDbBlockTableRecord
  2
Block_15
340
0
102
{BLKREFS
331
EB
102
}
 70
     0
280
     1
281
     0
  0
BLOCK_RECORD
  5
EE
330
1
100
AcDbSymbolTableRecord
100
AcDbBlockTableRecord
  2
Block_16
340
0
102
{BLKREFS
331
EF
102
}
 70
     0
280
     1
281
     0
  0
ENDTAB
  0
ENDSEC
  0
SECTION
  2
BLOCKS
  0
BLOCK
  5
71
330
70
100
AcDbEntity
  8
0
100
AcDbBlockBegin
  2
*Model_Space
 70
     0
 10
0.0
 20
0.0
 30
0.0
  3
*Model_Space
  1

  0
ENDBLK
  5
72
330
70
100
AcDbEntity
  8
0
100
AcDbBlockEnd
  0
BLOCK
  5
6D
330
6C
100
AcDbEntity
 67
     1
  8
0
100
AcDbBlockBegin
  2
*Paper_Space
 70
     0
 10
0.0
 20
0.0
 30
0.0
  3
*Paper_Space
  1

  0
ENDBLK
  5
6E
330
6C
100
AcDbEntity
 67
     1
  8
0
100
AcDbBlockEnd
  0
BLOCK
  5
75
330
74
100
AcDbEntity
 67
     1
  8
0
100
AcDbBlockBegin
  2
*Paper_Space0
 70
     0
 10
0.0
 20
0.0
 30
0.0
  3
*Paper_Space0
  1

  0
ENDBLK
  5
76
330
74
100
AcDbEntity
 67
     1
  8
0
100
AcDbBlockEnd
  0
BLOCK
  5
7B
330
79
100
AcDbEntity
  8
0
100
AcDbBlockBegin
  2
Block_0
 70
     0
 10
0.0
 20
0.0
 30
0.0
  3
Block_0
  1

  0
LWPOLYLINE
  5
7D
330
79
100
AcDbEntity
  8
レイヤー 1
 62
   250
420
  2299925
370
    25
100
AcDbPolyline
 90
       10
 70
     1
 43
0.0
 10
106.4519869481799
 20
-154.0754956632452
 10
106.4519869481799
 20
-157.0754825311537
 10
99.45195879343186
 20
-157.0754825311537
 10
99.45195879343186
 20
-143.2756239481406
 10
117.452056389767
 20
-143.2756239481406
 10
117.452056389767
 20
-144.0757628628041
 10
100.2520940507965
 20
-144.0757628628041
 10
100.2520940507965
 20
-156.2757000515578
 10
105.6520986352534
 20
-156.2757000515578
 10
105.6520986352534
 20
-154.0756367743528
  0
SPLINE
  5
7E
330
79
100
AcDbEntity
  8
レイヤー 1
 62
   250
420
  2299925
370
     9
100
AcDbSpline
210
0.0
220
0.0
230
1.0
 70
     9
 71
     3
 72
    17
 73
    13
 74
     0
 42
0.0000000001
 43
0.0000000001
 40
0.0
 40
0.0
 40
0.0
 40
0.0
 40
1.0
 40
1.0
 40
1.0
 40
2.0
 40
2.0
 40
2.0
 40
3.0
 40
3.0
 40
3.0
 40
4.0
 40
4.0
 40
4.0
 40
4.0
 10
121.5520748962779
 20
-143.2756239481406
 30
0.0
 10
121.5520748962779
 20
-143.2201709401876
 30
0.0
 10
121.5072721196431
 20
-143.1754034413298
 30
0.0
 10
121.4519918432757
 20
-143.1754034413298
 30
0.0
 10
121.3968526780157
 20
-143.1754034413298
 30
0.0
 10
121.3520851791578
 20
-143.2201709401876
 30
0.0
 10
121.3520851791578
 20
-143.2756239481406
 30
0.0
 10
121.3520851791578
 20
-143.3307667706995
 30
0.0
 10
121.3968526780157
 20
-143.3755342695573
 30
0.0
 10
121.4519918432757
 20
-143.3755342695573
 30
0.0
 10
121.5072721196431
 20
-143.3755342695573
 30
0.0
 10
121.5520748962779
 20
-143.3307667706995
 30
0.0
 10
121.5520748962779
 20
-143.2756239481406
 30
0.0
  0
SPLINE
  5
7F
330
79
100
AcDbEntity
  8
レイヤー 1
 62
   250
420
  2299925
370
     9
100
AcDbSpline
210
0.0
220
0.0
230
1.0
 70
     9
 71
     3
 72
    17
 73
    13
 74
     0
 42
0.0000000001
 43
0.0000000001
 40
0.0
 40
0.0
 40
0.0
 40
0.0
 40
1.0
 40
1.0
 40
1.0
 40
2.0
 40
2.0
 40
2.0
 40
3.0
 40
3.0
 40
3.0
 40
4.0
 40
4.0
 40
4.0
 40
4.0
 10
121.5520748962779
 20
-154.0754956632452
 30
0.0
 10
121.5520748962779
 20
-154.0203917757622
 30
0.0
 10
121.5072721196431
 20
-153.9755889991274
 30
0.0
 10
121.4519918432757
 20
-153.9755889991274
 30
0.0
 10
121.3968526780157
 20
-153.9755889991274
 30
0.0
 10
121.3520851791578
 20
-154.0203917757622
 30
0.0
 10
121.3520851791578
 20
-154.0754956632452
 30
0.0
 10
121.3520851791578
 20
-154.130948945427
 30
0.0
 10
121.3968526780157
 20
-154.1757517231931
 30
0.0
 10
121.4519918432757
 20
-154.1757517231931
 30
0.0
 10
121.5072721196431
 20
-154.1757517231931
 30
0.0
 10
121.5520748962779
 20
-154.130948945427
 30
0.0
 10
121.5520748962779
 20
-154.0754956632452
 30
0.0
  0
SPLINE
  5
80
330
79
100
AcDbEntity
  8
レイヤー 1
 62
   250
420
  2299925
370
     9
100
AcDbSpline
210
0.0
220
0.0
230
1.0
 70
     9
 71
     3
 72
    17
 73
    13
 74
     0
 42
0.0000000001
 43
0.0000000001
 40
0.0
 40
0.0
 40
0.0
 40
0.0
 40
1.0
 40
1.0
 40
1.0
 40
2.0
 40
2.0
 40
2.0
 40
3.0
 40
3.0
 40
3.0
 40
4.0
 40
4.0
 40
4.0
 40
4.0
 10
121.5520748962779
 20
-157.0754825311537
 30
0.0
 10
121.5520748962779
 20
-157.0203786436706
 30
0.0
 10
121.5072721196431
 20
-156.9755758670358
 30
0.0
 10
121.4519918432757
 20
-156.9755758670358
 30
0.0
 10
121.3968526780157
 20
-156.9755758670358
 30
0.0
 10
121.3520851791578
 20
-157.0203786436706
 30
0.0
 10
121.3520851791578
 20
-157.0754825311537
 30
0.0
 10
121.3520851791578
 20
-157.1309391964055
 30
0.0
 10
121.3968526780157
 20
-157.1757419730403
 30
0.0
 10
121.4519918432757
 20
-157.1757419730403
 30
0.0
 10
121.5072721196431
 20
-157.1757419730403
 30
0.0
 10
121.5520748962779
 20
-157.1309391964055
 30
0.0
 10
121.5520748962779
 20
-157.0754825311537
 30
0.0
  0
SPLINE
  5
81
330
79
100
AcDbEntity
  8
レイヤー 1
 62
   250
420
  2299925
370
     9
100
AcDbSpline
210
0.0
220
0.0
230
1.0
 70
     9
 71
     3
 72
    17
 73
    13
 74
     0
 42
0.0000000001
 43
0.0000000001
 40
0.0
 40
0.0
 40
0.0
 40
0.0
 40
1.0
 40
1.0
 40
1.0
 40
2.0
 40
2.0
 40
2.0
 40
3.0
 40
3.0
 40
3.0
 40
4.0
 40
4.0
 40
4.0
 40
4.0
 10
121.5520748962779
 20
-144.0757628628041
 30
0.0
 10
121.5520748962779
 20
-144.0203061975523
 30
0.0
 10
121.5072721196431
 20
-143.9755034209175
 30
0.0
 10
121.4519918432757
 20
-143.9755034209175
 30
0.0
 10
121.3968526780157
 20
-143.9755034209175
 30
0.0
 10
121.3520851791578
 20
-144.0203061975523
 30
0.0
 10
121.3520851791578
 20
-144.0757628628041
 30
0.0
 10
121.3520851791578
 20
-144.1309020280641
 30
0.0
 10
121.3968526780157
 20
-144.1756695269219
 30
0.0
 10
121.4519918432757
 20
-144.1756695269219
 30
0.0
 10
121.5072721196431
 20
-144.1756695269219
 30
0.0
 10
121.5520748962779
 20
-144.1309020280641
 30
0.0
 10
121.5520748962779
 20
-144.0757628628041
 30
0.0
  0
SPLINE
  5
82
330
79
100
AcDbEntity
  8
レイヤー 1
 62
   250
420
  2299925
370
     9
100
AcDbSpline
210
0.0
220
0.0
230
1.0
 70
     9
 71
     3
 72
    17
 73
    13
 74
     0
 42
0.0000000001
 43
0.0000000001
 40
0.0
 40
0.0
 40
0.0
 40
0.0
 40
1.0
 40
1.0
 40
1.0
 40
2.0
 40
2.0
 40
2.0
 40
3.0
 40
3.0
 40
3.0
 40
4.0
 40
4.0
 40
4.0
 40
4.0
 10
99.55204349169845
 20
-161.0755943735467
 30
0.0
 10
99.55204349169845
 20
-161.0204552082868
 30
0.0
 10
99.50724071393203
 20
-160.9756877094289
 30
0.0
 10
99.45195879343186
 20
-160.9756877094289
 30
0.0
 10
99.39685490594879
 20
-160.9756877094289
 30
0.0
 10
99.35205212931402
 20
-161.0204552082868
 30
0.0
 10
99.35205212931402
 20
-161.0755943735467
 30
0.0
 10
99.35205212931402
 20
-161.1306982610298
 30
0.0
 10
99.39685490594879
 20
-161.1755010376645
 30
0.0
 10
99.45195879343186
 20
-161.1755010376645
 30
0.0
 10
99.50724071393203
 20
-161.1755010376645
 30
0.0
 10
99.55204349169845
 20
-161.1306982610298
 30
0.0
 10
99.55204349169845
 20
-161.0755943735467
 30
0.0
  0
SPLINE
  5
83
330
79
100
AcDbEntity
  8
レイヤー 1
 62
   250
420
  2299925
370
     9
100
AcDbSpline
210
0.0
220
0.0
230
1.0
 70
     9
 71
     3
 72
    17
 73
    13
 74
     0
 42
0.0000000001
 43
0.0000000001
 40
0.0
 40
0.0
 40
0.0
 40
0.0
 40
1.0
 40
1.0
 40
1.0
 40
2.0
 40
2.0
 40
2.0
 40
3.0
 40
3.0
 40
3.0
 40
4.0
 40
4.0
 40
4.0
 40
4.0
 10
99.55204349169845
 20
-140.0755451870804
 30
0.0
 10
99.55204349169845
 20
-140.0204060218204
 30
0.0
 10
99.50724071393203
 20
-139.9756385229625
 30
0.0
 10
99.45195879343186
 20
-139.9756385229625
 30
0.0
 10
99.39685490594879
 20
-139.9756385229625
 30
0.0
 10
99.35205212931402
 20
-140.0204060218204
 30
0.0
 10
99.35205212931402
 20
-140.0755451870804
 30
0.0
 10
99.35205212931402
 20
-140.1306490745635
 30
0.0
 10
99.39685490594879
 20
-140.1754518511982
 30
0.0
 10
99.45195879343186
 20
-140.1754518511982
 30
0.0
 10
99.50724071393203
 20
-140.1754518511982
 30
0.0
 10
99.55204349169845
 20
-140.1306490745635
 30
0.0
 10
99.55204349169845
 20
-140.0755451870804
 30
0.0
  0
SPLINE
  5
84
330
79
100
AcDbEntity
  8
レイヤー 1
 62
   250
420
  2299925
370
     9
100
AcDbSpline
210
0.0
220
0.0
230
1.0
 70
     9
 71
     3
 72
    17
 73
    13
 74
     0
 42
0.0000000001
 43
0.0000000001
 40
0.0
 40
0.0
 40
0.0
 40
0.0
 40
1.0
 40
1.0
 40
1.0
 40
2.0
 40
2.0
 40
2.0
 40
3.0
 40
3.0
 40
3.0
 40
4.0
 40
4.0
 40
4.0
 40
4.0
 10
106.5520700011821
 20
-161.0755943735467
 30
0.0
 10
106.5520700011821
 20
-161.0204552082868
 30
0.0
 10
106.5073025023242
 20
-160.9756877094289
 30
0.0
 10
106.4519869481799
 20
-160.9756877094289
 30
0.0
 10
106.3967066718124
 20
-160.9756877094289
 30
0.0
 10
106.3519391729546
 20
-161.0204552082868
 30
0.0
 10
106.3519391729546
 20
-161.0755943735467
 30
0.0
 10
106.3519391729546
 20
-161.1306982610298
 30
0.0
 10
106.3967066718124
 20
-161.1755010376645
 30
0.0
 10
106.4519869481799
 20
-161.1755010376645
 30
0.0
 10
106.5073025023242
 20
-161.1755010376645
 30
0.0
 10
106.5520700011821
 20
-161.1306982610298
 30
0.0
 10
106.5520700011821
 20
-161.0755943735467
 30
0.0
  0
SPLINE
  5
85
330
79
100
AcDbEntity
  8
レイヤー 1
 62
   250
420
  2299925
370
     9
100
AcDbSpline
210
0.0
220
0.0
230
1.0
 70
     9
 71
     3
 72
    17
 73
    13
 74
     0
 42
0.0000000001
 43
0.0000000001
 40
0.0
 40
0.0
 40
0.0
 40
0.0
 40
1.0
 40
1.0
 40
1.0
 40
2.0
 40
2.0
 40
2.0
 40
3.0
 40
3.0
 40
3.0
 40
4.0
 40
4.0
 40
4.0
 40
4.0
 10
117.5519630538848
 20
-140.0755451870804
 30
0.0
 10
117.5519630538848
 20
-140.0204060218204
 30
0.0
 10
117.5071602772501
 20
-139.9756385229625
 30
0.0
 10
117.452056389767
 20
-139.9756385229625
 30
0.0
 10
117.3967408356226
 20
-139.9756385229625
 30
0.0
 10
117.3519733367647
 20
-140.0204060218204
 30
0.0
 10
117.3519733367647
 20
-140.0755451870804
 30
0.0
 10
117.3519733367647
 20
-140.1306490745635
 30
0.0
 10
117.3967408356226
 20
-140.1754518511982
 30
0.0
 10
117.452056389767
 20
-140.1754518511982
 30
0.0
 10
117.5071602772501
 20
-140.1754518511982
 30
0.0
 10
117.5519630538848
 20
-140.1306490745635
 30
0.0
 10
117.5519630538848
 20
-140.0755451870804
 30
0.0
  0
INSERT
  5
87
330
79
100
AcDbEntity
  8
レイヤー 1
100
AcDbBlockReference
  2
Block_1
 10
0.0
 20
0.0
 30
0.0
  0
INSERT
  5
A0
330
79
100
AcDbEntity
  8
レイヤー 1
100
AcDbBlockReference
  2
Block_4
 10
0.0
 20
0.0
 30
0.0
  0
INSERT
  5
AC
330
79
100
AcDbEntity
  8
レイヤー 1
100
AcDbBlockReference
  2
Block_6
 10
0.0
 20
0.0
 30
0.0
  0
INSERT
  5
C0
330
79
100
AcDbEntity
  8
レイヤー 1
100
AcDbBlockReference
  2
Block_9
 10
0.0
 20
0.0
 30
0.0
  0
INSERT
  5
D5
330
79
100
AcDbEntity
  8
レイヤー 1
100
AcDbBlockReference
  2
Block_12
 10
0.0
 20
0.0
 30
0.0
  0
ENDBLK
  5
7C
330
79
100
AcDbEntity
  8
0
100
AcDbBlockEnd
  0
BLOCK
  5
88
330
86
100
AcDbEntity
  8
0
100
AcDbBlockBegin
  2
Block_1
 70
     0
 10
0.0
 20
0.0
 30
0.0
  3
Block_1
  1

  0
LINE
  5
8A
330
86
100
AcDbEntity
  8
レイヤー 1
 62
   250
420
  2299925
370
     9
100
AcDbLine
 10
121.4519918432757
 20
-143.2756239481406
 30
0.0
 11
121.4519918432757
 21
-139.4194490927077
 31
0.0
  0
LINE
  5
8B
330
86
100
AcDbEntity
  8
レイヤー 1
 62
   250
420
  2299925
370
     9
100
AcDbLine
 10
121.4519918432757
 20
-143.2756239481406
 30
0.0
 11
121.4519918432757
 21
-144.0757628628041
 31
0.0
  0
LINE
  5
8C
330
86
100
AcDbEntity
  8
レイヤー 1
 62
   250
420
  2299925
370
     9
100
AcDbLine
 10
119.9919504916355
 20
-143.2756239481406
 30
0.0
 11
122.4519073748622
 21
-143.2756239481406
 31
0.0
  0
LINE
  5
8D
330
86
100
AcDbEntity
  8
レイヤー 1
 62
   250
420
  2299925
370
     9
100
AcDbLine
 10
119.9919504916355
 20
-144.0757628628041
 30
0.0
 11
122.4519073748622
 21
-144.0757628628041
 31
0.0
  0
INSERT
  5
8F
330
86
100
AcDbEntity
  8
レイヤー 1
100
AcDbBlockReference
  2
Block_2
 10
0.0
 20
0.0
 30
0.0
  0
ENDBLK
  5
89
330
86
100
AcDbEntity
  8
0
100
AcDbBlockEnd
  0
BLOCK
  5
90
330
8E
100
AcDbEntity
  8
0
100
AcDbBlockBegin
  2
Block_2
 70
     0
 10
0.0
 20
0.0
 30
0.0
  3
Block_2
  1

  0
INSERT
  5
93
330
8E
100
AcDbEntity
  8
レイヤー 1
100
AcDbBlockReference
  2
Block_3
 10
0.0
 20
0.0
 30
0.0
  0
ENDBLK
  5
91
330
8E
100
AcDbEntity
  8
0
100
AcDbBlockEnd
  0
BLOCK
  5
94
330
92
100
AcDbEntity
  8
0
100
AcDbBlockBegin
  2
Block_3
 70
     0
 10
0.0
 20
0.0
 30
0.0
  3
Block_3
  1

  0
SPLINE
  5
96
330
92
100
AcDbEntity
  8
レイヤー 1
100
AcDbSpline
210
0.0
220
0.0
230
1.0
 70
     9
 71
     3
 72
    17
 73
    13
 74
     0
 42
0.0000000001
 43
0.0000000001
 40
0.0
 40
0.0
 40
0.0
 40
0.0
 40
1.0
 40
1.0
 40
1.0
 40
2.0
 40
2.0
 40
2.0
 40
3.0
 40
3.0
 40
3.0
 40
4.0
 40
4.0
 40
4.0
 40
4.0
 10
119.0904052436649
 20
-142.2056179114972
 30
0.0
 10
119.0904052436649
 20
-142.4748521236694
 30
0.0
 10
119.3963297227551
 20
-142.5249782629799
 30
0.0
 10
119.768400035162
 20
-142.5249782629799
 30
0.0
 10
120.112909583687
 20
-142.5249782629799
 30
0.0
 10
120.4463948266592
 20
-142.4862209387708
 30
0.0
 10
120.4463948266592
 20
-142.2056179114972
 30
0.0
 10
120.4463948266592
 20
-141.9384507566161
 30
0.0
 10
120.1425374048602
 20
-141.885913050466
 30
0.0
 10
119.768400035162
 20
-141.885913050466
 30
0.0
 10
119.4238904866371
 20
-141.885913050466
 30
0.0
 10
119.0904052436649
 20
-141.9270819415147
 30
0.0
 10
119.0904052436649
 20
-142.2056179114972
 30
0.0
  0
SPLINE
  5
97
330
92
100
AcDbEntity
  8
レイヤー 1
100
AcDbSpline
210
0.0
220
0.0
230
1.0
 70
     9
 71
     3
 72
    29
 73
    25
 74
     0
 42
0.0000000001
 43
0.0000000001
 40
0.0
 40
0.0
 40
0.0
 40
0.0
 40
1.0
 40
1.0
 40
1.0
 40
2.0
 40
2.0
 40
2.0
 40
3.0
 40
3.0
 40
3.0
 40
4.0
 40
4.0
 40
4.0
 40
5.0
 40
5.0
 40
5.0
 40
6.0
 40
6.0
 40
6.0
 40
7.0
 40
7.0
 40
7.0
 40
8.0
 40
8.0
 40
8.0
 40
8.0
 10
120.4098768145156
 20
-141.7763590140351
 30
0.0
 10
120.6355305687994
 20
-141.8928032414365
 30
0.0
 10
120.6562011417109
 20
-142.0800441810598
 30
0.0
 10
120.6562011417109
 20
-142.2056179114972
 30
0.0
 10
120.6562011417109
 20
-142.3789062144052
 30
0.0
 10
120.6059027476263
 20
-142.5318684539504
 30
0.0
 10
120.4098768145156
 20
-142.6345322994108
 30
0.0
 10
120.1997259899153
 20
-142.7464979026814
 30
0.0
 10
119.9440999049098
 20
-142.7669962208186
 30
0.0
 10
119.768400035162
 20
-142.7669962208186
 30
0.0
 10
119.6130262287773
 20
-142.7669962208186
 30
0.0
 10
119.3415527045396
 20
-142.7487372147468
 30
0.0
 10
119.1269232558085
 20
-142.6345322994108
 30
0.0
 10
118.9078151829466
 20
-142.5182603267836
 30
0.0
 10
118.8826659859043
 20
-142.3447997691013
 30
0.0
 10
118.8826659859043
 20
-142.2056179114972
 30
0.0
 10
118.8826659859043
 20
-142.0343966658803
 30
0.0
 10
118.9305528131493
 20
-141.8791951142698
 30
0.0
 10
119.1269232558085
 20
-141.7763590140351
 30
0.0
 10
119.3346625135691
 20
-141.6692165444438
 30
0.0
 10
119.581331350313
 20
-141.6440673474015
 30
0.0
 10
119.768400035162
 20
-141.6440673474015
 30
0.0
 10
119.9530571531714
 20
-141.6440673474015
 30
0.0
 10
120.202137556755
 20
-141.6668049776041
 30
0.0
 10
120.4098768145156
 20
-141.7763590140351
 30
0.0
  0
HATCH
  5
98
330
92
100
AcDbEntity
  8
レイヤー 1
 62
   250
420
  2299925
440
 33554687
100
AcDbHatch
 10
0.0
 20
0.0
 30
0.0
210
0.0
220
0.0
230
1.0
  2
SOLID
 70
     1
 71
     1
 91
        2
 92
        1
 93
        1
 72
     4
 94
        3
 73
     0
 74
     0
 95
       17
 96
       13
 40
0.0
 40
0.0
 40
0.0
 40
0.0
 40
1.0
 40
1.0
 40
1.0
 40
2.0
 40
2.0
 40
2.0
 40
3.0
 40
3.0
 40
3.0
 40
4.0
 40
4.0
 40
4.0
 40
4.0
 10
119.0904052436649
 20
-142.2056179114972
 10
119.0904052436649
 20
-142.4748521236694
 10
119.3963297227551
 20
-142.5249782629799
 10
119.768400035162
 20
-142.5249782629799
 10
120.112909583687
 20
-142.5249782629799
 10
120.4463948266592
 20
-142.4862209387708
 10
120.4463948266592
 20
-142.2056179114972
 10
120.4463948266592
 20
-141.9384507566161
 10
120.1425374048602
 20
-141.885913050466
 10
119.768400035162
 20
-141.885913050466
 10
119.4238904866371
 20
-141.885913050466
 10
119.0904052436649
 20
-141.9270819415147
 10
119.0904052436649
 20
-142.2056179114972
 97
        0
 97
        1
330
96
 92
        1
 93
        1
 72
     4
 94
        3
 73
     0
 74
     0
 95
       29
 96
       25
 40
0.0
 40
0.0
 40
0.0
 40
0.0
 40
1.0
 40
1.0
 40
1.0
 40
2.0
 40
2.0
 40
2.0
 40
3.0
 40
3.0
 40
3.0
 40
4.0
 40
4.0
 40
4.0
 40
5.0
 40
5.0
 40
5.0
 40
6.0
 40
6.0
 40
6.0
 40
7.0
 40
7.0
 40
7.0
 40
8.0
 40
8.0
 40
8.0
 40
8.0
 10
120.4098768145156
 20
-141.7763590140351
 10
120.6355305687994
 20
-141.8928032414365
 10
120.6562011417109
 20
-142.0800441810598
 10
120.6562011417109
 20
-142.2056179114972
 10
120.6562011417109
 20
-142.3789062144052
 10
120.6059027476263
 20
-142.5318684539504
 10
120.4098768145156
 20
-142.6345322994108
 10
120.1997259899153
 20
-142.7464979026814
 10
119.9440999049098
 20
-142.7669962208186
 10
119.768400035162
 20
-142.7669962208186
 10
119.6130262287773
 20
-142.7669962208186
 10
119.3415527045396
 20
-142.7487372147468
 10
119.1269232558085
 20
-142.6345322994108
 10
118.9078151829466
 20
-142.5182603267836
 10
118.8826659859043
 20
-142.3447997691013
 10
118.8826659859043
 20
-142.2056179114972
 10
118.8826659859043
 20
-142.0343966658803
 10
118.9305528131493
 20
-141.8791951142698
 10
119.1269232558085
 20
-141.7763590140351
 10
119.3346625135691
 20
-141.6692165444438
 10
119.581331350313
 20
-141.6440673474015
 10
119.768400035162
 20
-141.6440673474015
 10
119.9530571531714
 20
-141.6440673474015
 10
120.202137556755
 20
-141.6668049776041
 10
120.4098768145156
 20
-141.7763590140351
 97
        0
 97
        1
330
97
 75
     2
 76
     1
 98
        1
 10
0.0
 20
0.0
450
        0
451
        0
460
0.0
461
0.0
452
        0
462
0.0
453
        0
470

  0
SPLINE
  5
99
330
92
100
AcDbEntity
  8
レイヤー 1
100
AcDbSpline
210
0.0
220
0.0
230
1.0
 70
    11
 71
     3
 72
    17
 73
    13
 74
     0
 42
0.0000000001
 43
0.0000000001
 40
0.0
 40
0.0
 40
0.0
 40
0.0
 40
1.0
 40
1.0
 40
1.0
 40
2.0
 40
2.0
 40
2.0
 40
3.0
 40
3.0
 40
3.0
 40
4.0
 40
4.0
 40
4.0
 40
4.0
 10
120.6014241234955
 20
-141.4098008544045
 30
0.0
 10
120.6014241234955
 20
-141.4098008544045
 30
0.0
 10
120.3299505992578
 20
-141.4098008544045
 30
0.0
 10
120.3299505992578
 20
-141.4098008544045
 30
0.0
 10
120.3299505992578
 20
-141.4098008544045
 30
0.0
 10
120.3299505992578
 20
-141.1383273301668
 30
0.0
 10
120.3299505992578
 20
-141.1383273301668
 30
0.0
 10
120.3299505992578
 20
-141.1383273301668
 30
0.0
 10
120.6014241234955
 20
-141.1383273301668
 30
0.0
 10
120.6014241234955
 20
-141.1383273301668
 30
0.0
 10
120.6014241234955
 20
-141.1383273301668
 30
0.0
 10
120.6014241234955
 20
-141.4098008544045
 30
0.0
 10
120.6014241234955
 20
-141.4098008544045
 30
0.0
  0
HATCH
  5
9A
330
92
100
AcDbEntity
  8
レイヤー 1
 62
   250
420
  2299925
440
 33554687
100
AcDbHatch
 10
0.0
 20
0.0
 30
0.0
210
0.0
220
0.0
230
1.0
  2
SOLID
 70
     1
 71
     1
 91
        1
 92
        1
 93
        1
 72
     4
 94
        3
 73
     0
 74
     0
 95
       17
 96
       13
 40
0.0
 40
0.0
 40
0.0
 40
0.0
 40
1.0
 40
1.0
 40
1.0
 40
2.0
 40
2.0
 40
2.0
 40
3.0
 40
3.0
 40
3.0
 40
4.0
 40
4.0
 40
4.0
 40
4.0
 10
120.6014241234955
 20
-141.4098008544045
 10
120.6014241234955
 20
-141.4098008544045
 10
120.3299505992578
 20
-141.4098008544045
 10
120.3299505992578
 20
-141.4098008544045
 10
120.3299505992578
 20
-141.4098008544045
 10
120.3299505992578
 20
-141.1383273301668
 10
120.3299505992578
 20
-141.1383273301668
 10
120.3299505992578
 20
-141.1383273301668
 10
120.6014241234955
 20
-141.1383273301668
 10
120.6014241234955
 20
-141.1383273301668
 10
120.6014241234955
 20
-141.1383273301668
 10
120.6014241234955
 20
-141.4098008544045
 10
120.6014241234955
 20
-141.4098008544045
 97
        0
 97
        1
330
99
 75
     2
 76
     1
 98
        1
 10
0.0
 20
0.0
450
        0
451
        0
460
0.0
461
0.0
452
        0
462
0.0
453
        0
470

  0
SPLINE
  5
9B
330
92
100
AcDbEntity
  8
レイヤー 1
100
AcDbSpline
210
0.0
220
0.0
230
1.0
 70
     9
 71
     3
 72
    17
 73
    13
 74
     0
 42
0.0000000001
 43
0.0000000001
 40
0.0
 40
0.0
 40
0.0
 40
0.0
 40
1.0
 40
1.0
 40
1.0
 40
2.0
 40
2.0
 40
2.0
 40
3.0
 40
3.0
 40
3.0
 40
4.0
 40
4.0
 40
4.0
 40
4.0
 10
119.802506480466
 20
-140.3435438017196
 30
0.0
 10
119.802506480466
 20
-140.4985730985559
 30
0.0
 10
119.8962130776648
 20
-140.6629041532023
 30
0.0
 10
120.1153211505267
 20
-140.6629041532023
 30
0.0
 10
120.3368407902283
 20
-140.6629041532023
 30
0.0
 10
120.4463948266592
 20
-140.5261338624379
 30
0.0
 10
120.4463948266592
 20
-140.3435438017196
 30
0.0
 10
120.4463948266592
 20
-140.1426947349296
 30
0.0
 10
120.3137586504771
 20
-140.0238389406885
 30
0.0
 10
120.1222113414972
 20
-140.0238389406885
 30
0.0
 10
119.8824326957238
 20
-140.0238389406885
 30
0.0
 10
119.802506480466
 20
-140.1997110652105
 30
0.0
 10
119.802506480466
 20
-140.3435438017196
 30
0.0
  0
SPLINE
  5
9C
330
92
100
AcDbEntity
  8
レイヤー 1
100
AcDbSpline
210
0.0
220
0.0
230
1.0
 70
     9
 71
     3
 72
    17
 73
    13
 74
     0
 42
0.0000000001
 43
0.0000000001
 40
0.0
 40
0.0
 40
0.0
 40
0.0
 40
1.0
 40
1.0
 40
1.0
 40
2.0
 40
2.0
 40
2.0
 40
3.0
 40
3.0
 40
3.0
 40
4.0
 40
4.0
 40
4.0
 40
4.0
 10
119.0904052436649
 20
-140.3435438017196
 30
0.0
 10
119.0904052436649
 20
-140.5214829835328
 30
0.0
 10
119.1930690891253
 20
-140.6127780138919
 30
0.0
 10
119.3391411376999
 20
-140.6127780138919
 30
0.0
 10
119.471777313882
 20
-140.6127780138919
 30
0.0
 10
119.5995903563848
 20
-140.5350911106995
 30
0.0
 10
119.5995903563848
 20
-140.3435438017196
 30
0.0
 10
119.5995903563848
 20
-140.1516519831913
 30
0.0
 10
119.471777313882
 20
-140.0741373347731
 30
0.0
 10
119.3391411376999
 20
-140.0741373347731
 30
0.0
 10
119.1930690891253
 20
-140.0741373347731
 30
0.0
 10
119.0904052436649
 20
-140.1676716771976
 30
0.0
 10
119.0904052436649
 20
-140.3435438017196
 30
0.0
  0
SPLINE
  5
9D
330
92
100
AcDbEntity
  8
レイヤー 1
100
AcDbSpline
210
0.0
220
0.0
230
1.0
 70
     9
 71
     3
 72
    29
 73
    25
 74
     0
 42
0.0000000001
 43
0.0000000001
 40
0.0
 40
0.0
 40
0.0
 40
0.0
 40
1.0
 40
1.0
 40
1.0
 40
2.0
 40
2.0
 40
2.0
 40
3.0
 40
3.0
 40
3.0
 40
4.0
 40
4.0
 40
4.0
 40
5.0
 40
5.0
 40
5.0
 40
6.0
 40
6.0
 40
6.0
 40
7.0
 40
7.0
 40
7.0
 40
8.0
 40
8.0
 40
8.0
 40
8.0
 10
120.6562011417109
 20
-140.3435438017196
 30
0.0
 10
120.6562011417109
 20
-140.6310370199638
 30
0.0
 10
120.5077175262967
 20
-140.9049221110411
 30
0.0
 10
120.1311685897589
 20
-140.9049221110411
 30
0.0
 10
119.8552164413903
 20
-140.9049221110411
 30
0.0
 10
119.7525525959299
 20
-140.751959871496
 30
0.0
 10
119.6860622530646
 20
-140.6379272109342
 30
0.0
 10
119.6223279865874
 20
-140.7724581896333
 30
0.0
 10
119.4989935682155
 20
-140.8547959717307
 30
0.0
 10
119.3257052653074
 20
-140.8547959717307
 30
0.0
 10
119.0287380344789
 20
-140.8547959717307
 30
0.0
 10
118.8826659859043
 20
-140.6401665229997
 30
0.0
 10
118.8826659859043
 20
-140.3435438017196
 30
0.0
 10
118.8826659859043
 20
-140.0376193226295
 30
0.0
 10
119.0380397922891
 20
-139.8322916317086
 30
0.0
 10
119.3257052653074
 20
-139.8322916317086
 30
0.0
 10
119.4989935682155
 20
-139.8322916317086
 30
0.0
 10
119.6223279865874
 20
-139.9166964710972
 30
0.0
 10
119.6860622530646
 20
-140.0513997045704
 30
0.0
 10
119.74083927128
 20
-139.9554537953063
 30
0.0
 10
119.8435031167405
 20
-139.7842325496893
 30
0.0
 10
120.126689965628
 20
-139.7842325496893
 30
0.0
 10
120.5307996660478
 20
-139.7842325496893
 30
0.0
 10
120.6562011417109
 20
-140.0855061498744
 30
0.0
 10
120.6562011417109
 20
-140.3435438017196
 30
0.0
  0
HATCH
  5
9E
330
92
100
AcDbEntity
  8
レイヤー 1
 62
   250
420
  2299925
440
 33554687
100
AcDbHatch
 10
0.0
 20
0.0
 30
0.0
210
0.0
220
0.0
230
1.0
  2
SOLID
 70
     1
 71
     1
 91
        3
 92
        1
 93
        1
 72
     4
 94
        3
 73
     0
 74
     0
 95
       17
 96
       13
 40
0.0
 40
0.0
 40
0.0
 40
0.0
 40
1.0
 40
1.0
 40
1.0
 40
2.0
 40
2.0
 40
2.0
 40
3.0
 40
3.0
 40
3.0
 40
4.0
 40
4.0
 40
4.0
 40
4.0
 10
119.802506480466
 20
-140.3435438017196
 10
119.802506480466
 20
-140.4985730985559
 10
119.8962130776648
 20
-140.6629041532023
 10
120.1153211505267
 20
-140.6629041532023
 10
120.3368407902283
 20
-140.6629041532023
 10
120.4463948266592
 20
-140.5261338624379
 10
120.4463948266592
 20
-140.3435438017196
 10
120.4463948266592
 20
-140.1426947349296
 10
120.3137586504771
 20
-140.0238389406885
 10
120.1222113414972
 20
-140.0238389406885
 10
119.8824326957238
 20
-140.0238389406885
 10
119.802506480466
 20
-140.1997110652105
 10
119.802506480466
 20
-140.3435438017196
 97
        0
 97
        1
330
9B
 92
        1
 93
        1
 72
     4
 94
        3
 73
     0
 74
     0
 95
       17
 96
       13
 40
0.0
 40
0.0
 40
0.0
 40
0.0
 40
1.0
 40
1.0
 40
1.0
 40
2.0
 40
2.0
 40
2.0
 40
3.0
 40
3.0
 40
3.0
 40
4.0
 40
4.0
 40
4.0
 40
4.0
 10
119.0904052436649
 20
-140.3435438017196
 10
119.0904052436649
 20
-140.5214829835328
 10
119.1930690891253
 20
-140.6127780138919
 10
119.3391411376999
 20
-140.6127780138919
 10
119.471777313882
 20
-140.6127780138919
 10
119.5995903563848
 20
-140.5350911106995
 10
119.5995903563848
 20
-140.3435438017196
 10
119.5995903563848
 20
-140.1516519831913
 10
119.471777313882
 20
-140.0741373347731
 10
119.3391411376999
 20
-140.0741373347731
 10
119.1930690891253
 20
-140.0741373347731
 10
119.0904052436649
 20
-140.1676716771976
 10
119.0904052436649
 20
-140.3435438017196
 97
        0
 97
        1
330
9C
 92
        1
 93
        1
 72
     4
 94
        3
 73
     0
 74
     0
 95
       29
 96
       25
 40
0.0
 40
0.0
 40
0.0
 40
0.0
 40
1.0
 40
1.0
 40
1.0
 40
2.0
 40
2.0
 40
2.0
 40
3.0
 40
3.0
 40
3.0
 40
4.0
 40
4.0
 40
4.0
 40
5.0
 40
5.0
 40
5.0
 40
6.0
 40
6.0
 40
6.0
 40
7.0
 40
7.0
 40
7.0
 40
8.0
 40
8.0
 40
8.0
 40
8.0
 10
120.6562011417109
 20
-140.3435438017196
 10
120.6562011417109
 20
-140.6310370199638
 10
120.5077175262967
 20
-140.9049221110411
 10
120.1311685897589
 20
-140.9049221110411
 10
119.8552164413903
 20
-140.9049221110411
 10
119.7525525959299
 20
-140.751959871496
 10
119.6860622530646
 20
-140.6379272109342
 10
119.6223279865874
 20
-140.7724581896333
 10
119.4989935682155
 20
-140.8547959717307
 10
119.3257052653074
 20
-140.8547959717307
 10
119.0287380344789
 20
-140.8547959717307
 10
118.8826659859043
 20
-140.6401665229997
 10
118.8826659859043
 20
-140.3435438017196
 10
118.8826659859043
 20
-140.0376193226295
 10
119.0380397922891
 20
-139.8322916317086
 10
119.3257052653074
 20
-139.8322916317086
 10
119.4989935682155
 20
-139.8322916317086
 10
119.6223279865874
 20
-139.9166964710972
 10
119.6860622530646
 20
-140.0513997045704
 10
119.74083927128
 20
-139.9554537953063
 10
119.8435031167405
 20
-139.7842325496893
 10
120.126689965628
 20
-139.7842325496893
 10
120.5307996660478
 20
-139.7842325496893
 10
120.6562011417109
 20
-140.0855061498744
 10
120.6562011417109
 20
-140.3435438017196
 97
        0
 97
        1
330
9D
 75
     2
 76
     1
 98
        1
 10
0.0
 20
0.0
450
        0
451
        0
460
0.0
461
0.0
452
        0
462
0.0
453
        0
470

  0
ENDBLK
  5
95
330
92
100
AcDbEntity
  8
0
100
AcDbBlockEnd
  0
BLOCK
  5
A1
330
9F
100
AcDbEntity
  8
0
100
AcDbBlockBegin
  2
Block_4
 70
     0
 10
0.0
 20
0.0
 30
0.0
  3
Block_4
  1

  0
LINE
  5
A3
330
9F
100
AcDbEntity
  8
レイヤー 1
 62
   250
420
  2299925
370
     9
100
AcDbLine
 10
121.4519918432757
 20
-154.0754956632452
 30
0.0
 11
121.4519918432757
 21
-157.0754825311537
 31
0.0
  0
LINE
  5
A4
330
9F
100
AcDbEntity
  8
レイヤー 1
 62
   250
420
  2299925
370
     9
100
AcDbLine
 10
108.9920574389328
 20
-157.0754825311537
 30
0.0
 11
122.4519073748622
 21
-157.0754825311537
 31
0.0
  0
INSERT
  5
A6
330
9F
100
AcDbEntity
  8
レイヤー 1
100
AcDbBlockReference
  2
Block_5
 10
0.0
 20
0.0
 30
0.0
  0
ENDBLK
  5
A2
330
9F
100
AcDbEntity
  8
0
100
AcDbBlockEnd
  0
BLOCK
  5
A7
330
A5
100
AcDbEntity
  8
0
100
AcDbBlockBegin
  2
Block_5
 70
     0
 10
0.0
 20
0.0
 30
0.0
  3
Block_5
  1

  0
SPLINE
  5
A9
330
A5
100
AcDbEntity
  8
レイヤー 1
100
AcDbSpline
210
0.0
220
0.0
230
1.0
 70
     9
 71
     3
 72
    62
 73
    58
 74
     0
 42
0.0000000001
 43
0.0000000001
 40
0.0
 40
0.0
 40
0.0
 40
0.0
 40
1.0
 40
1.0
 40
1.0
 40
2.0
 40
2.0
 40
2.0
 40
3.0
 40
3.0
 40
3.0
 40
4.0
 40
4.0
 40
4.0
 40
5.0
 40
5.0
 40
5.0
 40
6.0
 40
6.0
 40
6.0
 40
7.0
 40
7.0
 40
7.0
 40
8.0
 40
8.0
 40
8.0
 40
9.0
 40
9.0
 40
9.0
 40
10.0
 40
10.0
 40
10.0
 40
11.0
 40
11.0
 40
11.0
 40
12.0
 40
12.0
 40
12.0
 40
13.0
 40
13.0
 40
13.0
 40
14.0
 40
14.0
 40
14.0
 40
15.0
 40
15.0
 40
15.0
 40
16.0
 40
16.0
 40
16.0
 40
17.0
 40
17.0
 40
17.0
 40
18.0
 40
18.0
 40
18.0
 40
19.0
 40
19.0
 40
19.0
 40
19.0
 10
120.6562011417109
 20
-155.5836126998194
 30
0.0
 10
120.6562011417109
 20
-155.6862765452798
 30
0.0
 10
120.6334635115083
 20
-155.9212320573738
 30
0.0
 10
120.4326144447182
 20
-156.0559352908471
 30
0.0
 10
120.3116915931859
 20
-156.1358615061049
 30
0.0
 10
120.2042046140461
 20
-156.1403401302357
 30
0.0
 10
120.112909583687
 20
-156.1448187543666
 30
0.0
 10
120.112909583687
 20
-156.1448187543666
 30
0.0
 10
120.112909583687
 20
-155.9077961849814
 30
0.0
 10
120.112909583687
 20
-155.9077961849814
 30
0.0
 10
120.1928357989448
 20
-155.9053846181417
 30
0.0
 10
120.4463948266592
 20
-155.8940158030404
 30
0.0
 10
120.4463948266592
 20
-155.5880913239502
 30
0.0
 10
120.4463948266592
 20
-155.4399522180844
 30
0.0
 10
120.3709472355322
 20
-155.2752766538895
 30
0.0
 10
120.1242783987884
 20
-155.2752766538895
 30
0.0
 10
119.9988769231252
 20
-155.2752766538895
 30
0.0
 10
119.9465114717495
 20
-155.3166177997125
 30
0.0
 10
119.912060516897
 20
-155.3507242450165
 30
0.0
 10
119.8321343016392
 20
-155.4306504602743
 30
0.0
 10
119.8186984292467
 20
-155.5560519359374
 30
0.0
 10
119.8186984292467
 20
-155.6156520878322
 30
0.0
 10
119.8186984292467
 20
-155.6359781511952
 30
0.0
 10
119.8207654865378
 20
-155.6749077301785
 30
0.0
 10
119.8255886202172
 20
-155.7045355513516
 30
0.0
 10
119.8255886202172
 20
-155.7045355513516
 30
0.0
 10
119.615437795617
 20
-155.7045355513516
 30
0.0
 10
119.615437795617
 20
-155.7045355513516
 30
0.0
 10
119.6223279865874
 20
-155.6631944055286
 30
0.0
 10
119.6243950438786
 20
-155.6177191451233
 30
0.0
 10
119.6243950438786
 20
-155.6108289541528
 30
0.0
 10
119.6243950438786
 20
-155.5402044967052
 30
0.0
 10
119.601657413676
 20
-155.3255750479741
 30
0.0
 10
119.3460313286704
 20
-155.3255750479741
 30
0.0
 10
119.1544840196905
 20
-155.3255750479741
 30
0.0
 10
119.0952283773442
 20
-155.4671684724179
 30
0.0
 10
119.0952283773442
 20
-155.586024266659
 30
0.0
 10
119.0952283773442
 20
-155.8712781728377
 30
0.0
 10
119.3460313286704
 20
-155.8802354210994
 30
0.0
 10
119.4238904866371
 20
-155.8847140452302
 30
0.0
 10
119.4238904866371
 20
-155.8847140452302
 30
0.0
 10
119.4238904866371
 20
-156.1038221180921
 30
0.0
 10
119.4238904866371
 20
-156.1038221180921
 30
0.0
 10
119.2891872531638
 20
-156.0948648698304
 30
0.0
 10
118.8826659859043
 20
-156.0648925391088
 30
0.0
 10
118.8826659859043
 20
-155.572243884718
 30
0.0
 10
118.8826659859043
 20
-155.3303981816535
 30
0.0
 10
119.0197807862173
 20
-155.0699489629686
 30
0.0
 10
119.3391411376999
 20
-155.0699489629686
 30
0.0
 10
119.53999020449
 20
-155.0699489629686
 30
0.0
 10
119.629218177558
 20
-155.1726128084291
 30
0.0
 10
119.6953640108747
 20
-155.2800997875688
 30
0.0
 10
119.7249918320479
 20
-155.2139539542521
 30
0.0
 10
119.8118082382762
 20
-155.0175835115928
 30
0.0
 10
120.1108425263959
 20
-155.0175835115928
 30
0.0
 10
120.4760226478324
 20
-155.0175835115928
 30
0.0
 10
120.6562011417109
 20
-155.2845784116997
 30
0.0
 10
120.6562011417109
 20
-155.5836126998194
 30
0.0
  0
HATCH
  5
AA
330
A5
100
AcDbEntity
  8
レイヤー 1
 62
   250
420
  2299925
440
 33554687
100
AcDbHatch
 10
0.0
 20
0.0
 30
0.0
210
0.0
220
0.0
230
1.0
  2
SOLID
 70
     1
 71
     1
 91
        1
 92
        1
 93
        1
 72
     4
 94
        3
 73
     0
 74
     0
 95
       62
 96
       58
 40
0.0
 40
0.0
 40
0.0
 40
0.0
 40
1.0
 40
1.0
 40
1.0
 40
2.0
 40
2.0
 40
2.0
 40
3.0
 40
3.0
 40
3.0
 40
4.0
 40
4.0
 40
4.0
 40
5.0
 40
5.0
 40
5.0
 40
6.0
 40
6.0
 40
6.0
 40
7.0
 40
7.0
 40
7.0
 40
8.0
 40
8.0
 40
8.0
 40
9.0
 40
9.0
 40
9.0
 40
10.0
 40
10.0
 40
10.0
 40
11.0
 40
11.0
 40
11.0
 40
12.0
 40
12.0
 40
12.0
 40
13.0
 40
13.0
 40
13.0
 40
14.0
 40
14.0
 40
14.0
 40
15.0
 40
15.0
 40
15.0
 40
16.0
 40
16.0
 40
16.0
 40
17.0
 40
17.0
 40
17.0
 40
18.0
 40
18.0
 40
18.0
 40
19.0
 40
19.0
 40
19.0
 40
19.0
 10
120.6562011417109
 20
-155.5836126998194
 10
120.6562011417109
 20
-155.6862765452798
 10
120.6334635115083
 20
-155.9212320573738
 10
120.4326144447182
 20
-156.0559352908471
 10
120.3116915931859
 20
-156.1358615061049
 10
120.2042046140461
 20
-156.1403401302357
 10
120.112909583687
 20
-156.1448187543666
 10
120.112909583687
 20
-156.1448187543666
 10
120.112909583687
 20
-155.9077961849814
 10
120.112909583687
 20
-155.9077961849814
 10
120.1928357989448
 20
-155.9053846181417
 10
120.4463948266592
 20
-155.8940158030404
 10
120.4463948266592
 20
-155.5880913239502
 10
120.4463948266592
 20
-155.4399522180844
 10
120.3709472355322
 20
-155.2752766538895
 10
120.1242783987884
 20
-155.2752766538895
 10
119.9988769231252
 20
-155.2752766538895
 10
119.9465114717495
 20
-155.3166177997125
 10
119.912060516897
 20
-155.3507242450165
 10
119.8321343016392
 20
-155.4306504602743
 10
119.8186984292467
 20
-155.5560519359374
 10
119.8186984292467
 20
-155.6156520878322
 10
119.8186984292467
 20
-155.6359781511952
 10
119.8207654865378
 20
-155.6749077301785
 10
119.8255886202172
 20
-155.7045355513516
 10
119.8255886202172
 20
-155.7045355513516
 10
119.615437795617
 20
-155.7045355513516
 10
119.615437795617
 20
-155.7045355513516
 10
119.6223279865874
 20
-155.6631944055286
 10
119.6243950438786
 20
-155.6177191451233
 10
119.6243950438786
 20
-155.6108289541528
 10
119.6243950438786
 20
-155.5402044967052
 10
119.601657413676
 20
-155.3255750479741
 10
119.3460313286704
 20
-155.3255750479741
 10
119.1544840196905
 20
-155.3255750479741
 10
119.0952283773442
 20
-155.4671684724179
 10
119.0952283773442
 20
-155.586024266659
 10
119.0952283773442
 20
-155.8712781728377
 10
119.3460313286704
 20
-155.8802354210994
 10
119.4238904866371
 20
-155.8847140452302
 10
119.4238904866371
 20
-155.8847140452302
 10
119.4238904866371
 20
-156.1038221180921
 10
119.4238904866371
 20
-156.1038221180921
 10
119.2891872531638
 20
-156.0948648698304
 10
118.8826659859043
 20
-156.0648925391088
 10
118.8826659859043
 20
-155.572243884718
 10
118.8826659859043
 20
-155.3303981816535
 10
119.0197807862173
 20
-155.0699489629686
 10
119.3391411376999
 20
-155.0699489629686
 10
119.53999020449
 20
-155.0699489629686
 10
119.629218177558
 20
-155.1726128084291
 10
119.6953640108747
 20
-155.2800997875688
 10
119.7249918320479
 20
-155.2139539542521
 10
119.8118082382762
 20
-155.0175835115928
 10
120.1108425263959
 20
-155.0175835115928
 10
120.4760226478324
 20
-155.0175835115928
 10
120.6562011417109
 20
-155.2845784116997
 10
120.6562011417109
 20
-155.5836126998194
 97
        0
 97
        1
330
A9
 75
     2
 76
     1
 98
        1
 10
0.0
 20
0.0
450
        0
451
        0
460
0.0
461
0.0
452
        0
462
0.0
453
        0
470

  0
ENDBLK
  5
A8
330
A5
100
AcDbEntity
  8
0
100
AcDbBlockEnd
  0
BLOCK
  5
AD
330
AB
100
AcDbEntity
  8
0
100
AcDbBlockBegin
  2
Block_6
 70
     0
 10
0.0
 20
0.0
 30
0.0
  3
Block_6
  1

  0
LINE
  5
AF
330
AB
100
AcDbEntity
  8
レイヤー 1
 62
   250
420
  2299925
370
     9
100
AcDbLine
 10
121.4519918432757
 20
-144.0757628628041
 30
0.0
 11
121.4519918432757
 21
-154.0754956632452
 31
0.0
  0
LINE
  5
B0
330
AB
100
AcDbEntity
  8
レイヤー 1
 62
   250
420
  2299925
370
     9
100
AcDbLine
 10
119.9919504916355
 20
-144.0757628628041
 30
0.0
 11
122.4519073748622
 21
-144.0757628628041
 31
0.0
  0
LINE
  5
B1
330
AB
100
AcDbEntity
  8
レイヤー 1
 62
   250
420
  2299925
370
     9
100
AcDbLine
 10
108.9920574389328
 20
-154.0754956632452
 30
0.0
 11
122.4519073748622
 21
-154.0754956632452
 31
0.0
  0
INSERT
  5
B3
330
AB
100
AcDbEntity
  8
レイヤー 1
100
AcDbBlockReference
  2
Block_7
 10
0.0
 20
0.0
 30
0.0
  0
ENDBLK
  5
AE
330
AB
100
AcDbEntity
  8
0
100
AcDbBlockEnd
  0
BLOCK
  5
B4
330
B2
100
AcDbEntity
  8
0
100
AcDbBlockBegin
  2
Block_7
 70
     0
 10
0.0
 20
0.0
 30
0.0
  3
Block_7
  1

  0
INSERT
  5
B7
330
B2
100
AcDbEntity
  8
レイヤー 1
100
AcDbBlockReference
  2
Block_8
 10
0.0
 20
0.0
 30
0.0
  0
ENDBLK
  5
B5
330
B2
100
AcDbEntity
  8
0
100
AcDbBlockEnd
  0
BLOCK
  5
B8
330
B6
100
AcDbEntity
  8
0
100
AcDbBlockBegin
  2
Block_8
 70
     0
 10
0.0
 20
0.0
 30
0.0
  3
Block_8
  1

  0
SPLINE
  5
BA
330
B6
100
AcDbEntity
  8
レイヤー 1
100
AcDbSpline
210
0.0
220
0.0
230
1.0
 70
    11
 71
     3
 72
    26
 73
    22
 74
     0
 42
0.0000000001
 43
0.0000000001
 40
0.0
 40
0.0
 40
0.0
 40
0.0
 40
1.0
 40
1.0
 40
1.0
 40
2.0
 40
2.0
 40
2.0
 40
3.0
 40
3.0
 40
3.0
 40
4.0
 40
4.0
 40
4.0
 40
5.0
 40
5.0
 40
5.0
 40
6.0
 40
6.0
 40
6.0
 40
7.0
 40
7.0
 40
7.0
 40
7.0
 10
120.6010796139469
 20
-149.8096326665406
 30
0.0
 10
120.6010796139469
 20
-149.8096326665406
 30
0.0
 10
119.4097655951475
 20
-149.8096326665406
 30
0.0
 10
119.4097655951475
 20
-149.8096326665406
 30
0.0
 10
119.4097655951475
 20
-149.8096326665406
 30
0.0
 10
119.4097655951475
 20
-150.1910047367578
 30
0.0
 10
119.4097655951475
 20
-150.1910047367578
 30
0.0
 10
119.4097655951475
 20
-150.1910047367578
 30
0.0
 10
119.249913164632
 20
-150.1910047367578
 30
0.0
 10
119.249913164632
 20
-150.1910047367578
 30
0.0
 10
119.2340657253998
 20
-149.8072210997009
 30
0.0
 10
119.0580213461035
 20
-149.7534776101311
 30
0.0
 10
118.9350314372801
 20
-149.7190266552786
 30
0.0
 10
118.9350314372801
 20
-149.7190266552786
 30
0.0
 10
118.9350314372801
 20
-149.5505614860499
 30
0.0
 10
118.9350314372801
 20
-149.5505614860499
 30
0.0
 10
118.9350314372801
 20
-149.5505614860499
 30
0.0
 10
120.6010796139469
 20
-149.5505614860499
 30
0.0
 10
120.6010796139469
 20
-149.5505614860499
 30
0.0
 10
120.6010796139469
 20
-149.5505614860499
 30
0.0
 10
120.6010796139469
 20
-149.8096326665406
 30
0.0
 10
120.6010796139469
 20
-149.8096326665406
 30
0.0
  0
HATCH
  5
BB
330
B6
100
AcDbEntity
  8
レイヤー 1
 62
   250
420
  2299925
440
 33554687
100
AcDbHatch
 10
0.0
 20
0.0
 30
0.0
210
0.0
220
0.0
230
1.0
  2
SOLID
 70
     1
 71
     1
 91
        1
 92
        1
 93
        1
 72
     4
 94
        3
 73
     0
 74
     0
 95
       26
 96
       22
 40
0.0
 40
0.0
 40
0.0
 40
0.0
 40
1.0
 40
1.0
 40
1.0
 40
2.0
 40
2.0
 40
2.0
 40
3.0
 40
3.0
 40
3.0
 40
4.0
 40
4.0
 40
4.0
 40
5.0
 40
5.0
 40
5.0
 40
6.0
 40
6.0
 40
6.0
 40
7.0
 40
7.0
 40
7.0
 40
7.0
 10
120.6010796139469
 20
-149.8096326665406
 10
120.6010796139469
 20
-149.8096326665406
 10
119.4097655951475
 20
-149.8096326665406
 10
119.4097655951475
 20
-149.8096326665406
 10
119.4097655951475
 20
-149.8096326665406
 10
119.4097655951475
 20
-150.1910047367578
 10
119.4097655951475
 20
-150.1910047367578
 10
119.4097655951475
 20
-150.1910047367578
 10
119.249913164632
 20
-150.1910047367578
 10
119.249913164632
 20
-150.1910047367578
 10
119.2340657253998
 20
-149.8072210997009
 10
119.0580213461035
 20
-149.7534776101311
 10
118.9350314372801
 20
-149.7190266552786
 10
118.9350314372801
 20
-149.7190266552786
 10
118.9350314372801
 20
-149.5505614860499
 10
118.9350314372801
 20
-149.5505614860499
 10
118.9350314372801
 20
-149.5505614860499
 10
120.6010796139469
 20
-149.5505614860499
 10
120.6010796139469
 20
-149.5505614860499
 10
120.6010796139469
 20
-149.5505614860499
 10
120.6010796139469
 20
-149.8096326665406
 10
120.6010796139469
 20
-149.8096326665406
 97
        0
 97
        1
330
BA
 75
     2
 76
     1
 98
        1
 10
0.0
 20
0.0
450
        0
451
        0
460
0.0
461
0.0
452
        0
462
0.0
453
        0
470

  0
SPLINE
  5
BC
330
B6
100
AcDbEntity
  8
レイヤー 1
100
AcDbSpline
210
0.0
220
0.0
230
1.0
 70
     9
 71
     3
 72
    17
 73
    13
 74
     0
 42
0.0000000001
 43
0.0000000001
 40
0.0
 40
0.0
 40
0.0
 40
0.0
 40
1.0
 40
1.0
 40
1.0
 40
2.0
 40
2.0
 40
2.0
 40
3.0
 40
3.0
 40
3.0
 40
4.0
 40
4.0
 40
4.0
 40
4.0
 10
119.0900607341164
 20
-148.3957654793941
 30
0.0
 10
119.0900607341164
 20
-148.6841199715095
 30
0.0
 10
119.3959852132065
 20
-148.7378634610794
 30
0.0
 10
119.7680555256135
 20
-148.7378634610794
 30
0.0
 10
120.1125650741385
 20
-148.7378634610794
 30
0.0
 10
120.4457058075622
 20
-148.6963500604821
 30
0.0
 10
120.4457058075622
 20
-148.3957654793941
 30
0.0
 10
120.4457058075622
 20
-148.1098225541184
 30
0.0
 10
120.1421928953116
 20
-148.0536674977088
 30
0.0
 10
119.7680555256135
 20
-148.0536674977088
 30
0.0
 10
119.42320146754
 20
-148.0536674977088
 30
0.0
 10
119.0900607341164
 20
-148.0975924651457
 30
0.0
 10
119.0900607341164
 20
-148.3957654793941
 30
0.0
  0
SPLINE
  5
BD
330
B6
100
AcDbEntity
  8
レイヤー 1
100
AcDbSpline
210
0.0
220
0.0
230
1.0
 70
     9
 71
     3
 72
    29
 73
    25
 74
     0
 42
0.0000000001
 43
0.0000000001
 40
0.0
 40
0.0
 40
0.0
 40
0.0
 40
1.0
 40
1.0
 40
1.0
 40
2.0
 40
2.0
 40
2.0
 40
3.0
 40
3.0
 40
3.0
 40
4.0
 40
4.0
 40
4.0
 40
5.0
 40
5.0
 40
5.0
 40
6.0
 40
6.0
 40
6.0
 40
7.0
 40
7.0
 40
7.0
 40
8.0
 40
8.0
 40
8.0
 40
8.0
 10
120.4091877954185
 20
-147.936361996436
 30
0.0
 10
120.6351860592509
 20
-148.0609021982278
 30
0.0
 10
120.6558566321624
 20
-148.2614067554694
 30
0.0
 10
120.6558566321624
 20
-148.3957654793941
 30
0.0
 10
120.6558566321624
 20
-148.5814561260491
 30
0.0
 10
120.6055582380777
 20
-148.7452704163727
 30
0.0
 10
120.4091877954185
 20
-148.8551689623522
 30
0.0
 10
120.1993814803668
 20
-148.9748860304646
 30
0.0
 10
119.9437553953613
 20
-148.9969346415702
 30
0.0
 10
119.7680555256135
 20
-148.9969346415702
 30
0.0
 10
119.6126817192288
 20
-148.9969346415702
 30
0.0
 10
119.3412081949911
 20
-148.9772975973043
 30
0.0
 10
119.12657874626
 20
-148.8551689623522
 30
0.0
 10
118.9074706733981
 20
-148.7306287605604
 30
0.0
 10
118.8823214763558
 20
-148.5447658591312
 30
0.0
 10
118.8823214763558
 20
-148.3957654793941
 30
0.0
 10
118.8823214763558
 20
-148.2124863995788
 30
0.0
 10
118.9305528131493
 20
-148.0462605424155
 30
0.0
 10
119.12657874626
 20
-147.936361996436
 30
0.0
 10
119.3343180040206
 20
-147.8214680620029
 30
0.0
 10
119.5809868407645
 20
-147.794596317218
 30
0.0
 10
119.7680555256135
 20
-147.794596317218
 30
0.0
 10
119.9530571531714
 20
-147.794596317218
 30
0.0
 10
120.2017930472065
 20
-147.8190564951633
 30
0.0
 10
120.4091877954185
 20
-147.936361996436
 30
0.0
  0
HATCH
  5
BE
330
B6
100
AcDbEntity
  8
レイヤー 1
 62
   250
420
  2299925
440
 33554687
100
AcDbHatch
 10
0.0
 20
0.0
 30
0.0
210
0.0
220
0.0
230
1.0
  2
SOLID
 70
     1
 71
     1
 91
        2
 92
        1
 93
        1
 72
     4
 94
        3
 73
     0
 74
     0
 95
       17
 96
       13
 40
0.0
 40
0.0
 40
0.0
 40
0.0
 40
1.0
 40
1.0
 40
1.0
 40
2.0
 40
2.0
 40
2.0
 40
3.0
 40
3.0
 40
3.0
 40
4.0
 40
4.0
 40
4.0
 40
4.0
 10
119.0900607341164
 20
-148.3957654793941
 10
119.0900607341164
 20
-148.6841199715095
 10
119.3959852132065
 20
-148.7378634610794
 10
119.7680555256135
 20
-148.7378634610794
 10
120.1125650741385
 20
-148.7378634610794
 10
120.4457058075622
 20
-148.6963500604821
 10
120.4457058075622
 20
-148.3957654793941
 10
120.4457058075622
 20
-148.1098225541184
 10
120.1421928953116
 20
-148.0536674977088
 10
119.7680555256135
 20
-148.0536674977088
 10
119.42320146754
 20
-148.0536674977088
 10
119.0900607341164
 20
-148.0975924651457
 10
119.0900607341164
 20
-148.3957654793941
 97
        0
 97
        1
330
BC
 92
        1
 93
        1
 72
     4
 94
        3
 73
     0
 74
     0
 95
       29
 96
       25
 40
0.0
 40
0.0
 40
0.0
 40
0.0
 40
1.0
 40
1.0
 40
1.0
 40
2.0
 40
2.0
 40
2.0
 40
3.0
 40
3.0
 40
3.0
 40
4.0
 40
4.0
 40
4.0
 40
5.0
 40
5.0
 40
5.0
 40
6.0
 40
6.0
 40
6.0
 40
7.0
 40
7.0
 40
7.0
 40
8.0
 40
8.0
 40
8.0
 40
8.0
 10
120.4091877954185
 20
-147.936361996436
 10
120.6351860592509
 20
-148.0609021982278
 10
120.6558566321624
 20
-148.2614067554694
 10
120.6558566321624
 20
-148.3957654793941
 10
120.6558566321624
 20
-148.5814561260491
 10
120.6055582380777
 20
-148.7452704163727
 10
120.4091877954185
 20
-148.8551689623522
 10
120.1993814803668
 20
-148.9748860304646
 10
119.9437553953613
 20
-148.9969346415702
 10
119.7680555256135
 20
-148.9969346415702
 10
119.6126817192288
 20
-148.9969346415702
 10
119.3412081949911
 20
-148.9772975973043
 10
119.12657874626
 20
-148.8551689623522
 10
118.9074706733981
 20
-148.7306287605604
 10
118.8823214763558
 20
-148.5447658591312
 10
118.8823214763558
 20
-148.3957654793941
 10
118.8823214763558
 20
-148.2124863995788
 10
118.9305528131493
 20
-148.0462605424155
 10
119.12657874626
 20
-147.936361996436
 10
119.3343180040206
 20
-147.8214680620029
 10
119.5809868407645
 20
-147.794596317218
 10
119.7680555256135
 20
-147.794596317218
 10
119.9530571531714
 20
-147.794596317218
 10
120.2017930472065
 20
-147.8190564951633
 10
120.4091877954185
 20
-147.936361996436
 97
        0
 97
        1
330
BD
 75
     2
 76
     1
 98
        1
 10
0.0
 20
0.0
450
        0
451
        0
460
0.0
461
0.0
452
        0
462
0.0
453
        0
470

  0
ENDBLK
  5
B9
330
B6
100
AcDbEntity
  8
0
100
AcDbBlockEnd
  0
BLOCK
  5
C1
330
BF
100
AcDbEntity
  8
0
100
AcDbBlockBegin
  2
Block_9
 70
     0
 10
0.0
 20
0.0
 30
0.0
  3
Block_9
  1

  0
LINE
  5
C3
330
BF
100
AcDbEntity
  8
レイヤー 1
 62
   250
420
  2299925
370
     9
100
AcDbLine
 10
99.45195879343186
 20
-140.0755451870804
 30
0.0
 11
117.452056389767
 21
-140.0755451870804
 31
0.0
  0
LINE
  5
C4
330
BF
100
AcDbEntity
  8
レイヤー 1
 62
   250
420
  2299925
370
     9
100
AcDbLine
 10
99.45195879343186
 20
-141.5355512609437
 30
0.0
 11
99.45195879343186
 21
-139.0757729903645
 31
0.0
  0
LINE
  5
C5
330
BF
100
AcDbEntity
  8
レイヤー 1
 62
   250
420
  2299925
370
     9
100
AcDbLine
 10
117.452056389767
 20
-141.5355512609437
 30
0.0
 11
117.452056389767
 21
-139.0757729903645
 31
0.0
  0
INSERT
  5
C7
330
BF
100
AcDbEntity
  8
レイヤー 1
100
AcDbBlockReference
  2
Block_10
 10
0.0
 20
0.0
 30
0.0
  0
ENDBLK
  5
C2
330
BF
100
AcDbEntity
  8
0
100
AcDbBlockEnd
  0
BLOCK
  5
C8
330
C6
100
AcDbEntity
  8
0
100
AcDbBlockBegin
  2
Block_10
 70
     0
 10
0.0
 20
0.0
 30
0.0
  3
Block_10
  1

  0
INSERT
  5
CB
330
C6
100
AcDbEntity
  8
レイヤー 1
100
AcDbBlockReference
  2
Block_11
 10
0.0
 20
0.0
 30
0.0
  0
ENDBLK
  5
C9
330
C6
100
AcDbEntity
  8
0
100
AcDbBlockEnd
  0
BLOCK
  5
CC
330
CA
100
AcDbEntity
  8
0
100
AcDbBlockBegin
  2
Block_11
 70
     0
 10
0.0
 20
0.0
 30
0.0
  3
Block_11
  1

  0
SPLINE
  5
CE
330
CA
100
AcDbEntity
  8
レイヤー 1
100
AcDbSpline
210
0.0
220
0.0
230
1.0
 70
    11
 71
     3
 72
    26
 73
    22
 74
     0
 42
0.0000000001
 43
0.0000000001
 40
0.0
 40
0.0
 40
0.0
 40
0.0
 40
1.0
 40
1.0
 40
1.0
 40
2.0
 40
2.0
 40
2.0
 40
3.0
 40
3.0
 40
3.0
 40
4.0
 40
4.0
 40
4.0
 40
5.0
 40
5.0
 40
5.0
 40
6.0
 40
6.0
 40
6.0
 40
7.0
 40
7.0
 40
7.0
 40
7.0
 10
107.6699137100617
 20
-138.8135768967202
 30
0.0
 10
107.6699137100617
 20
-138.8135768967202
 30
0.0
 10
107.6699137100617
 20
-137.6222628779208
 30
0.0
 10
107.6699137100617
 20
-137.6222628779208
 30
0.0
 10
107.6699137100617
 20
-137.6222628779208
 30
0.0
 10
107.288886149393
 20
-137.6222628779208
 30
0.0
 10
107.288886149393
 20
-137.6222628779208
 30
0.0
 10
107.288886149393
 20
-137.6222628779208
 30
0.0
 10
107.288886149393
 20
-137.4624104474052
 30
0.0
 10
107.288886149393
 20
-137.4624104474052
 30
0.0
 10
107.6723252769013
 20
-137.4463907533988
 30
0.0
 10
107.7260687664713
 20
-137.270690883651
 30
0.0
 10
107.7605197213237
 20
-137.1475287200534
 30
0.0
 10
107.7605197213237
 20
-137.1475287200534
 30
0.0
 10
107.9289848905525
 20
-137.1475287200534
 30
0.0
 10
107.9289848905525
 20
-137.1475287200534
 30
0.0
 10
107.9289848905525
 20
-137.1475287200534
 30
0.0
 10
107.9289848905525
 20
-138.8135768967202
 30
0.0
 10
107.9289848905525
 20
-138.8135768967202
 30
0.0
 10
107.9289848905525
 20
-138.8135768967202
 30
0.0
 10
107.6699137100617
 20
-138.8135768967202
 30
0.0
 10
107.6699137100617
 20
-138.8135768967202
 30
0.0
  0
HATCH
  5
CF
330
CA
100
AcDbEntity
  8
レイヤー 1
 62
   250
420
  2299925
440
 33554687
100
AcDbHatch
 10
0.0
 20
0.0
 30
0.0
210
0.0
220
0.0
230
1.0
  2
SOLID
 70
     1
 71
     1
 91
        1
 92
        1
 93
        1
 72
     4
 94
        3
 73
     0
 74
     0
 95
       26
 96
       22
 40
0.0
 40
0.0
 40
0.0
 40
0.0
 40
1.0
 40
1.0
 40
1.0
 40
2.0
 40
2.0
 40
2.0
 40
3.0
 40
3.0
 40
3.0
 40
4.0
 40
4.0
 40
4.0
 40
5.0
 40
5.0
 40
5.0
 40
6.0
 40
6.0
 40
6.0
 40
7.0
 40
7.0
 40
7.0
 40
7.0
 10
107.6699137100617
 20
-138.8135768967202
 10
107.6699137100617
 20
-138.8135768967202
 10
107.6699137100617
 20
-137.6222628779208
 10
107.6699137100617
 20
-137.6222628779208
 10
107.6699137100617
 20
-137.6222628779208
 10
107.288886149393
 20
-137.6222628779208
 10
107.288886149393
 20
-137.6222628779208
 10
107.288886149393
 20
-137.6222628779208
 10
107.288886149393
 20
-137.4624104474052
 10
107.288886149393
 20
-137.4624104474052
 10
107.6723252769013
 20
-137.4463907533988
 10
107.7260687664713
 20
-137.270690883651
 10
107.7605197213237
 20
-137.1475287200534
 10
107.7605197213237
 20
-137.1475287200534
 10
107.9289848905525
 20
-137.1475287200534
 10
107.9289848905525
 20
-137.1475287200534
 10
107.9289848905525
 20
-137.1475287200534
 10
107.9289848905525
 20
-138.8135768967202
 10
107.9289848905525
 20
-138.8135768967202
 10
107.9289848905525
 20
-138.8135768967202
 10
107.6699137100617
 20
-138.8135768967202
 10
107.6699137100617
 20
-138.8135768967202
 97
        0
 97
        1
330
CE
 75
     2
 76
     1
 98
        1
 10
0.0
 20
0.0
450
        0
451
        0
460
0.0
461
0.0
452
        0
462
0.0
453
        0
470

  0
SPLINE
  5
D0
330
CA
100
AcDbEntity
  8
レイヤー 1
100
AcDbSpline
210
0.0
220
0.0
230
1.0
 70
     9
 71
     3
 72
    17
 73
    13
 74
     0
 42
0.0000000001
 43
0.0000000001
 40
0.0
 40
0.0
 40
0.0
 40
0.0
 40
1.0
 40
1.0
 40
1.0
 40
2.0
 40
2.0
 40
2.0
 40
3.0
 40
3.0
 40
3.0
 40
4.0
 40
4.0
 40
4.0
 40
4.0
 10
109.0837808972082
 20
-137.3025580168896
 30
0.0
 10
108.8932671168739
 20
-137.3025580168896
 30
0.0
 10
108.7954264050928
 20
-137.4053941171243
 30
0.0
 10
108.7954264050928
 20
-137.5514661656989
 30
0.0
 10
108.7954264050928
 20
-137.6837578323325
 30
0.0
 10
108.8784532062873
 20
-137.8115708748353
 30
0.0
 10
109.0837808972082
 20
-137.8115708748353
 30
0.0
 10
109.2891085881291
 20
-137.8115708748353
 30
0.0
 10
109.3721353893236
 20
-137.6837578323325
 30
0.0
 10
109.3721353893236
 20
-137.5514661656989
 30
0.0
 10
109.3721353893236
 20
-137.4053941171243
 30
0.0
 10
109.2722276202514
 20
-137.3025580168896
 30
0.0
 10
109.0837808972082
 20
-137.3025580168896
 30
0.0
  0
SPLINE
  5
D1
330
CA
100
AcDbEntity
  8
レイヤー 1
100
AcDbSpline
210
0.0
220
0.0
230
1.0
 70
     9
 71
     3
 72
    17
 73
    13
 74
     0
 42
0.0000000001
 43
0.0000000001
 40
0.0
 40
0.0
 40
0.0
 40
0.0
 40
1.0
 40
1.0
 40
1.0
 40
2.0
 40
2.0
 40
2.0
 40
3.0
 40
3.0
 40
3.0
 40
4.0
 40
4.0
 40
4.0
 40
4.0
 10
109.0837808972082
 20
-138.0146592536908
 30
0.0
 10
108.9177272948192
 20
-138.0146592536908
 30
0.0
 10
108.7416829155229
 20
-138.1083658508896
 30
0.0
 10
108.7416829155229
 20
-138.3274739237515
 30
0.0
 10
108.7416829155229
 20
-138.5488213086788
 30
0.0
 10
108.8884439831945
 20
-138.6583753451097
 30
0.0
 10
109.0837808972082
 20
-138.6583753451097
 30
0.0
 10
109.2990993650363
 20
-138.6583753451097
 30
0.0
 10
109.4258788788935
 20
-138.5259114237018
 30
0.0
 10
109.4258788788935
 20
-138.3343641147219
 30
0.0
 10
109.4258788788935
 20
-138.0945854689486
 30
0.0
 10
109.2377766653989
 20
-138.0146592536908
 30
0.0
 10
109.0837808972082
 20
-138.0146592536908
 30
0.0
  0
SPLINE
  5
D2
330
CA
100
AcDbEntity
  8
レイヤー 1
100
AcDbSpline
210
0.0
220
0.0
230
1.0
 70
     9
 71
     3
 72
    29
 73
    25
 74
     0
 42
0.0000000001
 43
0.0000000001
 40
0.0
 40
0.0
 40
0.0
 40
0.0
 40
1.0
 40
1.0
 40
1.0
 40
2.0
 40
2.0
 40
2.0
 40
3.0
 40
3.0
 40
3.0
 40
4.0
 40
4.0
 40
4.0
 40
5.0
 40
5.0
 40
5.0
 40
6.0
 40
6.0
 40
6.0
 40
7.0
 40
7.0
 40
7.0
 40
8.0
 40
8.0
 40
8.0
 40
8.0
 10
109.0837808972082
 20
-138.8683539149357
 30
0.0
 10
108.7757893608269
 20
-138.8683539149357
 30
0.0
 10
108.4826117350321
 20
-138.7200425542957
 30
0.0
 10
108.4826117350321
 20
-138.3433213629836
 30
0.0
 10
108.4826117350321
 20
-138.0671969598408
 30
0.0
 10
108.64659828013
 20
-137.9645331143804
 30
0.0
 10
108.7685546603079
 20
-137.8983872810636
 30
0.0
 10
108.6245496690244
 20
-137.8344807598122
 30
0.0
 10
108.536355224602
 20
-137.7111463414403
 30
0.0
 10
108.536355224602
 20
-137.5376857837579
 30
0.0
 10
108.536355224602
 20
-137.2410630624779
 30
0.0
 10
108.7661430934682
 20
-137.0949910139033
 30
0.0
 10
109.0837808972082
 20
-137.0949910139033
 30
0.0
 10
109.4114094778555
 20
-137.0949910139033
 30
0.0
 10
109.6312065698144
 20
-137.2501925655138
 30
0.0
 10
109.6312065698144
 20
-137.5376857837579
 30
0.0
 10
109.6312065698144
 20
-137.7111463414403
 30
0.0
 10
109.5409450681009
 20
-137.8344807598122
 30
0.0
 10
109.3965955672689
 20
-137.8983872810636
 30
0.0
 10
109.4992594127293
 20
-137.9531642992791
 30
0.0
 10
109.6825384925446
 20
-138.0558281447395
 30
0.0
 10
109.6825384925446
 20
-138.3388427388528
 30
0.0
 10
109.6825384925446
 20
-138.7427801844983
 30
0.0
 10
109.3600775551252
 20
-138.8683539149357
 30
0.0
 10
109.0837808972082
 20
-138.8683539149357
 30
0.0
  0
HATCH
  5
D3
330
CA
100
AcDbEntity
  8
レイヤー 1
 62
   250
420
  2299925
440
 33554687
100
AcDbHatch
 10
0.0
 20
0.0
 30
0.0
210
0.0
220
0.0
230
1.0
  2
SOLID
 70
     1
 71
     1
 91
        3
 92
        1
 93
        1
 72
     4
 94
        3
 73
     0
 74
     0
 95
       17
 96
       13
 40
0.0
 40
0.0
 40
0.0
 40
0.0
 40
1.0
 40
1.0
 40
1.0
 40
2.0
 40
2.0
 40
2.0
 40
3.0
 40
3.0
 40
3.0
 40
4.0
 40
4.0
 40
4.0
 40
4.0
 10
109.0837808972082
 20
-137.3025580168896
 10
108.8932671168739
 20
-137.3025580168896
 10
108.7954264050928
 20
-137.4053941171243
 10
108.7954264050928
 20
-137.5514661656989
 10
108.7954264050928
 20
-137.6837578323325
 10
108.8784532062873
 20
-137.8115708748353
 10
109.0837808972082
 20
-137.8115708748353
 10
109.2891085881291
 20
-137.8115708748353
 10
109.3721353893236
 20
-137.6837578323325
 10
109.3721353893236
 20
-137.5514661656989
 10
109.3721353893236
 20
-137.4053941171243
 10
109.2722276202514
 20
-137.3025580168896
 10
109.0837808972082
 20
-137.3025580168896
 97
        0
 97
        1
330
D0
 92
        1
 93
        1
 72
     4
 94
        3
 73
     0
 74
     0
 95
       17
 96
       13
 40
0.0
 40
0.0
 40
0.0
 40
0.0
 40
1.0
 40
1.0
 40
1.0
 40
2.0
 40
2.0
 40
2.0
 40
3.0
 40
3.0
 40
3.0
 40
4.0
 40
4.0
 40
4.0
 40
4.0
 10
109.0837808972082
 20
-138.0146592536908
 10
108.9177272948192
 20
-138.0146592536908
 10
108.7416829155229
 20
-138.1083658508896
 10
108.7416829155229
 20
-138.3274739237515
 10
108.7416829155229
 20
-138.5488213086788
 10
108.8884439831945
 20
-138.6583753451097
 10
109.0837808972082
 20
-138.6583753451097
 10
109.2990993650363
 20
-138.6583753451097
 10
109.4258788788935
 20
-138.5259114237018
 10
109.4258788788935
 20
-138.3343641147219
 10
109.4258788788935
 20
-138.0945854689486
 10
109.2377766653989
 20
-138.0146592536908
 10
109.0837808972082
 20
-138.0146592536908
 97
        0
 97
        1
330
D1
 92
        1
 93
        1
 72
     4
 94
        3
 73
     0
 74
     0
 95
       29
 96
       25
 40
0.0
 40
0.0
 40
0.0
 40
0.0
 40
1.0
 40
1.0
 40
1.0
 40
2.0
 40
2.0
 40
2.0
 40
3.0
 40
3.0
 40
3.0
 40
4.0
 40
4.0
 40
4.0
 40
5.0
 40
5.0
 40
5.0
 40
6.0
 40
6.0
 40
6.0
 40
7.0
 40
7.0
 40
7.0
 40
8.0
 40
8.0
 40
8.0
 40
8.0
 10
109.0837808972082
 20
-138.8683539149357
 10
108.7757893608269
 20
-138.8683539149357
 10
108.4826117350321
 20
-138.7200425542957
 10
108.4826117350321
 20
-138.3433213629836
 10
108.4826117350321
 20
-138.0671969598408
 10
108.64659828013
 20
-137.9645331143804
 10
108.7685546603079
 20
-137.8983872810636
 10
108.6245496690244
 20
-137.8344807598122
 10
108.536355224602
 20
-137.7111463414403
 10
108.536355224602
 20
-137.5376857837579
 10
108.536355224602
 20
-137.2410630624779
 10
108.7661430934682
 20
-137.0949910139033
 10
109.0837808972082
 20
-137.0949910139033
 10
109.4114094778555
 20
-137.0949910139033
 10
109.6312065698144
 20
-137.2501925655138
 10
109.6312065698144
 20
-137.5376857837579
 10
109.6312065698144
 20
-137.7111463414403
 10
109.5409450681009
 20
-137.8344807598122
 10
109.3965955672689
 20
-137.8983872810636
 10
109.4992594127293
 20
-137.9531642992791
 10
109.6825384925446
 20
-138.0558281447395
 10
109.6825384925446
 20
-138.3388427388528
 10
109.6825384925446
 20
-138.7427801844983
 10
109.3600775551252
 20
-138.8683539149357
 10
109.0837808972082
 20
-138.8683539149357
 97
        0
 97
        1
330
D2
 75
     2
 76
     1
 98
        1
 10
0.0
 20
0.0
450
        0
451
        0
460
0.0
461
0.0
452
        0
462
0.0
453
        0
470

  0
ENDBLK
  5
CD
330
CA
100
AcDbEntity
  8
0
100
AcDbBlockEnd
  0
BLOCK
  5
D6
330
D4
100
AcDbEntity
  8
0
100
AcDbBlockBegin
  2
Block_12
 70
     0
 10
0.0
 20
0.0
 30
0.0
  3
Block_12
  1

  0
LINE
  5
D8
330
D4
100
AcDbEntity
  8
レイヤー 1
 62
   250
420
  2299925
370
     9
100
AcDbLine
 10
99.45195879343186
 20
-161.0755943735467
 30
0.0
 11
106.4519869481799
 21
-161.0755943735467
 31
0.0
  0
LINE
  5
D9
330
D4
100
AcDbEntity
  8
レイヤー 1
 62
   250
420
  2299925
370
     9
100
AcDbLine
 10
99.45195879343186
 20
-159.6155530219066
 30
0.0
 11
99.45195879343186
 21
-162.0756840702545
 31
0.0
  0
LINE
  5
DA
330
D4
100
AcDbEntity
  8
レイヤー 1
 62
   250
420
  2299925
370
     9
100
AcDbLine
 10
106.4519869481799
 20
-159.6155530219066
 30
0.0
 11
106.4519869481799
 21
-162.0756840702545
 31
0.0
  0
INSERT
  5
DC
330
D4
100
AcDbEntity
  8
レイヤー 1
100
AcDbBlockReference
  2
Block_13
 10
0.0
 20
0.0
 30
0.0
  0
ENDBLK
  5
D7
330
D4
100
AcDbEntity
  8
0
100
AcDbBlockEnd
  0
BLOCK
  5
DD
330
DB
100
AcDbEntity
  8
0
100
AcDbBlockBegin
  2
Block_13
 70
     0
 10
0.0
 20
0.0
 30
0.0
  3
Block_13
  1

  0
SPLINE
  5
DF
330
DB
100
AcDbEntity
  8
レイヤー 1
100
AcDbSpline
210
0.0
220
0.0
230
1.0
 70
     9
 71
     3
 72
    26
 73
    22
 74
     0
 42
0.0000000001
 43
0.0000000001
 40
0.0
 40
0.0
 40
0.0
 40
0.0
 40
1.0
 40
1.0
 40
1.0
 40
2.0
 40
2.0
 40
2.0
 40
3.0
 40
3.0
 40
3.0
 40
4.0
 40
4.0
 40
4.0
 40
5.0
 40
5.0
 40
5.0
 40
6.0
 40
6.0
 40
6.0
 40
7.0
 40
7.0
 40
7.0
 40
7.0
 10
102.810778782891
 20
-159.9892008063569
 30
0.0
 10
102.810778782891
 20
-159.9892008063569
 30
0.0
 10
102.5551526978855
 20
-159.9892008063569
 30
0.0
 10
102.5551526978855
 20
-159.9892008063569
 30
0.0
 10
102.5825412069932
 20
-159.6560600729332
 30
0.0
 10
102.7902804647538
 20
-159.0969210756771
 30
0.0
 10
103.2284966104776
 20
-158.5512179508136
 30
0.0
 10
103.2284966104776
 20
-158.5512179508136
 30
0.0
 10
102.3246758099223
 20
-158.5512179508136
 30
0.0
 10
102.3246758099223
 20
-158.5512179508136
 30
0.0
 10
102.3246758099223
 20
-158.5512179508136
 30
0.0
 10
102.3246758099223
 20
-158.32315262969
 30
0.0
 10
102.3246758099223
 20
-158.32315262969
 30
0.0
 10
102.3246758099223
 20
-158.32315262969
 30
0.0
 10
103.4841226954831
 20
-158.32315262969
 30
0.0
 10
103.4841226954831
 20
-158.32315262969
 30
0.0
 10
103.4841226954831
 20
-158.32315262969
 30
0.0
 10
103.4841226954831
 20
-158.5512179508136
 30
0.0
 10
103.4841226954831
 20
-158.5512179508136
 30
0.0
 10
103.1347900132788
 20
-158.8640326208742
 30
0.0
 10
102.8472967950347
 20
-159.5030978333881
 30
0.0
 10
102.810778782891
 20
-159.9892008063569
 30
0.0
  0
HATCH
  5
E0
330
DB
100
AcDbEntity
  8
レイヤー 1
 62
   250
420
  2299925
440
 33554687
100
AcDbHatch
 10
0.0
 20
0.0
 30
0.0
210
0.0
220
0.0
230
1.0
  2
SOLID
 70
     1
 71
     1
 91
        1
 92
        1
 93
        1
 72
     4
 94
        3
 73
     0
 74
     0
 95
       26
 96
       22
 40
0.0
 40
0.0
 40
0.0
 40
0.0
 40
1.0
 40
1.0
 40
1.0
 40
2.0
 40
2.0
 40
2.0
 40
3.0
 40
3.0
 40
3.0
 40
4.0
 40
4.0
 40
4.0
 40
5.0
 40
5.0
 40
5.0
 40
6.0
 40
6.0
 40
6.0
 40
7.0
 40
7.0
 40
7.0
 40
7.0
 10
102.810778782891
 20
-159.9892008063569
 10
102.810778782891
 20
-159.9892008063569
 10
102.5551526978855
 20
-159.9892008063569
 10
102.5551526978855
 20
-159.9892008063569
 10
102.5825412069932
 20
-159.6560600729332
 10
102.7902804647538
 20
-159.0969210756771
 10
103.2284966104776
 20
-158.5512179508136
 10
103.2284966104776
 20
-158.5512179508136
 10
102.3246758099223
 20
-158.5512179508136
 10
102.3246758099223
 20
-158.5512179508136
 10
102.3246758099223
 20
-158.5512179508136
 10
102.3246758099223
 20
-158.32315262969
 10
102.3246758099223
 20
-158.32315262969
 10
102.3246758099223
 20
-158.32315262969
 10
103.4841226954831
 20
-158.32315262969
 10
103.4841226954831
 20
-158.32315262969
 10
103.4841226954831
 20
-158.32315262969
 10
103.4841226954831
 20
-158.5512179508136
 10
103.4841226954831
 20
-158.5512179508136
 10
103.1347900132788
 20
-158.8640326208742
 10
102.8472967950347
 20
-159.5030978333881
 10
102.810778782891
 20
-159.9892008063569
 97
        0
 97
        1
330
DF
 75
     2
 76
     1
 98
        1
 10
0.0
 20
0.0
450
        0
451
        0
460
0.0
461
0.0
452
        0
462
0.0
453
        0
470

  0
ENDBLK
  5
DE
330
DB
100
AcDbEntity
  8
0
100
AcDbBlockEnd
  0
BLOCK
  5
E3
330
E1
100
AcDbEntity
  8
0
100
AcDbBlockBegin
  2
Block_14
 70
     0
 10
0.0
 20
0.0
 30
0.0
  3
Block_14
  1

  0
LINE
  5
E5
330
E1
100
AcDbEntity
  8
レイヤー 1
  6
AI-Linetype-0
 62
   154
420
    23468
370
    25
100
AcDbLine
 10
98.8071036779994
 20
-143.2074610484251
 30
0.0
 11
98.8071036779994
 21
-151.2076899448374
 31
0.0
  0
LINE
  5
E7
330
E1
100
AcDbEntity
  8
レイヤー 1
 62
   250
420
  2299925
370
     9
100
AcDbLine
 10
98.58386590480257
 20
-151.1774356137207
 30
0.0
 11
97.71776120467652
 21
-151.6776744898474
 31
0.0
  0
LINE
  5
E8
330
E1
100
AcDbEntity
  8
レイヤー 1
 62
   250
420
  2299925
370
     9
100
AcDbLine
 10
98.58386590480257
 20
-151.1774356137207
 30
0.0
 11
94.01636610064553
 21
-155.7453911879522
 31
0.0
  0
LINE
  5
E9
330
E1
100
AcDbEntity
  8
レイヤー 1
 62
   250
420
  2299925
370
     9
100
AcDbLine
 10
98.58386590480257
 20
-151.1774356137207
 30
0.0
 11
98.08362702867583
 21
-152.0435403138468
 31
0.0
  0
INSERT
  5
EB
330
E1
100
AcDbEntity
  8
レイヤー 1
100
AcDbBlockReference
  2
Block_15
 10
0.0
 20
0.0
 30
0.0
  0
ENDBLK
  5
E4
330
E1
100
AcDbEntity
  8
0
100
AcDbBlockEnd
  0
BLOCK
  5
EC
330
EA
100
AcDbEntity
  8
0
100
AcDbBlockBegin
  2
Block_15
 70
     0
 10
0.0
 20
0.0
 30
0.0
  3
Block_15
  1

  0
INSERT
  5
EF
330
EA
100
AcDbEntity
  8
レイヤー 1
100
AcDbBlockReference
  2
Block_16
 10
0.0
 20
0.0
 30
0.0
  0
ENDBLK
  5
ED
330
EA
100
AcDbEntity
  8
0
100
AcDbBlockEnd
  0
BLOCK
  5
F0
330
EE
100
AcDbEntity
  8
0
100
AcDbBlockBegin
  2
Block_16
 70
     0
 10
0.0
 20
0.0
 30
0.0
  3
Block_16
  1

  0
SPLINE
  5
F2
330
EE
100
AcDbEntity
  8
レイヤー 1
100
AcDbSpline
210
0.0
220
0.0
230
1.0
 70
     9
 71
     3
 72
    17
 73
    13
 74
     0
 42
0.0000000001
 43
0.0000000001
 40
0.0
 40
0.0
 40
0.0
 40
0.0
 40
1.0
 40
1.0
 40
1.0
 40
2.0
 40
2.0
 40
2.0
 40
3.0
 40
3.0
 40
3.0
 40
4.0
 40
4.0
 40
4.0
 40
4.0
 10
88.15585935296104
 20
-157.61311845018
 30
0.0
 10
88.13897838508331
 20
-157.6424017618047
 30
0.0
 10
88.08833548145015
 20
-157.7357638494549
 30
0.0
 10
88.07765568544587
 20
-157.7547118746238
 30
0.0
 10
88.26816946578018
 20
-157.8139675169701
 30
0.0
 10
88.28918454824021
 20
-157.8201686888436
 30
0.0
 10
88.36118704388193
 20
-157.8477294527256
 30
0.0
 10
88.41630857164593
 20
-157.7609130464973
 30
0.0
 10
88.43939071139709
 20
-157.6868434935644
 30
0.0
 10
88.45420462198367
 20
-157.61311845018
 30
0.0
 10
88.45420462198367
 20
-157.61311845018
 30
0.0
 10
88.15585935296104
 20
-157.61311845018
 30
0.0
 10
88.15585935296104
 20
-157.61311845018
 30
0.0
  0
SPLINE
  5
F3
330
EE
100
AcDbEntity
  8
レイヤー 1
100
AcDbSpline
210
0.0
220
0.0
230
1.0
 70
    11
 71
     3
 72
    20
 73
    16
 74
     0
 42
0.0000000001
 43
0.0000000001
 40
0.0
 40
0.0
 40
0.0
 40
0.0
 40
1.0
 40
1.0
 40
1.0
 40
2.0
 40
2.0
 40
2.0
 40
3.0
 40
3.0
 40
3.0
 40
4.0
 40
4.0
 40
4.0
 40
5.0
 40
5.0
 40
5.0
 40
5.0
 10
88.09246959603244
 20
-156.7625243748719
 30
0.0
 10
88.09246959603244
 20
-156.7625243748719
 30
0.0
 10
88.06077471756813
 20
-156.7625243748719
 30
0.0
 10
88.06077471756813
 20
-156.7625243748719
 30
0.0
 10
88.10728350661902
 20
-156.8620876343956
 30
0.0
 10
88.13897838508331
 20
-156.9423583592019
 30
0.0
 10
88.17274032083878
 20
-157.0691378730591
 30
0.0
 10
88.17274032083878
 20
-157.0691378730591
 30
0.0
 10
88.38013506905081
 20
-157.0691378730591
 30
0.0
 10
88.38013506905081
 20
-157.0691378730591
 30
0.0
 10
88.41182994751511
 20
-156.9761202949573
 30
0.0
 10
88.4352565968148
 20
-156.8917154555687
 30
0.0
 10
88.45833873656598
 20
-156.7625243748719
 30
0.0
 10
88.45833873656598
 20
-156.7625243748719
 30
0.0
 10
88.09246959603244
 20
-156.7625243748719
 30
0.0
 10
88.09246959603244
 20
-156.7625243748719
 30
0.0
  0
SPLINE
  5
F4
330
EE
100
AcDbEntity
  8
レイヤー 1
100
AcDbSpline
210
0.0
220
0.0
230
1.0
 70
     9
 71
     3
 72
   242
 73
   238
 74
     0
 42
0.0000000001
 43
0.0000000001
 40
0.0
 40
0.0
 40
0.0
 40
0.0
 40
1.0
 40
1.0
 40
1.0
 40
2.0
 40
2.0
 40
2.0
 40
3.0
 40
3.0
 40
3.0
 40
4.0
 40
4.0
 40
4.0
 40
5.0
 40
5.0
 40
5.0
 40
6.0
 40
6.0
 40
6.0
 40
7.0
 40
7.0
 40
7.0
 40
8.0
 40
8.0
 40
8.0
 40
9.0
 40
9.0
 40
9.0
 40
10.0
 40
10.0
 40
10.0
 40
11.0
 40
11.0
 40
11.0
 40
12.0
 40
12.0
 40
12.0
 40
13.0
 40
13.0
 40
13.0
 40
14.0
 40
14.0
 40
14.0
 40
15.0
 40
15.0
 40
15.0
 40
16.0
 40
16.0
 40
16.0
 40
17.0
 40
17.0
 40
17.0
 40
18.0
 40
18.0
 40
18.0
 40
19.0
 40
19.0
 40
19.0
 40
20.0
 40
20.0
 40
20.0
 40
21.0
 40
21.0
 40
21.0
 40
22.0
 40
22.0
 40
22.0
 40
23.0
 40
23.0
 40
23.0
 40
24.0
 40
24.0
 40
24.0
 40
25.0
 40
25.0
 40
25.0
 40
26.0
 40
26.0
 40
26.0
 40
27.0
 40
27.0
 40
27.0
 40
28.0
 40
28.0
 40
28.0
 40
29.0
 40
29.0
 40
29.0
 40
30.0
 40
30.0
 40
30.0
 40
31.0
 40
31.0
 40
31.0
 40
32.0
 40
32.0
 40
32.0
 40
33.0
 40
33.0
 40
33.0
 40
34.0
 40
34.0
 40
34.0
 40
35.0
 40
35.0
 40
35.0
 40
36.0
 40
36.0
 40
36.0
 40
37.0
 40
37.0
 40
37.0
 40
38.0
 40
38.0
 40
38.0
 40
39.0
 40
39.0
 40
39.0
 40
40.0
 40
40.0
 40
40.0
 40
41.0
 40
41.0
 40
41.0
 40
42.0
 40
42.0
 40
42.0
 40
43.0
 40
43.0
 40
43.0
 40
44.0
 40
44.0
 40
44.0
 40
45.0
 40
45.0
 40
45.0
 40
46.0
 40
46.0
 40
46.0
 40
47.0
 40
47.0
 40
47.0
 40
48.0
 40
48.0
 40
48.0
 40
49.0
 40
49.0
 40
49.0
 40
50.0
 40
50.0
 40
50.0
 40
51.0
 40
51.0
 40
51.0
 40
52.0
 40
52.0
 40
52.0
 40
53.0
 40
53.0
 40
53.0
 40
54.0
 40
54.0
 40
54.0
 40
55.0
 40
55.0
 40
55.0
 40
56.0
 40
56.0
 40
56.0
 40
57.0
 40
57.0
 40
57.0
 40
58.0
 40
58.0
 40
58.0
 40
59.0
 40
59.0
 40
59.0
 40
60.0
 40
60.0
 40
60.0
 40
61.0
 40
61.0
 40
61.0
 40
62.0
 40
62.0
 40
62.0
 40
63.0
 40
63.0
 40
63.0
 40
64.0
 40
64.0
 40
64.0
 40
65.0
 40
65.0
 40
65.0
 40
66.0
 40
66.0
 40
66.0
 40
67.0
 40
67.0
 40
67.0
 40
68.0
 40
68.0
 40
68.0
 40
69.0
 40
69.0
 40
69.0
 40
70.0
 40
70.0
 40
70.0
 40
71.0
 40
71.0
 40
71.0
 40
72.0
 40
72.0
 40
72.0
 40
73.0
 40
73.0
 40
73.0
 40
74.0
 40
74.0
 40
74.0
 40
75.0
 40
75.0
 40
75.0
 40
76.0
 40
76.0
 40
76.0
 40
77.0
 40
77.0
 40
77.0
 40
78.0
 40
78.0
 40
78.0
 40
79.0
 40
79.0
 40
79.0
 40
79.0
 10
88.72085501254202
 20
-157.2279567749291
 30
0.0
 10
88.72085501254202
 20
-157.2279567749291
 30
0.0
 10
88.4669514752791
 20
-157.2279567749291
 30
0.0
 10
88.4669514752791
 20
-157.2279567749291
 30
0.0
 10
88.4669514752791
 20
-157.2279567749291
 30
0.0
 10
88.18996579826501
 20
-157.2279567749291
 30
0.0
 10
88.18996579826501
 20
-157.2279567749291
 30
0.0
 10
88.18996579826501
 20
-157.2279567749291
 30
0.0
 10
88.3167453121222
 20
-157.2703314493977
 30
0.0
 10
88.3167453121222
 20
-157.2703314493977
 30
0.0
 10
88.32742510812648
 20
-157.27446556398
 30
0.0
 10
88.34017196142189
 20
-157.2806667358534
 30
0.0
 10
88.34017196142189
 20
-157.2934135891489
 30
0.0
 10
88.34017196142189
 20
-157.3147731811574
 30
0.0
 10
88.30813257340908
 20
-157.3209743530308
 30
0.0
 10
88.28711749094905
 20
-157.3251084676132
 30
0.0
 10
88.27643769494478
 20
-157.3485351169128
 30
0.0
 10
88.24680987377163
 20
-157.4139919311326
 30
0.0
 10
88.22786184860275
 20
-157.4584336628923
 30
0.0
 10
88.22786184860275
 20
-157.4584336628923
 30
0.0
 10
88.49864635374339
 20
-157.4584336628923
 30
0.0
 10
88.49864635374339
 20
-157.4584336628923
 30
0.0
 10
88.58959687455399
 20
-157.4584336628923
 30
0.0
 10
88.78631182676176
 20
-157.45429954831
 30
0.0
 10
88.92824976075406
 20
-157.4456868095969
 30
0.0
 10
88.92824976075406
 20
-157.4456868095969
 30
0.0
 10
88.92824976075406
 20
-157.6234537366358
 30
0.0
 10
88.92824976075406
 20
-157.6234537366358
 30
0.0
 10
88.84556746910806
 20
-157.6193196220535
 30
0.0
 10
88.82455238664803
 20
-157.6193196220535
 30
0.0
 10
88.64471840231798
 20
-157.6151855074712
 30
0.0
 10
88.6130235238537
 20
-157.7695257852104
 30
0.0
 10
88.56858179209396
 20
-157.8497965100167
 30
0.0
 10
88.52414006033425
 20
-157.9197319483673
 30
0.0
 10
88.64471840231798
 20
-157.9789875907136
 30
0.0
 10
88.75048283371517
 20
-158.0465114622245
 30
0.0
 10
88.85418020782118
 20
-158.1291937538705
 30
0.0
 10
88.85418020782118
 20
-158.1291937538705
 30
0.0
 10
88.73566892312858
 20
-158.2962808849051
 30
0.0
 10
88.73566892312858
 20
-158.2962808849051
 30
0.0
 10
88.71224227382889
 20
-158.2773328597362
 30
0.0
 10
88.69949542053346
 20
-158.2687201210231
 30
0.0
 10
88.58752981726285
 20
-158.1839707720859
 30
0.0
 10
88.53895397092081
 20
-158.1460747217482
 30
0.0
 10
88.47969832857453
 20
-158.1102457287016
 30
0.0
 10
88.39908309421968
 20
-158.0658039969419
 30
0.0
 10
88.18755423142533
 20
-158.2518391531453
 30
0.0
 10
87.98257105005296
 20
-158.2752658024451
 30
0.0
 10
87.69249401019493
 20
-158.3048936236182
 30
0.0
 10
87.69249401019493
 20
-158.3048936236182
 30
0.0
 10
87.58914114563744
 20
-158.1250596392882
 30
0.0
 10
87.58914114563744
 20
-158.1250596392882
 30
0.0
 10
87.90643443982895
 20
-158.1205810151574
 30
0.0
 10
88.08178980002816
 20
-158.095431818115
 30
0.0
 10
88.2340630204762
 20
-157.985188762587
 30
0.0
 10
88.11589624533214
 20
-157.9345458589538
 30
0.0
 10
88.0270127818127
 20
-157.9069850950718
 30
0.0
 10
87.99083927921756
 20
-157.8942382417764
 30
0.0
 10
87.97189125404869
 20
-157.9217990056584
 30
0.0
 10
87.95707734346212
 20
-157.9407470308273
 30
0.0
 10
87.92951657958012
 20
-157.9748534761313
 30
0.0
 10
87.92951657958012
 20
-157.9748534761313
 30
0.0
 10
87.73280162737234
 20
-157.8921711844853
 30
0.0
 10
87.73280162737234
 20
-157.8921711844853
 30
0.0
 10
87.81548391901836
 20
-157.811900459679
 30
0.0
 10
87.8768066186558
 20
-157.7164713147375
 30
0.0
 10
87.93365069416243
 20
-157.6151855074712
 30
0.0
 10
87.74348142337663
 20
-157.6193196220535
 30
0.0
 10
87.72212183136808
 20
-157.6193196220535
 30
0.0
 10
87.63978404927062
 20
-157.6234537366358
 30
0.0
 10
87.63978404927062
 20
-157.6234537366358
 30
0.0
 10
87.63978404927062
 20
-157.4456868095969
 30
0.0
 10
87.63978404927062
 20
-157.4456868095969
 30
0.0
 10
87.77931041642323
 20
-157.4522324910189
 30
0.0
 10
87.98877222192642
 20
-157.4563666056012
 30
0.0
 10
88.01426592851727
 20
-157.4563666056012
 30
0.0
 10
88.031146896395
 20
-157.4226046698457
 30
0.0
 10
88.08626842415899
 20
-157.302026327862
 30
0.0
 10
88.10521644932787
 20
-157.2279567749291
 30
0.0
 10
88.08626842415899
 20
-157.2279567749291
 30
0.0
 10
87.9085014971201
 20
-157.2341579468026
 30
0.0
 10
87.71385360220348
 20
-157.246904800098
 30
0.0
 10
87.71385360220348
 20
-157.246904800098
 30
0.0
 10
87.71385360220348
 20
-157.3802299953771
 30
0.0
 10
87.71385360220348
 20
-157.3802299953771
 30
0.0
 10
87.66527775586146
 20
-157.405723701968
 30
0.0
 10
87.60602211351516
 20
-157.4374185804323
 30
0.0
 10
87.472696918236
 20
-157.5028753946521
 30
0.0
 10
87.472696918236
 20
-157.5028753946521
 30
0.0
 10
87.472696918236
 20
-157.6489474432266
 30
0.0
 10
87.472696918236
 20
-157.6489474432266
 30
0.0
 10
87.472696918236
 20
-157.6489474432266
 30
0.0
 10
87.472696918236
 20
-158.116446900575
 30
0.0
 10
87.472696918236
 20
-158.116446900575
 30
0.0
 10
87.472696918236
 20
-158.2432264144322
 30
0.0
 10
87.43652341564088
 20
-158.3024820567785
 30
0.0
 10
87.15333656675333
 20
-158.2942138276139
 30
0.0
 10
87.15333656675333
 20
-158.2942138276139
 30
0.0
 10
87.04963919264733
 20
-158.0868190794019
 30
0.0
 10
87.04963919264733
 20
-158.0868190794019
 30
0.0
 10
87.11302894957592
 20
-158.0995659326973
 30
0.0
 10
87.16160479591794
 20
-158.1037000472796
 30
0.0
 10
87.20191241309535
 20
-158.1037000472796
 30
0.0
 10
87.27804902331937
 20
-158.1037000472796
 30
0.0
 10
87.28872881932366
 20
-158.0806179075285
 30
0.0
 10
87.28872881932366
 20
-158.0148165837602
 30
0.0
 10
87.28872881932366
 20
-158.0148165837602
 30
0.0
 10
87.28872881932366
 20
-157.585557686298
 30
0.0
 10
87.28872881932366
 20
-157.585557686298
 30
0.0
 10
87.19123261709109
 20
-157.6255207939269
 30
0.0
 10
87.17435164921337
 20
-157.6320664753489
 30
0.0
 10
87.12784286016249
 20
-157.6510145005178
 30
0.0
 10
87.12370874558018
 20
-157.6720295829778
 30
0.0
 10
87.11923012144936
 20
-157.701657404151
 30
0.0
 10
87.10028209628049
 20
-157.701657404151
 30
0.0
 10
87.09201386711589
 20
-157.701657404151
 30
0.0
 10
87.0813340711116
 20
-157.6975232895687
 30
0.0
 10
87.07478838968965
 20
-157.6744411498175
 30
0.0
 10
87.07478838968965
 20
-157.6744411498175
 30
0.0
 10
87.0220784287653
 20
-157.481860312192
 30
0.0
 10
87.0220784287653
 20
-157.481860312192
 30
0.0
 10
87.16815047733991
 20
-157.4353515231412
 30
0.0
 10
87.23360729155967
 20
-157.4119248738414
 30
0.0
 10
87.28872881932366
 20
-157.3909097913814
 30
0.0
 10
87.28872881932366
 20
-157.3909097913814
 30
0.0
 10
87.28872881932366
 20
-156.9781873522485
 30
0.0
 10
87.28872881932366
 20
-156.9781873522485
 30
0.0
 10
87.28872881932366
 20
-156.9781873522485
 30
0.0
 10
87.23567434885081
 20
-156.9781873522485
 30
0.0
 10
87.23567434885081
 20
-156.9781873522485
 30
0.0
 10
87.23567434885081
 20
-156.9781873522485
 30
0.0
 10
87.15747068133564
 20
-156.9781873522485
 30
0.0
 10
87.15747068133564
 20
-156.9781873522485
 30
0.0
 10
87.08960230027621
 20
-156.9781873522485
 30
0.0
 10
87.0813340711116
 20
-156.9781873522485
 30
0.0
 10
87.0451605685165
 20
-156.9847330336705
 30
0.0
 10
87.0451605685165
 20
-156.9847330336705
 30
0.0
 10
87.0451605685165
 20
-156.7900851387538
 30
0.0
 10
87.0451605685165
 20
-156.7900851387538
 30
0.0
 10
87.07272133239849
 20
-156.7962863106273
 30
0.0
 10
87.0813340711116
 20
-156.7962863106273
 30
0.0
 10
87.15092499991365
 20
-156.7962863106273
 30
0.0
 10
87.15092499991365
 20
-156.7962863106273
 30
0.0
 10
87.28425019519283
 20
-156.7962863106273
 30
0.0
 10
87.28425019519283
 20
-156.7962863106273
 30
0.0
 10
87.28425019519283
 20
-156.7266953818252
 30
0.0
 10
87.28425019519283
 20
-156.6440130901793
 30
0.0
 10
87.28218313790168
 20
-156.639878975597
 30
0.0
 10
87.27391490873708
 20
-156.4600449912669
 30
0.0
 10
87.27391490873708
 20
-156.441096966098
 30
0.0
 10
87.2715033418974
 20
-156.3945881770472
 30
0.0
 10
87.2715033418974
 20
-156.3945881770472
 30
0.0
 10
87.48751082882256
 20
-156.4028564062118
 30
0.0
 10
87.48751082882256
 20
-156.4028564062118
 30
0.0
 10
87.49819062482684
 20
-156.4028564062118
 30
0.0
 10
87.51920570728687
 20
-156.4049234635029
 30
0.0
 10
87.51920570728687
 20
-156.4218044313806
 30
0.0
 10
87.51920570728687
 20
-156.441096966098
 30
0.0
 10
87.5043917967003
 20
-156.4514322525538
 30
0.0
 10
87.47889809010944
 20
-156.4707247872712
 30
0.0
 10
87.47889809010944
 20
-156.5213676909044
 30
0.0
 10
87.472696918236
 20
-156.7497775215764
 30
0.0
 10
87.47476397552714
 20
-156.7962863106273
 30
0.0
 10
87.60395505622401
 20
-156.7962863106273
 30
0.0
 10
87.61635739997091
 20
-156.7962863106273
 30
0.0
 10
87.71385360220348
 20
-156.7880180814627
 30
0.0
 10
87.71385360220348
 20
-156.7880180814627
 30
0.0
 10
87.71385360220348
 20
-156.9826659763793
 30
0.0
 10
87.71385360220348
 20
-156.9826659763793
 30
0.0
 10
87.67561304231721
 20
-156.9802544095396
 30
0.0
 10
87.6080891708063
 20
-156.9761202949573
 30
0.0
 10
87.472696918236
 20
-156.9781873522485
 30
0.0
 10
87.472696918236
 20
-156.9781873522485
 30
0.0
 10
87.472696918236
 20
-157.3168402384486
 30
0.0
 10
87.472696918236
 20
-157.3168402384486
 30
0.0
 10
87.52781844599999
 20
-157.2934135891489
 30
0.0
 10
87.59327526021975
 20
-157.2658528252669
 30
0.0
 10
87.64185110656177
 20
-157.2427706855157
 30
0.0
 10
87.64185110656177
 20
-157.2427706855157
 30
0.0
 10
87.64185110656177
 20
-157.0650037584768
 30
0.0
 10
87.64185110656177
 20
-157.0650037584768
 30
0.0
 10
87.75622827667206
 20
-157.0777506117722
 30
0.0
 10
87.87473956136464
 20
-157.0777506117722
 30
0.0
 10
87.99083927921756
 20
-157.0777506117722
 30
0.0
 10
87.9677571394664
 20
-156.9826659763793
 30
0.0
 10
87.9401963755844
 20
-156.8999836847333
 30
0.0
 10
87.8768066186558
 20
-156.7666584894542
 30
0.0
 10
87.83236488689608
 20
-156.7687255467453
 30
0.0
 10
87.74968259525008
 20
-156.7732041708761
 30
0.0
 10
87.71178654491233
 20
-156.7752712281673
 30
0.0
 10
87.71178654491233
 20
-156.7752712281673
 30
0.0
 10
87.71178654491233
 20
-156.5954372438372
 30
0.0
 10
87.71178654491233
 20
-156.5954372438372
 30
0.0
 10
87.83649900147837
 20
-156.6037054730018
 30
0.0
 10
88.01013181393498
 20
-156.6081840971327
 30
0.0
 10
88.09246959603244
 20
-156.6081840971327
 30
0.0
 10
88.09246959603244
 20
-156.6081840971327
 30
0.0
 10
88.17515188767844
 20
-156.6081840971327
 30
0.0
 10
88.17515188767844
 20
-156.6081840971327
 30
0.0
 10
88.17515188767844
 20
-156.4452310806804
 30
0.0
 10
88.17515188767844
 20
-156.4345512846761
 30
0.0
 10
88.17274032083878
 20
-156.3797742664606
 30
0.0
 10
88.17274032083878
 20
-156.3797742664606
 30
0.0
 10
88.39701603692853
 20
-156.4049234635029
 30
0.0
 10
88.39701603692853
 20
-156.4049234635029
 30
0.0
 10
88.40149466105934
 20
-156.4049234635029
 30
0.0
 10
88.42250974351937
 20
-156.4069905207941
 30
0.0
 10
88.42250974351937
 20
-156.4238714886718
 30
0.0
 10
88.42250974351937
 20
-156.4386853992584
 30
0.0
 10
88.41182994751511
 20
-156.4472981379715
 30
0.0
 10
88.3842691836331
 20
-156.4621120485581
 30
0.0
 10
88.37806801175965
 20
-156.5275688627778
 30
0.0
 10
88.3760009544685
 20
-156.5489284547864
 30
0.0
 10
88.3760009544685
 20
-156.6081840971327
 30
0.0
 10
88.3760009544685
 20
-156.6081840971327
 30
0.0
 10
88.47108558986141
 20
-156.6081840971327
 30
0.0
 10
88.47108558986141
 20
-156.6081840971327
 30
0.0
 10
88.5537678815074
 20
-156.6081840971327
 30
0.0
 10
88.72705618441546
 20
-156.6037054730018
 30
0.0
 10
88.85211315053004
 20
-156.5954372438372
 30
0.0
 10
88.85211315053004
 20
-156.5954372438372
 30
0.0
 10
88.85211315053004
 20
-156.7752712281673
 30
0.0
 10
88.85211315053004
 20
-156.7752712281673
 30
0.0
 10
88.82248532935689
 20
-156.7732041708761
 30
0.0
 10
88.70397404466428
 20
-156.7687255467453
 30
0.0
 10
88.66366642748685
 20
-156.7666584894542
 30
0.0
 10
88.64885251690029
 20
-156.8176459026358
 30
0.0
 10
88.61509058114483
 20
-156.9296115059065
 30
0.0
 10
88.54928925737658
 20
-157.0691378730591
 30
0.0
 10
88.59166393184514
 20
-157.0691378730591
 30
0.0
 10
88.86899411840776
 20
-157.0501898478902
 30
0.0
 10
88.9303168180452
 20
-157.048122790599
 30
0.0
 10
88.9303168180452
 20
-157.048122790599
 30
0.0
 10
88.9303168180452
 20
-157.2320908895114
 30
0.0
 10
88.9303168180452
 20
-157.2320908895114
 30
0.0
 10
88.90068899687205
 20
-157.2320908895114
 30
0.0
 10
88.88380802899431
 20
-157.2279567749291
 30
0.0
 10
88.72085501254202
 20
-157.2279567749291
 30
0.0
  0
HATCH
  5
F5
330
EE
100
AcDbEntity
  8
レイヤー 1
 62
   250
420
  2299925
440
 33554687
100
AcDbHatch
 10
0.0
 20
0.0
 30
0.0
210
0.0
220
0.0
230
1.0
  2
SOLID
 70
     1
 71
     1
 91
        3
 92
        1
 93
        1
 72
     4
 94
        3
 73
     0
 74
     0
 95
       17
 96
       13
 40
0.0
 40
0.0
 40
0.0
 40
0.0
 40
1.0
 40
1.0
 40
1.0
 40
2.0
 40
2.0
 40
2.0
 40
3.0
 40
3.0
 40
3.0
 40
4.0
 40
4.0
 40
4.0
 40
4.0
 10
88.15585935296104
 20
-157.61311845018
 10
88.13897838508331
 20
-157.6424017618047
 10
88.08833548145015
 20
-157.7357638494549
 10
88.07765568544587
 20
-157.7547118746238
 10
88.26816946578018
 20
-157.8139675169701
 10
88.28918454824021
 20
-157.8201686888436
 10
88.36118704388193
 20
-157.8477294527256
 10
88.41630857164593
 20
-157.7609130464973
 10
88.43939071139709
 20
-157.6868434935644
 10
88.45420462198367
 20
-157.61311845018
 10
88.45420462198367
 20
-157.61311845018
 10
88.15585935296104
 20
-157.61311845018
 10
88.15585935296104
 20
-157.61311845018
 97
        0
 97
        1
330
F2
 92
        1
 93
        1
 72
     4
 94
        3
 73
     0
 74
     0
 95
       20
 96
       16
 40
0.0
 40
0.0
 40
0.0
 40
0.0
 40
1.0
 40
1.0
 40
1.0
 40
2.0
 40
2.0
 40
2.0
 40
3.0
 40
3.0
 40
3.0
 40
4.0
 40
4.0
 40
4.0
 40
5.0
 40
5.0
 40
5.0
 40
5.0
 10
88.09246959603244
 20
-156.7625243748719
 10
88.09246959603244
 20
-156.7625243748719
 10
88.06077471756813
 20
-156.7625243748719
 10
88.06077471756813
 20
-156.7625243748719
 10
88.10728350661902
 20
-156.8620876343956
 10
88.13897838508331
 20
-156.9423583592019
 10
88.17274032083878
 20
-157.0691378730591
 10
88.17274032083878
 20
-157.0691378730591
 10
88.38013506905081
 20
-157.0691378730591
 10
88.38013506905081
 20
-157.0691378730591
 10
88.41182994751511
 20
-156.9761202949573
 10
88.4352565968148
 20
-156.8917154555687
 10
88.45833873656598
 20
-156.7625243748719
 10
88.45833873656598
 20
-156.7625243748719
 10
88.09246959603244
 20
-156.7625243748719
 10
88.09246959603244
 20
-156.7625243748719
 97
        0
 97
        1
330
F3
 92
        1
 93
        1
 72
     4
 94
        3
 73
     0
 74
     0
 95
      242
 96
      238
 40
0.0
 40
0.0
 40
0.0
 40
0.0
 40
1.0
 40
1.0
 40
1.0
 40
2.0
 40
2.0
 40
2.0
 40
3.0
 40
3.0
 40
3.0
 40
4.0
 40
4.0
 40
4.0
 40
5.0
 40
5.0
 40
5.0
 40
6.0
 40
6.0
 40
6.0
 40
7.0
 40
7.0
 40
7.0
 40
8.0
 40
8.0
 40
8.0
 40
9.0
 40
9.0
 40
9.0
 40
10.0
 40
10.0
 40
10.0
 40
11.0
 40
11.0
 40
11.0
 40
12.0
 40
12.0
 40
12.0
 40
13.0
 40
13.0
 40
13.0
 40
14.0
 40
14.0
 40
14.0
 40
15.0
 40
15.0
 40
15.0
 40
16.0
 40
16.0
 40
16.0
 40
17.0
 40
17.0
 40
17.0
 40
18.0
 40
18.0
 40
18.0
 40
19.0
 40
19.0
 40
19.0
 40
20.0
 40
20.0
 40
20.0
 40
21.0
 40
21.0
 40
21.0
 40
22.0
 40
22.0
 40
22.0
 40
23.0
 40
23.0
 40
23.0
 40
24.0
 40
24.0
 40
24.0
 40
25.0
 40
25.0
 40
25.0
 40
26.0
 40
26.0
 40
26.0
 40
27.0
 40
27.0
 40
27.0
 40
28.0
 40
28.0
 40
28.0
 40
29.0
 40
29.0
 40
29.0
 40
30.0
 40
30.0
 40
30.0
 40
31.0
 40
31.0
 40
31.0
 40
32.0
 40
32.0
 40
32.0
 40
33.0
 40
33.0
 40
33.0
 40
34.0
 40
34.0
 40
34.0
 40
35.0
 40
35.0
 40
35.0
 40
36.0
 40
36.0
 40
36.0
 40
37.0
 40
37.0
 40
37.0
 40
38.0
 40
38.0
 40
38.0
 40
39.0
 40
39.0
 40
39.0
 40
40.0
 40
40.0
 40
40.0
 40
41.0
 40
41.0
 40
41.0
 40
42.0
 40
42.0
 40
42.0
 40
43.0
 40
43.0
 40
43.0
 40
44.0
 40
44.0
 40
44.0
 40
45.0
 40
45.0
 40
45.0
 40
46.0
 40
46.0
 40
46.0
 40
47.0
 40
47.0
 40
47.0
 40
48.0
 40
48.0
 40
48.0
 40
49.0
 40
49.0
 40
49.0
 40
50.0
 40
50.0
 40
50.0
 40
51.0
 40
51.0
 40
51.0
 40
52.0
 40
52.0
 40
52.0
 40
53.0
 40
53.0
 40
53.0
 40
54.0
 40
54.0
 40
54.0
 40
55.0
 40
55.0
 40
55.0
 40
56.0
 40
56.0
 40
56.0
 40
57.0
 40
57.0
 40
57.0
 40
58.0
 40
58.0
 40
58.0
 40
59.0
 40
59.0
 40
59.0
 40
60.0
 40
60.0
 40
60.0
 40
61.0
 40
61.0
 40
61.0
 40
62.0
 40
62.0
 40
62.0
 40
63.0
 40
63.0
 40
63.0
 40
64.0
 40
64.0
 40
64.0
 40
65.0
 40
65.0
 40
65.0
 40
66.0
 40
66.0
 40
66.0
 40
67.0
 40
67.0
 40
67.0
 40
68.0
 40
68.0
 40
68.0
 40
69.0
 40
69.0
 40
69.0
 40
70.0
 40
70.0
 40
70.0
 40
71.0
 40
71.0
 40
71.0
 40
72.0
 40
72.0
 40
72.0
 40
73.0
 40
73.0
 40
73.0
 40
74.0
 40
74.0
 40
74.0
 40
75.0
 40
75.0
 40
75.0
 40
76.0
 40
76.0
 40
76.0
 40
77.0
 40
77.0
 40
77.0
 40
78.0
 40
78.0
 40
78.0
 40
79.0
 40
79.0
 40
79.0
 40
79.0
 10
88.72085501254202
 20
-157.2279567749291
 10
88.72085501254202
 20
-157.2279567749291
 10
88.4669514752791
 20
-157.2279567749291
 10
88.4669514752791
 20
-157.2279567749291
 10
88.4669514752791
 20
-157.2279567749291
 10
88.18996579826501
 20
-157.2279567749291
 10
88.18996579826501
 20
-157.2279567749291
 10
88.18996579826501
 20
-157.2279567749291
 10
88.3167453121222
 20
-157.2703314493977
 10
88.3167453121222
 20
-157.2703314493977
 10
88.32742510812648
 20
-157.27446556398
 10
88.34017196142189
 20
-157.2806667358534
 10
88.34017196142189
 20
-157.2934135891489
 10
88.34017196142189
 20
-157.3147731811574
 10
88.30813257340908
 20
-157.3209743530308
 10
88.28711749094905
 20
-157.3251084676132
 10
88.27643769494478
 20
-157.3485351169128
 10
88.24680987377163
 20
-157.4139919311326
 10
88.22786184860275
 20
-157.4584336628923
 10
88.22786184860275
 20
-157.4584336628923
 10
88.49864635374339
 20
-157.4584336628923
 10
88.49864635374339
 20
-157.4584336628923
 10
88.58959687455399
 20
-157.4584336628923
 10
88.78631182676176
 20
-157.45429954831
 10
88.92824976075406
 20
-157.4456868095969
 10
88.92824976075406
 20
-157.4456868095969
 10
88.92824976075406
 20
-157.6234537366358
 10
88.92824976075406
 20
-157.6234537366358
 10
88.84556746910806
 20
-157.6193196220535
 10
88.82455238664803
 20
-157.6193196220535
 10
88.64471840231798
 20
-157.6151855074712
 10
88.6130235238537
 20
-157.7695257852104
 10
88.56858179209396
 20
-157.8497965100167
 10
88.52414006033425
 20
-157.9197319483673
 10
88.64471840231798
 20
-157.9789875907136
 10
88.75048283371517
 20
-158.0465114622245
 10
88.85418020782118
 20
-158.1291937538705
 10
88.85418020782118
 20
-158.1291937538705
 10
88.73566892312858
 20
-158.2962808849051
 10
88.73566892312858
 20
-158.2962808849051
 10
88.71224227382889
 20
-158.2773328597362
 10
88.69949542053346
 20
-158.2687201210231
 10
88.58752981726285
 20
-158.1839707720859
 10
88.53895397092081
 20
-158.1460747217482
 10
88.47969832857453
 20
-158.1102457287016
 10
88.39908309421968
 20
-158.0658039969419
 10
88.18755423142533
 20
-158.2518391531453
 10
87.98257105005296
 20
-158.2752658024451
 10
87.69249401019493
 20
-158.3048936236182
 10
87.69249401019493
 20
-158.3048936236182
 10
87.58914114563744
 20
-158.1250596392882
 10
87.58914114563744
 20
-158.1250596392882
 10
87.90643443982895
 20
-158.1205810151574
 10
88.08178980002816
 20
-158.095431818115
 10
88.2340630204762
 20
-157.985188762587
 10
88.11589624533214
 20
-157.9345458589538
 10
88.0270127818127
 20
-157.9069850950718
 10
87.99083927921756
 20
-157.8942382417764
 10
87.97189125404869
 20
-157.9217990056584
 10
87.95707734346212
 20
-157.9407470308273
 10
87.92951657958012
 20
-157.9748534761313
 10
87.92951657958012
 20
-157.9748534761313
 10
87.73280162737234
 20
-157.8921711844853
 10
87.73280162737234
 20
-157.8921711844853
 10
87.81548391901836
 20
-157.811900459679
 10
87.8768066186558
 20
-157.7164713147375
 10
87.93365069416243
 20
-157.6151855074712
 10
87.74348142337663
 20
-157.6193196220535
 10
87.72212183136808
 20
-157.6193196220535
 10
87.63978404927062
 20
-157.6234537366358
 10
87.63978404927062
 20
-157.6234537366358
 10
87.63978404927062
 20
-157.4456868095969
 10
87.63978404927062
 20
-157.4456868095969
 10
87.77931041642323
 20
-157.4522324910189
 10
87.98877222192642
 20
-157.4563666056012
 10
88.01426592851727
 20
-157.4563666056012
 10
88.031146896395
 20
-157.4226046698457
 10
88.08626842415899
 20
-157.302026327862
 10
88.10521644932787
 20
-157.2279567749291
 10
88.08626842415899
 20
-157.2279567749291
 10
87.9085014971201
 20
-157.2341579468026
 10
87.71385360220348
 20
-157.246904800098
 10
87.71385360220348
 20
-157.246904800098
 10
87.71385360220348
 20
-157.3802299953771
 10
87.71385360220348
 20
-157.3802299953771
 10
87.66527775586146
 20
-157.405723701968
 10
87.60602211351516
 20
-157.4374185804323
 10
87.472696918236
 20
-157.5028753946521
 10
87.472696918236
 20
-157.5028753946521
 10
87.472696918236
 20
-157.6489474432266
 10
87.472696918236
 20
-157.6489474432266
 10
87.472696918236
 20
-157.6489474432266
 10
87.472696918236
 20
-158.116446900575
 10
87.472696918236
 20
-158.116446900575
 10
87.472696918236
 20
-158.2432264144322
 10
87.43652341564088
 20
-158.3024820567785
 10
87.15333656675333
 20
-158.2942138276139
 10
87.15333656675333
 20
-158.2942138276139
 10
87.04963919264733
 20
-158.0868190794019
 10
87.04963919264733
 20
-158.0868190794019
 10
87.11302894957592
 20
-158.0995659326973
 10
87.16160479591794
 20
-158.1037000472796
 10
87.20191241309535
 20
-158.1037000472796
 10
87.27804902331937
 20
-158.1037000472796
 10
87.28872881932366
 20
-158.0806179075285
 10
87.28872881932366
 20
-158.0148165837602
 10
87.28872881932366
 20
-158.0148165837602
 10
87.28872881932366
 20
-157.585557686298
 10
87.28872881932366
 20
-157.585557686298
 10
87.19123261709109
 20
-157.6255207939269
 10
87.17435164921337
 20
-157.6320664753489
 10
87.12784286016249
 20
-157.6510145005178
 10
87.12370874558018
 20
-157.6720295829778
 10
87.11923012144936
 20
-157.701657404151
 10
87.10028209628049
 20
-157.701657404151
 10
87.09201386711589
 20
-157.701657404151
 10
87.0813340711116
 20
-157.6975232895687
 10
87.07478838968965
 20
-157.6744411498175
 10
87.07478838968965
 20
-157.6744411498175
 10
87.0220784287653
 20
-157.481860312192
 10
87.0220784287653
 20
-157.481860312192
 10
87.16815047733991
 20
-157.4353515231412
 10
87.23360729155967
 20
-157.4119248738414
 10
87.28872881932366
 20
-157.3909097913814
 10
87.28872881932366
 20
-157.3909097913814
 10
87.28872881932366
 20
-156.9781873522485
 10
87.28872881932366
 20
-156.9781873522485
 10
87.28872881932366
 20
-156.9781873522485
 10
87.23567434885081
 20
-156.9781873522485
 10
87.23567434885081
 20
-156.9781873522485
 10
87.23567434885081
 20
-156.9781873522485
 10
87.15747068133564
 20
-156.9781873522485
 10
87.15747068133564
 20
-156.9781873522485
 10
87.08960230027621
 20
-156.9781873522485
 10
87.0813340711116
 20
-156.9781873522485
 10
87.0451605685165
 20
-156.9847330336705
 10
87.0451605685165
 20
-156.9847330336705
 10
87.0451605685165
 20
-156.7900851387538
 10
87.0451605685165
 20
-156.7900851387538
 10
87.07272133239849
 20
-156.7962863106273
 10
87.0813340711116
 20
-156.7962863106273
 10
87.15092499991365
 20
-156.7962863106273
 10
87.15092499991365
 20
-156.7962863106273
 10
87.28425019519283
 20
-156.7962863106273
 10
87.28425019519283
 20
-156.7962863106273
 10
87.28425019519283
 20
-156.7266953818252
 10
87.28425019519283
 20
-156.6440130901793
 10
87.28218313790168
 20
-156.639878975597
 10
87.27391490873708
 20
-156.4600449912669
 10
87.27391490873708
 20
-156.441096966098
 10
87.2715033418974
 20
-156.3945881770472
 10
87.2715033418974
 20
-156.3945881770472
 10
87.48751082882256
 20
-156.4028564062118
 10
87.48751082882256
 20
-156.4028564062118
 10
87.49819062482684
 20
-156.4028564062118
 10
87.51920570728687
 20
-156.4049234635029
 10
87.51920570728687
 20
-156.4218044313806
 10
87.51920570728687
 20
-156.441096966098
 10
87.5043917967003
 20
-156.4514322525538
 10
87.47889809010944
 20
-156.4707247872712
 10
87.47889809010944
 20
-156.5213676909044
 10
87.472696918236
 20
-156.7497775215764
 10
87.47476397552714
 20
-156.7962863106273
 10
87.60395505622401
 20
-156.7962863106273
 10
87.61635739997091
 20
-156.7962863106273
 10
87.71385360220348
 20
-156.7880180814627
 10
87.71385360220348
 20
-156.7880180814627
 10
87.71385360220348
 20
-156.9826659763793
 10
87.71385360220348
 20
-156.9826659763793
 10
87.67561304231721
 20
-156.9802544095396
 10
87.6080891708063
 20
-156.9761202949573
 10
87.472696918236
 20
-156.9781873522485
 10
87.472696918236
 20
-156.9781873522485
 10
87.472696918236
 20
-157.3168402384486
 10
87.472696918236
 20
-157.3168402384486
 10
87.52781844599999
 20
-157.2934135891489
 10
87.59327526021975
 20
-157.2658528252669
 10
87.64185110656177
 20
-157.2427706855157
 10
87.64185110656177
 20
-157.2427706855157
 10
87.64185110656177
 20
-157.0650037584768
 10
87.64185110656177
 20
-157.0650037584768
 10
87.75622827667206
 20
-157.0777506117722
 10
87.87473956136464
 20
-157.0777506117722
 10
87.99083927921756
 20
-157.0777506117722
 10
87.9677571394664
 20
-156.9826659763793
 10
87.9401963755844
 20
-156.8999836847333
 10
87.8768066186558
 20
-156.7666584894542
 10
87.83236488689608
 20
-156.7687255467453
 10
87.74968259525008
 20
-156.7732041708761
 10
87.71178654491233
 20
-156.7752712281673
 10
87.71178654491233
 20
-156.7752712281673
 10
87.71178654491233
 20
-156.5954372438372
 10
87.71178654491233
 20
-156.5954372438372
 10
87.83649900147837
 20
-156.6037054730018
 10
88.01013181393498
 20
-156.6081840971327
 10
88.09246959603244
 20
-156.6081840971327
 10
88.09246959603244
 20
-156.6081840971327
 10
88.17515188767844
 20
-156.6081840971327
 10
88.17515188767844
 20
-156.6081840971327
 10
88.17515188767844
 20
-156.4452310806804
 10
88.17515188767844
 20
-156.4345512846761
 10
88.17274032083878
 20
-156.3797742664606
 10
88.17274032083878
 20
-156.3797742664606
 10
88.39701603692853
 20
-156.4049234635029
 10
88.39701603692853
 20
-156.4049234635029
 10
88.40149466105934
 20
-156.4049234635029
 10
88.42250974351937
 20
-156.4069905207941
 10
88.42250974351937
 20
-156.4238714886718
 10
88.42250974351937
 20
-156.4386853992584
 10
88.41182994751511
 20
-156.4472981379715
 10
88.3842691836331
 20
-156.4621120485581
 10
88.37806801175965
 20
-156.5275688627778
 10
88.3760009544685
 20
-156.5489284547864
 10
88.3760009544685
 20
-156.6081840971327
 10
88.3760009544685
 20
-156.6081840971327
 10
88.47108558986141
 20
-156.6081840971327
 10
88.47108558986141
 20
-156.6081840971327
 10
88.5537678815074
 20
-156.6081840971327
 10
88.72705618441546
 20
-156.6037054730018
 10
88.85211315053004
 20
-156.5954372438372
 10
88.85211315053004
 20
-156.5954372438372
 10
88.85211315053004
 20
-156.7752712281673
 10
88.85211315053004
 20
-156.7752712281673
 10
88.82248532935689
 20
-156.7732041708761
 10
88.70397404466428
 20
-156.7687255467453
 10
88.66366642748685
 20
-156.7666584894542
 10
88.64885251690029
 20
-156.8176459026358
 10
88.61509058114483
 20
-156.9296115059065
 10
88.54928925737658
 20
-157.0691378730591
 10
88.59166393184514
 20
-157.0691378730591
 10
88.86899411840776
 20
-157.0501898478902
 10
88.9303168180452
 20
-157.048122790599
 10
88.9303168180452
 20
-157.048122790599
 10
88.9303168180452
 20
-157.2320908895114
 10
88.9303168180452
 20
-157.2320908895114
 10
88.90068899687205
 20
-157.2320908895114
 10
88.88380802899431
 20
-157.2279567749291
 10
88.72085501254202
 20
-157.2279567749291
 97
        0
 97
        1
330
F4
 75
     2
 76
     1
 98
        1
 10
0.0
 20
0.0
450
        0
451
        0
460
0.0
461
0.0
452
        0
462
0.0
453
        0
470

  0
SPLINE
  5
F6
330
EE
100
AcDbEntity
  8
レイヤー 1
100
AcDbSpline
210
0.0
220
0.0
230
1.0
 70
    11
 71
     3
 72
    17
 73
    13
 74
     0
 42
0.0000000001
 43
0.0000000001
 40
0.0
 40
0.0
 40
0.0
 40
0.0
 40
1.0
 40
1.0
 40
1.0
 40
2.0
 40
2.0
 40
2.0
 40
3.0
 40
3.0
 40
3.0
 40
4.0
 40
4.0
 40
4.0
 40
4.0
 10
90.57741696954314
 20
-158.0275634370556
 30
0.0
 10
90.57741696954314
 20
-158.0275634370556
 30
0.0
 10
89.87082788551841
 20
-158.0275634370556
 30
0.0
 10
89.87082788551841
 20
-158.0275634370556
 30
0.0
 10
89.87082788551841
 20
-158.0275634370556
 30
0.0
 10
89.87082788551841
 20
-158.1419406071659
 30
0.0
 10
89.87082788551841
 20
-158.1419406071659
 30
0.0
 10
89.87082788551841
 20
-158.1419406071659
 30
0.0
 10
90.57741696954314
 20
-158.1419406071659
 30
0.0
 10
90.57741696954314
 20
-158.1419406071659
 30
0.0
 10
90.57741696954314
 20
-158.1419406071659
 30
0.0
 10
90.57741696954314
 20
-158.0275634370556
 30
0.0
 10
90.57741696954314
 20
-158.0275634370556
 30
0.0
  0
SPLINE
  5
F7
330
EE
100
AcDbEntity
  8
レイヤー 1
100
AcDbSpline
210
0.0
220
0.0
230
1.0
 70
    11
 71
     3
 72
    17
 73
    13
 74
     0
 42
0.0000000001
 43
0.0000000001
 40
0.0
 40
0.0
 40
0.0
 40
0.0
 40
1.0
 40
1.0
 40
1.0
 40
2.0
 40
2.0
 40
2.0
 40
3.0
 40
3.0
 40
3.0
 40
4.0
 40
4.0
 40
4.0
 40
4.0
 10
90.57741696954314
 20
-157.7843396957969
 30
0.0
 10
90.57741696954314
 20
-157.7843396957969
 30
0.0
 10
89.87082788551841
 20
-157.7843396957969
 30
0.0
 10
89.87082788551841
 20
-157.7843396957969
 30
0.0
 10
89.87082788551841
 20
-157.7843396957969
 30
0.0
 10
89.87082788551841
 20
-157.8987168659072
 30
0.0
 10
89.87082788551841
 20
-157.8987168659072
 30
0.0
 10
89.87082788551841
 20
-157.8987168659072
 30
0.0
 10
90.57741696954314
 20
-157.8987168659072
 30
0.0
 10
90.57741696954314
 20
-157.8987168659072
 30
0.0
 10
90.57741696954314
 20
-157.8987168659072
 30
0.0
 10
90.57741696954314
 20
-157.7843396957969
 30
0.0
 10
90.57741696954314
 20
-157.7843396957969
 30
0.0
  0
SPLINE
  5
F8
330
EE
100
AcDbEntity
  8
レイヤー 1
100
AcDbSpline
210
0.0
220
0.0
230
1.0
 70
    11
 71
     3
 72
    17
 73
    13
 74
     0
 42
0.0000000001
 43
0.0000000001
 40
0.0
 40
0.0
 40
0.0
 40
0.0
 40
1.0
 40
1.0
 40
1.0
 40
2.0
 40
2.0
 40
2.0
 40
3.0
 40
3.0
 40
3.0
 40
4.0
 40
4.0
 40
4.0
 40
4.0
 10
90.57741696954314
 20
-157.5514512409941
 30
0.0
 10
90.57741696954314
 20
-157.5514512409941
 30
0.0
 10
89.87082788551841
 20
-157.5514512409941
 30
0.0
 10
89.87082788551841
 20
-157.5514512409941
 30
0.0
 10
89.87082788551841
 20
-157.5514512409941
 30
0.0
 10
89.87082788551841
 20
-157.6596272392309
 30
0.0
 10
89.87082788551841
 20
-157.6596272392309
 30
0.0
 10
89.87082788551841
 20
-157.6596272392309
 30
0.0
 10
90.57741696954314
 20
-157.6596272392309
 30
0.0
 10
90.57741696954314
 20
-157.6596272392309
 30
0.0
 10
90.57741696954314
 20
-157.6596272392309
 30
0.0
 10
90.57741696954314
 20
-157.5514512409941
 30
0.0
 10
90.57741696954314
 20
-157.5514512409941
 30
0.0
  0
SPLINE
  5
F9
330
EE
100
AcDbEntity
  8
レイヤー 1
100
AcDbSpline
210
0.0
220
0.0
230
1.0
 70
     9
 71
     3
 72
   203
 73
   199
 74
     0
 42
0.0000000001
 43
0.0000000001
 40
0.0
 40
0.0
 40
0.0
 40
0.0
 40
1.0
 40
1.0
 40
1.0
 40
2.0
 40
2.0
 40
2.0
 40
3.0
 40
3.0
 40
3.0
 40
4.0
 40
4.0
 40
4.0
 40
5.0
 40
5.0
 40
5.0
 40
6.0
 40
6.0
 40
6.0
 40
7.0
 40
7.0
 40
7.0
 40
8.0
 40
8.0
 40
8.0
 40
9.0
 40
9.0
 40
9.0
 40
10.0
 40
10.0
 40
10.0
 40
11.0
 40
11.0
 40
11.0
 40
12.0
 40
12.0
 40
12.0
 40
13.0
 40
13.0
 40
13.0
 40
14.0
 40
14.0
 40
14.0
 40
15.0
 40
15.0
 40
15.0
 40
16.0
 40
16.0
 40
16.0
 40
17.0
 40
17.0
 40
17.0
 40
18.0
 40
18.0
 40
18.0
 40
19.0
 40
19.0
 40
19.0
 40
20.0
 40
20.0
 40
20.0
 40
21.0
 40
21.0
 40
21.0
 40
22.0
 40
22.0
 40
22.0
 40
23.0
 40
23.0
 40
23.0
 40
24.0
 40
24.0
 40
24.0
 40
25.0
 40
25.0
 40
25.0
 40
26.0
 40
26.0
 40
26.0
 40
27.0
 40
27.0
 40
27.0
 40
28.0
 40
28.0
 40
28.0
 40
29.0
 40
29.0
 40
29.0
 40
30.0
 40
30.0
 40
30.0
 40
31.0
 40
31.0
 40
31.0
 40
32.0
 40
32.0
 40
32.0
 40
33.0
 40
33.0
 40
33.0
 40
34.0
 40
34.0
 40
34.0
 40
35.0
 40
35.0
 40
35.0
 40
36.0
 40
36.0
 40
36.0
 40
37.0
 40
37.0
 40
37.0
 40
38.0
 40
38.0
 40
38.0
 40
39.0
 40
39.0
 40
39.0
 40
40.0
 40
40.0
 40
40.0
 40
41.0
 40
41.0
 40
41.0
 40
42.0
 40
42.0
 40
42.0
 40
43.0
 40
43.0
 40
43.0
 40
44.0
 40
44.0
 40
44.0
 40
45.0
 40
45.0
 40
45.0
 40
46.0
 40
46.0
 40
46.0
 40
47.0
 40
47.0
 40
47.0
 40
48.0
 40
48.0
 40
48.0
 40
49.0
 40
49.0
 40
49.0
 40
50.0
 40
50.0
 40
50.0
 40
51.0
 40
51.0
 40
51.0
 40
52.0
 40
52.0
 40
52.0
 40
53.0
 40
53.0
 40
53.0
 40
54.0
 40
54.0
 40
54.0
 40
55.0
 40
55.0
 40
55.0
 40
56.0
 40
56.0
 40
56.0
 40
57.0
 40
57.0
 40
57.0
 40
58.0
 40
58.0
 40
58.0
 40
59.0
 40
59.0
 40
59.0
 40
60.0
 40
60.0
 40
60.0
 40
61.0
 40
61.0
 40
61.0
 40
62.0
 40
62.0
 40
62.0
 40
63.0
 40
63.0
 40
63.0
 40
64.0
 40
64.0
 40
64.0
 40
65.0
 40
65.0
 40
65.0
 40
66.0
 40
66.0
 40
66.0
 40
66.0
 10
90.41239689579969
 20
-157.29548064644
 30
0.0
 10
90.41239689579969
 20
-157.29548064644
 30
0.0
 10
89.85360240809216
 20
-157.29548064644
 30
0.0
 10
89.85360240809216
 20
-157.29548064644
 30
0.0
 10
89.84326712163641
 20
-157.3399223781997
 30
0.0
 10
89.83465438292329
 20
-157.371617256664
 30
0.0
 10
89.82190752962786
 20
-157.4098578165503
 30
0.0
 10
89.84740123621872
 20
-157.4098578165503
 30
0.0
 10
89.86221514680527
 20
-157.4119248738414
 30
0.0
 10
89.86841631867873
 20
-157.4119248738414
 30
0.0
 10
89.86841631867873
 20
-157.4119248738414
 30
0.0
 10
90.0568630417219
 20
-157.4119248738414
 30
0.0
 10
90.0568630417219
 20
-157.4119248738414
 30
0.0
 10
90.0568630417219
 20
-157.4119248738414
 30
0.0
 10
90.43134492096855
 20
-157.4119248738414
 30
0.0
 10
90.43134492096855
 20
-157.4119248738414
 30
0.0
 10
90.48198782460174
 20
-157.4119248738414
 30
0.0
 10
90.76551918303779
 20
-157.399178020546
 30
0.0
 10
90.79721406150209
 20
-157.399178020546
 30
0.0
 10
90.79514700421094
 20
-157.426738784428
 30
0.0
 10
90.79307994691978
 20
-157.4456868095969
 30
0.0
 10
90.79307994691978
 20
-157.47531463077
 30
0.0
 10
90.79101288962865
 20
-157.5070095092343
 30
0.0
 10
90.79101288962865
 20
-157.6424017618047
 30
0.0
 10
90.79101288962865
 20
-157.6699625256867
 30
0.0
 10
90.79101288962865
 20
-157.6699625256867
 30
0.0
 10
90.79101288962865
 20
-157.915597833785
 30
0.0
 10
90.79101288962865
 20
-157.915597833785
 30
0.0
 10
90.79101288962865
 20
-157.9600395655447
 30
0.0
 10
90.79514700421094
 20
-158.1567545177525
 30
0.0
 10
90.79928111879324
 20
-158.3090277382005
 30
0.0
 10
90.79928111879324
 20
-158.3090277382005
 30
0.0
 10
90.57293834541232
 20
-158.3090277382005
 30
0.0
 10
90.57293834541232
 20
-158.3090277382005
 30
0.0
 10
90.57293834541232
 20
-158.3090277382005
 30
0.0
 10
90.57500540270348
 20
-158.2752658024451
 30
0.0
 10
90.57500540270348
 20
-158.2752658024451
 30
0.0
 10
90.57500540270348
 20
-158.2752658024451
 30
0.0
 10
89.87289494280956
 20
-158.2752658024451
 30
0.0
 10
89.87289494280956
 20
-158.2752658024451
 30
0.0
 10
89.87289494280956
 20
-158.2752658024451
 30
0.0
 10
89.8749620001007
 20
-158.3090277382005
 30
0.0
 10
89.8749620001007
 20
-158.3090277382005
 30
0.0
 10
89.8749620001007
 20
-158.3090277382005
 30
0.0
 10
89.65688745588439
 20
-158.3090277382005
 30
0.0
 10
89.65688745588439
 20
-158.3090277382005
 30
0.0
 10
89.66136608001521
 20
-158.2539062104365
 30
0.0
 10
89.66136608001521
 20
-158.2411593571411
 30
0.0
 10
89.66756725188867
 20
-158.1271266965793
 30
0.0
 10
89.66963430917981
 20
-158.0995659326973
 30
0.0
 10
89.67170136647096
 20
-157.9662407374181
 30
0.0
 10
89.67170136647096
 20
-157.9472927122493
 30
0.0
 10
89.67170136647096
 20
-157.9472927122493
 30
0.0
 10
89.67170136647096
 20
-157.7440320786196
 30
0.0
 10
89.67170136647096
 20
-157.7440320786196
 30
0.0
 10
89.53217499931835
 20
-157.9938015013001
 30
0.0
 10
89.36302081099258
 20
-158.1250596392882
 30
0.0
 10
89.25725637959542
 20
-158.1905164535079
 30
0.0
 10
89.25725637959542
 20
-158.1905164535079
 30
0.0
 10
89.08362356713881
 20
-158.0509900863553
 30
0.0
 10
89.08362356713881
 20
-158.0509900863553
 30
0.0
 10
89.17250703065827
 20
-158.0000026731736
 30
0.0
 10
89.31651202194171
 20
-157.9131862669453
 30
0.0
 10
89.45397133180318
 20
-157.7188828815772
 30
0.0
 10
89.54492185261377
 20
-157.5917588581715
 30
0.0
 10
89.61037866683353
 20
-157.4480983764366
 30
0.0
 10
89.64448511213749
 20
-157.29548064644
 30
0.0
 10
89.41573077191689
 20
-157.2978922132797
 30
0.0
 10
89.23589678758686
 20
-157.3040933851531
 30
0.0
 10
89.14081215219397
 20
-157.3061604424443
 30
0.0
 10
89.14081215219397
 20
-157.3061604424443
 30
0.0
 10
89.14081215219397
 20
-157.1283935154054
 30
0.0
 10
89.14081215219397
 20
-157.1283935154054
 30
0.0
 10
89.33752710440172
 20
-157.1349391968274
 30
0.0
 10
89.6210584628378
 20
-157.1390733114097
 30
0.0
 10
89.7712646259947
 20
-157.1390733114097
 30
0.0
 10
89.7712646259947
 20
-157.1390733114097
 30
0.0
 10
89.98486054608019
 20
-157.1390733114097
 30
0.0
 10
89.98486054608019
 20
-157.1390733114097
 30
0.0
 10
89.98486054608019
 20
-157.1390733114097
 30
0.0
 10
89.98486054608019
 20
-157.0312418227213
 30
0.0
 10
89.98486054608019
 20
-157.0312418227213
 30
0.0
 10
89.98486054608019
 20
-157.0312418227213
 30
0.0
 10
89.83878849750558
 20
-157.0312418227213
 30
0.0
 10
89.83878849750558
 20
-157.0312418227213
 30
0.0
 10
89.66963430917981
 20
-157.0312418227213
 30
0.0
 10
89.50048012085405
 20
-157.0353759373036
 30
0.0
 10
89.33339298981943
 20
-157.0419216187256
 30
0.0
 10
89.33339298981943
 20
-157.0419216187256
 30
0.0
 10
89.33339298981943
 20
-156.8703558635602
 30
0.0
 10
89.33339298981943
 20
-156.8703558635602
 30
0.0
 10
89.48773326755862
 20
-156.8810356595645
 30
0.0
 10
89.67376842376211
 20
-156.8810356595645
 30
0.0
 10
89.83878849750558
 20
-156.8810356595645
 30
0.0
 10
89.83878849750558
 20
-156.8810356595645
 30
0.0
 10
89.98486054608019
 20
-156.8810356595645
 30
0.0
 10
89.98486054608019
 20
-156.8810356595645
 30
0.0
 10
89.98486054608019
 20
-156.8810356595645
 30
0.0
 10
89.98486054608019
 20
-156.7625243748719
 30
0.0
 10
89.98486054608019
 20
-156.7625243748719
 30
0.0
 10
89.98486054608019
 20
-156.7625243748719
 30
0.0
 10
89.85360240809216
 20
-156.7625243748719
 30
0.0
 10
89.85360240809216
 20
-156.7625243748719
 30
0.0
 10
89.80709361904128
 20
-156.7625243748719
 30
0.0
 10
89.60417749496007
 20
-156.771137113585
 30
0.0
 10
89.5618028204915
 20
-156.771137113585
 30
0.0
 10
89.35888669641029
 20
-156.7752712281673
 30
0.0
 10
89.28240557663775
 20
-156.7773382854584
 30
0.0
 10
89.20420190912256
 20
-156.7794053427496
 30
0.0
 10
89.20420190912256
 20
-156.7794053427496
 30
0.0
 10
89.20420190912256
 20
-156.5954372438372
 30
0.0
 10
89.20420190912256
 20
-156.5954372438372
 30
0.0
 10
89.31857907923285
 20
-156.6037054730018
 30
0.0
 10
89.36302081099258
 20
-156.6037054730018
 30
0.0
 10
89.74577091940384
 20
-156.6123182117149
 30
0.0
 10
89.68238116247524
 20
-156.5172335763221
 30
0.0
 10
89.65482039859324
 20
-156.4896728124401
 30
0.0
 10
89.61899140554665
 20
-156.4534993098449
 30
0.0
 10
89.61899140554665
 20
-156.4534993098449
 30
0.0
 10
89.79434676574586
 20
-156.3711615277474
 30
0.0
 10
89.79434676574586
 20
-156.3711615277474
 30
0.0
 10
89.83465438292329
 20
-156.4069905207941
 30
0.0
 10
89.87909611468301
 20
-156.4493651952626
 30
0.0
 10
89.95316566761587
 20
-156.5592637412421
 30
0.0
 10
89.95316566761587
 20
-156.5592637412421
 30
0.0
 10
89.83878849750558
 20
-156.6143852690061
 30
0.0
 10
89.83878849750558
 20
-156.6143852690061
 30
0.0
 10
89.83878849750558
 20
-156.6143852690061
 30
0.0
 10
89.84946829350986
 20
-156.6143852690061
 30
0.0
 10
89.84946829350986
 20
-156.6143852690061
 30
0.0
 10
89.84946829350986
 20
-156.6143852690061
 30
0.0
 10
90.37208927862225
 20
-156.6143852690061
 30
0.0
 10
90.37208927862225
 20
-156.6143852690061
 30
0.0
 10
90.37208927862225
 20
-156.6143852690061
 30
0.0
 10
90.27700464322936
 20
-156.5699435372464
 30
0.0
 10
90.27700464322936
 20
-156.5699435372464
 30
0.0
 10
90.30422089756283
 20
-156.5320474869086
 30
0.0
 10
90.36140948261799
 20
-156.4514322525538
 30
0.0
 10
90.37622339320455
 20
-156.3773626996209
 30
0.0
 10
90.37622339320455
 20
-156.3773626996209
 30
0.0
 10
90.58981931329006
 20
-156.441096966098
 30
0.0
 10
90.58981931329006
 20
-156.441096966098
 30
0.0
 10
90.59843205200317
 20
-156.4431640233892
 30
0.0
 10
90.61944713446321
 20
-156.4534993098449
 30
0.0
 10
90.61944713446321
 20
-156.4748589018535
 30
0.0
 10
90.61944713446321
 20
-156.5127549521912
 30
0.0
 10
90.55399032024345
 20
-156.5127549521912
 30
0.0
 10
90.53504229507458
 20
-156.5127549521912
 30
0.0
 10
90.5243624990703
 20
-156.5320474869086
 30
0.0
 10
90.5009358497706
 20
-156.5720105945375
 30
0.0
 10
90.47130802859745
 20
-156.6123182117149
 30
0.0
 10
90.87128361443495
 20
-156.6061170398415
 30
0.0
 10
90.9009114356081
 20
-156.6037054730018
 30
0.0
 10
90.97704804583214
 20
-156.5975043011284
 30
0.0
 10
90.97704804583214
 20
-156.5975043011284
 30
0.0
 10
90.97704804583214
 20
-156.7794053427496
 30
0.0
 10
90.97704804583214
 20
-156.7794053427496
 30
0.0
 10
90.95810002066325
 20
-156.7794053427496
 30
0.0
 10
90.9326063140724
 20
-156.7773382854584
 30
0.0
 10
90.71280922211347
 20
-156.7687255467453
 30
0.0
 10
90.66182180893177
 20
-156.7666584894542
 30
0.0
 10
90.44202471697282
 20
-156.7625243748719
 30
0.0
 10
90.39758298521311
 20
-156.7625243748719
 30
0.0
 10
90.39758298521311
 20
-156.7625243748719
 30
0.0
 10
90.18157549828794
 20
-156.7625243748719
 30
0.0
 10
90.18157549828794
 20
-156.7625243748719
 30
0.0
 10
90.18157549828794
 20
-156.7625243748719
 30
0.0
 10
90.18157549828794
 20
-156.8810356595645
 30
0.0
 10
90.18157549828794
 20
-156.8810356595645
 30
0.0
 10
90.18157549828794
 20
-156.8810356595645
 30
0.0
 10
90.35520831074453
 20
-156.8810356595645
 30
0.0
 10
90.35520831074453
 20
-156.8810356595645
 30
0.0
 10
90.51816132719684
 20
-156.8810356595645
 30
0.0
 10
90.70833059798264
 20
-156.8810356595645
 30
0.0
 10
90.86508244256151
 20
-156.8703558635602
 30
0.0
 10
90.86508244256151
 20
-156.8703558635602
 30
0.0
 10
90.86508244256151
 20
-157.0419216187256
 30
0.0
 10
90.86508244256151
 20
-157.0419216187256
 30
0.0
 10
90.65562063705831
 20
-157.0333088800125
 30
0.0
 10
90.45890568485054
 20
-157.0312418227213
 30
0.0
 10
90.35520831074453
 20
-157.0312418227213
 30
0.0
 10
90.35520831074453
 20
-157.0312418227213
 30
0.0
 10
90.18157549828794
 20
-157.0312418227213
 30
0.0
 10
90.18157549828794
 20
-157.0312418227213
 30
0.0
 10
90.18157549828794
 20
-157.0312418227213
 30
0.0
 10
90.18157549828794
 20
-157.1390733114097
 30
0.0
 10
90.18157549828794
 20
-157.1390733114097
 30
0.0
 10
90.18157549828794
 20
-157.1390733114097
 30
0.0
 10
90.41239689579969
 20
-157.1390733114097
 30
0.0
 10
90.41239689579969
 20
-157.1390733114097
 30
0.0
 10
90.54537758153033
 20
-157.1390733114097
 30
0.0
 10
90.83338756409721
 20
-157.1349391968274
 30
0.0
 10
91.04250486005188
 20
-157.1283935154054
 30
0.0
 10
91.04250486005188
 20
-157.1283935154054
 30
0.0
 10
91.04250486005188
 20
-157.3061604424443
 30
0.0
 10
91.04250486005188
 20
-157.3061604424443
 30
0.0
 10
90.85026853197494
 20
-157.2999592705708
 30
0.0
 10
90.53710935236573
 20
-157.29548064644
 30
0.0
 10
90.41239689579969
 20
-157.29548064644
 30
0.0
  0
HATCH
  5
FA
330
EE
100
AcDbEntity
  8
レイヤー 1
 62
   250
420
  2299925
440
 33554687
100
AcDbHatch
 10
0.0
 20
0.0
 30
0.0
210
0.0
220
0.0
230
1.0
  2
SOLID
 70
     1
 71
     1
 91
        4
 92
        1
 93
        1
 72
     4
 94
        3
 73
     0
 74
     0
 95
       17
 96
       13
 40
0.0
 40
0.0
 40
0.0
 40
0.0
 40
1.0
 40
1.0
 40
1.0
 40
2.0
 40
2.0
 40
2.0
 40
3.0
 40
3.0
 40
3.0
 40
4.0
 40
4.0
 40
4.0
 40
4.0
 10
90.57741696954314
 20
-158.0275634370556
 10
90.57741696954314
 20
-158.0275634370556
 10
89.87082788551841
 20
-158.0275634370556
 10
89.87082788551841
 20
-158.0275634370556
 10
89.87082788551841
 20
-158.0275634370556
 10
89.87082788551841
 20
-158.1419406071659
 10
89.87082788551841
 20
-158.1419406071659
 10
89.87082788551841
 20
-158.1419406071659
 10
90.57741696954314
 20
-158.1419406071659
 10
90.57741696954314
 20
-158.1419406071659
 10
90.57741696954314
 20
-158.1419406071659
 10
90.57741696954314
 20
-158.0275634370556
 10
90.57741696954314
 20
-158.0275634370556
 97
        0
 97
        1
330
F6
 92
        1
 93
        1
 72
     4
 94
        3
 73
     0
 74
     0
 95
       17
 96
       13
 40
0.0
 40
0.0
 40
0.0
 40
0.0
 40
1.0
 40
1.0
 40
1.0
 40
2.0
 40
2.0
 40
2.0
 40
3.0
 40
3.0
 40
3.0
 40
4.0
 40
4.0
 40
4.0
 40
4.0
 10
90.57741696954314
 20
-157.7843396957969
 10
90.57741696954314
 20
-157.7843396957969
 10
89.87082788551841
 20
-157.7843396957969
 10
89.87082788551841
 20
-157.7843396957969
 10
89.87082788551841
 20
-157.7843396957969
 10
89.87082788551841
 20
-157.8987168659072
 10
89.87082788551841
 20
-157.8987168659072
 10
89.87082788551841
 20
-157.8987168659072
 10
90.57741696954314
 20
-157.8987168659072
 10
90.57741696954314
 20
-157.8987168659072
 10
90.57741696954314
 20
-157.8987168659072
 10
90.57741696954314
 20
-157.7843396957969
 10
90.57741696954314
 20
-157.7843396957969
 97
        0
 97
        1
330
F7
 92
        1
 93
        1
 72
     4
 94
        3
 73
     0
 74
     0
 95
       17
 96
       13
 40
0.0
 40
0.0
 40
0.0
 40
0.0
 40
1.0
 40
1.0
 40
1.0
 40
2.0
 40
2.0
 40
2.0
 40
3.0
 40
3.0
 40
3.0
 40
4.0
 40
4.0
 40
4.0
 40
4.0
 10
90.57741696954314
 20
-157.5514512409941
 10
90.57741696954314
 20
-157.5514512409941
 10
89.87082788551841
 20
-157.5514512409941
 10
89.87082788551841
 20
-157.5514512409941
 10
89.87082788551841
 20
-157.5514512409941
 10
89.87082788551841
 20
-157.6596272392309
 10
89.87082788551841
 20
-157.6596272392309
 10
89.87082788551841
 20
-157.6596272392309
 10
90.57741696954314
 20
-157.6596272392309
 10
90.57741696954314
 20
-157.6596272392309
 10
90.57741696954314
 20
-157.6596272392309
 10
90.57741696954314
 20
-157.5514512409941
 10
90.57741696954314
 20
-157.5514512409941
 97
        0
 97
        1
330
F8
 92
        1
 93
        1
 72
     4
 94
        3
 73
     0
 74
     0
 95
      203
 96
      199
 40
0.0
 40
0.0
 40
0.0
 40
0.0
 40
1.0
 40
1.0
 40
1.0
 40
2.0
 40
2.0
 40
2.0
 40
3.0
 40
3.0
 40
3.0
 40
4.0
 40
4.0
 40
4.0
 40
5.0
 40
5.0
 40
5.0
 40
6.0
 40
6.0
 40
6.0
 40
7.0
 40
7.0
 40
7.0
 40
8.0
 40
8.0
 40
8.0
 40
9.0
 40
9.0
 40
9.0
 40
10.0
 40
10.0
 40
10.0
 40
11.0
 40
11.0
 40
11.0
 40
12.0
 40
12.0
 40
12.0
 40
13.0
 40
13.0
 40
13.0
 40
14.0
 40
14.0
 40
14.0
 40
15.0
 40
15.0
 40
15.0
 40
16.0
 40
16.0
 40
16.0
 40
17.0
 40
17.0
 40
17.0
 40
18.0
 40
18.0
 40
18.0
 40
19.0
 40
19.0
 40
19.0
 40
20.0
 40
20.0
 40
20.0
 40
21.0
 40
21.0
 40
21.0
 40
22.0
 40
22.0
 40
22.0
 40
23.0
 40
23.0
 40
23.0
 40
24.0
 40
24.0
 40
24.0
 40
25.0
 40
25.0
 40
25.0
 40
26.0
 40
26.0
 40
26.0
 40
27.0
 40
27.0
 40
27.0
 40
28.0
 40
28.0
 40
28.0
 40
29.0
 40
29.0
 40
29.0
 40
30.0
 40
30.0
 40
30.0
 40
31.0
 40
31.0
 40
31.0
 40
32.0
 40
32.0
 40
32.0
 40
33.0
 40
33.0
 40
33.0
 40
34.0
 40
34.0
 40
34.0
 40
35.0
 40
35.0
 40
35.0
 40
36.0
 40
36.0
 40
36.0
 40
37.0
 40
37.0
 40
37.0
 40
38.0
 40
38.0
 40
38.0
 40
39.0
 40
39.0
 40
39.0
 40
40.0
 40
40.0
 40
40.0
 40
41.0
 40
41.0
 40
41.0
 40
42.0
 40
42.0
 40
42.0
 40
43.0
 40
43.0
 40
43.0
 40
44.0
 40
44.0
 40
44.0
 40
45.0
 40
45.0
 40
45.0
 40
46.0
 40
46.0
 40
46.0
 40
47.0
 40
47.0
 40
47.0
 40
48.0
 40
48.0
 40
48.0
 40
49.0
 40
49.0
 40
49.0
 40
50.0
 40
50.0
 40
50.0
 40
51.0
 40
51.0
 40
51.0
 40
52.0
 40
52.0
 40
52.0
 40
53.0
 40
53.0
 40
53.0
 40
54.0
 40
54.0
 40
54.0
 40
55.0
 40
55.0
 40
55.0
 40
56.0
 40
56.0
 40
56.0
 40
57.0
 40
57.0
 40
57.0
 40
58.0
 40
58.0
 40
58.0
 40
59.0
 40
59.0
 40
59.0
 40
60.0
 40
60.0
 40
60.0
 40
61.0
 40
61.0
 40
61.0
 40
62.0
 40
62.0
 40
62.0
 40
63.0
 40
63.0
 40
63.0
 40
64.0
 40
64.0
 40
64.0
 40
65.0
 40
65.0
 40
65.0
 40
66.0
 40
66.0
 40
66.0
 40
66.0
 10
90.41239689579969
 20
-157.29548064644
 10
90.41239689579969
 20
-157.29548064644
 10
89.85360240809216
 20
-157.29548064644
 10
89.85360240809216
 20
-157.29548064644
 10
89.84326712163641
 20
-157.3399223781997
 10
89.83465438292329
 20
-157.371617256664
 10
89.82190752962786
 20
-157.4098578165503
 10
89.84740123621872
 20
-157.4098578165503
 10
89.86221514680527
 20
-157.4119248738414
 10
89.86841631867873
 20
-157.4119248738414
 10
89.86841631867873
 20
-157.4119248738414
 10
90.0568630417219
 20
-157.4119248738414
 10
90.0568630417219
 20
-157.4119248738414
 10
90.0568630417219
 20
-157.4119248738414
 10
90.43134492096855
 20
-157.4119248738414
 10
90.43134492096855
 20
-157.4119248738414
 10
90.48198782460174
 20
-157.4119248738414
 10
90.76551918303779
 20
-157.399178020546
 10
90.79721406150209
 20
-157.399178020546
 10
90.79514700421094
 20
-157.426738784428
 10
90.79307994691978
 20
-157.4456868095969
 10
90.79307994691978
 20
-157.47531463077
 10
90.79101288962865
 20
-157.5070095092343
 10
90.79101288962865
 20
-157.6424017618047
 10
90.79101288962865
 20
-157.6699625256867
 10
90.79101288962865
 20
-157.6699625256867
 10
90.79101288962865
 20
-157.915597833785
 10
90.79101288962865
 20
-157.915597833785
 10
90.79101288962865
 20
-157.9600395655447
 10
90.79514700421094
 20
-158.1567545177525
 10
90.79928111879324
 20
-158.3090277382005
 10
90.79928111879324
 20
-158.3090277382005
 10
90.57293834541232
 20
-158.3090277382005
 10
90.57293834541232
 20
-158.3090277382005
 10
90.57293834541232
 20
-158.3090277382005
 10
90.57500540270348
 20
-158.2752658024451
 10
90.57500540270348
 20
-158.2752658024451
 10
90.57500540270348
 20
-158.2752658024451
 10
89.87289494280956
 20
-158.2752658024451
 10
89.87289494280956
 20
-158.2752658024451
 10
89.87289494280956
 20
-158.2752658024451
 10
89.8749620001007
 20
-158.3090277382005
 10
89.8749620001007
 20
-158.3090277382005
 10
89.8749620001007
 20
-158.3090277382005
 10
89.65688745588439
 20
-158.3090277382005
 10
89.65688745588439
 20
-158.3090277382005
 10
89.66136608001521
 20
-158.2539062104365
 10
89.66136608001521
 20
-158.2411593571411
 10
89.66756725188867
 20
-158.1271266965793
 10
89.66963430917981
 20
-158.0995659326973
 10
89.67170136647096
 20
-157.9662407374181
 10
89.67170136647096
 20
-157.9472927122493
 10
89.67170136647096
 20
-157.9472927122493
 10
89.67170136647096
 20
-157.7440320786196
 10
89.67170136647096
 20
-157.7440320786196
 10
89.53217499931835
 20
-157.9938015013001
 10
89.36302081099258
 20
-158.1250596392882
 10
89.25725637959542
 20
-158.1905164535079
 10
89.25725637959542
 20
-158.1905164535079
 10
89.08362356713881
 20
-158.0509900863553
 10
89.08362356713881
 20
-158.0509900863553
 10
89.17250703065827
 20
-158.0000026731736
 10
89.31651202194171
 20
-157.9131862669453
 10
89.45397133180318
 20
-157.7188828815772
 10
89.54492185261377
 20
-157.5917588581715
 10
89.61037866683353
 20
-157.4480983764366
 10
89.64448511213749
 20
-157.29548064644
 10
89.41573077191689
 20
-157.2978922132797
 10
89.23589678758686
 20
-157.3040933851531
 10
89.14081215219397
 20
-157.3061604424443
 10
89.14081215219397
 20
-157.3061604424443
 10
89.14081215219397
 20
-157.1283935154054
 10
89.14081215219397
 20
-157.1283935154054
 10
89.33752710440172
 20
-157.1349391968274
 10
89.6210584628378
 20
-157.1390733114097
 10
89.7712646259947
 20
-157.1390733114097
 10
89.7712646259947
 20
-157.1390733114097
 10
89.98486054608019
 20
-157.1390733114097
 10
89.98486054608019
 20
-157.1390733114097
 10
89.98486054608019
 20
-157.1390733114097
 10
89.98486054608019
 20
-157.0312418227213
 10
89.98486054608019
 20
-157.0312418227213
 10
89.98486054608019
 20
-157.0312418227213
 10
89.83878849750558
 20
-157.0312418227213
 10
89.83878849750558
 20
-157.0312418227213
 10
89.66963430917981
 20
-157.0312418227213
 10
89.50048012085405
 20
-157.0353759373036
 10
89.33339298981943
 20
-157.0419216187256
 10
89.33339298981943
 20
-157.0419216187256
 10
89.33339298981943
 20
-156.8703558635602
 10
89.33339298981943
 20
-156.8703558635602
 10
89.48773326755862
 20
-156.8810356595645
 10
89.67376842376211
 20
-156.8810356595645
 10
89.83878849750558
 20
-156.8810356595645
 10
89.83878849750558
 20
-156.8810356595645
 10
89.98486054608019
 20
-156.8810356595645
 10
89.98486054608019
 20
-156.8810356595645
 10
89.98486054608019
 20
-156.8810356595645
 10
89.98486054608019
 20
-156.7625243748719
 10
89.98486054608019
 20
-156.7625243748719
 10
89.98486054608019
 20
-156.7625243748719
 10
89.85360240809216
 20
-156.7625243748719
 10
89.85360240809216
 20
-156.7625243748719
 10
89.80709361904128
 20
-156.7625243748719
 10
89.60417749496007
 20
-156.771137113585
 10
89.5618028204915
 20
-156.771137113585
 10
89.35888669641029
 20
-156.7752712281673
 10
89.28240557663775
 20
-156.7773382854584
 10
89.20420190912256
 20
-156.7794053427496
 10
89.20420190912256
 20
-156.7794053427496
 10
89.20420190912256
 20
-156.5954372438372
 10
89.20420190912256
 20
-156.5954372438372
 10
89.31857907923285
 20
-156.6037054730018
 10
89.36302081099258
 20
-156.6037054730018
 10
89.74577091940384
 20
-156.6123182117149
 10
89.68238116247524
 20
-156.5172335763221
 10
89.65482039859324
 20
-156.4896728124401
 10
89.61899140554665
 20
-156.4534993098449
 10
89.61899140554665
 20
-156.4534993098449
 10
89.79434676574586
 20
-156.3711615277474
 10
89.79434676574586
 20
-156.3711615277474
 10
89.83465438292329
 20
-156.4069905207941
 10
89.87909611468301
 20
-156.4493651952626
 10
89.95316566761587
 20
-156.5592637412421
 10
89.95316566761587
 20
-156.5592637412421
 10
89.83878849750558
 20
-156.6143852690061
 10
89.83878849750558
 20
-156.6143852690061
 10
89.83878849750558
 20
-156.6143852690061
 10
89.84946829350986
 20
-156.6143852690061
 10
89.84946829350986
 20
-156.6143852690061
 10
89.84946829350986
 20
-156.6143852690061
 10
90.37208927862225
 20
-156.6143852690061
 10
90.37208927862225
 20
-156.6143852690061
 10
90.37208927862225
 20
-156.6143852690061
 10
90.27700464322936
 20
-156.5699435372464
 10
90.27700464322936
 20
-156.5699435372464
 10
90.30422089756283
 20
-156.5320474869086
 10
90.36140948261799
 20
-156.4514322525538
 10
90.37622339320455
 20
-156.3773626996209
 10
90.37622339320455
 20
-156.3773626996209
 10
90.58981931329006
 20
-156.441096966098
 10
90.58981931329006
 20
-156.441096966098
 10
90.59843205200317
 20
-156.4431640233892
 10
90.61944713446321
 20
-156.4534993098449
 10
90.61944713446321
 20
-156.4748589018535
 10
90.61944713446321
 20
-156.5127549521912
 10
90.55399032024345
 20
-156.5127549521912
 10
90.53504229507458
 20
-156.5127549521912
 10
90.5243624990703
 20
-156.5320474869086
 10
90.5009358497706
 20
-156.5720105945375
 10
90.47130802859745
 20
-156.6123182117149
 10
90.87128361443495
 20
-156.6061170398415
 10
90.9009114356081
 20
-156.6037054730018
 10
90.97704804583214
 20
-156.5975043011284
 10
90.97704804583214
 20
-156.5975043011284
 10
90.97704804583214
 20
-156.7794053427496
 10
90.97704804583214
 20
-156.7794053427496
 10
90.95810002066325
 20
-156.7794053427496
 10
90.9326063140724
 20
-156.7773382854584
 10
90.71280922211347
 20
-156.7687255467453
 10
90.66182180893177
 20
-156.7666584894542
 10
90.44202471697282
 20
-156.7625243748719
 10
90.39758298521311
 20
-156.7625243748719
 10
90.39758298521311
 20
-156.7625243748719
 10
90.18157549828794
 20
-156.7625243748719
 10
90.18157549828794
 20
-156.7625243748719
 10
90.18157549828794
 20
-156.7625243748719
 10
90.18157549828794
 20
-156.8810356595645
 10
90.18157549828794
 20
-156.8810356595645
 10
90.18157549828794
 20
-156.8810356595645
 10
90.35520831074453
 20
-156.8810356595645
 10
90.35520831074453
 20
-156.8810356595645
 10
90.51816132719684
 20
-156.8810356595645
 10
90.70833059798264
 20
-156.8810356595645
 10
90.86508244256151
 20
-156.8703558635602
 10
90.86508244256151
 20
-156.8703558635602
 10
90.86508244256151
 20
-157.0419216187256
 10
90.86508244256151
 20
-157.0419216187256
 10
90.65562063705831
 20
-157.0333088800125
 10
90.45890568485054
 20
-157.0312418227213
 10
90.35520831074453
 20
-157.0312418227213
 10
90.35520831074453
 20
-157.0312418227213
 10
90.18157549828794
 20
-157.0312418227213
 10
90.18157549828794
 20
-157.0312418227213
 10
90.18157549828794
 20
-157.0312418227213
 10
90.18157549828794
 20
-157.1390733114097
 10
90.18157549828794
 20
-157.1390733114097
 10
90.18157549828794
 20
-157.1390733114097
 10
90.41239689579969
 20
-157.1390733114097
 10
90.41239689579969
 20
-157.1390733114097
 10
90.54537758153033
 20
-157.1390733114097
 10
90.83338756409721
 20
-157.1349391968274
 10
91.04250486005188
 20
-157.1283935154054
 10
91.04250486005188
 20
-157.1283935154054
 10
91.04250486005188
 20
-157.3061604424443
 10
91.04250486005188
 20
-157.3061604424443
 10
90.85026853197494
 20
-157.2999592705708
 10
90.53710935236573
 20
-157.29548064644
 10
90.41239689579969
 20
-157.29548064644
 97
        0
 97
        1
330
F9
 75
     2
 76
     1
 98
        1
 10
0.0
 20
0.0
450
        0
451
        0
460
0.0
461
0.0
452
        0
462
0.0
453
        0
470

  0
SPLINE
  5
FB
330
EE
100
AcDbEntity
  8
レイヤー 1
100
AcDbSpline
210
0.0
220
0.0
230
1.0
 70
     9
 71
     3
 72
    29
 73
    25
 74
     0
 42
0.0000000001
 43
0.0000000001
 40
0.0
 40
0.0
 40
0.0
 40
0.0
 40
1.0
 40
1.0
 40
1.0
 40
2.0
 40
2.0
 40
2.0
 40
3.0
 40
3.0
 40
3.0
 40
4.0
 40
4.0
 40
4.0
 40
5.0
 40
5.0
 40
5.0
 40
6.0
 40
6.0
 40
6.0
 40
7.0
 40
7.0
 40
7.0
 40
8.0
 40
8.0
 40
8.0
 40
8.0
 10
92.28756236842116
 20
-156.743576349703
 30
0.0
 10
92.28756236842116
 20
-156.743576349703
 30
0.0
 10
91.93409557163453
 20
-156.743576349703
 30
0.0
 10
91.93409557163453
 20
-156.743576349703
 30
0.0
 10
91.82212996836391
 20
-156.743576349703
 30
0.0
 10
91.68260360121129
 20
-156.7497775215764
 30
0.0
 10
91.57477211252297
 20
-156.7625243748719
 30
0.0
 10
91.57477211252297
 20
-156.7625243748719
 30
0.0
 10
91.57477211252297
 20
-156.5275688627778
 30
0.0
 10
91.57477211252297
 20
-156.5275688627778
 30
0.0
 10
91.69293888766704
 20
-156.5423827733644
 30
0.0
 10
91.87725149612791
 20
-156.5468613974952
 30
0.0
 10
91.93409557163453
 20
-156.5468613974952
 30
0.0
 10
91.93409557163453
 20
-156.5468613974952
 30
0.0
 10
92.28756236842116
 20
-156.5468613974952
 30
0.0
 10
92.28756236842116
 20
-156.5468613974952
 30
0.0
 10
92.30651039359004
 20
-156.5468613974952
 30
0.0
 10
92.50977102721979
 20
-156.5468613974952
 30
0.0
 10
92.65136445166355
 20
-156.5275688627778
 30
0.0
 10
92.65136445166355
 20
-156.5275688627778
 30
0.0
 10
92.65136445166355
 20
-156.7625243748719
 30
0.0
 10
92.65136445166355
 20
-156.7625243748719
 30
0.0
 10
92.49495711663321
 20
-156.743576349703
 30
0.0
 10
92.30444333629888
 20
-156.743576349703
 30
0.0
 10
92.28756236842116
 20
-156.743576349703
 30
0.0
  0
SPLINE
  5
FC
330
EE
100
AcDbEntity
  8
レイヤー 1
100
AcDbSpline
210
0.0
220
0.0
230
1.0
 70
     9
 71
     3
 72
    47
 73
    43
 74
     0
 42
0.0000000001
 43
0.0000000001
 40
0.0
 40
0.0
 40
0.0
 40
0.0
 40
1.0
 40
1.0
 40
1.0
 40
2.0
 40
2.0
 40
2.0
 40
3.0
 40
3.0
 40
3.0
 40
4.0
 40
4.0
 40
4.0
 40
5.0
 40
5.0
 40
5.0
 40
6.0
 40
6.0
 40
6.0
 40
7.0
 40
7.0
 40
7.0
 40
8.0
 40
8.0
 40
8.0
 40
9.0
 40
9.0
 40
9.0
 40
10.0
 40
10.0
 40
10.0
 40
11.0
 40
11.0
 40
11.0
 40
12.0
 40
12.0
 40
12.0
 40
13.0
 40
13.0
 40
13.0
 40
14.0
 40
14.0
 40
14.0
 40
14.0
 10
92.38919268523604
 20
-157.2723985066888
 30
0.0
 10
92.38919268523604
 20
-157.2723985066888
 30
0.0
 10
92.28756236842116
 20
-157.2723985066888
 30
0.0
 10
92.28756236842116
 20
-157.2723985066888
 30
0.0
 10
92.28756236842116
 20
-157.3592149129171
 30
0.0
 10
92.26654728596114
 20
-157.7485107027503
 30
0.0
 10
92.06983233375337
 20
-157.9683077947093
 30
0.0
 10
91.91721460375681
 20
-158.1374619830351
 30
0.0
 10
91.71016436509329
 20
-158.2073974213856
 30
0.0
 10
91.62541501615615
 20
-158.2349581852676
 30
0.0
 10
91.62541501615615
 20
-158.2349581852676
 30
0.0
 10
91.43076712123955
 20
-158.067871054233
 30
0.0
 10
91.43076712123955
 20
-158.067871054233
 30
0.0
 10
91.5282633234721
 20
-158.0551242009376
 30
0.0
 10
91.70361868367132
 20
-158.0316975516379
 30
0.0
 10
91.89206540671449
 20
-157.8435953381432
 30
0.0
 10
91.96613495964736
 20
-157.7715928425015
 30
0.0
 10
92.06983233375337
 20
-157.6320664753489
 30
0.0
 10
92.06983233375337
 20
-157.2723985066888
 30
0.0
 10
92.06983233375337
 20
-157.2723985066888
 30
0.0
 10
91.83901093624163
 20
-157.2723985066888
 30
0.0
 10
91.83901093624163
 20
-157.2723985066888
 30
0.0
 10
91.65297578003814
 20
-157.2723985066888
 30
0.0
 10
91.46659611428614
 20
-157.2765326212711
 30
0.0
 10
91.28056095808265
 20
-157.2913465318577
 30
0.0
 10
91.28056095808265
 20
-157.2913465318577
 30
0.0
 10
91.28056095808265
 20
-157.0715494398988
 30
0.0
 10
91.28056095808265
 20
-157.0715494398988
 30
0.0
 10
91.4690076811258
 20
-157.0863633504853
 30
0.0
 10
91.75460609685302
 20
-157.0904974650676
 30
0.0
 10
91.83901093624163
 20
-157.0904974650676
 30
0.0
 10
91.83901093624163
 20
-157.0904974650676
 30
0.0
 10
92.38919268523604
 20
-157.0904974650676
 30
0.0
 10
92.38919268523604
 20
-157.0904974650676
 30
0.0
 10
92.40814071040491
 20
-157.0904974650676
 30
0.0
 10
92.72543400459642
 20
-157.0904974650676
 30
0.0
 10
92.95384383526849
 20
-157.0715494398988
 30
0.0
 10
92.95384383526849
 20
-157.0715494398988
 30
0.0
 10
92.95384383526849
 20
-157.2913465318577
 30
0.0
 10
92.95384383526849
 20
-157.2913465318577
 30
0.0
 10
92.76574162177384
 20
-157.2765326212711
 30
0.0
 10
92.57729489873069
 20
-157.2723985066888
 30
0.0
 10
92.38919268523604
 20
-157.2723985066888
 30
0.0
  0
HATCH
  5
FD
330
EE
100
AcDbEntity
  8
レイヤー 1
 62
   250
420
  2299925
440
 33554687
100
AcDbHatch
 10
0.0
 20
0.0
 30
0.0
210
0.0
220
0.0
230
1.0
  2
SOLID
 70
     1
 71
     1
 91
        2
 92
        1
 93
        1
 72
     4
 94
        3
 73
     0
 74
     0
 95
       29
 96
       25
 40
0.0
 40
0.0
 40
0.0
 40
0.0
 40
1.0
 40
1.0
 40
1.0
 40
2.0
 40
2.0
 40
2.0
 40
3.0
 40
3.0
 40
3.0
 40
4.0
 40
4.0
 40
4.0
 40
5.0
 40
5.0
 40
5.0
 40
6.0
 40
6.0
 40
6.0
 40
7.0
 40
7.0
 40
7.0
 40
8.0
 40
8.0
 40
8.0
 40
8.0
 10
92.28756236842116
 20
-156.743576349703
 10
92.28756236842116
 20
-156.743576349703
 10
91.93409557163453
 20
-156.743576349703
 10
91.93409557163453
 20
-156.743576349703
 10
91.82212996836391
 20
-156.743576349703
 10
91.68260360121129
 20
-156.7497775215764
 10
91.57477211252297
 20
-156.7625243748719
 10
91.57477211252297
 20
-156.7625243748719
 10
91.57477211252297
 20
-156.5275688627778
 10
91.57477211252297
 20
-156.5275688627778
 10
91.69293888766704
 20
-156.5423827733644
 10
91.87725149612791
 20
-156.5468613974952
 10
91.93409557163453
 20
-156.5468613974952
 10
91.93409557163453
 20
-156.5468613974952
 10
92.28756236842116
 20
-156.5468613974952
 10
92.28756236842116
 20
-156.5468613974952
 10
92.30651039359004
 20
-156.5468613974952
 10
92.50977102721979
 20
-156.5468613974952
 10
92.65136445166355
 20
-156.5275688627778
 10
92.65136445166355
 20
-156.5275688627778
 10
92.65136445166355
 20
-156.7625243748719
 10
92.65136445166355
 20
-156.7625243748719
 10
92.49495711663321
 20
-156.743576349703
 10
92.30444333629888
 20
-156.743576349703
 10
92.28756236842116
 20
-156.743576349703
 97
        0
 97
        1
330
FB
 92
        1
 93
        1
 72
     4
 94
        3
 73
     0
 74
     0
 95
       47
 96
       43
 40
0.0
 40
0.0
 40
0.0
 40
0.0
 40
1.0
 40
1.0
 40
1.0
 40
2.0
 40
2.0
 40
2.0
 40
3.0
 40
3.0
 40
3.0
 40
4.0
 40
4.0
 40
4.0
 40
5.0
 40
5.0
 40
5.0
 40
6.0
 40
6.0
 40
6.0
 40
7.0
 40
7.0
 40
7.0
 40
8.0
 40
8.0
 40
8.0
 40
9.0
 40
9.0
 40
9.0
 40
10.0
 40
10.0
 40
10.0
 40
11.0
 40
11.0
 40
11.0
 40
12.0
 40
12.0
 40
12.0
 40
13.0
 40
13.0
 40
13.0
 40
14.0
 40
14.0
 40
14.0
 40
14.0
 10
92.38919268523604
 20
-157.2723985066888
 10
92.38919268523604
 20
-157.2723985066888
 10
92.28756236842116
 20
-157.2723985066888
 10
92.28756236842116
 20
-157.2723985066888
 10
92.28756236842116
 20
-157.3592149129171
 10
92.26654728596114
 20
-157.7485107027503
 10
92.06983233375337
 20
-157.9683077947093
 10
91.91721460375681
 20
-158.1374619830351
 10
91.71016436509329
 20
-158.2073974213856
 10
91.62541501615615
 20
-158.2349581852676
 10
91.62541501615615
 20
-158.2349581852676
 10
91.43076712123955
 20
-158.067871054233
 10
91.43076712123955
 20
-158.067871054233
 10
91.5282633234721
 20
-158.0551242009376
 10
91.70361868367132
 20
-158.0316975516379
 10
91.89206540671449
 20
-157.8435953381432
 10
91.96613495964736
 20
-157.7715928425015
 10
92.06983233375337
 20
-157.6320664753489
 10
92.06983233375337
 20
-157.2723985066888
 10
92.06983233375337
 20
-157.2723985066888
 10
91.83901093624163
 20
-157.2723985066888
 10
91.83901093624163
 20
-157.2723985066888
 10
91.65297578003814
 20
-157.2723985066888
 10
91.46659611428614
 20
-157.2765326212711
 10
91.28056095808265
 20
-157.2913465318577
 10
91.28056095808265
 20
-157.2913465318577
 10
91.28056095808265
 20
-157.0715494398988
 10
91.28056095808265
 20
-157.0715494398988
 10
91.4690076811258
 20
-157.0863633504853
 10
91.75460609685302
 20
-157.0904974650676
 10
91.83901093624163
 20
-157.0904974650676
 10
91.83901093624163
 20
-157.0904974650676
 10
92.38919268523604
 20
-157.0904974650676
 10
92.38919268523604
 20
-157.0904974650676
 10
92.40814071040491
 20
-157.0904974650676
 10
92.72543400459642
 20
-157.0904974650676
 10
92.95384383526849
 20
-157.0715494398988
 10
92.95384383526849
 20
-157.0715494398988
 10
92.95384383526849
 20
-157.2913465318577
 10
92.95384383526849
 20
-157.2913465318577
 10
92.76574162177384
 20
-157.2765326212711
 10
92.57729489873069
 20
-157.2723985066888
 10
92.38919268523604
 20
-157.2723985066888
 97
        0
 97
        1
330
FC
 75
     2
 76
     1
 98
        1
 10
0.0
 20
0.0
450
        0
451
        0
460
0.0
461
0.0
452
        0
462
0.0
453
        0
470

  0
SPLINE
  5
FE
330
EE
100
AcDbEntity
  8
レイヤー 1
100
AcDbSpline
210
0.0
220
0.0
230
1.0
 70
     9
 71
     3
 72
    29
 73
    25
 74
     0
 42
0.0000000001
 43
0.0000000001
 40
0.0
 40
0.0
 40
0.0
 40
0.0
 40
1.0
 40
1.0
 40
1.0
 40
2.0
 40
2.0
 40
2.0
 40
3.0
 40
3.0
 40
3.0
 40
4.0
 40
4.0
 40
4.0
 40
5.0
 40
5.0
 40
5.0
 40
6.0
 40
6.0
 40
6.0
 40
7.0
 40
7.0
 40
7.0
 40
8.0
 40
8.0
 40
8.0
 40
8.0
 10
94.23507484623291
 20
-157.4353515231412
 30
0.0
 10
94.23507484623291
 20
-157.4353515231412
 30
0.0
 10
93.75069442100677
 20
-157.4353515231412
 30
0.0
 10
93.75069442100677
 20
-157.4353515231412
 30
0.0
 10
93.72313365712477
 20
-157.4353515231412
 30
0.0
 10
93.40584036293327
 20
-157.4353515231412
 30
0.0
 10
93.19431150013892
 20
-157.4605007201835
 30
0.0
 10
93.19431150013892
 20
-157.4605007201835
 30
0.0
 10
93.19431150013892
 20
-157.2300238322202
 30
0.0
 10
93.19431150013892
 20
-157.2300238322202
 30
0.0
 10
93.35278589246042
 20
-157.25345048152
 30
0.0
 10
93.54329967279474
 20
-157.2555175388111
 30
0.0
 10
93.75069442100677
 20
-157.2555175388111
 30
0.0
 10
93.75069442100677
 20
-157.2555175388111
 30
0.0
 10
94.23507484623291
 20
-157.2555175388111
 30
0.0
 10
94.23507484623291
 20
-157.2555175388111
 30
0.0
 10
94.4211100024364
 20
-157.2555175388111
 30
0.0
 10
94.6074896681884
 20
-157.25345048152
 30
0.0
 10
94.79145776710074
 20
-157.2300238322202
 30
0.0
 10
94.79145776710074
 20
-157.2300238322202
 30
0.0
 10
94.79145776710074
 20
-157.4605007201835
 30
0.0
 10
94.79145776710074
 20
-157.4605007201835
 30
0.0
 10
94.6074896681884
 20
-157.4374185804323
 30
0.0
 10
94.35978730279895
 20
-157.4353515231412
 30
0.0
 10
94.23507484623291
 20
-157.4353515231412
 30
0.0
  0
HATCH
  5
FF
330
EE
100
AcDbEntity
  8
レイヤー 1
 62
   250
420
  2299925
440
 33554687
100
AcDbHatch
 10
0.0
 20
0.0
 30
0.0
210
0.0
220
0.0
230
1.0
  2
SOLID
 70
     1
 71
     1
 91
        1
 92
        1
 93
        1
 72
     4
 94
        3
 73
     0
 74
     0
 95
       29
 96
       25
 40
0.0
 40
0.0
 40
0.0
 40
0.0
 40
1.0
 40
1.0
 40
1.0
 40
2.0
 40
2.0
 40
2.0
 40
3.0
 40
3.0
 40
3.0
 40
4.0
 40
4.0
 40
4.0
 40
5.0
 40
5.0
 40
5.0
 40
6.0
 40
6.0
 40
6.0
 40
7.0
 40
7.0
 40
7.0
 40
8.0
 40
8.0
 40
8.0
 40
8.0
 10
94.23507484623291
 20
-157.4353515231412
 10
94.23507484623291
 20
-157.4353515231412
 10
93.75069442100677
 20
-157.4353515231412
 10
93.75069442100677
 20
-157.4353515231412
 10
93.72313365712477
 20
-157.4353515231412
 10
93.40584036293327
 20
-157.4353515231412
 10
93.19431150013892
 20
-157.4605007201835
 10
93.19431150013892
 20
-157.4605007201835
 10
93.19431150013892
 20
-157.2300238322202
 10
93.19431150013892
 20
-157.2300238322202
 10
93.35278589246042
 20
-157.25345048152
 10
93.54329967279474
 20
-157.2555175388111
 10
93.75069442100677
 20
-157.2555175388111
 10
93.75069442100677
 20
-157.2555175388111
 10
94.23507484623291
 20
-157.2555175388111
 10
94.23507484623291
 20
-157.2555175388111
 10
94.4211100024364
 20
-157.2555175388111
 10
94.6074896681884
 20
-157.25345048152
 10
94.79145776710074
 20
-157.2300238322202
 10
94.79145776710074
 20
-157.2300238322202
 10
94.79145776710074
 20
-157.4605007201835
 10
94.79145776710074
 20
-157.4605007201835
 10
94.6074896681884
 20
-157.4374185804323
 10
94.35978730279895
 20
-157.4353515231412
 10
94.23507484623291
 20
-157.4353515231412
 97
        0
 97
        1
330
FE
 75
     2
 76
     1
 98
        1
 10
0.0
 20
0.0
450
        0
451
        0
460
0.0
461
0.0
452
        0
462
0.0
453
        0
470

  0
SPLINE
  5
100
330
EE
100
AcDbEntity
  8
レイヤー 1
100
AcDbSpline
210
0.0
220
0.0
230
1.0
 70
     9
 71
     3
 72
    17
 73
    13
 74
     0
 42
0.0000000001
 43
0.0000000001
 40
0.0
 40
0.0
 40
0.0
 40
0.0
 40
1.0
 40
1.0
 40
1.0
 40
2.0
 40
2.0
 40
2.0
 40
3.0
 40
3.0
 40
3.0
 40
4.0
 40
4.0
 40
4.0
 40
4.0
 10
96.65387638642682
 20
-156.4683132204315
 30
0.0
 10
96.59909936821135
 20
-156.4683132204315
 30
0.0
 10
96.55465763645162
 20
-156.5127549521912
 30
0.0
 10
96.55465763645162
 20
-156.5678764799552
 30
0.0
 10
96.55465763645162
 20
-156.6250650650104
 30
0.0
 10
96.59909936821135
 20
-156.6736409113524
 30
0.0
 10
96.65801050100911
 20
-156.6736409113524
 30
0.0
 10
96.71726614335542
 20
-156.6736409113524
 30
0.0
 10
96.75757376053283
 20
-156.6229980077192
 30
0.0
 10
96.75757376053283
 20
-156.5699435372464
 30
0.0
 10
96.75757376053283
 20
-156.5127549521912
 30
0.0
 10
96.71106497148196
 20
-156.4683132204315
 30
0.0
 10
96.65387638642682
 20
-156.4683132204315
 30
0.0
  0
SPLINE
  5
101
330
EE
100
AcDbEntity
  8
レイヤー 1
100
AcDbSpline
210
0.0
220
0.0
230
1.0
 70
     9
 71
     3
 72
    17
 73
    13
 74
     0
 42
0.0000000001
 43
0.0000000001
 40
0.0
 40
0.0
 40
0.0
 40
0.0
 40
1.0
 40
1.0
 40
1.0
 40
2.0
 40
2.0
 40
2.0
 40
3.0
 40
3.0
 40
3.0
 40
4.0
 40
4.0
 40
4.0
 40
4.0
 10
96.65594344371797
 20
-156.7983533679185
 30
0.0
 10
96.52916392986078
 20
-156.7983533679185
 30
0.0
 10
96.4275336130459
 20
-156.6970675606521
 30
0.0
 10
96.4275336130459
 20
-156.5699435372464
 30
0.0
 10
96.4275336130459
 20
-156.4431640233892
 30
0.0
 10
96.52916392986078
 20
-156.3394666492832
 30
0.0
 10
96.65594344371797
 20
-156.3394666492832
 30
0.0
 10
96.78306746712369
 20
-156.3394666492832
 30
0.0
 10
96.88676484122971
 20
-156.4431640233892
 30
0.0
 10
96.88676484122971
 20
-156.5699435372464
 30
0.0
 10
96.88676484122971
 20
-156.6970675606521
 30
0.0
 10
96.78306746712369
 20
-156.7983533679185
 30
0.0
 10
96.65594344371797
 20
-156.7983533679185
 30
0.0
  0
SPLINE
  5
102
330
EE
100
AcDbEntity
  8
レイヤー 1
100
AcDbSpline
210
0.0
220
0.0
230
1.0
 70
     9
 71
     3
 72
    44
 73
    40
 74
     0
 42
0.0000000001
 43
0.0000000001
 40
0.0
 40
0.0
 40
0.0
 40
0.0
 40
1.0
 40
1.0
 40
1.0
 40
2.0
 40
2.0
 40
2.0
 40
3.0
 40
3.0
 40
3.0
 40
4.0
 40
4.0
 40
4.0
 40
5.0
 40
5.0
 40
5.0
 40
6.0
 40
6.0
 40
6.0
 40
7.0
 40
7.0
 40
7.0
 40
8.0
 40
8.0
 40
8.0
 40
9.0
 40
9.0
 40
9.0
 40
10.0
 40
10.0
 40
10.0
 40
11.0
 40
11.0
 40
11.0
 40
12.0
 40
12.0
 40
12.0
 40
13.0
 40
13.0
 40
13.0
 40
13.0
 10
96.44648163821479
 20
-156.9974798869659
 30
0.0
 10
96.33451603494416
 20
-157.3654160847906
 30
0.0
 10
96.28387313131099
 20
-157.5242349866606
 30
0.0
 10
96.08715817910322
 20
-157.7736598997927
 30
0.0
 10
95.90284557064235
 20
-158.0044812973044
 30
0.0
 10
95.66616751080568
 20
-158.1905164535079
 30
0.0
 10
95.38677026695193
 20
-158.2835340316097
 30
0.0
 10
95.38677026695193
 20
-158.2835340316097
 30
0.0
 10
95.19418942932645
 20
-158.1037000472796
 30
0.0
 10
95.19418942932645
 20
-158.1037000472796
 30
0.0
 10
95.83532169913146
 20
-157.9514268268316
 30
0.0
 10
96.16536184661839
 20
-157.3950439059637
 30
0.0
 10
96.22875160354698
 20
-156.9551052124973
 30
0.0
 10
96.22875160354698
 20
-156.9551052124973
 30
0.0
 10
95.46290687717593
 20
-156.9551052124973
 30
0.0
 10
95.46290687717593
 20
-156.9551052124973
 30
0.0
 10
95.36988929907421
 20
-156.9551052124973
 30
0.0
 10
95.18592120016185
 20
-156.9592393270796
 30
0.0
 10
95.029169355583
 20
-156.9781873522485
 30
0.0
 10
95.029169355583
 20
-156.9781873522485
 30
0.0
 10
95.029169355583
 20
-156.7583902602896
 30
0.0
 10
95.029169355583
 20
-156.7583902602896
 30
0.0
 10
95.11598576181128
 20
-156.7794053427496
 30
0.0
 10
95.36782224178304
 20
-156.7794053427496
 30
0.0
 10
95.46704099175824
 20
-156.7794053427496
 30
0.0
 10
95.46704099175824
 20
-156.7794053427496
 30
0.0
 10
95.89871145606004
 20
-156.7794053427496
 30
0.0
 10
95.89871145606004
 20
-156.7794053427496
 30
0.0
 10
95.94108613052862
 20
-156.7794053427496
 30
0.0
 10
96.17569713307414
 20
-156.7773382854584
 30
0.0
 10
96.21393769296041
 20
-156.771137113585
 30
0.0
 10
96.25631236742897
 20
-156.764591432163
 30
0.0
 10
96.25837942472013
 20
-156.7625243748719
 30
0.0
 10
96.31970212435758
 20
-156.7222167576944
 30
0.0
 10
96.31970212435758
 20
-156.7222167576944
 30
0.0
 10
96.50780433785222
 20
-156.8769015449821
 30
0.0
 10
96.50780433785222
 20
-156.8769015449821
 30
0.0
 10
96.4785210262276
 20
-156.9065293661553
 30
0.0
 10
96.46370711564102
 20
-156.9382242446196
 30
0.0
 10
96.44648163821479
 20
-156.9974798869659
 30
0.0
  0
HATCH
  5
103
330
EE
100
AcDbEntity
  8
レイヤー 1
 62
   250
420
  2299925
440
 33554687
100
AcDbHatch
 10
0.0
 20
0.0
 30
0.0
210
0.0
220
0.0
230
1.0
  2
SOLID
 70
     1
 71
     1
 91
        3
 92
        1
 93
        1
 72
     4
 94
        3
 73
     0
 74
     0
 95
       17
 96
       13
 40
0.0
 40
0.0
 40
0.0
 40
0.0
 40
1.0
 40
1.0
 40
1.0
 40
2.0
 40
2.0
 40
2.0
 40
3.0
 40
3.0
 40
3.0
 40
4.0
 40
4.0
 40
4.0
 40
4.0
 10
96.65387638642682
 20
-156.4683132204315
 10
96.59909936821135
 20
-156.4683132204315
 10
96.55465763645162
 20
-156.5127549521912
 10
96.55465763645162
 20
-156.5678764799552
 10
96.55465763645162
 20
-156.6250650650104
 10
96.59909936821135
 20
-156.6736409113524
 10
96.65801050100911
 20
-156.6736409113524
 10
96.71726614335542
 20
-156.6736409113524
 10
96.75757376053283
 20
-156.6229980077192
 10
96.75757376053283
 20
-156.5699435372464
 10
96.75757376053283
 20
-156.5127549521912
 10
96.71106497148196
 20
-156.4683132204315
 10
96.65387638642682
 20
-156.4683132204315
 97
        0
 97
        1
330
100
 92
        1
 93
        1
 72
     4
 94
        3
 73
     0
 74
     0
 95
       17
 96
       13
 40
0.0
 40
0.0
 40
0.0
 40
0.0
 40
1.0
 40
1.0
 40
1.0
 40
2.0
 40
2.0
 40
2.0
 40
3.0
 40
3.0
 40
3.0
 40
4.0
 40
4.0
 40
4.0
 40
4.0
 10
96.65594344371797
 20
-156.7983533679185
 10
96.52916392986078
 20
-156.7983533679185
 10
96.4275336130459
 20
-156.6970675606521
 10
96.4275336130459
 20
-156.5699435372464
 10
96.4275336130459
 20
-156.4431640233892
 10
96.52916392986078
 20
-156.3394666492832
 10
96.65594344371797
 20
-156.3394666492832
 10
96.78306746712369
 20
-156.3394666492832
 10
96.88676484122971
 20
-156.4431640233892
 10
96.88676484122971
 20
-156.5699435372464
 10
96.88676484122971
 20
-156.6970675606521
 10
96.78306746712369
 20
-156.7983533679185
 10
96.65594344371797
 20
-156.7983533679185
 97
        0
 97
        1
330
101
 92
        1
 93
        1
 72
     4
 94
        3
 73
     0
 74
     0
 95
       44
 96
       40
 40
0.0
 40
0.0
 40
0.0
 40
0.0
 40
1.0
 40
1.0
 40
1.0
 40
2.0
 40
2.0
 40
2.0
 40
3.0
 40
3.0
 40
3.0
 40
4.0
 40
4.0
 40
4.0
 40
5.0
 40
5.0
 40
5.0
 40
6.0
 40
6.0
 40
6.0
 40
7.0
 40
7.0
 40
7.0
 40
8.0
 40
8.0
 40
8.0
 40
9.0
 40
9.0
 40
9.0
 40
10.0
 40
10.0
 40
10.0
 40
11.0
 40
11.0
 40
11.0
 40
12.0
 40
12.0
 40
12.0
 40
13.0
 40
13.0
 40
13.0
 40
13.0
 10
96.44648163821479
 20
-156.9974798869659
 10
96.33451603494416
 20
-157.3654160847906
 10
96.28387313131099
 20
-157.5242349866606
 10
96.08715817910322
 20
-157.7736598997927
 10
95.90284557064235
 20
-158.0044812973044
 10
95.66616751080568
 20
-158.1905164535079
 10
95.38677026695193
 20
-158.2835340316097
 10
95.38677026695193
 20
-158.2835340316097
 10
95.19418942932645
 20
-158.1037000472796
 10
95.19418942932645
 20
-158.1037000472796
 10
95.83532169913146
 20
-157.9514268268316
 10
96.16536184661839
 20
-157.3950439059637
 10
96.22875160354698
 20
-156.9551052124973
 10
96.22875160354698
 20
-156.9551052124973
 10
95.46290687717593
 20
-156.9551052124973
 10
95.46290687717593
 20
-156.9551052124973
 10
95.36988929907421
 20
-156.9551052124973
 10
95.18592120016185
 20
-156.9592393270796
 10
95.029169355583
 20
-156.9781873522485
 10
95.029169355583
 20
-156.9781873522485
 10
95.029169355583
 20
-156.7583902602896
 10
95.029169355583
 20
-156.7583902602896
 10
95.11598576181128
 20
-156.7794053427496
 10
95.36782224178304
 20
-156.7794053427496
 10
95.46704099175824
 20
-156.7794053427496
 10
95.46704099175824
 20
-156.7794053427496
 10
95.89871145606004
 20
-156.7794053427496
 10
95.89871145606004
 20
-156.7794053427496
 10
95.94108613052862
 20
-156.7794053427496
 10
96.17569713307414
 20
-156.7773382854584
 10
96.21393769296041
 20
-156.771137113585
 10
96.25631236742897
 20
-156.764591432163
 10
96.25837942472013
 20
-156.7625243748719
 10
96.31970212435758
 20
-156.7222167576944
 10
96.31970212435758
 20
-156.7222167576944
 10
96.50780433785222
 20
-156.8769015449821
 10
96.50780433785222
 20
-156.8769015449821
 10
96.4785210262276
 20
-156.9065293661553
 10
96.46370711564102
 20
-156.9382242446196
 10
96.44648163821479
 20
-156.9974798869659
 97
        0
 97
        1
330
102
 75
     2
 76
     1
 98
        1
 10
0.0
 20
0.0
450
        0
451
        0
460
0.0
461
0.0
452
        0
462
0.0
453
        0
470

  0
ENDBLK
  5
F1
330
EE
100
AcDbEntity
  8
0
100
AcDbBlockEnd
  0
ENDSEC
  0
SECTION
  2
ENTITIES
  0
INSERT
  5
7A
330
70
100
AcDbEntity
  8
レイヤー 1
100
AcDbBlockReference
  2
Block_0
 10
0.0
 20
0.0
 30
0.0
  0
INSERT
  5
E2
330
70
100
AcDbEntity
  8
レイヤー 1
100
AcDbBlockReference
  2
Block_14
 10
0.0
 20
0.0
 30
0.0
  0
ENDSEC
  0
SECTION
  2
OBJECTS
  0
DICTIONARY
  5
C
330
0
100
AcDbDictionary
281
     1
  3
ACAD_COLOR
350
63
  3
ACAD_DETAILVIEWSTYLE
350
6A
  3
ACAD_GROUP
350
D
  3
ACAD_LAYOUT
350
62
  3
ACAD_MATERIAL
350
10
  3
ACAD_MLEADERSTYLE
350
66
  3
ACAD_MLINESTYLE
350
5F
  3
ACAD_PLOTSETTINGS
350
61
  3
ACAD_PLOTSTYLENAME
350
E
  3
ACAD_SCALELIST
350
42
  3
ACAD_SECTIONVIEWSTYLE
350
68
  3
ACAD_TABLESTYLE
350
64
  3
ACAD_VISUALSTYLE
350
29
  3
ACDB_RECOMPOSE_DATA
350
10C
  3
AcDbVariableDictionary
350
104
  0
DICTIONARY
  5
63
102
{ACAD_REACTORS
330
C
102
}
330
C
100
AcDbDictionary
281
     1
  0
DICTIONARY
  5
6A
102
{ACAD_REACTORS
330
C
102
}
330
C
100
AcDbDictionary
281
     1
  3
Imperial24
350
6B
  0
DICTIONARY
  5
D
102
{ACAD_REACTORS
330
C
102
}
330
C
100
AcDbDictionary
281
     1
  0
DICTIONARY
  5
62
102
{ACAD_REACTORS
330
C
102
}
330
C
100
AcDbDictionary
281
     1
  3
Layout1
350
6F
  3
Layout2
350
77
  3
Model
350
73
  0
DICTIONARY
  5
10
102
{ACAD_REACTORS
330
C
102
}
330
C
100
AcDbDictionary
281
     1
  3
ByBlock
350
19
  3
ByLayer
350
11
  3
Global
350
21
  0
DICTIONARY
  5
66
102
{ACAD_REACTORS
330
C
102
}
330
C
100
AcDbDictionary
281
     1
  3
Standard
350
67
  0
DICTIONARY
  5
5F
102
{ACAD_REACTORS
330
C
102
}
330
C
100
AcDbDictionary
281
     1
  3
Standard
350
60
  0
DICTIONARY
  5
61
102
{ACAD_REACTORS
330
C
102
}
330
C
100
AcDbDictionary
281
     1
  0
ACDBDICTIONARYWDFLT
  5
E
102
{ACAD_REACTORS
330
C
102
}
330
C
100
AcDbDictionary
281
     1
  3
Normal
350
F
100
AcDbDictionaryWithDefault
340
F
  0
DICTIONARY
  5
42
102
{ACAD_REACTORS
330
C
102
}
330
C
100
AcDbDictionary
281
     1
  3
A0
350
43
  3
A1
350
44
  3
A2
350
45
  3
A3
350
46
  3
A4
350
47
  3
A5
350
48
  3
A6
350
49
  3
A7
350
4A
  3
A8
350
4B
  3
A9
350
4C
  3
B0
350
4D
  3
B1
350
4E
  3
B2
350
4F
  3
B3
350
50
  3
B4
350
51
  3
B5
350
52
  3
B6
350
53
  0
DICTIONARY
  5
68
102
{ACAD_REACTORS
330
C
102
}
330
C
100
AcDbDictionary
281
     1
  3
Imperial24
350
69
  0
DICTIONARY
  5
64
102
{ACAD_REACTORS
330
C
102
}
330
C
100
AcDbDictionary
281
     1
  3
Standard
350
65
  0
DICTIONARY
  5
29
102
{ACAD_REACTORS
330
C
102
}
330
C
100
AcDbDictionary
281
     1
  3
2dWireframe
350
2F
  3
Basic
350
2E
  3
Brighten
350
35
  3
ColorChange
350
39
  3
Conceptual
350
32
  3
Dim
350
34
  3
EdgeColorOff
350
41
  3
Facepattern
350
38
  3
Flat
350
2A
  3
FlatWithEdges
350
2B
  3
Gouraud
350
2C
  3
GouraudWithEdges
350
2D
  3
Hidden
350
31
  3
JitterOff
350
3F
  3
Linepattern
350
37
  3
OverhangOff
350
40
  3
Realistic
350
33
  3
Shaded
350
3E
  3
Shaded with edges
350
3D
  3
Shades of Gray
350
3A
  3
Sketchy
350
3B
  3
Thicken
350
36
  3
Wireframe
350
30
  3
X-Ray
350
3C
  0
XRECORD
  5
10C
102
{ACAD_REACTORS
330
C
102
}
330
C
100
AcDbXrecord
280
     1
 90
        1
330
65
  0
DICTIONARY
  5
104
102
{ACAD_REACTORS
330
C
102
}
330
C
100
AcDbDictionary
281
     1
  3
CANNOSCALE
350
109
  3
CMLEADERSTYLE
350
106
  3
CTABLESTYLE
350
105
  3
CVIEWDETAILSTYLE
350
107
  3
CVIEWSECTIONSTYLE
350
108
  0
ACDBDETAILVIEWSTYLE
  5
6B
102
{ACAD_XDICTIONARY
360
141
102
}
102
{ACAD_REACTORS
330
6A
102
}
330
6A
100
AcDbModelDocViewStyle
 70
     0
  3
Imperial24
290
     0
100
AcDbDetailViewStyle
 70
     0
 71
     0
 90
        3
 71
     1
340
55
 62
   256
 40
0.24
340
0
 62
   256
 40
0.24
300

 40
0.36
280
     3
 71
     2
340
5D
 90
       25
 62
   256
 71
     3
340
55
 62
   256
 40
0.24
 90
        1
 40
0.75
 90
        1
300
%<\AcVar ViewType \f "%tc1">% %<\AcVar ViewDetailId>%\PSCALE %<\AcVar ViewScale \f "%sn">%
 71
     4
340
5D
 90
       25
 62
   256
340
5D
 90
       25
 62
   256
280
     0
  0
LAYOUT
  5
6F
102
{ACAD_REACTORS
330
62
102
}
330
62
100
AcDbPlotSettings
  1

  2

  4

  6

 40
0.0
 41
0.0
 42
0.0
 43
0.0
 44
0.0
 45
0.0
 46
0.0
 47
0.0
 48
0.0
 49
0.0
140
0.0
141
0.0
142
1.0
143
1.0
 70
   688
 72
     0
 73
     0
 74
     5
  7

 75
    16
147
1.0
 76
     0
 77
     2
 78
   300
148
0.0
149
0.0
100
AcDbLayout
  1
Layout1
 70
     1
 71
     1
 10
0.0
 20
0.0
 11
12.0
 21
9.0
 12
0.0
 22
0.0
 32
0.0
 14
0.0
 24
0.0
 34
0.0
 15
0.0
 25
0.0
 35
0.0
146
0.0
 13
0.0
 23
0.0
 33
0.0
 16
1.0
 26
0.0
 36
0.0
 17
0.0
 27
1.0
 37
0.0
 76
     0
330
6C
  0
LAYOUT
  5
77
102
{ACAD_REACTORS
330
62
102
}
330
62
100
AcDbPlotSettings
  1

  2

  4

  6

 40
0.0
 41
0.0
 42
0.0
 43
0.0
 44
0.0
 45
0.0
 46
0.0
 47
0.0
 48
0.0
 49
0.0
140
0.0
141
0.0
142
1.0
143
1.0
 70
   688
 72
     0
 73
     0
 74
     5
  7

 75
    16
147
1.0
 76
     0
 77
     2
 78
   300
148
0.0
149
0.0
100
AcDbLayout
  1
Layout2
 70
     1
 71
     2
 10
0.0
 20
0.0
 11
12.0
 21
9.0
 12
0.0
 22
0.0
 32
0.0
 14
0.0
 24
0.0
 34
0.0
 15
0.0
 25
0.0
 35
0.0
146
0.0
 13
0.0
 23
0.0
 33
0.0
 16
1.0
 26
0.0
 36
0.0
 17
0.0
 27
1.0
 37
0.0
 76
     0
330
74
  0
LAYOUT
  5
73
102
{ACAD_REACTORS
330
62
102
}
330
62
100
AcDbPlotSettings
  1

  2

  4

  6

 40
0.0
 41
0.0
 42
0.0
 43
0.0
 44
0.0
 45
0.0
 46
0.0
 47
0.0
 48
0.0
 49
0.0
140
0.0
141
0.0
142
1.0
143
1.0
 70
  1712
 72
     0
 73
     0
 74
     0
  7

 75
     0
147
1.0
 76
     0
 77
     2
 78
   300
148
0.0
149
0.0
100
AcDbLayout
  1
Model
 70
     1
 71
     0
 10
0.0
 20
0.0
 11
12.0
 21
9.0
 12
0.0
 22
0.0
 32
0.0
 14
0.0
 24
0.0
 34
0.0
 15
0.0
 25
0.0
 35
0.0
146
0.0
 13
0.0
 23
0.0
 33
0.0
 16
1.0
 26
0.0
 36
0.0
 17
0.0
 27
1.0
 37
0.0
 76
     0
330
70
  0
MATERIAL
  5
19
102
{ACAD_XDICTIONARY
360
1A
102
}
102
{ACAD_REACTORS
330
10
102
}
330
10
100
AcDbMaterial
  1
ByBlock
 72
     0
 43
0.0208333333333333
 43
0.0
 43
0.0
 43
0.0
 43
0.0
 43
0.0208333333333333
 43
0.0
 43
0.0
 43
0.0
 43
0.0
 43
1.0
 43
0.0
 43
0.0
 43
0.0
 43
0.0
 43
1.0
 77
     0
 47
0.0208333333333333
 47
0.0
 47
0.0
 47
0.0
 47
0.0
 47
0.0208333333333333
 47
0.0
 47
0.0
 47
0.0
 47
0.0
 47
1.0
 47
0.0
 47
0.0
 47
0.0
 47
0.0
 47
1.0
171
     0
 49
0.0208333333333333
 49
0.0
 49
0.0
 49
0.0
 49
0.0
 49
0.0208333333333333
 49
0.0
 49
0.0
 49
0.0
 49
0.0
 49
1.0
 49
0.0
 49
0.0
 49
0.0
 49
0.0
 49
1.0
175
     0
142
0.0208333333333333
142
0.0
142
0.0
142
0.0
142
0.0
142
0.0208333333333333
142
0.0
142
0.0
142
0.0
142
0.0
142
1.0
142
0.0
142
0.0
142
0.0
142
0.0
142
1.0
179
     0
144
0.0208333333333333
144
0.0
144
0.0
144
0.0
144
0.0
144
0.0208333333333333
144
0.0
144
0.0
144
0.0
144
0.0
144
1.0
144
0.0
144
0.0
144
0.0
144
0.0
144
1.0
147
0.0208333333333333
147
0.0
147
0.0
147
0.0
147
0.0
147
0.0208333333333333
147
0.0
147
0.0
147
0.0
147
0.0
147
1.0
147
0.0
147
0.0
147
0.0
147
0.0
147
1.0
  0
MATERIAL
  5
11
102
{ACAD_XDICTIONARY
360
12
102
}
102
{ACAD_REACTORS
330
10
102
}
330
10
100
AcDbMaterial
  1
ByLayer
 72
     0
 43
0.0208333333333333
 43
0.0
 43
0.0
 43
0.0
 43
0.0
 43
0.0208333333333333
 43
0.0
 43
0.0
 43
0.0
 43
0.0
 43
1.0
 43
0.0
 43
0.0
 43
0.0
 43
0.0
 43
1.0
 77
     0
 47
0.0208333333333333
 47
0.0
 47
0.0
 47
0.0
 47
0.0
 47
0.0208333333333333
 47
0.0
 47
0.0
 47
0.0
 47
0.0
 47
1.0
 47
0.0
 47
0.0
 47
0.0
 47
0.0
 47
1.0
171
     0
 49
0.0208333333333333
 49
0.0
 49
0.0
 49
0.0
 49
0.0
 49
0.0208333333333333
 49
0.0
 49
0.0
 49
0.0
 49
0.0
 49
1.0
 49
0.0
 49
0.0
 49
0.0
 49
0.0
 49
1.0
175
     0
142
0.0208333333333333
142
0.0
142
0.0
142
0.0
142
0.0
142
0.0208333333333333
142
0.0
142
0.0
142
0.0
142
0.0
142
1.0
142
0.0
142
0.0
142
0.0
142
0.0
142
1.0
179
     0
144
0.0208333333333333
144
0.0
144
0.0
144
0.0
144
0.0
144
0.0208333333333333
144
0.0
144
0.0
144
0.0
144
0.0
144
1.0
144
0.0
144
0.0
144
0.0
144
0.0
144
1.0
147
0.0208333333333333
147
0.0
147
0.0
147
0.0
147
0.0
147
0.0208333333333333
147
0.0
147
0.0
147
0.0
147
0.0
147
1.0
147
0.0
147
0.0
147
0.0
147
0.0
147
1.0
  0
MATERIAL
  5
21
102
{ACAD_XDICTIONARY
360
22
102
}
102
{ACAD_REACTORS
330
10
102
}
330
10
100
AcDbMaterial
  1
Global
 72
     0
 43
0.0208333333333333
 43
0.0
 43
0.0
 43
0.0
 43
0.0
 43
0.0208333333333333
 43
0.0
 43
0.0
 43
0.0
 43
0.0
 43
1.0
 43
0.0
 43
0.0
 43
0.0
 43
0.0
 43
1.0
 77
     0
 47
0.0208333333333333
 47
0.0
 47
0.0
 47
0.0
 47
0.0
 47
0.0208333333333333
 47
0.0
 47
0.0
 47
0.0
 47
0.0
 47
1.0
 47
0.0
 47
0.0
 47
0.0
 47
0.0
 47
1.0
171
     0
 49
0.0208333333333333
 49
0.0
 49
0.0
 49
0.0
 49
0.0
 49
0.0208333333333333
 49
0.0
 49
0.0
 49
0.0
 49
0.0
 49
1.0
 49
0.0
 49
0.0
 49
0.0
 49
0.0
 49
1.0
175
     0
142
0.0208333333333333
142
0.0
142
0.0
142
0.0
142
0.0
142
0.0208333333333333
142
0.0
142
0.0
142
0.0
142
0.0
142
1.0
142
0.0
142
0.0
142
0.0
142
0.0
142
1.0
179
     0
144
0.0208333333333333
144
0.0
144
0.0
144
0.0
144
0.0
144
0.0208333333333333
144
0.0
144
0.0
144
0.0
144
0.0
144
1.0
144
0.0
144
0.0
144
0.0
144
0.0
144
1.0
147
0.0208333333333333
147
0.0
147
0.0
147
0.0
147
0.0
147
0.0208333333333333
147
0.0
147
0.0
147
0.0
147
0.0
147
1.0
147
0.0
147
0.0
147
0.0
147
0.0
147
1.0
  0
MLEADERSTYLE
  5
67
102
{ACAD_XDICTIONARY
360
13D
102
}
102
{ACAD_REACTORS
330
66
102
}
330
66
100
AcDbMLeaderStyle
179
     2
170
     2
171
     1
172
     0
 90
        2
 40
0.0
 41
0.0
173
     1
 91
-1056964608
340
5B
 92
       -2
290
     1
 42
0.09
291
     1
 43
0.36
  3
Standard
 44
0.18
300

342
55
174
     1
178
     6
175
     1
176
     0
 93
-1056964608
 45
0.18
292
     0
297
     0
 46
0.18
 94
-1056964608
 47
1.0
 49
1.0
140
1.0
293
     1
141
0.0
294
     1
177
     0
142
1.0
295
     0
296
     0
143
0.125
271
     0
272
     9
273
     9
  0
MLINESTYLE
  5
60
102
{ACAD_REACTORS
330
5F
102
}
330
5F
100
AcDbMlineStyle
  2
STANDARD
 70
     0
  3

 62
   256
 51
90.0
 52
90.0
 71
     2
 49
0.5
 62
   256
  6
BYLAYER
 49
-0.5
 62
   256
  6
BYLAYER
  0
ACDBPLACEHOLDER
  5
F
102
{ACAD_REACTORS
330
E
102
}
330
E
  0
SCALE
  5
43
102
{ACAD_REACTORS
330
42
102
}
330
42
100
AcDbScale
 70
     0
300
1:1
140
1.0
141
1.0
290
     1
  0
SCALE
  5
44
102
{ACAD_REACTORS
330
42
102
}
330
42
100
AcDbScale
 70
     0
300
1/128" = 1'-0"
140
0.0078125
141
12.0
290
     0
  0
SCALE
  5
45
102
{ACAD_REACTORS
330
42
102
}
330
42
100
AcDbScale
 70
     0
300
1/64" = 1'-0"
140
0.015625
141
12.0
290
     0
  0
SCALE
  5
46
102
{ACAD_REACTORS
330
42
102
}
330
42
100
AcDbScale
 70
     0
300
1/32" = 1'-0"
140
0.03125
141
12.0
290
     0
  0
SCALE
  5
47
102
{ACAD_REACTORS
330
42
102
}
330
42
100
AcDbScale
 70
     0
300
1/16" = 1'-0"
140
0.0625
141
12.0
290
     0
  0
SCALE
  5
48
102
{ACAD_REACTORS
330
42
102
}
330
42
100
AcDbScale
 70
     0
300
3/32" = 1'-0"
140
0.09375
141
12.0
290
     0
  0
SCALE
  5
49
102
{ACAD_REACTORS
330
42
102
}
330
42
100
AcDbScale
 70
     0
300
1/8" = 1'-0"
140
0.125
141
12.0
290
     0
  0
SCALE
  5
4A
102
{ACAD_REACTORS
330
42
102
}
330
42
100
AcDbScale
 70
     0
300
3/16" = 1'-0"
140
0.1875
141
12.0
290
     0
  0
SCALE
  5
4B
102
{ACAD_REACTORS
330
42
102
}
330
42
100
AcDbScale
 70
     0
300
1/4" = 1'-0"
140
0.25
141
12.0
290
     0
  0
SCALE
  5
4C
102
{ACAD_REACTORS
330
42
102
}
330
42
100
AcDbScale
 70
     0
300
3/8" = 1'-0"
140
0.375
141
12.0
290
     0
  0
SCALE
  5
4D
102
{ACAD_REACTORS
330
42
102
}
330
42
100
AcDbScale
 70
     0
300
1/2" = 1'-0"
140
0.5
141
12.0
290
     0
  0
SCALE
  5
4E
102
{ACAD_REACTORS
330
42
102
}
330
42
100
AcDbScale
 70
     0
300
3/4" = 1'-0"
140
0.75
141
12.0
290
     0
  0
SCALE
  5
4F
102
{ACAD_REACTORS
330
42
102
}
330
42
100
AcDbScale
 70
     0
300
1" = 1'-0"
140
1.0
141
12.0
290
     0
  0
SCALE
  5
50
102
{ACAD_REACTORS
330
42
102
}
330
42
100
AcDbScale
 70
     0
300
1-1/2" = 1'-0"
140
1.5
141
12.0
290
     0
  0
SCALE
  5
51
102
{ACAD_REACTORS
330
42
102
}
330
42
100
AcDbScale
 70
     0
300
3" = 1'-0"
140
3.0
141
12.0
290
     0
  0
SCALE
  5
52
102
{ACAD_REACTORS
330
42
102
}
330
42
100
AcDbScale
 70
     0
300
6" = 1'-0"
140
6.0
141
12.0
290
     0
  0
SCALE
  5
53
102
{ACAD_REACTORS
330
42
102
}
330
42
100
AcDbScale
 70
     0
300
1'-0" = 1'-0"
140
12.0
141
12.0
290
     0
  0
ACDBSECTIONVIEWSTYLE
  5
69
102
{ACAD_XDICTIONARY
360
13F
102
}
102
{ACAD_REACTORS
330
68
102
}
330
68
100
AcDbModelDocViewStyle
 70
     0
  3
Imperial24
290
     0
100
AcDbSectionViewStyle
 70
     0
 71
     0
 90
       78
 71
     1
340
55
 62
   256
 40
0.24
340
0
340
0
 62
   256
 40
0.24
300
I, O, Q, S, X, Z
 40
0.48
 90
        3
 40
0.18
 90
        1
 71
     2
340
5D
 90
       25
 62
   256
340
5D
 90
       50
 62
   256
 40
0.24
 40
0.0
 40
0.24
 71
     3
340
55
 62
   256
 40
0.24
 90
        1
 40
0.75
 90
        1
300
%<\AcVar ViewType \f "%tc1">% %<\AcVar ViewSectionStartId>%-%<\AcVar ViewSectionEndId>%\PSCALE %<\AcVar ViewScale \f "%sn">%
 71
     4
 62
   256
 62
   257
300
ANSI31
 40
1.0
 90
        0
290
     0
290
     0
 90
        6
 40
0.0
 40
1.570796326794896
 40
0.2617993877991494
 40
1.308996938995747
 40
-0.2617993877991494
 40
1.832595714594046
  0
TABLESTYLE
  5
65
102
{ACAD_XDICTIONARY
360
10A
102
}
102
{ACAD_REACTORS
330
64
102
}
330
64
100
AcDbTableStyle
280
     0
  3
Standard
 70
     0
 71
     0
 40
0.06
 41
0.06
280
     0
281
     0
  7
Standard
140
0.18
170
     2
 62
     0
 63
     7
283
     0
 90
      512
 91
        0
  1

274
    -2
284
     1
 64
     0
275
    -2
285
     1
 65
     0
276
    -2
286
     1
 66
     0
277
    -2
287
     1
 67
     0
278
    -2
288
     1
 68
     0
279
    -2
289
     1
 69
     0
  7
Standard
140
0.25
170
     5
 62
     0
 63
     7
283
     0
 90
      512
 91
        0
  1

274
    -2
284
     1
 64
     0
275
    -2
285
     1
 65
     0
276
    -2
286
     1
 66
     0
277
    -2
287
     1
 67
     0
278
    -2
288
     1
 68
     0
279
    -2
289
     1
 69
     0
  7
Standard
140
0.18
170
     5
 62
     0
 63
     7
283
     0
 90
      512
 91
        0
  1

274
    -2
284
     1
 64
     0
275
    -2
285
     1
 65
     0
276
    -2
286
     1
 66
     0
277
    -2
287
     1
 67
     0
278
    -2
288
     1
 68
     0
279
    -2
289
     1
 69
     0
  0
VISUALSTYLE
  5
2F
102
{ACAD_XDICTIONARY
360
117
102
}
102
{ACAD_REACTORS
330
29
102
}
330
29
100
AcDbVisualStyle
  2
2dWireframe
 70
     4
177
     2
291
     0
 71
     0
176
     1
 72
     2
176
     1
 73
     0
176
     1
 90
        0
176
     1
 40
0.6
176
     1
 41
30.0
176
     1
 63
     7
421
 16777215
176
     1
 74
     1
176
     1
 91
        4
176
     1
 64
     7
176
     1
 65
   257
176
     1
 75
     1
176
     1
175
     1
176
     1
 42
1.0
176
     1
 92
        0
176
     1
 66
   257
176
     1
 43
1.0
176
     1
 76
     1
176
     1
 77
     6
176
     1
 78
     2
176
     1
 67
     7
176
     1
 79
     5
176
     1
170
     0
176
     1
171
     0
176
     1
290
     0
176
     1
 93
        1
176
     1
 44
0.0
176
     1
173
     0
176
     1
1001
ACAD
1000
AcDbSavedByObjectVersion
1070
     0
  0
VISUALSTYLE
  5
2E
102
{ACAD_XDICTIONARY
360
115
102
}
102
{ACAD_REACTORS
330
29
102
}
330
29
100
AcDbVisualStyle
  2
Basic
 70
     7
177
     2
291
     1
 71
     1
176
     1
 72
     0
176
     1
 73
     1
176
     1
 90
        0
176
     1
 40
0.6
176
     1
 41
30.0
176
     1
 63
     7
421
 16777215
176
     1
 74
     0
176
     1
 91
        4
176
     1
 64
     7
176
     1
 65
   257
176
     1
 75
     1
176
     1
175
     1
176
     1
 42
1.0
176
     1
 92
        8
176
     1
 66
     7
176
     1
 43
1.0
176
     1
 76
     1
176
     1
 77
     6
176
     1
 78
     2
176
     1
 67
     7
176
     1
 79
     5
176
     1
170
     0
176
     1
171
     0
176
     1
290
     0
176
     1
 93
        1
176
     1
 44
0.0
176
     1
173
     0
176
     1
1001
ACAD
1000
AcDbSavedByObjectVersion
1070
     0
  0
VISUALSTYLE
  5
35
102
{ACAD_XDICTIONARY
360
123
102
}
102
{ACAD_REACTORS
330
29
102
}
330
29
100
AcDbVisualStyle
  2
Brighten
 70
    12
177
     2
291
     1
 71
     2
176
     1
 72
     2
176
     1
 73
     0
176
     1
 90
        0
176
     1
 40
0.6
176
     1
 41
30.0
176
     1
 63
     7
421
 16777215
176
     1
 74
     1
176
     1
 91
        4
176
     1
 64
     7
176
     1
 65
   257
176
     1
 75
     1
176
     1
175
     1
176
     1
 42
1.0
176
     1
 92
        8
176
     1
 66
     7
176
     1
 43
1.0
176
     1
 76
     1
176
     1
 77
     6
176
     1
 78
     2
176
     1
 67
     7
176
     1
 79
     5
176
     1
170
     0
176
     1
171
     0
176
     1
290
     0
176
     1
 93
        1
176
     1
 44
50.0
176
     1
173
     0
176
     1
1001
ACAD
1000
AcDbSavedByObjectVersion
1070
     0
  0
VISUALSTYLE
  5
39
102
{ACAD_XDICTIONARY
360
12B
102
}
102
{ACAD_REACTORS
330
29
102
}
330
29
100
AcDbVisualStyle
  2
ColorChange
 70
    16
177
     2
291
     1
 71
     2
176
     1
 72
     2
176
     1
 73
     3
176
     1
 90
        0
176
     1
 40
0.6
176
     1
 41
30.0
176
     1
 63
     8
421
  8421504
176
     1
 74
     1
176
     1
 91
        4
176
     1
 64
     7
176
     1
 65
   257
176
     1
 75
     1
176
     1
175
     1
176
     1
 42
1.0
176
     1
 92
        8
176
     1
 66
     8
424
  8421504
176
     1
 43
1.0
176
     1
 76
     1
176
     1
 77
     6
176
     1
 78
     2
176
     1
 67
     7
176
     1
 79
     5
176
     1
170
     0
176
     1
171
     0
176
     1
290
     0
176
     1
 93
        1
176
     1
 44
0.0
176
     1
173
     0
176
     1
1001
ACAD
1000
AcDbSavedByObjectVersion
1070
     0
  0
VISUALSTYLE
  5
32
102
{ACAD_XDICTIONARY
360
11D
102
}
102
{ACAD_REACTORS
330
29
102
}
330
29
100
AcDbVisualStyle
  2
Conceptual
 70
     9
177
     2
291
     0
 71
     3
176
     1
 72
     2
176
     1
 73
     0
176
     1
 90
        0
176
     1
 40
0.6
176
     1
 41
30.0
176
     1
 63
     7
421
 16777215
176
     1
 74
     2
176
     1
 91
        2
176
     1
 64
     7
176
     1
 65
   257
176
     1
 75
     1
176
     1
175
     1
176
     1
 42
179.0
176
     1
 92
        8
176
     1
 66
     7
176
     1
 43
1.0
176
     1
 76
     1
176
     1
 77
     6
176
     1
 78
     2
176
     1
 67
     7
176
     1
 79
     3
176
     1
170
     0
176
     1
171
     0
176
     1
290
     0
176
     1
 93
        1
176
     1
 44
0.0
176
     1
173
     0
176
     1
1001
ACAD
1000
AcDbSavedByObjectVersion
1070
     0
  0
VISUALSTYLE
  5
34
102
{ACAD_XDICTIONARY
360
121
102
}
102
{ACAD_REACTORS
330
29
102
}
330
29
100
AcDbVisualStyle
  2
Dim
 70
    11
177
     2
291
     1
 71
     2
176
     1
 72
     2
176
     1
 73
     0
176
     1
 90
        0
176
     1
 40
0.6
176
     1
 41
30.0
176
     1
 63
     7
421
 16777215
176
     1
 74
     1
176
     1
 91
        4
176
     1
 64
     7
176
     1
 65
   257
176
     1
 75
     1
176
     1
175
     1
176
     1
 42
1.0
176
     1
 92
        8
176
     1
 66
     7
176
     1
 43
1.0
176
     1
 76
     1
176
     1
 77
     6
176
     1
 78
     2
176
     1
 67
     7
176
     1
 79
     5
176
     1
170
     0
176
     1
171
     0
176
     1
290
     0
176
     1
 93
        1
176
     1
 44
-50.0
176
     1
173
     0
176
     1
1001
ACAD
1000
AcDbSavedByObjectVersion
1070
     0
  0
VISUALSTYLE
  5
41
102
{ACAD_XDICTIONARY
360
13B
102
}
102
{ACAD_REACTORS
330
29
102
}
330
29
100
AcDbVisualStyle
  2
EdgeColorOff
 70
    22
177
     2
291
     1
 71
     2
176
     0
 72
     2
176
     0
 73
     0
176
     0
 90
        0
176
     0
 40
0.6
176
     0
 41
30.0
176
     0
 63
     7
421
 16777215
176
     0
 74
     1
176
     0
 91
        4
176
     0
 64
     7
176
     0
 65
   257
176
     0
 75
     1
176
     0
175
     1
176
     0
 42
1.0
176
     0
 92
        8
176
     2
 66
     7
176
     0
 43
1.0
176
     0
 76
     1
176
     0
 77
     6
176
     0
 78
     2
176
     0
 67
     7
176
     0
 79
     5
176
     0
170
     0
176
     0
171
     0
176
     0
290
     0
176
     0
 93
        1
176
     0
 44
0.0
176
     0
173
     0
176
     0
1001
ACAD
1000
AcDbSavedByObjectVersion
1070
     0
  0
VISUALSTYLE
  5
38
102
{ACAD_XDICTIONARY
360
129
102
}
102
{ACAD_REACTORS
330
29
102
}
330
29
100
AcDbVisualStyle
  2
Facepattern
 70
    15
177
     2
291
     1
 71
     2
176
     1
 72
     2
176
     1
 73
     0
176
     1
 90
        0
176
     1
 40
0.6
176
     1
 41
30.0
176
     1
 63
     7
421
 16777215
176
     1
 74
     1
176
     1
 91
        4
176
     1
 64
     7
176
     1
 65
   257
176
     1
 75
     1
176
     1
175
     1
176
     1
 42
1.0
176
     1
 92
        8
176
     1
 66
     7
176
     1
 43
1.0
176
     1
 76
     1
176
     1
 77
     6
176
     1
 78
     2
176
     1
 67
     7
176
     1
 79
     5
176
     1
170
     0
176
     1
171
     0
176
     1
290
     0
176
     1
 93
        1
176
     1
 44
0.0
176
     1
173
     0
176
     1
1001
ACAD
1000
AcDbSavedByObjectVersion
1070
     0
  0
VISUALSTYLE
  5
2A
102
{ACAD_XDICTIONARY
360
10D
102
}
102
{ACAD_REACTORS
330
29
102
}
330
29
100
AcDbVisualStyle
  2
Flat
 70
     0
177
     2
291
     1
 71
     2
176
     1
 72
     1
176
     1
 73
     1
176
     1
 90
        2
176
     1
 40
0.6
176
     1
 41
30.0
176
     1
 63
     7
421
 16777215
176
     1
 74
     0
176
     1
 91
        0
176
     1
 64
     7
176
     1
 65
   257
176
     1
 75
     1
176
     1
175
     1
176
     1
 42
1.0
176
     1
 92
        8
176
     1
 66
     7
176
     1
 43
1.0
176
     1
 76
     1
176
     1
 77
     6
176
     1
 78
     2
176
     1
 67
     7
176
     1
 79
     5
176
     1
170
     0
176
     1
171
     0
176
     1
290
     0
176
     1
 93
       13
176
     1
 44
0.0
176
     1
173
     0
176
     1
1001
ACAD
1000
AcDbSavedByObjectVersion
1070
     0
  0
VISUALSTYLE
  5
2B
102
{ACAD_XDICTIONARY
360
10F
102
}
102
{ACAD_REACTORS
330
29
102
}
330
29
100
AcDbVisualStyle
  2
FlatWithEdges
 70
     1
177
     2
291
     1
 71
     2
176
     1
 72
     1
176
     1
 73
     1
176
     1
 90
        2
176
     1
 40
0.6
176
     1
 41
30.0
176
     1
 63
     7
421
 16777215
176
     1
 74
     1
176
     1
 91
        0
176
     1
 64
     7
176
     1
 65
   257
176
     1
 75
     1
176
     1
175
     1
176
     1
 42
1.0
176
     1
 92
        0
176
     1
 66
   257
176
     1
 43
1.0
176
     1
 76
     1
176
     1
 77
     6
176
     1
 78
     2
176
     1
 67
     7
176
     1
 79
     5
176
     1
170
     0
176
     1
171
     0
176
     1
290
     0
176
     1
 93
       13
176
     1
 44
0.0
176
     1
173
     0
176
     1
1001
ACAD
1000
AcDbSavedByObjectVersion
1070
     0
  0
VISUALSTYLE
  5
2C
102
{ACAD_XDICTIONARY
360
111
102
}
102
{ACAD_REACTORS
330
29
102
}
330
29
100
AcDbVisualStyle
  2
Gouraud
 70
     2
177
     2
291
     1
 71
     2
176
     1
 72
     2
176
     1
 73
     1
176
     1
 90
        2
176
     1
 40
0.6
176
     1
 41
30.0
176
     1
 63
     7
421
 16777215
176
     1
 74
     0
176
     1
 91
        0
176
     1
 64
     7
176
     1
 65
   257
176
     1
 75
     1
176
     1
175
     1
176
     1
 42
1.0
176
     1
 92
        0
176
     1
 66
     7
176
     1
 43
1.0
176
     1
 76
     1
176
     1
 77
     6
176
     1
 78
     2
176
     1
 67
     7
176
     1
 79
     5
176
     1
170
     0
176
     1
171
     0
176
     1
290
     0
176
     1
 93
       13
176
     1
 44
0.0
176
     1
173
     0
176
     1
1001
ACAD
1000
AcDbSavedByObjectVersion
1070
     0
  0
VISUALSTYLE
  5
2D
102
{ACAD_XDICTIONARY
360
113
102
}
102
{ACAD_REACTORS
330
29
102
}
330
29
100
AcDbVisualStyle
  2
GouraudWithEdges
 70
     3
177
     2
291
     1
 71
     2
176
     1
 72
     2
176
     1
 73
     1
176
     1
 90
        2
176
     1
 40
0.6
176
     1
 41
30.0
176
     1
 63
     7
421
 16777215
176
     1
 74
     1
176
     1
 91
        0
176
     1
 64
     7
176
     1
 65
   257
176
     1
 75
     1
176
     1
175
     1
176
     1
 42
1.0
176
     1
 92
        0
176
     1
 66
   257
176
     1
 43
1.0
176
     1
 76
     1
176
     1
 77
     6
176
     1
 78
     2
176
     1
 67
     7
176
     1
 79
     5
176
     1
170
     0
176
     1
171
     0
176
     1
290
     0
176
     1
 93
       13
176
     1
 44
0.0
176
     1
173
     0
176
     1
1001
ACAD
1000
AcDbSavedByObjectVersion
1070
     0
  0
VISUALSTYLE
  5
31
102
{ACAD_XDICTIONARY
360
11B
102
}
102
{ACAD_REACTORS
330
29
102
}
330
29
100
AcDbVisualStyle
  2
Hidden
 70
     6
177
     2
291
     0
 71
     1
176
     1
 72
     2
176
     1
 73
     2
176
     1
 90
        0
176
     1
 40
0.6
176
     1
 41
30.0
176
     1
 63
     7
421
 16777215
176
     1
 74
     2
176
     1
 91
        2
176
     1
 64
     7
176
     1
 65
   257
176
     1
 75
     2
176
     1
175
     1
176
     1
 42
40.0
176
     1
 92
        0
176
     1
 66
   257
176
     1
 43
1.0
176
     1
 76
     1
176
     1
 77
     6
176
     1
 78
     2
176
     1
 67
     7
176
     1
 79
     3
176
     1
170
     0
176
     1
171
     0
176
     1
290
     0
176
     1
 93
        1
176
     1
 44
0.0
176
     1
173
     0
176
     1
1001
ACAD
1000
AcDbSavedByObjectVersion
1070
     0
  0
VISUALSTYLE
  5
3F
102
{ACAD_XDICTIONARY
360
137
102
}
102
{ACAD_REACTORS
330
29
102
}
330
29
100
AcDbVisualStyle
  2
JitterOff
 70
    20
177
     2
291
     1
 71
     2
176
     0
 72
     2
176
     0
 73
     0
176
     0
 90
        0
176
     0
 40
0.6
176
     0
 41
30.0
176
     0
 63
     7
421
 16777215
176
     0
 74
     1
176
     0
 91
        4
176
     0
 64
     7
176
     0
 65
   257
176
     0
 75
     1
176
     0
175
     1
176
     0
 42
1.0
176
     0
 92
       10
176
     2
 66
     7
176
     0
 43
1.0
176
     0
 76
     1
176
     0
 77
     6
176
     0
 78
     2
176
     0
 67
     7
176
     0
 79
     5
176
     0
170
     0
176
     0
171
     0
176
     0
290
     0
176
     0
 93
        1
176
     0
 44
0.0
176
     0
173
     0
176
     0
1001
ACAD
1000
AcDbSavedByObjectVersion
1070
     0
  0
VISUALSTYLE
  5
37
102
{ACAD_XDICTIONARY
360
127
102
}
102
{ACAD_REACTORS
330
29
102
}
330
29
100
AcDbVisualStyle
  2
Linepattern
 70
    14
177
     2
291
     1
 71
     2
176
     1
 72
     2
176
     1
 73
     0
176
     1
 90
        0
176
     1
 40
0.6
176
     1
 41
30.0
176
     1
 63
     7
421
 16777215
176
     1
 74
     1
176
     1
 91
        4
176
     1
 64
     7
176
     1
 65
   257
176
     1
 75
     7
176
     1
175
     7
176
     1
 42
1.0
176
     1
 92
        8
176
     1
 66
     7
176
     1
 43
1.0
176
     1
 76
     1
176
     1
 77
     6
176
     1
 78
     2
176
     1
 67
     7
176
     1
 79
     5
176
     1
170
     0
176
     1
171
     0
176
     1
290
     0
176
     1
 93
        1
176
     1
 44
0.0
176
     1
173
     0
176
     1
1001
ACAD
1000
AcDbSavedByObjectVersion
1070
     0
  0
VISUALSTYLE
  5
40
102
{ACAD_XDICTIONARY
360
139
102
}
102
{ACAD_REACTORS
330
29
102
}
330
29
100
AcDbVisualStyle
  2
OverhangOff
 70
    21
177
     2
291
     1
 71
     2
176
     0
 72
     2
176
     0
 73
     0
176
     0
 90
        0
176
     0
 40
0.6
176
     0
 41
30.0
176
     0
 63
     7
421
 16777215
176
     0
 74
     1
176
     0
 91
        4
176
     0
 64
     7
176
     0
 65
   257
176
     0
 75
     1
176
     0
175
     1
176
     0
 42
1.0
176
     0
 92
        9
176
     2
 66
     7
176
     0
 43
1.0
176
     0
 76
     1
176
     0
 77
     6
176
     0
 78
     2
176
     0
 67
     7
176
     0
 79
     5
176
     0
170
     0
176
     0
171
     0
176
     0
290
     0
176
     0
 93
        1
176
     0
 44
0.0
176
     0
173
     0
176
     0
1001
ACAD
1000
AcDbSavedByObjectVersion
1070
     0
  0
VISUALSTYLE
  5
33
102
{ACAD_XDICTIONARY
360
11F
102
}
102
{ACAD_REACTORS
330
29
102
}
330
29
100
AcDbVisualStyle
  2
Realistic
 70
     8
177
     2
291
     0
 71
     2
176
     1
 72
     3
176
     1
 73
     0
176
     1
 90
        2
176
     1
 40
0.6
176
     1
 41
30.0
176
     1
 63
     7
421
 16777215
176
     1
 74
     0
176
     1
 91
        0
176
     1
 64
     7
176
     1
 65
   257
176
     1
 75
     1
176
     1
175
     1
176
     1
 42
1.0
176
     1
 92
        8
176
     1
 66
   257
176
     1
 43
1.0
176
     1
 76
     1
176
     1
 77
     6
176
     1
 78
     2
176
     1
 67
     7
176
     1
 79
     3
176
     1
170
     0
176
     1
171
     0
176
     1
290
     0
176
     1
 93
       13
176
     1
 44
0.0
176
     1
173
     0
176
     1
1001
ACAD
1000
AcDbSavedByObjectVersion
1070
     0
  0
VISUALSTYLE
  5
3E
102
{ACAD_XDICTIONARY
360
135
102
}
102
{ACAD_REACTORS
330
29
102
}
330
29
100
AcDbVisualStyle
  2
Shaded
 70
    27
177
     2
291
     0
 71
     2
176
     1
 72
     2
176
     1
 73
     1
176
     1
 90
        2
176
     1
 40
0.6
176
     1
 41
30.0
176
     1
 63
     7
421
 16777215
176
     1
 74
     0
176
     1
 91
        4
176
     1
 64
     7
176
     1
 65
   257
176
     1
 75
     1
176
     1
175
     1
176
     1
 42
1.0
176
     1
 92
        8
176
     1
 66
   257
176
     1
 43
1.0
176
     1
 76
     1
176
     1
 77
     6
176
     1
 78
     2
176
     1
 67
     8
425
  7895160
176
     1
 79
     3
176
     1
170
     0
176
     1
171
     0
176
     1
290
     0
176
     1
 93
        5
176
     1
 44
0.0
176
     1
173
     0
176
     1
1001
ACAD
1000
AcDbSavedByObjectVersion
1070
     0
  0
VISUALSTYLE
  5
3D
102
{ACAD_XDICTIONARY
360
133
102
}
102
{ACAD_REACTORS
330
29
102
}
330
29
100
AcDbVisualStyle
  2
Shaded with edges
 70
    26
177
     2
291
     0
 71
     2
176
     1
 72
     2
176
     1
 73
     1
176
     1
 90
        2
176
     1
 40
0.6
176
     1
 41
30.0
176
     1
 63
     7
421
 16777215
176
     1
 74
     1
176
     1
 91
        2
176
     1
 64
     7
176
     1
 65
   257
176
     1
 75
     2
176
     1
175
     1
176
     1
 42
1.0
176
     1
 92
        8
176
     1
 66
   257
176
     1
 43
1.0
176
     1
 76
     1
176
     1
 77
     6
176
     1
 78
     2
176
     1
 67
     7
176
     1
 79
     3
176
     1
170
     0
176
     1
171
     0
176
     1
290
     0
176
     1
 93
        5
176
     1
 44
0.0
176
     1
173
     0
176
     1
1001
ACAD
1000
AcDbSavedByObjectVersion
1070
     0
  0
VISUALSTYLE
  5
3A
102
{ACAD_XDICTIONARY
360
12D
102
}
102
{ACAD_REACTORS
330
29
102
}
330
29
100
AcDbVisualStyle
  2
Shades of Gray
 70
    23
177
     2
291
     0
 71
     2
176
     1
 72
     2
176
     1
 73
     3
176
     1
 90
        0
176
     1
 40
0.6
176
     1
 41
30.0
176
     1
 63
     7
421
 16777215
176
     1
 74
     2
176
     1
 91
        2
176
     1
 64
     7
176
     1
 65
     7
176
     1
 75
     1
176
     1
175
     1
176
     1
 42
40.0
176
     1
 92
        8
176
     1
 66
     7
176
     1
 43
1.0
176
     1
 76
     1
176
     1
 77
     6
176
     1
 78
     2
176
     1
 67
     7
176
     1
 79
     3
176
     1
170
     0
176
     1
171
     0
176
     1
290
     0
176
     1
 93
        1
176
     1
 44
0.0
176
     1
173
     0
176
     1
1001
ACAD
1000
AcDbSavedByObjectVersion
1070
     0
  0
VISUALSTYLE
  5
3B
102
{ACAD_XDICTIONARY
360
12F
102
}
102
{ACAD_REACTORS
330
29
102
}
330
29
100
AcDbVisualStyle
  2
Sketchy
 70
    24
177
     2
291
     0
 71
     1
176
     1
 72
     2
176
     1
 73
     2
176
     1
 90
        0
176
     1
 40
0.6
176
     1
 41
30.0
176
     1
 63
     7
421
 16777215
176
     1
 74
     2
176
     1
 91
        2
176
     1
 64
     7
176
     1
 65
     7
176
     1
 75
     1
176
     1
175
     1
176
     1
 42
40.0
176
     1
 92
       11
176
     1
 66
     7
176
     1
 43
1.0
176
     1
 76
     1
176
     1
 77
     6
176
     1
 78
     2
176
     1
 67
     7
176
     1
 79
     6
176
     1
170
     0
176
     1
171
     0
176
     1
290
     0
176
     1
 93
        1
176
     1
 44
0.0
176
     1
173
     0
176
     1
1001
ACAD
1000
AcDbSavedByObjectVersion
1070
     0
  0
VISUALSTYLE
  5
36
102
{ACAD_XDICTIONARY
360
125
102
}
102
{ACAD_REACTORS
330
29
102
}
330
29
100
AcDbVisualStyle
  2
Thicken
 70
    13
177
     2
291
     1
 71
     2
176
     1
 72
     2
176
     1
 73
     0
176
     1
 90
        0
176
     1
 40
0.6
176
     1
 41
30.0
176
     1
 63
     7
421
 16777215
176
     1
 74
     1
176
     1
 91
        4
176
     1
 64
     7
176
     1
 65
   257
176
     1
 75
     1
176
     1
175
     1
176
     1
 42
1.0
176
     1
 92
       12
176
     1
 66
     7
176
     1
 43
1.0
176
     1
 76
     1
176
     1
 77
     6
176
     1
 78
     2
176
     1
 67
     7
176
     1
 79
     5
176
     1
170
     0
176
     1
171
     0
176
     1
290
     0
176
     1
 93
        1
176
     1
 44
0.0
176
     1
173
     0
176
     1
1001
ACAD
1000
AcDbSavedByObjectVersion
1070
     0
  0
VISUALSTYLE
  5
30
102
{ACAD_XDICTIONARY
360
119
102
}
102
{ACAD_REACTORS
330
29
102
}
330
29
100
AcDbVisualStyle
  2
Wireframe
 70
     5
177
     2
291
     0
 71
     0
176
     1
 72
     2
176
     1
 73
     0
176
     1
 90
        0
176
     1
 40
0.6
176
     1
 41
30.0
176
     1
 63
     7
421
 16777215
176
     1
 74
     1
176
     1
 91
        4
176
     1
 64
     7
176
     1
 65
   257
176
     1
 75
     1
176
     1
175
     1
176
     1
 42
1.0
176
     1
 92
        0
176
     1
 66
   257
176
     1
 43
1.0
176
     1
 76
     1
176
     1
 77
     6
176
     1
 78
     2
176
     1
 67
     7
176
     1
 79
     3
176
     1
170
     0
176
     1
171
     0
176
     1
290
     0
176
     1
 93
        1
176
     1
 44
0.0
176
     1
173
     0
176
     1
1001
ACAD
1000
AcDbSavedByObjectVersion
1070
     0
  0
VISUALSTYLE
  5
3C
102
{ACAD_XDICTIONARY
360
131
102
}
102
{ACAD_REACTORS
330
29
102
}
330
29
100
AcDbVisualStyle
  2
X-Ray
 70
    25
177
     2
291
     0
 71
     2
176
     1
 72
     2
176
     1
 73
     1
176
     1
 90
        1
176
     1
 40
0.5
176
     1
 41
30.0
176
     1
 63
     7
421
 16777215
176
     1
 74
     1
176
     1
 91
        0
176
     1
 64
     7
176
     1
 65
   257
176
     1
 75
     1
176
     1
175
     1
176
     1
 42
1.0
176
     1
 92
        8
176
     1
 66
     7
176
     1
 43
1.0
176
     1
 76
     1
176
     1
 77
     6
176
     1
 78
     2
176
     1
 67
     7
176
     1
 79
     3
176
     1
170
     0
176
     1
171
     0
176
     1
290
     0
176
     1
 93
       13
176
     1
 44
0.0
176
     1
173
     0
176
     1
1001
ACAD
1000
AcDbSavedByObjectVersion
1070
     0
  0
DICTIONARYVAR
  5
109
102
{ACAD_REACTORS
330
104
102
}
330
104
100
DictionaryVariables
280
     0
  1
1:1
  0
DICTIONARYVAR
  5
106
102
{ACAD_REACTORS
330
104
102
}
330
104
100
DictionaryVariables
280
     0
  1
STANDARD
  0
DICTIONARYVAR
  5
105
102
{ACAD_REACTORS
330
104
102
}
330
104
100
DictionaryVariables
280
     0
  1
STANDARD
  0
DICTIONARYVAR
  5
107
102
{ACAD_REACTORS
330
104
102
}
330
104
100
DictionaryVariables
280
     0
  1
Imperial24
  0
DICTIONARYVAR
  5
108
102
{ACAD_REACTORS
330
104
102
}
330
104
100
DictionaryVariables
280
     0
  1
Imperial24
  0
DICTIONARY
  5
141
330
6B
100
AcDbDictionary
280
     1
281
     1
  3
ACAD_XREC_ROUNDTRIP
360
142
  0
DICTIONARY
  5
1A
330
19
100
AcDbDictionary
280
     1
281
     1
  3
BUMPTILE
360
1C
  3
DIFFUSETILE
360
1B
  3
OPACITYTILE
360
1F
  3
REFLECTIONTILE
360
1E
  3
REFRACTIONTILE
360
20
  3
SPECULARTILE
360
1D
  0
DICTIONARY
  5
12
330
11
100
AcDbDictionary
280
     1
281
     1
  3
BUMPTILE
360
14
  3
DIFFUSETILE
360
13
  3
OPACITYTILE
360
17
  3
REFLECTIONTILE
360
16
  3
REFRACTIONTILE
360
18
  3
SPECULARTILE
360
15
  0
DICTIONARY
  5
22
330
21
100
AcDbDictionary
280
     1
281
     1
  3
BUMPTILE
360
24
  3
DIFFUSETILE
360
23
  3
OPACITYTILE
360
27
  3
REFLECTIONTILE
360
26
  3
REFRACTIONTILE
360
28
  3
SPECULARTILE
360
25
  0
DICTIONARY
  5
13D
330
67
100
AcDbDictionary
280
     1
281
     1
  3
ACAD_XREC_ROUNDTRIP
360
13E
  0
DICTIONARY
  5
13F
330
69
100
AcDbDictionary
280
     1
281
     1
  3
ACAD_XREC_ROUNDTRIP
360
140
  0
DICTIONARY
  5
10A
330
65
100
AcDbDictionary
280
     1
281
     1
  3
ACAD_ROUNDTRIP_2008_TABLESTYLE_CELLSTYLEMAP
360
10B
  0
DICTIONARY
  5
117
330
2F
100
AcDbDictionary
280
     1
281
     1
  3
ACAD_XREC_ROUNDTRIP
360
118
  0
DICTIONARY
  5
115
330
2E
100
AcDbDictionary
280
     1
281
     1
  3
ACAD_XREC_ROUNDTRIP
360
116
  0
DICTIONARY
  5
123
330
35
100
AcDbDictionary
280
     1
281
     1
  3
ACAD_XREC_ROUNDTRIP
360
124
  0
DICTIONARY
  5
12B
330
39
100
AcDbDictionary
280
     1
281
     1
  3
ACAD_XREC_ROUNDTRIP
360
12C
  0
DICTIONARY
  5
11D
330
32
100
AcDbDictionary
280
     1
281
     1
  3
ACAD_XREC_ROUNDTRIP
360
11E
  0
DICTIONARY
  5
121
330
34
100
AcDbDictionary
280
     1
281
     1
  3
ACAD_XREC_ROUNDTRIP
360
122
  0
DICTIONARY
  5
13B
330
41
100
AcDbDictionary
280
     1
281
     1
  3
ACAD_XREC_ROUNDTRIP
360
13C
  0
DICTIONARY
  5
129
330
38
100
AcDbDictionary
280
     1
281
     1
  3
ACAD_XREC_ROUNDTRIP
360
12A
  0
DICTIONARY
  5
10D
330
2A
100
AcDbDictionary
280
     1
281
     1
  3
ACAD_XREC_ROUNDTRIP
360
10E
  0
DICTIONARY
  5
10F
330
2B
100
AcDbDictionary
280
     1
281
     1
  3
ACAD_XREC_ROUNDTRIP
360
110
  0
DICTIONARY
  5
111
330
2C
100
AcDbDictionary
280
     1
281
     1
  3
ACAD_XREC_ROUNDTRIP
360
112
  0
DICTIONARY
  5
113
330
2D
100
AcDbDictionary
280
     1
281
     1
  3
ACAD_XREC_ROUNDTRIP
360
114
  0
DICTIONARY
  5
11B
330
31
100
AcDbDictionary
280
     1
281
     1
  3
ACAD_XREC_ROUNDTRIP
360
11C
  0
DICTIONARY
  5
137
330
3F
100
AcDbDictionary
280
     1
281
     1
  3
ACAD_XREC_ROUNDTRIP
360
138
  0
DICTIONARY
  5
127
330
37
100
AcDbDictionary
280
     1
281
     1
  3
ACAD_XREC_ROUNDTRIP
360
128
  0
DICTIONARY
  5
139
330
40
100
AcDbDictionary
280
     1
281
     1
  3
ACAD_XREC_ROUNDTRIP
360
13A
  0
DICTIONARY
  5
11F
330
33
100
AcDbDictionary
280
     1
281
     1
  3
ACAD_XREC_ROUNDTRIP
360
120
  0
DICTIONARY
  5
135
330
3E
100
AcDbDictionary
280
     1
281
     1
  3
ACAD_XREC_ROUNDTRIP
360
136
  0
DICTIONARY
  5
133
330
3D
100
AcDbDictionary
280
     1
281
     1
  3
ACAD_XREC_ROUNDTRIP
360
134
  0
DICTIONARY
  5
12D
330
3A
100
AcDbDictionary
280
     1
281
     1
  3
ACAD_XREC_ROUNDTRIP
360
12E
  0
DICTIONARY
  5
12F
330
3B
100
AcDbDictionary
280
     1
281
     1
  3
ACAD_XREC_ROUNDTRIP
360
130
  0
DICTIONARY
  5
125
330
36
100
AcDbDictionary
280
     1
281
     1
  3
ACAD_XREC_ROUNDTRIP
360
126
  0
DICTIONARY
  5
119
330
30
100
AcDbDictionary
280
     1
281
     1
  3
ACAD_XREC_ROUNDTRIP
360
11A
  0
DICTIONARY
  5
131
330
3C
100
AcDbDictionary
280
     1
281
     1
  3
ACAD_XREC_ROUNDTRIP
360
132
  0
XRECORD
  5
142
102
{ACAD_REACTORS
330
141
102
}
330
141
100
AcDbXrecord
280
     1
102
DISPLAYNAME
  1
Imperial24
102
FLAGS
 90
        0
  0
XRECORD
  5
1C
102
{ACAD_REACTORS
330
1A
102
}
330
1A
100
AcDbXrecord
280
     1
270
     1
271
     1
  0
XRECORD
  5
1B
102
{ACAD_REACTORS
330
1A
102
}
330
1A
100
AcDbXrecord
280
     1
270
     1
271
     1
  0
XRECORD
  5
1F
102
{ACAD_REACTORS
330
1A
102
}
330
1A
100
AcDbXrecord
280
     1
270
     1
271
     1
  0
XRECORD
  5
1E
102
{ACAD_REACTORS
330
1A
102
}
330
1A
100
AcDbXrecord
280
     1
270
     1
271
     1
  0
XRECORD
  5
20
102
{ACAD_REACTORS
330
1A
102
}
330
1A
100
AcDbXrecord
280
     1
270
     1
271
     1
  0
XRECORD
  5
1D
102
{ACAD_REACTORS
330
1A
102
}
330
1A
100
AcDbXrecord
280
     1
270
     1
271
     1
  0
XRECORD
  5
14
102
{ACAD_REACTORS
330
12
102
}
330
12
100
AcDbXrecord
280
     1
270
     1
271
     1
  0
XRECORD
  5
13
102
{ACAD_REACTORS
330
12
102
}
330
12
100
AcDbXrecord
280
     1
270
     1
271
     1
  0
XRECORD
  5
17
102
{ACAD_REACTORS
330
12
102
}
330
12
100
AcDbXrecord
280
     1
270
     1
271
     1
  0
XRECORD
  5
16
102
{ACAD_REACTORS
330
12
102
}
330
12
100
AcDbXrecord
280
     1
270
     1
271
     1
  0
XRECORD
  5
18
102
{ACAD_REACTORS
330
12
102
}
330
12
100
AcDbXrecord
280
     1
270
     1
271
     1
  0
XRECORD
  5
15
102
{ACAD_REACTORS
330
12
102
}
330
12
100
AcDbXrecord
280
     1
270
     1
271
     1
  0
XRECORD
  5
24
102
{ACAD_REACTORS
330
22
102
}
330
22
100
AcDbXrecord
280
     1
270
     1
271
     1
  0
XRECORD
  5
23
102
{ACAD_REACTORS
330
22
102
}
330
22
100
AcDbXrecord
280
     1
270
     1
271
     1
  0
XRECORD
  5
27
102
{ACAD_REACTORS
330
22
102
}
330
22
100
AcDbXrecord
280
     1
270
     1
271
     1
  0
XRECORD
  5
26
102
{ACAD_REACTORS
330
22
102
}
330
22
100
AcDbXrecord
280
     1
270
     1
271
     1
  0
XRECORD
  5
28
102
{ACAD_REACTORS
330
22
102
}
330
22
100
AcDbXrecord
280
     1
270
     1
271
     1
  0
XRECORD
  5
25
102
{ACAD_REACTORS
330
22
102
}
330
22
100
AcDbXrecord
280
     1
270
     1
271
     1
  0
XRECORD
  5
13E
102
{ACAD_REACTORS
330
13D
102
}
330
13D
100
AcDbXrecord
280
     1
102
ACAD_ROUNDTRIP_2012_MLEADER_STYLE
298
     1
  0
XRECORD
  5
140
102
{ACAD_REACTORS
330
13F
102
}
330
13F
100
AcDbXrecord
280
     1
102
DISPLAYNAME
  1
Imperial24
102
FLAGS
 90
        0
  0
CELLSTYLEMAP
  5
10B
102
{ACAD_REACTORS
330
10A
102
}
330
10A
100
AcDbCellStyleMap
 90
        3
300
CELLSTYLE
  1
TABLEFORMAT_BEGIN
 90
        5
170
     1
 91
        0
 92
    32768
 62
   257
 93
        1
300
CONTENTFORMAT
  1
CONTENTFORMAT_BEGIN
 90
        0
 91
        0
 92
      512
 93
        0
300

 40
0.0
140
1.0
 94
        5
 62
     0
340
55
144
0.25
309
CONTENTFORMAT_END
171
     0
 94
        0
309
TABLEFORMAT_END
  1
CELLSTYLE_BEGIN
 90
        1
 91
        1
300
_TITLE
309
CELLSTYLE_END
300
CELLSTYLE
  1
TABLEFORMAT_BEGIN
 90
        5
170
     1
 91
        0
 92
        0
 62
   257
 93
        1
300
CONTENTFORMAT
  1
CONTENTFORMAT_BEGIN
 90
        0
 91
        0
 92
      512
 93
        0
300

 40
0.0
140
1.0
 94
        5
 62
     0
340
55
144
0.18
309
CONTENTFORMAT_END
171
     0
 94
        0
309
TABLEFORMAT_END
  1
CELLSTYLE_BEGIN
 90
        2
 91
        1
300
_HEADER
309
CELLSTYLE_END
300
CELLSTYLE
  1
TABLEFORMAT_BEGIN
 90
        5
170
     1
 91
        0
 92
        0
 62
   257
 93
        1
300
CONTENTFORMAT
  1
CONTENTFORMAT_BEGIN
 90
        0
 91
        0
 92
      512
 93
        0
300

 40
0.0
140
1.0
 94
        2
 62
     0
340
55
144
0.18
309
CONTENTFORMAT_END
171
     0
 94
        0
309
TABLEFORMAT_END
  1
CELLSTYLE_BEGIN
 90
        3
 91
        2
300
_DATA
309
CELLSTYLE_END
  0
XRECORD
  5
118
102
{ACAD_REACTORS
330
117
102
}
330
117
100
AcDbXrecord
280
     1
102
RTVSPost2010Prop28
280
     1
102
RTVSPost2010PropOp28
 70
     1
102
RTVSPost2010Prop29
280
     1
102
RTVSPost2010PropOp29
 70
     1
102
RTVSPost2010Prop30
280
     0
102
RTVSPost2010PropOp30
 70
     1
102
RTVSPost2010Prop31
280
     0
102
RTVSPost2010PropOp31
 70
     1
102
RTVSPost2010Prop32
280
     0
102
RTVSPost2010PropOp32
 70
     1
102
RTVSPost2010Prop33
280
     0
102
RTVSPost2010PropOp33
 70
     1
102
RTVSPost2010Prop34
280
     0
102
RTVSPost2010PropOp34
 70
     1
102
RTVSPost2010Prop35
280
     0
102
RTVSPost2010PropOp35
 70
     1
102
RTVSPost2010Prop36
280
     0
102
RTVSPost2010PropOp36
 70
     1
102
RTVSPost2010Prop37
 90
       50
102
RTVSPost2010PropOp37
 70
     1
102
RTVSPost2010Prop38
140
0.0
102
RTVSPost2010PropOp38
 70
     1
102
RTVSPost2010Prop39
140
1.0
102
RTVSPost2010PropOp39
 70
     1
102
RTVSPost2010Prop40
 90
        0
102
RTVSPost2010PropOp40
 70
     1
102
RTVSPost2010Prop41ColorIndex
 90
       18
102
RTVSPost2010Prop41ColorRGB
 90
        0
102
RTVSPost2010PropOp41
 70
     1
102
RTVSPost2010Prop42
 90
       50
102
RTVSPost2010PropOp42
 70
     1
102
RTVSPost2010Prop43
 90
        3
102
RTVSPost2010PropOp43
 70
     1
102
RTVSPost2010Prop44ColorIndex
 90
        5
102
RTVSPost2010Prop44ColorRGB
 90
      255
102
RTVSPost2010PropOp44
 70
     1
102
RTVSPost2010Prop45
280
     0
102
RTVSPost2010PropOp45
 70
     1
102
RTVSPost2010Prop46
 90
       50
102
RTVSPost2010PropOp46
 70
     1
102
RTVSPost2010Prop47
 90
       50
102
RTVSPost2010PropOp47
 70
     1
102
RTVSPost2010Prop48
 90
       50
102
RTVSPost2010PropOp48
 70
     1
102
RTVSPost2010Prop49
280
     0
102
RTVSPost2010PropOp49
 70
     1
102
RTVSPost2010Prop50
 90
       50
102
RTVSPost2010PropOp50
 70
     1
102
RTVSPost2010Prop51ColorIndex
 90
      256
102
RTVSPost2010Prop51ColorRGB
 90
-16777216
102
RTVSPost2010PropOp51
 70
     0
102
RTVSPost2010Prop52
140
1.0
102
RTVSPost2010PropOp52
 70
     0
102
RTVSPost2010Prop53
 90
        2
102
RTVSPost2010PropOp53
 70
     1
102
RTVSPost2010Prop54
  1
strokes_ogs.tif
102
RTVSPost2010PropOp54
 70
     1
102
RTVSPost2010Prop55
280
     0
102
RTVSPost2010PropOp55
 70
     1
102
RTVSPost2010Prop56
140
1.0
102
RTVSPost2010PropOp56
 70
     1
102
RTVSPost2010Prop57
140
1.0
102
RTVSPost2010PropOp57
 70
     1
  0
XRECORD
  5
116
102
{ACAD_REACTORS
330
115
102
}
330
115
100
AcDbXrecord
280
     1
102
RTVSPost2010Prop28
280
     0
102
RTVSPost2010PropOp28
 70
     1
102
RTVSPost2010Prop29
280
     1
102
RTVSPost2010PropOp29
 70
     1
102
RTVSPost2010Prop30
280
     1
102
RTVSPost2010PropOp30
 70
     1
102
RTVSPost2010Prop31
280
     0
102
RTVSPost2010PropOp31
 70
     1
102
RTVSPost2010Prop32
280
     0
102
RTVSPost2010PropOp32
 70
     1
102
RTVSPost2010Prop33
280
     0
102
RTVSPost2010PropOp33
 70
     1
102
RTVSPost2010Prop34
280
     0
102
RTVSPost2010PropOp34
 70
     1
102
RTVSPost2010Prop35
280
     0
102
RTVSPost2010PropOp35
 70
     1
102
RTVSPost2010Prop36
280
     0
102
RTVSPost2010PropOp36
 70
     1
102
RTVSPost2010Prop37
 90
       50
102
RTVSPost2010PropOp37
 70
     1
102
RTVSPost2010Prop38
140
0.0
102
RTVSPost2010PropOp38
 70
     1
102
RTVSPost2010Prop39
140
1.0
102
RTVSPost2010PropOp39
 70
     1
102
RTVSPost2010Prop40
 90
        0
102
RTVSPost2010PropOp40
 70
     1
102
RTVSPost2010Prop41ColorIndex
 90
       18
102
RTVSPost2010Prop41ColorRGB
 90
        0
102
RTVSPost2010PropOp41
 70
     1
102
RTVSPost2010Prop42
 90
       50
102
RTVSPost2010PropOp42
 70
     1
102
RTVSPost2010Prop43
 90
        3
102
RTVSPost2010PropOp43
 70
     1
102
RTVSPost2010Prop44ColorIndex
 90
        5
102
RTVSPost2010Prop44ColorRGB
 90
      255
102
RTVSPost2010PropOp44
 70
     1
102
RTVSPost2010Prop45
280
     0
102
RTVSPost2010PropOp45
 70
     1
102
RTVSPost2010Prop46
 90
       50
102
RTVSPost2010PropOp46
 70
     1
102
RTVSPost2010Prop47
 90
       50
102
RTVSPost2010PropOp47
 70
     1
102
RTVSPost2010Prop48
 90
       50
102
RTVSPost2010PropOp48
 70
     1
102
RTVSPost2010Prop49
280
     0
102
RTVSPost2010PropOp49
 70
     1
102
RTVSPost2010Prop50
 90
       50
102
RTVSPost2010PropOp50
 70
     1
102
RTVSPost2010Prop51ColorIndex
 90
      256
102
RTVSPost2010Prop51ColorRGB
 90
-16777216
102
RTVSPost2010PropOp51
 70
     0
102
RTVSPost2010Prop52
140
1.0
102
RTVSPost2010PropOp52
 70
     0
102
RTVSPost2010Prop53
 90
        2
102
RTVSPost2010PropOp53
 70
     1
102
RTVSPost2010Prop54
  1
strokes_ogs.tif
102
RTVSPost2010PropOp54
 70
     1
102
RTVSPost2010Prop55
280
     0
102
RTVSPost2010PropOp55
 70
     1
102
RTVSPost2010Prop56
140
1.0
102
RTVSPost2010PropOp56
 70
     1
102
RTVSPost2010Prop57
140
1.0
102
RTVSPost2010PropOp57
 70
     1
  0
XRECORD
  5
124
102
{ACAD_REACTORS
330
123
102
}
330
123
100
AcDbXrecord
280
     1
102
RTVSPost2010Prop28
280
     0
102
RTVSPost2010PropOp28
 70
     1
102
RTVSPost2010Prop29
280
     1
102
RTVSPost2010PropOp29
 70
     1
102
RTVSPost2010Prop30
280
     1
102
RTVSPost2010PropOp30
 70
     1
102
RTVSPost2010Prop31
280
     0
102
RTVSPost2010PropOp31
 70
     1
102
RTVSPost2010Prop32
280
     0
102
RTVSPost2010PropOp32
 70
     1
102
RTVSPost2010Prop33
280
     0
102
RTVSPost2010PropOp33
 70
     1
102
RTVSPost2010Prop34
280
     0
102
RTVSPost2010PropOp34
 70
     1
102
RTVSPost2010Prop35
280
     0
102
RTVSPost2010PropOp35
 70
     1
102
RTVSPost2010Prop36
280
     0
102
RTVSPost2010PropOp36
 70
     1
102
RTVSPost2010Prop37
 90
       50
102
RTVSPost2010PropOp37
 70
     1
102
RTVSPost2010Prop38
140
0.0
102
RTVSPost2010PropOp38
 70
     1
102
RTVSPost2010Prop39
140
1.0
102
RTVSPost2010PropOp39
 70
     1
102
RTVSPost2010Prop40
 90
        0
102
RTVSPost2010PropOp40
 70
     1
102
RTVSPost2010Prop41ColorIndex
 90
       18
102
RTVSPost2010Prop41ColorRGB
 90
        0
102
RTVSPost2010PropOp41
 70
     1
102
RTVSPost2010Prop42
 90
       50
102
RTVSPost2010PropOp42
 70
     1
102
RTVSPost2010Prop43
 90
        3
102
RTVSPost2010PropOp43
 70
     1
102
RTVSPost2010Prop44ColorIndex
 90
        5
102
RTVSPost2010Prop44ColorRGB
 90
      255
102
RTVSPost2010PropOp44
 70
     1
102
RTVSPost2010Prop45
280
     0
102
RTVSPost2010PropOp45
 70
     1
102
RTVSPost2010Prop46
 90
       50
102
RTVSPost2010PropOp46
 70
     1
102
RTVSPost2010Prop47
 90
       50
102
RTVSPost2010PropOp47
 70
     1
102
RTVSPost2010Prop48
 90
       50
102
RTVSPost2010PropOp48
 70
     1
102
RTVSPost2010Prop49
280
     0
102
RTVSPost2010PropOp49
 70
     1
102
RTVSPost2010Prop50
 90
       50
102
RTVSPost2010PropOp50
 70
     1
102
RTVSPost2010Prop51ColorIndex
 90
      256
102
RTVSPost2010Prop51ColorRGB
 90
-16777216
102
RTVSPost2010PropOp51
 70
     0
102
RTVSPost2010Prop52
140
1.0
102
RTVSPost2010PropOp52
 70
     0
102
RTVSPost2010Prop53
 90
        2
102
RTVSPost2010PropOp53
 70
     1
102
RTVSPost2010Prop54
  1
strokes_ogs.tif
102
RTVSPost2010PropOp54
 70
     1
102
RTVSPost2010Prop55
280
     0
102
RTVSPost2010PropOp55
 70
     1
102
RTVSPost2010Prop56
140
1.0
102
RTVSPost2010PropOp56
 70
     1
102
RTVSPost2010Prop57
140
1.0
102
RTVSPost2010PropOp57
 70
     1
  0
XRECORD
  5
12C
102
{ACAD_REACTORS
330
12B
102
}
330
12B
100
AcDbXrecord
280
     1
102
RTVSPost2010Prop28
280
     0
102
RTVSPost2010PropOp28
 70
     1
102
RTVSPost2010Prop29
280
     1
102
RTVSPost2010PropOp29
 70
     1
102
RTVSPost2010Prop30
280
     1
102
RTVSPost2010PropOp30
 70
     1
102
RTVSPost2010Prop31
280
     0
102
RTVSPost2010PropOp31
 70
     1
102
RTVSPost2010Prop32
280
     0
102
RTVSPost2010PropOp32
 70
     1
102
RTVSPost2010Prop33
280
     0
102
RTVSPost2010PropOp33
 70
     1
102
RTVSPost2010Prop34
280
     0
102
RTVSPost2010PropOp34
 70
     1
102
RTVSPost2010Prop35
280
     0
102
RTVSPost2010PropOp35
 70
     1
102
RTVSPost2010Prop36
280
     0
102
RTVSPost2010PropOp36
 70
     1
102
RTVSPost2010Prop37
 90
       50
102
RTVSPost2010PropOp37
 70
     1
102
RTVSPost2010Prop38
140
0.0
102
RTVSPost2010PropOp38
 70
     1
102
RTVSPost2010Prop39
140
1.0
102
RTVSPost2010PropOp39
 70
     1
102
RTVSPost2010Prop40
 90
        0
102
RTVSPost2010PropOp40
 70
     1
102
RTVSPost2010Prop41ColorIndex
 90
       18
102
RTVSPost2010Prop41ColorRGB
 90
        0
102
RTVSPost2010PropOp41
 70
     1
102
RTVSPost2010Prop42
 90
       50
102
RTVSPost2010PropOp42
 70
     1
102
RTVSPost2010Prop43
 90
        3
102
RTVSPost2010PropOp43
 70
     1
102
RTVSPost2010Prop44ColorIndex
 90
        5
102
RTVSPost2010Prop44ColorRGB
 90
      255
102
RTVSPost2010PropOp44
 70
     1
102
RTVSPost2010Prop45
280
     0
102
RTVSPost2010PropOp45
 70
     1
102
RTVSPost2010Prop46
 90
       50
102
RTVSPost2010PropOp46
 70
     1
102
RTVSPost2010Prop47
 90
       50
102
RTVSPost2010PropOp47
 70
     1
102
RTVSPost2010Prop48
 90
       50
102
RTVSPost2010PropOp48
 70
     1
102
RTVSPost2010Prop49
280
     0
102
RTVSPost2010PropOp49
 70
     1
102
RTVSPost2010Prop50
 90
       50
102
RTVSPost2010PropOp50
 70
     1
102
RTVSPost2010Prop51ColorIndex
 90
      256
102
RTVSPost2010Prop51ColorRGB
 90
-16777216
102
RTVSPost2010PropOp51
 70
     0
102
RTVSPost2010Prop52
140
1.0
102
RTVSPost2010PropOp52
 70
     0
102
RTVSPost2010Prop53
 90
        2
102
RTVSPost2010PropOp53
 70
     1
102
RTVSPost2010Prop54
  1
strokes_ogs.tif
102
RTVSPost2010PropOp54
 70
     1
102
RTVSPost2010Prop55
280
     0
102
RTVSPost2010PropOp55
 70
     1
102
RTVSPost2010Prop56
140
1.0
102
RTVSPost2010PropOp56
 70
     1
102
RTVSPost2010Prop57
140
1.0
102
RTVSPost2010PropOp57
 70
     1
  0
XRECORD
  5
11E
102
{ACAD_REACTORS
330
11D
102
}
330
11D
100
AcDbXrecord
280
     1
102
RTVSPost2010Prop28
280
     0
102
RTVSPost2010PropOp28
 70
     1
102
RTVSPost2010Prop29
280
     1
102
RTVSPost2010PropOp29
 70
     1
102
RTVSPost2010Prop30
280
     1
102
RTVSPost2010PropOp30
 70
     1
102
RTVSPost2010Prop31
280
     0
102
RTVSPost2010PropOp31
 70
     1
102
RTVSPost2010Prop32
280
     0
102
RTVSPost2010PropOp32
 70
     1
102
RTVSPost2010Prop33
280
     0
102
RTVSPost2010PropOp33
 70
     1
102
RTVSPost2010Prop34
280
     0
102
RTVSPost2010PropOp34
 70
     1
102
RTVSPost2010Prop35
280
     0
102
RTVSPost2010PropOp35
 70
     1
102
RTVSPost2010Prop36
280
     0
102
RTVSPost2010PropOp36
 70
     1
102
RTVSPost2010Prop37
 90
       50
102
RTVSPost2010PropOp37
 70
     1
102
RTVSPost2010Prop38
140
0.0
102
RTVSPost2010PropOp38
 70
     1
102
RTVSPost2010Prop39
140
1.0
102
RTVSPost2010PropOp39
 70
     1
102
RTVSPost2010Prop40
 90
        0
102
RTVSPost2010PropOp40
 70
     1
102
RTVSPost2010Prop41ColorIndex
 90
       18
102
RTVSPost2010Prop41ColorRGB
 90
        0
102
RTVSPost2010PropOp41
 70
     1
102
RTVSPost2010Prop42
 90
       50
102
RTVSPost2010PropOp42
 70
     1
102
RTVSPost2010Prop43
 90
        3
102
RTVSPost2010PropOp43
 70
     1
102
RTVSPost2010Prop44ColorIndex
 90
        5
102
RTVSPost2010Prop44ColorRGB
 90
      255
102
RTVSPost2010PropOp44
 70
     1
102
RTVSPost2010Prop45
280
     0
102
RTVSPost2010PropOp45
 70
     1
102
RTVSPost2010Prop46
 90
       50
102
RTVSPost2010PropOp46
 70
     1
102
RTVSPost2010Prop47
 90
       50
102
RTVSPost2010PropOp47
 70
     1
102
RTVSPost2010Prop48
 90
       50
102
RTVSPost2010PropOp48
 70
     1
102
RTVSPost2010Prop49
280
     0
102
RTVSPost2010PropOp49
 70
     1
102
RTVSPost2010Prop50
 90
       50
102
RTVSPost2010PropOp50
 70
     1
102
RTVSPost2010Prop51ColorIndex
 90
      256
102
RTVSPost2010Prop51ColorRGB
 90
-16777216
102
RTVSPost2010PropOp51
 70
     0
102
RTVSPost2010Prop52
140
1.0
102
RTVSPost2010PropOp52
 70
     0
102
RTVSPost2010Prop53
 90
        2
102
RTVSPost2010PropOp53
 70
     1
102
RTVSPost2010Prop54
  1
strokes_ogs.tif
102
RTVSPost2010PropOp54
 70
     1
102
RTVSPost2010Prop55
280
     0
102
RTVSPost2010PropOp55
 70
     1
102
RTVSPost2010Prop56
140
1.0
102
RTVSPost2010PropOp56
 70
     1
102
RTVSPost2010Prop57
140
1.0
102
RTVSPost2010PropOp57
 70
     1
  0
XRECORD
  5
122
102
{ACAD_REACTORS
330
121
102
}
330
121
100
AcDbXrecord
280
     1
102
RTVSPost2010Prop28
280
     0
102
RTVSPost2010PropOp28
 70
     1
102
RTVSPost2010Prop29
280
     1
102
RTVSPost2010PropOp29
 70
     1
102
RTVSPost2010Prop30
280
     1
102
RTVSPost2010PropOp30
 70
     1
102
RTVSPost2010Prop31
280
     0
102
RTVSPost2010PropOp31
 70
     1
102
RTVSPost2010Prop32
280
     0
102
RTVSPost2010PropOp32
 70
     1
102
RTVSPost2010Prop33
280
     0
102
RTVSPost2010PropOp33
 70
     1
102
RTVSPost2010Prop34
280
     0
102
RTVSPost2010PropOp34
 70
     1
102
RTVSPost2010Prop35
280
     0
102
RTVSPost2010PropOp35
 70
     1
102
RTVSPost2010Prop36
280
     0
102
RTVSPost2010PropOp36
 70
     1
102
RTVSPost2010Prop37
 90
       50
102
RTVSPost2010PropOp37
 70
     1
102
RTVSPost2010Prop38
140
0.0
102
RTVSPost2010PropOp38
 70
     1
102
RTVSPost2010Prop39
140
1.0
102
RTVSPost2010PropOp39
 70
     1
102
RTVSPost2010Prop40
 90
        0
102
RTVSPost2010PropOp40
 70
     1
102
RTVSPost2010Prop41ColorIndex
 90
       18
102
RTVSPost2010Prop41ColorRGB
 90
        0
102
RTVSPost2010PropOp41
 70
     1
102
RTVSPost2010Prop42
 90
       50
102
RTVSPost2010PropOp42
 70
     1
102
RTVSPost2010Prop43
 90
        3
102
RTVSPost2010PropOp43
 70
     1
102
RTVSPost2010Prop44ColorIndex
 90
        5
102
RTVSPost2010Prop44ColorRGB
 90
      255
102
RTVSPost2010PropOp44
 70
     1
102
RTVSPost2010Prop45
280
     0
102
RTVSPost2010PropOp45
 70
     1
102
RTVSPost2010Prop46
 90
       50
102
RTVSPost2010PropOp46
 70
     1
102
RTVSPost2010Prop47
 90
       50
102
RTVSPost2010PropOp47
 70
     1
102
RTVSPost2010Prop48
 90
       50
102
RTVSPost2010PropOp48
 70
     1
102
RTVSPost2010Prop49
280
     0
102
RTVSPost2010PropOp49
 70
     1
102
RTVSPost2010Prop50
 90
       50
102
RTVSPost2010PropOp50
 70
     1
102
RTVSPost2010Prop51ColorIndex
 90
      256
102
RTVSPost2010Prop51ColorRGB
 90
-16777216
102
RTVSPost2010PropOp51
 70
     0
102
RTVSPost2010Prop52
140
1.0
102
RTVSPost2010PropOp52
 70
     0
102
RTVSPost2010Prop53
 90
        2
102
RTVSPost2010PropOp53
 70
     1
102
RTVSPost2010Prop54
  1
strokes_ogs.tif
102
RTVSPost2010PropOp54
 70
     1
102
RTVSPost2010Prop55
280
     0
102
RTVSPost2010PropOp55
 70
     1
102
RTVSPost2010Prop56
140
1.0
102
RTVSPost2010PropOp56
 70
     1
102
RTVSPost2010Prop57
140
1.0
102
RTVSPost2010PropOp57
 70
     1
  0
XRECORD
  5
13C
102
{ACAD_REACTORS
330
13B
102
}
330
13B
100
AcDbXrecord
280
     1
102
RTVSPost2010Prop28
280
     0
102
RTVSPost2010PropOp28
 70
     0
102
RTVSPost2010Prop29
280
     1
102
RTVSPost2010PropOp29
 70
     0
102
RTVSPost2010Prop30
280
     1
102
RTVSPost2010PropOp30
 70
     0
102
RTVSPost2010Prop31
280
     0
102
RTVSPost2010PropOp31
 70
     0
102
RTVSPost2010Prop32
280
     0
102
RTVSPost2010PropOp32
 70
     0
102
RTVSPost2010Prop33
280
     0
102
RTVSPost2010PropOp33
 70
     0
102
RTVSPost2010Prop34
280
     0
102
RTVSPost2010PropOp34
 70
     0
102
RTVSPost2010Prop35
280
     0
102
RTVSPost2010PropOp35
 70
     0
102
RTVSPost2010Prop36
280
     0
102
RTVSPost2010PropOp36
 70
     0
102
RTVSPost2010Prop37
 90
       50
102
RTVSPost2010PropOp37
 70
     0
102
RTVSPost2010Prop38
140
0.0
102
RTVSPost2010PropOp38
 70
     0
102
RTVSPost2010Prop39
140
1.0
102
RTVSPost2010PropOp39
 70
     0
102
RTVSPost2010Prop40
 90
        0
102
RTVSPost2010PropOp40
 70
     0
102
RTVSPost2010Prop41ColorIndex
 90
       18
102
RTVSPost2010Prop41ColorRGB
 90
        0
102
RTVSPost2010PropOp41
 70
     0
102
RTVSPost2010Prop42
 90
       50
102
RTVSPost2010PropOp42
 70
     0
102
RTVSPost2010Prop43
 90
        3
102
RTVSPost2010PropOp43
 70
     0
102
RTVSPost2010Prop44ColorIndex
 90
        5
102
RTVSPost2010Prop44ColorRGB
 90
      255
102
RTVSPost2010PropOp44
 70
     0
102
RTVSPost2010Prop45
280
     0
102
RTVSPost2010PropOp45
 70
     0
102
RTVSPost2010Prop46
 90
       50
102
RTVSPost2010PropOp46
 70
     0
102
RTVSPost2010Prop47
 90
       50
102
RTVSPost2010PropOp47
 70
     0
102
RTVSPost2010Prop48
 90
       50
102
RTVSPost2010PropOp48
 70
     0
102
RTVSPost2010Prop49
280
     0
102
RTVSPost2010PropOp49
 70
     0
102
RTVSPost2010Prop50
 90
       50
102
RTVSPost2010PropOp50
 70
     0
102
RTVSPost2010Prop51ColorIndex
 90
      256
102
RTVSPost2010Prop51ColorRGB
 90
-16777216
102
RTVSPost2010PropOp51
 70
     0
102
RTVSPost2010Prop52
140
1.0
102
RTVSPost2010PropOp52
 70
     0
102
RTVSPost2010Prop53
 90
        2
102
RTVSPost2010PropOp53
 70
     0
102
RTVSPost2010Prop54
  1
strokes_ogs.tif
102
RTVSPost2010PropOp54
 70
     0
102
RTVSPost2010Prop55
280
     0
102
RTVSPost2010PropOp55
 70
     0
102
RTVSPost2010Prop56
140
1.0
102
RTVSPost2010PropOp56
 70
     0
102
RTVSPost2010Prop57
140
1.0
102
RTVSPost2010PropOp57
 70
     0
  0
XRECORD
  5
12A
102
{ACAD_REACTORS
330
129
102
}
330
129
100
AcDbXrecord
280
     1
102
RTVSPost2010Prop28
280
     0
102
RTVSPost2010PropOp28
 70
     1
102
RTVSPost2010Prop29
280
     1
102
RTVSPost2010PropOp29
 70
     1
102
RTVSPost2010Prop30
280
     1
102
RTVSPost2010PropOp30
 70
     1
102
RTVSPost2010Prop31
280
     0
102
RTVSPost2010PropOp31
 70
     1
102
RTVSPost2010Prop32
280
     0
102
RTVSPost2010PropOp32
 70
     1
102
RTVSPost2010Prop33
280
     0
102
RTVSPost2010PropOp33
 70
     1
102
RTVSPost2010Prop34
280
     0
102
RTVSPost2010PropOp34
 70
     1
102
RTVSPost2010Prop35
280
     0
102
RTVSPost2010PropOp35
 70
     1
102
RTVSPost2010Prop36
280
     0
102
RTVSPost2010PropOp36
 70
     1
102
RTVSPost2010Prop37
 90
       50
102
RTVSPost2010PropOp37
 70
     1
102
RTVSPost2010Prop38
140
0.0
102
RTVSPost2010PropOp38
 70
     1
102
RTVSPost2010Prop39
140
1.0
102
RTVSPost2010PropOp39
 70
     1
102
RTVSPost2010Prop40
 90
        0
102
RTVSPost2010PropOp40
 70
     1
102
RTVSPost2010Prop41ColorIndex
 90
       18
102
RTVSPost2010Prop41ColorRGB
 90
        0
102
RTVSPost2010PropOp41
 70
     1
102
RTVSPost2010Prop42
 90
       50
102
RTVSPost2010PropOp42
 70
     1
102
RTVSPost2010Prop43
 90
        3
102
RTVSPost2010PropOp43
 70
     1
102
RTVSPost2010Prop44ColorIndex
 90
        5
102
RTVSPost2010Prop44ColorRGB
 90
      255
102
RTVSPost2010PropOp44
 70
     1
102
RTVSPost2010Prop45
280
     0
102
RTVSPost2010PropOp45
 70
     1
102
RTVSPost2010Prop46
 90
       50
102
RTVSPost2010PropOp46
 70
     1
102
RTVSPost2010Prop47
 90
       50
102
RTVSPost2010PropOp47
 70
     1
102
RTVSPost2010Prop48
 90
       50
102
RTVSPost2010PropOp48
 70
     1
102
RTVSPost2010Prop49
280
     0
102
RTVSPost2010PropOp49
 70
     1
102
RTVSPost2010Prop50
 90
       50
102
RTVSPost2010PropOp50
 70
     1
102
RTVSPost2010Prop51ColorIndex
 90
      256
102
RTVSPost2010Prop51ColorRGB
 90
-16777216
102
RTVSPost2010PropOp51
 70
     0
102
RTVSPost2010Prop52
140
1.0
102
RTVSPost2010PropOp52
 70
     0
102
RTVSPost2010Prop53
 90
        2
102
RTVSPost2010PropOp53
 70
     1
102
RTVSPost2010Prop54
  1
strokes_ogs.tif
102
RTVSPost2010PropOp54
 70
     1
102
RTVSPost2010Prop55
280
     0
102
RTVSPost2010PropOp55
 70
     1
102
RTVSPost2010Prop56
140
1.0
102
RTVSPost2010PropOp56
 70
     1
102
RTVSPost2010Prop57
140
1.0
102
RTVSPost2010PropOp57
 70
     1
  0
XRECORD
  5
10E
102
{ACAD_REACTORS
330
10D
102
}
330
10D
100
AcDbXrecord
280
     1
102
RTVSPost2010Prop28
280
     0
102
RTVSPost2010PropOp28
 70
     1
102
RTVSPost2010Prop29
280
     1
102
RTVSPost2010PropOp29
 70
     1
102
RTVSPost2010Prop30
280
     1
102
RTVSPost2010PropOp30
 70
     1
102
RTVSPost2010Prop31
280
     0
102
RTVSPost2010PropOp31
 70
     1
102
RTVSPost2010Prop32
280
     0
102
RTVSPost2010PropOp32
 70
     1
102
RTVSPost2010Prop33
280
     0
102
RTVSPost2010PropOp33
 70
     1
102
RTVSPost2010Prop34
280
     0
102
RTVSPost2010PropOp34
 70
     1
102
RTVSPost2010Prop35
280
     0
102
RTVSPost2010PropOp35
 70
     1
102
RTVSPost2010Prop36
280
     0
102
RTVSPost2010PropOp36
 70
     1
102
RTVSPost2010Prop37
 90
       50
102
RTVSPost2010PropOp37
 70
     1
102
RTVSPost2010Prop38
140
0.0
102
RTVSPost2010PropOp38
 70
     1
102
RTVSPost2010Prop39
140
1.0
102
RTVSPost2010PropOp39
 70
     1
102
RTVSPost2010Prop40
 90
        0
102
RTVSPost2010PropOp40
 70
     1
102
RTVSPost2010Prop41ColorIndex
 90
       18
102
RTVSPost2010Prop41ColorRGB
 90
        0
102
RTVSPost2010PropOp41
 70
     1
102
RTVSPost2010Prop42
 90
       50
102
RTVSPost2010PropOp42
 70
     1
102
RTVSPost2010Prop43
 90
        3
102
RTVSPost2010PropOp43
 70
     1
102
RTVSPost2010Prop44ColorIndex
 90
        5
102
RTVSPost2010Prop44ColorRGB
 90
      255
102
RTVSPost2010PropOp44
 70
     1
102
RTVSPost2010Prop45
280
     0
102
RTVSPost2010PropOp45
 70
     1
102
RTVSPost2010Prop46
 90
       50
102
RTVSPost2010PropOp46
 70
     1
102
RTVSPost2010Prop47
 90
       50
102
RTVSPost2010PropOp47
 70
     1
102
RTVSPost2010Prop48
 90
       50
102
RTVSPost2010PropOp48
 70
     1
102
RTVSPost2010Prop49
280
     0
102
RTVSPost2010PropOp49
 70
     1
102
RTVSPost2010Prop50
 90
       50
102
RTVSPost2010PropOp50
 70
     1
102
RTVSPost2010Prop51ColorIndex
 90
      256
102
RTVSPost2010Prop51ColorRGB
 90
-16777216
102
RTVSPost2010PropOp51
 70
     0
102
RTVSPost2010Prop52
140
1.0
102
RTVSPost2010PropOp52
 70
     0
102
RTVSPost2010Prop53
 90
        2
102
RTVSPost2010PropOp53
 70
     1
102
RTVSPost2010Prop54
  1
strokes_ogs.tif
102
RTVSPost2010PropOp54
 70
     1
102
RTVSPost2010Prop55
280
     0
102
RTVSPost2010PropOp55
 70
     1
102
RTVSPost2010Prop56
140
1.0
102
RTVSPost2010PropOp56
 70
     1
102
RTVSPost2010Prop57
140
1.0
102
RTVSPost2010PropOp57
 70
     1
  0
XRECORD
  5
110
102
{ACAD_REACTORS
330
10F
102
}
330
10F
100
AcDbXrecord
280
     1
102
RTVSPost2010Prop28
280
     0
102
RTVSPost2010PropOp28
 70
     1
102
RTVSPost2010Prop29
280
     1
102
RTVSPost2010PropOp29
 70
     1
102
RTVSPost2010Prop30
280
     1
102
RTVSPost2010PropOp30
 70
     1
102
RTVSPost2010Prop31
280
     0
102
RTVSPost2010PropOp31
 70
     1
102
RTVSPost2010Prop32
280
     0
102
RTVSPost2010PropOp32
 70
     1
102
RTVSPost2010Prop33
280
     0
102
RTVSPost2010PropOp33
 70
     1
102
RTVSPost2010Prop34
280
     0
102
RTVSPost2010PropOp34
 70
     1
102
RTVSPost2010Prop35
280
     0
102
RTVSPost2010PropOp35
 70
     1
102
RTVSPost2010Prop36
280
     0
102
RTVSPost2010PropOp36
 70
     1
102
RTVSPost2010Prop37
 90
       50
102
RTVSPost2010PropOp37
 70
     1
102
RTVSPost2010Prop38
140
0.0
102
RTVSPost2010PropOp38
 70
     1
102
RTVSPost2010Prop39
140
1.0
102
RTVSPost2010PropOp39
 70
     1
102
RTVSPost2010Prop40
 90
        0
102
RTVSPost2010PropOp40
 70
     1
102
RTVSPost2010Prop41ColorIndex
 90
       18
102
RTVSPost2010Prop41ColorRGB
 90
        0
102
RTVSPost2010PropOp41
 70
     1
102
RTVSPost2010Prop42
 90
       50
102
RTVSPost2010PropOp42
 70
     1
102
RTVSPost2010Prop43
 90
        3
102
RTVSPost2010PropOp43
 70
     1
102
RTVSPost2010Prop44ColorIndex
 90
        5
102
RTVSPost2010Prop44ColorRGB
 90
      255
102
RTVSPost2010PropOp44
 70
     1
102
RTVSPost2010Prop45
280
     0
102
RTVSPost2010PropOp45
 70
     1
102
RTVSPost2010Prop46
 90
       50
102
RTVSPost2010PropOp46
 70
     1
102
RTVSPost2010Prop47
 90
       50
102
RTVSPost2010PropOp47
 70
     1
102
RTVSPost2010Prop48
 90
       50
102
RTVSPost2010PropOp48
 70
     1
102
RTVSPost2010Prop49
280
     0
102
RTVSPost2010PropOp49
 70
     1
102
RTVSPost2010Prop50
 90
       50
102
RTVSPost2010PropOp50
 70
     1
102
RTVSPost2010Prop51ColorIndex
 90
      256
102
RTVSPost2010Prop51ColorRGB
 90
-16777216
102
RTVSPost2010PropOp51
 70
     0
102
RTVSPost2010Prop52
140
1.0
102
RTVSPost2010PropOp52
 70
     0
102
RTVSPost2010Prop53
 90
        2
102
RTVSPost2010PropOp53
 70
     1
102
RTVSPost2010Prop54
  1
strokes_ogs.tif
102
RTVSPost2010PropOp54
 70
     1
102
RTVSPost2010Prop55
280
     0
102
RTVSPost2010PropOp55
 70
     1
102
RTVSPost2010Prop56
140
1.0
102
RTVSPost2010PropOp56
 70
     1
102
RTVSPost2010Prop57
140
1.0
102
RTVSPost2010PropOp57
 70
     1
  0
XRECORD
  5
112
102
{ACAD_REACTORS
330
111
102
}
330
111
100
AcDbXrecord
280
     1
102
RTVSPost2010Prop28
280
     0
102
RTVSPost2010PropOp28
 70
     1
102
RTVSPost2010Prop29
280
     1
102
RTVSPost2010PropOp29
 70
     1
102
RTVSPost2010Prop30
280
     1
102
RTVSPost2010PropOp30
 70
     1
102
RTVSPost2010Prop31
280
     0
102
RTVSPost2010PropOp31
 70
     1
102
RTVSPost2010Prop32
280
     0
102
RTVSPost2010PropOp32
 70
     1
102
RTVSPost2010Prop33
280
     0
102
RTVSPost2010PropOp33
 70
     1
102
RTVSPost2010Prop34
280
     0
102
RTVSPost2010PropOp34
 70
     1
102
RTVSPost2010Prop35
280
     0
102
RTVSPost2010PropOp35
 70
     1
102
RTVSPost2010Prop36
280
     0
102
RTVSPost2010PropOp36
 70
     1
102
RTVSPost2010Prop37
 90
       50
102
RTVSPost2010PropOp37
 70
     1
102
RTVSPost2010Prop38
140
0.0
102
RTVSPost2010PropOp38
 70
     1
102
RTVSPost2010Prop39
140
1.0
102
RTVSPost2010PropOp39
 70
     1
102
RTVSPost2010Prop40
 90
        0
102
RTVSPost2010PropOp40
 70
     1
102
RTVSPost2010Prop41ColorIndex
 90
       18
102
RTVSPost2010Prop41ColorRGB
 90
        0
102
RTVSPost2010PropOp41
 70
     1
102
RTVSPost2010Prop42
 90
       50
102
RTVSPost2010PropOp42
 70
     1
102
RTVSPost2010Prop43
 90
        3
102
RTVSPost2010PropOp43
 70
     1
102
RTVSPost2010Prop44ColorIndex
 90
        5
102
RTVSPost2010Prop44ColorRGB
 90
      255
102
RTVSPost2010PropOp44
 70
     1
102
RTVSPost2010Prop45
280
     0
102
RTVSPost2010PropOp45
 70
     1
102
RTVSPost2010Prop46
 90
       50
102
RTVSPost2010PropOp46
 70
     1
102
RTVSPost2010Prop47
 90
       50
102
RTVSPost2010PropOp47
 70
     1
102
RTVSPost2010Prop48
 90
       50
102
RTVSPost2010PropOp48
 70
     1
102
RTVSPost2010Prop49
280
     0
102
RTVSPost2010PropOp49
 70
     1
102
RTVSPost2010Prop50
 90
       50
102
RTVSPost2010PropOp50
 70
     1
102
RTVSPost2010Prop51ColorIndex
 90
      256
102
RTVSPost2010Prop51ColorRGB
 90
-16777216
102
RTVSPost2010PropOp51
 70
     0
102
RTVSPost2010Prop52
140
1.0
102
RTVSPost2010PropOp52
 70
     0
102
RTVSPost2010Prop53
 90
        2
102
RTVSPost2010PropOp53
 70
     1
102
RTVSPost2010Prop54
  1
strokes_ogs.tif
102
RTVSPost2010PropOp54
 70
     1
102
RTVSPost2010Prop55
280
     0
102
RTVSPost2010PropOp55
 70
     1
102
RTVSPost2010Prop56
140
1.0
102
RTVSPost2010PropOp56
 70
     1
102
RTVSPost2010Prop57
140
1.0
102
RTVSPost2010PropOp57
 70
     1
  0
XRECORD
  5
114
102
{ACAD_REACTORS
330
113
102
}
330
113
100
AcDbXrecord
280
     1
102
RTVSPost2010Prop28
280
     0
102
RTVSPost2010PropOp28
 70
     1
102
RTVSPost2010Prop29
280
     1
102
RTVSPost2010PropOp29
 70
     1
102
RTVSPost2010Prop30
280
     1
102
RTVSPost2010PropOp30
 70
     1
102
RTVSPost2010Prop31
280
     0
102
RTVSPost2010PropOp31
 70
     1
102
RTVSPost2010Prop32
280
     0
102
RTVSPost2010PropOp32
 70
     1
102
RTVSPost2010Prop33
280
     0
102
RTVSPost2010PropOp33
 70
     1
102
RTVSPost2010Prop34
280
     0
102
RTVSPost2010PropOp34
 70
     1
102
RTVSPost2010Prop35
280
     0
102
RTVSPost2010PropOp35
 70
     1
102
RTVSPost2010Prop36
280
     0
102
RTVSPost2010PropOp36
 70
     1
102
RTVSPost2010Prop37
 90
       50
102
RTVSPost2010PropOp37
 70
     1
102
RTVSPost2010Prop38
140
0.0
102
RTVSPost2010PropOp38
 70
     1
102
RTVSPost2010Prop39
140
1.0
102
RTVSPost2010PropOp39
 70
     1
102
RTVSPost2010Prop40
 90
        0
102
RTVSPost2010PropOp40
 70
     1
102
RTVSPost2010Prop41ColorIndex
 90
       18
102
RTVSPost2010Prop41ColorRGB
 90
        0
102
RTVSPost2010PropOp41
 70
     1
102
RTVSPost2010Prop42
 90
       50
102
RTVSPost2010PropOp42
 70
     1
102
RTVSPost2010Prop43
 90
        3
102
RTVSPost2010PropOp43
 70
     1
102
RTVSPost2010Prop44ColorIndex
 90
        5
102
RTVSPost2010Prop44ColorRGB
 90
      255
102
RTVSPost2010PropOp44
 70
     1
102
RTVSPost2010Prop45
280
     0
102
RTVSPost2010PropOp45
 70
     1
102
RTVSPost2010Prop46
 90
       50
102
RTVSPost2010PropOp46
 70
     1
102
RTVSPost2010Prop47
 90
       50
102
RTVSPost2010PropOp47
 70
     1
102
RTVSPost2010Prop48
 90
       50
102
RTVSPost2010PropOp48
 70
     1
102
RTVSPost2010Prop49
280
     0
102
RTVSPost2010PropOp49
 70
     1
102
RTVSPost2010Prop50
 90
       50
102
RTVSPost2010PropOp50
 70
     1
102
RTVSPost2010Prop51ColorIndex
 90
      256
102
RTVSPost2010Prop51ColorRGB
 90
-16777216
102
RTVSPost2010PropOp51
 70
     0
102
RTVSPost2010Prop52
140
1.0
102
RTVSPost2010PropOp52
 70
     0
102
RTVSPost2010Prop53
 90
        2
102
RTVSPost2010PropOp53
 70
     1
102
RTVSPost2010Prop54
  1
strokes_ogs.tif
102
RTVSPost2010PropOp54
 70
     1
102
RTVSPost2010Prop55
280
     0
102
RTVSPost2010PropOp55
 70
     1
102
RTVSPost2010Prop56
140
1.0
102
RTVSPost2010PropOp56
 70
     1
102
RTVSPost2010Prop57
140
1.0
102
RTVSPost2010PropOp57
 70
     1
  0
XRECORD
  5
11C
102
{ACAD_REACTORS
330
11B
102
}
330
11B
100
AcDbXrecord
280
     1
102
RTVSPost2010Prop28
280
     0
102
RTVSPost2010PropOp28
 70
     1
102
RTVSPost2010Prop29
280
     1
102
RTVSPost2010PropOp29
 70
     1
102
RTVSPost2010Prop30
280
     1
102
RTVSPost2010PropOp30
 70
     1
102
RTVSPost2010Prop31
280
     0
102
RTVSPost2010PropOp31
 70
     1
102
RTVSPost2010Prop32
280
     0
102
RTVSPost2010PropOp32
 70
     1
102
RTVSPost2010Prop33
280
     0
102
RTVSPost2010PropOp33
 70
     1
102
RTVSPost2010Prop34
280
     0
102
RTVSPost2010PropOp34
 70
     1
102
RTVSPost2010Prop35
280
     0
102
RTVSPost2010PropOp35
 70
     1
102
RTVSPost2010Prop36
280
     0
102
RTVSPost2010PropOp36
 70
     1
102
RTVSPost2010Prop37
 90
       50
102
RTVSPost2010PropOp37
 70
     1
102
RTVSPost2010Prop38
140
0.0
102
RTVSPost2010PropOp38
 70
     1
102
RTVSPost2010Prop39
140
1.0
102
RTVSPost2010PropOp39
 70
     1
102
RTVSPost2010Prop40
 90
        0
102
RTVSPost2010PropOp40
 70
     1
102
RTVSPost2010Prop41ColorIndex
 90
       18
102
RTVSPost2010Prop41ColorRGB
 90
        0
102
RTVSPost2010PropOp41
 70
     1
102
RTVSPost2010Prop42
 90
       50
102
RTVSPost2010PropOp42
 70
     1
102
RTVSPost2010Prop43
 90
        3
102
RTVSPost2010PropOp43
 70
     1
102
RTVSPost2010Prop44ColorIndex
 90
        5
102
RTVSPost2010Prop44ColorRGB
 90
      255
102
RTVSPost2010PropOp44
 70
     1
102
RTVSPost2010Prop45
280
     0
102
RTVSPost2010PropOp45
 70
     1
102
RTVSPost2010Prop46
 90
       50
102
RTVSPost2010PropOp46
 70
     1
102
RTVSPost2010Prop47
 90
       50
102
RTVSPost2010PropOp47
 70
     1
102
RTVSPost2010Prop48
 90
       50
102
RTVSPost2010PropOp48
 70
     1
102
RTVSPost2010Prop49
280
     0
102
RTVSPost2010PropOp49
 70
     1
102
RTVSPost2010Prop50
 90
       50
102
RTVSPost2010PropOp50
 70
     1
102
RTVSPost2010Prop51ColorIndex
 90
      256
102
RTVSPost2010Prop51ColorRGB
 90
-16777216
102
RTVSPost2010PropOp51
 70
     0
102
RTVSPost2010Prop52
140
1.0
102
RTVSPost2010PropOp52
 70
     0
102
RTVSPost2010Prop53
 90
        2
102
RTVSPost2010PropOp53
 70
     1
102
RTVSPost2010Prop54
  1
strokes_ogs.tif
102
RTVSPost2010PropOp54
 70
     1
102
RTVSPost2010Prop55
280
     0
102
RTVSPost2010PropOp55
 70
     1
102
RTVSPost2010Prop56
140
1.0
102
RTVSPost2010PropOp56
 70
     1
102
RTVSPost2010Prop57
140
1.0
102
RTVSPost2010PropOp57
 70
     1
  0
XRECORD
  5
138
102
{ACAD_REACTORS
330
137
102
}
330
137
100
AcDbXrecord
280
     1
102
RTVSPost2010Prop28
280
     0
102
RTVSPost2010PropOp28
 70
     0
102
RTVSPost2010Prop29
280
     1
102
RTVSPost2010PropOp29
 70
     0
102
RTVSPost2010Prop30
280
     1
102
RTVSPost2010PropOp30
 70
     0
102
RTVSPost2010Prop31
280
     0
102
RTVSPost2010PropOp31
 70
     0
102
RTVSPost2010Prop32
280
     0
102
RTVSPost2010PropOp32
 70
     0
102
RTVSPost2010Prop33
280
     0
102
RTVSPost2010PropOp33
 70
     0
102
RTVSPost2010Prop34
280
     0
102
RTVSPost2010PropOp34
 70
     0
102
RTVSPost2010Prop35
280
     0
102
RTVSPost2010PropOp35
 70
     0
102
RTVSPost2010Prop36
280
     0
102
RTVSPost2010PropOp36
 70
     0
102
RTVSPost2010Prop37
 90
       50
102
RTVSPost2010PropOp37
 70
     0
102
RTVSPost2010Prop38
140
0.0
102
RTVSPost2010PropOp38
 70
     0
102
RTVSPost2010Prop39
140
1.0
102
RTVSPost2010PropOp39
 70
     0
102
RTVSPost2010Prop40
 90
        0
102
RTVSPost2010PropOp40
 70
     0
102
RTVSPost2010Prop41ColorIndex
 90
       18
102
RTVSPost2010Prop41ColorRGB
 90
        0
102
RTVSPost2010PropOp41
 70
     0
102
RTVSPost2010Prop42
 90
       50
102
RTVSPost2010PropOp42
 70
     0
102
RTVSPost2010Prop43
 90
        3
102
RTVSPost2010PropOp43
 70
     0
102
RTVSPost2010Prop44ColorIndex
 90
        5
102
RTVSPost2010Prop44ColorRGB
 90
      255
102
RTVSPost2010PropOp44
 70
     0
102
RTVSPost2010Prop45
280
     0
102
RTVSPost2010PropOp45
 70
     0
102
RTVSPost2010Prop46
 90
       50
102
RTVSPost2010PropOp46
 70
     0
102
RTVSPost2010Prop47
 90
       50
102
RTVSPost2010PropOp47
 70
     0
102
RTVSPost2010Prop48
 90
       50
102
RTVSPost2010PropOp48
 70
     0
102
RTVSPost2010Prop49
280
     0
102
RTVSPost2010PropOp49
 70
     0
102
RTVSPost2010Prop50
 90
       50
102
RTVSPost2010PropOp50
 70
     0
102
RTVSPost2010Prop51ColorIndex
 90
      256
102
RTVSPost2010Prop51ColorRGB
 90
-16777216
102
RTVSPost2010PropOp51
 70
     0
102
RTVSPost2010Prop52
140
1.0
102
RTVSPost2010PropOp52
 70
     0
102
RTVSPost2010Prop53
 90
        2
102
RTVSPost2010PropOp53
 70
     0
102
RTVSPost2010Prop54
  1
strokes_ogs.tif
102
RTVSPost2010PropOp54
 70
     0
102
RTVSPost2010Prop55
280
     0
102
RTVSPost2010PropOp55
 70
     0
102
RTVSPost2010Prop56
140
1.0
102
RTVSPost2010PropOp56
 70
     0
102
RTVSPost2010Prop57
140
1.0
102
RTVSPost2010PropOp57
 70
     0
  0
XRECORD
  5
128
102
{ACAD_REACTORS
330
127
102
}
330
127
100
AcDbXrecord
280
     1
102
RTVSPost2010Prop28
280
     0
102
RTVSPost2010PropOp28
 70
     1
102
RTVSPost2010Prop29
280
     1
102
RTVSPost2010PropOp29
 70
     1
102
RTVSPost2010Prop30
280
     1
102
RTVSPost2010PropOp30
 70
     1
102
RTVSPost2010Prop31
280
     0
102
RTVSPost2010PropOp31
 70
     1
102
RTVSPost2010Prop32
280
     0
102
RTVSPost2010PropOp32
 70
     1
102
RTVSPost2010Prop33
280
     0
102
RTVSPost2010PropOp33
 70
     1
102
RTVSPost2010Prop34
280
     0
102
RTVSPost2010PropOp34
 70
     1
102
RTVSPost2010Prop35
280
     0
102
RTVSPost2010PropOp35
 70
     1
102
RTVSPost2010Prop36
280
     0
102
RTVSPost2010PropOp36
 70
     1
102
RTVSPost2010Prop37
 90
       50
102
RTVSPost2010PropOp37
 70
     1
102
RTVSPost2010Prop38
140
0.0
102
RTVSPost2010PropOp38
 70
     1
102
RTVSPost2010Prop39
140
1.0
102
RTVSPost2010PropOp39
 70
     1
102
RTVSPost2010Prop40
 90
        0
102
RTVSPost2010PropOp40
 70
     1
102
RTVSPost2010Prop41ColorIndex
 90
       18
102
RTVSPost2010Prop41ColorRGB
 90
        0
102
RTVSPost2010PropOp41
 70
     1
102
RTVSPost2010Prop42
 90
       50
102
RTVSPost2010PropOp42
 70
     1
102
RTVSPost2010Prop43
 90
        3
102
RTVSPost2010PropOp43
 70
     1
102
RTVSPost2010Prop44ColorIndex
 90
        5
102
RTVSPost2010Prop44ColorRGB
 90
      255
102
RTVSPost2010PropOp44
 70
     1
102
RTVSPost2010Prop45
280
     0
102
RTVSPost2010PropOp45
 70
     1
102
RTVSPost2010Prop46
 90
       50
102
RTVSPost2010PropOp46
 70
     1
102
RTVSPost2010Prop47
 90
       50
102
RTVSPost2010PropOp47
 70
     1
102
RTVSPost2010Prop48
 90
       50
102
RTVSPost2010PropOp48
 70
     1
102
RTVSPost2010Prop49
280
     0
102
RTVSPost2010PropOp49
 70
     1
102
RTVSPost2010Prop50
 90
       50
102
RTVSPost2010PropOp50
 70
     1
102
RTVSPost2010Prop51ColorIndex
 90
      256
102
RTVSPost2010Prop51ColorRGB
 90
-16777216
102
RTVSPost2010PropOp51
 70
     0
102
RTVSPost2010Prop52
140
1.0
102
RTVSPost2010PropOp52
 70
     0
102
RTVSPost2010Prop53
 90
        2
102
RTVSPost2010PropOp53
 70
     1
102
RTVSPost2010Prop54
  1
strokes_ogs.tif
102
RTVSPost2010PropOp54
 70
     1
102
RTVSPost2010Prop55
280
     0
102
RTVSPost2010PropOp55
 70
     1
102
RTVSPost2010Prop56
140
1.0
102
RTVSPost2010PropOp56
 70
     1
102
RTVSPost2010Prop57
140
1.0
102
RTVSPost2010PropOp57
 70
     1
  0
XRECORD
  5
13A
102
{ACAD_REACTORS
330
139
102
}
330
139
100
AcDbXrecord
280
     1
102
RTVSPost2010Prop28
280
     0
102
RTVSPost2010PropOp28
 70
     0
102
RTVSPost2010Prop29
280
     1
102
RTVSPost2010PropOp29
 70
     0
102
RTVSPost2010Prop30
280
     1
102
RTVSPost2010PropOp30
 70
     0
102
RTVSPost2010Prop31
280
     0
102
RTVSPost2010PropOp31
 70
     0
102
RTVSPost2010Prop32
280
     0
102
RTVSPost2010PropOp32
 70
     0
102
RTVSPost2010Prop33
280
     0
102
RTVSPost2010PropOp33
 70
     0
102
RTVSPost2010Prop34
280
     0
102
RTVSPost2010PropOp34
 70
     0
102
RTVSPost2010Prop35
280
     0
102
RTVSPost2010PropOp35
 70
     0
102
RTVSPost2010Prop36
280
     0
102
RTVSPost2010PropOp36
 70
     0
102
RTVSPost2010Prop37
 90
       50
102
RTVSPost2010PropOp37
 70
     0
102
RTVSPost2010Prop38
140
0.0
102
RTVSPost2010PropOp38
 70
     0
102
RTVSPost2010Prop39
140
1.0
102
RTVSPost2010PropOp39
 70
     0
102
RTVSPost2010Prop40
 90
        0
102
RTVSPost2010PropOp40
 70
     0
102
RTVSPost2010Prop41ColorIndex
 90
       18
102
RTVSPost2010Prop41ColorRGB
 90
        0
102
RTVSPost2010PropOp41
 70
     0
102
RTVSPost2010Prop42
 90
       50
102
RTVSPost2010PropOp42
 70
     0
102
RTVSPost2010Prop43
 90
        3
102
RTVSPost2010PropOp43
 70
     0
102
RTVSPost2010Prop44ColorIndex
 90
        5
102
RTVSPost2010Prop44ColorRGB
 90
      255
102
RTVSPost2010PropOp44
 70
     0
102
RTVSPost2010Prop45
280
     0
102
RTVSPost2010PropOp45
 70
     0
102
RTVSPost2010Prop46
 90
       50
102
RTVSPost2010PropOp46
 70
     0
102
RTVSPost2010Prop47
 90
       50
102
RTVSPost2010PropOp47
 70
     0
102
RTVSPost2010Prop48
 90
       50
102
RTVSPost2010PropOp48
 70
     0
102
RTVSPost2010Prop49
280
     0
102
RTVSPost2010PropOp49
 70
     0
102
RTVSPost2010Prop50
 90
       50
102
RTVSPost2010PropOp50
 70
     0
102
RTVSPost2010Prop51ColorIndex
 90
      256
102
RTVSPost2010Prop51ColorRGB
 90
-16777216
102
RTVSPost2010PropOp51
 70
     0
102
RTVSPost2010Prop52
140
1.0
102
RTVSPost2010PropOp52
 70
     0
102
RTVSPost2010Prop53
 90
        2
102
RTVSPost2010PropOp53
 70
     0
102
RTVSPost2010Prop54
  1
strokes_ogs.tif
102
RTVSPost2010PropOp54
 70
     0
102
RTVSPost2010Prop55
280
     0
102
RTVSPost2010PropOp55
 70
     0
102
RTVSPost2010Prop56
140
1.0
102
RTVSPost2010PropOp56
 70
     0
102
RTVSPost2010Prop57
140
1.0
102
RTVSPost2010PropOp57
 70
     0
  0
XRECORD
  5
120
102
{ACAD_REACTORS
330
11F
102
}
330
11F
100
AcDbXrecord
280
     1
102
RTVSPost2010Prop28
280
     0
102
RTVSPost2010PropOp28
 70
     1
102
RTVSPost2010Prop29
280
     1
102
RTVSPost2010PropOp29
 70
     1
102
RTVSPost2010Prop30
280
     1
102
RTVSPost2010PropOp30
 70
     1
102
RTVSPost2010Prop31
280
     0
102
RTVSPost2010PropOp31
 70
     1
102
RTVSPost2010Prop32
280
     0
102
RTVSPost2010PropOp32
 70
     1
102
RTVSPost2010Prop33
280
     0
102
RTVSPost2010PropOp33
 70
     1
102
RTVSPost2010Prop34
280
     0
102
RTVSPost2010PropOp34
 70
     1
102
RTVSPost2010Prop35
280
     0
102
RTVSPost2010PropOp35
 70
     1
102
RTVSPost2010Prop36
280
     0
102
RTVSPost2010PropOp36
 70
     1
102
RTVSPost2010Prop37
 90
       50
102
RTVSPost2010PropOp37
 70
     1
102
RTVSPost2010Prop38
140
0.0
102
RTVSPost2010PropOp38
 70
     1
102
RTVSPost2010Prop39
140
1.0
102
RTVSPost2010PropOp39
 70
     1
102
RTVSPost2010Prop40
 90
        0
102
RTVSPost2010PropOp40
 70
     1
102
RTVSPost2010Prop41ColorIndex
 90
       18
102
RTVSPost2010Prop41ColorRGB
 90
        0
102
RTVSPost2010PropOp41
 70
     1
102
RTVSPost2010Prop42
 90
       50
102
RTVSPost2010PropOp42
 70
     1
102
RTVSPost2010Prop43
 90
        3
102
RTVSPost2010PropOp43
 70
     1
102
RTVSPost2010Prop44ColorIndex
 90
        5
102
RTVSPost2010Prop44ColorRGB
 90
      255
102
RTVSPost2010PropOp44
 70
     1
102
RTVSPost2010Prop45
280
     0
102
RTVSPost2010PropOp45
 70
     1
102
RTVSPost2010Prop46
 90
       50
102
RTVSPost2010PropOp46
 70
     1
102
RTVSPost2010Prop47
 90
       50
102
RTVSPost2010PropOp47
 70
     1
102
RTVSPost2010Prop48
 90
       50
102
RTVSPost2010PropOp48
 70
     1
102
RTVSPost2010Prop49
280
     0
102
RTVSPost2010PropOp49
 70
     1
102
RTVSPost2010Prop50
 90
       50
102
RTVSPost2010PropOp50
 70
     1
102
RTVSPost2010Prop51ColorIndex
 90
      256
102
RTVSPost2010Prop51ColorRGB
 90
-16777216
102
RTVSPost2010PropOp51
 70
     0
102
RTVSPost2010Prop52
140
1.0
102
RTVSPost2010PropOp52
 70
     0
102
RTVSPost2010Prop53
 90
        2
102
RTVSPost2010PropOp53
 70
     1
102
RTVSPost2010Prop54
  1
strokes_ogs.tif
102
RTVSPost2010PropOp54
 70
     1
102
RTVSPost2010Prop55
280
     0
102
RTVSPost2010PropOp55
 70
     1
102
RTVSPost2010Prop56
140
1.0
102
RTVSPost2010PropOp56
 70
     1
102
RTVSPost2010Prop57
140
1.0
102
RTVSPost2010PropOp57
 70
     1
  0
XRECORD
  5
136
102
{ACAD_REACTORS
330
135
102
}
330
135
100
AcDbXrecord
280
     1
102
RTVSPost2010Prop28
280
     0
102
RTVSPost2010PropOp28
 70
     1
102
RTVSPost2010Prop29
280
     1
102
RTVSPost2010PropOp29
 70
     1
102
RTVSPost2010Prop30
280
     1
102
RTVSPost2010PropOp30
 70
     1
102
RTVSPost2010Prop31
280
     0
102
RTVSPost2010PropOp31
 70
     1
102
RTVSPost2010Prop32
280
     0
102
RTVSPost2010PropOp32
 70
     1
102
RTVSPost2010Prop33
280
     0
102
RTVSPost2010PropOp33
 70
     1
102
RTVSPost2010Prop34
280
     0
102
RTVSPost2010PropOp34
 70
     1
102
RTVSPost2010Prop35
280
     0
102
RTVSPost2010PropOp35
 70
     1
102
RTVSPost2010Prop36
280
     0
102
RTVSPost2010PropOp36
 70
     1
102
RTVSPost2010Prop37
 90
       50
102
RTVSPost2010PropOp37
 70
     1
102
RTVSPost2010Prop38
140
0.0
102
RTVSPost2010PropOp38
 70
     1
102
RTVSPost2010Prop39
140
1.0
102
RTVSPost2010PropOp39
 70
     1
102
RTVSPost2010Prop40
 90
        0
102
RTVSPost2010PropOp40
 70
     1
102
RTVSPost2010Prop41ColorIndex
 90
       18
102
RTVSPost2010Prop41ColorRGB
 90
        0
102
RTVSPost2010PropOp41
 70
     1
102
RTVSPost2010Prop42
 90
       50
102
RTVSPost2010PropOp42
 70
     1
102
RTVSPost2010Prop43
 90
        3
102
RTVSPost2010PropOp43
 70
     1
102
RTVSPost2010Prop44ColorIndex
 90
        5
102
RTVSPost2010Prop44ColorRGB
 90
      255
102
RTVSPost2010PropOp44
 70
     1
102
RTVSPost2010Prop45
280
     0
102
RTVSPost2010PropOp45
 70
     1
102
RTVSPost2010Prop46
 90
       50
102
RTVSPost2010PropOp46
 70
     1
102
RTVSPost2010Prop47
 90
       50
102
RTVSPost2010PropOp47
 70
     1
102
RTVSPost2010Prop48
 90
       50
102
RTVSPost2010PropOp48
 70
     1
102
RTVSPost2010Prop49
280
     0
102
RTVSPost2010PropOp49
 70
     1
102
RTVSPost2010Prop50
 90
       50
102
RTVSPost2010PropOp50
 70
     1
102
RTVSPost2010Prop51ColorIndex
 90
      256
102
RTVSPost2010Prop51ColorRGB
 90
-16777216
102
RTVSPost2010PropOp51
 70
     0
102
RTVSPost2010Prop52
140
1.0
102
RTVSPost2010PropOp52
 70
     0
102
RTVSPost2010Prop53
 90
        2
102
RTVSPost2010PropOp53
 70
     1
102
RTVSPost2010Prop54
  1
strokes_ogs.tif
102
RTVSPost2010PropOp54
 70
     1
102
RTVSPost2010Prop55
280
     0
102
RTVSPost2010PropOp55
 70
     1
102
RTVSPost2010Prop56
140
1.0
102
RTVSPost2010PropOp56
 70
     1
102
RTVSPost2010Prop57
140
1.0
102
RTVSPost2010PropOp57
 70
     1
  0
XRECORD
  5
134
102
{ACAD_REACTORS
330
133
102
}
330
133
100
AcDbXrecord
280
     1
102
RTVSPost2010Prop28
280
     0
102
RTVSPost2010PropOp28
 70
     1
102
RTVSPost2010Prop29
280
     1
102
RTVSPost2010PropOp29
 70
     1
102
RTVSPost2010Prop30
280
     1
102
RTVSPost2010PropOp30
 70
     1
102
RTVSPost2010Prop31
280
     0
102
RTVSPost2010PropOp31
 70
     1
102
RTVSPost2010Prop32
280
     0
102
RTVSPost2010PropOp32
 70
     1
102
RTVSPost2010Prop33
280
     0
102
RTVSPost2010PropOp33
 70
     1
102
RTVSPost2010Prop34
280
     0
102
RTVSPost2010PropOp34
 70
     1
102
RTVSPost2010Prop35
280
     0
102
RTVSPost2010PropOp35
 70
     1
102
RTVSPost2010Prop36
280
     0
102
RTVSPost2010PropOp36
 70
     1
102
RTVSPost2010Prop37
 90
       50
102
RTVSPost2010PropOp37
 70
     1
102
RTVSPost2010Prop38
140
0.0
102
RTVSPost2010PropOp38
 70
     1
102
RTVSPost2010Prop39
140
1.0
102
RTVSPost2010PropOp39
 70
     1
102
RTVSPost2010Prop40
 90
        0
102
RTVSPost2010PropOp40
 70
     1
102
RTVSPost2010Prop41ColorIndex
 90
       18
102
RTVSPost2010Prop41ColorRGB
 90
        0
102
RTVSPost2010PropOp41
 70
     1
102
RTVSPost2010Prop42
 90
       50
102
RTVSPost2010PropOp42
 70
     1
102
RTVSPost2010Prop43
 90
        3
102
RTVSPost2010PropOp43
 70
     1
102
RTVSPost2010Prop44ColorIndex
 90
        5
102
RTVSPost2010Prop44ColorRGB
 90
      255
102
RTVSPost2010PropOp44
 70
     1
102
RTVSPost2010Prop45
280
     0
102
RTVSPost2010PropOp45
 70
     1
102
RTVSPost2010Prop46
 90
       50
102
RTVSPost2010PropOp46
 70
     1
102
RTVSPost2010Prop47
 90
       50
102
RTVSPost2010PropOp47
 70
     1
102
RTVSPost2010Prop48
 90
       50
102
RTVSPost2010PropOp48
 70
     1
102
RTVSPost2010Prop49
280
     0
102
RTVSPost2010PropOp49
 70
     1
102
RTVSPost2010Prop50
 90
       50
102
RTVSPost2010PropOp50
 70
     1
102
RTVSPost2010Prop51ColorIndex
 90
      256
102
RTVSPost2010Prop51ColorRGB
 90
-16777216
102
RTVSPost2010PropOp51
 70
     0
102
RTVSPost2010Prop52
140
1.0
102
RTVSPost2010PropOp52
 70
     0
102
RTVSPost2010Prop53
 90
        2
102
RTVSPost2010PropOp53
 70
     1
102
RTVSPost2010Prop54
  1
strokes_ogs.tif
102
RTVSPost2010PropOp54
 70
     1
102
RTVSPost2010Prop55
280
     0
102
RTVSPost2010PropOp55
 70
     1
102
RTVSPost2010Prop56
140
1.0
102
RTVSPost2010PropOp56
 70
     1
102
RTVSPost2010Prop57
140
1.0
102
RTVSPost2010PropOp57
 70
     1
  0
XRECORD
  5
12E
102
{ACAD_REACTORS
330
12D
102
}
330
12D
100
AcDbXrecord
280
     1
102
RTVSPost2010Prop28
280
     0
102
RTVSPost2010PropOp28
 70
     1
102
RTVSPost2010Prop29
280
     1
102
RTVSPost2010PropOp29
 70
     1
102
RTVSPost2010Prop30
280
     1
102
RTVSPost2010PropOp30
 70
     1
102
RTVSPost2010Prop31
280
     0
102
RTVSPost2010PropOp31
 70
     1
102
RTVSPost2010Prop32
280
     0
102
RTVSPost2010PropOp32
 70
     1
102
RTVSPost2010Prop33
280
     0
102
RTVSPost2010PropOp33
 70
     1
102
RTVSPost2010Prop34
280
     0
102
RTVSPost2010PropOp34
 70
     1
102
RTVSPost2010Prop35
280
     0
102
RTVSPost2010PropOp35
 70
     1
102
RTVSPost2010Prop36
280
     0
102
RTVSPost2010PropOp36
 70
     1
102
RTVSPost2010Prop37
 90
       50
102
RTVSPost2010PropOp37
 70
     1
102
RTVSPost2010Prop38
140
0.0
102
RTVSPost2010PropOp38
 70
     1
102
RTVSPost2010Prop39
140
1.0
102
RTVSPost2010PropOp39
 70
     1
102
RTVSPost2010Prop40
 90
        0
102
RTVSPost2010PropOp40
 70
     1
102
RTVSPost2010Prop41ColorIndex
 90
       18
102
RTVSPost2010Prop41ColorRGB
 90
        0
102
RTVSPost2010PropOp41
 70
     1
102
RTVSPost2010Prop42
 90
       50
102
RTVSPost2010PropOp42
 70
     1
102
RTVSPost2010Prop43
 90
        3
102
RTVSPost2010PropOp43
 70
     1
102
RTVSPost2010Prop44ColorIndex
 90
        5
102
RTVSPost2010Prop44ColorRGB
 90
      255
102
RTVSPost2010PropOp44
 70
     1
102
RTVSPost2010Prop45
280
     0
102
RTVSPost2010PropOp45
 70
     1
102
RTVSPost2010Prop46
 90
       50
102
RTVSPost2010PropOp46
 70
     1
102
RTVSPost2010Prop47
 90
       50
102
RTVSPost2010PropOp47
 70
     1
102
RTVSPost2010Prop48
 90
       50
102
RTVSPost2010PropOp48
 70
     1
102
RTVSPost2010Prop49
280
     0
102
RTVSPost2010PropOp49
 70
     1
102
RTVSPost2010Prop50
 90
       50
102
RTVSPost2010PropOp50
 70
     1
102
RTVSPost2010Prop51ColorIndex
 90
      256
102
RTVSPost2010Prop51ColorRGB
 90
-16777216
102
RTVSPost2010PropOp51
 70
     0
102
RTVSPost2010Prop52
140
1.0
102
RTVSPost2010PropOp52
 70
     0
102
RTVSPost2010Prop53
 90
        2
102
RTVSPost2010PropOp53
 70
     1
102
RTVSPost2010Prop54
  1
strokes_ogs.tif
102
RTVSPost2010PropOp54
 70
     1
102
RTVSPost2010Prop55
280
     0
102
RTVSPost2010PropOp55
 70
     1
102
RTVSPost2010Prop56
140
1.0
102
RTVSPost2010PropOp56
 70
     1
102
RTVSPost2010Prop57
140
1.0
102
RTVSPost2010PropOp57
 70
     1
  0
XRECORD
  5
130
102
{ACAD_REACTORS
330
12F
102
}
330
12F
100
AcDbXrecord
280
     1
102
RTVSPost2010Prop28
280
     0
102
RTVSPost2010PropOp28
 70
     1
102
RTVSPost2010Prop29
280
     1
102
RTVSPost2010PropOp29
 70
     1
102
RTVSPost2010Prop30
280
     1
102
RTVSPost2010PropOp30
 70
     1
102
RTVSPost2010Prop31
280
     0
102
RTVSPost2010PropOp31
 70
     1
102
RTVSPost2010Prop32
280
     0
102
RTVSPost2010PropOp32
 70
     1
102
RTVSPost2010Prop33
280
     0
102
RTVSPost2010PropOp33
 70
     1
102
RTVSPost2010Prop34
280
     0
102
RTVSPost2010PropOp34
 70
     1
102
RTVSPost2010Prop35
280
     0
102
RTVSPost2010PropOp35
 70
     1
102
RTVSPost2010Prop36
280
     0
102
RTVSPost2010PropOp36
 70
     1
102
RTVSPost2010Prop37
 90
       50
102
RTVSPost2010PropOp37
 70
     1
102
RTVSPost2010Prop38
140
0.0
102
RTVSPost2010PropOp38
 70
     1
102
RTVSPost2010Prop39
140
1.0
102
RTVSPost2010PropOp39
 70
     1
102
RTVSPost2010Prop40
 90
        0
102
RTVSPost2010PropOp40
 70
     1
102
RTVSPost2010Prop41ColorIndex
 90
       18
102
RTVSPost2010Prop41ColorRGB
 90
        0
102
RTVSPost2010PropOp41
 70
     1
102
RTVSPost2010Prop42
 90
       50
102
RTVSPost2010PropOp42
 70
     1
102
RTVSPost2010Prop43
 90
        3
102
RTVSPost2010PropOp43
 70
     1
102
RTVSPost2010Prop44ColorIndex
 90
        5
102
RTVSPost2010Prop44ColorRGB
 90
      255
102
RTVSPost2010PropOp44
 70
     1
102
RTVSPost2010Prop45
280
     0
102
RTVSPost2010PropOp45
 70
     1
102
RTVSPost2010Prop46
 90
       50
102
RTVSPost2010PropOp46
 70
     1
102
RTVSPost2010Prop47
 90
       50
102
RTVSPost2010PropOp47
 70
     1
102
RTVSPost2010Prop48
 90
       50
102
RTVSPost2010PropOp48
 70
     1
102
RTVSPost2010Prop49
280
     0
102
RTVSPost2010PropOp49
 70
     1
102
RTVSPost2010Prop50
 90
       50
102
RTVSPost2010PropOp50
 70
     1
102
RTVSPost2010Prop51ColorIndex
 90
      256
102
RTVSPost2010Prop51ColorRGB
 90
-16777216
102
RTVSPost2010PropOp51
 70
     0
102
RTVSPost2010Prop52
140
1.0
102
RTVSPost2010PropOp52
 70
     0
102
RTVSPost2010Prop53
 90
        2
102
RTVSPost2010PropOp53
 70
     1
102
RTVSPost2010Prop54
  1
strokes_ogs.tif
102
RTVSPost2010PropOp54
 70
     1
102
RTVSPost2010Prop55
280
     0
102
RTVSPost2010PropOp55
 70
     1
102
RTVSPost2010Prop56
140
1.0
102
RTVSPost2010PropOp56
 70
     1
102
RTVSPost2010Prop57
140
1.0
102
RTVSPost2010PropOp57
 70
     1
  0
XRECORD
  5
126
102
{ACAD_REACTORS
330
125
102
}
330
125
100
AcDbXrecord
280
     1
102
RTVSPost2010Prop28
280
     0
102
RTVSPost2010PropOp28
 70
     1
102
RTVSPost2010Prop29
280
     1
102
RTVSPost2010PropOp29
 70
     1
102
RTVSPost2010Prop30
280
     1
102
RTVSPost2010PropOp30
 70
     1
102
RTVSPost2010Prop31
280
     0
102
RTVSPost2010PropOp31
 70
     1
102
RTVSPost2010Prop32
280
     0
102
RTVSPost2010PropOp32
 70
     1
102
RTVSPost2010Prop33
280
     0
102
RTVSPost2010PropOp33
 70
     1
102
RTVSPost2010Prop34
280
     0
102
RTVSPost2010PropOp34
 70
     1
102
RTVSPost2010Prop35
280
     0
102
RTVSPost2010PropOp35
 70
     1
102
RTVSPost2010Prop36
280
     0
102
RTVSPost2010PropOp36
 70
     1
102
RTVSPost2010Prop37
 90
       50
102
RTVSPost2010PropOp37
 70
     1
102
RTVSPost2010Prop38
140
0.0
102
RTVSPost2010PropOp38
 70
     1
102
RTVSPost2010Prop39
140
1.0
102
RTVSPost2010PropOp39
 70
     1
102
RTVSPost2010Prop40
 90
        0
102
RTVSPost2010PropOp40
 70
     1
102
RTVSPost2010Prop41ColorIndex
 90
       18
102
RTVSPost2010Prop41ColorRGB
 90
        0
102
RTVSPost2010PropOp41
 70
     1
102
RTVSPost2010Prop42
 90
       50
102
RTVSPost2010PropOp42
 70
     1
102
RTVSPost2010Prop43
 90
        3
102
RTVSPost2010PropOp43
 70
     1
102
RTVSPost2010Prop44ColorIndex
 90
        5
102
RTVSPost2010Prop44ColorRGB
 90
      255
102
RTVSPost2010PropOp44
 70
     1
102
RTVSPost2010Prop45
280
     0
102
RTVSPost2010PropOp45
 70
     1
102
RTVSPost2010Prop46
 90
       50
102
RTVSPost2010PropOp46
 70
     1
102
RTVSPost2010Prop47
 90
       50
102
RTVSPost2010PropOp47
 70
     1
102
RTVSPost2010Prop48
 90
       50
102
RTVSPost2010PropOp48
 70
     1
102
RTVSPost2010Prop49
280
     0
102
RTVSPost2010PropOp49
 70
     1
102
RTVSPost2010Prop50
 90
       50
102
RTVSPost2010PropOp50
 70
     1
102
RTVSPost2010Prop51ColorIndex
 90
      256
102
RTVSPost2010Prop51ColorRGB
 90
-16777216
102
RTVSPost2010PropOp51
 70
     0
102
RTVSPost2010Prop52
140
1.0
102
RTVSPost2010PropOp52
 70
     0
102
RTVSPost2010Prop53
 90
        2
102
RTVSPost2010PropOp53
 70
     1
102
RTVSPost2010Prop54
  1
strokes_ogs.tif
102
RTVSPost2010PropOp54
 70
     1
102
RTVSPost2010Prop55
280
     0
102
RTVSPost2010PropOp55
 70
     1
102
RTVSPost2010Prop56
140
1.0
102
RTVSPost2010PropOp56
 70
     1
102
RTVSPost2010Prop57
140
1.0
102
RTVSPost2010PropOp57
 70
     1
  0
XRECORD
  5
11A
102
{ACAD_REACTORS
330
119
102
}
330
119
100
AcDbXrecord
280
     1
102
RTVSPost2010Prop28
280
     0
102
RTVSPost2010PropOp28
 70
     1
102
RTVSPost2010Prop29
280
     1
102
RTVSPost2010PropOp29
 70
     1
102
RTVSPost2010Prop30
280
     1
102
RTVSPost2010PropOp30
 70
     1
102
RTVSPost2010Prop31
280
     0
102
RTVSPost2010PropOp31
 70
     1
102
RTVSPost2010Prop32
280
     0
102
RTVSPost2010PropOp32
 70
     1
102
RTVSPost2010Prop33
280
     0
102
RTVSPost2010PropOp33
 70
     1
102
RTVSPost2010Prop34
280
     0
102
RTVSPost2010PropOp34
 70
     1
102
RTVSPost2010Prop35
280
     0
102
RTVSPost2010PropOp35
 70
     1
102
RTVSPost2010Prop36
280
     0
102
RTVSPost2010PropOp36
 70
     1
102
RTVSPost2010Prop37
 90
       50
102
RTVSPost2010PropOp37
 70
     1
102
RTVSPost2010Prop38
140
0.0
102
RTVSPost2010PropOp38
 70
     1
102
RTVSPost2010Prop39
140
1.0
102
RTVSPost2010PropOp39
 70
     1
102
RTVSPost2010Prop40
 90
        0
102
RTVSPost2010PropOp40
 70
     1
102
RTVSPost2010Prop41ColorIndex
 90
       18
102
RTVSPost2010Prop41ColorRGB
 90
        0
102
RTVSPost2010PropOp41
 70
     1
102
RTVSPost2010Prop42
 90
       50
102
RTVSPost2010PropOp42
 70
     1
102
RTVSPost2010Prop43
 90
        3
102
RTVSPost2010PropOp43
 70
     1
102
RTVSPost2010Prop44ColorIndex
 90
        5
102
RTVSPost2010Prop44ColorRGB
 90
      255
102
RTVSPost2010PropOp44
 70
     1
102
RTVSPost2010Prop45
280
     0
102
RTVSPost2010PropOp45
 70
     1
102
RTVSPost2010Prop46
 90
       50
102
RTVSPost2010PropOp46
 70
     1
102
RTVSPost2010Prop47
 90
       50
102
RTVSPost2010PropOp47
 70
     1
102
RTVSPost2010Prop48
 90
       50
102
RTVSPost2010PropOp48
 70
     1
102
RTVSPost2010Prop49
280
     0
102
RTVSPost2010PropOp49
 70
     1
102
RTVSPost2010Prop50
 90
       50
102
RTVSPost2010PropOp50
 70
     1
102
RTVSPost2010Prop51ColorIndex
 90
      256
102
RTVSPost2010Prop51ColorRGB
 90
-16777216
102
RTVSPost2010PropOp51
 70
     0
102
RTVSPost2010Prop52
140
1.0
102
RTVSPost2010PropOp52
 70
     0
102
RTVSPost2010Prop53
 90
        2
102
RTVSPost2010PropOp53
 70
     1
102
RTVSPost2010Prop54
  1
strokes_ogs.tif
102
RTVSPost2010PropOp54
 70
     1
102
RTVSPost2010Prop55
280
     0
102
RTVSPost2010PropOp55
 70
     1
102
RTVSPost2010Prop56
140
1.0
102
RTVSPost2010PropOp56
 70
     1
102
RTVSPost2010Prop57
140
1.0
102
RTVSPost2010PropOp57
 70
     1
  0
XRECORD
  5
132
102
{ACAD_REACTORS
330
131
102
}
330
131
100
AcDbXrecord
280
     1
102
RTVSPost2010Prop28
280
     0
102
RTVSPost2010PropOp28
 70
     1
102
RTVSPost2010Prop29
280
     1
102
RTVSPost2010PropOp29
 70
     1
102
RTVSPost2010Prop30
280
     1
102
RTVSPost2010PropOp30
 70
     1
102
RTVSPost2010Prop31
280
     0
102
RTVSPost2010PropOp31
 70
     1
102
RTVSPost2010Prop32
280
     0
102
RTVSPost2010PropOp32
 70
     1
102
RTVSPost2010Prop33
280
     0
102
RTVSPost2010PropOp33
 70
     1
102
RTVSPost2010Prop34
280
     0
102
RTVSPost2010PropOp34
 70
     1
102
RTVSPost2010Prop35
280
     0
102
RTVSPost2010PropOp35
 70
     1
102
RTVSPost2010Prop36
280
     0
102
RTVSPost2010PropOp36
 70
     1
102
RTVSPost2010Prop37
 90
       50
102
RTVSPost2010PropOp37
 70
     1
102
RTVSPost2010Prop38
140
0.0
102
RTVSPost2010PropOp38
 70
     1
102
RTVSPost2010Prop39
140
1.0
102
RTVSPost2010PropOp39
 70
     1
102
RTVSPost2010Prop40
 90
        0
102
RTVSPost2010PropOp40
 70
     1
102
RTVSPost2010Prop41ColorIndex
 90
       18
102
RTVSPost2010Prop41ColorRGB
 90
        0
102
RTVSPost2010PropOp41
 70
     1
102
RTVSPost2010Prop42
 90
       50
102
RTVSPost2010PropOp42
 70
     1
102
RTVSPost2010Prop43
 90
        3
102
RTVSPost2010PropOp43
 70
     1
102
RTVSPost2010Prop44ColorIndex
 90
        5
102
RTVSPost2010Prop44ColorRGB
 90
      255
102
RTVSPost2010PropOp44
 70
     1
102
RTVSPost2010Prop45
280
     0
102
RTVSPost2010PropOp45
 70
     1
102
RTVSPost2010Prop46
 90
       50
102
RTVSPost2010PropOp46
 70
     1
102
RTVSPost2010Prop47
 90
       50
102
RTVSPost2010PropOp47
 70
     1
102
RTVSPost2010Prop48
 90
       50
102
RTVSPost2010PropOp48
 70
     1
102
RTVSPost2010Prop49
280
     0
102
RTVSPost2010PropOp49
 70
     1
102
RTVSPost2010Prop50
 90
       50
102
RTVSPost2010PropOp50
 70
     1
102
RTVSPost2010Prop51ColorIndex
 90
      256
102
RTVSPost2010Prop51ColorRGB
 90
-16777216
102
RTVSPost2010PropOp51
 70
     0
102
RTVSPost2010Prop52
140
1.0
102
RTVSPost2010PropOp52
 70
     0
102
RTVSPost2010Prop53
 90
        2
102
RTVSPost2010PropOp53
 70
     1
102
RTVSPost2010Prop54
  1
strokes_ogs.tif
102
RTVSPost2010PropOp54
 70
     1
102
RTVSPost2010Prop55
280
     0
102
RTVSPost2010PropOp55
 70
     1
102
RTVSPost2010Prop56
140
1.0
102
RTVSPost2010PropOp56
 70
     1
102
RTVSPost2010Prop57
140
1.0
102
RTVSPost2010PropOp57
 70
     1
  0
ENDSEC
  0
EOF
